  0
SECTION
  2
HEADER
  9
$ACADVER
  1
AC1032
  9
$ACADMAINTVER
 90
      228
  9
$DWGCODEPAGE
  3
ANSI_932
  9
$REQUIREDVERSIONS
160
                 0
  9
$INSBASE
 10
0.0
 20
0.0
 30
0.0
  9
$EXTMIN
 10
1.000000000000000E+20
 20
1.000000000000000E+20
 30
1.000000000000000E+20
  9
$EXTMAX
 10
-1.000000000000000E+20
 20
-1.000000000000000E+20
 30
-1.000000000000000E+20
  9
$LIMMIN
 10
0.0
 20
0.0
  9
$LIMMAX
 10
12.0
 20
9.0
  9
$ORTHOMODE
 70
     0
  9
$REGENMODE
 70
     1
  9
$FILLMODE
 70
     1
  9
$QTEXTMODE
 70
     0
  9
$MIRRTEXT
 70
     0
  9
$LTSCALE
 40
1.0
  9
$ATTMODE
 70
     1
  9
$TEXTSIZE
 40
0.2
  9
$TRACEWID
 40
0.05
  9
$TEXTSTYLE
  7
Standard
  9
$CLAYER
  8
0
  9
$CELTYPE
  6
ByLayer
  9
$CECOLOR
 62
   256
  9
$CELTSCALE
 40
1.0
  9
$DISPSILH
 70
     0
  9
$DIMSCALE
 40
1.0
  9
$DIMASZ
 40
0.18
  9
$DIMEXO
 40
0.0625
  9
$DIMDLI
 40
0.38
  9
$DIMRND
 40
0.0
  9
$DIMDLE
 40
0.0
  9
$DIMEXE
 40
0.18
  9
$DIMTP
 40
0.0
  9
$DIMTM
 40
0.0
  9
$DIMTXT
 40
0.18
  9
$DIMCEN
 40
0.09
  9
$DIMTSZ
 40
0.0
  9
$DIMTOL
 70
     0
  9
$DIMLIM
 70
     0
  9
$DIMTIH
 70
     1
  9
$DIMTOH
 70
     1
  9
$DIMSE1
 70
     0
  9
$DIMSE2
 70
     0
  9
$DIMTAD
 70
     0
  9
$DIMZIN
 70
     0
  9
$DIMBLK
  1

  9
$DIMASO
 70
     1
  9
$DIMSHO
 70
     1
  9
$DIMPOST
  1

  9
$DIMAPOST
  1

  9
$DIMALT
 70
     0
  9
$DIMALTD
 70
     2
  9
$DIMALTF
 40
25.4
  9
$DIMLFAC
 40
1.0
  9
$DIMTOFL
 70
     0
  9
$DIMTVP
 40
0.0
  9
$DIMTIX
 70
     0
  9
$DIMSOXD
 70
     0
  9
$DIMSAH
 70
     0
  9
$DIMBLK1
  1

  9
$DIMBLK2
  1

  9
$DIMSTYLE
  2
Standard
  9
$DIMCLRD
 70
     0
  9
$DIMCLRE
 70
     0
  9
$DIMCLRT
 70
     0
  9
$DIMTFAC
 40
1.0
  9
$DIMGAP
 40
0.09
  9
$DIMJUST
 70
     0
  9
$DIMSD1
 70
     0
  9
$DIMSD2
 70
     0
  9
$DIMTOLJ
 70
     1
  9
$DIMTZIN
 70
     0
  9
$DIMALTZ
 70
     0
  9
$DIMALTTZ
 70
     0
  9
$DIMUPT
 70
     0
  9
$DIMDEC
 70
     4
  9
$DIMTDEC
 70
     4
  9
$DIMALTU
 70
     2
  9
$DIMALTTD
 70
     2
  9
$DIMTXSTY
  7
Standard
  9
$DIMAUNIT
 70
     0
  9
$DIMADEC
 70
     0
  9
$DIMALTRND
 40
0.0
  9
$DIMAZIN
 70
     0
  9
$DIMDSEP
 70
    46
  9
$DIMATFIT
 70
     3
  9
$DIMFRAC
 70
     0
  9
$DIMLDRBLK
  1

  9
$DIMLUNIT
 70
     2
  9
$DIMLWD
 70
    -2
  9
$DIMLWE
 70
    -2
  9
$DIMTMOVE
 70
     0
  9
$DIMFXL
 40
1.0
  9
$DIMFXLON
 70
     0
  9
$DIMJOGANG
 40
0.7853981633974483
  9
$DIMTFILL
 70
     0
  9
$DIMTFILLCLR
 70
     0
  9
$DIMARCSYM
 70
     0
  9
$DIMLTYPE
  6

  9
$DIMLTEX1
  6

  9
$DIMLTEX2
  6

  9
$DIMTXTDIRECTION
 70
     0
  9
$LUNITS
 70
     2
  9
$LUPREC
 70
     4
  9
$SKETCHINC
 40
0.1
  9
$FILLETRAD
 40
0.0
  9
$AUNITS
 70
     0
  9
$AUPREC
 70
     0
  9
$MENU
  1
.
  9
$ELEVATION
 40
0.0
  9
$PELEVATION
 40
0.0
  9
$THICKNESS
 40
0.0
  9
$LIMCHECK
 70
     0
  9
$CHAMFERA
 40
0.0
  9
$CHAMFERB
 40
0.0
  9
$CHAMFERC
 40
0.0
  9
$CHAMFERD
 40
0.0
  9
$SKPOLY
 70
     0
  9
$TDCREATE
 40
2460062.669456019
  9
$TDUCREATE
 40
2460062.294456019
  9
$TDUPDATE
 40
2460062.669456019
  9
$TDUUPDATE
 40
2460062.294456019
  9
$TDINDWG
 40
0.0000000000
  9
$TDUSRTIMER
 40
0.0000000000
  9
$USRTIMER
 70
     1
  9
$ANGBASE
 50
0.0
  9
$ANGDIR
 70
     0
  9
$PDMODE
 70
     0
  9
$PDSIZE
 40
0.0
  9
$PLINEWID
 40
0.0
  9
$SPLFRAME
 70
     0
  9
$SPLINETYPE
 70
     6
  9
$SPLINESEGS
 70
     8
  9
$HANDSEED
  5
169
  9
$SURFTAB1
 70
     6
  9
$SURFTAB2
 70
     6
  9
$SURFTYPE
 70
     6
  9
$SURFU
 70
     6
  9
$SURFV
 70
     6
  9
$UCSBASE
  2

  9
$UCSNAME
  2

  9
$UCSORG
 10
0.0
 20
0.0
 30
0.0
  9
$UCSXDIR
 10
1.0
 20
0.0
 30
0.0
  9
$UCSYDIR
 10
0.0
 20
1.0
 30
0.0
  9
$UCSORTHOREF
  2

  9
$UCSORTHOVIEW
 70
     0
  9
$UCSORGTOP
 10
0.0
 20
0.0
 30
0.0
  9
$UCSORGBOTTOM
 10
0.0
 20
0.0
 30
0.0
  9
$UCSORGLEFT
 10
0.0
 20
0.0
 30
0.0
  9
$UCSORGRIGHT
 10
0.0
 20
0.0
 30
0.0
  9
$UCSORGFRONT
 10
0.0
 20
0.0
 30
0.0
  9
$UCSORGBACK
 10
0.0
 20
0.0
 30
0.0
  9
$PUCSBASE
  2

  9
$PUCSNAME
  2

  9
$PUCSORG
 10
0.0
 20
0.0
 30
0.0
  9
$PUCSXDIR
 10
1.0
 20
0.0
 30
0.0
  9
$PUCSYDIR
 10
0.0
 20
1.0
 30
0.0
  9
$PUCSORTHOREF
  2

  9
$PUCSORTHOVIEW
 70
     0
  9
$PUCSORGTOP
 10
0.0
 20
0.0
 30
0.0
  9
$PUCSORGBOTTOM
 10
0.0
 20
0.0
 30
0.0
  9
$PUCSORGLEFT
 10
0.0
 20
0.0
 30
0.0
  9
$PUCSORGRIGHT
 10
0.0
 20
0.0
 30
0.0
  9
$PUCSORGFRONT
 10
0.0
 20
0.0
 30
0.0
  9
$PUCSORGBACK
 10
0.0
 20
0.0
 30
0.0
  9
$USERI1
 70
     0
  9
$USERI2
 70
     0
  9
$USERI3
 70
     0
  9
$USERI4
 70
     0
  9
$USERI5
 70
     0
  9
$USERR1
 40
0.0
  9
$USERR2
 40
0.0
  9
$USERR3
 40
0.0
  9
$USERR4
 40
0.0
  9
$USERR5
 40
0.0
  9
$WORLDVIEW
 70
     1
  9
$SHADEDGE
 70
     3
  9
$SHADEDIF
 70
    70
  9
$TILEMODE
 70
     1
  9
$MAXACTVP
 70
    64
  9
$PINSBASE
 10
0.0
 20
0.0
 30
0.0
  9
$PLIMCHECK
 70
     0
  9
$PEXTMIN
 10
1.000000000000000E+20
 20
1.000000000000000E+20
 30
1.000000000000000E+20
  9
$PEXTMAX
 10
-1.000000000000000E+20
 20
-1.000000000000000E+20
 30
-1.000000000000000E+20
  9
$PLIMMIN
 10
0.0
 20
0.0
  9
$PLIMMAX
 10
12.0
 20
9.0
  9
$UNITMODE
 70
     0
  9
$VISRETAIN
 70
     1
  9
$PLINEGEN
 70
     0
  9
$PSLTSCALE
 70
     1
  9
$TREEDEPTH
 70
  3020
  9
$CMLSTYLE
  2
Standard
  9
$CMLJUST
 70
     0
  9
$CMLSCALE
 40
1.0
  9
$PROXYGRAPHICS
 70
     1
  9
$MEASUREMENT
 70
     0
  9
$CELWEIGHT
370
    -1
  9
$ENDCAPS
280
     0
  9
$JOINSTYLE
280
     0
  9
$LWDISPLAY
290
     1
  9
$INSUNITS
 70
     4
  9
$HYPERLINKBASE
  1

  9
$STYLESHEET
  1

  9
$XEDIT
290
     1
  9
$CEPSNTYPE
380
     0
  9
$PSTYLEMODE
290
     1
  9
$FINGERPRINTGUID
  2
{5F20DDEB-C042-294D-8814-891E313F7C9E}
  9
$VERSIONGUID
  2
{42F78755-E175-3B40-8909-186FA4561024}
  9
$EXTNAMES
290
     1
  9
$PSVPSCALE
 40
0.0
  9
$OLESTARTUP
290
     0
  9
$SORTENTS
280
   127
  9
$INDEXCTL
280
     0
  9
$HIDETEXT
280
     1
  9
$XCLIPFRAME
280
     2
  9
$HALOGAP
280
     0
  9
$OBSCOLOR
 70
   257
  9
$OBSLTYPE
280
     0
  9
$INTERSECTIONDISPLAY
280
     0
  9
$INTERSECTIONCOLOR
 70
   257
  9
$DIMASSOC
280
     2
  9
$PROJECTNAME
  1

  9
$CAMERADISPLAY
290
     0
  9
$LENSLENGTH
 40
50.0
  9
$CAMERAHEIGHT
 40
0.0
  9
$STEPSPERSEC
 40
2.0
  9
$STEPSIZE
 40
6.0
  9
$3DDWFPREC
 40
2.0
  9
$PSOLWIDTH
 40
0.25
  9
$PSOLHEIGHT
 40
4.0
  9
$LOFTANG1
 40
1.570796326794896
  9
$LOFTANG2
 40
1.570796326794896
  9
$LOFTMAG1
 40
0.0
  9
$LOFTMAG2
 40
0.0
  9
$LOFTPARAM
 70
     7
  9
$LOFTNORMALS
280
     1
  9
$LATITUDE
 40
37.795
  9
$LONGITUDE
 40
-122.394
  9
$NORTHDIRECTION
 40
0.0
  9
$TIMEZONE
 70
 -8000
  9
$LIGHTGLYPHDISPLAY
280
     1
  9
$TILEMODELIGHTSYNCH
280
     1
  9
$CMATERIAL
347
11
  9
$SOLIDHIST
280
     0
  9
$SHOWHIST
280
     1
  9
$DWFFRAME
280
     2
  9
$DGNFRAME
280
     0
  9
$REALWORLDSCALE
290
     1
  9
$INTERFERECOLOR
 62
     1
  9
$INTERFEREOBJVS
345
33
  9
$INTERFEREVPVS
346
30
  9
$CSHADOW
280
     0
  9
$SHADOWPLANELOCATION
 40
0.0
  0
ENDSEC
  0
SECTION
  2
CLASSES
  0
CLASS
  1
ACDBDICTIONARYWDFLT
  2
AcDbDictionaryWithDefault
  3
ObjectDBX Classes
 90
        0
 91
        1
280
     0
281
     0
  0
CLASS
  1
MATERIAL
  2
AcDbMaterial
  3
ObjectDBX Classes
 90
     1153
 91
        3
280
     0
281
     0
  0
CLASS
  1
VISUALSTYLE
  2
AcDbVisualStyle
  3
ObjectDBX Classes
 90
     4095
 91
       24
280
     0
281
     0
  0
CLASS
  1
SCALE
  2
AcDbScale
  3
ObjectDBX Classes
 90
     1153
 91
       17
280
     0
281
     0
  0
CLASS
  1
TABLESTYLE
  2
AcDbTableStyle
  3
ObjectDBX Classes
 90
     4095
 91
        1
280
     0
281
     0
  0
CLASS
  1
MLEADERSTYLE
  2
AcDbMLeaderStyle
  3
ACDB_MLEADERSTYLE_CLASS
 90
     4095
 91
        1
280
     0
281
     0
  0
CLASS
  1
ACDBSECTIONVIEWSTYLE
  2
AcDbSectionViewStyle
  3
ObjectDBX Classes
 90
     1025
 91
        1
280
     0
281
     0
  0
CLASS
  1
ACDBDETAILVIEWSTYLE
  2
AcDbDetailViewStyle
  3
ObjectDBX Classes
 90
     1025
 91
        1
280
     0
281
     0
  0
CLASS
  1
DICTIONARYVAR
  2
AcDbDictionaryVar
  3
ObjectDBX Classes
 90
        0
 91
        5
280
     0
281
     0
  0
CLASS
  1
CELLSTYLEMAP
  2
AcDbCellStyleMap
  3
ObjectDBX Classes
 90
     1152
 91
        1
280
     0
281
     0
  0
ENDSEC
  0
SECTION
  2
TABLES
  0
TABLE
  2
VPORT
  5
8
330
0
100
AcDbSymbolTable
 70
     1
  0
VPORT
  5
57
330
8
100
AcDbSymbolTableRecord
100
AcDbViewportTableRecord
  2
*Active
 70
     0
 10
0.0
 20
0.0
 11
1.0
 21
1.0
 12
0.0
 22
0.0
 13
0.0
 23
0.0
 14
1.0
 24
1.0
 15
0.0
 25
0.0
 16
0.0
 26
0.0
 36
1.0
 17
338.7291665819999
 27
190.499999952375
 37
0.0
 40
388.619999902845
 41
1.77810586176736
 42
50.0
 43
0.0
 44
0.0
 50
0.0
 51
0.0
 71
     0
 72
   100
 73
     1
 74
     1
 75
     0
 76
     0
 77
     0
 78
     0
281
     0
 65
     1
110
0.0
120
0.0
130
0.0
111
1.0
121
0.0
131
0.0
112
0.0
122
1.0
132
0.0
 79
     0
146
0.0
 60
     3
 61
     5
292
     1
282
     1
141
0.0
142
0.0
 63
   250
421
  3355443
  0
ENDTAB
  0
TABLE
  2
LTYPE
  5
5
330
0
100
AcDbSymbolTable
 70
     1
  0
LTYPE
  5
5B
330
5
100
AcDbSymbolTableRecord
100
AcDbLinetypeTableRecord
  2
ByBlock
 70
     0
  3

 72
    65
 73
     0
 40
0.0
  0
LTYPE
  5
5C
330
5
100
AcDbSymbolTableRecord
100
AcDbLinetypeTableRecord
  2
ByLayer
 70
     0
  3

 72
    65
 73
     0
 40
0.0
  0
LTYPE
  5
5D
330
5
100
AcDbSymbolTableRecord
100
AcDbLinetypeTableRecord
  2
Continuous
 70
     0
  3
Solid line
 72
    65
 73
     0
 40
0.0
  0
ENDTAB
  0
TABLE
  2
LAYER
  5
2
330
0
100
AcDbSymbolTable
 70
     7
  0
LAYER
  5
54
330
2
100
AcDbSymbolTableRecord
100
AcDbLayerTableRecord
  2
0
 70
     0
 62
     7
  6
Continuous
370
    -3
390
F
347
21
348
0
  0
LAYER
  5
78
330
2
100
AcDbSymbolTableRecord
100
AcDbLayerTableRecord
  2
レイヤー_1
 70
     0
 62
     7
  6
Continuous
370
     0
390
F
347
21
348
0
  0
LAYER
  5
7F
330
2
100
AcDbSymbolTableRecord
100
AcDbLayerTableRecord
  2
TOUGU
 70
     0
 62
     7
  6
Continuous
370
     0
390
F
347
21
348
0
  0
LAYER
  5
82
330
2
100
AcDbSymbolTableRecord
100
AcDbLayerTableRecord
  2
FLAME
 70
     0
 62
     7
  6
Continuous
370
     0
390
F
347
21
348
0
  0
LAYER
  5
87
330
2
100
AcDbSymbolTableRecord
100
AcDbLayerTableRecord
  2
text
 70
     0
 62
     7
  6
Continuous
370
     0
390
F
347
21
348
0
  0
LAYER
  5
8B
330
2
100
AcDbSymbolTableRecord
100
AcDbLayerTableRecord
  2
Defpoints
 70
     0
 62
     7
  6
Continuous
290
     0
370
     0
390
F
347
21
348
0
  0
LAYER
  5
8D
330
2
100
AcDbSymbolTableRecord
100
AcDbLayerTableRecord
  2
shade
 70
     0
 62
     7
  6
Continuous
370
     0
390
F
347
21
348
0
  0
ENDTAB
  0
TABLE
  2
STYLE
  5
3
330
0
100
AcDbSymbolTable
 70
     2
  0
STYLE
  5
55
330
3
100
AcDbSymbolTableRecord
100
AcDbTextStyleTableRecord
  2
Standard
 70
     0
 40
0.0
 41
1.0
 50
0.0
 71
     0
 42
0.2
  3
txt
  4

  0
STYLE
  5
5A
330
3
100
AcDbSymbolTableRecord
100
AcDbTextStyleTableRecord
  2
Annotative
 70
     0
 40
0.0
 41
1.0
 50
0.0
 71
     0
 42
0.2
  3
txt
  4

1001
AcadAnnotative
1000
AnnotativeData
1002
{
1070
     1
1070
     1
1002
}
  0
ENDTAB
  0
TABLE
  2
VIEW
  5
6
330
0
100
AcDbSymbolTable
 70
     0
  0
ENDTAB
  0
TABLE
  2
UCS
  5
7
330
0
100
AcDbSymbolTable
 70
     0
  0
ENDTAB
  0
TABLE
  2
APPID
  5
9
330
0
100
AcDbSymbolTable
 70
     2
  0
APPID
  5
56
330
9
100
AcDbSymbolTableRecord
100
AcDbRegAppTableRecord
  2
ACAD
 70
     0
  0
APPID
  5
5E
330
9
100
AcDbSymbolTableRecord
100
AcDbRegAppTableRecord
  2
AcadAnnotative
 70
     0
  0
ENDTAB
  0
TABLE
  2
DIMSTYLE
  5
A
330
0
100
AcDbSymbolTable
 70
     2
100
AcDbDimStyleTable
 71
     0
  0
DIMSTYLE
105
58
330
A
100
AcDbSymbolTableRecord
100
AcDbDimStyleTableRecord
  2
Standard
 70
     0
340
55
  0
DIMSTYLE
105
59
330
A
100
AcDbSymbolTableRecord
100
AcDbDimStyleTableRecord
  2
Annotative
 70
     0
340
55
1001
AcadAnnotative
1000
AnnotativeData
1002
{
1070
     1
1070
     1
1002
}
  0
ENDTAB
  0
TABLE
  2
BLOCK_RECORD
  5
1
330
0
100
AcDbSymbolTable
 70
     1
  0
BLOCK_RECORD
  5
70
330
1
100
AcDbSymbolTableRecord
100
AcDbBlockTableRecord
  2
*Model_Space
340
73
 70
     0
280
     1
281
     0
  0
BLOCK_RECORD
  5
6C
330
1
100
AcDbSymbolTableRecord
100
AcDbBlockTableRecord
  2
*Paper_Space
340
6F
 70
     0
280
     1
281
     0
  0
BLOCK_RECORD
  5
74
330
1
100
AcDbSymbolTableRecord
100
AcDbBlockTableRecord
  2
*Paper_Space0
340
77
 70
     0
280
     1
281
     0
  0
ENDTAB
  0
ENDSEC
  0
SECTION
  2
BLOCKS
  0
BLOCK
  5
71
330
70
100
AcDbEntity
  8
0
100
AcDbBlockBegin
  2
*Model_Space
 70
     0
 10
0.0
 20
0.0
 30
0.0
  3
*Model_Space
  1

  0
ENDBLK
  5
72
330
70
100
AcDbEntity
  8
0
100
AcDbBlockEnd
  0
BLOCK
  5
6D
330
6C
100
AcDbEntity
 67
     1
  8
0
100
AcDbBlockBegin
  2
*Paper_Space
 70
     0
 10
0.0
 20
0.0
 30
0.0
  3
*Paper_Space
  1

  0
ENDBLK
  5
6E
330
6C
100
AcDbEntity
 67
     1
  8
0
100
AcDbBlockEnd
  0
BLOCK
  5
75
330
74
100
AcDbEntity
 67
     1
  8
0
100
AcDbBlockBegin
  2
*Paper_Space0
 70
     0
 10
0.0
 20
0.0
 30
0.0
  3
*Paper_Space0
  1

  0
ENDBLK
  5
76
330
74
100
AcDbEntity
 67
     1
  8
0
100
AcDbBlockEnd
  0
ENDSEC
  0
SECTION
  2
ENTITIES
  0
SPLINE
  5
79
330
70
100
AcDbEntity
  8
レイヤー_1
 62
    18
420
        0
370
     0
100
AcDbSpline
210
0.0
220
0.0
230
1.0
 70
     9
 71
     3
 72
    11
 73
     7
 74
     0
 42
0.0000000001
 43
0.0000000001
 40
0.0
 40
0.0
 40
0.0
 40
0.0
 40
1.0
 40
1.0
 40
1.0
 40
2.0
 40
2.0
 40
2.0
 40
2.0
 10
29.66217747705172
 20
305.2709343380805
 30
0.0
 10
29.66461965007392
 20
305.2703500144739
 30
0.0
 10
29.6672341236463
 20
305.2706396791676
 30
0.0
 10
29.66969627354408
 20
305.2709343380805
 30
0.0
 10
29.66969627354408
 20
305.2709343380805
 30
0.0
 10
29.66217747705172
 20
305.2709343380805
 30
0.0
 10
29.66217747705172
 20
305.2709343380805
 30
0.0
  0
SPLINE
  5
7A
330
70
100
AcDbEntity
  8
レイヤー_1
100
AcDbSpline
210
0.0
220
0.0
230
1.0
 70
     9
 71
     3
 72
    11
 73
     7
 74
     0
 42
0.0000000001
 43
0.0000000001
 40
0.0
 40
0.0
 40
0.0
 40
0.0
 40
1.0
 40
1.0
 40
1.0
 40
2.0
 40
2.0
 40
2.0
 40
2.0
 10
29.66217747705172
 20
305.2709343380802
 30
0.0
 10
29.66461965007424
 20
305.2703500144742
 30
0.0
 10
29.6672341236463
 20
305.2706396791667
 30
0.0
 10
29.6696962735444
 20
305.2709343380802
 30
0.0
 10
29.6696962735444
 20
305.2709343380802
 30
0.0
 10
29.66217747705172
 20
305.2709343380802
 30
0.0
 10
29.66217747705172
 20
305.2709343380802
 30
0.0
  0
HATCH
  5
7B
330
70
100
AcDbEntity
  8
レイヤー_1
 62
    18
420
        0
440
 33554687
100
AcDbHatch
 10
0.0
 20
0.0
 30
0.0
210
0.0
220
0.0
230
1.0
  2
SOLID
 70
     1
 71
     1
 91
        1
 92
        1
 93
        1
 72
     4
 94
        3
 73
     0
 74
     0
 95
       11
 96
        7
 40
0.0
 40
0.0
 40
0.0
 40
0.0
 40
1.0
 40
1.0
 40
1.0
 40
2.0
 40
2.0
 40
2.0
 40
2.0
 10
29.66217747705172
 20
305.2709343380802
 10
29.66461965007424
 20
305.2703500144742
 10
29.6672341236463
 20
305.2706396791667
 10
29.6696962735444
 20
305.2709343380802
 10
29.6696962735444
 20
305.2709343380802
 10
29.66217747705172
 20
305.2709343380802
 10
29.66217747705172
 20
305.2709343380802
 97
        0
 97
        1
330
7A
 75
     0
 76
     1
 98
        1
 10
0.0
 20
0.0
450
        0
451
        0
460
0.0
461
0.0
452
        0
462
0.0
453
        0
470

  0
SPLINE
  5
7C
330
70
100
AcDbEntity
  8
レイヤー_1
 62
    18
420
        0
370
     0
100
AcDbSpline
210
0.0
220
0.0
230
1.0
 70
     9
 71
     3
 72
    11
 73
     7
 74
     0
 42
0.0000000001
 43
0.0000000001
 40
0.0
 40
0.0
 40
0.0
 40
0.0
 40
1.0
 40
1.0
 40
1.0
 40
2.0
 40
2.0
 40
2.0
 40
2.0
 10
0.0000007117164259
 20
257.4835595923635
 30
0.0
 10
0.0024428847386244
 20
257.4829752687569
 30
0.0
 10
0.0050573583110073
 20
257.4832649334506
 30
0.0
 10
0.007517011099213
 20
257.4835595923635
 30
0.0
 10
0.007517011099213
 20
257.4835595923635
 30
0.0
 10
0.0000007117164259
 20
257.4835595923635
 30
0.0
 10
0.0000007117164259
 20
257.4835595923635
 30
0.0
  0
SPLINE
  5
7D
330
70
100
AcDbEntity
  8
レイヤー_1
100
AcDbSpline
210
0.0
220
0.0
230
1.0
 70
     9
 71
     3
 72
    11
 73
     7
 74
     0
 42
0.0000000001
 43
0.0000000001
 40
0.0
 40
0.0
 40
0.0
 40
0.0
 40
1.0
 40
1.0
 40
1.0
 40
2.0
 40
2.0
 40
2.0
 40
2.0
 10
0.0000007117164259
 20
257.4835595923642
 30
0.0
 10
0.0024428847386244
 20
257.4829752687579
 30
0.0
 10
0.0050573583106864
 20
257.4832649334506
 30
0.0
 10
0.007517011099213
 20
257.4835595923642
 30
0.0
 10
0.007517011099213
 20
257.4835595923642
 30
0.0
 10
0.0000007117164259
 20
257.4835595923642
 30
0.0
 10
0.0000007117164259
 20
257.4835595923642
 30
0.0
  0
HATCH
  5
7E
330
70
100
AcDbEntity
  8
レイヤー_1
 62
    18
420
        0
440
 33554687
100
AcDbHatch
 10
0.0
 20
0.0
 30
0.0
210
0.0
220
0.0
230
1.0
  2
SOLID
 70
     1
 71
     1
 91
        1
 92
        1
 93
        1
 72
     4
 94
        3
 73
     0
 74
     0
 95
       11
 96
        7
 40
0.0
 40
0.0
 40
0.0
 40
0.0
 40
1.0
 40
1.0
 40
1.0
 40
2.0
 40
2.0
 40
2.0
 40
2.0
 10
0.0000007117164259
 20
257.4835595923642
 10
0.0024428847386244
 20
257.4829752687579
 10
0.0050573583106864
 20
257.4832649334506
 10
0.007517011099213
 20
257.4835595923642
 10
0.007517011099213
 20
257.4835595923642
 10
0.0000007117164259
 20
257.4835595923642
 10
0.0000007117164259
 20
257.4835595923642
 97
        0
 97
        1
330
7D
 75
     0
 76
     1
 98
        1
 10
0.0
 20
0.0
450
        0
451
        0
460
0.0
461
0.0
452
        0
462
0.0
453
        0
470

  0
LINE
  5
80
330
70
100
AcDbEntity
  8
TOUGU
 62
     3
420
    65280
370
    25
100
AcDbLine
 10
677.188367113591
 20
76.18039412210105
 30
0.0
 11
677.3333331639999
 21
76.18039412210105
 31
0.0
  0
SPLINE
  5
81
330
70
100
AcDbEntity
  8
TOUGU
 62
     3
420
    65280
370
    25
100
AcDbSpline
210
0.0
220
0.0
230
1.0
 70
     8
 71
     3
 72
    11
 73
     7
 74
     0
 42
0.0000000001
 43
0.0000000001
 40
0.0
 40
0.0
 40
0.0
 40
0.0
 40
1.0
 40
1.0
 40
1.0
 40
2.0
 40
2.0
 40
2.0
 40
2.0
 10
597.447949356042
 20
68.35470525844177
 30
0.0
 10
597.5220072045101
 20
68.44924603207136
 30
0.0
 10
597.5054025128796
 20
68.58592222002283
 30
0.0
 10
597.4108617392494
 20
68.659980068491
 30
0.0
 10
597.3725923251822
 20
68.68995814418309
 30
0.0
 10
597.3253812383382
 20
68.70624793068266
 30
0.0
 10
597.2767681426208
 20
68.70624793068266
 30
0.0
  0
LINE
  5
83
330
70
100
AcDbEntity
  8
FLAME
 62
     2
420
 16776960
370
    25
100
AcDbLine
 10
400.3809788486169
 20
131.0059328646301
 30
0.0
 11
287.6553780507422
 21
131.0059328646301
 31
0.0
  0
LINE
  5
84
330
70
100
AcDbEntity
  8
FLAME
 62
     2
420
 16776960
370
    25
100
AcDbLine
 10
400.3809788486169
 20
137.2684662423183
 30
0.0
 11
287.6553780507422
 21
137.2684662423183
 31
0.0
  0
LINE
  5
85
330
70
100
AcDbEntity
  8
FLAME
 62
     2
420
 16776960
370
    25
100
AcDbLine
 10
400.3809788486169
 20
143.5309996200071
 30
0.0
 11
287.6553780507422
 21
143.5309996200071
 31
0.0
  0
LWPOLYLINE
  5
86
330
70
100
AcDbEntity
  8
FLAME
 62
     2
420
 16776960
370
    25
100
AcDbPolyline
 90
        4
 70
     1
 43
0.0
 10
287.6553780507422
 20
124.7433994870158
 10
400.3809788486169
 20
124.7433994870158
 10
400.3809788486169
 20
256.256600417808
 10
287.6553780507422
 20
256.256600417808
  0
MTEXT
  5
88
330
70
100
AcDbEntity
  8
text
100
AcDbMText
 10
291.7281664648826
 20
132.4289536886809
 30
0.0
 40
0.2
 41
0.0
 46
0.0
 71
     7
 72
     1
  1
\C4;\c16776960;\FMS PMincho|b0|i0|c128;\H3.496733;\W1.000000;KB324
 73
     1
 44
1.0
  0
MTEXT
  5
89
330
70
100
AcDbEntity
  8
text
100
AcDbMText
 10
291.7281664648826
 20
139.0926080991786
 30
0.0
 40
0.2
 41
0.0
 46
0.0
 71
     7
 72
     1
  1
\C4;\c16776960;\FMS PMincho|b0|i0|c128;\H3.496733;\W1.000000;ブラケット　324
 73
     1
 44
1.0
  0
MTEXT
  5
8A
330
70
100
AcDbEntity
  8
text
100
AcDbMText
 10
291.9578897382085
 20
126.9263287544826
 30
0.0
 40
0.2
 41
0.0
 46
0.0
 71
     7
 72
     1
  1
\C4;\c16776960;\FMS PMincho|b0|i0|c128;\H3.496733;\W0.867246;E26 LED電球(100W相当　電球色 全方向/広配光タイプ）
 73
     1
 44
1.0
  0
LWPOLYLINE
  5
8C
330
70
100
AcDbEntity
  8
Defpoints
 62
    18
420
        0
370
    25
100
AcDbPolyline
 90
        4
 70
     1
 43
0.0
 10
212.5049775188498
 20
4.502758635929787
 10
475.5313793804345
 20
4.502758635929787
 10
475.5313793804345
 20
376.4972412688206
 10
212.5049775188498
 20
376.4972412688206
  0
SPLINE
  5
8E
330
70
100
AcDbEntity
  8
shade
 62
     6
420
 16711935
370
    25
100
AcDbSpline
210
0.0
220
0.0
230
1.0
 70
     8
 71
     3
 72
     8
 73
     4
 74
     0
 42
0.0000000001
 43
0.0000000001
 40
0.0
 40
0.0
 40
0.0
 40
0.0
 40
1.0
 40
1.0
 40
1.0
 40
1.0
 10
367.6296185529902
 20
212.6964733167211
 30
0.0
 10
367.559432956952
 20
214.5339322202338
 30
0.0
 10
364.9493926082324
 20
214.5277774833353
 30
0.0
 10
364.8697049622636
 20
212.6964733167211
 30
0.0
  0
SPLINE
  5
8F
330
70
100
AcDbEntity
  8
shade
 62
     6
420
 16711935
370
    25
100
AcDbSpline
210
0.0
220
0.0
230
1.0
 70
     8
 71
     3
 72
     8
 73
     4
 74
     0
 42
0.0000000001
 43
0.0000000001
 40
0.0
 40
0.0
 40
0.0
 40
0.0
 40
1.0
 40
1.0
 40
1.0
 40
1.0
 10
366.289397602733
 20
207.8800137851189
 30
0.0
 10
367.5570574444515
 20
208.2829870840603
 30
0.0
 10
367.4510232055827
 20
207.3219843079538
 30
0.0
 10
368.3195969506351
 20
207.2431604847125
 30
0.0
  0
SPLINE
  5
90
330
70
100
AcDbEntity
  8
shade
 62
     6
420
 16711935
370
    25
100
AcDbSpline
210
0.0
220
0.0
230
1.0
 70
     8
 71
     3
 72
    11
 73
     7
 74
     0
 42
0.0000000001
 43
0.0000000001
 40
0.0
 40
0.0
 40
0.0
 40
0.0
 40
1.0
 40
1.0
 40
1.0
 40
2.0
 40
2.0
 40
2.0
 40
2.0
 10
366.1965366602405
 20
208.238284258343
 30
0.0
 10
366.672502979084
 20
208.399387195588
 30
0.0
 10
367.1836700737132
 20
208.4227104090884
 30
0.0
 10
367.6030560043344
 20
208.1056874707446
 30
0.0
 10
367.8369360057994
 20
207.9422090209992
 30
0.0
 10
368.0319439848111
 20
207.6288573292468
 30
0.0
 10
368.3459435436083
 20
207.6279935065193
 30
0.0
  0
LWPOLYLINE
  5
91
330
70
100
AcDbEntity
  8
shade
 62
     6
420
 16711935
370
    25
100
AcDbPolyline
 90
        4
 70
     0
 43
0.0
 10
366.1965366602405
 20
208.238284258343
 10
366.0505506205832
 20
208.1853751167131
 10
365.917953833058
 20
208.0925141742937
 10
365.8250928907142
 20
207.9730906832938
  0
LWPOLYLINE
  5
92
330
70
100
AcDbEntity
  8
shade
 62
     6
420
 16711935
370
    25
100
AcDbPolyline
 90
        4
 70
     0
 43
0.0
 10
366.289397602733
 20
207.8800137851189
 10
366.1965366602405
 20
207.8271046436365
 10
366.1302382665513
 20
207.7608062498004
 10
366.0771131692396
 20
207.6545560551758
  0
LINE
  5
93
330
70
100
AcDbEntity
  8
shade
 62
     6
420
 16711935
370
    25
100
AcDbLine
 10
369.5136159054779
 20
175.0725824151379
 30
0.0
 11
369.5136159054779
 21
212.6964733167211
 31
0.0
  0
SPLINE
  5
94
330
70
100
AcDbEntity
  8
shade
 62
     6
420
 16711935
370
    25
100
AcDbSpline
210
0.0
220
0.0
230
1.0
 70
     8
 71
     3
 72
     8
 73
     4
 74
     0
 42
0.0000000001
 43
0.0000000001
 40
0.0
 40
0.0
 40
0.0
 40
0.0
 40
1.0
 40
1.0
 40
1.0
 40
1.0
 10
368.3459435436083
 20
207.6279935065193
 30
0.0
 10
368.5983957335729
 20
208.9498582240331
 30
0.0
 10
367.5268236492762
 20
210.2078000601393
 30
0.0
 10
366.1833633638643
 20
210.1887959602763
 30
0.0
  0
LWPOLYLINE
  5
95
330
70
100
AcDbEntity
  8
shade
 62
     6
420
 16711935
370
    25
100
AcDbPolyline
 90
        3
 70
     0
 43
0.0
 10
366.2496617575528
 20
186.677269164516
 10
366.2496617575528
 20
175.0725824151379
 10
369.5136159054779
 20
175.0725824151379
  0
LWPOLYLINE
  5
96
330
70
100
AcDbEntity
  8
shade
 62
     6
420
 16711935
370
    25
100
AcDbPolyline
 90
        4
 70
     0
 43
0.0
 10
369.5136159054779
 20
212.6964733167211
 10
363.741984401108
 20
212.6964733167211
 10
363.741984401108
 20
210.1887959602763
 10
366.1833633638636
 20
210.1887959602763
  0
LWPOLYLINE
  5
97
330
70
100
AcDbEntity
  8
shade
 62
     6
420
 16711935
370
    25
100
AcDbPolyline
 90
        3
 70
     0
 43
0.0
 10
368.3593327958148
 20
207.6413827586517
 10
366.289397602733
 20
187.3141224649975
 10
366.2496617575528
 20
186.677269164516
  0
LINE
  5
98
330
70
100
AcDbEntity
  8
shade
 62
     6
420
 16711935
370
    25
100
AcDbLine
 10
366.2496617575528
 20
212.6964733167211
 30
0.0
 11
366.2496617575528
 21
210.1887959602763
 31
0.0
  0
LINE
  5
99
330
70
100
AcDbEntity
  8
shade
 62
     6
420
 16711935
370
    25
100
AcDbLine
 10
367.3110839249454
 20
207.747416997668
 30
0.0
 11
367.3110839249454
 21
207.840277940013
 31
0.0
  0
LINE
  5
9A
330
70
100
AcDbEntity
  8
shade
 62
     6
420
 16711935
370
    25
100
AcDbLine
 10
367.3110839249454
 20
208.2648468069992
 30
0.0
 11
367.3110839249454
 21
209.8836505843645
 31
0.0
  0
SPLINE
  5
9B
330
70
100
AcDbEntity
  8
shade
 62
     6
420
 16711935
370
    25
100
AcDbSpline
210
0.0
220
0.0
230
1.0
 70
     8
 71
     3
 72
    29
 73
    25
 74
     0
 42
0.0000000001
 43
0.0000000001
 40
0.0
 40
0.0
 40
0.0
 40
0.0
 40
1.0
 40
1.0
 40
1.0
 40
2.0
 40
2.0
 40
2.0
 40
3.0
 40
3.0
 40
3.0
 40
4.0
 40
4.0
 40
4.0
 40
5.0
 40
5.0
 40
5.0
 40
6.0
 40
6.0
 40
6.0
 40
7.0
 40
7.0
 40
7.0
 40
8.0
 40
8.0
 40
8.0
 40
8.0
 10
365.1882395902334
 20
210.1887959602763
 30
0.0
 10
365.1882395902334
 20
210.1887959602763
 30
0.0
 10
365.1882395902334
 20
207.747416997668
 30
0.0
 10
365.1882395902334
 20
207.747416997668
 30
0.0
 10
365.1882395902334
 20
207.747416997668
 30
0.0
 10
365.2148021388898
 20
207.5085700155185
 30
0.0
 10
365.2148021388898
 20
207.5085700155185
 30
0.0
 10
365.2148021388898
 20
207.5085700155185
 30
0.0
 10
365.2942738291022
 20
207.2831122855751
 30
0.0
 10
365.2942738291022
 20
207.2831122855751
 30
0.0
 10
365.2942738291022
 20
207.2831122855751
 30
0.0
 10
365.4136973201768
 20
207.0840011486055
 30
0.0
 10
365.4136973201768
 20
207.0840011486055
 30
0.0
 10
365.4136973201768
 20
207.0840011486055
 30
0.0
 10
365.5862459085643
 20
206.911452560292
 30
0.0
 10
365.5862459085643
 20
206.911452560292
 30
0.0
 10
365.5862459085643
 20
206.911452560292
 30
0.0
 10
365.785357045534
 20
206.7920290692177
 30
0.0
 10
365.785357045534
 20
206.7920290692177
 30
0.0
 10
365.785357045534
 20
206.7920290692177
 30
0.0
 10
366.0108147754773
 20
206.7125573788572
 30
0.0
 10
366.0108147754773
 20
206.7125573788572
 30
0.0
 10
366.6735827574941
 20
206.5665713391999
 30
0.0
 10
367.3264167782157
 20
207.0518237522184
 30
0.0
 10
367.3110839249454
 20
207.747416997668
 30
0.0
  0
SPLINE
  5
9C
330
70
100
AcDbEntity
  8
shade
 62
     6
420
 16711935
370
    25
100
AcDbSpline
210
0.0
220
0.0
230
1.0
 70
     8
 71
     3
 72
    11
 73
     7
 74
     0
 42
0.0000000001
 43
0.0000000001
 40
0.0
 40
0.0
 40
0.0
 40
0.0
 40
1.0
 40
1.0
 40
1.0
 40
2.0
 40
2.0
 40
2.0
 40
2.0
 10
366.7405290183019
 20
208.3577077493442
 30
0.0
 10
366.3934882404642
 20
208.8872310767893
 30
0.0
 10
365.5922926675843
 20
208.5628656454082
 30
0.0
 10
365.6922801474337
 20
207.9465281346376
 30
0.0
 10
365.8633170460471
 20
207.3325661362948
 30
0.0
 10
366.681141206287
 20
207.3483309010017
 30
0.0
 10
366.8068274120636
 20
207.9730906832938
 30
0.0
  0
SPLINE
  5
9D
330
70
100
AcDbEntity
  8
shade
 62
     6
420
 16711935
370
    25
100
AcDbSpline
210
0.0
220
0.0
230
1.0
 70
     8
 71
     3
 72
    35
 73
    31
 74
     0
 42
0.0000000001
 43
0.0000000001
 40
0.0
 40
0.0
 40
0.0
 40
0.0
 40
1.0
 40
1.0
 40
1.0
 40
2.0
 40
2.0
 40
2.0
 40
3.0
 40
3.0
 40
3.0
 40
4.0
 40
4.0
 40
4.0
 40
5.0
 40
5.0
 40
5.0
 40
6.0
 40
6.0
 40
6.0
 40
7.0
 40
7.0
 40
7.0
 40
8.0
 40
8.0
 40
8.0
 40
9.0
 40
9.0
 40
9.0
 40
10.0
 40
10.0
 40
10.0
 40
10.0
 10
366.5945429785714
 20
208.331145200688
 30
0.0
 10
366.30170707653
 20
208.6948145658129
 30
0.0
 10
365.7823336660606
 20
208.4268135669713
 30
0.0
 10
365.8117036385077
 20
208.0259998248493
 30
0.0
 10
365.8117036385077
 20
208.0259998248493
 30
0.0
 10
365.8516554393701
 20
207.8934030373253
 30
0.0
 10
365.8516554393701
 20
207.8934030373253
 30
0.0
 10
365.8516554393701
 20
207.8934030373253
 30
0.0
 10
365.917953833058
 20
207.7739795463242
 30
0.0
 10
365.917953833058
 20
207.7739795463242
 30
0.0
 10
365.917953833058
 20
207.7739795463242
 30
0.0
 10
366.0239880719267
 20
207.6811186038316
 30
0.0
 10
366.0239880719267
 20
207.6811186038316
 30
0.0
 10
366.0239880719267
 20
207.6811186038316
 30
0.0
 10
366.1568008152078
 20
207.6279935065193
 30
0.0
 10
366.1568008152078
 20
207.6279935065193
 30
0.0
 10
366.1568008152078
 20
207.6279935065193
 30
0.0
 10
366.289397602733
 20
207.6279935065193
 30
0.0
 10
366.289397602733
 20
207.6279935065193
 30
0.0
 10
366.289397602733
 20
207.6279935065193
 30
0.0
 10
366.422210345939
 20
207.6545560551758
 30
0.0
 10
366.422210345939
 20
207.6545560551758
 30
0.0
 10
366.422210345939
 20
207.6545560551758
 30
0.0
 10
366.5416338369405
 20
207.7342437011439
 30
0.0
 10
366.5416338369405
 20
207.7342437011439
 30
0.0
 10
366.5416338369405
 20
207.7342437011439
 30
0.0
 10
366.6344947794331
 20
207.840277940013
 30
0.0
 10
366.6344947794331
 20
207.840277940013
 30
0.0
 10
366.6344947794331
 20
207.840277940013
 30
0.0
 10
366.6742306245402
 20
207.9730906832938
 30
0.0
 10
366.6742306245402
 20
207.9730906832938
 30
0.0
  0
SPLINE
  5
9E
330
70
100
AcDbEntity
  8
shade
 62
     6
420
 16711935
370
    25
100
AcDbSpline
210
0.0
220
0.0
230
1.0
 70
     8
 71
     3
 72
    11
 73
     7
 74
     0
 42
0.0000000001
 43
0.0000000001
 40
0.0
 40
0.0
 40
0.0
 40
0.0
 40
1.0
 40
1.0
 40
1.0
 40
2.0
 40
2.0
 40
2.0
 40
2.0
 10
364.9222595780329
 20
175.4348116190169
 30
0.0
 10
364.9865578898989
 20
174.8329637294291
 30
0.0
 10
365.5265760840282
 20
174.3971936965141
 30
0.0
 10
366.1284239736141
 20
174.4614920083795
 30
0.0
 10
366.5042286903664
 20
174.5016410381951
 30
0.0
 10
366.8328281418562
 20
174.7325908083729
 30
0.0
 10
366.9978943015828
 20
175.0725824151379
 30
0.0
  0
LINE
  5
9F
330
70
100
AcDbEntity
  8
shade
 62
     6
420
 16711935
370
    25
100
AcDbLine
 10
367.3387143840006
 20
207.9150309415316
 30
0.0
 11
365.3008889917421
 21
192.5240948455232
 31
0.0
  0
LINE
  5
A0
330
70
100
AcDbEntity
  8
shade
 62
     6
420
 16711935
370
    25
100
AcDbLine
 10
364.080910060223
 20
183.3100484176098
 30
0.0
 11
363.7218613331317
 21
180.5982871279327
 31
0.0
  0
LINE
  5
A1
330
70
100
AcDbEntity
  8
shade
 62
     6
420
 16711935
370
    25
100
AcDbLine
 10
365.1657915806102
 20
208.2027351614859
 30
0.0
 11
364.3135356193223
 21
201.7659633517404
 31
0.0
  0
LINE
  5
A2
330
70
100
AcDbEntity
  8
shade
 62
     6
420
 16711935
370
    25
100
AcDbLine
 10
363.0935566876556
 20
192.5519169238286
 30
0.0
 11
362.751712711023
 21
189.9700967049002
 31
0.0
  0
LINE
  5
A3
330
70
100
AcDbEntity
  8
shade
 62
     6
420
 16711935
370
    25
100
AcDbLine
 10
366.2496617575528
 20
183.6433502324773
 30
0.0
 11
364.0229502966099
 21
204.4859128826113
 31
0.0
  0
LINE
  5
A4
330
70
100
AcDbEntity
  8
shade
 62
     6
420
 16711935
370
    25
100
AcDbLine
 10
364.9222595780329
 20
175.4348116191645
 30
0.0
 11
361.8434662903176
 21
204.2530680978136
 31
0.0
  0
CIRCLE
  5
A5
330
70
100
AcDbEntity
  8
shade
 62
     6
420
 16711935
370
    25
100
AcDbCircle
 10
366.2522529822315
 20
208.0588830514529
 30
0.0
 40
0.5636280039686436
  0
CIRCLE
  5
A6
330
70
100
AcDbEntity
  8
shade
 62
     6
420
 16711935
370
    25
100
AcDbCircle
 10
366.2522529822317
 20
208.0588830514716
 30
0.0
 40
0.4383773364664233
  0
CIRCLE
  5
A7
330
70
100
AcDbEntity
  8
shade
 62
     6
420
 16711935
370
    25
100
AcDbCircle
 10
362.6353999313813
 20
180.7421392378719
 30
0.0
 40
0.5636280040053809
  0
CIRCLE
  5
A8
330
70
100
AcDbEntity
  8
shade
 62
     6
420
 16711935
370
    25
100
AcDbCircle
 10
362.6353999313993
 20
180.7421392378904
 30
0.0
 40
0.4383773364387099
  0
LINE
  5
A9
330
70
100
AcDbEntity
  8
shade
 62
     6
420
 16711935
370
    25
100
AcDbLine
 10
359.0313426845337
 20
185.7709040166743
 30
0.0
 11
360.179407821019
 21
193.4141512491419
 31
0.0
  0
SPLINE
  5
AA
330
70
100
AcDbEntity
  8
shade
 62
     6
420
 16711935
370
    25
100
AcDbSpline
210
0.0
220
0.0
230
1.0
 70
     8
 71
     3
 72
    14
 73
    10
 74
     0
 42
0.0000000001
 43
0.0000000001
 40
0.0
 40
0.0
 40
0.0
 40
0.0
 40
1.0
 40
1.0
 40
1.0
 40
2.0
 40
2.0
 40
2.0
 40
3.0
 40
3.0
 40
3.0
 40
3.0
 10
361.396720173116
 20
201.5184120348364
 30
0.0
 10
361.396720173116
 20
201.5184120348364
 30
0.0
 10
361.8494229306195
 20
204.5322820568188
 30
0.0
 10
361.8494229306195
 20
204.5322820568188
 30
0.0
 10
361.9234833475208
 20
205.0253395139981
 30
0.0
 10
362.3210185290778
 20
205.4062672747022
 30
0.0
 10
362.8167859010275
 20
205.459232493396
 30
0.0
 10
363.4186337906146
 20
205.5235308052604
 30
0.0
 10
363.9586519847439
 20
205.0877607723454
 30
0.0
 10
364.0229502966099
 20
204.4859128826113
 30
0.0
  0
LINE
  5
AB
330
70
100
AcDbEntity
  8
shade
 62
     6
420
 16711935
370
    25
100
AcDbLine
 10
362.7497506926756
 20
195.7700249350608
 30
0.0
 11
362.3888033505839
 21
193.3670168777728
 31
0.0
  0
LINE
  5
AC
330
70
100
AcDbEntity
  8
shade
 62
     6
420
 16711935
370
    25
100
AcDbLine
 10
361.1006479850496
 20
184.7911185083431
 30
0.0
 11
361.0030240810904
 21
184.1411870628577
 31
0.0
  0
CIRCLE
  5
AD
330
70
100
AcDbEntity
  8
shade
 62
     6
420
 16711935
370
    25
100
AcDbCircle
 10
359.9192387182285
 20
184.3039786294642
 30
0.0
 40
0.5636280039868517
  0
CIRCLE
  5
AE
330
70
100
AcDbEntity
  8
shade
 62
     6
420
 16711935
370
    25
100
AcDbCircle
 10
359.9192387182463
 20
184.3039786294457
 30
0.0
 40
0.4383773364019726
  0
SPLINE
  5
AF
330
70
100
AcDbEntity
  8
shade
 62
     6
420
 16711935
370
    25
100
AcDbSpline
210
0.0
220
0.0
230
1.0
 70
     8
 71
     3
 72
    17
 73
    13
 74
     0
 42
0.0000000001
 43
0.0000000001
 40
0.0
 40
0.0
 40
0.0
 40
0.0
 40
1.0
 40
1.0
 40
1.0
 40
2.0
 40
2.0
 40
2.0
 40
3.0
 40
3.0
 40
3.0
 40
4.0
 40
4.0
 40
4.0
 40
4.0
 10
360.8981760471457
 20
200.5401239112235
 30
0.0
 10
361.1068348190398
 20
200.7711189698876
 30
0.0
 10
361.0887276810266
 20
201.1275288196605
 30
0.0
 10
360.8577326223622
 20
201.3361875916292
 30
0.0
 10
360.6267375636978
 20
201.5448463633744
 30
0.0
 10
360.2703277139997
 20
201.5267392253612
 30
0.0
 10
360.0616689420312
 20
201.2957441668444
 30
0.0
 10
359.8530101700634
 20
201.0647491081816
 30
0.0
 10
359.8711173081516
 20
200.7083392584087
 30
0.0
 10
360.102112366741
 20
200.49968048644
 30
0.0
 10
360.1176393020308
 20
200.4856549429054
 30
0.0
 10
360.1339352018572
 20
200.4725048956894
 30
0.0
 10
360.15092438784
 20
200.4602914134824
 30
0.0
  0
SPLINE
  5
B0
330
70
100
AcDbEntity
  8
shade
 62
     6
420
 16711935
370
    25
100
AcDbSpline
210
0.0
220
0.0
230
1.0
 70
     8
 71
     3
 72
    14
 73
    10
 74
     0
 42
0.0000000001
 43
0.0000000001
 40
0.0
 40
0.0
 40
0.0
 40
0.0
 40
1.0
 40
1.0
 40
1.0
 40
2.0
 40
2.0
 40
2.0
 40
3.0
 40
3.0
 40
3.0
 40
3.0
 10
360.8775350045438
 20
200.7333291067069
 30
0.0
 10
360.9794894934054
 20
200.9529244323225
 30
0.0
 10
360.8841227524212
 20
201.2135920601654
 30
0.0
 10
360.6645274268797
 20
201.3155465489526
 30
0.0
 10
360.4449321012645
 20
201.4175010378132
 30
0.0
 10
360.1842644734203
 20
201.3221342968303
 30
0.0
 10
360.0823099846344
 20
201.1025389712147
 30
0.0
 10
360.014043056517
 20
200.9555018131554
 30
0.0
 10
360.0324943490388
 20
200.7827932121994
 30
0.0
 10
360.1302833452368
 20
200.6534966091124
 30
0.0
  0
SPLINE
  5
B1
330
70
100
AcDbEntity
  8
shade
 62
     6
420
 16711935
370
    25
100
AcDbSpline
210
0.0
220
0.0
230
1.0
 70
     9
 71
     3
 72
    23
 73
    19
 74
     0
 42
0.0000000001
 43
0.0000000001
 40
0.0
 40
0.0
 40
0.0
 40
0.0
 40
1.0
 40
1.0
 40
1.0
 40
2.0
 40
2.0
 40
2.0
 40
3.0
 40
3.0
 40
3.0
 40
4.0
 40
4.0
 40
4.0
 40
5.0
 40
5.0
 40
5.0
 40
6.0
 40
6.0
 40
6.0
 40
6.0
 10
363.7251419345823
 20
180.8585616303443
 30
0.0
 10
363.7251419345823
 20
180.8585616303443
 30
0.0
 10
361.5696644977715
 20
201.0343564313962
 30
0.0
 10
361.5696644977715
 20
201.0343564313962
 30
0.0
 10
361.505366185833
 20
201.6362043210569
 30
0.0
 10
360.9653479917038
 20
202.0719743540453
 30
0.0
 10
360.3635001021904
 20
202.0076760421065
 30
0.0
 10
359.7616522126032
 20
201.9433777303149
 30
0.0
 10
359.3258821795401
 20
201.4033595362604
 30
0.0
 10
359.390180491406
 20
200.8015116465253
 30
0.0
 10
359.390180491406
 20
200.8015116465253
 30
0.0
 10
361.5456579282913
 20
180.6257168454737
 30
0.0
 10
361.5456579282913
 20
180.6257168454737
 30
0.0
 10
361.6099562401553
 20
180.0238689558859
 30
0.0
 10
362.1499744342846
 20
179.5880989228978
 30
0.0
 10
362.7518223238717
 20
179.6523972347631
 30
0.0
 10
363.3536702134583
 20
179.7166955466278
 30
0.0
 10
363.7894402464483
 20
180.2567137406839
 30
0.0
 10
363.7251419345823
 20
180.8585616303443
 30
0.0
  0
SPLINE
  5
B2
330
70
100
AcDbEntity
  8
shade
 62
     6
420
 16711935
370
    25
100
AcDbSpline
210
0.0
220
0.0
230
1.0
 70
     8
 71
     3
 72
    17
 73
    13
 74
     0
 42
0.0000000001
 43
0.0000000001
 40
0.0
 40
0.0
 40
0.0
 40
0.0
 40
1.0
 40
1.0
 40
1.0
 40
2.0
 40
2.0
 40
2.0
 40
3.0
 40
3.0
 40
3.0
 40
4.0
 40
4.0
 40
4.0
 40
4.0
 10
360.9480005783527
 20
192.9994637630539
 30
0.0
 10
360.7393418064587
 20
192.768468704464
 30
0.0
 10
360.7574489445462
 20
192.4120588545438
 30
0.0
 10
360.9884440031362
 20
192.203400082797
 30
0.0
 10
361.2194390617262
 20
191.9947413108296
 30
0.0
 10
361.5758489115732
 20
192.012848448843
 30
0.0
 10
361.7845076834672
 20
192.2438435075074
 30
0.0
 10
361.9931664553619
 20
192.4748385661716
 30
0.0
 10
361.9750593173468
 20
192.8312484159444
 30
0.0
 10
361.744064258683
 20
193.0399071878388
 30
0.0
 10
361.7285373234676
 20
193.0539327312988
 30
0.0
 10
361.7122414236412
 20
193.0670827785893
 30
0.0
 10
361.6952522376578
 20
193.0792962607216
 30
0.0
  0
SPLINE
  5
B3
330
70
100
AcDbEntity
  8
shade
 62
     6
420
 16711935
370
    25
100
AcDbSpline
210
0.0
220
0.0
230
1.0
 70
     8
 71
     3
 72
    14
 73
    10
 74
     0
 42
0.0000000001
 43
0.0000000001
 40
0.0
 40
0.0
 40
0.0
 40
0.0
 40
1.0
 40
1.0
 40
1.0
 40
2.0
 40
2.0
 40
2.0
 40
3.0
 40
3.0
 40
3.0
 40
3.0
 10
360.9686416209546
 20
192.8062585675718
 30
0.0
 10
360.866687132093
 20
192.5866632419562
 30
0.0
 10
360.9620538730028
 20
192.3259956141865
 30
0.0
 10
361.1816491986932
 20
192.2240411252514
 30
0.0
 10
361.401244524234
 20
192.122086636391
 30
0.0
 10
361.6619121520781
 20
192.2174533774484
 30
0.0
 10
361.763866640864
 20
192.4370487029896
 30
0.0
 10
361.8321335689814
 20
192.5840858612706
 30
0.0
 10
361.8136822763852
 20
192.7567944620048
 30
0.0
 10
361.7158932801872
 20
192.8860910652395
 30
0.0
  0
LINE
  5
B4
330
70
100
AcDbEntity
  8
shade
 62
     6
420
 16711935
370
    25
100
AcDbLine
 10
360.1921936561482
 20
201.975432938465
 30
0.0
 11
334.8238215140976
 21
195.0730973873677
 31
0.0
  0
LINE
  5
B5
330
70
100
AcDbEntity
  8
shade
 62
     6
420
 16711935
370
    25
100
AcDbLine
 10
359.5267896934395
 20
199.5228161799817
 30
0.0
 11
337.0008489392826
 21
193.3938615579677
 31
0.0
  0
CIRCLE
  5
B6
330
70
100
AcDbEntity
  8
shade
 62
     6
420
 16711935
370
    25
100
AcDbCircle
 10
333.2870936505941
 20
193.5191924793714
 30
0.0
 40
0.5636280040052604
  0
CIRCLE
  5
B7
330
70
100
AcDbEntity
  8
shade
 62
     6
420
 16711935
370
    25
100
AcDbCircle
 10
333.2870936506123
 20
193.51919247939
 30
0.0
 40
0.4383773364381885
  0
LINE
  5
B8
330
70
100
AcDbEntity
  8
shade
 62
     6
420
 16711935
370
    25
100
AcDbLine
 10
334.7048886057286
 20
194.9383357150447
 30
0.0
 11
334.7048886057286
 21
193.0411650659572
 31
0.0
  0
LWPOLYLINE
  5
B9
330
70
100
AcDbEntity
  8
shade
 62
     6
420
 16711935
370
    25
100
AcDbPolyline
 90
        3
 70
     0
 43
0.0
 10
334.7920658487424
 20
195.8368781970828
 10
334.7313431765068
 20
195.4425922278517
 10
334.7048886057286
 20
194.9383357150447
  0
LWPOLYLINE
  5
BA
330
70
100
AcDbEntity
  8
shade
 62
     6
420
 16711935
370
    25
100
AcDbPolyline
 90
        4
 70
     0
 43
0.0
 10
334.7048886057286
 20
193.0411650659572
 10
334.7313431765068
 20
192.5500818496746
 10
334.7977495481473
 20
192.0592145889251
 10
334.9489406709068
 20
191.5145325634973
  0
LINE
  5
BB
330
70
100
AcDbEntity
  8
shade
 62
     6
420
 16711935
370
    25
100
AcDbLine
 10
334.0385976559228
 20
199.4685991882351
 30
0.0
 11
331.5335843048771
 21
199.4685991882351
 31
0.0
  0
LINE
  5
BC
330
70
100
AcDbEntity
  8
shade
 62
     6
420
 16711935
370
    25
100
AcDbLine
 10
332.7860909803996
 20
199.4685991882351
 30
0.0
 11
331.8591822870743
 21
199.4685991882351
 31
0.0
  0
LINE
  5
BD
330
70
100
AcDbEntity
  8
shade
 62
     6
420
 16711935
370
    25
100
AcDbLine
 10
332.7860909803996
 20
199.4685991882351
 30
0.0
 11
333.7128921668895
 21
199.4685991882351
 31
0.0
  0
SPLINE
  5
BE
330
70
100
AcDbEntity
  8
shade
 62
     6
420
 16711935
370
    25
100
AcDbSpline
210
0.0
220
0.0
230
1.0
 70
     8
 71
     3
 72
     8
 73
     4
 74
     0
 42
0.0000000001
 43
0.0000000001
 40
0.0
 40
0.0
 40
0.0
 40
0.0
 40
1.0
 40
1.0
 40
1.0
 40
1.0
 10
331.5335843048771
 20
199.4685991882351
 30
0.0
 10
330.2552130542818
 20
195.0601800548606
 30
0.0
 10
330.273369300199
 20
190.3768825072959
 30
0.0
 10
331.5858828010197
 20
185.9785077370546
 30
0.0
  0
SPLINE
  5
BF
330
70
100
AcDbEntity
  8
shade
 62
     6
420
 16711935
370
    25
100
AcDbSpline
210
0.0
220
0.0
230
1.0
 70
     8
 71
     3
 72
    11
 73
     7
 74
     0
 42
0.0000000001
 43
0.0000000001
 40
0.0
 40
0.0
 40
0.0
 40
0.0
 40
1.0
 40
1.0
 40
1.0
 40
2.0
 40
2.0
 40
2.0
 40
2.0
 10
331.5858828010197
 20
185.9785077370546
 30
0.0
 10
331.7836850300978
 20
185.3156510627527
 30
0.0
 10
332.481386924568
 20
184.9386499464023
 30
0.0
 10
333.1442435987227
 20
185.1364521755539
 30
0.0
 10
333.5489448235123
 20
185.2572185605859
 30
0.0
 10
333.8655327750438
 20
185.5738065121177
 30
0.0
 10
333.9862991601489
 20
185.9785077369815
 30
0.0
  0
SPLINE
  5
C0
330
70
100
AcDbEntity
  8
shade
 62
     6
420
 16711935
370
    25
100
AcDbSpline
210
0.0
220
0.0
230
1.0
 70
     8
 71
     3
 72
     8
 73
     4
 74
     0
 42
0.0000000001
 43
0.0000000001
 40
0.0
 40
0.0
 40
0.0
 40
0.0
 40
1.0
 40
1.0
 40
1.0
 40
1.0
 10
334.7937279235546
 20
195.823821427199
 30
0.0
 10
334.6371539599538
 20
197.0565310054958
 30
0.0
 10
334.3846783446688
 20
198.2751518835186
 30
0.0
 10
334.0385976575488
 20
199.4685991880131
 30
0.0
  0
SPLINE
  5
C1
330
70
100
AcDbEntity
  8
shade
 62
     6
420
 16711935
370
    25
100
AcDbSpline
210
0.0
220
0.0
230
1.0
 70
     8
 71
     3
 72
     8
 73
     4
 74
     0
 42
0.0000000001
 43
0.0000000001
 40
0.0
 40
0.0
 40
0.0
 40
0.0
 40
1.0
 40
1.0
 40
1.0
 40
1.0
 10
333.9862991597793
 20
185.9785077369815
 30
0.0
 10
334.5237536170298
 20
187.7795757818183
 30
0.0
 10
334.8468668601282
 20
189.6377575815347
 30
0.0
 10
334.9489406709068
 20
191.5145325634973
 30
0.0
  0
SPLINE
  5
C2
330
70
100
AcDbEntity
  8
shade
 62
     6
420
 16711935
370
    25
100
AcDbSpline
210
0.0
220
0.0
230
1.0
 70
     8
 71
     3
 72
    11
 73
     7
 74
     0
 42
0.0000000001
 43
0.0000000001
 40
0.0
 40
0.0
 40
0.0
 40
0.0
 40
1.0
 40
1.0
 40
1.0
 40
2.0
 40
2.0
 40
2.0
 40
2.0
 10
359.5608692907185
 20
183.2682840989416
 30
0.0
 10
360.1328675853065
 20
183.0703621293903
 30
0.0
 10
360.7570112790329
 20
183.3736109072372
 30
0.0
 10
360.9549332485848
 20
183.9456092018983
 30
0.0
 10
361.15285521821
 20
184.5176074965601
 30
0.0
 10
360.8496064403624
 20
185.1417511902134
 30
0.0
 10
360.2776081457013
 20
185.3396731598385
 30
0.0
  0
LINE
  5
C3
330
70
100
AcDbEntity
  8
shade
 62
     6
420
 16711935
370
    25
100
AcDbLine
 10
334.7172388283546
 20
191.8646388778098
 30
0.0
 11
359.560869290793
 21
183.2682840989416
 31
0.0
  0
LINE
  5
C4
330
70
100
AcDbEntity
  8
shade
 62
     6
420
 16711935
370
    25
100
AcDbLine
 10
334.7149940294912
 20
194.1848095560403
 30
0.0
 11
360.2776081457013
 21
185.3396731598385
 31
0.0
  0
SPLINE
  5
C5
330
70
100
AcDbEntity
  8
shade
 62
     6
420
 16711935
370
    25
100
AcDbSpline
210
0.0
220
0.0
230
1.0
 70
     9
 71
     3
 72
    29
 73
    25
 74
     0
 42
0.0000000001
 43
0.0000000001
 40
0.0
 40
0.0
 40
0.0
 40
0.0
 40
1.0
 40
1.0
 40
1.0
 40
2.0
 40
2.0
 40
2.0
 40
3.0
 40
3.0
 40
3.0
 40
4.0
 40
4.0
 40
4.0
 40
5.0
 40
5.0
 40
5.0
 40
6.0
 40
6.0
 40
6.0
 40
7.0
 40
7.0
 40
7.0
 40
8.0
 40
8.0
 40
8.0
 40
8.0
 10
361.1845724702826
 20
192.5536657190839
 30
0.0
 10
361.1845724702826
 20
192.5536657190839
 30
0.0
 10
361.5581982999724
 20
192.5935819678818
 30
0.0
 10
361.5581982999724
 20
192.5935819678818
 30
0.0
 10
361.6613722238786
 20
192.6046045356315
 30
0.0
 10
361.7360756580584
 20
192.6971790831818
 30
0.0
 10
361.7250530903819
 20
192.8003530071624
 30
0.0
 10
361.7250530903819
 20
192.8003530071624
 30
0.0
 10
360.8602010323748
 20
200.8955793162782
 30
0.0
 10
360.8602010323748
 20
200.8955793162782
 30
0.0
 10
360.8491784646239
 20
200.99875324011
 30
0.0
 10
360.7566039170739
 20
201.0734566744384
 30
0.0
 10
360.6534299930946
 20
201.062434106613
 30
0.0
 10
360.6534299930946
 20
201.062434106613
 30
0.0
 10
360.2798041634773
 20
201.0225178578163
 30
0.0
 10
360.2798041634773
 20
201.0225178578163
 30
0.0
 10
360.1766302395724
 20
201.0114952901399
 30
0.0
 10
360.1019268053187
 20
200.9189207425164
 30
0.0
 10
360.1129493731428
 20
200.8157468185358
 30
0.0
 10
360.1129493731428
 20
200.8157468185358
 30
0.0
 10
360.9778014310748
 20
192.7205205094947
 30
0.0
 10
360.9778014310748
 20
192.7205205094947
 30
0.0
 10
360.9888239988258
 20
192.6173465855882
 30
0.0
 10
361.0813985463764
 20
192.5426431512598
 30
0.0
 10
361.1845724702826
 20
192.5536657190839
 30
0.0
  0
SPLINE
  5
C6
330
70
100
AcDbEntity
  8
shade
 62
     6
420
 16711935
370
    25
100
AcDbSpline
210
0.0
220
0.0
230
1.0
 70
     8
 71
     3
 72
    17
 73
    13
 74
     0
 42
0.0000000001
 43
0.0000000001
 40
0.0
 40
0.0
 40
0.0
 40
0.0
 40
1.0
 40
1.0
 40
1.0
 40
2.0
 40
2.0
 40
2.0
 40
3.0
 40
3.0
 40
3.0
 40
4.0
 40
4.0
 40
4.0
 40
4.0
 10
363.3514618459834
 20
203.9916803624386
 30
0.0
 10
363.5601206178781
 20
204.222675421103
 30
0.0
 10
363.5420134798643
 20
204.57908527095
 30
0.0
 10
363.3110184212005
 20
204.7877440428443
 30
0.0
 10
363.0800233626105
 20
204.9964028147386
 30
0.0
 10
362.723613512838
 20
204.9782956766507
 30
0.0
 10
362.5149547409433
 20
204.7473006180598
 30
0.0
 10
362.3062959689749
 20
204.5163055593967
 30
0.0
 10
362.3244031069881
 20
204.159895709697
 30
0.0
 10
362.5553981656524
 20
203.9512369377298
 30
0.0
 10
362.5709251008692
 20
203.937211394194
 30
0.0
 10
362.5872210006956
 20
203.9240613469792
 30
0.0
 10
362.604210186677
 20
203.9118478647709
 30
0.0
  0
SPLINE
  5
C7
330
70
100
AcDbEntity
  8
shade
 62
     6
420
 16711935
370
    25
100
AcDbSpline
210
0.0
220
0.0
230
1.0
 70
     8
 71
     3
 72
    14
 73
    10
 74
     0
 42
0.0000000001
 43
0.0000000001
 40
0.0
 40
0.0
 40
0.0
 40
0.0
 40
1.0
 40
1.0
 40
1.0
 40
2.0
 40
2.0
 40
2.0
 40
3.0
 40
3.0
 40
3.0
 40
3.0
 10
363.3308208033815
 20
204.184885557922
 30
0.0
 10
363.4327752922425
 20
204.4044808835376
 30
0.0
 10
363.3374085513326
 20
204.6651485113808
 30
0.0
 10
363.1178132257168
 20
204.7671030002411
 30
0.0
 10
362.8982179001015
 20
204.8690574891027
 30
0.0
 10
362.6375502722587
 20
204.7736907481929
 30
0.0
 10
362.5355957834708
 20
204.5540954225029
 30
0.0
 10
362.4673288553546
 20
204.4070582643708
 30
0.0
 10
362.4857801479515
 20
204.234349663489
 30
0.0
 10
362.5835691441495
 20
204.1050530603274
 30
0.0
  0
SPLINE
  5
C8
330
70
100
AcDbEntity
  8
shade
 62
     6
420
 16711935
370
    25
100
AcDbSpline
210
0.0
220
0.0
230
1.0
 70
     8
 71
     3
 72
    17
 73
    13
 74
     0
 42
0.0000000001
 43
0.0000000001
 40
0.0
 40
0.0
 40
0.0
 40
0.0
 40
1.0
 40
1.0
 40
1.0
 40
2.0
 40
2.0
 40
2.0
 40
3.0
 40
3.0
 40
3.0
 40
4.0
 40
4.0
 40
4.0
 40
4.0
 10
363.7789692872151
 20
192.9158160124863
 30
0.0
 10
363.5703105153211
 20
192.6848209538219
 30
0.0
 10
363.5884176533342
 20
192.3284111040494
 30
0.0
 10
363.8194127119255
 20
192.119752332155
 30
0.0
 10
364.0504077705886
 20
191.9110935601863
 30
0.0
 10
364.4068176203612
 20
191.929200698201
 30
0.0
 10
364.6154763923302
 20
192.1601957568654
 30
0.0
 10
364.8241351641498
 20
192.3911908155282
 30
0.0
 10
364.8060280261367
 20
192.7476006653011
 30
0.0
 10
364.5750329675467
 20
192.9562594371954
 30
0.0
 10
364.55950603233
 20
192.9702849806568
 30
0.0
 10
364.5432101325036
 20
192.9834350279457
 30
0.0
 10
364.5262209465222
 20
192.9956485100796
 30
0.0
  0
SPLINE
  5
C9
330
70
100
AcDbEntity
  8
shade
 62
     6
420
 16711935
370
    25
100
AcDbSpline
210
0.0
220
0.0
230
1.0
 70
     8
 71
     3
 72
    14
 73
    10
 74
     0
 42
0.0000000001
 43
0.0000000001
 40
0.0
 40
0.0
 40
0.0
 40
0.0
 40
1.0
 40
1.0
 40
1.0
 40
2.0
 40
2.0
 40
2.0
 40
3.0
 40
3.0
 40
3.0
 40
3.0
 10
363.7996103298176
 20
192.7226108169298
 30
0.0
 10
363.6976558409573
 20
192.5030154913142
 30
0.0
 10
363.7930225818671
 20
192.2423478635444
 30
0.0
 10
364.0126179074824
 20
192.1403933746838
 30
0.0
 10
364.2322132330976
 20
192.0384388858966
 30
0.0
 10
364.4928808608667
 20
192.1338056268064
 30
0.0
 10
364.5948353497277
 20
192.3534009523476
 30
0.0
 10
364.6631022778445
 20
192.5004381106273
 30
0.0
 10
364.6446509852476
 20
192.6731467114359
 30
0.0
 10
364.5468619891241
 20
192.8024433145975
 30
0.0
  0
SPLINE
  5
CA
330
70
100
AcDbEntity
  8
shade
 62
     6
420
 16711935
370
    25
100
AcDbSpline
210
0.0
220
0.0
230
1.0
 70
     9
 71
     3
 72
    29
 73
    25
 74
     0
 42
0.0000000001
 43
0.0000000001
 40
0.0
 40
0.0
 40
0.0
 40
0.0
 40
1.0
 40
1.0
 40
1.0
 40
2.0
 40
2.0
 40
2.0
 40
3.0
 40
3.0
 40
3.0
 40
4.0
 40
4.0
 40
4.0
 40
5.0
 40
5.0
 40
5.0
 40
6.0
 40
6.0
 40
6.0
 40
7.0
 40
7.0
 40
7.0
 40
8.0
 40
8.0
 40
8.0
 40
8.0
 10
364.015541179145
 20
192.4700179684419
 30
0.0
 10
364.015541179145
 20
192.4700179684419
 30
0.0
 10
364.3891670087623
 20
192.5099342172385
 30
0.0
 10
364.3891670087623
 20
192.5099342172385
 30
0.0
 10
364.4923409326665
 20
192.5209567850639
 30
0.0
 10
364.5670443669953
 20
192.6135313325398
 30
0.0
 10
364.5560217991711
 20
192.7167052565191
 30
0.0
 10
364.5560217991711
 20
192.7167052565191
 30
0.0
 10
363.3134868312132
 20
204.3471357674933
 30
0.0
 10
363.3134868312132
 20
204.3471357674933
 30
0.0
 10
363.3024642634622
 20
204.450309691325
 30
0.0
 10
363.2098897159116
 20
204.525013125579
 30
0.0
 10
363.1067157919329
 20
204.5139905578284
 30
0.0
 10
363.1067157919329
 20
204.5139905578284
 30
0.0
 10
362.7330899623156
 20
204.4740743090315
 30
0.0
 10
362.7330899623156
 20
204.4740743090315
 30
0.0
 10
362.6299160384094
 20
204.4630517413553
 30
0.0
 10
362.5552126041551
 20
204.3704771937318
 30
0.0
 10
362.5662351719793
 20
204.2673032697509
 30
0.0
 10
362.5662351719793
 20
204.2673032697509
 30
0.0
 10
363.8087701399392
 20
192.6368727588511
 30
0.0
 10
363.8087701399392
 20
192.6368727588511
 30
0.0
 10
363.8197927076888
 20
192.5336988349462
 30
0.0
 10
363.9123672552388
 20
192.4589954006922
 30
0.0
 10
364.015541179145
 20
192.4700179684419
 30
0.0
  0
LINE
  5
CB
330
70
100
AcDbEntity
  8
shade
 62
     6
420
 16711935
370
    25
100
AcDbLine
 10
341.4767456616735
 20
195.7066222327576
 30
0.0
 11
335.0061520206319
 21
194.4889289420007
 31
0.0
  0
LWPOLYLINE
  5
CC
330
70
100
AcDbEntity
  8
shade
 62
     6
420
 16711935
370
    25
100
AcDbPolyline
 90
        4
 70
     0
 43
0.0
 10
334.7385147046574
 20
194.5413141120898
 10
334.7559360303538
 20
194.5290755239062
 10
334.873037014459
 20
194.4829423782599
 10
335.0061520206319
 20
194.4889289420007
  0
LWPOLYLINE
  5
CD
330
70
100
AcDbEntity
  8
shade
 62
     6
420
 16711935
370
    25
100
AcDbPolyline
 90
        3
 70
     0
 43
0.0
 10
334.9090411923733
 20
194.1109682532875
 10
335.0787989349568
 20
194.1130086652366
 10
341.3485324564505
 20
195.3017812519796
  0
LINE
  5
CE
330
70
100
AcDbEntity
  8
shade
 62
     6
420
 16711935
370
    25
100
AcDbLine
 10
341.2025265499386
 20
196.0404677685563
 30
0.0
 11
335.0005381417462
 21
194.874629322307
 31
0.0
  0
LWPOLYLINE
  5
CF
330
70
100
AcDbEntity
  8
shade
 62
     6
420
 16711935
370
    25
100
AcDbPolyline
 90
        3
 70
     0
 43
0.0
 10
334.794851907615
 20
194.9577513878565
 10
334.9342288577619
 20
194.8782188955982
 10
335.0005381417462
 20
194.874629322307
  0
SPLINE
  5
D0
330
70
100
AcDbEntity
  8
shade
 62
     6
420
 16711935
370
    25
100
AcDbSpline
210
0.0
220
0.0
230
1.0
 70
     8
 71
     3
 72
     8
 73
     4
 74
     0
 42
0.0000000001
 43
0.0000000001
 40
0.0
 40
0.0
 40
0.0
 40
0.0
 40
1.0
 40
1.0
 40
1.0
 40
1.0
 10
340.7039952733178
 20
195.177063853267
 30
0.0
 10
342.1387773483399
 20
194.602400886119
 30
0.0
 10
341.6691378031024
 20
196.9854039575741
 30
0.0
 10
340.5719749750432
 20
195.9284021320183
 30
0.0
  0
SPLINE
  5
D1
330
70
100
AcDbEntity
  8
shade
 62
     6
420
 16711935
370
    25
100
AcDbSpline
210
0.0
220
0.0
230
1.0
 70
     8
 71
     3
 72
     8
 73
     4
 74
     0
 42
0.0000000001
 43
0.0000000001
 40
0.0
 40
0.0
 40
0.0
 40
0.0
 40
1.0
 40
1.0
 40
1.0
 40
1.0
 10
340.9055791442466
 20
195.2193542340401
 30
0.0
 10
341.8018653719047
 20
195.0505876962275
 30
0.0
 10
341.5808489835339
 20
196.4551267498018
 30
0.0
 10
340.7595732377346
 20
195.9580407507631
 30
0.0
  0
LINE
  5
D2
330
70
100
AcDbEntity
  8
shade
 62
     6
420
 16711935
370
    25
100
AcDbLine
 10
333.1272381161068
 20
218.665050594607
 30
0.0
 11
332.7860909803996
 21
218.665050594607
 31
0.0
  0
LINE
  5
D3
330
70
100
AcDbEntity
  8
shade
 62
     6
420
 16711935
370
    25
100
AcDbLine
 10
332.7860909803996
 20
201.8674876288183
 30
0.0
 11
332.7860909803996
 21
220.8941685441643
 31
0.0
  0
LINE
  5
D4
330
70
100
AcDbEntity
  8
shade
 62
     6
420
 16711935
370
    25
100
AcDbLine
 10
332.7860909803996
 20
221.7015932895929
 30
0.0
 11
332.7860909803996
 21
221.0192064661132
 31
0.0
  0
LINE
  5
D5
330
70
100
AcDbEntity
  8
shade
 62
     6
420
 16711935
370
    25
100
AcDbLine
 10
332.7860909803996
 20
220.336912194773
 30
0.0
 11
332.7860909803996
 21
216.2426838063279
 31
0.0
  0
LWPOLYLINE
  5
D6
330
70
100
AcDbEntity
  8
shade
 62
     6
420
 16711935
370
    25
100
AcDbPolyline
 90
        3
 70
     0
 43
0.0
 10
323.9266312914049
 20
221.4741927165263
 10
324.9161060682387
 20
222.8048146289925
 10
324.9502578026581
 20
222.7820468060219
  0
LINE
  5
D7
330
70
100
AcDbEntity
  8
shade
 62
     6
420
 16711935
370
    25
100
AcDbLine
 10
325.0184687193562
 20
222.8844094572142
 30
0.0
 11
323.9266312914049
 21
221.4741927165263
 31
0.0
  0
LINE
  5
D8
330
70
100
AcDbEntity
  8
shade
 62
     6
420
 16711935
370
    25
100
AcDbLine
 10
325.2458692924239
 20
222.9526203738385
 30
0.0
 11
324.1085887706703
 21
221.5764628154308
 31
0.0
  0
LINE
  5
D9
330
70
100
AcDbEntity
  8
shade
 62
     6
420
 16711935
370
    25
100
AcDbLine
 10
325.4961302405269
 20
223.0435991134343
 30
0.0
 11
324.2451031562813
 21
221.6106145499233
 31
0.0
  0
LWPOLYLINE
  5
DA
330
70
100
AcDbEntity
  8
shade
 62
     6
420
 16711935
370
    25
100
AcDbPolyline
 90
        3
 70
     0
 43
0.0
 10
325.7576825480133
 20
223.1004261187589
 10
324.6090181148852
 20
221.7015932895929
 10
325.4961302405269
 20
223.0435991134343
  0
LWPOLYLINE
  5
DB
330
70
100
AcDbEntity
  8
shade
 62
     6
420
 16711935
370
    25
100
AcDbPolyline
 90
       19
 70
     0
 43
0.0
 10
325.7576825480133
 20
223.1004261187589
 10
324.9388738911355
 20
221.7925720291143
 10
326.1785170640066
 20
223.1801134990453
 10
325.4619785061818
 20
221.872166857336
 10
326.7471573248468
 20
223.2483244157443
 10
326.1215975066172
 20
221.8949346803066
 10
327.3384728565178
 20
223.2937675094718
 10
326.872195246796
 20
221.9177025032775
 10
327.9980918570266
 20
223.3506870668622
 10
327.7593073724373
 20
222.0541243366746
 10
328.907971805565
 20
223.4416658064573
 10
328.7828413315504
 20
222.099659982616
 10
329.8973540303332
 20
223.4530497179797
 10
329.9656574991717
 20
222.0655082481234
 10
330.8982127186155
 20
223.4302818950829
 10
331.1597650260275
 20
221.9859134199761
 10
331.7739409327348
 20
223.4302818950829
 10
332.2970455477074
 20
222.0086812429471
 10
332.7860909803996
 20
223.4416658064573
  0
LINE
  5
DC
330
70
100
AcDbEntity
  8
shade
 62
     6
420
 16711935
370
    25
100
AcDbLine
 10
325.0184687193562
 20
222.8844094572142
 30
0.0
 11
325.143506641306
 21
222.8274898997501
 31
0.0
  0
LINE
  5
DD
330
70
100
AcDbEntity
  8
shade
 62
     6
420
 16711935
370
    25
100
AcDbLine
 10
325.2458692924239
 20
222.9526203738385
 30
0.0
 11
325.3596158549896
 21
222.8844094572142
 31
0.0
  0
LINE
  5
DE
330
70
100
AcDbEntity
  8
shade
 62
     6
420
 16711935
370
    25
100
AcDbLine
 10
325.4961302405269
 20
223.0435991134343
 30
0.0
 11
325.6211681624757
 21
222.9298525509423
 31
0.0
  0
LINE
  5
DF
330
70
100
AcDbEntity
  8
shade
 62
     6
420
 16711935
370
    25
100
AcDbLine
 10
325.7576825480133
 20
223.1004261187589
 30
0.0
 11
325.9624078502486
 21
222.9298525509423
 31
0.0
  0
LINE
  5
E0
330
70
100
AcDbEntity
  8
shade
 62
     6
420
 16711935
370
    25
100
AcDbLine
 10
326.1785170640066
 20
223.1801134990453
 30
0.0
 11
326.4741285537723
 21
222.9526203738385
 31
0.0
  0
LINE
  5
E1
330
70
100
AcDbEntity
  8
shade
 62
     6
420
 16711935
370
    25
100
AcDbLine
 10
326.7471573248468
 20
223.2483244157443
 30
0.0
 11
327.0769205489575
 21
222.9867721081841
 31
0.0
  0
LINE
  5
E2
330
70
100
AcDbEntity
  8
shade
 62
     6
420
 16711935
370
    25
100
AcDbLine
 10
327.3384728565174
 20
223.2937675094718
 30
0.0
 11
327.6910964557385
 21
222.9526203738385
 31
0.0
  0
LINE
  5
E3
330
70
100
AcDbEntity
  8
shade
 62
     6
420
 16711935
370
    25
100
AcDbLine
 10
327.9980918570266
 20
223.3506870668622
 30
0.0
 11
328.4189263729464
 21
222.8730255456916
 31
0.0
  0
LINE
  5
E4
330
70
100
AcDbEntity
  8
shade
 62
     6
420
 16711935
370
    25
100
AcDbLine
 10
328.907971805565
 20
223.4416658064573
 30
0.0
 11
329.340097680868
 21
222.7820468060219
 31
0.0
  0
LINE
  5
E5
330
70
100
AcDbEntity
  8
shade
 62
     6
420
 16711935
370
    25
100
AcDbLine
 10
329.8973540303332
 20
223.4530497179797
 30
0.0
 11
330.3523402806724
 21
222.6227645975883
 31
0.0
  0
LINE
  5
E6
330
70
100
AcDbEntity
  8
shade
 62
     6
420
 16711935
370
    25
100
AcDbLine
 10
330.8982127186155
 20
223.4302818950829
 30
0.0
 11
331.2507437656971
 21
222.2020226336597
 31
0.0
  0
LINE
  5
E7
330
70
100
AcDbEntity
  8
shade
 62
     6
420
 16711935
370
    25
100
AcDbLine
 10
323.9266312914049
 20
221.4741927165263
 30
0.0
 11
326.2011923347642
 21
219.6772931943376
 31
0.0
  0
LINE
  5
E8
330
70
100
AcDbEntity
  8
shade
 62
     6
420
 16711935
370
    25
100
AcDbLine
 10
324.1085887706703
 20
221.5764628154308
 30
0.0
 11
326.371858454794
 21
219.6885845536463
 31
0.0
  0
LINE
  5
E9
330
70
100
AcDbEntity
  8
shade
 62
     6
420
 16711935
370
    25
100
AcDbLine
 10
326.5424320225371
 20
219.7455041110357
 30
0.0
 11
324.2451031562813
 21
221.6106145499233
 31
0.0
  0
LINE
  5
EA
330
70
100
AcDbEntity
  8
shade
 62
     6
420
 16711935
370
    25
100
AcDbLine
 10
324.6090181148852
 20
221.7015932895929
 30
0.0
 11
326.8949630696928
 21
219.6089897254253
 31
0.0
  0
LINE
  5
EB
330
70
100
AcDbEntity
  8
shade
 62
     6
420
 16711935
370
    25
100
AcDbLine
 10
324.9388738911355
 20
221.7925720291143
 30
0.0
 11
327.1792832001491
 21
219.6545253713667
 31
0.0
  0
LINE
  5
EC
330
70
100
AcDbEntity
  8
shade
 62
     6
420
 16711935
370
    25
100
AcDbLine
 10
325.4619785061818
 20
221.872166857336
 30
0.0
 11
327.6341768984227
 21
219.6545253713667
 31
0.0
  0
LINE
  5
ED
330
70
100
AcDbEntity
  8
shade
 62
     6
420
 16711935
370
    25
100
AcDbLine
 10
326.1215975066172
 20
221.8949346803066
 30
0.0
 11
328.123222331115
 21
219.5862219025285
 31
0.0
  0
LINE
  5
EE
330
70
100
AcDbEntity
  8
shade
 62
     6
420
 16711935
370
    25
100
AcDbLine
 10
326.872195246796
 20
221.9177025032775
 30
0.0
 11
328.6464194981533
 21
219.7113523765431
 31
0.0
  0
LINE
  5
EF
330
70
100
AcDbEntity
  8
shade
 62
     6
420
 16711935
370
    25
100
AcDbLine
 10
327.7593073724373
 20
222.0541243366746
 30
0.0
 11
329.5562068946263
 21
219.2678425897922
 31
0.0
  0
LINE
  5
F0
330
70
100
AcDbEntity
  8
shade
 62
     6
420
 16711935
370
    25
100
AcDbLine
 10
328.7828413315504
 20
222.099659982616
 30
0.0
 11
330.3863994630264
 21
219.1882477616443
 31
0.0
  0
LINE
  5
F1
330
70
100
AcDbEntity
  8
shade
 62
     6
420
 16711935
370
    25
100
AcDbLine
 10
329.9656574991717
 20
222.0655082481234
 30
0.0
 11
331.2165920312783
 21
218.6422827716361
 31
0.0
  0
LINE
  5
F2
330
70
100
AcDbEntity
  8
shade
 62
     6
420
 16711935
370
    25
100
AcDbLine
 10
331.1597650260275
 20
221.9859134199761
 30
0.0
 11
331.9331305891769
 21
218.4262661100176
 31
0.0
  0
LINE
  5
F3
330
70
100
AcDbEntity
  8
shade
 62
     6
420
 16711935
370
    25
100
AcDbLine
 10
332.2970455477811
 20
222.0086812429471
 30
0.0
 11
332.6041335011349
 21
218.2329247192302
 31
0.0
  0
LWPOLYLINE
  5
F4
330
70
100
AcDbEntity
  8
shade
 62
     6
420
 16711935
370
    25
100
AcDbPolyline
 90
       26
 70
     0
 43
0.0
 10
314.6350457271077
 20
200.8438611176394
 10
314.0095784610177
 20
201.6399945036853
 10
314.7943279356153
 20
200.8438611176394
 10
314.6123704562767
 20
201.6285180400231
 10
315.3629681964555
 20
200.8438611176394
 10
315.1240911598004
 20
201.6627623265082
 10
316.1021820251854
 20
200.8438611176394
 10
315.7382670665073
 20
201.6512858629208
 10
317.0461211560037
 20
200.8438611176394
 10
316.6708222859515
 20
201.6855301494791
 10
318.1834016777573
 20
200.8438611176394
 10
317.9104654587491
 20
201.5035726702875
 10
319.6504454236213
 20
200.8438611176394
 10
319.616386241342
 20
201.6399945036853
 10
321.4360535864274
 20
200.8438611176394
 10
321.538416237619
 20
201.7878928005973
 10
323.3807588535362
 20
200.8438611176394
 10
323.6082519787424
 20
201.8902554517889
 10
325.2914049382912
 20
200.8438611176394
 10
325.9964670326027
 20
201.8674876288183
 10
327.3044136742381
 20
200.8438611176394
 10
328.3620993676963
 20
201.9356059933772
 10
329.5448229831781
 20
200.8438611176394
 10
330.6707195933352
 20
201.8674876288183
 10
331.6488104587198
 20
200.8779202998443
 10
332.7860909803996
 20
201.8674876288183
  0
LINE
  5
F5
330
70
100
AcDbEntity
  8
shade
 62
     6
420
 16711935
370
    25
100
AcDbLine
 10
330.6707195933352
 20
201.8674876288183
 30
0.0
 11
332.0809363340228
 21
220.3823552885005
 31
0.0
  0
LINE
  5
F6
330
70
100
AcDbEntity
  8
shade
 62
     6
420
 16711935
370
    25
100
AcDbLine
 10
328.3620993676963
 20
201.9356059933772
 30
0.0
 11
331.5122960731835
 21
220.370971377126
 31
0.0
  0
LINE
  5
F7
330
70
100
AcDbEntity
  8
shade
 62
     6
420
 16711935
370
    25
100
AcDbLine
 10
330.6479517704381
 20
220.2117817207581
 30
0.0
 11
325.9964670326027
 21
201.8674876288183
 31
0.0
  0
LINE
  5
F8
330
70
100
AcDbEntity
  8
shade
 62
     6
420
 16711935
370
    25
100
AcDbLine
 10
329.8632948480539
 20
220.1435708040594
 30
0.0
 11
323.6082519787424
 21
201.8902554517889
 31
0.0
  0
LINE
  5
F9
330
70
100
AcDbEntity
  8
shade
 62
     6
420
 16711935
370
    25
100
AcDbLine
 10
329.1467562901543
 20
219.9160776789269
 30
0.0
 11
321.538416237619
 21
201.7878928005973
 31
0.0
  0
LINE
  5
FA
330
70
100
AcDbEntity
  8
shade
 62
     6
420
 16711935
370
    25
100
AcDbLine
 10
319.616386241342
 20
201.6399945036853
 30
0.0
 11
328.9193557171615
 21
220.2572248144859
 31
0.0
  0
LINE
  5
FB
330
70
100
AcDbEntity
  8
shade
 62
     6
420
 16711935
370
    25
100
AcDbLine
 10
317.9104654587491
 20
201.5035726702875
 30
0.0
 11
328.3847746385277
 21
220.0412081529416
 31
0.0
  0
LINE
  5
FC
330
70
100
AcDbEntity
  8
shade
 62
     6
420
 16711935
370
    25
100
AcDbLine
 10
316.6708222859515
 20
201.6855301494791
 30
0.0
 11
327.8161343777619
 21
219.9388455017493
 31
0.0
  0
LINE
  5
FD
330
70
100
AcDbEntity
  8
shade
 62
     6
420
 16711935
370
    25
100
AcDbLine
 10
315.7382670665073
 20
201.6512858629208
 30
0.0
 11
327.3726245909366
 21
219.9274615902276
 31
0.0
  0
LINE
  5
FE
330
70
100
AcDbEntity
  8
shade
 62
     6
420
 16711935
370
    25
100
AcDbLine
 10
315.1240911598004
 20
201.6627623265082
 30
0.0
 11
327.0314774552294
 21
219.7909472047638
 31
0.0
  0
LINE
  5
FF
330
70
100
AcDbEntity
  8
shade
 62
     6
420
 16711935
370
    25
100
AcDbLine
 10
314.6123704562767
 20
201.6285180400231
 30
0.0
 11
326.6561785851772
 21
219.8250989392573
 31
0.0
  0
LWPOLYLINE
  5
100
330
70
100
AcDbEntity
  8
shade
 62
     6
420
 16711935
370
    25
100
AcDbPolyline
 90
        3
 70
     0
 43
0.0
 10
326.2011923347642
 20
219.6772931943376
 10
314.0095784610177
 20
201.6399945036853
 10
326.371858454794
 20
219.6885845536463
  0
LWPOLYLINE
  5
101
330
70
100
AcDbEntity
  8
shade
 62
     6
420
 16711935
370
    25
100
AcDbPolyline
 90
        3
 70
     0
 43
0.0
 10
326.5424320225371
 20
219.7455041110357
 10
314.2711307685039
 20
201.6855301494791
 10
314.7943279356153
 20
200.8438611176394
  0
LINE
  5
102
330
70
100
AcDbEntity
  8
shade
 62
     6
420
 16711935
370
    25
100
AcDbLine
 10
323.3807588535362
 20
200.8438611176394
 30
0.0
 11
324.0745295883904
 21
201.5944588577438
 31
0.0
  0
LINE
  5
103
330
70
100
AcDbEntity
  8
shade
 62
     6
420
 16711935
370
    25
100
AcDbLine
 10
321.4360535864274
 20
200.8438611176394
 30
0.0
 11
321.9137151076719
 21
201.5944588577438
 31
0.0
  0
LINE
  5
104
330
70
100
AcDbEntity
  8
shade
 62
     6
420
 16711935
370
    25
100
AcDbLine
 10
319.6504454236213
 20
200.8438611176394
 30
0.0
 11
320.048512116645
 21
201.4465605606852
 31
0.0
  0
LINE
  5
105
330
70
100
AcDbEntity
  8
shade
 62
     6
420
 16711935
370
    25
100
AcDbLine
 10
318.1834016777573
 20
200.8438611176394
 30
0.0
 11
318.5131649019425
 21
201.2760795450081
 31
0.0
  0
LINE
  5
106
330
70
100
AcDbEntity
  8
shade
 62
     6
420
 16711935
370
    25
100
AcDbLine
 10
317.0461211560037
 20
200.8438611176394
 30
0.0
 11
317.3758843802626
 21
201.28737090439
 31
0.0
  0
LINE
  5
107
330
70
100
AcDbEntity
  8
shade
 62
     6
420
 16711935
370
    25
100
AcDbLine
 10
316.1021820251854
 20
200.8438611176394
 30
0.0
 11
316.3182912388696
 21
201.28737090439
 31
0.0
  0
LINE
  5
108
330
70
100
AcDbEntity
  8
shade
 62
     6
420
 16711935
370
    25
100
AcDbLine
 10
315.3629681964555
 20
200.8438611176394
 30
0.0
 11
315.5449256757203
 21
201.2988473679043
 31
0.0
  0
LINE
  5
109
330
70
100
AcDbEntity
  8
shade
 62
     6
420
 16711935
370
    25
100
AcDbLine
 10
314.7943279356153
 20
200.8438611176394
 30
0.0
 11
314.9421336804612
 21
201.2760795450081
 31
0.0
  0
LINE
  5
10A
330
70
100
AcDbEntity
  8
shade
 62
     6
420
 16711935
370
    25
100
AcDbLine
 10
325.2914049382912
 20
200.8438611176394
 30
0.0
 11
326.1785170640066
 21
201.7308806911415
 31
0.0
  0
LINE
  5
10B
330
70
100
AcDbEntity
  8
shade
 62
     6
420
 16711935
370
    25
100
AcDbLine
 10
314.6350457271077
 20
200.8438611176394
 30
0.0
 11
314.6578135500786
 21
200.968991591654
 31
0.0
  0
SPLINE
  5
10C
330
70
100
AcDbEntity
  8
shade
 62
     6
420
 16711935
370
    25
100
AcDbSpline
210
0.0
220
0.0
230
1.0
 70
    24
 71
     3
 72
     8
 73
     4
 74
     0
 42
0.0000000001
 43
0.0000000001
 40
0.0
 40
0.0
 40
0.0
 40
0.0
 40
1.0
 40
1.0
 40
1.0
 40
1.0
 10
334.7356256608638
 20
201.6604858703253
 30
0.0
 10
334.7852724451986
 20
201.6604858703253
 30
0.0
 10
334.8312203822588
 20
201.6604858703253
 30
0.0
 10
334.8735243874703
 20
201.6604858703253
 30
0.0
  0
SPLINE
  5
10D
330
70
100
AcDbEntity
  8
shade
 62
     6
420
 16711935
370
    25
100
AcDbSpline
210
0.0
220
0.0
230
1.0
 70
    24
 71
     3
 72
    14
 73
    10
 74
     0
 42
0.0000000001
 43
0.0000000001
 40
0.0
 40
0.0
 40
0.0
 40
0.0
 40
1.0
 40
1.0
 40
1.0
 40
2.0
 40
2.0
 40
2.0
 40
3.0
 40
3.0
 40
3.0
 40
3.0
 10
335.1095718060649
 20
201.6604858703253
 30
0.0
 10
335.0926641634264
 20
201.6604858703253
 30
0.0
 10
335.0722821592557
 20
201.6604858703253
 30
0.0
 10
335.0484848744313
 20
201.6604858703253
 30
0.0
 10
335.0232382976706
 20
201.6604858703253
 30
0.0
 10
334.9941475942874
 20
201.6604858703253
 30
0.0
 10
334.9613348229307
 20
201.6604858703253
 30
0.0
 10
334.9345193849668
 20
201.6604858703253
 30
0.0
 10
334.9052179910454
 20
201.6604858703253
 30
0.0
 10
334.8735243874703
 20
201.6604858703253
 30
0.0
  0
LINE
  5
10E
330
70
100
AcDbEntity
  8
shade
 62
     6
420
 16711935
370
    25
100
AcDbLine
 10
335.1095824356314
 20
201.6604858703253
 30
0.0
 11
334.6968613027789
 21
201.6604858703253
 31
0.0
  0
LINE
  5
10F
330
70
100
AcDbEntity
  8
shade
 62
     6
420
 16711935
370
    25
100
AcDbLine
 10
334.8002130672916
 20
200.2302145996033
 30
0.0
 11
335.1115019451733
 21
200.5415034774849
 31
0.0
  0
LINE
  5
110
330
70
100
AcDbEntity
  8
shade
 62
     6
420
 16711935
370
    25
100
AcDbLine
 10
332.7860909803996
 20
201.6604858703253
 30
0.0
 11
333.0239919912644
 21
201.6604858703253
 31
0.0
  0
LINE
  5
111
330
70
100
AcDbEntity
  8
shade
 62
     6
420
 16711935
370
    25
100
AcDbLine
 10
335.1115019451733
 20
200.5415034774849
 30
0.0
 11
330.4606800156257
 21
200.5415034774849
 31
0.0
  0
SPLINE
  5
112
330
70
100
AcDbEntity
  8
shade
 62
     6
420
 16711935
370
    25
100
AcDbSpline
210
0.0
220
0.0
230
1.0
 70
     8
 71
     3
 72
     8
 73
     4
 74
     0
 42
0.0000000001
 43
0.0000000001
 40
0.0
 40
0.0
 40
0.0
 40
0.0
 40
1.0
 40
1.0
 40
1.0
 40
1.0
 10
334.1951609903257
 20
199.7115797137287
 30
0.0
 10
334.3977335282245
 20
199.9028965387845
 30
0.0
 10
334.5988829649196
 20
200.0957145985789
 30
0.0
 10
334.7985926717875
 20
200.290017953311
 30
0.0
  0
LINE
  5
113
330
70
100
AcDbEntity
  8
shade
 62
     6
420
 16711935
370
    25
100
AcDbLine
 10
334.1951609903257
 20
199.6251625397143
 30
0.0
 11
334.1951609903257
 21
199.7115797137287
 31
0.0
  0
LINE
  5
114
330
70
100
AcDbEntity
  8
shade
 62
     6
420
 16711935
370
    25
100
AcDbLine
 10
331.3770209704733
 20
199.6251625397143
 30
0.0
 11
331.3770209704733
 21
199.7115797137287
 31
0.0
  0
SPLINE
  5
115
330
70
100
AcDbEntity
  8
shade
 62
     6
420
 16711935
370
    25
100
AcDbSpline
210
0.0
220
0.0
230
1.0
 70
     8
 71
     3
 72
     8
 73
     4
 74
     0
 42
0.0000000001
 43
0.0000000001
 40
0.0
 40
0.0
 40
0.0
 40
0.0
 40
1.0
 40
1.0
 40
1.0
 40
1.0
 10
330.7735892890124
 20
200.290017953311
 30
0.0
 10
330.9732989958797
 20
200.0957145985789
 30
0.0
 10
331.1744484325755
 20
199.9028965387845
 30
0.0
 10
331.3770209704733
 20
199.7115797137287
 30
0.0
  0
LINE
  5
116
330
70
100
AcDbEntity
  8
shade
 62
     6
420
 16711935
370
    25
100
AcDbLine
 10
334.7996464337752
 20
200.2296479671227
 30
0.0
 11
334.7985926717875
 21
200.290017953311
 31
0.0
  0
LINE
  5
117
330
70
100
AcDbEntity
  8
shade
 62
     6
420
 16711935
370
    25
100
AcDbLine
 10
330.7735892890124
 20
200.290017953311
 30
0.0
 11
330.772535527024
 21
200.2296479671227
 31
0.0
  0
LINE
  5
118
330
70
100
AcDbEntity
  8
shade
 62
     6
420
 16711935
370
    25
100
AcDbLine
 10
330.4606800156257
 20
200.5415034774849
 30
0.0
 11
330.7719262097988
 21
200.2302572831646
 31
0.0
  0
LINE
  5
119
330
70
100
AcDbEntity
  8
shade
 62
     6
420
 16711935
370
    25
100
AcDbLine
 10
335.1115019451733
 20
200.5415034774849
 30
0.0
 11
335.1405324397486
 21
201.6501333338039
 31
0.0
  0
LINE
  5
11A
330
70
100
AcDbEntity
  8
shade
 62
     6
420
 16711935
370
    25
100
AcDbLine
 10
330.4316495210504
 20
201.6501333338039
 30
0.0
 11
330.4606800156257
 21
200.5415034774849
 31
0.0
  0
LINE
  5
11B
330
70
100
AcDbEntity
  8
shade
 62
     6
420
 16711935
370
    25
100
AcDbLine
 10
334.0385976559228
 20
199.4685991882351
 30
0.0
 11
334.1956581680632
 21
199.6256597002273
 31
0.0
  0
LINE
  5
11C
330
70
100
AcDbEntity
  8
shade
 62
     6
420
 16711935
370
    25
100
AcDbLine
 10
334.1951609903257
 20
199.6251625397143
 30
0.0
 11
334.1951609903257
 21
199.7115797137287
 31
0.0
  0
LINE
  5
11D
330
70
100
AcDbEntity
  8
shade
 62
     6
420
 16711935
370
    25
100
AcDbLine
 10
331.3770209704733
 20
199.6251625397143
 30
0.0
 11
331.3770209704733
 21
199.7115797137287
 31
0.0
  0
LINE
  5
11E
330
70
100
AcDbEntity
  8
shade
 62
     6
420
 16711935
370
    25
100
AcDbLine
 10
334.0385976559228
 20
199.4685991882351
 30
0.0
 11
331.5335843048771
 21
199.4685991882351
 31
0.0
  0
LINE
  5
11F
330
70
100
AcDbEntity
  8
shade
 62
     6
420
 16711935
370
    25
100
AcDbLine
 10
331.3765237928099
 20
199.6256597002273
 30
0.0
 11
331.5335843048771
 21
199.4685991882351
 31
0.0
  0
LINE
  5
120
330
70
100
AcDbEntity
  8
shade
 62
     6
420
 16711935
370
    25
100
AcDbLine
 10
332.7860909803996
 20
199.4685991882351
 30
0.0
 11
331.8591822870743
 21
199.4685991882351
 31
0.0
  0
LINE
  5
121
330
70
100
AcDbEntity
  8
shade
 62
     6
420
 16711935
370
    25
100
AcDbLine
 10
332.7860909803996
 20
199.4685991882351
 30
0.0
 11
333.7128921668895
 21
199.4685991882351
 31
0.0
  0
LINE
  5
122
330
70
100
AcDbEntity
  8
shade
 62
     6
420
 16711935
370
    25
100
AcDbLine
 10
332.4449438447663
 20
218.665050594607
 30
0.0
 11
332.7860909803996
 21
218.665050594607
 31
0.0
  0
LINE
  5
123
330
70
100
AcDbEntity
  8
shade
 62
     6
420
 16711935
370
    25
100
AcDbLine
 10
332.7860909803996
 20
201.8674876288183
 30
0.0
 11
332.7860909803996
 21
220.8941685441643
 31
0.0
  0
LINE
  5
124
330
70
100
AcDbEntity
  8
shade
 62
     6
420
 16711935
370
    25
100
AcDbLine
 10
332.7860909803996
 20
221.7015932895929
 30
0.0
 11
332.7860909803996
 21
221.0192064661132
 31
0.0
  0
LINE
  5
125
330
70
100
AcDbEntity
  8
shade
 62
     6
420
 16711935
370
    25
100
AcDbLine
 10
332.7860909803996
 20
220.336912194773
 30
0.0
 11
332.7860909803996
 21
216.2426838063279
 31
0.0
  0
LWPOLYLINE
  5
126
330
70
100
AcDbEntity
  8
shade
 62
     6
420
 16711935
370
    25
100
AcDbPolyline
 90
        3
 70
     0
 43
0.0
 10
341.6455506694676
 20
221.4741927165263
 10
340.656075892635
 20
222.8048146289925
 10
340.6219241581418
 20
222.7820468060219
  0
LINE
  5
127
330
70
100
AcDbEntity
  8
shade
 62
     6
420
 16711935
370
    25
100
AcDbLine
 10
340.5537132414425
 20
222.8844094572142
 30
0.0
 11
341.6455506694676
 21
221.4741927165263
 31
0.0
  0
LINE
  5
128
330
70
100
AcDbEntity
  8
shade
 62
     6
420
 16711935
370
    25
100
AcDbLine
 10
340.3263126684505
 20
222.9526203738385
 30
0.0
 11
341.4635931901297
 21
221.5764628154308
 31
0.0
  0
LINE
  5
129
330
70
100
AcDbEntity
  8
shade
 62
     6
420
 16711935
370
    25
100
AcDbLine
 10
340.0760517202718
 20
223.0435991134343
 30
0.0
 11
341.3270788045928
 21
221.6106145499233
 31
0.0
  0
LWPOLYLINE
  5
12A
330
70
100
AcDbEntity
  8
shade
 62
     6
420
 16711935
370
    25
100
AcDbPolyline
 90
        3
 70
     0
 43
0.0
 10
339.8144994127866
 20
223.1004261187589
 10
340.9631638459888
 20
221.7015932895929
 10
340.0760517202718
 20
223.0435991134343
  0
LWPOLYLINE
  5
12B
330
70
100
AcDbEntity
  8
shade
 62
     6
420
 16711935
370
    25
100
AcDbPolyline
 90
       19
 70
     0
 43
0.0
 10
339.8144994127866
 20
223.1004261187589
 10
340.6333080696641
 20
221.7925720291143
 10
339.3936648968662
 20
223.1801134990453
 10
340.1102034546919
 20
221.872166857336
 10
338.8250246360266
 20
223.2483244157443
 10
339.4505844541821
 20
221.8949346803066
 10
338.233709104356
 20
223.2937675094718
 10
338.6999867140783
 20
221.9177025032775
 10
337.5740901038461
 20
223.3506870668622
 10
337.812874588362
 20
222.0541243366746
 10
336.664210155234
 20
223.4416658064573
 10
336.7893406292489
 20
222.099659982616
 10
335.6748279304659
 20
223.4530497179797
 10
335.6065244617014
 20
222.0655082481234
 10
334.6739692422579
 20
223.4302818950829
 10
334.4124169347718
 20
221.9859134199761
 10
333.7982410280645
 20
223.4302818950829
 10
333.275136413092
 20
222.0086812429471
 10
332.7860909803996
 20
223.4416658064573
  0
LINE
  5
12C
330
70
100
AcDbEntity
  8
shade
 62
     6
420
 16711935
370
    25
100
AcDbLine
 10
340.5537132414425
 20
222.8844094572142
 30
0.0
 11
340.4286753195673
 21
222.8274898997501
 31
0.0
  0
LINE
  5
12D
330
70
100
AcDbEntity
  8
shade
 62
     6
420
 16711935
370
    25
100
AcDbLine
 10
340.3263126684505
 20
222.9526203738385
 30
0.0
 11
340.2125661058094
 21
222.8844094572142
 31
0.0
  0
LINE
  5
12E
330
70
100
AcDbEntity
  8
shade
 62
     6
420
 16711935
370
    25
100
AcDbLine
 10
340.0760517202718
 20
223.0435991134343
 30
0.0
 11
339.9510137983236
 21
222.9298525509423
 31
0.0
  0
LINE
  5
12F
330
70
100
AcDbEntity
  8
shade
 62
     6
420
 16711935
370
    25
100
AcDbLine
 10
339.8144994127866
 20
223.1004261187589
 30
0.0
 11
339.6097741106241
 21
222.9298525509423
 31
0.0
  0
LINE
  5
130
330
70
100
AcDbEntity
  8
shade
 62
     6
420
 16711935
370
    25
100
AcDbLine
 10
339.3936648968662
 20
223.1801134990453
 30
0.0
 11
339.0980534071011
 21
222.9526203738385
 31
0.0
  0
LINE
  5
131
330
70
100
AcDbEntity
  8
shade
 62
     6
420
 16711935
370
    25
100
AcDbLine
 10
338.8250246359534
 20
223.2483244157443
 30
0.0
 11
338.4952614118418
 21
222.9867721081841
 31
0.0
  0
LINE
  5
132
330
70
100
AcDbEntity
  8
shade
 62
     6
420
 16711935
370
    25
100
AcDbLine
 10
338.233709104356
 20
223.2937675094718
 30
0.0
 11
337.8810855051345
 21
222.9526203738385
 31
0.0
  0
LINE
  5
133
330
70
100
AcDbEntity
  8
shade
 62
     6
420
 16711935
370
    25
100
AcDbLine
 10
337.5740901038461
 20
223.3506870668622
 30
0.0
 11
337.1532555878528
 21
222.8730255456916
 31
0.0
  0
LINE
  5
134
330
70
100
AcDbEntity
  8
shade
 62
     6
420
 16711935
370
    25
100
AcDbLine
 10
336.664210155234
 20
223.4416658064573
 30
0.0
 11
336.232084279931
 21
222.7820468060219
 31
0.0
  0
LINE
  5
135
330
70
100
AcDbEntity
  8
shade
 62
     6
420
 16711935
370
    25
100
AcDbLine
 10
335.6748279304659
 20
223.4530497179797
 30
0.0
 11
335.2198416802013
 21
222.6227645975883
 31
0.0
  0
LINE
  5
136
330
70
100
AcDbEntity
  8
shade
 62
     6
420
 16711935
370
    25
100
AcDbLine
 10
334.6739692422579
 20
223.4302818950829
 30
0.0
 11
334.3214381951022
 21
222.2020226336597
 31
0.0
  0
LINE
  5
137
330
70
100
AcDbEntity
  8
shade
 62
     6
420
 16711935
370
    25
100
AcDbLine
 10
341.6455506694676
 20
221.4741927165263
 30
0.0
 11
339.3709896260348
 21
219.6772931943376
 31
0.0
  0
LINE
  5
138
330
70
100
AcDbEntity
  8
shade
 62
     6
420
 16711935
370
    25
100
AcDbLine
 10
341.4635931901297
 20
221.5764628154308
 30
0.0
 11
339.2003235060784
 21
219.6885845536463
 31
0.0
  0
LINE
  5
139
330
70
100
AcDbEntity
  8
shade
 62
     6
420
 16711935
370
    25
100
AcDbLine
 10
339.0297499382622
 20
219.7455041110357
 30
0.0
 11
341.3270788045928
 21
221.6106145499233
 31
0.0
  0
LINE
  5
13A
330
70
100
AcDbEntity
  8
shade
 62
     6
420
 16711935
370
    25
100
AcDbLine
 10
340.9631638459888
 20
221.7015932895929
 30
0.0
 11
338.6772188911806
 21
219.6089897254253
 31
0.0
  0
LINE
  5
13B
330
70
100
AcDbEntity
  8
shade
 62
     6
420
 16711935
370
    25
100
AcDbLine
 10
340.6333080696641
 20
221.7925720291143
 30
0.0
 11
338.392898760724
 21
219.6545253713667
 31
0.0
  0
LINE
  5
13C
330
70
100
AcDbEntity
  8
shade
 62
     6
420
 16711935
370
    25
100
AcDbLine
 10
340.1102034546919
 20
221.872166857336
 30
0.0
 11
337.9380050624504
 21
219.6545253713667
 31
0.0
  0
LINE
  5
13D
330
70
100
AcDbEntity
  8
shade
 62
     6
420
 16711935
370
    25
100
AcDbLine
 10
339.4505844541821
 20
221.8949346803066
 30
0.0
 11
337.4489596297577
 21
219.5862219025285
 31
0.0
  0
LINE
  5
13E
330
70
100
AcDbEntity
  8
shade
 62
     6
420
 16711935
370
    25
100
AcDbLine
 10
338.6999867140783
 20
221.9177025032775
 30
0.0
 11
336.9257624626466
 21
219.7113523765431
 31
0.0
  0
LINE
  5
13F
330
70
100
AcDbEntity
  8
shade
 62
     6
420
 16711935
370
    25
100
AcDbLine
 10
337.812874588362
 20
222.0541243366746
 30
0.0
 11
336.0159750662468
 21
219.2678425897922
 31
0.0
  0
LINE
  5
140
330
70
100
AcDbEntity
  8
shade
 62
     6
420
 16711935
370
    25
100
AcDbLine
 10
336.7893406292485
 20
222.099659982616
 30
0.0
 11
335.1857824978473
 21
219.1882477616443
 31
0.0
  0
LINE
  5
141
330
70
100
AcDbEntity
  8
shade
 62
     6
420
 16711935
370
    25
100
AcDbLine
 10
335.6065244617014
 20
222.0655082481234
 30
0.0
 11
334.3555899295216
 21
218.6422827716361
 31
0.0
  0
LINE
  5
142
330
70
100
AcDbEntity
  8
shade
 62
     6
420
 16711935
370
    25
100
AcDbLine
 10
334.4124169347718
 20
221.9859134199761
 30
0.0
 11
333.6390513716221
 21
218.4262661100176
 31
0.0
  0
LINE
  5
143
330
70
100
AcDbEntity
  8
shade
 62
     6
420
 16711935
370
    25
100
AcDbLine
 10
333.275136413092
 20
222.0086812429471
 30
0.0
 11
332.9680484596651
 21
218.2329247192302
 31
0.0
  0
LWPOLYLINE
  5
144
330
70
100
AcDbEntity
  8
shade
 62
     6
420
 16711935
370
    25
100
AcDbPolyline
 90
       26
 70
     0
 43
0.0
 10
350.9371362336925
 20
200.8438611176394
 10
351.5626034997816
 20
201.6399945036853
 10
350.7778540252572
 20
200.8438611176394
 10
350.9598115045238
 20
201.6285180400231
 10
350.2092137644182
 20
200.8438611176394
 10
350.4480908009995
 20
201.6627623265082
 10
349.4699999356874
 20
200.8438611176394
 10
349.8339148942913
 20
201.6512858629208
 10
348.5260608047959
 20
200.8438611176394
 10
348.9013596748478
 20
201.6855301494791
 10
347.3887802830423
 20
200.8438611176394
 10
347.6617165020505
 20
201.5035726702875
 10
345.921736537178
 20
200.8438611176394
 10
345.9557957195324
 20
201.6399945036853
 10
344.1361283743725
 20
200.8438611176394
 10
344.0337657232543
 20
201.7878928005973
 10
342.1914231073382
 20
200.8438611176394
 10
341.9639299821304
 20
201.8902554517889
 10
340.2807770225087
 20
200.8438611176394
 10
339.5757149282717
 20
201.8674876288183
 10
338.2677682866356
 20
200.8438611176394
 10
337.210082593103
 20
201.9356059933772
 10
336.0273589776219
 20
200.8438611176394
 10
334.9014623674641
 20
201.8674876288183
 10
333.9233715020792
 20
200.8779202998443
 10
332.7860909803996
 20
201.8674876288183
  0
LINE
  5
145
330
70
100
AcDbEntity
  8
shade
 62
     6
420
 16711935
370
    25
100
AcDbLine
 10
334.9014623674641
 20
201.8674876288183
 30
0.0
 11
333.4912456267762
 21
220.3823552885005
 31
0.0
  0
LINE
  5
146
330
70
100
AcDbEntity
  8
shade
 62
     6
420
 16711935
370
    25
100
AcDbLine
 10
337.210082593103
 20
201.9356059933772
 30
0.0
 11
334.0598858876902
 21
220.370971377126
 31
0.0
  0
LINE
  5
147
330
70
100
AcDbEntity
  8
shade
 62
     6
420
 16711935
370
    25
100
AcDbLine
 10
334.9242301903612
 20
220.2117817207581
 30
0.0
 11
339.5757149282717
 21
201.8674876288183
 31
0.0
  0
LINE
  5
148
330
70
100
AcDbEntity
  8
shade
 62
     6
420
 16711935
370
    25
100
AcDbLine
 10
335.7088871128937
 20
220.1435708040594
 30
0.0
 11
341.9639299821304
 21
201.8902554517889
 31
0.0
  0
LINE
  5
149
330
70
100
AcDbEntity
  8
shade
 62
     6
420
 16711935
370
    25
100
AcDbLine
 10
336.4254256706447
 20
219.9160776789269
 30
0.0
 11
344.0337657232543
 21
201.7878928005973
 31
0.0
  0
LINE
  5
14A
330
70
100
AcDbEntity
  8
shade
 62
     6
420
 16711935
370
    25
100
AcDbLine
 10
345.9557957195324
 20
201.6399945036853
 30
0.0
 11
336.6528262437116
 21
220.2572248144859
 31
0.0
  0
LINE
  5
14B
330
70
100
AcDbEntity
  8
shade
 62
     6
420
 16711935
370
    25
100
AcDbLine
 10
347.6617165020505
 20
201.5035726702875
 30
0.0
 11
337.1874073222716
 21
220.0412081529416
 31
0.0
  0
LINE
  5
14C
330
70
100
AcDbEntity
  8
shade
 62
     6
420
 16711935
370
    25
100
AcDbLine
 10
348.9013596748478
 20
201.6855301494791
 30
0.0
 11
337.7560475831119
 21
219.9388455017493
 31
0.0
  0
LINE
  5
14D
330
70
100
AcDbEntity
  8
shade
 62
     6
420
 16711935
370
    25
100
AcDbLine
 10
349.8339148942913
 20
201.6512858629208
 30
0.0
 11
338.1995573699366
 21
219.9274615902276
 31
0.0
  0
LINE
  5
14E
330
70
100
AcDbEntity
  8
shade
 62
     6
420
 16711935
370
    25
100
AcDbLine
 10
350.4480908009995
 20
201.6627623265082
 30
0.0
 11
338.5407045055699
 21
219.7909472047638
 31
0.0
  0
LINE
  5
14F
330
70
100
AcDbEntity
  8
shade
 62
     6
420
 16711935
370
    25
100
AcDbLine
 10
350.9598115045238
 20
201.6285180400231
 30
0.0
 11
338.9160033756224
 21
219.8250989392573
 31
0.0
  0
LWPOLYLINE
  5
150
330
70
100
AcDbEntity
  8
shade
 62
     6
420
 16711935
370
    25
100
AcDbPolyline
 90
        3
 70
     0
 43
0.0
 10
339.3709896260348
 20
219.6772931943376
 10
351.5626034997816
 20
201.6399945036853
 10
339.2003235060784
 20
219.6885845536463
  0
LWPOLYLINE
  5
151
330
70
100
AcDbEntity
  8
shade
 62
     6
420
 16711935
370
    25
100
AcDbPolyline
 90
        3
 70
     0
 43
0.0
 10
339.0297499382622
 20
219.7455041110357
 10
351.3010511922964
 20
201.6855301494791
 10
350.7778540252578
 20
200.8438611176394
  0
LINE
  5
152
330
70
100
AcDbEntity
  8
shade
 62
     6
420
 16711935
370
    25
100
AcDbLine
 10
342.1914231073382
 20
200.8438611176394
 30
0.0
 11
341.4976523724096
 21
201.5944588577438
 31
0.0
  0
LINE
  5
153
330
70
100
AcDbEntity
  8
shade
 62
     6
420
 16711935
370
    25
100
AcDbLine
 10
344.1361283743725
 20
200.8438611176394
 30
0.0
 11
343.6584668532018
 21
201.5944588577438
 31
0.0
  0
LINE
  5
154
330
70
100
AcDbEntity
  8
shade
 62
     6
420
 16711935
370
    25
100
AcDbLine
 10
345.921736537178
 20
200.8438611176394
 30
0.0
 11
345.5236698441553
 21
201.4465605606852
 31
0.0
  0
LINE
  5
155
330
70
100
AcDbEntity
  8
shade
 62
     6
420
 16711935
370
    25
100
AcDbLine
 10
347.3887802830423
 20
200.8438611176394
 30
0.0
 11
347.0590170589316
 21
201.2760795450081
 31
0.0
  0
LINE
  5
156
330
70
100
AcDbEntity
  8
shade
 62
     6
420
 16711935
370
    25
100
AcDbLine
 10
348.5260608047959
 20
200.8438611176394
 30
0.0
 11
348.1962975806108
 21
201.28737090439
 31
0.0
  0
LINE
  5
157
330
70
100
AcDbEntity
  8
shade
 62
     6
420
 16711935
370
    25
100
AcDbLine
 10
349.4699999356874
 20
200.8438611176394
 30
0.0
 11
349.2538907219294
 21
201.28737090439
 31
0.0
  0
LINE
  5
158
330
70
100
AcDbEntity
  8
shade
 62
     6
420
 16711935
370
    25
100
AcDbLine
 10
350.2092137644182
 20
200.8438611176394
 30
0.0
 11
350.027256285079
 21
201.2988473679043
 31
0.0
  0
LINE
  5
159
330
70
100
AcDbEntity
  8
shade
 62
     6
420
 16711935
370
    25
100
AcDbLine
 10
350.7778540252572
 20
200.8438611176394
 30
0.0
 11
350.6300482803387
 21
201.2760795450081
 31
0.0
  0
LINE
  5
15A
330
70
100
AcDbEntity
  8
shade
 62
     6
420
 16711935
370
    25
100
AcDbLine
 10
340.2807770225087
 20
200.8438611176394
 30
0.0
 11
339.3936648968662
 21
201.7308806911415
 31
0.0
  0
LINE
  5
15B
330
70
100
AcDbEntity
  8
shade
 62
     6
420
 16711935
370
    25
100
AcDbLine
 10
350.9371362336925
 20
200.8438611176394
 30
0.0
 11
350.9143684107947
 21
200.968991591654
 31
0.0
  0
LINE
  5
15C
330
70
100
AcDbEntity
  8
shade
 62
     6
420
 16711935
370
    25
100
AcDbLine
 10
335.1405324397486
 20
201.6501333338039
 30
0.0
 11
335.1115019451733
 21
200.5415034774849
 31
0.0
  0
LINE
  5
15D
330
70
100
AcDbEntity
  8
shade
 62
     6
420
 16711935
370
    25
100
AcDbLine
 10
334.6968613027789
 20
201.6604858703253
 30
0.0
 11
335.1291455854705
 21
201.6604858703253
 31
0.0
  0
LINE
  5
15E
330
70
100
AcDbEntity
  8
shade
 62
     6
420
 16711935
370
    25
100
AcDbLine
 10
333.0239919912644
 20
201.6604858703253
 30
0.0
 11
332.5481899695355
 21
201.6604858703253
 31
0.0
  0
LINE
  5
15F
330
70
100
AcDbEntity
  8
shade
 62
     6
420
 16711935
370
    25
100
AcDbLine
 10
330.875320658021
 20
201.6604858703253
 30
0.0
 11
330.4430363754022
 21
201.6604858703253
 31
0.0
  0
ENDSEC
  0
SECTION
  2
OBJECTS
  0
DICTIONARY
  5
C
330
0
100
AcDbDictionary
281
     1
  3
ACAD_COLOR
350
63
  3
ACAD_DETAILVIEWSTYLE
350
6A
  3
ACAD_GROUP
350
D
  3
ACAD_LAYOUT
350
62
  3
ACAD_MATERIAL
350
10
  3
ACAD_MLEADERSTYLE
350
66
  3
ACAD_MLINESTYLE
350
5F
  3
ACAD_PLOTSETTINGS
350
61
  3
ACAD_PLOTSTYLENAME
350
E
  3
ACAD_SCALELIST
350
42
  3
ACAD_SECTIONVIEWSTYLE
350
68
  3
ACAD_TABLESTYLE
350
64
  3
ACAD_VISUALSTYLE
350
29
  3
ACDB_RECOMPOSE_DATA
350
168
  3
AcDbVariableDictionary
350
160
  0
DICTIONARY
  5
63
102
{ACAD_REACTORS
330
C
102
}
330
C
100
AcDbDictionary
281
     1
  0
DICTIONARY
  5
6A
102
{ACAD_REACTORS
330
C
102
}
330
C
100
AcDbDictionary
281
     1
  3
Imperial24
350
6B
  0
DICTIONARY
  5
D
102
{ACAD_REACTORS
330
C
102
}
330
C
100
AcDbDictionary
281
     1
  0
DICTIONARY
  5
62
102
{ACAD_REACTORS
330
C
102
}
330
C
100
AcDbDictionary
281
     1
  3
Layout1
350
6F
  3
Layout2
350
77
  3
Model
350
73
  0
DICTIONARY
  5
10
102
{ACAD_REACTORS
330
C
102
}
330
C
100
AcDbDictionary
281
     1
  3
ByBlock
350
19
  3
ByLayer
350
11
  3
Global
350
21
  0
DICTIONARY
  5
66
102
{ACAD_REACTORS
330
C
102
}
330
C
100
AcDbDictionary
281
     1
  3
Standard
350
67
  0
DICTIONARY
  5
5F
102
{ACAD_REACTORS
330
C
102
}
330
C
100
AcDbDictionary
281
     1
  3
Standard
350
60
  0
DICTIONARY
  5
61
102
{ACAD_REACTORS
330
C
102
}
330
C
100
AcDbDictionary
281
     1
  0
ACDBDICTIONARYWDFLT
  5
E
102
{ACAD_REACTORS
330
C
102
}
330
C
100
AcDbDictionary
281
     1
  3
Normal
350
F
100
AcDbDictionaryWithDefault
340
F
  0
DICTIONARY
  5
42
102
{ACAD_REACTORS
330
C
102
}
330
C
100
AcDbDictionary
281
     1
  3
A0
350
43
  3
A1
350
44
  3
A2
350
45
  3
A3
350
46
  3
A4
350
47
  3
A5
350
48
  3
A6
350
49
  3
A7
350
4A
  3
A8
350
4B
  3
A9
350
4C
  3
B0
350
4D
  3
B1
350
4E
  3
B2
350
4F
  3
B3
350
50
  3
B4
350
51
  3
B5
350
52
  3
B6
350
53
  0
DICTIONARY
  5
68
102
{ACAD_REACTORS
330
C
102
}
330
C
100
AcDbDictionary
281
     1
  3
Imperial24
350
69
  0
DICTIONARY
  5
64
102
{ACAD_REACTORS
330
C
102
}
330
C
100
AcDbDictionary
281
     1
  3
Standard
350
65
  0
DICTIONARY
  5
29
102
{ACAD_REACTORS
330
C
102
}
330
C
100
AcDbDictionary
281
     1
  3
2dWireframe
350
2F
  3
Basic
350
2E
  3
Brighten
350
35
  3
ColorChange
350
39
  3
Conceptual
350
32
  3
Dim
350
34
  3
EdgeColorOff
350
41
  3
Facepattern
350
38
  3
Flat
350
2A
  3
FlatWithEdges
350
2B
  3
Gouraud
350
2C
  3
GouraudWithEdges
350
2D
  3
Hidden
350
31
  3
JitterOff
350
3F
  3
Linepattern
350
37
  3
OverhangOff
350
40
  3
Realistic
350
33
  3
Shaded
350
3E
  3
Shaded with edges
350
3D
  3
Shades of Gray
350
3A
  3
Sketchy
350
3B
  3
Thicken
350
36
  3
Wireframe
350
30
  3
X-Ray
350
3C
  0
XRECORD
  5
168
102
{ACAD_REACTORS
330
C
102
}
330
C
100
AcDbXrecord
280
     1
 90
        1
330
65
  0
DICTIONARY
  5
160
102
{ACAD_REACTORS
330
C
102
}
330
C
100
AcDbDictionary
281
     1
  3
CANNOSCALE
350
165
  3
CMLEADERSTYLE
350
162
  3
CTABLESTYLE
350
161
  3
CVIEWDETAILSTYLE
350
163
  3
CVIEWSECTIONSTYLE
350
164
  0
ACDBDETAILVIEWSTYLE
  5
6B
102
{ACAD_REACTORS
330
6A
102
}
330
6A
100
AcDbModelDocViewStyle
 70
     0
  3
Imperial24
290
     1
300
Imperial24
 90
        0
100
AcDbDetailViewStyle
 70
     0
 71
     0
 90
        3
 71
     1
340
55
 62
   256
 40
0.24
340
0
 62
   256
 40
0.24
300

 40
0.36
280
     3
 71
     2
340
5D
 90
       25
 62
   256
 71
     3
340
55
 62
   256
 40
0.24
 90
        1
 40
0.75
 90
        1
300
%<\AcVar ViewType \f "%tc1">% %<\AcVar ViewDetailId>%\PSCALE %<\AcVar ViewScale \f "%sn">%
 71
     4
340
5D
 90
       25
 62
   256
340
5D
 90
       25
 62
   256
280
     0
  0
LAYOUT
  5
6F
102
{ACAD_REACTORS
330
62
102
}
330
62
100
AcDbPlotSettings
  1

  2

  4

  6

 40
0.0
 41
0.0
 42
0.0
 43
0.0
 44
0.0
 45
0.0
 46
0.0
 47
0.0
 48
0.0
 49
0.0
140
0.0
141
0.0
142
1.0
143
1.0
 70
   688
 72
     0
 73
     0
 74
     5
  7

 75
    16
147
1.0
 76
     0
 77
     2
 78
   300
148
0.0
149
0.0
100
AcDbLayout
  1
Layout1
 70
     1
 71
     1
 10
0.0
 20
0.0
 11
12.0
 21
9.0
 12
0.0
 22
0.0
 32
0.0
 14
0.0
 24
0.0
 34
0.0
 15
0.0
 25
0.0
 35
0.0
146
0.0
 13
0.0
 23
0.0
 33
0.0
 16
1.0
 26
0.0
 36
0.0
 17
0.0
 27
1.0
 37
0.0
 76
     0
330
6C
  0
LAYOUT
  5
77
102
{ACAD_REACTORS
330
62
102
}
330
62
100
AcDbPlotSettings
  1

  2

  4

  6

 40
0.0
 41
0.0
 42
0.0
 43
0.0
 44
0.0
 45
0.0
 46
0.0
 47
0.0
 48
0.0
 49
0.0
140
0.0
141
0.0
142
1.0
143
1.0
 70
   688
 72
     0
 73
     0
 74
     5
  7

 75
    16
147
1.0
 76
     0
 77
     2
 78
   300
148
0.0
149
0.0
100
AcDbLayout
  1
Layout2
 70
     1
 71
     2
 10
0.0
 20
0.0
 11
12.0
 21
9.0
 12
0.0
 22
0.0
 32
0.0
 14
0.0
 24
0.0
 34
0.0
 15
0.0
 25
0.0
 35
0.0
146
0.0
 13
0.0
 23
0.0
 33
0.0
 16
1.0
 26
0.0
 36
0.0
 17
0.0
 27
1.0
 37
0.0
 76
     0
330
74
  0
LAYOUT
  5
73
102
{ACAD_REACTORS
330
62
102
}
330
62
100
AcDbPlotSettings
  1

  2

  4

  6

 40
0.0
 41
0.0
 42
0.0
 43
0.0
 44
0.0
 45
0.0
 46
0.0
 47
0.0
 48
0.0
 49
0.0
140
0.0
141
0.0
142
1.0
143
1.0
 70
  1712
 72
     0
 73
     0
 74
     0
  7

 75
     0
147
1.0
 76
     0
 77
     2
 78
   300
148
0.0
149
0.0
100
AcDbLayout
  1
Model
 70
     1
 71
     0
 10
0.0
 20
0.0
 11
12.0
 21
9.0
 12
0.0
 22
0.0
 32
0.0
 14
0.0
 24
0.0
 34
0.0
 15
0.0
 25
0.0
 35
0.0
146
0.0
 13
0.0
 23
0.0
 33
0.0
 16
1.0
 26
0.0
 36
0.0
 17
0.0
 27
1.0
 37
0.0
 76
     0
330
70
  0
MATERIAL
  5
19
102
{ACAD_XDICTIONARY
360
1A
102
}
102
{ACAD_REACTORS
330
10
102
}
330
10
100
AcDbMaterial
  1
ByBlock
 72
     0
 43
0.0208333333333333
 43
0.0
 43
0.0
 43
0.0
 43
0.0
 43
0.0208333333333333
 43
0.0
 43
0.0
 43
0.0
 43
0.0
 43
1.0
 43
0.0
 43
0.0
 43
0.0
 43
0.0
 43
1.0
 77
     0
 47
0.0208333333333333
 47
0.0
 47
0.0
 47
0.0
 47
0.0
 47
0.0208333333333333
 47
0.0
 47
0.0
 47
0.0
 47
0.0
 47
1.0
 47
0.0
 47
0.0
 47
0.0
 47
0.0
 47
1.0
171
     0
 49
0.0208333333333333
 49
0.0
 49
0.0
 49
0.0
 49
0.0
 49
0.0208333333333333
 49
0.0
 49
0.0
 49
0.0
 49
0.0
 49
1.0
 49
0.0
 49
0.0
 49
0.0
 49
0.0
 49
1.0
175
     0
142
0.0208333333333333
142
0.0
142
0.0
142
0.0
142
0.0
142
0.0208333333333333
142
0.0
142
0.0
142
0.0
142
0.0
142
1.0
142
0.0
142
0.0
142
0.0
142
0.0
142
1.0
179
     0
144
0.0208333333333333
144
0.0
144
0.0
144
0.0
144
0.0
144
0.0208333333333333
144
0.0
144
0.0
144
0.0
144
0.0
144
1.0
144
0.0
144
0.0
144
0.0
144
0.0
144
1.0
147
0.0208333333333333
147
0.0
147
0.0
147
0.0
147
0.0
147
0.0208333333333333
147
0.0
147
0.0
147
0.0
147
0.0
147
1.0
147
0.0
147
0.0
147
0.0
147
0.0
147
1.0
  0
MATERIAL
  5
11
102
{ACAD_XDICTIONARY
360
12
102
}
102
{ACAD_REACTORS
330
10
102
}
330
10
100
AcDbMaterial
  1
ByLayer
 72
     0
 43
0.0208333333333333
 43
0.0
 43
0.0
 43
0.0
 43
0.0
 43
0.0208333333333333
 43
0.0
 43
0.0
 43
0.0
 43
0.0
 43
1.0
 43
0.0
 43
0.0
 43
0.0
 43
0.0
 43
1.0
 77
     0
 47
0.0208333333333333
 47
0.0
 47
0.0
 47
0.0
 47
0.0
 47
0.0208333333333333
 47
0.0
 47
0.0
 47
0.0
 47
0.0
 47
1.0
 47
0.0
 47
0.0
 47
0.0
 47
0.0
 47
1.0
171
     0
 49
0.0208333333333333
 49
0.0
 49
0.0
 49
0.0
 49
0.0
 49
0.0208333333333333
 49
0.0
 49
0.0
 49
0.0
 49
0.0
 49
1.0
 49
0.0
 49
0.0
 49
0.0
 49
0.0
 49
1.0
175
     0
142
0.0208333333333333
142
0.0
142
0.0
142
0.0
142
0.0
142
0.0208333333333333
142
0.0
142
0.0
142
0.0
142
0.0
142
1.0
142
0.0
142
0.0
142
0.0
142
0.0
142
1.0
179
     0
144
0.0208333333333333
144
0.0
144
0.0
144
0.0
144
0.0
144
0.0208333333333333
144
0.0
144
0.0
144
0.0
144
0.0
144
1.0
144
0.0
144
0.0
144
0.0
144
0.0
144
1.0
147
0.0208333333333333
147
0.0
147
0.0
147
0.0
147
0.0
147
0.0208333333333333
147
0.0
147
0.0
147
0.0
147
0.0
147
1.0
147
0.0
147
0.0
147
0.0
147
0.0
147
1.0
  0
MATERIAL
  5
21
102
{ACAD_XDICTIONARY
360
22
102
}
102
{ACAD_REACTORS
330
10
102
}
330
10
100
AcDbMaterial
  1
Global
 72
     0
 43
0.0208333333333333
 43
0.0
 43
0.0
 43
0.0
 43
0.0
 43
0.0208333333333333
 43
0.0
 43
0.0
 43
0.0
 43
0.0
 43
1.0
 43
0.0
 43
0.0
 43
0.0
 43
0.0
 43
1.0
 77
     0
 47
0.0208333333333333
 47
0.0
 47
0.0
 47
0.0
 47
0.0
 47
0.0208333333333333
 47
0.0
 47
0.0
 47
0.0
 47
0.0
 47
1.0
 47
0.0
 47
0.0
 47
0.0
 47
0.0
 47
1.0
171
     0
 49
0.0208333333333333
 49
0.0
 49
0.0
 49
0.0
 49
0.0
 49
0.0208333333333333
 49
0.0
 49
0.0
 49
0.0
 49
0.0
 49
1.0
 49
0.0
 49
0.0
 49
0.0
 49
0.0
 49
1.0
175
     0
142
0.0208333333333333
142
0.0
142
0.0
142
0.0
142
0.0
142
0.0208333333333333
142
0.0
142
0.0
142
0.0
142
0.0
142
1.0
142
0.0
142
0.0
142
0.0
142
0.0
142
1.0
179
     0
144
0.0208333333333333
144
0.0
144
0.0
144
0.0
144
0.0
144
0.0208333333333333
144
0.0
144
0.0
144
0.0
144
0.0
144
1.0
144
0.0
144
0.0
144
0.0
144
0.0
144
1.0
147
0.0208333333333333
147
0.0
147
0.0
147
0.0
147
0.0
147
0.0208333333333333
147
0.0
147
0.0
147
0.0
147
0.0
147
1.0
147
0.0
147
0.0
147
0.0
147
0.0
147
1.0
  0
MLEADERSTYLE
  5
67
102
{ACAD_REACTORS
330
66
102
}
330
66
100
AcDbMLeaderStyle
179
     2
170
     2
171
     1
172
     0
 90
        2
 40
0.0
 41
0.0
173
     1
 91
-1056964608
340
5B
 92
       -2
290
     1
 42
0.09
291
     1
 43
0.36
  3
Standard
 44
0.18
300

342
55
174
     1
178
     6
175
     1
176
     0
 93
-1056964608
 45
0.18
292
     0
297
     0
 46
0.18
 94
-1056964608
 47
1.0
 49
1.0
140
1.0
293
     1
141
0.0
294
     1
177
     0
142
1.0
295
     1
296
     0
143
0.125
271
     0
272
     9
273
     9
298
     1
  0
MLINESTYLE
  5
60
102
{ACAD_REACTORS
330
5F
102
}
330
5F
100
AcDbMlineStyle
  2
STANDARD
 70
     0
  3

 62
   256
 51
90.0
 52
90.0
 71
     2
 49
0.5
 62
   256
  6
BYLAYER
 49
-0.5
 62
   256
  6
BYLAYER
  0
ACDBPLACEHOLDER
  5
F
102
{ACAD_REACTORS
330
E
102
}
330
E
  0
SCALE
  5
43
102
{ACAD_REACTORS
330
42
102
}
330
42
100
AcDbScale
 70
     0
300
1:1
140
1.0
141
1.0
290
     1
  0
SCALE
  5
44
102
{ACAD_REACTORS
330
42
102
}
330
42
100
AcDbScale
 70
     0
300
1/128" = 1'-0"
140
0.0078125
141
12.0
290
     0
  0
SCALE
  5
45
102
{ACAD_REACTORS
330
42
102
}
330
42
100
AcDbScale
 70
     0
300
1/64" = 1'-0"
140
0.015625
141
12.0
290
     0
  0
SCALE
  5
46
102
{ACAD_REACTORS
330
42
102
}
330
42
100
AcDbScale
 70
     0
300
1/32" = 1'-0"
140
0.03125
141
12.0
290
     0
  0
SCALE
  5
47
102
{ACAD_REACTORS
330
42
102
}
330
42
100
AcDbScale
 70
     0
300
1/16" = 1'-0"
140
0.0625
141
12.0
290
     0
  0
SCALE
  5
48
102
{ACAD_REACTORS
330
42
102
}
330
42
100
AcDbScale
 70
     0
300
3/32" = 1'-0"
140
0.09375
141
12.0
290
     0
  0
SCALE
  5
49
102
{ACAD_REACTORS
330
42
102
}
330
42
100
AcDbScale
 70
     0
300
1/8" = 1'-0"
140
0.125
141
12.0
290
     0
  0
SCALE
  5
4A
102
{ACAD_REACTORS
330
42
102
}
330
42
100
AcDbScale
 70
     0
300
3/16" = 1'-0"
140
0.1875
141
12.0
290
     0
  0
SCALE
  5
4B
102
{ACAD_REACTORS
330
42
102
}
330
42
100
AcDbScale
 70
     0
300
1/4" = 1'-0"
140
0.25
141
12.0
290
     0
  0
SCALE
  5
4C
102
{ACAD_REACTORS
330
42
102
}
330
42
100
AcDbScale
 70
     0
300
3/8" = 1'-0"
140
0.375
141
12.0
290
     0
  0
SCALE
  5
4D
102
{ACAD_REACTORS
330
42
102
}
330
42
100
AcDbScale
 70
     0
300
1/2" = 1'-0"
140
0.5
141
12.0
290
     0
  0
SCALE
  5
4E
102
{ACAD_REACTORS
330
42
102
}
330
42
100
AcDbScale
 70
     0
300
3/4" = 1'-0"
140
0.75
141
12.0
290
     0
  0
SCALE
  5
4F
102
{ACAD_REACTORS
330
42
102
}
330
42
100
AcDbScale
 70
     0
300
1" = 1'-0"
140
1.0
141
12.0
290
     0
  0
SCALE
  5
50
102
{ACAD_REACTORS
330
42
102
}
330
42
100
AcDbScale
 70
     0
300
1-1/2" = 1'-0"
140
1.5
141
12.0
290
     0
  0
SCALE
  5
51
102
{ACAD_REACTORS
330
42
102
}
330
42
100
AcDbScale
 70
     0
300
3" = 1'-0"
140
3.0
141
12.0
290
     0
  0
SCALE
  5
52
102
{ACAD_REACTORS
330
42
102
}
330
42
100
AcDbScale
 70
     0
300
6" = 1'-0"
140
6.0
141
12.0
290
     0
  0
SCALE
  5
53
102
{ACAD_REACTORS
330
42
102
}
330
42
100
AcDbScale
 70
     0
300
1'-0" = 1'-0"
140
12.0
141
12.0
290
     0
  0
ACDBSECTIONVIEWSTYLE
  5
69
102
{ACAD_REACTORS
330
68
102
}
330
68
100
AcDbModelDocViewStyle
 70
     0
  3
Imperial24
290
     1
300
Imperial24
 90
        0
100
AcDbSectionViewStyle
 70
     0
 71
     0
 90
       78
 71
     1
340
55
 62
   256
 40
0.24
340
0
340
0
 62
   256
 40
0.24
300
I, O, Q, S, X, Z
 40
0.48
 90
        3
 40
0.18
 90
        1
 71
     2
340
5D
 90
       25
 62
   256
340
5D
 90
       50
 62
   256
 40
0.24
 40
0.0
 40
0.24
 71
     3
340
55
 62
   256
 40
0.24
 90
        1
 40
0.75
 90
        1
300
%<\AcVar ViewType \f "%tc1">% %<\AcVar ViewSectionStartId>%-%<\AcVar ViewSectionEndId>%\PSCALE %<\AcVar ViewScale \f "%sn">%
 71
     4
 62
   256
 62
   257
300
ANSI31
 40
1.0
 90
        0
290
     0
290
     0
 90
        6
 40
0.0
 40
1.570796326794896
 40
0.2617993877991494
 40
1.308996938995747
 40
-0.2617993877991494
 40
1.832595714594046
  0
TABLESTYLE
  5
65
102
{ACAD_XDICTIONARY
360
166
102
}
102
{ACAD_REACTORS
330
64
102
}
330
64
100
AcDbTableStyle
280
     0
  3
Standard
 70
     0
 71
     0
 40
0.06
 41
0.06
280
     0
281
     0
  7
Standard
140
0.18
170
     2
 62
     0
 63
     7
283
     0
 90
      512
 91
        0
  1

274
    -2
284
     1
 64
     0
275
    -2
285
     1
 65
     0
276
    -2
286
     1
 66
     0
277
    -2
287
     1
 67
     0
278
    -2
288
     1
 68
     0
279
    -2
289
     1
 69
     0
  7
Standard
140
0.25
170
     5
 62
     0
 63
     7
283
     0
 90
      512
 91
        0
  1

274
    -2
284
     1
 64
     0
275
    -2
285
     1
 65
     0
276
    -2
286
     1
 66
     0
277
    -2
287
     1
 67
     0
278
    -2
288
     1
 68
     0
279
    -2
289
     1
 69
     0
  7
Standard
140
0.18
170
     5
 62
     0
 63
     7
283
     0
 90
      512
 91
        0
  1

274
    -2
284
     1
 64
     0
275
    -2
285
     1
 65
     0
276
    -2
286
     1
 66
     0
277
    -2
287
     1
 67
     0
278
    -2
288
     1
 68
     0
279
    -2
289
     1
 69
     0
  0
VISUALSTYLE
  5
2F
102
{ACAD_REACTORS
330
29
102
}
330
29
100
AcDbVisualStyle
  2
2dWireframe
 70
     4
177
     3
291
     0
 70
    58
 90
        0
176
     1
 90
        2
176
     1
 90
        0
176
     1
 90
        0
176
     1
 40
0.6
176
     1
 40
30.0
176
     1
 62
     7
420
 16777215
176
     1
 90
        1
176
     1
 90
        4
176
     1
 62
     7
176
     1
 62
   257
176
     1
 90
        1
176
     1
 90
        1
176
     1
 40
1.0
176
     1
 90
        0
176
     1
 62
   257
176
     1
 40
1.0
176
     1
 90
        1
176
     1
 90
        6
176
     1
 90
        2
176
     1
 62
     7
176
     1
 90
        5
176
     1
 90
        0
176
     1
 90
        0
176
     1
290
     0
176
     1
 90
        1
176
     1
 40
0.0
176
     1
 90
        0
176
     1
290
     1
176
     1
290
     1
176
     1
290
     0
176
     1
290
     0
176
     1
290
     0
176
     1
290
     0
176
     1
290
     0
176
     1
290
     0
176
     1
290
     0
176
     1
 90
       50
176
     1
 40
0.0
176
     1
 40
1.0
176
     1
 90
        0
176
     1
 62
    18
420
        0
176
     1
 90
       50
176
     1
 90
        3
176
     1
 62
     5
420
      255
176
     1
290
     0
176
     1
 90
       50
176
     1
 90
       50
176
     1
 90
       50
176
     1
290
     0
176
     1
 90
       50
176
     1
 62
   256
176
     0
 40
1.0
176
     0
 90
        2
176
     1
  1
strokes_ogs.tif
176
     1
290
     0
176
     1
 40
1.0
176
     1
 40
1.0
176
     1
  0
VISUALSTYLE
  5
2E
102
{ACAD_REACTORS
330
29
102
}
330
29
100
AcDbVisualStyle
  2
Basic
 70
     7
177
     3
291
     1
 70
    58
 90
        1
176
     1
 90
        0
176
     1
 90
        1
176
     1
 90
        0
176
     1
 40
0.6
176
     1
 40
30.0
176
     1
 62
     7
420
 16777215
176
     1
 90
        0
176
     1
 90
        4
176
     1
 62
     7
176
     1
 62
   257
176
     1
 90
        1
176
     1
 90
        1
176
     1
 40
1.0
176
     1
 90
        8
176
     1
 62
     7
176
     1
 40
1.0
176
     1
 90
        1
176
     1
 90
        6
176
     1
 90
        2
176
     1
 62
     7
176
     1
 90
        5
176
     1
 90
        0
176
     1
 90
        0
176
     1
290
     0
176
     1
 90
        1
176
     1
 40
0.0
176
     1
 90
        0
176
     1
290
     0
176
     1
290
     1
176
     1
290
     1
176
     1
290
     0
176
     1
290
     0
176
     1
290
     0
176
     1
290
     0
176
     1
290
     0
176
     1
290
     0
176
     1
 90
       50
176
     1
 40
0.0
176
     1
 40
1.0
176
     1
 90
        0
176
     1
 62
    18
420
        0
176
     1
 90
       50
176
     1
 90
        3
176
     1
 62
     5
420
      255
176
     1
290
     0
176
     1
 90
       50
176
     1
 90
       50
176
     1
 90
       50
176
     1
290
     0
176
     1
 90
       50
176
     1
 62
   256
176
     0
 40
1.0
176
     0
 90
        2
176
     1
  1
strokes_ogs.tif
176
     1
290
     0
176
     1
 40
1.0
176
     1
 40
1.0
176
     1
  0
VISUALSTYLE
  5
35
102
{ACAD_REACTORS
330
29
102
}
330
29
100
AcDbVisualStyle
  2
Brighten
 70
    12
177
     3
291
     1
 70
    58
 90
        2
176
     1
 90
        2
176
     1
 90
        0
176
     1
 90
        0
176
     1
 40
0.6
176
     1
 40
30.0
176
     1
 62
     7
420
 16777215
176
     1
 90
        1
176
     1
 90
        4
176
     1
 62
     7
176
     1
 62
   257
176
     1
 90
        1
176
     1
 90
        1
176
     1
 40
1.0
176
     1
 90
        8
176
     1
 62
     7
176
     1
 40
1.0
176
     1
 90
        1
176
     1
 90
        6
176
     1
 90
        2
176
     1
 62
     7
176
     1
 90
        5
176
     1
 90
        0
176
     1
 90
        0
176
     1
290
     0
176
     1
 90
        1
176
     1
 40
50.0
176
     1
 90
        0
176
     1
290
     0
176
     1
290
     1
176
     1
290
     1
176
     1
290
     0
176
     1
290
     0
176
     1
290
     0
176
     1
290
     0
176
     1
290
     0
176
     1
290
     0
176
     1
 90
       50
176
     1
 40
0.0
176
     1
 40
1.0
176
     1
 90
        0
176
     1
 62
    18
420
        0
176
     1
 90
       50
176
     1
 90
        3
176
     1
 62
     5
420
      255
176
     1
290
     0
176
     1
 90
       50
176
     1
 90
       50
176
     1
 90
       50
176
     1
290
     0
176
     1
 90
       50
176
     1
 62
   256
176
     0
 40
1.0
176
     0
 90
        2
176
     1
  1
strokes_ogs.tif
176
     1
290
     0
176
     1
 40
1.0
176
     1
 40
1.0
176
     1
  0
VISUALSTYLE
  5
39
102
{ACAD_REACTORS
330
29
102
}
330
29
100
AcDbVisualStyle
  2
ColorChange
 70
    16
177
     3
291
     1
 70
    58
 90
        2
176
     1
 90
        2
176
     1
 90
        3
176
     1
 90
        0
176
     1
 40
0.6
176
     1
 40
30.0
176
     1
 62
     8
420
  8421504
176
     1
 90
        1
176
     1
 90
        4
176
     1
 62
     7
176
     1
 62
   257
176
     1
 90
        1
176
     1
 90
        1
176
     1
 40
1.0
176
     1
 90
        8
176
     1
 62
     8
420
  8421504
176
     1
 40
1.0
176
     1
 90
        1
176
     1
 90
        6
176
     1
 90
        2
176
     1
 62
     7
176
     1
 90
        5
176
     1
 90
        0
176
     1
 90
        0
176
     1
290
     0
176
     1
 90
        1
176
     1
 40
0.0
176
     1
 90
        0
176
     1
290
     0
176
     1
290
     1
176
     1
290
     1
176
     1
290
     0
176
     1
290
     0
176
     1
290
     0
176
     1
290
     0
176
     1
290
     0
176
     1
290
     0
176
     1
 90
       50
176
     1
 40
0.0
176
     1
 40
1.0
176
     1
 90
        0
176
     1
 62
    18
420
        0
176
     1
 90
       50
176
     1
 90
        3
176
     1
 62
     5
420
      255
176
     1
290
     0
176
     1
 90
       50
176
     1
 90
       50
176
     1
 90
       50
176
     1
290
     0
176
     1
 90
       50
176
     1
 62
   256
176
     0
 40
1.0
176
     0
 90
        2
176
     1
  1
strokes_ogs.tif
176
     1
290
     0
176
     1
 40
1.0
176
     1
 40
1.0
176
     1
  0
VISUALSTYLE
  5
32
102
{ACAD_REACTORS
330
29
102
}
330
29
100
AcDbVisualStyle
  2
Conceptual
 70
     9
177
     3
291
     0
 70
    58
 90
        3
176
     1
 90
        2
176
     1
 90
        0
176
     1
 90
        0
176
     1
 40
0.6
176
     1
 40
30.0
176
     1
 62
     7
420
 16777215
176
     1
 90
        2
176
     1
 90
        2
176
     1
 62
     7
176
     1
 62
   257
176
     1
 90
        1
176
     1
 90
        1
176
     1
 40
179.0
176
     1
 90
        8
176
     1
 62
     7
176
     1
 40
1.0
176
     1
 90
        1
176
     1
 90
        6
176
     1
 90
        2
176
     1
 62
     7
176
     1
 90
        3
176
     1
 90
        0
176
     1
 90
        0
176
     1
290
     0
176
     1
 90
        1
176
     1
 40
0.0
176
     1
 90
        0
176
     1
290
     0
176
     1
290
     1
176
     1
290
     1
176
     1
290
     0
176
     1
290
     0
176
     1
290
     0
176
     1
290
     0
176
     1
290
     0
176
     1
290
     0
176
     1
 90
       50
176
     1
 40
0.0
176
     1
 40
1.0
176
     1
 90
        0
176
     1
 62
    18
420
        0
176
     1
 90
       50
176
     1
 90
        3
176
     1
 62
     5
420
      255
176
     1
290
     0
176
     1
 90
       50
176
     1
 90
       50
176
     1
 90
       50
176
     1
290
     0
176
     1
 90
       50
176
     1
 62
   256
176
     0
 40
1.0
176
     0
 90
        2
176
     1
  1
strokes_ogs.tif
176
     1
290
     0
176
     1
 40
1.0
176
     1
 40
1.0
176
     1
  0
VISUALSTYLE
  5
34
102
{ACAD_REACTORS
330
29
102
}
330
29
100
AcDbVisualStyle
  2
Dim
 70
    11
177
     3
291
     1
 70
    58
 90
        2
176
     1
 90
        2
176
     1
 90
        0
176
     1
 90
        0
176
     1
 40
0.6
176
     1
 40
30.0
176
     1
 62
     7
420
 16777215
176
     1
 90
        1
176
     1
 90
        4
176
     1
 62
     7
176
     1
 62
   257
176
     1
 90
        1
176
     1
 90
        1
176
     1
 40
1.0
176
     1
 90
        8
176
     1
 62
     7
176
     1
 40
1.0
176
     1
 90
        1
176
     1
 90
        6
176
     1
 90
        2
176
     1
 62
     7
176
     1
 90
        5
176
     1
 90
        0
176
     1
 90
        0
176
     1
290
     0
176
     1
 90
        1
176
     1
 40
-50.0
176
     1
 90
        0
176
     1
290
     0
176
     1
290
     1
176
     1
290
     1
176
     1
290
     0
176
     1
290
     0
176
     1
290
     0
176
     1
290
     0
176
     1
290
     0
176
     1
290
     0
176
     1
 90
       50
176
     1
 40
0.0
176
     1
 40
1.0
176
     1
 90
        0
176
     1
 62
    18
420
        0
176
     1
 90
       50
176
     1
 90
        3
176
     1
 62
     5
420
      255
176
     1
290
     0
176
     1
 90
       50
176
     1
 90
       50
176
     1
 90
       50
176
     1
290
     0
176
     1
 90
       50
176
     1
 62
   256
176
     0
 40
1.0
176
     0
 90
        2
176
     1
  1
strokes_ogs.tif
176
     1
290
     0
176
     1
 40
1.0
176
     1
 40
1.0
176
     1
  0
VISUALSTYLE
  5
41
102
{ACAD_REACTORS
330
29
102
}
330
29
100
AcDbVisualStyle
  2
EdgeColorOff
 70
    22
177
     3
291
     1
 70
    58
 90
        2
176
     0
 90
        2
176
     0
 90
        0
176
     0
 90
        0
176
     0
 40
0.6
176
     0
 40
30.0
176
     0
 62
     7
420
 16777215
176
     0
 90
        1
176
     0
 90
        4
176
     0
 62
     7
176
     0
 62
   257
176
     0
 90
        1
176
     0
 90
        1
176
     0
 40
1.0
176
     0
 90
        8
176
     2
 62
     7
176
     0
 40
1.0
176
     0
 90
        1
176
     0
 90
        6
176
     0
 90
        2
176
     0
 62
     7
176
     0
 90
        5
176
     0
 90
        0
176
     0
 90
        0
176
     0
290
     0
176
     0
 90
        1
176
     0
 40
0.0
176
     0
 90
        0
176
     0
290
     0
176
     0
290
     1
176
     0
290
     1
176
     0
290
     0
176
     0
290
     0
176
     0
290
     0
176
     0
290
     0
176
     0
290
     0
176
     0
290
     0
176
     0
 90
       50
176
     0
 40
0.0
176
     0
 40
1.0
176
     0
 90
        0
176
     0
 62
    18
420
        0
176
     0
 90
       50
176
     0
 90
        3
176
     0
 62
     5
420
      255
176
     0
290
     0
176
     0
 90
       50
176
     0
 90
       50
176
     0
 90
       50
176
     0
290
     0
176
     0
 90
       50
176
     0
 62
   256
176
     0
 40
1.0
176
     0
 90
        2
176
     0
  1
strokes_ogs.tif
176
     0
290
     0
176
     0
 40
1.0
176
     0
 40
1.0
176
     0
  0
VISUALSTYLE
  5
38
102
{ACAD_REACTORS
330
29
102
}
330
29
100
AcDbVisualStyle
  2
Facepattern
 70
    15
177
     3
291
     1
 70
    58
 90
        2
176
     1
 90
        2
176
     1
 90
        0
176
     1
 90
        0
176
     1
 40
0.6
176
     1
 40
30.0
176
     1
 62
     7
420
 16777215
176
     1
 90
        1
176
     1
 90
        4
176
     1
 62
     7
176
     1
 62
   257
176
     1
 90
        1
176
     1
 90
        1
176
     1
 40
1.0
176
     1
 90
        8
176
     1
 62
     7
176
     1
 40
1.0
176
     1
 90
        1
176
     1
 90
        6
176
     1
 90
        2
176
     1
 62
     7
176
     1
 90
        5
176
     1
 90
        0
176
     1
 90
        0
176
     1
290
     0
176
     1
 90
        1
176
     1
 40
0.0
176
     1
 90
        0
176
     1
290
     0
176
     1
290
     1
176
     1
290
     1
176
     1
290
     0
176
     1
290
     0
176
     1
290
     0
176
     1
290
     0
176
     1
290
     0
176
     1
290
     0
176
     1
 90
       50
176
     1
 40
0.0
176
     1
 40
1.0
176
     1
 90
        0
176
     1
 62
    18
420
        0
176
     1
 90
       50
176
     1
 90
        3
176
     1
 62
     5
420
      255
176
     1
290
     0
176
     1
 90
       50
176
     1
 90
       50
176
     1
 90
       50
176
     1
290
     0
176
     1
 90
       50
176
     1
 62
   256
176
     0
 40
1.0
176
     0
 90
        2
176
     1
  1
strokes_ogs.tif
176
     1
290
     0
176
     1
 40
1.0
176
     1
 40
1.0
176
     1
  0
VISUALSTYLE
  5
2A
102
{ACAD_REACTORS
330
29
102
}
330
29
100
AcDbVisualStyle
  2
Flat
 70
     0
177
     3
291
     1
 70
    58
 90
        2
176
     1
 90
        1
176
     1
 90
        1
176
     1
 90
        2
176
     1
 40
0.6
176
     1
 40
30.0
176
     1
 62
     7
420
 16777215
176
     1
 90
        0
176
     1
 90
        0
176
     1
 62
     7
176
     1
 62
   257
176
     1
 90
        1
176
     1
 90
        1
176
     1
 40
1.0
176
     1
 90
        8
176
     1
 62
     7
176
     1
 40
1.0
176
     1
 90
        1
176
     1
 90
        6
176
     1
 90
        2
176
     1
 62
     7
176
     1
 90
        5
176
     1
 90
        0
176
     1
 90
        0
176
     1
290
     0
176
     1
 90
       13
176
     1
 40
0.0
176
     1
 90
        0
176
     1
290
     0
176
     1
290
     1
176
     1
290
     1
176
     1
290
     0
176
     1
290
     0
176
     1
290
     0
176
     1
290
     0
176
     1
290
     0
176
     1
290
     0
176
     1
 90
       50
176
     1
 40
0.0
176
     1
 40
1.0
176
     1
 90
        0
176
     1
 62
    18
420
        0
176
     1
 90
       50
176
     1
 90
        3
176
     1
 62
     5
420
      255
176
     1
290
     0
176
     1
 90
       50
176
     1
 90
       50
176
     1
 90
       50
176
     1
290
     0
176
     1
 90
       50
176
     1
 62
   256
176
     0
 40
1.0
176
     0
 90
        2
176
     1
  1
strokes_ogs.tif
176
     1
290
     0
176
     1
 40
1.0
176
     1
 40
1.0
176
     1
  0
VISUALSTYLE
  5
2B
102
{ACAD_REACTORS
330
29
102
}
330
29
100
AcDbVisualStyle
  2
FlatWithEdges
 70
     1
177
     3
291
     1
 70
    58
 90
        2
176
     1
 90
        1
176
     1
 90
        1
176
     1
 90
        2
176
     1
 40
0.6
176
     1
 40
30.0
176
     1
 62
     7
420
 16777215
176
     1
 90
        1
176
     1
 90
        0
176
     1
 62
     7
176
     1
 62
   257
176
     1
 90
        1
176
     1
 90
        1
176
     1
 40
1.0
176
     1
 90
        0
176
     1
 62
   257
176
     1
 40
1.0
176
     1
 90
        1
176
     1
 90
        6
176
     1
 90
        2
176
     1
 62
     7
176
     1
 90
        5
176
     1
 90
        0
176
     1
 90
        0
176
     1
290
     0
176
     1
 90
       13
176
     1
 40
0.0
176
     1
 90
        0
176
     1
290
     0
176
     1
290
     1
176
     1
290
     1
176
     1
290
     0
176
     1
290
     0
176
     1
290
     0
176
     1
290
     0
176
     1
290
     0
176
     1
290
     0
176
     1
 90
       50
176
     1
 40
0.0
176
     1
 40
1.0
176
     1
 90
        0
176
     1
 62
    18
420
        0
176
     1
 90
       50
176
     1
 90
        3
176
     1
 62
     5
420
      255
176
     1
290
     0
176
     1
 90
       50
176
     1
 90
       50
176
     1
 90
       50
176
     1
290
     0
176
     1
 90
       50
176
     1
 62
   256
176
     0
 40
1.0
176
     0
 90
        2
176
     1
  1
strokes_ogs.tif
176
     1
290
     0
176
     1
 40
1.0
176
     1
 40
1.0
176
     1
  0
VISUALSTYLE
  5
2C
102
{ACAD_REACTORS
330
29
102
}
330
29
100
AcDbVisualStyle
  2
Gouraud
 70
     2
177
     3
291
     1
 70
    58
 90
        2
176
     1
 90
        2
176
     1
 90
        1
176
     1
 90
        2
176
     1
 40
0.6
176
     1
 40
30.0
176
     1
 62
     7
420
 16777215
176
     1
 90
        0
176
     1
 90
        0
176
     1
 62
     7
176
     1
 62
   257
176
     1
 90
        1
176
     1
 90
        1
176
     1
 40
1.0
176
     1
 90
        0
176
     1
 62
     7
176
     1
 40
1.0
176
     1
 90
        1
176
     1
 90
        6
176
     1
 90
        2
176
     1
 62
     7
176
     1
 90
        5
176
     1
 90
        0
176
     1
 90
        0
176
     1
290
     0
176
     1
 90
       13
176
     1
 40
0.0
176
     1
 90
        0
176
     1
290
     0
176
     1
290
     1
176
     1
290
     1
176
     1
290
     0
176
     1
290
     0
176
     1
290
     0
176
     1
290
     0
176
     1
290
     0
176
     1
290
     0
176
     1
 90
       50
176
     1
 40
0.0
176
     1
 40
1.0
176
     1
 90
        0
176
     1
 62
    18
420
        0
176
     1
 90
       50
176
     1
 90
        3
176
     1
 62
     5
420
      255
176
     1
290
     0
176
     1
 90
       50
176
     1
 90
       50
176
     1
 90
       50
176
     1
290
     0
176
     1
 90
       50
176
     1
 62
   256
176
     0
 40
1.0
176
     0
 90
        2
176
     1
  1
strokes_ogs.tif
176
     1
290
     0
176
     1
 40
1.0
176
     1
 40
1.0
176
     1
  0
VISUALSTYLE
  5
2D
102
{ACAD_REACTORS
330
29
102
}
330
29
100
AcDbVisualStyle
  2
GouraudWithEdges
 70
     3
177
     3
291
     1
 70
    58
 90
        2
176
     1
 90
        2
176
     1
 90
        1
176
     1
 90
        2
176
     1
 40
0.6
176
     1
 40
30.0
176
     1
 62
     7
420
 16777215
176
     1
 90
        1
176
     1
 90
        0
176
     1
 62
     7
176
     1
 62
   257
176
     1
 90
        1
176
     1
 90
        1
176
     1
 40
1.0
176
     1
 90
        0
176
     1
 62
   257
176
     1
 40
1.0
176
     1
 90
        1
176
     1
 90
        6
176
     1
 90
        2
176
     1
 62
     7
176
     1
 90
        5
176
     1
 90
        0
176
     1
 90
        0
176
     1
290
     0
176
     1
 90
       13
176
     1
 40
0.0
176
     1
 90
        0
176
     1
290
     0
176
     1
290
     1
176
     1
290
     1
176
     1
290
     0
176
     1
290
     0
176
     1
290
     0
176
     1
290
     0
176
     1
290
     0
176
     1
290
     0
176
     1
 90
       50
176
     1
 40
0.0
176
     1
 40
1.0
176
     1
 90
        0
176
     1
 62
    18
420
        0
176
     1
 90
       50
176
     1
 90
        3
176
     1
 62
     5
420
      255
176
     1
290
     0
176
     1
 90
       50
176
     1
 90
       50
176
     1
 90
       50
176
     1
290
     0
176
     1
 90
       50
176
     1
 62
   256
176
     0
 40
1.0
176
     0
 90
        2
176
     1
  1
strokes_ogs.tif
176
     1
290
     0
176
     1
 40
1.0
176
     1
 40
1.0
176
     1
  0
VISUALSTYLE
  5
31
102
{ACAD_REACTORS
330
29
102
}
330
29
100
AcDbVisualStyle
  2
Hidden
 70
     6
177
     3
291
     0
 70
    58
 90
        1
176
     1
 90
        2
176
     1
 90
        2
176
     1
 90
        0
176
     1
 40
0.6
176
     1
 40
30.0
176
     1
 62
     7
420
 16777215
176
     1
 90
        2
176
     1
 90
        2
176
     1
 62
     7
176
     1
 62
   257
176
     1
 90
        2
176
     1
 90
        1
176
     1
 40
40.0
176
     1
 90
        0
176
     1
 62
   257
176
     1
 40
1.0
176
     1
 90
        1
176
     1
 90
        6
176
     1
 90
        2
176
     1
 62
     7
176
     1
 90
        3
176
     1
 90
        0
176
     1
 90
        0
176
     1
290
     0
176
     1
 90
        1
176
     1
 40
0.0
176
     1
 90
        0
176
     1
290
     0
176
     1
290
     1
176
     1
290
     1
176
     1
290
     0
176
     1
290
     0
176
     1
290
     0
176
     1
290
     0
176
     1
290
     0
176
     1
290
     0
176
     1
 90
       50
176
     1
 40
0.0
176
     1
 40
1.0
176
     1
 90
        0
176
     1
 62
    18
420
        0
176
     1
 90
       50
176
     1
 90
        3
176
     1
 62
     5
420
      255
176
     1
290
     0
176
     1
 90
       50
176
     1
 90
       50
176
     1
 90
       50
176
     1
290
     0
176
     1
 90
       50
176
     1
 62
   256
176
     0
 40
1.0
176
     0
 90
        2
176
     1
  1
strokes_ogs.tif
176
     1
290
     0
176
     1
 40
1.0
176
     1
 40
1.0
176
     1
  0
VISUALSTYLE
  5
3F
102
{ACAD_REACTORS
330
29
102
}
330
29
100
AcDbVisualStyle
  2
JitterOff
 70
    20
177
     3
291
     1
 70
    58
 90
        2
176
     0
 90
        2
176
     0
 90
        0
176
     0
 90
        0
176
     0
 40
0.6
176
     0
 40
30.0
176
     0
 62
     7
420
 16777215
176
     0
 90
        1
176
     0
 90
        4
176
     0
 62
     7
176
     0
 62
   257
176
     0
 90
        1
176
     0
 90
        1
176
     0
 40
1.0
176
     0
 90
       10
176
     2
 62
     7
176
     0
 40
1.0
176
     0
 90
        1
176
     0
 90
        6
176
     0
 90
        2
176
     0
 62
     7
176
     0
 90
        5
176
     0
 90
        0
176
     0
 90
        0
176
     0
290
     0
176
     0
 90
        1
176
     0
 40
0.0
176
     0
 90
        0
176
     0
290
     0
176
     0
290
     1
176
     0
290
     1
176
     0
290
     0
176
     0
290
     0
176
     0
290
     0
176
     0
290
     0
176
     0
290
     0
176
     0
290
     0
176
     0
 90
       50
176
     0
 40
0.0
176
     0
 40
1.0
176
     0
 90
        0
176
     0
 62
    18
420
        0
176
     0
 90
       50
176
     0
 90
        3
176
     0
 62
     5
420
      255
176
     0
290
     0
176
     0
 90
       50
176
     0
 90
       50
176
     0
 90
       50
176
     0
290
     0
176
     0
 90
       50
176
     0
 62
   256
176
     0
 40
1.0
176
     0
 90
        2
176
     0
  1
strokes_ogs.tif
176
     0
290
     0
176
     0
 40
1.0
176
     0
 40
1.0
176
     0
  0
VISUALSTYLE
  5
37
102
{ACAD_REACTORS
330
29
102
}
330
29
100
AcDbVisualStyle
  2
Linepattern
 70
    14
177
     3
291
     1
 70
    58
 90
        2
176
     1
 90
        2
176
     1
 90
        0
176
     1
 90
        0
176
     1
 40
0.6
176
     1
 40
30.0
176
     1
 62
     7
420
 16777215
176
     1
 90
        1
176
     1
 90
        4
176
     1
 62
     7
176
     1
 62
   257
176
     1
 90
        7
176
     1
 90
        7
176
     1
 40
1.0
176
     1
 90
        8
176
     1
 62
     7
176
     1
 40
1.0
176
     1
 90
        1
176
     1
 90
        6
176
     1
 90
        2
176
     1
 62
     7
176
     1
 90
        5
176
     1
 90
        0
176
     1
 90
        0
176
     1
290
     0
176
     1
 90
        1
176
     1
 40
0.0
176
     1
 90
        0
176
     1
290
     0
176
     1
290
     1
176
     1
290
     1
176
     1
290
     0
176
     1
290
     0
176
     1
290
     0
176
     1
290
     0
176
     1
290
     0
176
     1
290
     0
176
     1
 90
       50
176
     1
 40
0.0
176
     1
 40
1.0
176
     1
 90
        0
176
     1
 62
    18
420
        0
176
     1
 90
       50
176
     1
 90
        3
176
     1
 62
     5
420
      255
176
     1
290
     0
176
     1
 90
       50
176
     1
 90
       50
176
     1
 90
       50
176
     1
290
     0
176
     1
 90
       50
176
     1
 62
   256
176
     0
 40
1.0
176
     0
 90
        2
176
     1
  1
strokes_ogs.tif
176
     1
290
     0
176
     1
 40
1.0
176
     1
 40
1.0
176
     1
  0
VISUALSTYLE
  5
40
102
{ACAD_REACTORS
330
29
102
}
330
29
100
AcDbVisualStyle
  2
OverhangOff
 70
    21
177
     3
291
     1
 70
    58
 90
        2
176
     0
 90
        2
176
     0
 90
        0
176
     0
 90
        0
176
     0
 40
0.6
176
     0
 40
30.0
176
     0
 62
     7
420
 16777215
176
     0
 90
        1
176
     0
 90
        4
176
     0
 62
     7
176
     0
 62
   257
176
     0
 90
        1
176
     0
 90
        1
176
     0
 40
1.0
176
     0
 90
        9
176
     2
 62
     7
176
     0
 40
1.0
176
     0
 90
        1
176
     0
 90
        6
176
     0
 90
        2
176
     0
 62
     7
176
     0
 90
        5
176
     0
 90
        0
176
     0
 90
        0
176
     0
290
     0
176
     0
 90
        1
176
     0
 40
0.0
176
     0
 90
        0
176
     0
290
     0
176
     0
290
     1
176
     0
290
     1
176
     0
290
     0
176
     0
290
     0
176
     0
290
     0
176
     0
290
     0
176
     0
290
     0
176
     0
290
     0
176
     0
 90
       50
176
     0
 40
0.0
176
     0
 40
1.0
176
     0
 90
        0
176
     0
 62
    18
420
        0
176
     0
 90
       50
176
     0
 90
        3
176
     0
 62
     5
420
      255
176
     0
290
     0
176
     0
 90
       50
176
     0
 90
       50
176
     0
 90
       50
176
     0
290
     0
176
     0
 90
       50
176
     0
 62
   256
176
     0
 40
1.0
176
     0
 90
        2
176
     0
  1
strokes_ogs.tif
176
     0
290
     0
176
     0
 40
1.0
176
     0
 40
1.0
176
     0
  0
VISUALSTYLE
  5
33
102
{ACAD_REACTORS
330
29
102
}
330
29
100
AcDbVisualStyle
  2
Realistic
 70
     8
177
     3
291
     0
 70
    58
 90
        2
176
     1
 90
        3
176
     1
 90
        0
176
     1
 90
        2
176
     1
 40
0.6
176
     1
 40
30.0
176
     1
 62
     7
420
 16777215
176
     1
 90
        0
176
     1
 90
        0
176
     1
 62
     7
176
     1
 62
   257
176
     1
 90
        1
176
     1
 90
        1
176
     1
 40
1.0
176
     1
 90
        8
176
     1
 62
   257
176
     1
 40
1.0
176
     1
 90
        1
176
     1
 90
        6
176
     1
 90
        2
176
     1
 62
     7
176
     1
 90
        3
176
     1
 90
        0
176
     1
 90
        0
176
     1
290
     0
176
     1
 90
       13
176
     1
 40
0.0
176
     1
 90
        0
176
     1
290
     0
176
     1
290
     1
176
     1
290
     1
176
     1
290
     0
176
     1
290
     0
176
     1
290
     0
176
     1
290
     0
176
     1
290
     0
176
     1
290
     0
176
     1
 90
       50
176
     1
 40
0.0
176
     1
 40
1.0
176
     1
 90
        0
176
     1
 62
    18
420
        0
176
     1
 90
       50
176
     1
 90
        3
176
     1
 62
     5
420
      255
176
     1
290
     0
176
     1
 90
       50
176
     1
 90
       50
176
     1
 90
       50
176
     1
290
     0
176
     1
 90
       50
176
     1
 62
   256
176
     0
 40
1.0
176
     0
 90
        2
176
     1
  1
strokes_ogs.tif
176
     1
290
     0
176
     1
 40
1.0
176
     1
 40
1.0
176
     1
  0
VISUALSTYLE
  5
3E
102
{ACAD_REACTORS
330
29
102
}
330
29
100
AcDbVisualStyle
  2
Shaded
 70
    27
177
     3
291
     0
 70
    58
 90
        2
176
     1
 90
        2
176
     1
 90
        1
176
     1
 90
        2
176
     1
 40
0.6
176
     1
 40
30.0
176
     1
 62
     7
420
 16777215
176
     1
 90
        0
176
     1
 90
        4
176
     1
 62
     7
176
     1
 62
   257
176
     1
 90
        1
176
     1
 90
        1
176
     1
 40
1.0
176
     1
 90
        8
176
     1
 62
   257
176
     1
 40
1.0
176
     1
 90
        1
176
     1
 90
        6
176
     1
 90
        2
176
     1
 62
     8
420
  7895160
176
     1
 90
        3
176
     1
 90
        0
176
     1
 90
        0
176
     1
290
     0
176
     1
 90
        5
176
     1
 40
0.0
176
     1
 90
        0
176
     1
290
     0
176
     1
290
     1
176
     1
290
     1
176
     1
290
     0
176
     1
290
     0
176
     1
290
     0
176
     1
290
     0
176
     1
290
     0
176
     1
290
     0
176
     1
 90
       50
176
     1
 40
0.0
176
     1
 40
1.0
176
     1
 90
        0
176
     1
 62
    18
420
        0
176
     1
 90
       50
176
     1
 90
        3
176
     1
 62
     5
420
      255
176
     1
290
     0
176
     1
 90
       50
176
     1
 90
       50
176
     1
 90
       50
176
     1
290
     0
176
     1
 90
       50
176
     1
 62
   256
176
     0
 40
1.0
176
     0
 90
        2
176
     1
  1
strokes_ogs.tif
176
     1
290
     0
176
     1
 40
1.0
176
     1
 40
1.0
176
     1
  0
VISUALSTYLE
  5
3D
102
{ACAD_REACTORS
330
29
102
}
330
29
100
AcDbVisualStyle
  2
Shaded with edges
 70
    26
177
     3
291
     0
 70
    58
 90
        2
176
     1
 90
        2
176
     1
 90
        1
176
     1
 90
        2
176
     1
 40
0.6
176
     1
 40
30.0
176
     1
 62
     7
420
 16777215
176
     1
 90
        1
176
     1
 90
        2
176
     1
 62
     7
176
     1
 62
   257
176
     1
 90
        2
176
     1
 90
        1
176
     1
 40
1.0
176
     1
 90
        8
176
     1
 62
   257
176
     1
 40
1.0
176
     1
 90
        1
176
     1
 90
        6
176
     1
 90
        2
176
     1
 62
     7
176
     1
 90
        3
176
     1
 90
        0
176
     1
 90
        0
176
     1
290
     0
176
     1
 90
        5
176
     1
 40
0.0
176
     1
 90
        0
176
     1
290
     0
176
     1
290
     1
176
     1
290
     1
176
     1
290
     0
176
     1
290
     0
176
     1
290
     0
176
     1
290
     0
176
     1
290
     0
176
     1
290
     0
176
     1
 90
       50
176
     1
 40
0.0
176
     1
 40
1.0
176
     1
 90
        0
176
     1
 62
    18
420
        0
176
     1
 90
       50
176
     1
 90
        3
176
     1
 62
     5
420
      255
176
     1
290
     0
176
     1
 90
       50
176
     1
 90
       50
176
     1
 90
       50
176
     1
290
     0
176
     1
 90
       50
176
     1
 62
   256
176
     0
 40
1.0
176
     0
 90
        2
176
     1
  1
strokes_ogs.tif
176
     1
290
     0
176
     1
 40
1.0
176
     1
 40
1.0
176
     1
  0
VISUALSTYLE
  5
3A
102
{ACAD_REACTORS
330
29
102
}
330
29
100
AcDbVisualStyle
  2
Shades of Gray
 70
    23
177
     3
291
     0
 70
    58
 90
        2
176
     1
 90
        2
176
     1
 90
        3
176
     1
 90
        0
176
     1
 40
0.6
176
     1
 40
30.0
176
     1
 62
     7
420
 16777215
176
     1
 90
        2
176
     1
 90
        2
176
     1
 62
     7
176
     1
 62
     7
176
     1
 90
        1
176
     1
 90
        1
176
     1
 40
40.0
176
     1
 90
        8
176
     1
 62
     7
176
     1
 40
1.0
176
     1
 90
        1
176
     1
 90
        6
176
     1
 90
        2
176
     1
 62
     7
176
     1
 90
        3
176
     1
 90
        0
176
     1
 90
        0
176
     1
290
     0
176
     1
 90
        1
176
     1
 40
0.0
176
     1
 90
        0
176
     1
290
     0
176
     1
290
     1
176
     1
290
     1
176
     1
290
     0
176
     1
290
     0
176
     1
290
     0
176
     1
290
     0
176
     1
290
     0
176
     1
290
     0
176
     1
 90
       50
176
     1
 40
0.0
176
     1
 40
1.0
176
     1
 90
        0
176
     1
 62
    18
420
        0
176
     1
 90
       50
176
     1
 90
        3
176
     1
 62
     5
420
      255
176
     1
290
     0
176
     1
 90
       50
176
     1
 90
       50
176
     1
 90
       50
176
     1
290
     0
176
     1
 90
       50
176
     1
 62
   256
176
     0
 40
1.0
176
     0
 90
        2
176
     1
  1
strokes_ogs.tif
176
     1
290
     0
176
     1
 40
1.0
176
     1
 40
1.0
176
     1
  0
VISUALSTYLE
  5
3B
102
{ACAD_REACTORS
330
29
102
}
330
29
100
AcDbVisualStyle
  2
Sketchy
 70
    24
177
     3
291
     0
 70
    58
 90
        1
176
     1
 90
        2
176
     1
 90
        2
176
     1
 90
        0
176
     1
 40
0.6
176
     1
 40
30.0
176
     1
 62
     7
420
 16777215
176
     1
 90
        2
176
     1
 90
        2
176
     1
 62
     7
176
     1
 62
     7
176
     1
 90
        1
176
     1
 90
        1
176
     1
 40
40.0
176
     1
 90
       11
176
     1
 62
     7
176
     1
 40
1.0
176
     1
 90
        1
176
     1
 90
        6
176
     1
 90
        2
176
     1
 62
     7
176
     1
 90
        6
176
     1
 90
        0
176
     1
 90
        0
176
     1
290
     0
176
     1
 90
        1
176
     1
 40
0.0
176
     1
 90
        0
176
     1
290
     0
176
     1
290
     1
176
     1
290
     1
176
     1
290
     0
176
     1
290
     0
176
     1
290
     0
176
     1
290
     0
176
     1
290
     0
176
     1
290
     0
176
     1
 90
       50
176
     1
 40
0.0
176
     1
 40
1.0
176
     1
 90
        0
176
     1
 62
    18
420
        0
176
     1
 90
       50
176
     1
 90
        3
176
     1
 62
     5
420
      255
176
     1
290
     0
176
     1
 90
       50
176
     1
 90
       50
176
     1
 90
       50
176
     1
290
     0
176
     1
 90
       50
176
     1
 62
   256
176
     0
 40
1.0
176
     0
 90
        2
176
     1
  1
strokes_ogs.tif
176
     1
290
     0
176
     1
 40
1.0
176
     1
 40
1.0
176
     1
  0
VISUALSTYLE
  5
36
102
{ACAD_REACTORS
330
29
102
}
330
29
100
AcDbVisualStyle
  2
Thicken
 70
    13
177
     3
291
     1
 70
    58
 90
        2
176
     1
 90
        2
176
     1
 90
        0
176
     1
 90
        0
176
     1
 40
0.6
176
     1
 40
30.0
176
     1
 62
     7
420
 16777215
176
     1
 90
        1
176
     1
 90
        4
176
     1
 62
     7
176
     1
 62
   257
176
     1
 90
        1
176
     1
 90
        1
176
     1
 40
1.0
176
     1
 90
       12
176
     1
 62
     7
176
     1
 40
1.0
176
     1
 90
        1
176
     1
 90
        6
176
     1
 90
        2
176
     1
 62
     7
176
     1
 90
        5
176
     1
 90
        0
176
     1
 90
        0
176
     1
290
     0
176
     1
 90
        1
176
     1
 40
0.0
176
     1
 90
        0
176
     1
290
     0
176
     1
290
     1
176
     1
290
     1
176
     1
290
     0
176
     1
290
     0
176
     1
290
     0
176
     1
290
     0
176
     1
290
     0
176
     1
290
     0
176
     1
 90
       50
176
     1
 40
0.0
176
     1
 40
1.0
176
     1
 90
        0
176
     1
 62
    18
420
        0
176
     1
 90
       50
176
     1
 90
        3
176
     1
 62
     5
420
      255
176
     1
290
     0
176
     1
 90
       50
176
     1
 90
       50
176
     1
 90
       50
176
     1
290
     0
176
     1
 90
       50
176
     1
 62
   256
176
     0
 40
1.0
176
     0
 90
        2
176
     1
  1
strokes_ogs.tif
176
     1
290
     0
176
     1
 40
1.0
176
     1
 40
1.0
176
     1
  0
VISUALSTYLE
  5
30
102
{ACAD_REACTORS
330
29
102
}
330
29
100
AcDbVisualStyle
  2
Wireframe
 70
     5
177
     3
291
     0
 70
    58
 90
        0
176
     1
 90
        2
176
     1
 90
        0
176
     1
 90
        0
176
     1
 40
0.6
176
     1
 40
30.0
176
     1
 62
     7
420
 16777215
176
     1
 90
        1
176
     1
 90
        4
176
     1
 62
     7
176
     1
 62
   257
176
     1
 90
        1
176
     1
 90
        1
176
     1
 40
1.0
176
     1
 90
        0
176
     1
 62
   257
176
     1
 40
1.0
176
     1
 90
        1
176
     1
 90
        6
176
     1
 90
        2
176
     1
 62
     7
176
     1
 90
        3
176
     1
 90
        0
176
     1
 90
        0
176
     1
290
     0
176
     1
 90
        1
176
     1
 40
0.0
176
     1
 90
        0
176
     1
290
     0
176
     1
290
     1
176
     1
290
     1
176
     1
290
     0
176
     1
290
     0
176
     1
290
     0
176
     1
290
     0
176
     1
290
     0
176
     1
290
     0
176
     1
 90
       50
176
     1
 40
0.0
176
     1
 40
1.0
176
     1
 90
        0
176
     1
 62
    18
420
        0
176
     1
 90
       50
176
     1
 90
        3
176
     1
 62
     5
420
      255
176
     1
290
     0
176
     1
 90
       50
176
     1
 90
       50
176
     1
 90
       50
176
     1
290
     0
176
     1
 90
       50
176
     1
 62
   256
176
     0
 40
1.0
176
     0
 90
        2
176
     1
  1
strokes_ogs.tif
176
     1
290
     0
176
     1
 40
1.0
176
     1
 40
1.0
176
     1
  0
VISUALSTYLE
  5
3C
102
{ACAD_REACTORS
330
29
102
}
330
29
100
AcDbVisualStyle
  2
X-Ray
 70
    25
177
     3
291
     0
 70
    58
 90
        2
176
     1
 90
        2
176
     1
 90
        1
176
     1
 90
        1
176
     1
 40
0.5
176
     1
 40
30.0
176
     1
 62
     7
420
 16777215
176
     1
 90
        1
176
     1
 90
        0
176
     1
 62
     7
176
     1
 62
   257
176
     1
 90
        1
176
     1
 90
        1
176
     1
 40
1.0
176
     1
 90
        8
176
     1
 62
     7
176
     1
 40
1.0
176
     1
 90
        1
176
     1
 90
        6
176
     1
 90
        2
176
     1
 62
     7
176
     1
 90
        3
176
     1
 90
        0
176
     1
 90
        0
176
     1
290
     0
176
     1
 90
       13
176
     1
 40
0.0
176
     1
 90
        0
176
     1
290
     0
176
     1
290
     1
176
     1
290
     1
176
     1
290
     0
176
     1
290
     0
176
     1
290
     0
176
     1
290
     0
176
     1
290
     0
176
     1
290
     0
176
     1
 90
       50
176
     1
 40
0.0
176
     1
 40
1.0
176
     1
 90
        0
176
     1
 62
    18
420
        0
176
     1
 90
       50
176
     1
 90
        3
176
     1
 62
     5
420
      255
176
     1
290
     0
176
     1
 90
       50
176
     1
 90
       50
176
     1
 90
       50
176
     1
290
     0
176
     1
 90
       50
176
     1
 62
   256
176
     0
 40
1.0
176
     0
 90
        2
176
     1
  1
strokes_ogs.tif
176
     1
290
     0
176
     1
 40
1.0
176
     1
 40
1.0
176
     1
  0
DICTIONARYVAR
  5
165
102
{ACAD_REACTORS
330
160
102
}
330
160
100
DictionaryVariables
280
     0
  1
1:1
  0
DICTIONARYVAR
  5
162
102
{ACAD_REACTORS
330
160
102
}
330
160
100
DictionaryVariables
280
     0
  1
STANDARD
  0
DICTIONARYVAR
  5
161
102
{ACAD_REACTORS
330
160
102
}
330
160
100
DictionaryVariables
280
     0
  1
STANDARD
  0
DICTIONARYVAR
  5
163
102
{ACAD_REACTORS
330
160
102
}
330
160
100
DictionaryVariables
280
     0
  1
Imperial24
  0
DICTIONARYVAR
  5
164
102
{ACAD_REACTORS
330
160
102
}
330
160
100
DictionaryVariables
280
     0
  1
Imperial24
  0
DICTIONARY
  5
1A
330
19
100
AcDbDictionary
280
     1
281
     1
  3
BUMPTILE
360
1C
  3
DIFFUSETILE
360
1B
  3
OPACITYTILE
360
1F
  3
REFLECTIONTILE
360
1E
  3
REFRACTIONTILE
360
20
  3
SPECULARTILE
360
1D
  0
DICTIONARY
  5
12
330
11
100
AcDbDictionary
280
     1
281
     1
  3
BUMPTILE
360
14
  3
DIFFUSETILE
360
13
  3
OPACITYTILE
360
17
  3
REFLECTIONTILE
360
16
  3
REFRACTIONTILE
360
18
  3
SPECULARTILE
360
15
  0
DICTIONARY
  5
22
330
21
100
AcDbDictionary
280
     1
281
     1
  3
BUMPTILE
360
24
  3
DIFFUSETILE
360
23
  3
OPACITYTILE
360
27
  3
REFLECTIONTILE
360
26
  3
REFRACTIONTILE
360
28
  3
SPECULARTILE
360
25
  0
DICTIONARY
  5
166
330
65
100
AcDbDictionary
280
     1
281
     1
  3
ACAD_ROUNDTRIP_2008_TABLESTYLE_CELLSTYLEMAP
360
167
  0
XRECORD
  5
1C
102
{ACAD_REACTORS
330
1A
102
}
330
1A
100
AcDbXrecord
280
     1
270
     1
271
     1
  0
XRECORD
  5
1B
102
{ACAD_REACTORS
330
1A
102
}
330
1A
100
AcDbXrecord
280
     1
270
     1
271
     1
  0
XRECORD
  5
1F
102
{ACAD_REACTORS
330
1A
102
}
330
1A
100
AcDbXrecord
280
     1
270
     1
271
     1
  0
XRECORD
  5
1E
102
{ACAD_REACTORS
330
1A
102
}
330
1A
100
AcDbXrecord
280
     1
270
     1
271
     1
  0
XRECORD
  5
20
102
{ACAD_REACTORS
330
1A
102
}
330
1A
100
AcDbXrecord
280
     1
270
     1
271
     1
  0
XRECORD
  5
1D
102
{ACAD_REACTORS
330
1A
102
}
330
1A
100
AcDbXrecord
280
     1
270
     1
271
     1
  0
XRECORD
  5
14
102
{ACAD_REACTORS
330
12
102
}
330
12
100
AcDbXrecord
280
     1
270
     1
271
     1
  0
XRECORD
  5
13
102
{ACAD_REACTORS
330
12
102
}
330
12
100
AcDbXrecord
280
     1
270
     1
271
     1
  0
XRECORD
  5
17
102
{ACAD_REACTORS
330
12
102
}
330
12
100
AcDbXrecord
280
     1
270
     1
271
     1
  0
XRECORD
  5
16
102
{ACAD_REACTORS
330
12
102
}
330
12
100
AcDbXrecord
280
     1
270
     1
271
     1
  0
XRECORD
  5
18
102
{ACAD_REACTORS
330
12
102
}
330
12
100
AcDbXrecord
280
     1
270
     1
271
     1
  0
XRECORD
  5
15
102
{ACAD_REACTORS
330
12
102
}
330
12
100
AcDbXrecord
280
     1
270
     1
271
     1
  0
XRECORD
  5
24
102
{ACAD_REACTORS
330
22
102
}
330
22
100
AcDbXrecord
280
     1
270
     1
271
     1
  0
XRECORD
  5
23
102
{ACAD_REACTORS
330
22
102
}
330
22
100
AcDbXrecord
280
     1
270
     1
271
     1
  0
XRECORD
  5
27
102
{ACAD_REACTORS
330
22
102
}
330
22
100
AcDbXrecord
280
     1
270
     1
271
     1
  0
XRECORD
  5
26
102
{ACAD_REACTORS
330
22
102
}
330
22
100
AcDbXrecord
280
     1
270
     1
271
     1
  0
XRECORD
  5
28
102
{ACAD_REACTORS
330
22
102
}
330
22
100
AcDbXrecord
280
     1
270
     1
271
     1
  0
XRECORD
  5
25
102
{ACAD_REACTORS
330
22
102
}
330
22
100
AcDbXrecord
280
     1
270
     1
271
     1
  0
CELLSTYLEMAP
  5
167
102
{ACAD_REACTORS
330
166
102
}
330
166
100
AcDbCellStyleMap
 90
        3
300
CELLSTYLE
  1
TABLEFORMAT_BEGIN
 90
        5
170
     1
 91
        0
 92
    32768
 62
   257
 93
        1
300
CONTENTFORMAT
  1
CONTENTFORMAT_BEGIN
 90
        0
 91
        0
 92
      512
 93
        0
300

 40
0.0
140
1.0
 94
        5
 62
     0
340
55
144
0.25
309
CONTENTFORMAT_END
171
     0
 94
        0
309
TABLEFORMAT_END
  1
CELLSTYLE_BEGIN
 90
        1
 91
        1
300
_TITLE
309
CELLSTYLE_END
300
CELLSTYLE
  1
TABLEFORMAT_BEGIN
 90
        5
170
     1
 91
        0
 92
        0
 62
   257
 93
        1
300
CONTENTFORMAT
  1
CONTENTFORMAT_BEGIN
 90
        0
 91
        0
 92
      512
 93
        0
300

 40
0.0
140
1.0
 94
        5
 62
     0
340
55
144
0.18
309
CONTENTFORMAT_END
171
     0
 94
        0
309
TABLEFORMAT_END
  1
CELLSTYLE_BEGIN
 90
        2
 91
        1
300
_HEADER
309
CELLSTYLE_END
300
CELLSTYLE
  1
TABLEFORMAT_BEGIN
 90
        5
170
     1
 91
        0
 92
        0
 62
   257
 93
        1
300
CONTENTFORMAT
  1
CONTENTFORMAT_BEGIN
 90
        0
 91
        0
 92
      512
 93
        0
300

 40
0.0
140
1.0
 94
        2
 62
     0
340
55
144
0.18
309
CONTENTFORMAT_END
171
     0
 94
        0
309
TABLEFORMAT_END
  1
CELLSTYLE_BEGIN
 90
        3
 91
        2
300
_DATA
309
CELLSTYLE_END
  0
ENDSEC
  0
EOF
