  0
SECTION
  2
HEADER
  9
$ACADVER
  1
AC1032
  9
$ACADMAINTVER
 90
      228
  9
$DWGCODEPAGE
  3
ANSI_932
  9
$REQUIREDVERSIONS
160
                 0
  9
$INSBASE
 10
0.0
 20
0.0
 30
0.0
  9
$EXTMIN
 10
1.000000000000000E+20
 20
1.000000000000000E+20
 30
1.000000000000000E+20
  9
$EXTMAX
 10
-1.000000000000000E+20
 20
-1.000000000000000E+20
 30
-1.000000000000000E+20
  9
$LIMMIN
 10
0.0
 20
0.0
  9
$LIMMAX
 10
12.0
 20
9.0
  9
$ORTHOMODE
 70
     0
  9
$REGENMODE
 70
     1
  9
$FILLMODE
 70
     1
  9
$QTEXTMODE
 70
     0
  9
$MIRRTEXT
 70
     0
  9
$LTSCALE
 40
1.0
  9
$ATTMODE
 70
     1
  9
$TEXTSIZE
 40
0.2
  9
$TRACEWID
 40
0.05
  9
$TEXTSTYLE
  7
Standard
  9
$CLAYER
  8
0
  9
$CELTYPE
  6
ByLayer
  9
$CECOLOR
 62
   256
  9
$CELTSCALE
 40
1.0
  9
$DISPSILH
 70
     0
  9
$DIMSCALE
 40
1.0
  9
$DIMASZ
 40
0.18
  9
$DIMEXO
 40
0.0625
  9
$DIMDLI
 40
0.38
  9
$DIMRND
 40
0.0
  9
$DIMDLE
 40
0.0
  9
$DIMEXE
 40
0.18
  9
$DIMTP
 40
0.0
  9
$DIMTM
 40
0.0
  9
$DIMTXT
 40
0.18
  9
$DIMCEN
 40
0.09
  9
$DIMTSZ
 40
0.0
  9
$DIMTOL
 70
     0
  9
$DIMLIM
 70
     0
  9
$DIMTIH
 70
     1
  9
$DIMTOH
 70
     1
  9
$DIMSE1
 70
     0
  9
$DIMSE2
 70
     0
  9
$DIMTAD
 70
     0
  9
$DIMZIN
 70
     0
  9
$DIMBLK
  1

  9
$DIMASO
 70
     1
  9
$DIMSHO
 70
     1
  9
$DIMPOST
  1

  9
$DIMAPOST
  1

  9
$DIMALT
 70
     0
  9
$DIMALTD
 70
     2
  9
$DIMALTF
 40
25.4
  9
$DIMLFAC
 40
1.0
  9
$DIMTOFL
 70
     0
  9
$DIMTVP
 40
0.0
  9
$DIMTIX
 70
     0
  9
$DIMSOXD
 70
     0
  9
$DIMSAH
 70
     0
  9
$DIMBLK1
  1

  9
$DIMBLK2
  1

  9
$DIMSTYLE
  2
Standard
  9
$DIMCLRD
 70
     0
  9
$DIMCLRE
 70
     0
  9
$DIMCLRT
 70
     0
  9
$DIMTFAC
 40
1.0
  9
$DIMGAP
 40
0.09
  9
$DIMJUST
 70
     0
  9
$DIMSD1
 70
     0
  9
$DIMSD2
 70
     0
  9
$DIMTOLJ
 70
     1
  9
$DIMTZIN
 70
     0
  9
$DIMALTZ
 70
     0
  9
$DIMALTTZ
 70
     0
  9
$DIMUPT
 70
     0
  9
$DIMDEC
 70
     4
  9
$DIMTDEC
 70
     4
  9
$DIMALTU
 70
     2
  9
$DIMALTTD
 70
     2
  9
$DIMTXSTY
  7
Standard
  9
$DIMAUNIT
 70
     0
  9
$DIMADEC
 70
     0
  9
$DIMALTRND
 40
0.0
  9
$DIMAZIN
 70
     0
  9
$DIMDSEP
 70
    46
  9
$DIMATFIT
 70
     3
  9
$DIMFRAC
 70
     0
  9
$DIMLDRBLK
  1

  9
$DIMLUNIT
 70
     2
  9
$DIMLWD
 70
    -2
  9
$DIMLWE
 70
    -2
  9
$DIMTMOVE
 70
     0
  9
$DIMFXL
 40
1.0
  9
$DIMFXLON
 70
     0
  9
$DIMJOGANG
 40
0.7853981633974483
  9
$DIMTFILL
 70
     0
  9
$DIMTFILLCLR
 70
     0
  9
$DIMARCSYM
 70
     0
  9
$DIMLTYPE
  6

  9
$DIMLTEX1
  6

  9
$DIMLTEX2
  6

  9
$DIMTXTDIRECTION
 70
     0
  9
$LUNITS
 70
     2
  9
$LUPREC
 70
     4
  9
$SKETCHINC
 40
0.1
  9
$FILLETRAD
 40
0.0
  9
$AUNITS
 70
     0
  9
$AUPREC
 70
     0
  9
$MENU
  1
.
  9
$ELEVATION
 40
0.0
  9
$PELEVATION
 40
0.0
  9
$THICKNESS
 40
0.0
  9
$LIMCHECK
 70
     0
  9
$CHAMFERA
 40
0.0
  9
$CHAMFERB
 40
0.0
  9
$CHAMFERC
 40
0.0
  9
$CHAMFERD
 40
0.0
  9
$SKPOLY
 70
     0
  9
$TDCREATE
 40
2460062.669907407
  9
$TDUCREATE
 40
2460062.294907408
  9
$TDUPDATE
 40
2460062.669907407
  9
$TDUUPDATE
 40
2460062.294907408
  9
$TDINDWG
 40
0.0000000000
  9
$TDUSRTIMER
 40
0.0000000000
  9
$USRTIMER
 70
     1
  9
$ANGBASE
 50
0.0
  9
$ANGDIR
 70
     0
  9
$PDMODE
 70
     0
  9
$PDSIZE
 40
0.0
  9
$PLINEWID
 40
0.0
  9
$SPLFRAME
 70
     0
  9
$SPLINETYPE
 70
     6
  9
$SPLINESEGS
 70
     8
  9
$HANDSEED
  5
15B
  9
$SURFTAB1
 70
     6
  9
$SURFTAB2
 70
     6
  9
$SURFTYPE
 70
     6
  9
$SURFU
 70
     6
  9
$SURFV
 70
     6
  9
$UCSBASE
  2

  9
$UCSNAME
  2

  9
$UCSORG
 10
0.0
 20
0.0
 30
0.0
  9
$UCSXDIR
 10
1.0
 20
0.0
 30
0.0
  9
$UCSYDIR
 10
0.0
 20
1.0
 30
0.0
  9
$UCSORTHOREF
  2

  9
$UCSORTHOVIEW
 70
     0
  9
$UCSORGTOP
 10
0.0
 20
0.0
 30
0.0
  9
$UCSORGBOTTOM
 10
0.0
 20
0.0
 30
0.0
  9
$UCSORGLEFT
 10
0.0
 20
0.0
 30
0.0
  9
$UCSORGRIGHT
 10
0.0
 20
0.0
 30
0.0
  9
$UCSORGFRONT
 10
0.0
 20
0.0
 30
0.0
  9
$UCSORGBACK
 10
0.0
 20
0.0
 30
0.0
  9
$PUCSBASE
  2

  9
$PUCSNAME
  2

  9
$PUCSORG
 10
0.0
 20
0.0
 30
0.0
  9
$PUCSXDIR
 10
1.0
 20
0.0
 30
0.0
  9
$PUCSYDIR
 10
0.0
 20
1.0
 30
0.0
  9
$PUCSORTHOREF
  2

  9
$PUCSORTHOVIEW
 70
     0
  9
$PUCSORGTOP
 10
0.0
 20
0.0
 30
0.0
  9
$PUCSORGBOTTOM
 10
0.0
 20
0.0
 30
0.0
  9
$PUCSORGLEFT
 10
0.0
 20
0.0
 30
0.0
  9
$PUCSORGRIGHT
 10
0.0
 20
0.0
 30
0.0
  9
$PUCSORGFRONT
 10
0.0
 20
0.0
 30
0.0
  9
$PUCSORGBACK
 10
0.0
 20
0.0
 30
0.0
  9
$USERI1
 70
     0
  9
$USERI2
 70
     0
  9
$USERI3
 70
     0
  9
$USERI4
 70
     0
  9
$USERI5
 70
     0
  9
$USERR1
 40
0.0
  9
$USERR2
 40
0.0
  9
$USERR3
 40
0.0
  9
$USERR4
 40
0.0
  9
$USERR5
 40
0.0
  9
$WORLDVIEW
 70
     1
  9
$SHADEDGE
 70
     3
  9
$SHADEDIF
 70
    70
  9
$TILEMODE
 70
     1
  9
$MAXACTVP
 70
    64
  9
$PINSBASE
 10
0.0
 20
0.0
 30
0.0
  9
$PLIMCHECK
 70
     0
  9
$PEXTMIN
 10
1.000000000000000E+20
 20
1.000000000000000E+20
 30
1.000000000000000E+20
  9
$PEXTMAX
 10
-1.000000000000000E+20
 20
-1.000000000000000E+20
 30
-1.000000000000000E+20
  9
$PLIMMIN
 10
0.0
 20
0.0
  9
$PLIMMAX
 10
12.0
 20
9.0
  9
$UNITMODE
 70
     0
  9
$VISRETAIN
 70
     1
  9
$PLINEGEN
 70
     0
  9
$PSLTSCALE
 70
     1
  9
$TREEDEPTH
 70
  3020
  9
$CMLSTYLE
  2
Standard
  9
$CMLJUST
 70
     0
  9
$CMLSCALE
 40
1.0
  9
$PROXYGRAPHICS
 70
     1
  9
$MEASUREMENT
 70
     0
  9
$CELWEIGHT
370
    -1
  9
$ENDCAPS
280
     0
  9
$JOINSTYLE
280
     0
  9
$LWDISPLAY
290
     1
  9
$INSUNITS
 70
     4
  9
$HYPERLINKBASE
  1

  9
$STYLESHEET
  1

  9
$XEDIT
290
     1
  9
$CEPSNTYPE
380
     0
  9
$PSTYLEMODE
290
     1
  9
$FINGERPRINTGUID
  2
{F975779E-24EC-9048-BBD8-E1A749B77206}
  9
$VERSIONGUID
  2
{D06E8AFC-09E4-AF46-94B5-F40A499763D5}
  9
$EXTNAMES
290
     1
  9
$PSVPSCALE
 40
0.0
  9
$OLESTARTUP
290
     0
  9
$SORTENTS
280
   127
  9
$INDEXCTL
280
     0
  9
$HIDETEXT
280
     1
  9
$XCLIPFRAME
280
     2
  9
$HALOGAP
280
     0
  9
$OBSCOLOR
 70
   257
  9
$OBSLTYPE
280
     0
  9
$INTERSECTIONDISPLAY
280
     0
  9
$INTERSECTIONCOLOR
 70
   257
  9
$DIMASSOC
280
     2
  9
$PROJECTNAME
  1

  9
$CAMERADISPLAY
290
     0
  9
$LENSLENGTH
 40
50.0
  9
$CAMERAHEIGHT
 40
0.0
  9
$STEPSPERSEC
 40
2.0
  9
$STEPSIZE
 40
6.0
  9
$3DDWFPREC
 40
2.0
  9
$PSOLWIDTH
 40
0.25
  9
$PSOLHEIGHT
 40
4.0
  9
$LOFTANG1
 40
1.570796326794896
  9
$LOFTANG2
 40
1.570796326794896
  9
$LOFTMAG1
 40
0.0
  9
$LOFTMAG2
 40
0.0
  9
$LOFTPARAM
 70
     7
  9
$LOFTNORMALS
280
     1
  9
$LATITUDE
 40
37.795
  9
$LONGITUDE
 40
-122.394
  9
$NORTHDIRECTION
 40
0.0
  9
$TIMEZONE
 70
 -8000
  9
$LIGHTGLYPHDISPLAY
280
     1
  9
$TILEMODELIGHTSYNCH
280
     1
  9
$CMATERIAL
347
11
  9
$SOLIDHIST
280
     0
  9
$SHOWHIST
280
     1
  9
$DWFFRAME
280
     2
  9
$DGNFRAME
280
     0
  9
$REALWORLDSCALE
290
     1
  9
$INTERFERECOLOR
 62
     1
  9
$INTERFEREOBJVS
345
33
  9
$INTERFEREVPVS
346
30
  9
$CSHADOW
280
     0
  9
$SHADOWPLANELOCATION
 40
0.0
  0
ENDSEC
  0
SECTION
  2
CLASSES
  0
CLASS
  1
ACDBDICTIONARYWDFLT
  2
AcDbDictionaryWithDefault
  3
ObjectDBX Classes
 90
        0
 91
        1
280
     0
281
     0
  0
CLASS
  1
MATERIAL
  2
AcDbMaterial
  3
ObjectDBX Classes
 90
     1153
 91
        3
280
     0
281
     0
  0
CLASS
  1
VISUALSTYLE
  2
AcDbVisualStyle
  3
ObjectDBX Classes
 90
     4095
 91
       24
280
     0
281
     0
  0
CLASS
  1
SCALE
  2
AcDbScale
  3
ObjectDBX Classes
 90
     1153
 91
       17
280
     0
281
     0
  0
CLASS
  1
TABLESTYLE
  2
AcDbTableStyle
  3
ObjectDBX Classes
 90
     4095
 91
        1
280
     0
281
     0
  0
CLASS
  1
MLEADERSTYLE
  2
AcDbMLeaderStyle
  3
ACDB_MLEADERSTYLE_CLASS
 90
     4095
 91
        1
280
     0
281
     0
  0
CLASS
  1
ACDBSECTIONVIEWSTYLE
  2
AcDbSectionViewStyle
  3
ObjectDBX Classes
 90
     1025
 91
        1
280
     0
281
     0
  0
CLASS
  1
ACDBDETAILVIEWSTYLE
  2
AcDbDetailViewStyle
  3
ObjectDBX Classes
 90
     1025
 91
        1
280
     0
281
     0
  0
CLASS
  1
DICTIONARYVAR
  2
AcDbDictionaryVar
  3
ObjectDBX Classes
 90
        0
 91
        5
280
     0
281
     0
  0
CLASS
  1
CELLSTYLEMAP
  2
AcDbCellStyleMap
  3
ObjectDBX Classes
 90
     1152
 91
        1
280
     0
281
     0
  0
ENDSEC
  0
SECTION
  2
TABLES
  0
TABLE
  2
VPORT
  5
8
330
0
100
AcDbSymbolTable
 70
     1
  0
VPORT
  5
57
330
8
100
AcDbSymbolTableRecord
100
AcDbViewportTableRecord
  2
*Active
 70
     0
 10
0.0
 20
0.0
 11
1.0
 21
1.0
 12
0.0
 22
0.0
 13
0.0
 23
0.0
 14
1.0
 24
1.0
 15
0.0
 25
0.0
 16
0.0
 26
0.0
 36
1.0
 17
338.666666582
 27
190.499999952375
 37
0.0
 40
388.619999902845
 41
1.777777777777777
 42
50.0
 43
0.0
 44
0.0
 50
0.0
 51
0.0
 71
     0
 72
   100
 73
     1
 74
     1
 75
     0
 76
     0
 77
     0
 78
     0
281
     0
 65
     1
110
0.0
120
0.0
130
0.0
111
1.0
121
0.0
131
0.0
112
0.0
122
1.0
132
0.0
 79
     0
146
0.0
 60
     3
 61
     5
292
     1
282
     1
141
0.0
142
0.0
 63
   250
421
  3355443
  0
ENDTAB
  0
TABLE
  2
LTYPE
  5
5
330
0
100
AcDbSymbolTable
 70
     1
  0
LTYPE
  5
5B
330
5
100
AcDbSymbolTableRecord
100
AcDbLinetypeTableRecord
  2
ByBlock
 70
     0
  3

 72
    65
 73
     0
 40
0.0
  0
LTYPE
  5
5C
330
5
100
AcDbSymbolTableRecord
100
AcDbLinetypeTableRecord
  2
ByLayer
 70
     0
  3

 72
    65
 73
     0
 40
0.0
  0
LTYPE
  5
5D
330
5
100
AcDbSymbolTableRecord
100
AcDbLinetypeTableRecord
  2
Continuous
 70
     0
  3
Solid line
 72
    65
 73
     0
 40
0.0
  0
ENDTAB
  0
TABLE
  2
LAYER
  5
2
330
0
100
AcDbSymbolTable
 70
     6
  0
LAYER
  5
54
330
2
100
AcDbSymbolTableRecord
100
AcDbLayerTableRecord
  2
0
 70
     0
 62
     7
  6
Continuous
370
    -3
390
F
347
21
348
0
  0
LAYER
  5
78
330
2
100
AcDbSymbolTableRecord
100
AcDbLayerTableRecord
  2
レイヤー_1
 70
     0
 62
     7
  6
Continuous
370
     0
390
F
347
21
348
0
  0
LAYER
  5
82
330
2
100
AcDbSymbolTableRecord
100
AcDbLayerTableRecord
  2
FLAME
 70
     0
 62
     7
  6
Continuous
370
     0
390
F
347
21
348
0
  0
LAYER
  5
8A
330
2
100
AcDbSymbolTableRecord
100
AcDbLayerTableRecord
  2
Defpoints
 70
     0
 62
     7
  6
Continuous
290
     0
370
     0
390
F
347
21
348
0
  0
LAYER
  5
8C
330
2
100
AcDbSymbolTableRecord
100
AcDbLayerTableRecord
  2
text
 70
     0
 62
     7
  6
Continuous
370
     0
390
F
347
21
348
0
  0
LAYER
  5
90
330
2
100
AcDbSymbolTableRecord
100
AcDbLayerTableRecord
  2
shade
 70
     0
 62
     7
  6
Continuous
370
     0
390
F
347
21
348
0
  0
ENDTAB
  0
TABLE
  2
STYLE
  5
3
330
0
100
AcDbSymbolTable
 70
     2
  0
STYLE
  5
55
330
3
100
AcDbSymbolTableRecord
100
AcDbTextStyleTableRecord
  2
Standard
 70
     0
 40
0.0
 41
1.0
 50
0.0
 71
     0
 42
0.2
  3
txt
  4

  0
STYLE
  5
5A
330
3
100
AcDbSymbolTableRecord
100
AcDbTextStyleTableRecord
  2
Annotative
 70
     0
 40
0.0
 41
1.0
 50
0.0
 71
     0
 42
0.2
  3
txt
  4

1001
AcadAnnotative
1000
AnnotativeData
1002
{
1070
     1
1070
     1
1002
}
  0
ENDTAB
  0
TABLE
  2
VIEW
  5
6
330
0
100
AcDbSymbolTable
 70
     0
  0
ENDTAB
  0
TABLE
  2
UCS
  5
7
330
0
100
AcDbSymbolTable
 70
     0
  0
ENDTAB
  0
TABLE
  2
APPID
  5
9
330
0
100
AcDbSymbolTable
 70
     2
  0
APPID
  5
56
330
9
100
AcDbSymbolTableRecord
100
AcDbRegAppTableRecord
  2
ACAD
 70
     0
  0
APPID
  5
5E
330
9
100
AcDbSymbolTableRecord
100
AcDbRegAppTableRecord
  2
AcadAnnotative
 70
     0
  0
ENDTAB
  0
TABLE
  2
DIMSTYLE
  5
A
330
0
100
AcDbSymbolTable
 70
     2
100
AcDbDimStyleTable
 71
     0
  0
DIMSTYLE
105
58
330
A
100
AcDbSymbolTableRecord
100
AcDbDimStyleTableRecord
  2
Standard
 70
     0
340
55
  0
DIMSTYLE
105
59
330
A
100
AcDbSymbolTableRecord
100
AcDbDimStyleTableRecord
  2
Annotative
 70
     0
340
55
1001
AcadAnnotative
1000
AnnotativeData
1002
{
1070
     1
1070
     1
1002
}
  0
ENDTAB
  0
TABLE
  2
BLOCK_RECORD
  5
1
330
0
100
AcDbSymbolTable
 70
     1
  0
BLOCK_RECORD
  5
70
330
1
100
AcDbSymbolTableRecord
100
AcDbBlockTableRecord
  2
*Model_Space
340
73
 70
     0
280
     1
281
     0
  0
BLOCK_RECORD
  5
6C
330
1
100
AcDbSymbolTableRecord
100
AcDbBlockTableRecord
  2
*Paper_Space
340
6F
 70
     0
280
     1
281
     0
  0
BLOCK_RECORD
  5
74
330
1
100
AcDbSymbolTableRecord
100
AcDbBlockTableRecord
  2
*Paper_Space0
340
77
 70
     0
280
     1
281
     0
  0
ENDTAB
  0
ENDSEC
  0
SECTION
  2
BLOCKS
  0
BLOCK
  5
71
330
70
100
AcDbEntity
  8
0
100
AcDbBlockBegin
  2
*Model_Space
 70
     0
 10
0.0
 20
0.0
 30
0.0
  3
*Model_Space
  1

  0
ENDBLK
  5
72
330
70
100
AcDbEntity
  8
0
100
AcDbBlockEnd
  0
BLOCK
  5
6D
330
6C
100
AcDbEntity
 67
     1
  8
0
100
AcDbBlockBegin
  2
*Paper_Space
 70
     0
 10
0.0
 20
0.0
 30
0.0
  3
*Paper_Space
  1

  0
ENDBLK
  5
6E
330
6C
100
AcDbEntity
 67
     1
  8
0
100
AcDbBlockEnd
  0
BLOCK
  5
75
330
74
100
AcDbEntity
 67
     1
  8
0
100
AcDbBlockBegin
  2
*Paper_Space0
 70
     0
 10
0.0
 20
0.0
 30
0.0
  3
*Paper_Space0
  1

  0
ENDBLK
  5
76
330
74
100
AcDbEntity
 67
     1
  8
0
100
AcDbBlockEnd
  0
ENDSEC
  0
SECTION
  2
ENTITIES
  0
SPLINE
  5
79
330
70
100
AcDbEntity
  8
レイヤー_1
 62
    18
420
        0
370
     0
100
AcDbSpline
210
0.0
220
0.0
230
1.0
 70
     9
 71
     3
 72
    11
 73
     7
 74
     0
 42
0.0000000001
 43
0.0000000001
 40
0.0
 40
0.0
 40
0.0
 40
0.0
 40
1.0
 40
1.0
 40
1.0
 40
2.0
 40
2.0
 40
2.0
 40
2.0
 10
510.2072546224725
 20
371.5999668741361
 30
0.0
 10
510.2262218888658
 20
371.5954286938331
 30
0.0
 10
510.2465273366307
 20
371.5976783900517
 30
0.0
 10
510.2656497544879
 20
371.5999668741361
 30
0.0
 10
510.2656497544879
 20
371.5999668741361
 30
0.0
 10
510.2072546224725
 20
371.5999668741361
 30
0.0
 10
510.2072546224725
 20
371.5999668741361
 30
0.0
  0
SPLINE
  5
7A
330
70
100
AcDbEntity
  8
レイヤー_1
100
AcDbSpline
210
0.0
220
0.0
230
1.0
 70
     9
 71
     3
 72
    11
 73
     7
 74
     0
 42
0.0000000001
 43
0.0000000001
 40
0.0
 40
0.0
 40
0.0
 40
0.0
 40
1.0
 40
1.0
 40
1.0
 40
2.0
 40
2.0
 40
2.0
 40
2.0
 10
510.2072546224725
 20
371.5999668741355
 30
0.0
 10
510.2262218888658
 20
371.5954286938321
 30
0.0
 10
510.2465273366307
 20
371.5976783900517
 30
0.0
 10
510.2656497544885
 20
371.5999668741355
 30
0.0
 10
510.2656497544885
 20
371.5999668741355
 30
0.0
 10
510.2072546224725
 20
371.5999668741355
 30
0.0
 10
510.2072546224725
 20
371.5999668741355
 30
0.0
  0
HATCH
  5
7B
330
70
100
AcDbEntity
  8
レイヤー_1
 62
    18
420
        0
440
 33554687
100
AcDbHatch
 10
0.0
 20
0.0
 30
0.0
210
0.0
220
0.0
230
1.0
  2
SOLID
 70
     1
 71
     1
 91
        1
 92
        1
 93
        1
 72
     4
 94
        3
 73
     0
 74
     0
 95
       11
 96
        7
 40
0.0
 40
0.0
 40
0.0
 40
0.0
 40
1.0
 40
1.0
 40
1.0
 40
2.0
 40
2.0
 40
2.0
 40
2.0
 10
510.2072546224725
 20
371.5999668741355
 10
510.2262218888658
 20
371.5954286938321
 10
510.2465273366307
 20
371.5976783900517
 10
510.2656497544885
 20
371.5999668741355
 10
510.2656497544885
 20
371.5999668741355
 10
510.2072546224725
 20
371.5999668741355
 10
510.2072546224725
 20
371.5999668741355
 97
        0
 97
        1
330
7A
 75
     0
 76
     1
 98
        1
 10
0.0
 20
0.0
450
        0
451
        0
460
0.0
461
0.0
452
        0
462
0.0
453
        0
470

  0
SPLINE
  5
7C
330
70
100
AcDbEntity
  8
レイヤー_1
 62
    18
420
        0
370
     0
100
AcDbSpline
210
0.0
220
0.0
230
1.0
 70
     9
 71
     3
 72
    11
 73
     7
 74
     0
 42
0.0000000001
 43
0.0000000001
 40
0.0
 40
0.0
 40
0.0
 40
0.0
 40
1.0
 40
1.0
 40
1.0
 40
2.0
 40
2.0
 40
2.0
 40
2.0
 10
279.8343844608991
 20
0.4567846069805465
 30
0.0
 10
279.853351727293
 20
0.4522464266771686
 30
0.0
 10
279.8736571750579
 20
0.454496122895471
 30
0.0
 10
279.892760198982
 20
0.4567846069805465
 30
0.0
 10
279.892760198982
 20
0.4567846069805465
 30
0.0
 10
279.8343844608991
 20
0.4567846069805465
 30
0.0
 10
279.8343844608991
 20
0.4567846069805465
 30
0.0
  0
SPLINE
  5
7D
330
70
100
AcDbEntity
  8
レイヤー_1
100
AcDbSpline
210
0.0
220
0.0
230
1.0
 70
     9
 71
     3
 72
    11
 73
     7
 74
     0
 42
0.0000000001
 43
0.0000000001
 40
0.0
 40
0.0
 40
0.0
 40
0.0
 40
1.0
 40
1.0
 40
1.0
 40
2.0
 40
2.0
 40
2.0
 40
2.0
 10
279.8343844608994
 20
0.4567846069805465
 30
0.0
 10
279.8533517272933
 20
0.4522464266771686
 30
0.0
 10
279.8736571750582
 20
0.4544961228961127
 30
0.0
 10
279.8927601989817
 20
0.4567846069805465
 30
0.0
 10
279.8927601989817
 20
0.4567846069805465
 30
0.0
 10
279.8343844608994
 20
0.4567846069805465
 30
0.0
 10
279.8343844608994
 20
0.4567846069805465
 30
0.0
  0
HATCH
  5
7E
330
70
100
AcDbEntity
  8
レイヤー_1
 62
    18
420
        0
440
 33554687
100
AcDbHatch
 10
0.0
 20
0.0
 30
0.0
210
0.0
220
0.0
230
1.0
  2
SOLID
 70
     1
 71
     1
 91
        1
 92
        1
 93
        1
 72
     4
 94
        3
 73
     0
 74
     0
 95
       11
 96
        7
 40
0.0
 40
0.0
 40
0.0
 40
0.0
 40
1.0
 40
1.0
 40
1.0
 40
2.0
 40
2.0
 40
2.0
 40
2.0
 10
279.8343844608994
 20
0.4567846069805465
 10
279.8533517272933
 20
0.4522464266771686
 10
279.8736571750582
 20
0.4544961228961127
 10
279.8927601989817
 20
0.4567846069805465
 10
279.8927601989817
 20
0.4567846069805465
 10
279.8343844608994
 20
0.4567846069805465
 10
279.8343844608994
 20
0.4567846069805465
 97
        0
 97
        1
330
7D
 75
     0
 76
     1
 98
        1
 10
0.0
 20
0.0
450
        0
451
        0
460
0.0
461
0.0
452
        0
462
0.0
453
        0
470

  0
SPLINE
  5
7F
330
70
100
AcDbEntity
  8
レイヤー_1
 62
    18
420
        0
370
     0
100
AcDbSpline
210
0.0
220
0.0
230
1.0
 70
     9
 71
     3
 72
    11
 73
     7
 74
     0
 42
0.0000000001
 43
0.0000000001
 40
0.0
 40
0.0
 40
0.0
 40
0.0
 40
1.0
 40
1.0
 40
1.0
 40
2.0
 40
2.0
 40
2.0
 40
2.0
 10
385.3247441188695
 20
148.976682667604
 30
0.0
 10
385.3437113852628
 20
148.9721444873012
 30
0.0
 10
385.3640168330283
 20
148.9743941835196
 30
0.0
 10
385.3831392508848
 20
148.976682667604
 30
0.0
 10
385.3831392508848
 20
148.976682667604
 30
0.0
 10
385.3247441188695
 20
148.976682667604
 30
0.0
 10
385.3247441188695
 20
148.976682667604
 30
0.0
  0
SPLINE
  5
80
330
70
100
AcDbEntity
  8
レイヤー_1
100
AcDbSpline
210
0.0
220
0.0
230
1.0
 70
     9
 71
     3
 72
    11
 73
     7
 74
     0
 42
0.0000000001
 43
0.0000000001
 40
0.0
 40
0.0
 40
0.0
 40
0.0
 40
1.0
 40
1.0
 40
1.0
 40
2.0
 40
2.0
 40
2.0
 40
2.0
 10
385.3247441188701
 20
148.976682667604
 30
0.0
 10
385.3437113852628
 20
148.9721444873006
 30
0.0
 10
385.3640168330277
 20
148.9743941835196
 30
0.0
 10
385.3831392508848
 20
148.976682667604
 30
0.0
 10
385.3831392508848
 20
148.976682667604
 30
0.0
 10
385.3247441188701
 20
148.976682667604
 30
0.0
 10
385.3247441188701
 20
148.976682667604
 30
0.0
  0
HATCH
  5
81
330
70
100
AcDbEntity
  8
レイヤー_1
 62
    18
420
        0
440
 33554687
100
AcDbHatch
 10
0.0
 20
0.0
 30
0.0
210
0.0
220
0.0
230
1.0
  2
SOLID
 70
     1
 71
     1
 91
        1
 92
        1
 93
        1
 72
     4
 94
        3
 73
     0
 74
     0
 95
       11
 96
        7
 40
0.0
 40
0.0
 40
0.0
 40
0.0
 40
1.0
 40
1.0
 40
1.0
 40
2.0
 40
2.0
 40
2.0
 40
2.0
 10
385.3247441188701
 20
148.976682667604
 10
385.3437113852628
 20
148.9721444873006
 10
385.3640168330277
 20
148.9743941835196
 10
385.3831392508848
 20
148.976682667604
 10
385.3831392508848
 20
148.976682667604
 10
385.3247441188701
 20
148.976682667604
 10
385.3247441188701
 20
148.976682667604
 97
        0
 97
        1
330
80
 75
     0
 76
     1
 98
        1
 10
0.0
 20
0.0
450
        0
451
        0
460
0.0
461
0.0
452
        0
462
0.0
453
        0
470

  0
LINE
  5
83
330
70
100
AcDbEntity
  8
FLAME
 62
     2
420
 16776960
370
    25
100
AcDbLine
 10
353.3099510303677
 20
266.8611060321727
 30
0.0
 11
353.3099510303677
 21
124.9994039399842
 31
0.0
  0
LINE
  5
84
330
70
100
AcDbEntity
  8
FLAME
 62
     2
420
 16776960
370
    25
100
AcDbLine
 10
231.714206379917
 20
124.9994039399842
 30
0.0
 11
231.714206379917
 21
266.8611060321727
 31
0.0
  0
LINE
  5
85
330
70
100
AcDbEntity
  8
FLAME
 62
     2
420
 16776960
370
    25
100
AcDbLine
 10
353.3099510303677
 20
124.9994039399842
 30
0.0
 11
231.714206379917
 21
124.9994039399842
 31
0.0
  0
LINE
  5
86
330
70
100
AcDbEntity
  8
FLAME
 62
     2
420
 16776960
370
    25
100
AcDbLine
 10
353.3099510303677
 20
131.7547230872369
 30
0.0
 11
231.714206379917
 21
131.7547230872369
 31
0.0
  0
LINE
  5
87
330
70
100
AcDbEntity
  8
FLAME
 62
     2
420
 16776960
370
    25
100
AcDbLine
 10
353.3099510303677
 20
138.5100422344902
 30
0.0
 11
231.714206379917
 21
138.5100422344902
 31
0.0
  0
LINE
  5
88
330
70
100
AcDbEntity
  8
FLAME
 62
     2
420
 16776960
370
    25
100
AcDbLine
 10
353.3099510303677
 20
145.2653613817326
 30
0.0
 11
231.714206379917
 21
145.2653613817326
 31
0.0
  0
LINE
  5
89
330
70
100
AcDbEntity
  8
FLAME
 62
     2
420
 16776960
370
    25
100
AcDbLine
 10
353.3099510303677
 20
266.8611060321727
 30
0.0
 11
231.714206379917
 21
266.8611060321727
 31
0.0
  0
LWPOLYLINE
  5
8B
330
70
100
AcDbEntity
  8
Defpoints
 62
    18
420
        0
370
     0
100
AcDbPolyline
 90
        4
 70
     1
 43
0.0
 10
167.0676834095121
 20
380.9999999047501
 10
430.5251301521612
 20
380.9999999047501
 10
430.5251301521612
 20
0.0
 10
167.0676834095121
 20
0.0
  0
MTEXT
  5
8D
330
70
100
AcDbEntity
  8
text
100
AcDbMText
 10
236.1481826191856
 20
133.2936080599383
 30
0.0
 40
0.2
 41
0.0
 46
0.0
 71
     7
 72
     1
  1
\C4;\c16776960;\FMS PMincho|b0|i0|c128;\H3.377659;\W1.000000;KB332O
 73
     1
 44
1.0
  0
MTEXT
  5
8E
330
70
100
AcDbEntity
  8
text
100
AcDbMText
 10
236.1481826191856
 20
140.4286699579755
 30
0.0
 40
0.2
 41
0.0
 46
0.0
 71
     7
 72
     1
  1
\C4;\c16776960;\FMS PMincho|b0|i0|c128;\H3.377659;\W1.000000;ブラケット　332
 73
     1
 44
1.0
  0
MTEXT
  5
8F
330
70
100
AcDbEntity
  8
text
100
AcDbMText
 10
236.3821261344809
 20
127.3085836304179
 30
0.0
 40
0.2
 41
0.0
 46
0.0
 71
     7
 72
     1
  1
\C4;\c16776960;\FMS PMincho|b0|i0|c128;\H3.377659;\W0.867246;E26 LED電球(100W相当　電球色 全方向/広配光タイプ）
 73
     1
 44
1.0
  0
LWPOLYLINE
  5
91
330
70
100
AcDbEntity
  8
shade
 62
     6
420
 16711935
370
    25
100
AcDbPolyline
 90
       51
 70
     0
 43
0.0
 10
269.2569103107044
 20
219.8799368067232
 10
270.2531856736432
 20
221.2197650375003
 10
269.6695091983966
 20
219.9830865286488
 10
270.5623553008533
 20
221.2885315187875
 10
269.841145863043
 20
220.0862362505744
 10
270.7339919655096
 20
221.3914017021669
 10
270.1844191923663
 20
220.1547231933055
 10
271.1460317760995
 20
221.4945514240925
 10
270.6652254842327
 20
220.2234896745824
 10
271.5927343658843
 20
221.528934664731
 10
271.2835647386636
 20
220.3266393964977
 10
272.2457363994893
 20
221.6661880887389
 10
271.9019039930945
 20
220.3266393964977
 10
272.8981793560226
 20
221.6661880887389
 10
272.7606463934586
 20
220.4297891184233
 10
273.5852850917305
 20
221.7349545700261
 10
273.4818558312795
 20
220.4638928205156
 10
274.3752610108282
 20
221.803721051303
 10
274.4440274921048
 20
220.4982760611541
 10
275.1305741507307
 20
221.8381042919414
 10
275.3027698924693
 20
220.5326593018028
 10
275.9893165510951
 20
221.872207994044
 10
276.0580830323823
 20
220.567042542431
 10
276.6423185847104
 20
221.8722079940337
 10
277.0202546932077
 20
220.6358090237181
 10
277.4322945038079
 20
221.9065912346824
 10
277.9131007956747
 20
220.6701922643566
 10
278.3598033854492
 20
221.9409744753209
 10
278.9781426398798
 20
220.7042959664594
 10
279.2526494879159
 20
221.9753577159593
 10
280.0085217049108
 20
220.7386792070975
 10
280.2489248508443
 20
221.9409744753209
 10
281.2105374345982
 20
220.7386792070975
 10
281.3480703971519
 20
221.9409744753209
 10
282.3443457600802
 20
220.7042959664594
 10
282.2755792788036
 20
221.9065912346721
 10
283.3059583438343
 20
220.6701922643566
 10
283.1684253812702
 20
221.8381042919414
 10
284.336337408855
 20
220.6701922643566
 10
284.2334672254756
 20
221.6318048481004
 10
285.2985090696807
 20
220.4638928205156
 10
284.885910182009
 20
221.528934664731
 10
285.9168483241113
 20
220.3610226371464
 10
285.3672755509576
 20
221.460168183454
 10
286.4317583180809
 20
220.3266393964977
 10
285.7793153615574
 20
221.4257849428156
 10
286.8096944265884
 20
220.2578729152208
 10
286.0884849887782
 20
221.3226352208899
 10
287.050097572522
 20
220.1891064339439
 10
286.226017951332
 20
221.2538687396131
 10
287.3592671997424
 20
220.0518530099257
  0
LINE
  5
92
330
70
100
AcDbEntity
  8
shade
 62
     6
420
 16711935
370
    25
100
AcDbLine
 10
281.3480703971519
 20
221.9409744753209
 30
0.0
 11
281.004797067839
 21
221.0134655936696
 31
0.0
  0
LINE
  5
93
330
70
100
AcDbEntity
  8
shade
 62
     6
420
 16711935
370
    25
100
AcDbLine
 10
282.2755792788036
 20
221.9065912346721
 30
0.0
 11
281.9323059494903
 21
221.2197650375003
 31
0.0
  0
LINE
  5
94
330
70
100
AcDbEntity
  8
shade
 62
     6
420
 16711935
370
    25
100
AcDbLine
 10
283.1684253812702
 20
221.8381042919414
 30
0.0
 11
282.791048349865
 21
221.2885315187875
 31
0.0
  0
LINE
  5
95
330
70
100
AcDbEntity
  8
shade
 62
     6
420
 16711935
370
    25
100
AcDbLine
 10
284.2334672254753
 20
221.6318048481004
 30
0.0
 11
283.7867646357011
 21
221.2197650375003
 31
0.0
  0
LINE
  5
96
330
70
100
AcDbEntity
  8
shade
 62
     6
420
 16711935
370
    25
100
AcDbLine
 10
284.885910182009
 20
221.528934664731
 30
0.0
 11
284.542636852696
 21
221.2885315187875
 31
0.0
  0
LINE
  5
97
330
70
100
AcDbEntity
  8
shade
 62
     6
420
 16711935
370
    25
100
AcDbLine
 10
285.3672755509576
 20
221.460168183454
 30
0.0
 11
285.0581059237472
 21
221.3226352208899
 31
0.0
  0
LINE
  5
98
330
70
100
AcDbEntity
  8
shade
 62
     6
420
 16711935
370
    25
100
AcDbLine
 10
285.7793153615574
 20
221.4257849428156
 30
0.0
 11
285.5389122156243
 21
221.2885315187875
 31
0.0
  0
LINE
  5
99
330
70
100
AcDbEntity
  8
shade
 62
     6
420
 16711935
370
    25
100
AcDbLine
 10
286.0884849887782
 20
221.3226352208899
 30
0.0
 11
285.8821855449372
 21
221.2885315187875
 31
0.0
  0
LINE
  5
9A
330
70
100
AcDbEntity
  8
shade
 62
     6
420
 16711935
370
    25
100
AcDbLine
 10
286.226017951332
 20
221.2538687396131
 30
0.0
 11
286.0884849887782
 21
221.2885315187875
 31
0.0
  0
LINE
  5
9B
330
70
100
AcDbEntity
  8
shade
 62
     6
420
 16711935
370
    25
100
AcDbLine
 10
270.2531856736432
 20
221.2197650375003
 30
0.0
 11
270.4935888195763
 21
221.1853817968618
 31
0.0
  0
LINE
  5
9C
330
70
100
AcDbEntity
  8
shade
 62
     6
420
 16711935
370
    25
100
AcDbLine
 10
270.5623553008533
 20
221.2885315187875
 30
0.0
 11
270.6998882634071
 21
221.3226352208899
 31
0.0
  0
LINE
  5
9D
330
70
100
AcDbEntity
  8
shade
 62
     6
420
 16711935
370
    25
100
AcDbLine
 10
270.7339919655096
 20
221.3914017021669
 30
0.0
 11
271.0090578906275
 21
221.2885315187875
 31
0.0
  0
LINE
  5
9E
330
70
100
AcDbEntity
  8
shade
 62
     6
420
 16711935
370
    25
100
AcDbLine
 10
271.1460317760995
 20
221.4945514240925
 30
0.0
 11
271.4552014033202
 21
221.3226352208899
 31
0.0
  0
LINE
  5
9F
330
70
100
AcDbEntity
  8
shade
 62
     6
420
 16711935
370
    25
100
AcDbLine
 10
271.5927343658843
 20
221.528934664731
 30
0.0
 11
272.0394369556483
 21
221.3570184615284
 31
0.0
  0
LINE
  5
A0
330
70
100
AcDbEntity
  8
shade
 62
     6
420
 16711935
370
    25
100
AcDbLine
 10
272.2457363994893
 20
221.6661880887389
 30
0.0
 11
272.6918799121817
 21
221.3570184615284
 31
0.0
  0
LINE
  5
A1
330
70
100
AcDbEntity
  8
shade
 62
     6
420
 16711935
370
    25
100
AcDbLine
 10
272.8981793560226
 20
221.6661880887389
 30
0.0
 11
273.3448819457972
 21
221.3226352208899
 31
0.0
  0
LINE
  5
A2
330
70
100
AcDbEntity
  8
shade
 62
     6
420
 16711935
370
    25
100
AcDbLine
 10
273.5852850917305
 20
221.7349545700261
 30
0.0
 11
274.0660913836075
 21
221.3226352208899
 31
0.0
  0
LINE
  5
A3
330
70
100
AcDbEntity
  8
shade
 62
     6
420
 16711935
370
    25
100
AcDbLine
 10
274.3752610108279
 20
221.803721051303
 30
0.0
 11
274.8560673026947
 21
221.2538687396131
 31
0.0
  0
LINE
  5
A4
330
70
100
AcDbEntity
  8
shade
 62
     6
420
 16711935
370
    25
100
AcDbLine
 10
275.1305741507307
 20
221.8381042919414
 30
0.0
 11
275.6119395196896
 21
221.1509985562234
 31
0.0
  0
LINE
  5
A5
330
70
100
AcDbEntity
  8
shade
 62
     6
420
 16711935
370
    25
100
AcDbLine
 10
275.9893165510951
 20
221.872207994044
 30
0.0
 11
276.2984861783258
 21
221.1166153155849
 31
0.0
  0
LWPOLYLINE
  5
A6
330
70
100
AcDbEntity
  8
shade
 62
     6
420
 16711935
370
    25
100
AcDbPolyline
 90
        3
 70
     0
 43
0.0
 10
269.2569103107044
 20
219.8799368067232
 10
271.8678002909916
 20
218.0595818226152
 10
261.2190590801752
 20
198.4113767975052
  0
LINE
  5
A7
330
70
100
AcDbEntity
  8
shade
 62
     6
420
 16711935
370
    25
100
AcDbLine
 10
269.6695091983966
 20
219.9830865286488
 30
0.0
 11
272.2110736203152
 21
218.1280687653462
 31
0.0
  0
LINE
  5
A8
330
70
100
AcDbEntity
  8
shade
 62
     6
420
 16711935
370
    25
100
AcDbLine
 10
269.8411458630427
 20
220.0862362505744
 30
0.0
 11
272.5543469496176
 21
218.1624520059847
 31
0.0
  0
LINE
  5
A9
330
70
100
AcDbEntity
  8
shade
 62
     6
420
 16711935
370
    25
100
AcDbLine
 10
270.1844191923663
 20
220.1547231933055
 30
0.0
 11
272.8294128747458
 21
218.1968352466334
 31
0.0
  0
LINE
  5
AA
330
70
100
AcDbEntity
  8
shade
 62
     6
420
 16711935
370
    25
100
AcDbLine
 10
270.6652254842327
 20
220.2234896745824
 30
0.0
 11
273.0010495394024
 21
218.2312184872718
 31
0.0
  0
LINE
  5
AB
330
70
100
AcDbEntity
  8
shade
 62
     6
420
 16711935
370
    25
100
AcDbLine
 10
271.2835647386636
 20
220.3266393964977
 30
0.0
 11
273.5506223125564
 21
218.1624520059847
 31
0.0
  0
LINE
  5
AC
330
70
100
AcDbEntity
  8
shade
 62
     6
420
 16711935
370
    25
100
AcDbLine
 10
271.9019039930945
 20
220.3266393964977
 30
0.0
 11
273.8944547189508
 21
218.3343682091873
 31
0.0
  0
LINE
  5
AD
330
70
100
AcDbEntity
  8
shade
 62
     6
420
 16711935
370
    25
100
AcDbLine
 10
272.7606463934586
 20
220.4297891184233
 30
0.0
 11
274.3752610108279
 21
218.4716216332051
 31
0.0
  0
LINE
  5
AE
330
70
100
AcDbEntity
  8
shade
 62
     6
420
 16711935
370
    25
100
AcDbLine
 10
273.4818558312795
 20
220.4638928205156
 30
0.0
 11
275.0623667465357
 21
218.3687514498257
 31
0.0
  0
LINE
  5
AF
330
70
100
AcDbEntity
  8
shade
 62
     6
420
 16711935
370
    25
100
AcDbLine
 10
274.4440274921048
 20
220.4982760611541
 30
0.0
 11
275.4744065571256
 21
218.3687514498257
 31
0.0
  0
LINE
  5
B0
330
70
100
AcDbEntity
  8
shade
 62
     6
420
 16711935
370
    25
100
AcDbLine
 10
275.3027698924693
 20
220.5326593018028
 30
0.0
 11
276.0927458115667
 21
218.2656017279103
 31
0.0
  0
LINE
  5
B1
330
70
100
AcDbEntity
  8
shade
 62
     6
420
 16711935
370
    25
100
AcDbLine
 10
276.0580830323823
 20
220.567042542431
 30
0.0
 11
276.7798515472745
 21
218.3343682091873
 31
0.0
  0
LINE
  5
B2
330
70
100
AcDbEntity
  8
shade
 62
     6
420
 16711935
370
    25
100
AcDbLine
 10
277.0202546932077
 20
220.6358090237181
 30
0.0
 11
277.5351646871774
 21
218.3687514498257
 31
0.0
  0
LINE
  5
B3
330
70
100
AcDbEntity
  8
shade
 62
     6
420
 16711935
370
    25
100
AcDbLine
 10
277.9131007956747
 20
220.6701922643566
 30
0.0
 11
278.3251406062748
 21
218.3687514498257
 31
0.0
  0
LINE
  5
B4
330
70
100
AcDbEntity
  8
shade
 62
     6
420
 16711935
370
    25
100
AcDbLine
 10
278.9781426398798
 20
220.7042959664594
 30
0.0
 11
279.0810128232595
 21
218.3687514498257
 31
0.0
  0
LINE
  5
B5
330
70
100
AcDbEntity
  8
shade
 62
     6
420
 16711935
370
    25
100
AcDbLine
 10
280.0085217049108
 20
220.7386792070975
 30
0.0
 11
280.0085217049108
 21
218.3687514498257
 31
0.0
  0
LINE
  5
B6
330
70
100
AcDbEntity
  8
shade
 62
     6
420
 16711935
370
    25
100
AcDbLine
 10
281.2105374345982
 20
220.7386792070975
 30
0.0
 11
280.7297311427211
 21
218.3343682091873
 31
0.0
  0
LINE
  5
B7
330
70
100
AcDbEntity
  8
shade
 62
     6
420
 16711935
370
    25
100
AcDbLine
 10
282.3443457600802
 20
220.7042959664594
 30
0.0
 11
281.1076672512188
 21
218.2999849685487
 31
0.0
  0
LINE
  5
B8
330
70
100
AcDbEntity
  8
shade
 62
     6
420
 16711935
370
    25
100
AcDbLine
 10
283.3059583438343
 20
220.6701922643566
 30
0.0
 11
281.828876689029
 21
218.2656017279103
 31
0.0
  0
LINE
  5
B9
330
70
100
AcDbEntity
  8
shade
 62
     6
420
 16711935
370
    25
100
AcDbLine
 10
284.336337408855
 20
220.6701922643566
 30
0.0
 11
282.6535153873009
 21
218.1968352466334
 31
0.0
  0
LINE
  5
BA
330
70
100
AcDbEntity
  8
shade
 62
     6
420
 16711935
370
    25
100
AcDbLine
 10
285.2985090696807
 20
220.4638928205156
 30
0.0
 11
283.2371918625574
 21
218.1280687653462
 31
0.0
  0
LINE
  5
BB
330
70
100
AcDbEntity
  8
shade
 62
     6
420
 16711935
370
    25
100
AcDbLine
 10
285.9168483241113
 20
220.3610226371464
 30
0.0
 11
283.7179981544242
 21
218.0939650632537
 31
0.0
  0
LINE
  5
BC
330
70
100
AcDbEntity
  8
shade
 62
     6
420
 16711935
370
    25
100
AcDbLine
 10
286.4317583180809
 20
220.3266393964977
 30
0.0
 11
284.1647007441987
 21
218.0251985819768
 31
0.0
  0
LINE
  5
BD
330
70
100
AcDbEntity
  8
shade
 62
     6
420
 16711935
370
    25
100
AcDbLine
 10
286.8096944265884
 20
220.2578729152208
 30
0.0
 11
284.542636852696
 21
218.0595818226152
 31
0.0
  0
LINE
  5
BE
330
70
100
AcDbEntity
  8
shade
 62
     6
420
 16711935
370
    25
100
AcDbLine
 10
287.050097572522
 20
220.1891064339439
 30
0.0
 11
284.7830399986293
 21
217.990815341328
 31
0.0
  0
LINE
  5
BF
330
70
100
AcDbEntity
  8
shade
 62
     6
420
 16711935
370
    25
100
AcDbLine
 10
287.3592671997424
 20
220.0518530099257
 30
0.0
 11
285.0922096258397
 21
217.9564321006999
 31
0.0
  0
LWPOLYLINE
  5
C0
330
70
100
AcDbEntity
  8
shade
 62
     6
420
 16711935
370
    25
100
AcDbPolyline
 90
       14
 70
     0
 43
0.0
 10
277.3294243204285
 20
218.7464080197771
 10
275.8176798864385
 20
195.0107904366664
 10
275.1652369299154
 20
194.4612176635227
 10
273.4818558312795
 20
194.8735370126485
 10
273.1044787998637
 20
194.3924511822355
 10
271.3869939991251
 20
194.83915377201
 10
271.3523312199405
 20
194.426834422874
 10
269.4973134566482
 20
194.907920253287
 10
269.5319762358325
 20
194.5299841447996
 10
267.7798286558991
 20
195.0795569179433
 10
267.9861280997504
 20
194.701620809446
 10
266.3027470011041
 20
195.2170898805074
 10
266.577812926222
 20
194.9764071960279
 10
264.7915616442063
 20
195.4574930264406
  0
LINE
  5
C1
330
70
100
AcDbEntity
  8
shade
 62
     6
420
 16711935
370
    25
100
AcDbLine
 10
273.4818558312795
 20
194.8735370126485
 30
0.0
 11
276.6423185847104
 21
218.7807912604156
 31
0.0
  0
LINE
  5
C2
330
70
100
AcDbEntity
  8
shade
 62
     6
420
 16711935
370
    25
100
AcDbLine
 10
271.3869939991251
 20
194.83915377201
 30
0.0
 11
275.9893165510951
 21
218.540388114482
 31
0.0
  0
LINE
  5
C3
330
70
100
AcDbEntity
  8
shade
 62
     6
420
 16711935
370
    25
100
AcDbLine
 10
269.4973134566482
 20
194.907920253287
 30
0.0
 11
275.4056400758487
 21
218.540388114482
 31
0.0
  0
LINE
  5
C4
330
70
100
AcDbEntity
  8
shade
 62
     6
420
 16711935
370
    25
100
AcDbLine
 10
267.7798286558991
 20
195.0795569179433
 30
0.0
 11
274.8560673026947
 21
218.6435378364076
 31
0.0
  0
LINE
  5
C5
330
70
100
AcDbEntity
  8
shade
 62
     6
420
 16711935
370
    25
100
AcDbLine
 10
266.2345395969193
 20
195.2855768232384
 30
0.0
 11
274.2718317503666
 21
218.5747713551204
 31
0.0
  0
LINE
  5
C6
330
70
100
AcDbEntity
  8
shade
 62
     6
420
 16711935
370
    25
100
AcDbLine
 10
264.7915616442063
 20
195.4574930264406
 30
0.0
 11
273.756921756397
 21
218.4716216332051
 31
0.0
  0
LINE
  5
C7
330
70
100
AcDbEntity
  8
shade
 62
     6
420
 16711935
370
    25
100
AcDbLine
 10
263.5895459145189
 20
195.8695328370407
 30
0.0
 11
273.2414526853356
 21
218.4372383925666
 31
0.0
  0
LINE
  5
C8
330
70
100
AcDbEntity
  8
shade
 62
     6
420
 16711935
370
    25
100
AcDbLine
 10
262.6273742536933
 20
196.2474689455281
 30
0.0
 11
272.8294128747458
 21
218.3687514498257
 31
0.0
  0
LINE
  5
C9
330
70
100
AcDbEntity
  8
shade
 62
     6
420
 16711935
370
    25
100
AcDbLine
 10
261.9061648158933
 20
196.6595087561283
 30
0.0
 11
272.4514767662484
 21
218.2312184872718
 31
0.0
  0
LINE
  5
CA
330
70
100
AcDbEntity
  8
shade
 62
     6
420
 16711935
370
    25
100
AcDbLine
 10
261.4253585240059
 20
197.1062113459025
 30
0.0
 11
272.1769699182124
 21
218.1624520059847
 31
0.0
  0
LINE
  5
CB
330
70
100
AcDbEntity
  8
shade
 62
     6
420
 16711935
370
    25
100
AcDbLine
 10
261.2190590801752
 20
197.5870176377693
 30
0.0
 11
272.0047741764742
 21
218.0939650632537
 31
0.0
  0
LINE
  5
CC
330
70
100
AcDbEntity
  8
shade
 62
     6
420
 16711935
370
    25
100
AcDbLine
 10
261.1849553780727
 20
197.9993369869153
 30
0.0
 11
271.9365667722788
 21
218.0939650632537
 31
0.0
  0
LINE
  5
CD
330
70
100
AcDbEntity
  8
shade
 62
     6
420
 16711935
370
    25
100
AcDbLine
 10
261.2190590801752
 20
198.4113767975052
 30
0.0
 11
261.356592042729
 21
198.3428898547643
 31
0.0
  0
LINE
  5
CE
330
70
100
AcDbEntity
  8
shade
 62
     6
420
 16711935
370
    25
100
AcDbLine
 10
261.1849553780727
 20
197.9993369869153
 30
0.0
 11
261.3906957448318
 21
197.9649537462769
 31
0.0
  0
LINE
  5
CF
330
70
100
AcDbEntity
  8
shade
 62
     6
420
 16711935
370
    25
100
AcDbLine
 10
261.2190590801752
 20
197.5870176377693
 30
0.0
 11
261.6316579678469
 21
197.4841474543998
 31
0.0
  0
LINE
  5
D0
330
70
100
AcDbEntity
  8
shade
 62
     6
420
 16711935
370
    25
100
AcDbLine
 10
261.4253585240059
 20
197.1062113459025
 30
0.0
 11
262.0436977784471
 21
196.9345746812462
 31
0.0
  0
LINE
  5
D1
330
70
100
AcDbEntity
  8
shade
 62
     6
420
 16711935
370
    25
100
AcDbLine
 10
261.9061648158933
 20
196.6595087561283
 30
0.0
 11
262.6961407349702
 21
196.4191056101845
 31
0.0
  0
LINE
  5
D2
330
70
100
AcDbEntity
  8
shade
 62
     6
420
 16711935
370
    25
100
AcDbLine
 10
262.6273742536933
 20
196.2474689455281
 30
0.0
 11
263.6236496166218
 21
195.9382993183177
 31
0.0
  0
LINE
  5
D3
330
70
100
AcDbEntity
  8
shade
 62
     6
420
 16711935
370
    25
100
AcDbLine
 10
263.5895459145189
 20
195.8695328370407
 30
0.0
 11
264.8256653463092
 21
195.5603632098203
 31
0.0
  0
LWPOLYLINE
  5
D4
330
70
100
AcDbEntity
  8
shade
 62
     6
420
 16711935
370
    25
100
AcDbPolyline
 90
       13
 70
     0
 43
0.0
 10
275.8176798864385
 20
195.0107904366664
 10
277.3981908017054
 20
194.5987506260765
 10
278.2910369041723
 20
195.2511935825996
 10
279.7334557798031
 20
194.8047705313716
 10
280.9360305865621
 20
195.4574930264406
 10
282.2068127975263
 20
195.1483233992305
 10
283.4775950084806
 20
195.8351495964023
 10
284.6114033339729
 20
195.5603632098203
 10
286.0538222095938
 20
196.316235426805
 10
286.9125646099579
 20
196.0070657995946
 10
288.3896462647632
 20
196.7970417186821
 10
289.007985519194
 20
196.5566385727485
 10
290.7254703199326
 20
197.415380973113
  0
LINE
  5
D5
330
70
100
AcDbEntity
  8
shade
 62
     6
420
 16711935
370
    25
100
AcDbLine
 10
278.2910369041723
 20
195.2511935825996
 30
0.0
 11
277.9131007956747
 21
218.7807912604156
 31
0.0
  0
LINE
  5
D6
330
70
100
AcDbEntity
  8
shade
 62
     6
420
 16711935
370
    25
100
AcDbLine
 10
280.9360305865621
 20
195.4574930264406
 30
0.0
 11
278.6343102334849
 21
218.7123043176846
 31
0.0
  0
LINE
  5
D7
330
70
100
AcDbEntity
  8
shade
 62
     6
420
 16711935
370
    25
100
AcDbLine
 10
283.4775950084806
 20
195.8351495964023
 30
0.0
 11
279.4242861525725
 21
218.6776415385002
 31
0.0
  0
LINE
  5
D8
330
70
100
AcDbEntity
  8
shade
 62
     6
420
 16711935
370
    25
100
AcDbLine
 10
286.0538222095938
 20
196.316235426805
 30
0.0
 11
280.2830285529469
 21
218.5747713551204
 31
0.0
  0
LINE
  5
D9
330
70
100
AcDbEntity
  8
shade
 62
     6
420
 16711935
370
    25
100
AcDbLine
 10
288.3896462647632
 20
196.7970417186821
 30
0.0
 11
281.1764337324957
 21
218.5060048738435
 31
0.0
  0
LINE
  5
DA
330
70
100
AcDbEntity
  8
shade
 62
     6
420
 16711935
370
    25
100
AcDbLine
 10
290.8630032824967
 20
197.1062113459025
 30
0.0
 11
282.0692798349626
 21
218.4716216332051
 31
0.0
  0
LINE
  5
DB
330
70
100
AcDbEntity
  8
shade
 62
     6
420
 16711935
370
    25
100
AcDbLine
 10
292.6833582666046
 20
197.7245506003334
 30
0.0
 11
282.791048349865
 21
218.4031346904641
 31
0.0
  0
LINE
  5
DC
330
70
100
AcDbEntity
  8
shade
 62
     6
420
 16711935
370
    25
100
AcDbLine
 10
294.1951027005842
 20
198.548909760059
 30
0.0
 11
283.512257787665
 21
218.4716216332051
 31
0.0
  0
LINE
  5
DD
330
70
100
AcDbEntity
  8
shade
 62
     6
420
 16711935
370
    25
100
AcDbLine
 10
295.4658849115485
 20
199.0984825332027
 30
0.0
 11
284.2681300046599
 21
218.1280687653462
 31
0.0
  0
LINE
  5
DE
330
70
100
AcDbEntity
  8
shade
 62
     6
420
 16711935
370
    25
100
AcDbLine
 10
296.3933937931998
 20
199.6824385470054
 30
0.0
 11
284.6114033339729
 21
218.1280687653462
 31
0.0
  0
LINE
  5
DF
330
70
100
AcDbEntity
  8
shade
 62
     6
420
 16711935
370
    25
100
AcDbLine
 10
297.1146032310207
 20
200.197628079521
 30
0.0
 11
284.9205729611933
 21
218.1280687653462
 31
0.0
  0
LINE
  5
E0
330
70
100
AcDbEntity
  8
shade
 62
     6
420
 16711935
370
    25
100
AcDbLine
 10
297.5613058207846
 20
200.7472008526749
 30
0.0
 11
285.1609761071269
 21
218.0251985819768
 31
0.0
  0
LINE
  5
E1
330
70
100
AcDbEntity
  8
shade
 62
     6
420
 16711935
370
    25
100
AcDbLine
 10
297.732942485441
 20
201.1939034424389
 30
0.0
 11
285.2638462905063
 21
218.0939650632537
 31
0.0
  0
LINE
  5
E2
330
70
100
AcDbEntity
  8
shade
 62
     6
420
 16711935
370
    25
100
AcDbLine
 10
297.7670461875438
 20
201.6747097343262
 30
0.0
 11
285.3326127717832
 21
218.1624520059847
 31
0.0
  0
LINE
  5
E3
330
70
100
AcDbEntity
  8
shade
 62
     6
420
 16711935
370
    25
100
AcDbLine
 10
297.5954095228875
 20
202.0870290834517
 30
0.0
 11
285.4013792530704
 21
218.2312184872718
 31
0.0
  0
LINE
  5
E4
330
70
100
AcDbEntity
  8
shade
 62
     6
420
 16711935
370
    25
100
AcDbLine
 10
290.8630032824967
 20
197.1062113459025
 30
0.0
 11
292.5804880832252
 21
197.9993369869153
 31
0.0
  0
LWPOLYLINE
  5
E5
330
70
100
AcDbEntity
  8
shade
 62
     6
420
 16711935
370
    25
100
AcDbPolyline
 90
        5
 70
     0
 43
0.0
 10
292.6833582666046
 20
197.7245506003334
 10
294.1951027005842
 20
198.548909760059
 10
294.0229069588461
 20
198.2053568922104
 10
295.4658849115485
 20
199.098482533213
 10
296.3933937931998
 20
199.6824385470054
  0
LINE
  5
E6
330
70
100
AcDbEntity
  8
shade
 62
     6
420
 16711935
370
    25
100
AcDbLine
 10
297.1146032310207
 20
200.197628079521
 30
0.0
 11
296.3933937931998
 21
199.7168217876439
 31
0.0
  0
LINE
  5
E7
330
70
100
AcDbEntity
  8
shade
 62
     6
420
 16711935
370
    25
100
AcDbLine
 10
297.5613058207846
 20
200.7472008526749
 30
0.0
 11
297.0458367497335
 21
200.3007778014363
 31
0.0
  0
LINE
  5
E8
330
70
100
AcDbEntity
  8
shade
 62
     6
420
 16711935
370
    25
100
AcDbLine
 10
297.732942485441
 20
201.1939034424389
 30
0.0
 11
297.4237728582309
 21
200.9191170558672
 31
0.0
  0
LINE
  5
E9
330
70
100
AcDbEntity
  8
shade
 62
     6
420
 16711935
370
    25
100
AcDbLine
 10
297.7670461875438
 20
201.6747097343262
 30
0.0
 11
297.5613058207846
 21
201.434306588393
 31
0.0
  0
LINE
  5
EA
330
70
100
AcDbEntity
  8
shade
 62
     6
420
 16711935
370
    25
100
AcDbLine
 10
297.5954095228875
 20
202.0870290834517
 30
0.0
 11
297.5266430416003
 21
201.9494961208979
 31
0.0
  0
SPLINE
  5
EB
330
70
100
AcDbEntity
  8
shade
 62
     6
420
 16711935
370
    25
100
AcDbSpline
210
0.0
220
0.0
230
1.0
 70
     8
 71
     3
 72
    50
 73
    46
 74
     0
 42
0.0000000001
 43
0.0000000001
 40
0.0
 40
0.0
 40
0.0
 40
0.0
 40
1.0
 40
1.0
 40
1.0
 40
2.0
 40
2.0
 40
2.0
 40
3.0
 40
3.0
 40
3.0
 40
4.0
 40
4.0
 40
4.0
 40
5.0
 40
5.0
 40
5.0
 40
6.0
 40
6.0
 40
6.0
 40
7.0
 40
7.0
 40
7.0
 40
8.0
 40
8.0
 40
8.0
 40
9.0
 40
9.0
 40
9.0
 40
10.0
 40
10.0
 40
10.0
 40
11.0
 40
11.0
 40
11.0
 40
12.0
 40
12.0
 40
12.0
 40
13.0
 40
13.0
 40
13.0
 40
14.0
 40
14.0
 40
14.0
 40
15.0
 40
15.0
 40
15.0
 40
15.0
 10
278.6002065313927
 20
195.1483233992305
 30
0.0
 10
278.4151520167319
 20
193.042559563945
 30
0.0
 10
278.486713883428
 20
191.8872267707472
 30
0.0
 10
278.8747133794185
 20
189.8239527938118
 30
0.0
 10
279.1570473066306
 20
188.992325631992
 30
0.0
 10
279.3230932004486
 20
188.2353352608337
 30
0.0
 10
280.3864578134081
 20
188.5531705828479
 30
0.0
 10
280.3864578134081
 20
188.5531705828479
 30
0.0
 10
280.5580944780648
 20
188.6216575255786
 30
0.0
 10
280.5580944780648
 20
188.6216575255786
 30
0.0
 10
280.5580944780648
 20
188.6216575255786
 30
0.0
 10
280.6956274406289
 20
188.7248072475039
 30
0.0
 10
280.6956274406289
 20
188.7248072475039
 30
0.0
 10
280.6956274406289
 20
188.7248072475039
 30
0.0
 10
280.8331604031827
 20
188.862340210068
 30
0.0
 10
280.8331604031827
 20
188.862340210068
 30
0.0
 10
280.8331604031827
 20
188.862340210068
 30
0.0
 10
281.004797067839
 20
189.1715098372785
 30
0.0
 10
281.004797067839
 20
189.1715098372785
 30
0.0
 10
281.004797067839
 20
189.1715098372785
 30
0.0
 10
281.1417709533212
 20
189.4803999259632
 30
0.0
 10
281.1417709533212
 20
189.4803999259632
 30
0.0
 10
281.1417709533212
 20
189.4803999259632
 30
0.0
 10
281.2452002137725
 20
189.8239527938118
 30
0.0
 10
281.2452002137725
 20
189.8239527938118
 30
0.0
 10
281.2452002137725
 20
189.8239527938118
 30
0.0
 10
281.4168368784288
 20
190.5110585295196
 30
0.0
 10
281.4168368784288
 20
190.5110585295196
 30
0.0
 10
281.4168368784288
 20
190.5110585295196
 30
0.0
 10
281.6231363222699
 20
191.9193737030479
 30
0.0
 10
281.6231363222699
 20
191.9193737030479
 30
0.0
 10
281.6231363222699
 20
191.9193737030479
 30
0.0
 10
281.5197070618086
 20
192.3316930521841
 30
0.0
 10
281.5197070618086
 20
192.3316930521841
 30
0.0
 10
281.5197070618086
 20
192.3316930521841
 30
0.0
 10
281.4509405805317
 20
192.7437328627739
 30
0.0
 10
281.4509405805317
 20
192.7437328627739
 30
0.0
 10
281.4509405805317
 20
192.7437328627739
 30
0.0
 10
281.4509405805317
 20
193.1904354525584
 30
0.0
 10
281.4509405805317
 20
193.1904354525584
 30
0.0
 10
281.4509405805317
 20
193.1904354525584
 30
0.0
 10
281.485603359716
 20
193.602475263138
 30
0.0
 10
281.485603359716
 20
193.602475263138
 30
0.0
 10
281.5957415451797
 20
194.3742811770207
 30
0.0
 10
281.3654017867393
 20
194.6222318635841
 30
0.0
 10
281.7601102077521
 20
195.2511935825996
 30
0.0
  0
SPLINE
  5
EC
330
70
100
AcDbEntity
  8
shade
 62
     6
420
 16711935
370
    25
100
AcDbSpline
210
0.0
220
0.0
230
1.0
 70
     9
 71
     3
 72
    53
 73
    49
 74
     0
 42
0.0000000001
 43
0.0000000001
 40
0.0
 40
0.0
 40
0.0
 40
0.0
 40
1.0
 40
1.0
 40
1.0
 40
2.0
 40
2.0
 40
2.0
 40
3.0
 40
3.0
 40
3.0
 40
4.0
 40
4.0
 40
4.0
 40
5.0
 40
5.0
 40
5.0
 40
6.0
 40
6.0
 40
6.0
 40
7.0
 40
7.0
 40
7.0
 40
8.0
 40
8.0
 40
8.0
 40
9.0
 40
9.0
 40
9.0
 40
10.0
 40
10.0
 40
10.0
 40
11.0
 40
11.0
 40
11.0
 40
12.0
 40
12.0
 40
12.0
 40
13.0
 40
13.0
 40
13.0
 40
14.0
 40
14.0
 40
14.0
 40
15.0
 40
15.0
 40
15.0
 40
16.0
 40
16.0
 40
16.0
 40
16.0
 10
279.6652483755979
 20
193.3620721172045
 30
0.0
 10
279.6652483755979
 20
193.3620721172045
 30
0.0
 10
279.6652483755979
 20
193.2589223952894
 30
0.0
 10
279.6652483755979
 20
193.2589223952894
 30
0.0
 10
279.6652483755979
 20
193.2589223952894
 30
0.0
 10
279.7334557798031
 20
193.1216689712712
 30
0.0
 10
279.7334557798031
 20
193.1216689712712
 30
0.0
 10
279.7334557798031
 20
193.1216689712712
 30
0.0
 10
279.8022222610801
 20
193.0872857306328
 30
0.0
 10
279.8022222610801
 20
193.0872857306328
 30
0.0
 10
279.8022222610801
 20
193.0872857306328
 30
0.0
 10
279.870988742357
 20
193.0529024899943
 30
0.0
 10
279.870988742357
 20
193.0529024899943
 30
0.0
 10
279.870988742357
 20
193.0529024899943
 30
0.0
 10
279.9397552236339
 20
193.0185192493456
 30
0.0
 10
279.9397552236339
 20
193.0185192493456
 30
0.0
 10
279.9397552236339
 20
193.0185192493456
 30
0.0
 10
280.0085217049108
 20
192.9841360087174
 30
0.0
 10
280.0085217049108
 20
192.9841360087174
 30
0.0
 10
280.0085217049108
 20
192.9841360087174
 30
0.0
 10
280.1113918882905
 20
192.9841360087174
 30
0.0
 10
280.1113918882905
 20
192.9841360087174
 30
0.0
 10
280.2718470112698
 20
192.9779861607972
 30
0.0
 10
280.5502673988887
 20
193.1622020598299
 30
0.0
 10
280.5239907759619
 20
193.3620721172045
 30
0.0
 10
280.5239907759619
 20
193.3620721172045
 30
0.0
 10
280.5239907759619
 20
193.4996050797686
 30
0.0
 10
280.5239907759619
 20
193.4996050797686
 30
0.0
 10
280.5239907759619
 20
193.4996050797686
 30
0.0
 10
280.4893279967878
 20
193.5680920225098
 30
0.0
 10
280.4893279967878
 20
193.5680920225098
 30
0.0
 10
280.4893279967878
 20
193.5680920225098
 30
0.0
 10
280.4205615155007
 20
193.6368585037867
 30
0.0
 10
280.4205615155007
 20
193.6368585037867
 30
0.0
 10
280.4205615155007
 20
193.6368585037867
 30
0.0
 10
280.3517950342238
 20
193.6712417444252
 30
0.0
 10
280.3517950342238
 20
193.6712417444252
 30
0.0
 10
280.3517950342238
 20
193.6712417444252
 30
0.0
 10
280.2830285529469
 20
193.7400082257021
 30
0.0
 10
280.2830285529469
 20
193.7400082257021
 30
0.0
 10
280.2830285529469
 20
193.7400082257021
 30
0.0
 10
280.2148211487518
 20
193.7400082257021
 30
0.0
 10
280.2148211487518
 20
193.7400082257021
 30
0.0
 10
280.2148211487518
 20
193.7400082257021
 30
0.0
 10
280.1460546674748
 20
193.7741119278049
 30
0.0
 10
280.1460546674748
 20
193.7741119278049
 30
0.0
 10
279.9213056798729
 20
193.7741119278049
 30
0.0
 10
279.6590985276776
 20
193.6111409579418
 30
0.0
 10
279.6652483755979
 20
193.3620721172045
 30
0.0
  0
SPLINE
  5
ED
330
70
100
AcDbEntity
  8
shade
 62
     6
420
 16711935
370
    25
100
AcDbSpline
210
0.0
220
0.0
230
1.0
 70
     8
 71
     3
 72
    29
 73
    25
 74
     0
 42
0.0000000001
 43
0.0000000001
 40
0.0
 40
0.0
 40
0.0
 40
0.0
 40
1.0
 40
1.0
 40
1.0
 40
2.0
 40
2.0
 40
2.0
 40
3.0
 40
3.0
 40
3.0
 40
4.0
 40
4.0
 40
4.0
 40
5.0
 40
5.0
 40
5.0
 40
6.0
 40
6.0
 40
6.0
 40
7.0
 40
7.0
 40
7.0
 40
8.0
 40
8.0
 40
8.0
 40
8.0
 10
281.5543698409929
 20
194.7703872907331
 30
0.0
 10
282.6384203060409
 20
194.4617767405943
 30
0.0
 10
283.4613817730673
 20
194.5109755239571
 30
0.0
 10
284.542636852696
 20
194.8735370126485
 30
0.0
 10
284.542636852696
 20
194.8735370126485
 30
0.0
 10
284.8177027778139
 20
194.9764071960279
 30
0.0
 10
284.8177027778139
 20
194.9764071960279
 30
0.0
 10
284.8177027778139
 20
194.9764071960279
 30
0.0
 10
285.0581059237472
 20
195.1483233992305
 30
0.0
 10
285.0581059237472
 20
195.1483233992305
 30
0.0
 10
285.0581059237472
 20
195.1483233992305
 30
0.0
 10
285.2638462905063
 20
195.3543433045256
 30
0.0
 10
285.2638462905063
 20
195.3543433045256
 30
0.0
 10
285.2638462905063
 20
195.3543433045256
 30
0.0
 10
285.5042494364399
 20
195.5603632098203
 30
0.0
 10
285.5042494364399
 20
195.5603632098203
 30
0.0
 10
285.5042494364399
 20
195.5603632098203
 30
0.0
 10
285.7793153615574
 20
195.7322794130126
 30
0.0
 10
285.7793153615574
 20
195.7322794130126
 30
0.0
 10
285.7793153615574
 20
195.7322794130126
 30
0.0
 10
285.9168483241113
 20
195.8007663557638
 30
0.0
 10
285.9168483241113
 20
195.8007663557638
 30
0.0
 10
285.9168483241113
 20
195.8007663557638
 30
0.0
 10
285.9856148053882
 20
195.9382993183177
 30
0.0
 10
285.9856148053882
 20
195.9382993183177
 30
0.0
  0
SPLINE
  5
EE
330
70
100
AcDbEntity
  8
shade
 62
     6
420
 16711935
370
    25
100
AcDbSpline
210
0.0
220
0.0
230
1.0
 70
     8
 71
     3
 72
    29
 73
    25
 74
     0
 42
0.0000000001
 43
0.0000000001
 40
0.0
 40
0.0
 40
0.0
 40
0.0
 40
1.0
 40
1.0
 40
1.0
 40
2.0
 40
2.0
 40
2.0
 40
3.0
 40
3.0
 40
3.0
 40
4.0
 40
4.0
 40
4.0
 40
5.0
 40
5.0
 40
5.0
 40
6.0
 40
6.0
 40
6.0
 40
7.0
 40
7.0
 40
7.0
 40
8.0
 40
8.0
 40
8.0
 40
8.0
 10
281.485603359716
 20
194.426834422874
 30
0.0
 10
282.6445701539611
 20
194.0673478581377
 30
0.0
 10
283.7470701627701
 20
194.1263304904573
 30
0.0
 10
284.885910182009
 20
194.564367385438
 30
0.0
 10
284.885910182009
 20
194.564367385438
 30
0.0
 10
285.1609761071269
 20
194.7360040500947
 30
0.0
 10
285.1609761071269
 20
194.7360040500947
 30
0.0
 10
285.1609761071269
 20
194.7360040500947
 30
0.0
 10
285.4013792530704
 20
194.9420239553895
 30
0.0
 10
285.4013792530704
 20
194.9420239553895
 30
0.0
 10
285.4013792530704
 20
194.9420239553895
 30
0.0
 10
285.6417823989937
 20
195.1827066398689
 30
0.0
 10
285.6417823989937
 20
195.1827066398689
 30
0.0
 10
285.6417823989937
 20
195.1827066398689
 30
0.0
 10
285.9856148053882
 20
195.4231097858025
 30
0.0
 10
285.9856148053882
 20
195.4231097858025
 30
0.0
 10
285.9856148053882
 20
195.4231097858025
 30
0.0
 10
286.0538222095938
 20
195.5262595077175
 30
0.0
 10
286.0538222095938
 20
195.5262595077175
 30
0.0
 10
286.0538222095938
 20
195.5262595077175
 30
0.0
 10
286.1225886908708
 20
195.6291296910973
 30
0.0
 10
286.1225886908708
 20
195.6291296910973
 30
0.0
 10
286.1225886908708
 20
195.6291296910973
 30
0.0
 10
286.1913551721477
 20
195.9039160776792
 30
0.0
 10
286.1913551721477
 20
195.9039160776792
 30
0.0
  0
SPLINE
  5
EF
330
70
100
AcDbEntity
  8
shade
 62
     6
420
 16711935
370
    25
100
AcDbSpline
210
0.0
220
0.0
230
1.0
 70
     8
 71
     3
 72
    26
 73
    22
 74
     0
 42
0.0000000001
 43
0.0000000001
 40
0.0
 40
0.0
 40
0.0
 40
0.0
 40
1.0
 40
1.0
 40
1.0
 40
2.0
 40
2.0
 40
2.0
 40
3.0
 40
3.0
 40
3.0
 40
4.0
 40
4.0
 40
4.0
 40
5.0
 40
5.0
 40
5.0
 40
6.0
 40
6.0
 40
6.0
 40
7.0
 40
7.0
 40
7.0
 40
7.0
 10
285.9509520262141
 20
195.4231097858025
 30
0.0
 10
286.2511764200951
 20
195.3719542326585
 30
0.0
 10
286.4188995451689
 20
195.5570087473193
 30
0.0
 10
286.2942253555271
 20
195.8351495964023
 30
0.0
 10
286.2942253555271
 20
195.8351495964023
 30
0.0
 10
286.226017951332
 20
195.9039160776792
 30
0.0
 10
286.226017951332
 20
195.9039160776792
 30
0.0
 10
286.226017951332
 20
195.9039160776792
 30
0.0
 10
286.1572514700551
 20
195.9382993183177
 30
0.0
 10
286.1572514700551
 20
195.9382993183177
 30
0.0
 10
286.1572514700551
 20
195.9382993183177
 30
0.0
 10
285.9509520262141
 20
195.9382993183177
 30
0.0
 10
285.9509520262141
 20
195.9382993183177
 30
0.0
 10
285.9509520262141
 20
195.9382993183177
 30
0.0
 10
285.8821855449372
 20
195.9039160776792
 30
0.0
 10
285.8821855449372
 20
195.9039160776792
 30
0.0
 10
285.8821855449372
 20
195.9039160776792
 30
0.0
 10
285.7446525823731
 20
195.7666626536614
 30
0.0
 10
285.7446525823731
 20
195.7666626536614
 30
0.0
 10
285.7446525823731
 20
195.7666626536614
 30
0.0
 10
285.7446525823731
 20
195.6978961723742
 30
0.0
 10
285.7446525823731
 20
195.6978961723742
 30
0.0
  0
LINE
  5
F0
330
70
100
AcDbEntity
  8
shade
 62
     6
420
 16711935
370
    25
100
AcDbLine
 10
297.0804995289076
 20
200.2663945607979
 30
0.0
 11
302.0266544872929
 21
201.8463463989723
 31
0.0
  0
LINE
  5
F1
330
70
100
AcDbEntity
  8
shade
 62
     6
420
 16711935
370
    25
100
AcDbLine
 10
282.5506452039211
 20
193.9460281309969
 30
0.0
 11
283.3747248251112
 21
194.2208145175689
 31
0.0
  0
LINE
  5
F2
330
70
100
AcDbEntity
  8
shade
 62
     6
420
 16711935
370
    25
100
AcDbLine
 10
285.2985090696807
 20
194.83915377201
 30
0.0
 11
301.6833811579697
 21
200.2663945607979
 31
0.0
  0
LINE
  5
F3
330
70
100
AcDbEntity
  8
shade
 62
     6
420
 16711935
370
    25
100
AcDbLine
 10
281.4509405805317
 20
192.7437328627739
 30
0.0
 11
302.0607581893855
 21
189.7210826104424
 31
0.0
  0
LINE
  5
F4
330
70
100
AcDbEntity
  8
shade
 62
     6
420
 16711935
370
    25
100
AcDbLine
 10
281.485603359716
 20
194.0832815550151
 30
0.0
 11
302.4386942978828
 21
191.1637810245992
 31
0.0
  0
LINE
  5
F5
330
70
100
AcDbEntity
  8
shade
 62
     6
420
 16711935
370
    25
100
AcDbLine
 10
302.9882670710265
 20
201.3655401071058
 30
0.0
 11
305.5991570513241
 21
188.5187873422091
 31
0.0
  0
LINE
  5
F6
330
70
100
AcDbEntity
  8
shade
 62
     6
420
 16711935
370
    25
100
AcDbLine
 10
301.1338083848158
 20
191.3354176892559
 30
0.0
 11
302.5074607791598
 21
196.4534888508332
 31
0.0
  0
LINE
  5
F7
330
70
100
AcDbEntity
  8
shade
 62
     6
420
 16711935
370
    25
100
AcDbLine
 10
303.3662031795341
 20
199.5449055844516
 30
0.0
 11
304.6369853904983
 21
204.1821704541522
 31
0.0
  0
LINE
  5
F8
330
70
100
AcDbEntity
  8
shade
 62
     6
420
 16711935
370
    25
100
AcDbLine
 10
301.5111854162316
 20
201.0907537205235
 30
0.0
 11
304.2937120611751
 21
188.2096177149986
 31
0.0
  0
LINE
  5
F9
330
70
100
AcDbEntity
  8
shade
 62
     6
420
 16711935
370
    25
100
AcDbLine
 10
304.9461550177089
 20
203.7013641622752
 30
0.0
 11
308.2782544358064
 21
186.3889831923349
 31
0.0
  0
LINE
  5
FA
330
70
100
AcDbEntity
  8
shade
 62
     6
420
 16711935
370
    25
100
AcDbLine
 10
308.071954991976
 20
186.3889831923349
 30
0.0
 11
304.6369853904983
 21
203.7013641622752
 31
0.0
  0
LINE
  5
FB
330
70
100
AcDbEntity
  8
shade
 62
     6
420
 16711935
370
    25
100
AcDbLine
 10
303.8129057692981
 20
188.7935737287911
 30
0.0
 11
304.019205213139
 21
189.5491664072402
 31
0.0
  0
LINE
  5
FC
330
70
100
AcDbEntity
  8
shade
 62
     6
420
 16711935
370
    25
100
AcDbLine
 10
304.8091811322369
 20
192.4689464762019
 30
0.0
 11
306.011196861914
 21
196.865808199959
 31
0.0
  0
LINE
  5
FD
330
70
100
AcDbEntity
  8
shade
 62
     6
420
 16711935
370
    25
100
AcDbLine
 10
307.041575926945
 20
200.7472008526749
 30
0.0
 11
308.6902942463963
 21
206.6899107125139
 31
0.0
  0
LINE
  5
FE
330
70
100
AcDbEntity
  8
shade
 62
     6
420
 16711935
370
    25
100
AcDbLine
 10
309.1369968361811
 20
206.2775913633883
 30
0.0
 11
312.6066292168325
 21
183.8127559912214
 31
0.0
  0
LINE
  5
FF
330
70
100
AcDbEntity
  8
shade
 62
     6
420
 16711935
370
    25
100
AcDbLine
 10
312.2974595896121
 20
184.1906920997292
 30
0.0
 11
308.7937235068579
 21
206.3463578446652
 31
0.0
  0
LWPOLYLINE
  5
100
330
70
100
AcDbEntity
  8
shade
 62
     6
420
 16711935
370
    25
100
AcDbPolyline
 90
        3
 70
     0
 43
0.0
 10
312.3315632917146
 20
211.2925128030404
 10
312.4344334750943
 20
212.7695944578353
 10
314.2206847571097
 20
212.4948080712634
  0
LWPOLYLINE
  5
101
330
70
100
AcDbEntity
  8
shade
 62
     6
420
 16711935
370
    25
100
AcDbPolyline
 90
        4
 70
     0
 43
0.0
 10
314.3582177196738
 20
210.9148562330787
 10
314.4269842009507
 20
212.2887881659686
 10
314.3582177196738
 20
212.4260415899864
 10
314.2206847571097
 20
212.4948080712634
  0
LINE
  5
102
330
70
100
AcDbEntity
  8
shade
 62
     6
420
 16711935
370
    25
100
AcDbLine
 10
314.3582177196738
 20
210.9148562330787
 30
0.0
 11
312.3315632917146
 21
211.2925128030404
 31
0.0
  0
LINE
  5
103
330
70
100
AcDbEntity
  8
shade
 62
     6
420
 16711935
370
    25
100
AcDbLine
 10
314.3241140175713
 20
212.4604248306249
 30
0.0
 11
317.1060815854334
 21
212.7352112171969
 31
0.0
  0
LINE
  5
104
330
70
100
AcDbEntity
  8
shade
 62
     6
420
 16711935
370
    25
100
AcDbLine
 10
312.4344334750943
 20
212.7695944578353
 30
0.0
 11
313.671111983966
 21
212.9415106610276
 31
0.0
  0
LINE
  5
105
330
70
100
AcDbEntity
  8
shade
 62
     6
420
 16711935
370
    25
100
AcDbLine
 10
316.7628082561204
 20
212.9071274203888
 30
0.0
 11
315.5948962285253
 21
213.0787640850558
 31
0.0
  0
LINE
  5
106
330
70
100
AcDbEntity
  8
shade
 62
     6
420
 16711935
370
    25
100
AcDbLine
 10
315.6289999306281
 20
184.4310952456628
 30
0.0
 11
317.2777182500897
 21
212.2544049253198
 31
0.0
  0
LWPOLYLINE
  5
107
330
70
100
AcDbEntity
  8
shade
 62
     6
420
 16711935
370
    25
100
AcDbPolyline
 90
        5
 70
     0
 43
0.0
 10
317.2777182500897
 20
212.2200216846814
 10
317.2436145479974
 20
212.4604248306249
 10
317.1407443646177
 20
212.66644473592
 10
316.9685486228796
 20
212.8039776984738
 10
316.7628082561204
 20
212.9071274203888
  0
SPLINE
  5
108
330
70
100
AcDbEntity
  8
shade
 62
     6
420
 16711935
370
    25
100
AcDbSpline
210
0.0
220
0.0
230
1.0
 70
     8
 71
     3
 72
     8
 73
     4
 74
     0
 42
0.0000000001
 43
0.0000000001
 40
0.0
 40
0.0
 40
0.0
 40
0.0
 40
1.0
 40
1.0
 40
1.0
 40
1.0
 10
315.5948962285253
 20
213.0443808444173
 30
0.0
 10
315.4159915617949
 20
214.2897250480725
 30
0.0
 10
313.7952270965156
 20
214.2729527355674
 30
0.0
 10
313.6370082818635
 20
213.0443808444173
 30
0.0
  0
LWPOLYLINE
  5
109
330
70
100
AcDbEntity
  8
shade
 62
     6
420
 16711935
370
    25
100
AcDbPolyline
 90
        3
 70
     0
 43
0.0
 10
313.8086449465199
 20
212.8383609391119
 10
314.5986208656073
 20
212.7352112171969
 10
315.4232595638792
 20
212.8383609391119
  0
LWPOLYLINE
  5
10A
330
70
100
AcDbEntity
  8
shade
 62
     6
420
 16711935
370
    25
100
AcDbPolyline
 90
        3
 70
     0
 43
0.0
 10
313.6370082818635
 20
213.0443808444173
 10
313.7057747631404
 20
212.9071274203888
 10
313.8086449465199
 20
212.8383609391119
  0
LWPOLYLINE
  5
10B
330
70
100
AcDbEntity
  8
shade
 62
     6
420
 16711935
370
    25
100
AcDbPolyline
 90
        3
 70
     0
 43
0.0
 10
315.4232595638792
 20
212.8383609391119
 10
315.5261297472484
 20
212.9071274203888
 10
315.5948962285253
 20
213.0443808444173
  0
LINE
  5
10C
330
70
100
AcDbEntity
  8
shade
 62
     6
420
 16711935
370
    25
100
AcDbLine
 10
314.3582177196738
 20
210.9148562330787
 30
0.0
 11
315.5948962285253
 21
210.9489599351812
 31
0.0
  0
LWPOLYLINE
  5
10D
330
70
100
AcDbEntity
  8
shade
 62
     6
420
 16711935
370
    25
100
AcDbPolyline
 90
        8
 70
     0
 43
0.0
 10
315.1140899366585
 20
198.8236961466413
 10
316.6252752935563
 20
209.815710686781
 10
316.6252752935563
 20
210.0902175348068
 10
316.5565088122794
 20
210.365283459935
 10
316.3848721476227
 20
210.6400698465066
 10
316.1785727037818
 20
210.8117065111633
 10
315.904065855756
 20
210.9148562330787
 10
315.5948962285356
 20
210.9489599351812
  0
LWPOLYLINE
  5
10E
330
70
100
AcDbEntity
  8
shade
 62
     6
420
 16711935
370
    25
100
AcDbPolyline
 90
        6
 70
     0
 43
0.0
 10
315.6289999306281
 20
184.4310952456628
 10
313.9461779090737
 20
183.8127559912214
 10
314.8049203094483
 20
196.9345746812462
 10
314.8736867907252
 20
197.4153809731126
 10
314.9418941949203
 20
197.8961872649897
 10
315.1140899366585
 20
198.8236961466413
  0
LWPOLYLINE
  5
10F
330
70
100
AcDbEntity
  8
shade
 62
     6
420
 16711935
370
    25
100
AcDbPolyline
 90
        3
 70
     0
 43
0.0
 10
313.9461779090737
 20
183.8127559912214
 10
313.5682418005763
 20
184.1563088590905
 10
314.3582177196738
 20
197.3122312511976
  0
LINE
  5
110
330
70
100
AcDbEntity
  8
shade
 62
     6
420
 16711935
370
    25
100
AcDbLine
 10
313.6023455026788
 20
184.6030114488548
 30
0.0
 11
313.5335790214019
 21
184.6371151509576
 31
0.0
  0
LWPOLYLINE
  5
111
330
70
100
AcDbEntity
  8
shade
 62
     6
420
 16711935
370
    25
100
AcDbPolyline
 90
        3
 70
     0
 43
0.0
 10
312.6407329189353
 20
190.5110585295196
 10
313.0186690274223
 20
197.8274207837128
 10
314.4269842009507
 20
208.8194353238426
  0
SPLINE
  5
112
330
70
100
AcDbEntity
  8
shade
 62
     6
420
 16711935
370
    25
100
AcDbSpline
210
0.0
220
0.0
230
1.0
 70
    11
 71
     3
 72
    74
 73
    70
 74
     0
 42
0.0000000001
 43
0.0000000001
 40
0.0
 40
0.0
 40
0.0
 40
0.0
 40
1.0
 40
1.0
 40
1.0
 40
2.0
 40
2.0
 40
2.0
 40
3.0
 40
3.0
 40
3.0
 40
4.0
 40
4.0
 40
4.0
 40
5.0
 40
5.0
 40
5.0
 40
6.0
 40
6.0
 40
6.0
 40
7.0
 40
7.0
 40
7.0
 40
8.0
 40
8.0
 40
8.0
 40
9.0
 40
9.0
 40
9.0
 40
10.0
 40
10.0
 40
10.0
 40
11.0
 40
11.0
 40
11.0
 40
12.0
 40
12.0
 40
12.0
 40
13.0
 40
13.0
 40
13.0
 40
14.0
 40
14.0
 40
14.0
 40
15.0
 40
15.0
 40
15.0
 40
16.0
 40
16.0
 40
16.0
 40
17.0
 40
17.0
 40
17.0
 40
18.0
 40
18.0
 40
18.0
 40
19.0
 40
19.0
 40
19.0
 40
20.0
 40
20.0
 40
20.0
 40
21.0
 40
21.0
 40
21.0
 40
22.0
 40
22.0
 40
22.0
 40
23.0
 40
23.0
 40
23.0
 40
23.0
 10
315.3885967846945
 20
208.3042457913373
 30
0.0
 10
315.3885967846945
 20
208.3042457913373
 30
0.0
 10
315.3198303034177
 20
208.3042457913373
 30
0.0
 10
315.3198303034177
 20
208.3042457913373
 30
0.0
 10
315.3198303034177
 20
208.3042457913373
 30
0.0
 10
315.2857266013151
 20
208.2698625506988
 30
0.0
 10
315.2857266013151
 20
208.2698625506988
 30
0.0
 10
315.2857266013151
 20
208.2698625506988
 30
0.0
 10
315.2510638221408
 20
208.2354793100604
 30
0.0
 10
315.2510638221408
 20
208.2354793100604
 30
0.0
 10
315.2510638221408
 20
208.2354793100604
 30
0.0
 10
315.2169601200382
 20
208.1667128287732
 30
0.0
 10
315.2169601200382
 20
208.1667128287732
 30
0.0
 10
315.2169601200382
 20
208.1667128287732
 30
0.0
 10
315.2169601200382
 20
208.1323295881348
 30
0.0
 10
315.2169601200382
 20
208.1323295881348
 30
0.0
 10
315.1101763970756
 20
207.9813787755765
 30
0.0
 10
315.2560955158873
 20
207.882142593234
 30
0.0
 10
315.2510638221408
 20
207.7546730181833
 30
0.0
 10
315.2510638221408
 20
207.7546730181833
 30
0.0
 10
315.2857266013151
 20
207.7546730181833
 30
0.0
 10
315.2857266013151
 20
207.7546730181833
 30
0.0
 10
315.2857266013151
 20
207.7546730181833
 30
0.0
 10
315.3198303034177
 20
207.7202897775449
 30
0.0
 10
315.3198303034177
 20
207.7202897775449
 30
0.0
 10
315.3198303034177
 20
207.7202897775449
 30
0.0
 10
315.4573632659715
 20
207.7202897775449
 30
0.0
 10
315.4573632659715
 20
207.7202897775449
 30
0.0
 10
315.4573632659715
 20
207.7202897775449
 30
0.0
 10
315.4914669680743
 20
207.7546730181833
 30
0.0
 10
315.4914669680743
 20
207.7546730181833
 30
0.0
 10
315.4914669680743
 20
207.7546730181833
 30
0.0
 10
315.5261297472484
 20
207.7890562588218
 30
0.0
 10
315.5261297472484
 20
207.7890562588218
 30
0.0
 10
315.5261297472484
 20
207.7890562588218
 30
0.0
 10
315.5261297472484
 20
207.8231599609243
 30
0.0
 10
315.5261297472484
 20
207.8231599609243
 30
0.0
 10
315.5261297472484
 20
207.8231599609243
 30
0.0
 10
315.5602334493512
 20
207.8575432015627
 30
0.0
 10
315.5602334493512
 20
207.8575432015627
 30
0.0
 10
315.5602334493512
 20
207.8575432015627
 30
0.0
 10
315.5602334493512
 20
207.9263096828396
 30
0.0
 10
315.5602334493512
 20
207.9263096828396
 30
0.0
 10
315.5602334493512
 20
207.9263096828396
 30
0.0
 10
315.5948962285253
 20
207.9606929234781
 30
0.0
 10
315.5948962285253
 20
207.9606929234781
 30
0.0
 10
315.5948962285253
 20
207.9606929234781
 30
0.0
 10
315.5948962285253
 20
208.029459404755
 30
0.0
 10
315.5948962285253
 20
208.029459404755
 30
0.0
 10
315.5948962285253
 20
208.029459404755
 30
0.0
 10
315.5602334493512
 20
208.0982258860319
 30
0.0
 10
315.5602334493512
 20
208.0982258860319
 30
0.0
 10
315.5602334493512
 20
208.0982258860319
 30
0.0
 10
315.5602334493512
 20
208.1323295881348
 30
0.0
 10
315.5602334493512
 20
208.1323295881348
 30
0.0
 10
315.5602334493512
 20
208.1323295881348
 30
0.0
 10
315.5261297472484
 20
208.2010960694117
 30
0.0
 10
315.5261297472484
 20
208.2010960694117
 30
0.0
 10
315.5261297472484
 20
208.2010960694117
 30
0.0
 10
315.5261297472484
 20
208.2354793100604
 30
0.0
 10
315.5261297472484
 20
208.2354793100604
 30
0.0
 10
315.5261297472484
 20
208.2354793100604
 30
0.0
 10
315.4914669680743
 20
208.2698625506988
 30
0.0
 10
315.4914669680743
 20
208.2698625506988
 30
0.0
 10
315.4914669680743
 20
208.2698625506988
 30
0.0
 10
315.4573632659715
 20
208.3042457913373
 30
0.0
 10
315.4573632659715
 20
208.3042457913373
 30
0.0
 10
315.4573632659715
 20
208.3042457913373
 30
0.0
 10
315.3885967846945
 20
208.3042457913373
 30
0.0
 10
315.3885967846945
 20
208.3042457913373
 30
0.0
  0
LINE
  5
113
330
70
100
AcDbEntity
  8
shade
 62
     6
420
 16711935
370
    25
100
AcDbLine
 10
313.7739821673355
 20
211.0177264164684
 30
0.0
 11
313.7739821673355
 21
209.3002416157193
 31
0.0
  0
LINE
  5
114
330
70
100
AcDbEntity
  8
shade
 62
     6
420
 16711935
370
    25
100
AcDbLine
 10
315.1828564179457
 20
210.9489599351812
 30
0.0
 11
315.1481936387613
 21
209.8498143888733
 31
0.0
  0
LINE
  5
115
330
70
100
AcDbEntity
  8
shade
 62
     6
420
 16711935
370
    25
100
AcDbLine
 10
315.1481936387613
 20
209.3346248563581
 30
0.0
 11
315.1481936387613
 21
209.2314751344424
 31
0.0
  0
LWPOLYLINE
  5
116
330
70
100
AcDbEntity
  8
shade
 62
     6
420
 16711935
370
    25
100
AcDbPolyline
 90
        7
 70
     0
 43
0.0
 10
313.7739821673355
 20
209.3002416157193
 10
313.9115151298995
 20
209.0254552291476
 10
314.1519182758328
 20
208.8882018051297
 10
314.4610879030433
 20
208.8194353238426
 10
314.7361538281611
 20
208.8538185644913
 10
314.9765569741047
 20
208.9910719885091
 10
315.1481936387613
 20
209.2314751344424
  0
LINE
  5
117
330
70
100
AcDbEntity
  8
shade
 62
     6
420
 16711935
370
    25
100
AcDbLine
 10
313.6023455026788
 20
210.8804729924402
 30
0.0
 11
311.0607810807606
 21
200.8503505745903
 31
0.0
  0
LINE
  5
118
330
70
100
AcDbEntity
  8
shade
 62
     6
420
 16711935
370
    25
100
AcDbLine
 10
310.2020386803862
 20
197.4153809731126
 30
0.0
 11
308.5533203609243
 21
190.8889946380172
 31
0.0
  0
LINE
  5
119
330
70
100
AcDbEntity
  8
shade
 62
     6
420
 16711935
370
    25
100
AcDbLine
 10
313.7739821673355
 20
209.5750280023016
 30
0.0
 11
311.232417745407
 21
199.8884584523002
 31
0.0
  0
LINE
  5
11A
330
70
100
AcDbEntity
  8
shade
 62
     6
420
 16711935
370
    25
100
AcDbLine
 10
310.3390125658582
 20
196.5566385727485
 30
0.0
 11
308.6902942463963
 21
190.2362721429476
 31
0.0
  0
LINE
  5
11B
330
70
100
AcDbEntity
  8
shade
 62
     6
420
 16711935
370
    25
100
AcDbLine
 10
314.4610879030433
 20
208.7850520832041
 30
0.0
 11
311.5756910747299
 21
197.5182511564924
 31
0.0
  0
LINE
  5
11C
330
70
100
AcDbEntity
  8
shade
 62
     6
420
 16711935
370
    25
100
AcDbLine
 10
310.7169486743555
 20
194.152048036292
 30
0.0
 11
309.1369968361811
 21
187.9004480877786
 31
0.0
  0
LINE
  5
11D
330
70
100
AcDbEntity
  8
shade
 62
     6
420
 16711935
370
    25
100
AcDbLine
 10
306.0799633432012
 20
203.9073840675699
 30
0.0
 11
306.2862627870421
 21
202.7050887993469
 31
0.0
  0
LINE
  5
11E
330
70
100
AcDbEntity
  8
shade
 62
     6
420
 16711935
370
    25
100
AcDbLine
 10
307.5911487000989
 20
196.0070657995946
 30
0.0
 11
309.3773999821144
 21
186.6637695789168
 31
0.0
  0
LINE
  5
11F
330
70
100
AcDbEntity
  8
shade
 62
     6
420
 16711935
370
    25
100
AcDbLine
 10
305.1865581636421
 20
200.9876039986082
 30
0.0
 11
303.9504387318622
 21
196.6254050540254
 31
0.0
  0
LINE
  5
120
330
70
100
AcDbEntity
  8
shade
 62
     6
420
 16711935
370
    25
100
AcDbLine
 10
303.1258000335906
 20
193.6712417444252
 30
0.0
 11
302.40459059578
 21
191.1637810245992
 31
0.0
  0
LWPOLYLINE
  5
121
330
70
100
AcDbEntity
  8
shade
 62
     6
420
 16711935
370
    25
100
AcDbPolyline
 90
        8
 70
     0
 43
0.0
 10
302.9882670710265
 20
201.3655401071058
 10
302.8166304063802
 20
201.6403264936775
 10
302.5762272604367
 20
201.8119631583341
 10
302.2670576332262
 20
201.880729639621
 10
301.957888006016
 20
201.8119631583341
 10
301.7174848600725
 20
201.6403264936878
 10
301.5458481954159
 20
201.3999233477439
 10
301.5111854162316
 20
201.0907537205235
  0
LWPOLYLINE
  5
122
330
70
100
AcDbEntity
  8
shade
 62
     6
420
 16711935
370
    25
100
AcDbPolyline
 90
        8
 70
     0
 43
0.0
 10
301.9925507851902
 20
189.7210826104424
 10
302.3017204124006
 20
189.7210826104424
 10
302.5762272604367
 20
189.8583360344506
 10
302.7825267042879
 20
190.0987391803835
 10
302.8853968876571
 20
190.4079088076042
 10
302.8512931855648
 20
190.7170784348147
 10
302.6790974438161
 20
190.9918648214069
 10
302.4386942978828
 20
191.1637810245992
  0
LINE
  5
123
330
70
100
AcDbEntity
  8
shade
 62
     6
420
 16711935
370
    25
100
AcDbLine
 10
296.3246273119229
 20
199.6136720657285
 30
0.0
 11
301.5458481954159
 21
201.2967736258289
 31
0.0
  0
SPLINE
  5
124
330
70
100
AcDbEntity
  8
shade
 62
     6
420
 16711935
370
    25
100
AcDbSpline
210
0.0
220
0.0
230
1.0
 70
     8
 71
     3
 72
    26
 73
    22
 74
     0
 42
0.0000000001
 43
0.0000000001
 40
0.0
 40
0.0
 40
0.0
 40
0.0
 40
1.0
 40
1.0
 40
1.0
 40
2.0
 40
2.0
 40
2.0
 40
3.0
 40
3.0
 40
3.0
 40
4.0
 40
4.0
 40
4.0
 40
5.0
 40
5.0
 40
5.0
 40
6.0
 40
6.0
 40
6.0
 40
7.0
 40
7.0
 40
7.0
 40
7.0
 10
302.7825267042879
 20
200.5411809473798
 30
0.0
 10
302.7825267042879
 20
200.5411809473798
 30
0.0
 10
302.8166304063802
 20
200.5755641880183
 30
0.0
 10
302.8166304063802
 20
200.5755641880183
 30
0.0
 10
302.8166304063802
 20
200.5755641880183
 30
0.0
 10
302.8512931855648
 20
200.6440511307595
 30
0.0
 10
302.8512931855648
 20
200.6440511307595
 30
0.0
 10
302.8512931855648
 20
200.6440511307595
 30
0.0
 10
302.8512931855648
 20
200.7128176120365
 30
0.0
 10
302.8512931855648
 20
200.7128176120365
 30
0.0
 10
302.8512931855648
 20
200.7128176120365
 30
0.0
 10
302.8853968876571
 20
200.7815840933134
 30
0.0
 10
302.8853968876571
 20
200.7815840933134
 30
0.0
 10
302.788117475116
 20
201.0826471028221
 30
0.0
 10
302.7976217855376
 20
201.0272984715494
 30
0.0
 10
302.5074607791598
 20
201.125136961162
 30
0.0
 10
302.3878182832748
 20
201.0764972548913
 30
0.0
 10
302.217858849874
 20
201.0616817121878
 30
0.0
 10
302.1641874498468
 20
200.9191170558672
 30
0.0
 10
302.087034812312
 20
200.7908088651888
 30
0.0
 10
302.127288362335
 20
200.6077111203194
 30
0.0
 10
302.2329539311237
 20
200.5067977067311
 30
0.0
  0
LWPOLYLINE
  5
125
330
70
100
AcDbEntity
  8
shade
 62
     6
420
 16711935
370
    25
100
AcDbPolyline
 90
       16
 70
     0
 43
0.0
 10
303.3662031795341
 20
195.8695328370407
 10
303.3320994774316
 20
195.8007663557638
 10
303.2633329961547
 20
195.7666626536614
 10
303.2286702169701
 20
195.6978961723742
 10
303.2286702169701
 20
195.3887265451637
 10
303.2633329961547
 20
195.3199600638768
 10
303.3320994774316
 20
195.2511935825996
 10
303.3662031795341
 20
195.1827066398689
 10
303.5037361420879
 20
195.1139401585817
 10
303.710035585929
 20
195.1139401585817
 10
303.778242990124
 20
195.1483233992305
 10
303.8129057692981
 20
195.2170898805074
 10
303.881672250575
 20
195.2511935825996
 10
303.9157759526881
 20
195.3199600638868
 10
303.9157759526779
 20
195.6291296910973
 10
303.881672250575
 20
195.7322794130126
  0
LWPOLYLINE
  5
126
330
70
100
AcDbEntity
  8
shade
 62
     6
420
 16711935
370
    25
100
AcDbPolyline
 90
        3
 70
     0
 43
0.0
 10
305.1524544615396
 20
204.4569568407239
 10
304.8779476135138
 20
204.3540866573445
 10
304.6369853904983
 20
204.1821704541522
  0
SPLINE
  5
127
330
70
100
AcDbEntity
  8
shade
 62
     6
420
 16711935
370
    25
100
AcDbSpline
210
0.0
220
0.0
230
1.0
 70
     8
 71
     3
 72
     8
 73
     4
 74
     0
 42
0.0000000001
 43
0.0000000001
 40
0.0
 40
0.0
 40
0.0
 40
0.0
 40
1.0
 40
1.0
 40
1.0
 40
1.0
 10
306.0799633432012
 20
203.9073840675699
 30
0.0
 10
305.7037044659593
 20
204.2800089437649
 30
0.0
 10
305.142950151118
 20
204.2366804697969
 30
0.0
 10
304.9461550177089
 20
203.7013641622752
 30
0.0
  0
SPLINE
  5
128
330
70
100
AcDbEntity
  8
shade
 62
     6
420
 16711935
370
    25
100
AcDbSpline
210
0.0
220
0.0
230
1.0
 70
     8
 71
     3
 72
     8
 73
     4
 74
     0
 42
0.0000000001
 43
0.0000000001
 40
0.0
 40
0.0
 40
0.0
 40
0.0
 40
1.0
 40
1.0
 40
1.0
 40
1.0
 10
306.0799633432012
 20
203.9073840675699
 30
0.0
 10
305.8188743451692
 20
204.7834578575317
 30
0.0
 10
304.640898930071
 20
204.6218845803785
 30
0.0
 10
304.6369853904983
 20
203.7013641622752
 30
0.0
  0
SPLINE
  5
129
330
70
100
AcDbEntity
  8
shade
 62
     6
420
 16711935
370
    25
100
AcDbSpline
210
0.0
220
0.0
230
1.0
 70
     8
 71
     3
 72
    35
 73
    31
 74
     0
 42
0.0000000001
 43
0.0000000001
 40
0.0
 40
0.0
 40
0.0
 40
0.0
 40
1.0
 40
1.0
 40
1.0
 40
2.0
 40
2.0
 40
2.0
 40
3.0
 40
3.0
 40
3.0
 40
4.0
 40
4.0
 40
4.0
 40
5.0
 40
5.0
 40
5.0
 40
6.0
 40
6.0
 40
6.0
 40
7.0
 40
7.0
 40
7.0
 40
8.0
 40
8.0
 40
8.0
 40
9.0
 40
9.0
 40
9.0
 40
10.0
 40
10.0
 40
10.0
 40
10.0
 10
306.0453005640168
 20
203.1517913891212
 30
0.0
 10
306.145375361977
 20
203.2926788141864
 30
0.0
 10
306.0302054827568
 20
203.40141930694
 30
0.0
 10
305.9770931598111
 20
203.5294479590726
 30
0.0
 10
305.9770931598111
 20
203.5294479590726
 30
0.0
 10
305.9424303806371
 20
203.5638311997111
 30
0.0
 10
305.9424303806371
 20
203.5638311997111
 30
0.0
 10
305.9424303806371
 20
203.5638311997111
 30
0.0
 10
305.8736638993601
 20
203.5982144403598
 30
0.0
 10
305.8736638993601
 20
203.5982144403598
 30
0.0
 10
305.8736638993601
 20
203.5982144403598
 30
0.0
 10
305.5644942721397
 20
203.5982144403598
 30
0.0
 10
305.5644942721397
 20
203.5982144403598
 30
0.0
 10
305.5644942721397
 20
203.5982144403598
 30
0.0
 10
305.4957277908628
 20
203.5638311997111
 30
0.0
 10
305.4957277908628
 20
203.5638311997111
 30
0.0
 10
305.4957277908628
 20
203.5638311997111
 30
0.0
 10
305.4616240887702
 20
203.4953442569801
 30
0.0
 10
305.4616240887702
 20
203.4953442569801
 30
0.0
 10
305.4616240887702
 20
203.4953442569801
 30
0.0
 10
305.392857607483
 20
203.4609610163416
 30
0.0
 10
305.392857607483
 20
203.4609610163416
 30
0.0
 10
305.392857607483
 20
203.4609610163416
 30
0.0
 10
305.3240911262061
 20
203.3234280537778
 30
0.0
 10
305.3240911262061
 20
203.3234280537778
 30
0.0
 10
305.3240911262061
 20
203.3234280537778
 30
0.0
 10
305.3240911262061
 20
203.1861746297596
 30
0.0
 10
305.3240911262061
 20
203.1861746297596
 30
0.0
 10
305.3872668366447
 20
203.0338261244921
 30
0.0
 10
305.5309496471187
 20
202.9125063973513
 30
0.0
 10
305.7020272347035
 20
202.9113882431877
 30
0.0
  0
SPLINE
  5
12A
330
70
100
AcDbEntity
  8
shade
 62
     6
420
 16711935
370
    25
100
AcDbSpline
210
0.0
220
0.0
230
1.0
 70
     8
 71
     3
 72
    29
 73
    25
 74
     0
 42
0.0000000001
 43
0.0000000001
 40
0.0
 40
0.0
 40
0.0
 40
0.0
 40
1.0
 40
1.0
 40
1.0
 40
2.0
 40
2.0
 40
2.0
 40
3.0
 40
3.0
 40
3.0
 40
4.0
 40
4.0
 40
4.0
 40
5.0
 40
5.0
 40
5.0
 40
6.0
 40
6.0
 40
6.0
 40
7.0
 40
7.0
 40
7.0
 40
8.0
 40
8.0
 40
8.0
 40
8.0
 10
307.2132125916013
 20
196.2474689455281
 30
0.0
 10
307.2132125916013
 20
196.2474689455281
 30
0.0
 10
307.1450051874062
 20
196.2818521861666
 30
0.0
 10
307.1450051874062
 20
196.2818521861666
 30
0.0
 10
307.1450051874062
 20
196.2818521861666
 30
0.0
 10
307.0762387061293
 20
196.2818521861666
 30
0.0
 10
307.0762387061293
 20
196.2818521861666
 30
0.0
 10
307.0762387061293
 20
196.2818521861666
 30
0.0
 10
307.0074722248421
 20
196.2474689455281
 30
0.0
 10
307.0074722248421
 20
196.2474689455281
 30
0.0
 10
307.0074722248421
 20
196.2474689455281
 30
0.0
 10
306.9387057435652
 20
196.2130857048897
 30
0.0
 10
306.9387057435652
 20
196.2130857048897
 30
0.0
 10
306.9387057435652
 20
196.2130857048897
 30
0.0
 10
306.8699392622883
 20
196.1787024642512
 30
0.0
 10
306.8699392622883
 20
196.1787024642512
 30
0.0
 10
306.8699392622883
 20
196.1787024642512
 30
0.0
 10
306.8358355601858
 20
196.1443192236128
 30
0.0
 10
306.8358355601858
 20
196.1443192236128
 30
0.0
 10
306.7508558434852
 20
196.0218813423086
 30
0.0
 10
306.7324062997345
 20
195.8295588255537
 30
0.0
 10
306.8011727810114
 20
195.6978961723742
 30
0.0
 10
306.9247288164792
 20
195.3233145263881
 30
0.0
 10
307.4251028062708
 20
195.4200348618473
 30
0.0
 10
307.4541748146167
 20
195.7666626536614
 30
0.0
  0
LINE
  5
12B
330
70
100
AcDbEntity
  8
shade
 62
     6
420
 16711935
370
    25
100
AcDbLine
 10
310.2020386803862
 20
206.55237774996
 30
0.0
 11
310.4765455284223
 21
204.9036594305087
 31
0.0
  0
LINE
  5
12C
330
70
100
AcDbEntity
  8
shade
 62
     6
420
 16711935
370
    25
100
AcDbLine
 10
310.9920145994734
 20
201.4686898290311
 30
0.0
 11
313.6023455026788
 21
184.396712005024
 31
0.0
  0
LINE
  5
12D
330
70
100
AcDbEntity
  8
shade
 62
     6
420
 16711935
370
    25
100
AcDbLine
 10
312.9840062482482
 20
188.2440009556374
 30
0.0
 11
313.5682418005763
 21
197.5870176377693
 31
0.0
  0
SPLINE
  5
12E
330
70
100
AcDbEntity
  8
shade
 62
     6
420
 16711935
370
    25
100
AcDbSpline
210
0.0
220
0.0
230
1.0
 70
     8
 71
     3
 72
    35
 73
    31
 74
     0
 42
0.0000000001
 43
0.0000000001
 40
0.0
 40
0.0
 40
0.0
 40
0.0
 40
1.0
 40
1.0
 40
1.0
 40
2.0
 40
2.0
 40
2.0
 40
3.0
 40
3.0
 40
3.0
 40
4.0
 40
4.0
 40
4.0
 40
5.0
 40
5.0
 40
5.0
 40
6.0
 40
6.0
 40
6.0
 40
7.0
 40
7.0
 40
7.0
 40
8.0
 40
8.0
 40
8.0
 40
9.0
 40
9.0
 40
9.0
 40
10.0
 40
10.0
 40
10.0
 40
10.0
 10
314.3582177196738
 20
197.3122312511976
 30
0.0
 10
314.5471857739175
 20
198.6749816424001
 30
0.0
 10
314.6998138177415
 20
199.9589021648329
 30
0.0
 10
314.8049203094483
 20
201.331156866467
 30
0.0
 10
314.8228107761172
 20
201.5774303217852
 30
0.0
 10
314.9094677240733
 20
202.9742844150905
 30
0.0
 10
314.7702575302637
 20
203.1861746297596
 30
0.0
 10
314.7702575302637
 20
203.1861746297596
 30
0.0
 10
314.7361538281611
 20
203.1861746297596
 30
0.0
 10
314.7361538281611
 20
203.1861746297596
 30
0.0
 10
314.7361538281611
 20
203.1861746297596
 30
0.0
 10
314.7014910489765
 20
203.1517913891212
 30
0.0
 10
314.7014910489765
 20
203.1517913891212
 30
0.0
 10
314.7014910489765
 20
203.1517913891212
 30
0.0
 10
314.6327245676996
 20
203.0142584265674
 30
0.0
 10
314.6327245676996
 20
203.0142584265674
 30
0.0
 10
314.6327245676996
 20
203.0142584265674
 30
0.0
 10
314.5645171635148
 20
202.8426217619111
 30
0.0
 10
314.5645171635148
 20
202.8426217619111
 30
0.0
 10
314.5645171635148
 20
202.8426217619111
 30
0.0
 10
314.4957506822276
 20
202.6022186159672
 30
0.0
 10
314.4957506822276
 20
202.6022186159672
 30
0.0
 10
314.4957506822276
 20
202.6022186159672
 30
0.0
 10
314.3923214217663
 20
202.2930489887571
 30
0.0
 10
314.3923214217663
 20
202.2930489887571
 30
0.0
 10
314.3923214217663
 20
202.2930489887571
 30
0.0
 10
314.3241140175713
 20
201.9151128802594
 30
0.0
 10
314.3241140175713
 20
201.9151128802594
 30
0.0
 10
314.0238896236903
 20
200.5724892640532
 30
0.0
 10
313.7382012339874
 20
198.9478112591907
 30
0.0
 10
313.5682418005763
 20
197.5870176377693
 30
0.0
  0
LWPOLYLINE
  5
12F
330
70
100
AcDbEntity
  8
shade
 62
     6
420
 16711935
370
    25
100
AcDbPolyline
 90
        7
 70
     0
 43
0.0
 10
310.2020386803862
 20
206.55237774996
 10
310.0645057178221
 20
206.8615473771705
 10
309.8241025718885
 20
207.0675672824653
 10
309.4802701654941
 20
207.1707170043909
 10
309.1716596153552
 20
207.1363337637524
 10
308.862489988145
 20
206.9644175605499
 10
308.6902942463963
 20
206.6899107125139
  0
SPLINE
  5
130
330
70
100
AcDbEntity
  8
shade
 62
     6
420
 16711935
370
    25
100
AcDbSpline
210
0.0
220
0.0
230
1.0
 70
     8
 71
     3
 72
     8
 73
     4
 74
     0
 42
0.0000000001
 43
0.0000000001
 40
0.0
 40
0.0
 40
0.0
 40
0.0
 40
1.0
 40
1.0
 40
1.0
 40
1.0
 10
310.2020386803862
 20
206.55237774996
 30
0.0
 10
309.909641365671
 20
207.3222268940307
 30
0.0
 10
308.8680807589834
 20
207.2255065585818
 30
0.0
 10
308.7937235068579
 20
206.3463578446652
 30
0.0
  0
LWPOLYLINE
  5
131
330
70
100
AcDbEntity
  8
shade
 62
     6
420
 16711935
370
    25
100
AcDbPolyline
 90
        6
 70
     0
 43
0.0
 10
310.2020386803862
 20
206.55237774996
 10
309.9957392365452
 20
206.7240144146167
 10
309.7212323885194
 20
206.7927808958936
 10
309.4461664633913
 20
206.7240144146167
 10
309.2398670195503
 20
206.55237774996
 10
309.1369968361811
 20
206.2775913633883
  0
LINE
  5
132
330
70
100
AcDbEntity
  8
shade
 62
     6
420
 16711935
370
    25
100
AcDbLine
 10
308.862489988145
 20
206.0028049767958
 30
0.0
 11
307.2132125916013
 21
199.9572249335874
 31
0.0
  0
LINE
  5
133
330
70
100
AcDbEntity
  8
shade
 62
     6
420
 16711935
370
    25
100
AcDbLine
 10
306.1828335265706
 20
196.041449040233
 30
0.0
 11
304.9808177968932
 21
191.6102040758275
 31
0.0
  0
LINE
  5
134
330
70
100
AcDbEntity
  8
shade
 62
     6
420
 16711935
370
    25
100
AcDbLine
 10
309.2398670195503
 20
203.5638311997111
 30
0.0
 11
307.5911487000989
 21
197.5526343971309
 31
0.0
  0
LINE
  5
135
330
70
100
AcDbEntity
  8
shade
 62
     6
420
 16711935
370
    25
100
AcDbLine
 10
306.5954324142523
 20
193.9460281309969
 30
0.0
 11
305.392857607483
 21
189.5835496478783
 31
0.0
  0
SPLINE
  5
136
330
70
100
AcDbEntity
  8
shade
 62
     6
420
 16711935
370
    25
100
AcDbSpline
210
0.0
220
0.0
230
1.0
 70
     8
 71
     3
 72
     8
 73
     4
 74
     0
 42
0.0000000001
 43
0.0000000001
 40
0.0
 40
0.0
 40
0.0
 40
0.0
 40
1.0
 40
1.0
 40
1.0
 40
1.0
 10
304.2937120611751
 20
188.2096177149986
 30
0.0
 10
304.6666164759262
 20
187.4797425823948
 30
0.0
 10
305.6008342825696
 20
187.7011371074858
 30
0.0
 10
305.5991570513241
 20
188.5187873422091
 30
0.0
  0
LWPOLYLINE
  5
137
330
70
100
AcDbEntity
  8
shade
 62
     6
420
 16711935
370
    25
100
AcDbPolyline
 90
        4
 70
     0
 43
0.0
 10
303.8129057692981
 20
188.7935737287911
 10
303.8470094714009
 20
188.4500208609322
 10
304.0533089152522
 20
188.2096177149986
 10
304.3624785424623
 20
188.1064679930733
  0
SPLINE
  5
138
330
70
100
AcDbEntity
  8
shade
 62
     6
420
 16711935
370
    25
100
AcDbSpline
210
0.0
220
0.0
230
1.0
 70
     8
 71
     3
 72
     8
 73
     4
 74
     0
 42
0.0000000001
 43
0.0000000001
 40
0.0
 40
0.0
 40
0.0
 40
0.0
 40
1.0
 40
1.0
 40
1.0
 40
1.0
 10
307.7974481439293
 20
187.8660648471398
 30
0.0
 10
307.5743763875832
 20
187.407621638607
 30
0.0
 10
307.3680769437524
 20
186.4611041361125
 30
0.0
 10
308.1066177711501
 20
186.3545999516961
 30
0.0
  0
SPLINE
  5
139
330
70
100
AcDbEntity
  8
shade
 62
     6
420
 16711935
370
    25
100
AcDbSpline
210
0.0
220
0.0
230
1.0
 70
     8
 71
     3
 72
     8
 73
     4
 74
     0
 42
0.0000000001
 43
0.0000000001
 40
0.0
 40
0.0
 40
0.0
 40
0.0
 40
1.0
 40
1.0
 40
1.0
 40
1.0
 10
308.071954991976
 20
186.3889831923349
 30
0.0
 10
308.4515683317186
 20
185.7329062347642
 30
0.0
 10
309.2968928820785
 20
185.9939952327964
 30
0.0
 10
309.3773999821144
 20
186.6637695789168
 30
0.0
  0
LWPOLYLINE
  5
13A
330
70
100
AcDbEntity
  8
shade
 62
     6
420
 16711935
370
    25
100
AcDbPolyline
 90
        3
 70
     0
 43
0.0
 10
308.2782544358064
 20
186.3889831923349
 10
308.5186575817399
 20
186.1141968057625
 10
308.8278272089604
 20
186.0454303244856
  0
SPLINE
  5
13B
330
70
100
AcDbEntity
  8
shade
 62
     6
420
 16711935
370
    25
100
AcDbSpline
210
0.0
220
0.0
230
1.0
 70
     8
 71
     3
 72
    41
 73
    37
 74
     0
 42
0.0000000001
 43
0.0000000001
 40
0.0
 40
0.0
 40
0.0
 40
0.0
 40
1.0
 40
1.0
 40
1.0
 40
2.0
 40
2.0
 40
2.0
 40
3.0
 40
3.0
 40
3.0
 40
4.0
 40
4.0
 40
4.0
 40
5.0
 40
5.0
 40
5.0
 40
6.0
 40
6.0
 40
6.0
 40
7.0
 40
7.0
 40
7.0
 40
8.0
 40
8.0
 40
8.0
 40
9.0
 40
9.0
 40
9.0
 40
10.0
 40
10.0
 40
10.0
 40
11.0
 40
11.0
 40
11.0
 40
12.0
 40
12.0
 40
12.0
 40
12.0
 10
315.0453234553816
 20
209.8498143888733
 30
0.0
 10
315.0453234553816
 20
209.8498143888733
 30
0.0
 10
315.0106606762075
 20
209.9185808701502
 30
0.0
 10
315.0106606762075
 20
209.9185808701502
 30
0.0
 10
315.0106606762075
 20
209.9185808701502
 30
0.0
 10
314.9765569741047
 20
209.9529641107886
 30
0.0
 10
314.9765569741047
 20
209.9529641107886
 30
0.0
 10
314.9765569741047
 20
209.9529641107886
 30
0.0
 10
314.9418941949203
 20
209.9873473514374
 30
0.0
 10
314.9418941949203
 20
209.9873473514374
 30
0.0
 10
314.9418941949203
 20
209.9873473514374
 30
0.0
 10
314.873686790725
 20
210.0217305920758
 30
0.0
 10
314.873686790725
 20
210.0217305920758
 30
0.0
 10
314.873686790725
 20
210.0217305920758
 30
0.0
 10
314.8390240115406
 20
210.0217305920758
 30
0.0
 10
314.8390240115406
 20
210.0217305920758
 30
0.0
 10
314.6629147302196
 20
210.0337507493707
 30
0.0
 10
314.6836005823076
 20
209.9929381222658
 30
0.0
 10
314.5645171635148
 20
209.8841976295117
 30
0.0
 10
314.5645171635148
 20
209.8841976295117
 30
0.0
 10
314.5298543843304
 20
209.815710686781
 30
0.0
 10
314.5298543843304
 20
209.815710686781
 30
0.0
 10
314.5298543843304
 20
209.815710686781
 30
0.0
 10
314.5298543843304
 20
209.5750280023016
 30
0.0
 10
314.5298543843304
 20
209.5750280023016
 30
0.0
 10
314.6701827323137
 20
209.2557949875777
 30
0.0
 10
314.6903095073199
 20
209.4372155012019
 30
0.0
 10
314.7702575302637
 20
209.3346248563581
 30
0.0
 10
314.7702575302637
 20
209.3346248563581
 30
0.0
 10
314.8390240115406
 20
209.3690080969962
 30
0.0
 10
314.8390240115406
 20
209.3690080969962
 30
0.0
 10
314.8390240115406
 20
209.3690080969962
 30
0.0
 10
314.873686790725
 20
209.3690080969962
 30
0.0
 10
314.873686790725
 20
209.3690080969962
 30
0.0
 10
314.873686790725
 20
209.3690080969962
 30
0.0
 10
314.9418941949203
 20
209.403391337635
 30
0.0
 10
314.9418941949203
 20
209.403391337635
 30
0.0
  0
SPLINE
  5
13C
330
70
100
AcDbEntity
  8
shade
 62
     6
420
 16711935
370
    25
100
AcDbSpline
210
0.0
220
0.0
230
1.0
 70
     8
 71
     3
 72
    20
 73
    16
 74
     0
 42
0.0000000001
 43
0.0000000001
 40
0.0
 40
0.0
 40
0.0
 40
0.0
 40
1.0
 40
1.0
 40
1.0
 40
2.0
 40
2.0
 40
2.0
 40
3.0
 40
3.0
 40
3.0
 40
4.0
 40
4.0
 40
4.0
 40
5.0
 40
5.0
 40
5.0
 40
5.0
 10
315.0794271574844
 20
209.8498143888733
 30
0.0
 10
314.6880731989723
 20
210.6520900038012
 30
0.0
 10
313.9651865299165
 20
209.5023479814315
 30
0.0
 10
314.7361538281611
 20
209.266137913627
 30
0.0
 10
314.7361538281611
 20
209.266137913627
 30
0.0
 10
314.8049203094483
 20
209.3002416157193
 30
0.0
 10
314.8049203094483
 20
209.3002416157193
 30
0.0
 10
314.8049203094483
 20
209.3002416157193
 30
0.0
 10
314.8390240115406
 20
209.3002416157193
 30
0.0
 10
314.8390240115406
 20
209.3002416157193
 30
0.0
 10
314.8390240115406
 20
209.3002416157193
 30
0.0
 10
314.9077904928175
 20
209.3346248563581
 30
0.0
 10
314.9077904928175
 20
209.3346248563581
 30
0.0
 10
314.9077904928175
 20
209.3346248563581
 30
0.0
 10
314.9765569741047
 20
209.403391337635
 30
0.0
 10
314.9765569741047
 20
209.403391337635
 30
0.0
  0
SPLINE
  5
13D
330
70
100
AcDbEntity
  8
shade
 62
     6
420
 16711935
370
    25
100
AcDbSpline
210
0.0
220
0.0
230
1.0
 70
     8
 71
     3
 72
     8
 73
     4
 74
     0
 42
0.0000000001
 43
0.0000000001
 40
0.0
 40
0.0
 40
0.0
 40
0.0
 40
1.0
 40
1.0
 40
1.0
 40
1.0
 10
314.5986208656073
 20
209.9185808701502
 30
0.0
 10
315.1856518033546
 20
209.8626731617958
 30
0.0
 10
315.7771553577871
 20
209.7108837336098
 30
0.0
 10
316.2473391850586
 20
209.3346248563581
 30
0.0
  0
SPLINE
  5
13E
330
70
100
AcDbEntity
  8
shade
 62
     6
420
 16711935
370
    25
100
AcDbSpline
210
0.0
220
0.0
230
1.0
 70
     8
 71
     3
 72
    53
 73
    49
 74
     0
 42
0.0000000001
 43
0.0000000001
 40
0.0
 40
0.0
 40
0.0
 40
0.0
 40
1.0
 40
1.0
 40
1.0
 40
2.0
 40
2.0
 40
2.0
 40
3.0
 40
3.0
 40
3.0
 40
4.0
 40
4.0
 40
4.0
 40
5.0
 40
5.0
 40
5.0
 40
6.0
 40
6.0
 40
6.0
 40
7.0
 40
7.0
 40
7.0
 40
8.0
 40
8.0
 40
8.0
 40
9.0
 40
9.0
 40
9.0
 40
10.0
 40
10.0
 40
10.0
 40
11.0
 40
11.0
 40
11.0
 40
12.0
 40
12.0
 40
12.0
 40
13.0
 40
13.0
 40
13.0
 40
14.0
 40
14.0
 40
14.0
 40
15.0
 40
15.0
 40
15.0
 40
16.0
 40
16.0
 40
16.0
 40
16.0
 10
315.904065855756
 20
209.5406447616631
 30
0.0
 10
315.904065855756
 20
209.5406447616631
 30
0.0
 10
315.9381695578485
 20
209.5750280023016
 30
0.0
 10
315.9381695578485
 20
209.5750280023016
 30
0.0
 10
315.9381695578485
 20
209.5750280023016
 30
0.0
 10
316.1098062225049
 20
209.5750280023016
 30
0.0
 10
316.1098062225049
 20
209.5750280023016
 30
0.0
 10
316.1098062225049
 20
209.5750280023016
 30
0.0
 10
316.1785727037818
 20
209.5065410595603
 30
0.0
 10
316.1785727037818
 20
209.5065410595603
 30
0.0
 10
316.286474580918
 20
209.420443188686
 30
0.0
 10
316.2367167204737
 20
209.3295931626115
 30
0.0
 10
316.2473391850586
 20
209.1973714323398
 30
0.0
 10
316.2473391850586
 20
209.1973714323398
 30
0.0
 10
316.2132354829664
 20
209.128604951063
 30
0.0
 10
316.2132354829664
 20
209.128604951063
 30
0.0
 10
316.2132354829664
 20
209.128604951063
 30
0.0
 10
316.1785727037818
 20
209.0942217104245
 30
0.0
 10
316.1785727037818
 20
209.0942217104245
 30
0.0
 10
316.1785727037818
 20
209.0942217104245
 30
0.0
 10
316.1444690016895
 20
209.0254552291476
 30
0.0
 10
316.1444690016895
 20
209.0254552291476
 30
0.0
 10
316.1444690016895
 20
209.0254552291476
 30
0.0
 10
316.1098062225049
 20
208.9910719885091
 30
0.0
 10
316.1098062225049
 20
208.9910719885091
 30
0.0
 10
316.1098062225049
 20
208.9910719885091
 30
0.0
 10
316.0415988183097
 20
208.9910719885091
 30
0.0
 10
316.0415988183097
 20
208.9910719885091
 30
0.0
 10
316.0415988183097
 20
208.9910719885091
 30
0.0
 10
316.0069360391255
 20
208.9569682864066
 30
0.0
 10
316.0069360391255
 20
208.9569682864066
 30
0.0
 10
316.0069360391255
 20
208.9569682864066
 30
0.0
 10
315.904065855756
 20
208.9569682864066
 30
0.0
 10
315.904065855756
 20
208.9569682864066
 30
0.0
 10
315.904065855756
 20
208.9569682864066
 30
0.0
 10
315.8694030765716
 20
208.9910719885091
 30
0.0
 10
315.8694030765716
 20
208.9910719885091
 30
0.0
 10
315.8694030765716
 20
208.9910719885091
 30
0.0
 10
315.8006365952844
 20
209.0254552291476
 30
0.0
 10
315.8006365952844
 20
209.0254552291476
 30
0.0
 10
315.8006365952844
 20
209.0254552291476
 30
0.0
 10
315.7665328931919
 20
209.059838469786
 30
0.0
 10
315.7665328931919
 20
209.059838469786
 30
0.0
 10
315.7665328931919
 20
209.059838469786
 30
0.0
 10
315.7665328931919
 20
209.0942217104245
 30
0.0
 10
315.7665328931919
 20
209.0942217104245
 30
0.0
 10
315.7665328931919
 20
209.0942217104245
 30
0.0
 10
315.7324291910894
 20
209.128604951063
 30
0.0
 10
315.7324291910894
 20
209.128604951063
 30
0.0
  0
LWPOLYLINE
  5
13F
330
70
100
AcDbEntity
  8
shade
 62
     6
420
 16711935
370
    25
100
AcDbPolyline
 90
        6
 70
     0
 43
0.0
 10
314.5298543843304
 20
209.5750280023016
 10
314.7361538281611
 20
209.4721578189115
 10
314.9077904928175
 20
209.403391337635
 10
315.354493082592
 20
209.3002416157193
 10
315.7324291910894
 20
209.128604951063
 10
316.1785727037818
 20
209.059838469786
  0
SPLINE
  5
140
330
70
100
AcDbEntity
  8
shade
 62
     6
420
 16711935
370
    25
100
AcDbSpline
210
0.0
220
0.0
230
1.0
 70
     8
 71
     3
 72
    35
 73
    31
 74
     0
 42
0.0000000001
 43
0.0000000001
 40
0.0
 40
0.0
 40
0.0
 40
0.0
 40
1.0
 40
1.0
 40
1.0
 40
2.0
 40
2.0
 40
2.0
 40
3.0
 40
3.0
 40
3.0
 40
4.0
 40
4.0
 40
4.0
 40
5.0
 40
5.0
 40
5.0
 40
6.0
 40
6.0
 40
6.0
 40
7.0
 40
7.0
 40
7.0
 40
8.0
 40
8.0
 40
8.0
 40
9.0
 40
9.0
 40
9.0
 40
10.0
 40
10.0
 40
10.0
 40
10.0
 10
302.40459059578
 20
201.0907537205235
 30
0.0
 10
302.40459059578
 20
201.0907537205235
 30
0.0
 10
302.5074607791598
 20
201.0563704798851
 30
0.0
 10
302.5074607791598
 20
201.0563704798851
 30
0.0
 10
302.5074607791598
 20
201.0563704798851
 30
0.0
 10
302.6449937417238
 20
200.7815840933134
 30
0.0
 10
302.6449937417238
 20
200.7815840933134
 30
0.0
 10
302.6449937417238
 20
200.7815840933134
 30
0.0
 10
302.8166304063802
 20
200.4036479848157
 30
0.0
 10
302.8166304063802
 20
200.4036479848157
 30
0.0
 10
303.112941260668
 20
199.3777415364597
 30
0.0
 10
303.2862551565801
 20
198.3495987797663
 30
0.0
 10
303.6066063254677
 20
197.3122312511976
 30
0.0
 10
303.7642660630277
 20
196.7003213832226
 30
0.0
 10
303.9180122610254
 20
196.381367907045
 30
0.0
 10
303.881672250575
 20
195.7322794130126
 30
0.0
 10
303.881672250575
 20
195.7322794130126
 30
0.0
 10
303.8470094714009
 20
195.5262595077175
 30
0.0
 10
303.8470094714009
 20
195.5262595077175
 30
0.0
 10
303.8470094714009
 20
195.5262595077175
 30
0.0
 10
303.778242990124
 20
195.4574930264406
 30
0.0
 10
303.778242990124
 20
195.4574930264406
 30
0.0
 10
303.778242990124
 20
195.4574930264406
 30
0.0
 10
303.7441392880212
 20
195.3887265451637
 30
0.0
 10
303.7441392880212
 20
195.3887265451637
 30
0.0
 10
303.7441392880212
 20
195.3887265451637
 30
0.0
 10
303.5725026233649
 20
195.2855768232384
 30
0.0
 10
303.5725026233649
 20
195.2855768232384
 30
0.0
 10
303.5725026233649
 20
195.2855768232384
 30
0.0
 10
303.3662031795341
 20
195.1827066398689
 30
0.0
 10
303.3662031795341
 20
195.1827066398689
 30
0.0
  0
SPLINE
  5
141
330
70
100
AcDbEntity
  8
shade
 62
     6
420
 16711935
370
    25
100
AcDbSpline
210
0.0
220
0.0
230
1.0
 70
     8
 71
     3
 72
    32
 73
    28
 74
     0
 42
0.0000000001
 43
0.0000000001
 40
0.0
 40
0.0
 40
0.0
 40
0.0
 40
1.0
 40
1.0
 40
1.0
 40
2.0
 40
2.0
 40
2.0
 40
3.0
 40
3.0
 40
3.0
 40
4.0
 40
4.0
 40
4.0
 40
5.0
 40
5.0
 40
5.0
 40
6.0
 40
6.0
 40
6.0
 40
7.0
 40
7.0
 40
7.0
 40
8.0
 40
8.0
 40
8.0
 40
9.0
 40
9.0
 40
9.0
 40
9.0
 10
302.1295246706624
 20
200.7128176120365
 30
0.0
 10
302.1295246706624
 20
200.7128176120365
 30
0.0
 10
302.1641874498468
 20
200.6787139099337
 30
0.0
 10
302.1641874498468
 20
200.6787139099337
 30
0.0
 10
302.1641874498468
 20
200.6787139099337
 30
0.0
 10
302.2670576332262
 20
200.4724144660927
 30
0.0
 10
302.2670576332262
 20
200.4724144660927
 30
0.0
 10
302.2670576332262
 20
200.4724144660927
 30
0.0
 10
302.3699278165957
 20
200.1632448388825
 30
0.0
 10
302.3699278165957
 20
200.1632448388825
 30
0.0
 10
302.5605731021051
 20
199.2650875041231
 30
0.0
 10
302.8071260959589
 20
198.3769935568668
 30
0.0
 10
303.0229298502212
 20
197.4841474543998
 30
0.0
 10
303.0229298502212
 20
197.4841474543998
 30
0.0
 10
303.2286702169701
 20
196.8314249593206
 30
0.0
 10
303.2286702169701
 20
196.8314249593206
 30
0.0
 10
303.2286702169701
 20
196.8314249593206
 30
0.0
 10
303.2974366982572
 20
196.5222553321101
 30
0.0
 10
303.2974366982572
 20
196.5222553321101
 30
0.0
 10
303.2974366982572
 20
196.5222553321101
 30
0.0
 10
303.3662031795341
 20
196.2130857048897
 30
0.0
 10
303.3662031795341
 20
196.2130857048897
 30
0.0
 10
303.3662031795341
 20
196.2130857048897
 30
0.0
 10
303.3662031795341
 20
195.9039160776792
 30
0.0
 10
303.3662031795341
 20
195.9039160776792
 30
0.0
 10
303.3388084024337
 20
195.6836397067419
 30
0.0
 10
303.4450330483141
 20
195.7247318723927
 30
0.0
 10
303.2286702169701
 20
195.5947464504485
 30
0.0
  0
LINE
  5
142
330
70
100
AcDbEntity
  8
shade
 62
     6
420
 16711935
370
    25
100
AcDbLine
 10
303.4690733629036
 20
195.6635129317357
 30
0.0
 11
303.5037361420879
 21
195.6635129317357
 31
0.0
  0
SPLINE
  5
143
330
70
100
AcDbEntity
  8
shade
 62
     6
420
 16711935
370
    25
100
AcDbSpline
210
0.0
220
0.0
230
1.0
 70
     8
 71
     3
 72
    23
 73
    19
 74
     0
 42
0.0000000001
 43
0.0000000001
 40
0.0
 40
0.0
 40
0.0
 40
0.0
 40
1.0
 40
1.0
 40
1.0
 40
2.0
 40
2.0
 40
2.0
 40
3.0
 40
3.0
 40
3.0
 40
4.0
 40
4.0
 40
4.0
 40
5.0
 40
5.0
 40
5.0
 40
6.0
 40
6.0
 40
6.0
 40
6.0
 10
305.3240911262061
 20
203.2890448131391
 30
0.0
 10
306.2292369245139
 20
202.6737804826633
 30
0.0
 10
306.8822389581188
 20
199.908585227317
 30
0.0
 10
307.0074722248421
 20
198.9265663300104
 30
0.0
 10
307.069529781117
 20
198.2425355182681
 30
0.0
 10
307.3328550874862
 20
196.8244364957825
 30
0.0
 10
307.1791088894988
 20
196.1443192236128
 30
0.0
 10
307.1791088894988
 20
196.1443192236128
 30
0.0
 10
307.1450051874062
 20
196.041449040233
 30
0.0
 10
307.1450051874062
 20
196.041449040233
 30
0.0
 10
307.1450051874062
 20
196.041449040233
 30
0.0
 10
307.0762387061293
 20
195.9726825589561
 30
0.0
 10
307.0762387061293
 20
195.9726825589561
 30
0.0
 10
307.0762387061293
 20
195.9726825589561
 30
0.0
 10
306.9728094456681
 20
195.9382993183177
 30
0.0
 10
306.9728094456681
 20
195.9382993183177
 30
0.0
 10
306.9728094456681
 20
195.9382993183177
 30
0.0
 10
306.7670690789089
 20
195.9382993183177
 30
0.0
 10
306.7670690789089
 20
195.9382993183177
 30
0.0
  0
SPLINE
  5
144
330
70
100
AcDbEntity
  8
shade
 62
     6
420
 16711935
370
    25
100
AcDbSpline
210
0.0
220
0.0
230
1.0
 70
     8
 71
     3
 72
    14
 73
    10
 74
     0
 42
0.0000000001
 43
0.0000000001
 40
0.0
 40
0.0
 40
0.0
 40
0.0
 40
1.0
 40
1.0
 40
1.0
 40
2.0
 40
2.0
 40
2.0
 40
3.0
 40
3.0
 40
3.0
 40
3.0
 10
305.6332607534166
 20
203.5982144403598
 30
0.0
 10
306.6552536622
 20
202.7143135712223
 30
0.0
 10
307.195881202004
 20
200.3533310472998
 30
0.0
 10
307.3854083333398
 20
199.0984825332027
 30
0.0
 10
307.4798923604716
 20
198.1435788744712
 30
0.0
 10
307.7303588939082
 20
197.1755369042613
 30
0.0
 10
307.6258114792833
 20
196.2130857048897
 30
0.0
 10
307.5246185271491
 20
195.7814781963751
 30
0.0
 10
307.39155818126
 20
195.5494612066892
 30
0.0
 10
306.9387057435652
 20
195.5262595077175
 30
0.0
  0
SPLINE
  5
145
330
70
100
AcDbEntity
  8
shade
 62
     6
420
 16711935
370
    25
100
AcDbSpline
210
0.0
220
0.0
230
1.0
 70
     8
 71
     3
 72
     8
 73
     4
 74
     0
 42
0.0000000001
 43
0.0000000001
 40
0.0
 40
0.0
 40
0.0
 40
0.0
 40
1.0
 40
1.0
 40
1.0
 40
1.0
 10
307.0074722248421
 20
200.8847338152284
 30
0.0
 10
307.3848492562579
 20
202.5289795180256
 30
0.0
 10
307.5911487000989
 20
204.3540866573445
 30
0.0
 10
308.449891100463
 20
205.8311683121497
 30
0.0
  0
SPLINE
  5
146
330
70
100
AcDbEntity
  8
shade
 62
     6
420
 16711935
370
    25
100
AcDbSpline
210
0.0
220
0.0
230
1.0
 70
     8
 71
     3
 72
    26
 73
    22
 74
     0
 42
0.0000000001
 43
0.0000000001
 40
0.0
 40
0.0
 40
0.0
 40
0.0
 40
1.0
 40
1.0
 40
1.0
 40
2.0
 40
2.0
 40
2.0
 40
3.0
 40
3.0
 40
3.0
 40
4.0
 40
4.0
 40
4.0
 40
5.0
 40
5.0
 40
5.0
 40
6.0
 40
6.0
 40
6.0
 40
7.0
 40
7.0
 40
7.0
 40
7.0
 10
310.098609419925
 20
205.7280185902241
 30
0.0
 10
310.098609419925
 20
205.7280185902241
 30
0.0
 10
310.2020386803862
 20
205.9340384955189
 30
0.0
 10
310.2020386803862
 20
205.9340384955189
 30
0.0
 10
310.2020386803862
 20
205.9340384955189
 30
0.0
 10
310.2020386803862
 20
206.071571458083
 30
0.0
 10
310.2020386803862
 20
206.071571458083
 30
0.0
 10
310.2020386803862
 20
206.071571458083
 30
0.0
 10
310.1673759012015
 20
206.1056751601858
 30
0.0
 10
310.1673759012015
 20
206.1056751601858
 30
0.0
 10
310.1673759012015
 20
206.1056751601858
 30
0.0
 10
310.098609419925
 20
206.2432081227499
 30
0.0
 10
310.098609419925
 20
206.2432081227499
 30
0.0
 10
310.098609419925
 20
206.2432081227499
 30
0.0
 10
310.0304020157296
 20
206.2775913633883
 30
0.0
 10
310.0304020157296
 20
206.2775913633883
 30
0.0
 10
309.7234686968465
 20
206.4612481853392
 30
0.0
 10
309.6653246801545
 20
206.2650121290017
 30
0.0
 10
309.4802701654941
 20
206.1400584008242
 30
0.0
 10
309.4662932383978
 20
205.9295658788545
 30
0.0
 10
309.4662932383978
 20
205.6729494974976
 30
0.0
 10
309.7553360906116
 20
205.6592521089472
 30
0.0
  0
SPLINE
  5
147
330
70
100
AcDbEntity
  8
shade
 62
     6
420
 16711935
370
    25
100
AcDbSpline
210
0.0
220
0.0
230
1.0
 70
     8
 71
     3
 72
    14
 73
    10
 74
     0
 42
0.0000000001
 43
0.0000000001
 40
0.0
 40
0.0
 40
0.0
 40
0.0
 40
1.0
 40
1.0
 40
1.0
 40
2.0
 40
2.0
 40
2.0
 40
3.0
 40
3.0
 40
3.0
 40
3.0
 10
309.5836994259553
 20
205.9684217361573
 30
0.0
 10
310.7499342222844
 20
203.8833437529808
 30
0.0
 10
310.2176928387178
 20
202.0870290834517
 30
0.0
 10
310.6140784909761
 20
199.8199715095593
 30
0.0
 10
310.752170530622
 20
198.9525634143913
 30
0.0
 10
310.8282050139928
 20
197.8900374170695
 30
0.0
 10
311.1295475620375
 20
197.0374448646153
 30
0.0
 10
311.2816165287695
 20
196.6321139790276
 30
0.0
 10
311.2273860516501
 20
196.461036391453
 30
0.0
 10
310.957351820289
 20
196.1787024642512
 30
0.0
  0
SPLINE
  5
148
330
70
100
AcDbEntity
  8
shade
 62
     6
420
 16711935
370
    25
100
AcDbSpline
210
0.0
220
0.0
230
1.0
 70
     8
 71
     3
 72
    29
 73
    25
 74
     0
 42
0.0000000001
 43
0.0000000001
 40
0.0
 40
0.0
 40
0.0
 40
0.0
 40
1.0
 40
1.0
 40
1.0
 40
2.0
 40
2.0
 40
2.0
 40
3.0
 40
3.0
 40
3.0
 40
4.0
 40
4.0
 40
4.0
 40
5.0
 40
5.0
 40
5.0
 40
6.0
 40
6.0
 40
6.0
 40
7.0
 40
7.0
 40
7.0
 40
8.0
 40
8.0
 40
8.0
 40
8.0
 10
309.7553360906116
 20
206.3463578446652
 30
0.0
 10
310.8846717994293
 20
204.6529133585159
 30
0.0
 10
311.0076687578152
 20
202.5854463034621
 30
0.0
 10
311.026118301566
 20
200.6099474286567
 30
0.0
 10
311.1821008078911
 20
199.5015771104737
 30
0.0
 10
311.3889593288136
 20
198.4435237298063
 30
0.0
 10
311.5756910747299
 20
197.3466144918358
 30
0.0
 10
311.5756910747299
 20
197.3466144918358
 30
0.0
 10
311.6103538539042
 20
197.0030616239769
 30
0.0
 10
311.6103538539042
 20
197.0030616239769
 30
0.0
 10
311.6103538539042
 20
197.0030616239769
 30
0.0
 10
311.6103538539042
 20
196.6938919967667
 30
0.0
 10
311.6103538539042
 20
196.6938919967667
 30
0.0
 10
311.6103538539042
 20
196.6938919967667
 30
0.0
 10
311.5415873726274
 20
196.3503391289075
 30
0.0
 10
311.5415873726274
 20
196.3503391289075
 30
0.0
 10
311.5415873726274
 20
196.3503391289075
 30
0.0
 10
311.5069245934533
 20
196.1787024642512
 30
0.0
 10
311.5069245934533
 20
196.1787024642512
 30
0.0
 10
311.5069245934533
 20
196.1787024642512
 30
0.0
 10
311.438717189248
 20
196.1099359829743
 30
0.0
 10
311.438717189248
 20
196.1099359829743
 30
0.0
 10
311.438717189248
 20
196.1099359829743
 30
0.0
 10
311.3699507079711
 20
196.0758322808715
 30
0.0
 10
311.3699507079711
 20
196.0758322808715
 30
0.0
  0
SPLINE
  5
149
330
70
100
AcDbEntity
  8
shade
 62
     6
420
 16711935
370
    25
100
AcDbSpline
210
0.0
220
0.0
230
1.0
 70
     8
 71
     3
 72
    56
 73
    52
 74
     0
 42
0.0000000001
 43
0.0000000001
 40
0.0
 40
0.0
 40
0.0
 40
0.0
 40
1.0
 40
1.0
 40
1.0
 40
2.0
 40
2.0
 40
2.0
 40
3.0
 40
3.0
 40
3.0
 40
4.0
 40
4.0
 40
4.0
 40
5.0
 40
5.0
 40
5.0
 40
6.0
 40
6.0
 40
6.0
 40
7.0
 40
7.0
 40
7.0
 40
8.0
 40
8.0
 40
8.0
 40
9.0
 40
9.0
 40
9.0
 40
10.0
 40
10.0
 40
10.0
 40
11.0
 40
11.0
 40
11.0
 40
12.0
 40
12.0
 40
12.0
 40
13.0
 40
13.0
 40
13.0
 40
14.0
 40
14.0
 40
14.0
 40
15.0
 40
15.0
 40
15.0
 40
16.0
 40
16.0
 40
16.0
 40
17.0
 40
17.0
 40
17.0
 40
17.0
 10
311.1977549662223
 20
196.6595087561283
 30
0.0
 10
311.1977549662223
 20
196.6595087561283
 30
0.0
 10
311.1636512641301
 20
196.6254050540254
 30
0.0
 10
311.1636512641301
 20
196.6254050540254
 30
0.0
 10
311.1636512641301
 20
196.6254050540254
 30
0.0
 10
311.0948847828532
 20
196.6254050540254
 30
0.0
 10
311.0948847828532
 20
196.6254050540254
 30
0.0
 10
311.0948847828532
 20
196.6254050540254
 30
0.0
 10
311.026118301566
 20
196.591021813387
 30
0.0
 10
311.026118301566
 20
196.591021813387
 30
0.0
 10
311.026118301566
 20
196.591021813387
 30
0.0
 10
310.9920145994734
 20
196.5222553321101
 30
0.0
 10
310.9920145994734
 20
196.5222553321101
 30
0.0
 10
310.9920145994734
 20
196.5222553321101
 30
0.0
 10
310.957351820289
 20
196.4878720914716
 30
0.0
 10
310.957351820289
 20
196.4878720914716
 30
0.0
 10
310.957351820289
 20
196.4878720914716
 30
0.0
 10
310.9232481181965
 20
196.4191056101845
 30
0.0
 10
310.9232481181965
 20
196.4191056101845
 30
0.0
 10
310.9070348827629
 20
196.084777514201
 30
0.0
 10
310.9567927432072
 20
196.1683595382019
 30
0.0
 10
311.0948847828532
 20
195.9726825589561
 30
0.0
 10
311.0948847828532
 20
195.9726825589561
 30
0.0
 10
311.1636512641301
 20
195.9382993183177
 30
0.0
 10
311.1636512641301
 20
195.9382993183177
 30
0.0
 10
311.1636512641301
 20
195.9382993183177
 30
0.0
 10
311.3699507079711
 20
195.9382993183177
 30
0.0
 10
311.3699507079711
 20
195.9382993183177
 30
0.0
 10
311.3699507079711
 20
195.9382993183177
 30
0.0
 10
311.438717189248
 20
195.9726825589561
 30
0.0
 10
311.438717189248
 20
195.9726825589561
 30
0.0
 10
311.438717189248
 20
195.9726825589561
 30
0.0
 10
311.4728208913505
 20
196.0070657995946
 30
0.0
 10
311.4728208913505
 20
196.0070657995946
 30
0.0
 10
311.4728208913505
 20
196.0070657995946
 30
0.0
 10
311.5415873726274
 20
196.041449040233
 30
0.0
 10
311.5415873726274
 20
196.041449040233
 30
0.0
 10
311.5415873726274
 20
196.041449040233
 30
0.0
 10
311.5756910747299
 20
196.0758322808715
 30
0.0
 10
311.5756910747299
 20
196.0758322808715
 30
0.0
 10
311.5756910747299
 20
196.0758322808715
 30
0.0
 10
311.5756910747299
 20
196.1443192236128
 30
0.0
 10
311.5756910747299
 20
196.1443192236128
 30
0.0
 10
311.5756910747299
 20
196.1443192236128
 30
0.0
 10
311.6103538539042
 20
196.2130857048897
 30
0.0
 10
311.6103538539042
 20
196.2130857048897
 30
0.0
 10
311.6103538539042
 20
196.2130857048897
 30
0.0
 10
311.6103538539042
 20
196.3503391289075
 30
0.0
 10
311.6103538539042
 20
196.3503391289075
 30
0.0
 10
311.6103538539042
 20
196.3503391289075
 30
0.0
 10
311.5756910747299
 20
196.4191056101845
 30
0.0
 10
311.5756910747299
 20
196.4191056101845
 30
0.0
  0
LWPOLYLINE
  5
14A
330
70
100
AcDbEntity
  8
shade
 62
     6
420
 16711935
370
    25
100
AcDbPolyline
 90
        8
 70
     0
 43
0.0
 10
312.2974595896121
 20
184.1906920997292
 10
312.4344334750943
 20
183.9502889537854
 10
312.6407329189353
 20
183.8127559912214
 10
312.9152397669713
 20
183.7442690484907
 10
313.1562019899865
 20
183.7783727505832
 10
313.39660513592
 20
183.9159057131473
 10
313.5335790214023
 20
184.1219256184523
 10
313.6023455026788
 20
184.396712005024
  0
LWPOLYLINE
  5
14B
330
70
100
AcDbEntity
  8
shade
 62
     6
420
 16711935
370
    25
100
AcDbPolyline
 90
       15
 70
     0
 43
0.0
 10
313.671111983966
 20
186.1829632870497
 10
313.6370082818635
 20
186.2173465276885
 10
313.4994753192994
 20
186.2173465276885
 10
313.4994753192994
 20
186.1829632870394
 10
313.4653716172072
 20
186.1485800464013
 10
313.4653716172072
 20
186.1141968057625
 10
313.4307088380122
 20
186.1141968057625
 10
313.4307088380122
 20
185.9769433817344
 10
313.4653716172072
 20
185.9425601410962
 10
313.4653716172072
 20
185.9081769004575
 10
313.4994753192994
 20
185.9081769004575
 10
313.5335790214023
 20
185.8737936598194
 10
313.6023455026788
 20
185.8737936598194
 10
313.6370082818635
 20
185.9081769004575
 10
313.6711119839663
 20
185.9081769004575
  0
SPLINE
  5
14C
330
70
100
AcDbEntity
  8
shade
 62
     6
420
 16711935
370
    25
100
AcDbSpline
210
0.0
220
0.0
230
1.0
 70
     8
 71
     3
 72
    23
 73
    19
 74
     0
 42
0.0000000001
 43
0.0000000001
 40
0.0
 40
0.0
 40
0.0
 40
0.0
 40
1.0
 40
1.0
 40
1.0
 40
2.0
 40
2.0
 40
2.0
 40
3.0
 40
3.0
 40
3.0
 40
4.0
 40
4.0
 40
4.0
 40
5.0
 40
5.0
 40
5.0
 40
6.0
 40
6.0
 40
6.0
 40
6.0
 10
310.889144416094
 20
203.1861746297596
 30
0.0
 10
311.3101294600233
 20
204.9249043596787
 30
0.0
 10
312.2074481791549
 20
206.4179197113614
 30
0.0
 10
312.6066292168325
 20
208.2354793100604
 30
0.0
 10
312.6066292168325
 20
208.2354793100604
 30
0.0
 10
312.8811360648685
 20
209.059838469786
 30
0.0
 10
312.8811360648685
 20
209.059838469786
 30
0.0
 10
312.8811360648685
 20
209.059838469786
 30
0.0
 10
313.0527727295252
 20
209.4721578189115
 30
0.0
 10
313.0527727295252
 20
209.4721578189115
 30
0.0
 10
313.0527727295252
 20
209.4721578189115
 30
0.0
 10
313.1562019899865
 20
209.6781777242272
 30
0.0
 10
313.1562019899865
 20
209.6781777242272
 30
0.0
 10
313.1562019899865
 20
209.6781777242272
 30
0.0
 10
313.2244093941815
 20
209.7469442055041
 30
0.0
 10
313.2244093941815
 20
209.7469442055041
 30
0.0
 10
313.2244093941815
 20
209.7469442055041
 30
0.0
 10
313.3619423567353
 20
209.7813274461425
 30
0.0
 10
313.3619423567353
 20
209.7813274461425
 30
0.0
  0
SPLINE
  5
14D
330
70
100
AcDbEntity
  8
shade
 62
     6
420
 16711935
370
    25
100
AcDbSpline
210
0.0
220
0.0
230
1.0
 70
     8
 71
     3
 72
     8
 73
     4
 74
     0
 42
0.0000000001
 43
0.0000000001
 40
0.0
 40
0.0
 40
0.0
 40
0.0
 40
1.0
 40
1.0
 40
1.0
 40
1.0
 10
310.957351820289
 20
202.0182626021748
 30
0.0
 10
311.4895932038454
 20
203.4584451694686
 30
0.0
 10
311.6343941684935
 20
204.558429331394
 30
0.0
 10
312.4003297730018
 20
206.071571458083
 30
0.0
  0
SPLINE
  5
14E
330
70
100
AcDbEntity
  8
shade
 62
     6
420
 16711935
370
    25
100
AcDbSpline
210
0.0
220
0.0
230
1.0
 70
     9
 71
     3
 72
    14
 73
    10
 74
     0
 42
0.0000000001
 43
0.0000000001
 40
0.0
 40
0.0
 40
0.0
 40
0.0
 40
1.0
 40
1.0
 40
1.0
 40
2.0
 40
2.0
 40
2.0
 40
3.0
 40
3.0
 40
3.0
 40
3.0
 10
302.0607581893855
 20
189.8239527938118
 30
0.0
 10
302.5622503333507
 20
189.7999124792124
 30
0.0
 10
302.6136854250405
 20
190.6600525722967
 30
0.0
 10
302.1295246706624
 20
190.7170784348147
 30
0.0
 10
301.8170005809407
 20
190.7567729077559
 30
0.0
 10
301.7845741101039
 20
190.5733956243403
 30
0.0
 10
301.6833811579697
 20
190.3391423263273
 30
0.0
 10
301.6515137642045
 20
190.1160705699814
 30
0.0
 10
301.8091735017748
 20
189.8178029458919
 30
0.0
 10
302.0607581893855
 20
189.8239527938118
 30
0.0
  0
SPLINE
  5
14F
330
70
100
AcDbEntity
  8
shade
 62
     6
420
 16711935
370
    25
100
AcDbSpline
210
0.0
220
0.0
230
1.0
 70
    11
 71
     3
 72
    77
 73
    73
 74
     0
 42
0.0000000001
 43
0.0000000001
 40
0.0
 40
0.0
 40
0.0
 40
0.0
 40
1.0
 40
1.0
 40
1.0
 40
2.0
 40
2.0
 40
2.0
 40
3.0
 40
3.0
 40
3.0
 40
4.0
 40
4.0
 40
4.0
 40
5.0
 40
5.0
 40
5.0
 40
6.0
 40
6.0
 40
6.0
 40
7.0
 40
7.0
 40
7.0
 40
8.0
 40
8.0
 40
8.0
 40
9.0
 40
9.0
 40
9.0
 40
10.0
 40
10.0
 40
10.0
 40
11.0
 40
11.0
 40
11.0
 40
12.0
 40
12.0
 40
12.0
 40
13.0
 40
13.0
 40
13.0
 40
14.0
 40
14.0
 40
14.0
 40
15.0
 40
15.0
 40
15.0
 40
16.0
 40
16.0
 40
16.0
 40
17.0
 40
17.0
 40
17.0
 40
18.0
 40
18.0
 40
18.0
 40
19.0
 40
19.0
 40
19.0
 40
20.0
 40
20.0
 40
20.0
 40
21.0
 40
21.0
 40
21.0
 40
22.0
 40
22.0
 40
22.0
 40
23.0
 40
23.0
 40
23.0
 40
24.0
 40
24.0
 40
24.0
 40
24.0
 10
305.0495842781701
 20
188.1064679930733
 30
0.0
 10
305.0495842781701
 20
188.1064679930733
 30
0.0
 10
305.118350759447
 20
188.1408512337115
 30
0.0
 10
305.118350759447
 20
188.1408512337115
 30
0.0
 10
305.118350759447
 20
188.1408512337115
 30
0.0
 10
305.1865581636421
 20
188.1408512337115
 30
0.0
 10
305.1865581636421
 20
188.1408512337115
 30
0.0
 10
305.1865581636421
 20
188.1408512337115
 30
0.0
 10
305.2553246449293
 20
188.2096177149986
 30
0.0
 10
305.2553246449293
 20
188.2096177149986
 30
0.0
 10
305.2553246449293
 20
188.2096177149986
 30
0.0
 10
305.3240911262061
 20
188.2440009556374
 30
0.0
 10
305.3240911262061
 20
188.2440009556374
 30
0.0
 10
305.3240911262061
 20
188.2440009556374
 30
0.0
 10
305.392857607483
 20
188.3812543796553
 30
0.0
 10
305.392857607483
 20
188.3812543796553
 30
0.0
 10
305.392857607483
 20
188.3812543796553
 30
0.0
 10
305.392857607483
 20
188.4500208609322
 30
0.0
 10
305.392857607483
 20
188.4500208609322
 30
0.0
 10
305.392857607483
 20
188.4500208609322
 30
0.0
 10
305.4275203866678
 20
188.5531705828479
 30
0.0
 10
305.4275203866678
 20
188.5531705828479
 30
0.0
 10
305.3811169887344
 20
188.7071963193713
 30
0.0
 10
305.314027738703
 20
188.9766714736604
 30
0.0
 10
305.0836879802627
 20
188.9652103934477
 30
0.0
 10
305.0836879802627
 20
188.9652103934477
 30
0.0
 10
304.9461550177089
 20
188.9652103934477
 30
0.0
 10
304.9461550177089
 20
188.9652103934477
 30
0.0
 10
304.9461550177089
 20
188.9652103934477
 30
0.0
 10
304.8779476135138
 20
188.9308271528096
 30
0.0
 10
304.8779476135138
 20
188.9308271528096
 30
0.0
 10
304.8779476135138
 20
188.9308271528096
 30
0.0
 10
304.8091811322369
 20
188.862340210068
 30
0.0
 10
304.8091811322369
 20
188.862340210068
 30
0.0
 10
304.8091811322369
 20
188.862340210068
 30
0.0
 10
304.7745183530522
 20
188.8279569694298
 30
0.0
 10
304.7745183530522
 20
188.8279569694298
 30
0.0
 10
304.7745183530522
 20
188.8279569694298
 30
0.0
 10
304.7057518717753
 20
188.7591904881427
 30
0.0
 10
304.7057518717753
 20
188.7591904881427
 30
0.0
 10
304.7057518717753
 20
188.7591904881427
 30
0.0
 10
304.7057518717753
 20
188.6904240068657
 30
0.0
 10
304.7057518717753
 20
188.6904240068657
 30
0.0
 10
304.7057518717753
 20
188.6904240068657
 30
0.0
 10
304.6716481696728
 20
188.587553823486
 30
0.0
 10
304.6716481696728
 20
188.587553823486
 30
0.0
 10
304.6716481696728
 20
188.587553823486
 30
0.0
 10
304.6716481696728
 20
188.5187873422091
 30
0.0
 10
304.6716481696728
 20
188.5187873422091
 30
0.0
 10
304.6716481696728
 20
188.5187873422091
 30
0.0
 10
304.7057518717753
 20
188.4500208609322
 30
0.0
 10
304.7057518717753
 20
188.4500208609322
 30
0.0
 10
304.7057518717753
 20
188.4500208609322
 30
0.0
 10
304.7057518717753
 20
188.3471506775627
 30
0.0
 10
304.7057518717753
 20
188.3471506775627
 30
0.0
 10
304.7057518717753
 20
188.3471506775627
 30
0.0
 10
304.7404146509497
 20
188.2783841962755
 30
0.0
 10
304.7404146509497
 20
188.2783841962755
 30
0.0
 10
304.7404146509497
 20
188.2783841962755
 30
0.0
 10
304.8091811322369
 20
188.2440009556374
 30
0.0
 10
304.8091811322369
 20
188.2440009556374
 30
0.0
 10
304.8091811322369
 20
188.2440009556374
 30
0.0
 10
304.8432848343291
 20
188.1752344743502
 30
0.0
 10
304.8432848343291
 20
188.1752344743502
 30
0.0
 10
304.8432848343291
 20
188.1752344743502
 30
0.0
 10
304.9120513156163
 20
188.1408512337115
 30
0.0
 10
304.9120513156163
 20
188.1408512337115
 30
0.0
 10
304.9120513156163
 20
188.1408512337115
 30
0.0
 10
304.9808177968932
 20
188.1408512337115
 30
0.0
 10
304.9808177968932
 20
188.1408512337115
 30
0.0
 10
304.9808177968932
 20
188.1408512337115
 30
0.0
 10
305.0495842781701
 20
188.1064679930733
 30
0.0
 10
305.0495842781701
 20
188.1064679930733
 30
0.0
  0
LWPOLYLINE
  5
150
330
70
100
AcDbEntity
  8
shade
 62
     6
420
 16711935
370
    25
100
AcDbPolyline
 90
       27
 70
     1
 43
0.0
 10
308.8965936902476
 20
186.423366432973
 10
308.9653601715245
 20
186.457749673622
 10
309.0341266528014
 20
186.457749673622
 10
309.1028931340783
 20
186.5265161548989
 10
309.1369968361811
 20
186.5608993955371
 10
309.1716596153552
 20
186.629665876814
 10
309.205763317458
 20
186.6637695789168
 10
309.205763317458
 20
186.9041727248504
 10
309.1716596153552
 20
186.9729392061272
 10
309.1369968361811
 20
187.0073224467654
 10
309.1028931340783
 20
187.0760889280526
 10
309.0682303548939
 20
187.1104721686914
 10
308.9306973923401
 20
187.1792386499683
 10
308.7937235068579
 20
187.1792386499683
 10
308.7590607276835
 20
187.1448554093295
 10
308.6902942463963
 20
187.1448554093295
 10
308.6561905442938
 20
187.0760889280526
 10
308.5874240630169
 20
187.0417056874042
 10
308.5533203609243
 20
186.9729392061272
 10
308.5533203609243
 20
186.9041727248504
 10
308.5186575817399
 20
186.8356857821088
 10
308.5533203609243
 20
186.7669193008318
 10
308.5533203609243
 20
186.698152819555
 10
308.6215277651194
 20
186.5608993955371
 10
308.6561905442938
 20
186.5265161548989
 10
308.7937235068579
 20
186.457749673622
 10
308.8278272089604
 20
186.423366432973
  0
LWPOLYLINE
  5
151
330
70
100
AcDbEntity
  8
shade
 62
     6
420
 16711935
370
    25
100
AcDbPolyline
 90
       14
 70
     0
 43
0.0
 10
302.9882670710265
 20
201.3655401071058
 10
302.7825267042879
 20
201.5715600124006
 10
302.5074607791598
 20
201.6403264936878
 10
302.2329539311237
 20
201.605943253039
 10
301.9925507851902
 20
201.4686898290311
 10
301.820355043452
 20
201.2282866830773
 10
301.7862513413492
 20
200.9532207579697
 10
304.5687779862931
 20
188.0720847524346
 10
304.7745183530522
 20
187.9348313284167
 10
305.0149214989858
 20
187.8660648471398
 10
305.2553246449293
 20
187.9004480877786
 10
305.4616240887702
 20
188.0720847524346
 10
305.5991570513241
 20
188.2783841962755
 10
305.5991570513241
 20
188.5187873422091
  0
ENDSEC
  0
SECTION
  2
OBJECTS
  0
DICTIONARY
  5
C
330
0
100
AcDbDictionary
281
     1
  3
ACAD_COLOR
350
63
  3
ACAD_DETAILVIEWSTYLE
350
6A
  3
ACAD_GROUP
350
D
  3
ACAD_LAYOUT
350
62
  3
ACAD_MATERIAL
350
10
  3
ACAD_MLEADERSTYLE
350
66
  3
ACAD_MLINESTYLE
350
5F
  3
ACAD_PLOTSETTINGS
350
61
  3
ACAD_PLOTSTYLENAME
350
E
  3
ACAD_SCALELIST
350
42
  3
ACAD_SECTIONVIEWSTYLE
350
68
  3
ACAD_TABLESTYLE
350
64
  3
ACAD_VISUALSTYLE
350
29
  3
ACDB_RECOMPOSE_DATA
350
15A
  3
AcDbVariableDictionary
350
152
  0
DICTIONARY
  5
63
102
{ACAD_REACTORS
330
C
102
}
330
C
100
AcDbDictionary
281
     1
  0
DICTIONARY
  5
6A
102
{ACAD_REACTORS
330
C
102
}
330
C
100
AcDbDictionary
281
     1
  3
Imperial24
350
6B
  0
DICTIONARY
  5
D
102
{ACAD_REACTORS
330
C
102
}
330
C
100
AcDbDictionary
281
     1
  0
DICTIONARY
  5
62
102
{ACAD_REACTORS
330
C
102
}
330
C
100
AcDbDictionary
281
     1
  3
Layout1
350
6F
  3
Layout2
350
77
  3
Model
350
73
  0
DICTIONARY
  5
10
102
{ACAD_REACTORS
330
C
102
}
330
C
100
AcDbDictionary
281
     1
  3
ByBlock
350
19
  3
ByLayer
350
11
  3
Global
350
21
  0
DICTIONARY
  5
66
102
{ACAD_REACTORS
330
C
102
}
330
C
100
AcDbDictionary
281
     1
  3
Standard
350
67
  0
DICTIONARY
  5
5F
102
{ACAD_REACTORS
330
C
102
}
330
C
100
AcDbDictionary
281
     1
  3
Standard
350
60
  0
DICTIONARY
  5
61
102
{ACAD_REACTORS
330
C
102
}
330
C
100
AcDbDictionary
281
     1
  0
ACDBDICTIONARYWDFLT
  5
E
102
{ACAD_REACTORS
330
C
102
}
330
C
100
AcDbDictionary
281
     1
  3
Normal
350
F
100
AcDbDictionaryWithDefault
340
F
  0
DICTIONARY
  5
42
102
{ACAD_REACTORS
330
C
102
}
330
C
100
AcDbDictionary
281
     1
  3
A0
350
43
  3
A1
350
44
  3
A2
350
45
  3
A3
350
46
  3
A4
350
47
  3
A5
350
48
  3
A6
350
49
  3
A7
350
4A
  3
A8
350
4B
  3
A9
350
4C
  3
B0
350
4D
  3
B1
350
4E
  3
B2
350
4F
  3
B3
350
50
  3
B4
350
51
  3
B5
350
52
  3
B6
350
53
  0
DICTIONARY
  5
68
102
{ACAD_REACTORS
330
C
102
}
330
C
100
AcDbDictionary
281
     1
  3
Imperial24
350
69
  0
DICTIONARY
  5
64
102
{ACAD_REACTORS
330
C
102
}
330
C
100
AcDbDictionary
281
     1
  3
Standard
350
65
  0
DICTIONARY
  5
29
102
{ACAD_REACTORS
330
C
102
}
330
C
100
AcDbDictionary
281
     1
  3
2dWireframe
350
2F
  3
Basic
350
2E
  3
Brighten
350
35
  3
ColorChange
350
39
  3
Conceptual
350
32
  3
Dim
350
34
  3
EdgeColorOff
350
41
  3
Facepattern
350
38
  3
Flat
350
2A
  3
FlatWithEdges
350
2B
  3
Gouraud
350
2C
  3
GouraudWithEdges
350
2D
  3
Hidden
350
31
  3
JitterOff
350
3F
  3
Linepattern
350
37
  3
OverhangOff
350
40
  3
Realistic
350
33
  3
Shaded
350
3E
  3
Shaded with edges
350
3D
  3
Shades of Gray
350
3A
  3
Sketchy
350
3B
  3
Thicken
350
36
  3
Wireframe
350
30
  3
X-Ray
350
3C
  0
XRECORD
  5
15A
102
{ACAD_REACTORS
330
C
102
}
330
C
100
AcDbXrecord
280
     1
 90
        1
330
65
  0
DICTIONARY
  5
152
102
{ACAD_REACTORS
330
C
102
}
330
C
100
AcDbDictionary
281
     1
  3
CANNOSCALE
350
157
  3
CMLEADERSTYLE
350
154
  3
CTABLESTYLE
350
153
  3
CVIEWDETAILSTYLE
350
155
  3
CVIEWSECTIONSTYLE
350
156
  0
ACDBDETAILVIEWSTYLE
  5
6B
102
{ACAD_REACTORS
330
6A
102
}
330
6A
100
AcDbModelDocViewStyle
 70
     0
  3
Imperial24
290
     1
300
Imperial24
 90
        0
100
AcDbDetailViewStyle
 70
     0
 71
     0
 90
        3
 71
     1
340
55
 62
   256
 40
0.24
340
0
 62
   256
 40
0.24
300

 40
0.36
280
     3
 71
     2
340
5D
 90
       25
 62
   256
 71
     3
340
55
 62
   256
 40
0.24
 90
        1
 40
0.75
 90
        1
300
%<\AcVar ViewType \f "%tc1">% %<\AcVar ViewDetailId>%\PSCALE %<\AcVar ViewScale \f "%sn">%
 71
     4
340
5D
 90
       25
 62
   256
340
5D
 90
       25
 62
   256
280
     0
  0
LAYOUT
  5
6F
102
{ACAD_REACTORS
330
62
102
}
330
62
100
AcDbPlotSettings
  1

  2

  4

  6

 40
0.0
 41
0.0
 42
0.0
 43
0.0
 44
0.0
 45
0.0
 46
0.0
 47
0.0
 48
0.0
 49
0.0
140
0.0
141
0.0
142
1.0
143
1.0
 70
   688
 72
     0
 73
     0
 74
     5
  7

 75
    16
147
1.0
 76
     0
 77
     2
 78
   300
148
0.0
149
0.0
100
AcDbLayout
  1
Layout1
 70
     1
 71
     1
 10
0.0
 20
0.0
 11
12.0
 21
9.0
 12
0.0
 22
0.0
 32
0.0
 14
0.0
 24
0.0
 34
0.0
 15
0.0
 25
0.0
 35
0.0
146
0.0
 13
0.0
 23
0.0
 33
0.0
 16
1.0
 26
0.0
 36
0.0
 17
0.0
 27
1.0
 37
0.0
 76
     0
330
6C
  0
LAYOUT
  5
77
102
{ACAD_REACTORS
330
62
102
}
330
62
100
AcDbPlotSettings
  1

  2

  4

  6

 40
0.0
 41
0.0
 42
0.0
 43
0.0
 44
0.0
 45
0.0
 46
0.0
 47
0.0
 48
0.0
 49
0.0
140
0.0
141
0.0
142
1.0
143
1.0
 70
   688
 72
     0
 73
     0
 74
     5
  7

 75
    16
147
1.0
 76
     0
 77
     2
 78
   300
148
0.0
149
0.0
100
AcDbLayout
  1
Layout2
 70
     1
 71
     2
 10
0.0
 20
0.0
 11
12.0
 21
9.0
 12
0.0
 22
0.0
 32
0.0
 14
0.0
 24
0.0
 34
0.0
 15
0.0
 25
0.0
 35
0.0
146
0.0
 13
0.0
 23
0.0
 33
0.0
 16
1.0
 26
0.0
 36
0.0
 17
0.0
 27
1.0
 37
0.0
 76
     0
330
74
  0
LAYOUT
  5
73
102
{ACAD_REACTORS
330
62
102
}
330
62
100
AcDbPlotSettings
  1

  2

  4

  6

 40
0.0
 41
0.0
 42
0.0
 43
0.0
 44
0.0
 45
0.0
 46
0.0
 47
0.0
 48
0.0
 49
0.0
140
0.0
141
0.0
142
1.0
143
1.0
 70
  1712
 72
     0
 73
     0
 74
     0
  7

 75
     0
147
1.0
 76
     0
 77
     2
 78
   300
148
0.0
149
0.0
100
AcDbLayout
  1
Model
 70
     1
 71
     0
 10
0.0
 20
0.0
 11
12.0
 21
9.0
 12
0.0
 22
0.0
 32
0.0
 14
0.0
 24
0.0
 34
0.0
 15
0.0
 25
0.0
 35
0.0
146
0.0
 13
0.0
 23
0.0
 33
0.0
 16
1.0
 26
0.0
 36
0.0
 17
0.0
 27
1.0
 37
0.0
 76
     0
330
70
  0
MATERIAL
  5
19
102
{ACAD_XDICTIONARY
360
1A
102
}
102
{ACAD_REACTORS
330
10
102
}
330
10
100
AcDbMaterial
  1
ByBlock
 72
     0
 43
0.0208333333333333
 43
0.0
 43
0.0
 43
0.0
 43
0.0
 43
0.0208333333333333
 43
0.0
 43
0.0
 43
0.0
 43
0.0
 43
1.0
 43
0.0
 43
0.0
 43
0.0
 43
0.0
 43
1.0
 77
     0
 47
0.0208333333333333
 47
0.0
 47
0.0
 47
0.0
 47
0.0
 47
0.0208333333333333
 47
0.0
 47
0.0
 47
0.0
 47
0.0
 47
1.0
 47
0.0
 47
0.0
 47
0.0
 47
0.0
 47
1.0
171
     0
 49
0.0208333333333333
 49
0.0
 49
0.0
 49
0.0
 49
0.0
 49
0.0208333333333333
 49
0.0
 49
0.0
 49
0.0
 49
0.0
 49
1.0
 49
0.0
 49
0.0
 49
0.0
 49
0.0
 49
1.0
175
     0
142
0.0208333333333333
142
0.0
142
0.0
142
0.0
142
0.0
142
0.0208333333333333
142
0.0
142
0.0
142
0.0
142
0.0
142
1.0
142
0.0
142
0.0
142
0.0
142
0.0
142
1.0
179
     0
144
0.0208333333333333
144
0.0
144
0.0
144
0.0
144
0.0
144
0.0208333333333333
144
0.0
144
0.0
144
0.0
144
0.0
144
1.0
144
0.0
144
0.0
144
0.0
144
0.0
144
1.0
147
0.0208333333333333
147
0.0
147
0.0
147
0.0
147
0.0
147
0.0208333333333333
147
0.0
147
0.0
147
0.0
147
0.0
147
1.0
147
0.0
147
0.0
147
0.0
147
0.0
147
1.0
  0
MATERIAL
  5
11
102
{ACAD_XDICTIONARY
360
12
102
}
102
{ACAD_REACTORS
330
10
102
}
330
10
100
AcDbMaterial
  1
ByLayer
 72
     0
 43
0.0208333333333333
 43
0.0
 43
0.0
 43
0.0
 43
0.0
 43
0.0208333333333333
 43
0.0
 43
0.0
 43
0.0
 43
0.0
 43
1.0
 43
0.0
 43
0.0
 43
0.0
 43
0.0
 43
1.0
 77
     0
 47
0.0208333333333333
 47
0.0
 47
0.0
 47
0.0
 47
0.0
 47
0.0208333333333333
 47
0.0
 47
0.0
 47
0.0
 47
0.0
 47
1.0
 47
0.0
 47
0.0
 47
0.0
 47
0.0
 47
1.0
171
     0
 49
0.0208333333333333
 49
0.0
 49
0.0
 49
0.0
 49
0.0
 49
0.0208333333333333
 49
0.0
 49
0.0
 49
0.0
 49
0.0
 49
1.0
 49
0.0
 49
0.0
 49
0.0
 49
0.0
 49
1.0
175
     0
142
0.0208333333333333
142
0.0
142
0.0
142
0.0
142
0.0
142
0.0208333333333333
142
0.0
142
0.0
142
0.0
142
0.0
142
1.0
142
0.0
142
0.0
142
0.0
142
0.0
142
1.0
179
     0
144
0.0208333333333333
144
0.0
144
0.0
144
0.0
144
0.0
144
0.0208333333333333
144
0.0
144
0.0
144
0.0
144
0.0
144
1.0
144
0.0
144
0.0
144
0.0
144
0.0
144
1.0
147
0.0208333333333333
147
0.0
147
0.0
147
0.0
147
0.0
147
0.0208333333333333
147
0.0
147
0.0
147
0.0
147
0.0
147
1.0
147
0.0
147
0.0
147
0.0
147
0.0
147
1.0
  0
MATERIAL
  5
21
102
{ACAD_XDICTIONARY
360
22
102
}
102
{ACAD_REACTORS
330
10
102
}
330
10
100
AcDbMaterial
  1
Global
 72
     0
 43
0.0208333333333333
 43
0.0
 43
0.0
 43
0.0
 43
0.0
 43
0.0208333333333333
 43
0.0
 43
0.0
 43
0.0
 43
0.0
 43
1.0
 43
0.0
 43
0.0
 43
0.0
 43
0.0
 43
1.0
 77
     0
 47
0.0208333333333333
 47
0.0
 47
0.0
 47
0.0
 47
0.0
 47
0.0208333333333333
 47
0.0
 47
0.0
 47
0.0
 47
0.0
 47
1.0
 47
0.0
 47
0.0
 47
0.0
 47
0.0
 47
1.0
171
     0
 49
0.0208333333333333
 49
0.0
 49
0.0
 49
0.0
 49
0.0
 49
0.0208333333333333
 49
0.0
 49
0.0
 49
0.0
 49
0.0
 49
1.0
 49
0.0
 49
0.0
 49
0.0
 49
0.0
 49
1.0
175
     0
142
0.0208333333333333
142
0.0
142
0.0
142
0.0
142
0.0
142
0.0208333333333333
142
0.0
142
0.0
142
0.0
142
0.0
142
1.0
142
0.0
142
0.0
142
0.0
142
0.0
142
1.0
179
     0
144
0.0208333333333333
144
0.0
144
0.0
144
0.0
144
0.0
144
0.0208333333333333
144
0.0
144
0.0
144
0.0
144
0.0
144
1.0
144
0.0
144
0.0
144
0.0
144
0.0
144
1.0
147
0.0208333333333333
147
0.0
147
0.0
147
0.0
147
0.0
147
0.0208333333333333
147
0.0
147
0.0
147
0.0
147
0.0
147
1.0
147
0.0
147
0.0
147
0.0
147
0.0
147
1.0
  0
MLEADERSTYLE
  5
67
102
{ACAD_REACTORS
330
66
102
}
330
66
100
AcDbMLeaderStyle
179
     2
170
     2
171
     1
172
     0
 90
        2
 40
0.0
 41
0.0
173
     1
 91
-1056964608
340
5B
 92
       -2
290
     1
 42
0.09
291
     1
 43
0.36
  3
Standard
 44
0.18
300

342
55
174
     1
178
     6
175
     1
176
     0
 93
-1056964608
 45
0.18
292
     0
297
     0
 46
0.18
 94
-1056964608
 47
1.0
 49
1.0
140
1.0
293
     1
141
0.0
294
     1
177
     0
142
1.0
295
     1
296
     0
143
0.125
271
     0
272
     9
273
     9
298
     1
  0
MLINESTYLE
  5
60
102
{ACAD_REACTORS
330
5F
102
}
330
5F
100
AcDbMlineStyle
  2
STANDARD
 70
     0
  3

 62
   256
 51
90.0
 52
90.0
 71
     2
 49
0.5
 62
   256
  6
BYLAYER
 49
-0.5
 62
   256
  6
BYLAYER
  0
ACDBPLACEHOLDER
  5
F
102
{ACAD_REACTORS
330
E
102
}
330
E
  0
SCALE
  5
43
102
{ACAD_REACTORS
330
42
102
}
330
42
100
AcDbScale
 70
     0
300
1:1
140
1.0
141
1.0
290
     1
  0
SCALE
  5
44
102
{ACAD_REACTORS
330
42
102
}
330
42
100
AcDbScale
 70
     0
300
1/128" = 1'-0"
140
0.0078125
141
12.0
290
     0
  0
SCALE
  5
45
102
{ACAD_REACTORS
330
42
102
}
330
42
100
AcDbScale
 70
     0
300
1/64" = 1'-0"
140
0.015625
141
12.0
290
     0
  0
SCALE
  5
46
102
{ACAD_REACTORS
330
42
102
}
330
42
100
AcDbScale
 70
     0
300
1/32" = 1'-0"
140
0.03125
141
12.0
290
     0
  0
SCALE
  5
47
102
{ACAD_REACTORS
330
42
102
}
330
42
100
AcDbScale
 70
     0
300
1/16" = 1'-0"
140
0.0625
141
12.0
290
     0
  0
SCALE
  5
48
102
{ACAD_REACTORS
330
42
102
}
330
42
100
AcDbScale
 70
     0
300
3/32" = 1'-0"
140
0.09375
141
12.0
290
     0
  0
SCALE
  5
49
102
{ACAD_REACTORS
330
42
102
}
330
42
100
AcDbScale
 70
     0
300
1/8" = 1'-0"
140
0.125
141
12.0
290
     0
  0
SCALE
  5
4A
102
{ACAD_REACTORS
330
42
102
}
330
42
100
AcDbScale
 70
     0
300
3/16" = 1'-0"
140
0.1875
141
12.0
290
     0
  0
SCALE
  5
4B
102
{ACAD_REACTORS
330
42
102
}
330
42
100
AcDbScale
 70
     0
300
1/4" = 1'-0"
140
0.25
141
12.0
290
     0
  0
SCALE
  5
4C
102
{ACAD_REACTORS
330
42
102
}
330
42
100
AcDbScale
 70
     0
300
3/8" = 1'-0"
140
0.375
141
12.0
290
     0
  0
SCALE
  5
4D
102
{ACAD_REACTORS
330
42
102
}
330
42
100
AcDbScale
 70
     0
300
1/2" = 1'-0"
140
0.5
141
12.0
290
     0
  0
SCALE
  5
4E
102
{ACAD_REACTORS
330
42
102
}
330
42
100
AcDbScale
 70
     0
300
3/4" = 1'-0"
140
0.75
141
12.0
290
     0
  0
SCALE
  5
4F
102
{ACAD_REACTORS
330
42
102
}
330
42
100
AcDbScale
 70
     0
300
1" = 1'-0"
140
1.0
141
12.0
290
     0
  0
SCALE
  5
50
102
{ACAD_REACTORS
330
42
102
}
330
42
100
AcDbScale
 70
     0
300
1-1/2" = 1'-0"
140
1.5
141
12.0
290
     0
  0
SCALE
  5
51
102
{ACAD_REACTORS
330
42
102
}
330
42
100
AcDbScale
 70
     0
300
3" = 1'-0"
140
3.0
141
12.0
290
     0
  0
SCALE
  5
52
102
{ACAD_REACTORS
330
42
102
}
330
42
100
AcDbScale
 70
     0
300
6" = 1'-0"
140
6.0
141
12.0
290
     0
  0
SCALE
  5
53
102
{ACAD_REACTORS
330
42
102
}
330
42
100
AcDbScale
 70
     0
300
1'-0" = 1'-0"
140
12.0
141
12.0
290
     0
  0
ACDBSECTIONVIEWSTYLE
  5
69
102
{ACAD_REACTORS
330
68
102
}
330
68
100
AcDbModelDocViewStyle
 70
     0
  3
Imperial24
290
     1
300
Imperial24
 90
        0
100
AcDbSectionViewStyle
 70
     0
 71
     0
 90
       78
 71
     1
340
55
 62
   256
 40
0.24
340
0
340
0
 62
   256
 40
0.24
300
I, O, Q, S, X, Z
 40
0.48
 90
        3
 40
0.18
 90
        1
 71
     2
340
5D
 90
       25
 62
   256
340
5D
 90
       50
 62
   256
 40
0.24
 40
0.0
 40
0.24
 71
     3
340
55
 62
   256
 40
0.24
 90
        1
 40
0.75
 90
        1
300
%<\AcVar ViewType \f "%tc1">% %<\AcVar ViewSectionStartId>%-%<\AcVar ViewSectionEndId>%\PSCALE %<\AcVar ViewScale \f "%sn">%
 71
     4
 62
   256
 62
   257
300
ANSI31
 40
1.0
 90
        0
290
     0
290
     0
 90
        6
 40
0.0
 40
1.570796326794896
 40
0.2617993877991494
 40
1.308996938995747
 40
-0.2617993877991494
 40
1.832595714594046
  0
TABLESTYLE
  5
65
102
{ACAD_XDICTIONARY
360
158
102
}
102
{ACAD_REACTORS
330
64
102
}
330
64
100
AcDbTableStyle
280
     0
  3
Standard
 70
     0
 71
     0
 40
0.06
 41
0.06
280
     0
281
     0
  7
Standard
140
0.18
170
     2
 62
     0
 63
     7
283
     0
 90
      512
 91
        0
  1

274
    -2
284
     1
 64
     0
275
    -2
285
     1
 65
     0
276
    -2
286
     1
 66
     0
277
    -2
287
     1
 67
     0
278
    -2
288
     1
 68
     0
279
    -2
289
     1
 69
     0
  7
Standard
140
0.25
170
     5
 62
     0
 63
     7
283
     0
 90
      512
 91
        0
  1

274
    -2
284
     1
 64
     0
275
    -2
285
     1
 65
     0
276
    -2
286
     1
 66
     0
277
    -2
287
     1
 67
     0
278
    -2
288
     1
 68
     0
279
    -2
289
     1
 69
     0
  7
Standard
140
0.18
170
     5
 62
     0
 63
     7
283
     0
 90
      512
 91
        0
  1

274
    -2
284
     1
 64
     0
275
    -2
285
     1
 65
     0
276
    -2
286
     1
 66
     0
277
    -2
287
     1
 67
     0
278
    -2
288
     1
 68
     0
279
    -2
289
     1
 69
     0
  0
VISUALSTYLE
  5
2F
102
{ACAD_REACTORS
330
29
102
}
330
29
100
AcDbVisualStyle
  2
2dWireframe
 70
     4
177
     3
291
     0
 70
    58
 90
        0
176
     1
 90
        2
176
     1
 90
        0
176
     1
 90
        0
176
     1
 40
0.6
176
     1
 40
30.0
176
     1
 62
     7
420
 16777215
176
     1
 90
        1
176
     1
 90
        4
176
     1
 62
     7
176
     1
 62
   257
176
     1
 90
        1
176
     1
 90
        1
176
     1
 40
1.0
176
     1
 90
        0
176
     1
 62
   257
176
     1
 40
1.0
176
     1
 90
        1
176
     1
 90
        6
176
     1
 90
        2
176
     1
 62
     7
176
     1
 90
        5
176
     1
 90
        0
176
     1
 90
        0
176
     1
290
     0
176
     1
 90
        1
176
     1
 40
0.0
176
     1
 90
        0
176
     1
290
     1
176
     1
290
     1
176
     1
290
     0
176
     1
290
     0
176
     1
290
     0
176
     1
290
     0
176
     1
290
     0
176
     1
290
     0
176
     1
290
     0
176
     1
 90
       50
176
     1
 40
0.0
176
     1
 40
1.0
176
     1
 90
        0
176
     1
 62
    18
420
        0
176
     1
 90
       50
176
     1
 90
        3
176
     1
 62
     5
420
      255
176
     1
290
     0
176
     1
 90
       50
176
     1
 90
       50
176
     1
 90
       50
176
     1
290
     0
176
     1
 90
       50
176
     1
 62
   256
176
     0
 40
1.0
176
     0
 90
        2
176
     1
  1
strokes_ogs.tif
176
     1
290
     0
176
     1
 40
1.0
176
     1
 40
1.0
176
     1
  0
VISUALSTYLE
  5
2E
102
{ACAD_REACTORS
330
29
102
}
330
29
100
AcDbVisualStyle
  2
Basic
 70
     7
177
     3
291
     1
 70
    58
 90
        1
176
     1
 90
        0
176
     1
 90
        1
176
     1
 90
        0
176
     1
 40
0.6
176
     1
 40
30.0
176
     1
 62
     7
420
 16777215
176
     1
 90
        0
176
     1
 90
        4
176
     1
 62
     7
176
     1
 62
   257
176
     1
 90
        1
176
     1
 90
        1
176
     1
 40
1.0
176
     1
 90
        8
176
     1
 62
     7
176
     1
 40
1.0
176
     1
 90
        1
176
     1
 90
        6
176
     1
 90
        2
176
     1
 62
     7
176
     1
 90
        5
176
     1
 90
        0
176
     1
 90
        0
176
     1
290
     0
176
     1
 90
        1
176
     1
 40
0.0
176
     1
 90
        0
176
     1
290
     0
176
     1
290
     1
176
     1
290
     1
176
     1
290
     0
176
     1
290
     0
176
     1
290
     0
176
     1
290
     0
176
     1
290
     0
176
     1
290
     0
176
     1
 90
       50
176
     1
 40
0.0
176
     1
 40
1.0
176
     1
 90
        0
176
     1
 62
    18
420
        0
176
     1
 90
       50
176
     1
 90
        3
176
     1
 62
     5
420
      255
176
     1
290
     0
176
     1
 90
       50
176
     1
 90
       50
176
     1
 90
       50
176
     1
290
     0
176
     1
 90
       50
176
     1
 62
   256
176
     0
 40
1.0
176
     0
 90
        2
176
     1
  1
strokes_ogs.tif
176
     1
290
     0
176
     1
 40
1.0
176
     1
 40
1.0
176
     1
  0
VISUALSTYLE
  5
35
102
{ACAD_REACTORS
330
29
102
}
330
29
100
AcDbVisualStyle
  2
Brighten
 70
    12
177
     3
291
     1
 70
    58
 90
        2
176
     1
 90
        2
176
     1
 90
        0
176
     1
 90
        0
176
     1
 40
0.6
176
     1
 40
30.0
176
     1
 62
     7
420
 16777215
176
     1
 90
        1
176
     1
 90
        4
176
     1
 62
     7
176
     1
 62
   257
176
     1
 90
        1
176
     1
 90
        1
176
     1
 40
1.0
176
     1
 90
        8
176
     1
 62
     7
176
     1
 40
1.0
176
     1
 90
        1
176
     1
 90
        6
176
     1
 90
        2
176
     1
 62
     7
176
     1
 90
        5
176
     1
 90
        0
176
     1
 90
        0
176
     1
290
     0
176
     1
 90
        1
176
     1
 40
50.0
176
     1
 90
        0
176
     1
290
     0
176
     1
290
     1
176
     1
290
     1
176
     1
290
     0
176
     1
290
     0
176
     1
290
     0
176
     1
290
     0
176
     1
290
     0
176
     1
290
     0
176
     1
 90
       50
176
     1
 40
0.0
176
     1
 40
1.0
176
     1
 90
        0
176
     1
 62
    18
420
        0
176
     1
 90
       50
176
     1
 90
        3
176
     1
 62
     5
420
      255
176
     1
290
     0
176
     1
 90
       50
176
     1
 90
       50
176
     1
 90
       50
176
     1
290
     0
176
     1
 90
       50
176
     1
 62
   256
176
     0
 40
1.0
176
     0
 90
        2
176
     1
  1
strokes_ogs.tif
176
     1
290
     0
176
     1
 40
1.0
176
     1
 40
1.0
176
     1
  0
VISUALSTYLE
  5
39
102
{ACAD_REACTORS
330
29
102
}
330
29
100
AcDbVisualStyle
  2
ColorChange
 70
    16
177
     3
291
     1
 70
    58
 90
        2
176
     1
 90
        2
176
     1
 90
        3
176
     1
 90
        0
176
     1
 40
0.6
176
     1
 40
30.0
176
     1
 62
     8
420
  8421504
176
     1
 90
        1
176
     1
 90
        4
176
     1
 62
     7
176
     1
 62
   257
176
     1
 90
        1
176
     1
 90
        1
176
     1
 40
1.0
176
     1
 90
        8
176
     1
 62
     8
420
  8421504
176
     1
 40
1.0
176
     1
 90
        1
176
     1
 90
        6
176
     1
 90
        2
176
     1
 62
     7
176
     1
 90
        5
176
     1
 90
        0
176
     1
 90
        0
176
     1
290
     0
176
     1
 90
        1
176
     1
 40
0.0
176
     1
 90
        0
176
     1
290
     0
176
     1
290
     1
176
     1
290
     1
176
     1
290
     0
176
     1
290
     0
176
     1
290
     0
176
     1
290
     0
176
     1
290
     0
176
     1
290
     0
176
     1
 90
       50
176
     1
 40
0.0
176
     1
 40
1.0
176
     1
 90
        0
176
     1
 62
    18
420
        0
176
     1
 90
       50
176
     1
 90
        3
176
     1
 62
     5
420
      255
176
     1
290
     0
176
     1
 90
       50
176
     1
 90
       50
176
     1
 90
       50
176
     1
290
     0
176
     1
 90
       50
176
     1
 62
   256
176
     0
 40
1.0
176
     0
 90
        2
176
     1
  1
strokes_ogs.tif
176
     1
290
     0
176
     1
 40
1.0
176
     1
 40
1.0
176
     1
  0
VISUALSTYLE
  5
32
102
{ACAD_REACTORS
330
29
102
}
330
29
100
AcDbVisualStyle
  2
Conceptual
 70
     9
177
     3
291
     0
 70
    58
 90
        3
176
     1
 90
        2
176
     1
 90
        0
176
     1
 90
        0
176
     1
 40
0.6
176
     1
 40
30.0
176
     1
 62
     7
420
 16777215
176
     1
 90
        2
176
     1
 90
        2
176
     1
 62
     7
176
     1
 62
   257
176
     1
 90
        1
176
     1
 90
        1
176
     1
 40
179.0
176
     1
 90
        8
176
     1
 62
     7
176
     1
 40
1.0
176
     1
 90
        1
176
     1
 90
        6
176
     1
 90
        2
176
     1
 62
     7
176
     1
 90
        3
176
     1
 90
        0
176
     1
 90
        0
176
     1
290
     0
176
     1
 90
        1
176
     1
 40
0.0
176
     1
 90
        0
176
     1
290
     0
176
     1
290
     1
176
     1
290
     1
176
     1
290
     0
176
     1
290
     0
176
     1
290
     0
176
     1
290
     0
176
     1
290
     0
176
     1
290
     0
176
     1
 90
       50
176
     1
 40
0.0
176
     1
 40
1.0
176
     1
 90
        0
176
     1
 62
    18
420
        0
176
     1
 90
       50
176
     1
 90
        3
176
     1
 62
     5
420
      255
176
     1
290
     0
176
     1
 90
       50
176
     1
 90
       50
176
     1
 90
       50
176
     1
290
     0
176
     1
 90
       50
176
     1
 62
   256
176
     0
 40
1.0
176
     0
 90
        2
176
     1
  1
strokes_ogs.tif
176
     1
290
     0
176
     1
 40
1.0
176
     1
 40
1.0
176
     1
  0
VISUALSTYLE
  5
34
102
{ACAD_REACTORS
330
29
102
}
330
29
100
AcDbVisualStyle
  2
Dim
 70
    11
177
     3
291
     1
 70
    58
 90
        2
176
     1
 90
        2
176
     1
 90
        0
176
     1
 90
        0
176
     1
 40
0.6
176
     1
 40
30.0
176
     1
 62
     7
420
 16777215
176
     1
 90
        1
176
     1
 90
        4
176
     1
 62
     7
176
     1
 62
   257
176
     1
 90
        1
176
     1
 90
        1
176
     1
 40
1.0
176
     1
 90
        8
176
     1
 62
     7
176
     1
 40
1.0
176
     1
 90
        1
176
     1
 90
        6
176
     1
 90
        2
176
     1
 62
     7
176
     1
 90
        5
176
     1
 90
        0
176
     1
 90
        0
176
     1
290
     0
176
     1
 90
        1
176
     1
 40
-50.0
176
     1
 90
        0
176
     1
290
     0
176
     1
290
     1
176
     1
290
     1
176
     1
290
     0
176
     1
290
     0
176
     1
290
     0
176
     1
290
     0
176
     1
290
     0
176
     1
290
     0
176
     1
 90
       50
176
     1
 40
0.0
176
     1
 40
1.0
176
     1
 90
        0
176
     1
 62
    18
420
        0
176
     1
 90
       50
176
     1
 90
        3
176
     1
 62
     5
420
      255
176
     1
290
     0
176
     1
 90
       50
176
     1
 90
       50
176
     1
 90
       50
176
     1
290
     0
176
     1
 90
       50
176
     1
 62
   256
176
     0
 40
1.0
176
     0
 90
        2
176
     1
  1
strokes_ogs.tif
176
     1
290
     0
176
     1
 40
1.0
176
     1
 40
1.0
176
     1
  0
VISUALSTYLE
  5
41
102
{ACAD_REACTORS
330
29
102
}
330
29
100
AcDbVisualStyle
  2
EdgeColorOff
 70
    22
177
     3
291
     1
 70
    58
 90
        2
176
     0
 90
        2
176
     0
 90
        0
176
     0
 90
        0
176
     0
 40
0.6
176
     0
 40
30.0
176
     0
 62
     7
420
 16777215
176
     0
 90
        1
176
     0
 90
        4
176
     0
 62
     7
176
     0
 62
   257
176
     0
 90
        1
176
     0
 90
        1
176
     0
 40
1.0
176
     0
 90
        8
176
     2
 62
     7
176
     0
 40
1.0
176
     0
 90
        1
176
     0
 90
        6
176
     0
 90
        2
176
     0
 62
     7
176
     0
 90
        5
176
     0
 90
        0
176
     0
 90
        0
176
     0
290
     0
176
     0
 90
        1
176
     0
 40
0.0
176
     0
 90
        0
176
     0
290
     0
176
     0
290
     1
176
     0
290
     1
176
     0
290
     0
176
     0
290
     0
176
     0
290
     0
176
     0
290
     0
176
     0
290
     0
176
     0
290
     0
176
     0
 90
       50
176
     0
 40
0.0
176
     0
 40
1.0
176
     0
 90
        0
176
     0
 62
    18
420
        0
176
     0
 90
       50
176
     0
 90
        3
176
     0
 62
     5
420
      255
176
     0
290
     0
176
     0
 90
       50
176
     0
 90
       50
176
     0
 90
       50
176
     0
290
     0
176
     0
 90
       50
176
     0
 62
   256
176
     0
 40
1.0
176
     0
 90
        2
176
     0
  1
strokes_ogs.tif
176
     0
290
     0
176
     0
 40
1.0
176
     0
 40
1.0
176
     0
  0
VISUALSTYLE
  5
38
102
{ACAD_REACTORS
330
29
102
}
330
29
100
AcDbVisualStyle
  2
Facepattern
 70
    15
177
     3
291
     1
 70
    58
 90
        2
176
     1
 90
        2
176
     1
 90
        0
176
     1
 90
        0
176
     1
 40
0.6
176
     1
 40
30.0
176
     1
 62
     7
420
 16777215
176
     1
 90
        1
176
     1
 90
        4
176
     1
 62
     7
176
     1
 62
   257
176
     1
 90
        1
176
     1
 90
        1
176
     1
 40
1.0
176
     1
 90
        8
176
     1
 62
     7
176
     1
 40
1.0
176
     1
 90
        1
176
     1
 90
        6
176
     1
 90
        2
176
     1
 62
     7
176
     1
 90
        5
176
     1
 90
        0
176
     1
 90
        0
176
     1
290
     0
176
     1
 90
        1
176
     1
 40
0.0
176
     1
 90
        0
176
     1
290
     0
176
     1
290
     1
176
     1
290
     1
176
     1
290
     0
176
     1
290
     0
176
     1
290
     0
176
     1
290
     0
176
     1
290
     0
176
     1
290
     0
176
     1
 90
       50
176
     1
 40
0.0
176
     1
 40
1.0
176
     1
 90
        0
176
     1
 62
    18
420
        0
176
     1
 90
       50
176
     1
 90
        3
176
     1
 62
     5
420
      255
176
     1
290
     0
176
     1
 90
       50
176
     1
 90
       50
176
     1
 90
       50
176
     1
290
     0
176
     1
 90
       50
176
     1
 62
   256
176
     0
 40
1.0
176
     0
 90
        2
176
     1
  1
strokes_ogs.tif
176
     1
290
     0
176
     1
 40
1.0
176
     1
 40
1.0
176
     1
  0
VISUALSTYLE
  5
2A
102
{ACAD_REACTORS
330
29
102
}
330
29
100
AcDbVisualStyle
  2
Flat
 70
     0
177
     3
291
     1
 70
    58
 90
        2
176
     1
 90
        1
176
     1
 90
        1
176
     1
 90
        2
176
     1
 40
0.6
176
     1
 40
30.0
176
     1
 62
     7
420
 16777215
176
     1
 90
        0
176
     1
 90
        0
176
     1
 62
     7
176
     1
 62
   257
176
     1
 90
        1
176
     1
 90
        1
176
     1
 40
1.0
176
     1
 90
        8
176
     1
 62
     7
176
     1
 40
1.0
176
     1
 90
        1
176
     1
 90
        6
176
     1
 90
        2
176
     1
 62
     7
176
     1
 90
        5
176
     1
 90
        0
176
     1
 90
        0
176
     1
290
     0
176
     1
 90
       13
176
     1
 40
0.0
176
     1
 90
        0
176
     1
290
     0
176
     1
290
     1
176
     1
290
     1
176
     1
290
     0
176
     1
290
     0
176
     1
290
     0
176
     1
290
     0
176
     1
290
     0
176
     1
290
     0
176
     1
 90
       50
176
     1
 40
0.0
176
     1
 40
1.0
176
     1
 90
        0
176
     1
 62
    18
420
        0
176
     1
 90
       50
176
     1
 90
        3
176
     1
 62
     5
420
      255
176
     1
290
     0
176
     1
 90
       50
176
     1
 90
       50
176
     1
 90
       50
176
     1
290
     0
176
     1
 90
       50
176
     1
 62
   256
176
     0
 40
1.0
176
     0
 90
        2
176
     1
  1
strokes_ogs.tif
176
     1
290
     0
176
     1
 40
1.0
176
     1
 40
1.0
176
     1
  0
VISUALSTYLE
  5
2B
102
{ACAD_REACTORS
330
29
102
}
330
29
100
AcDbVisualStyle
  2
FlatWithEdges
 70
     1
177
     3
291
     1
 70
    58
 90
        2
176
     1
 90
        1
176
     1
 90
        1
176
     1
 90
        2
176
     1
 40
0.6
176
     1
 40
30.0
176
     1
 62
     7
420
 16777215
176
     1
 90
        1
176
     1
 90
        0
176
     1
 62
     7
176
     1
 62
   257
176
     1
 90
        1
176
     1
 90
        1
176
     1
 40
1.0
176
     1
 90
        0
176
     1
 62
   257
176
     1
 40
1.0
176
     1
 90
        1
176
     1
 90
        6
176
     1
 90
        2
176
     1
 62
     7
176
     1
 90
        5
176
     1
 90
        0
176
     1
 90
        0
176
     1
290
     0
176
     1
 90
       13
176
     1
 40
0.0
176
     1
 90
        0
176
     1
290
     0
176
     1
290
     1
176
     1
290
     1
176
     1
290
     0
176
     1
290
     0
176
     1
290
     0
176
     1
290
     0
176
     1
290
     0
176
     1
290
     0
176
     1
 90
       50
176
     1
 40
0.0
176
     1
 40
1.0
176
     1
 90
        0
176
     1
 62
    18
420
        0
176
     1
 90
       50
176
     1
 90
        3
176
     1
 62
     5
420
      255
176
     1
290
     0
176
     1
 90
       50
176
     1
 90
       50
176
     1
 90
       50
176
     1
290
     0
176
     1
 90
       50
176
     1
 62
   256
176
     0
 40
1.0
176
     0
 90
        2
176
     1
  1
strokes_ogs.tif
176
     1
290
     0
176
     1
 40
1.0
176
     1
 40
1.0
176
     1
  0
VISUALSTYLE
  5
2C
102
{ACAD_REACTORS
330
29
102
}
330
29
100
AcDbVisualStyle
  2
Gouraud
 70
     2
177
     3
291
     1
 70
    58
 90
        2
176
     1
 90
        2
176
     1
 90
        1
176
     1
 90
        2
176
     1
 40
0.6
176
     1
 40
30.0
176
     1
 62
     7
420
 16777215
176
     1
 90
        0
176
     1
 90
        0
176
     1
 62
     7
176
     1
 62
   257
176
     1
 90
        1
176
     1
 90
        1
176
     1
 40
1.0
176
     1
 90
        0
176
     1
 62
     7
176
     1
 40
1.0
176
     1
 90
        1
176
     1
 90
        6
176
     1
 90
        2
176
     1
 62
     7
176
     1
 90
        5
176
     1
 90
        0
176
     1
 90
        0
176
     1
290
     0
176
     1
 90
       13
176
     1
 40
0.0
176
     1
 90
        0
176
     1
290
     0
176
     1
290
     1
176
     1
290
     1
176
     1
290
     0
176
     1
290
     0
176
     1
290
     0
176
     1
290
     0
176
     1
290
     0
176
     1
290
     0
176
     1
 90
       50
176
     1
 40
0.0
176
     1
 40
1.0
176
     1
 90
        0
176
     1
 62
    18
420
        0
176
     1
 90
       50
176
     1
 90
        3
176
     1
 62
     5
420
      255
176
     1
290
     0
176
     1
 90
       50
176
     1
 90
       50
176
     1
 90
       50
176
     1
290
     0
176
     1
 90
       50
176
     1
 62
   256
176
     0
 40
1.0
176
     0
 90
        2
176
     1
  1
strokes_ogs.tif
176
     1
290
     0
176
     1
 40
1.0
176
     1
 40
1.0
176
     1
  0
VISUALSTYLE
  5
2D
102
{ACAD_REACTORS
330
29
102
}
330
29
100
AcDbVisualStyle
  2
GouraudWithEdges
 70
     3
177
     3
291
     1
 70
    58
 90
        2
176
     1
 90
        2
176
     1
 90
        1
176
     1
 90
        2
176
     1
 40
0.6
176
     1
 40
30.0
176
     1
 62
     7
420
 16777215
176
     1
 90
        1
176
     1
 90
        0
176
     1
 62
     7
176
     1
 62
   257
176
     1
 90
        1
176
     1
 90
        1
176
     1
 40
1.0
176
     1
 90
        0
176
     1
 62
   257
176
     1
 40
1.0
176
     1
 90
        1
176
     1
 90
        6
176
     1
 90
        2
176
     1
 62
     7
176
     1
 90
        5
176
     1
 90
        0
176
     1
 90
        0
176
     1
290
     0
176
     1
 90
       13
176
     1
 40
0.0
176
     1
 90
        0
176
     1
290
     0
176
     1
290
     1
176
     1
290
     1
176
     1
290
     0
176
     1
290
     0
176
     1
290
     0
176
     1
290
     0
176
     1
290
     0
176
     1
290
     0
176
     1
 90
       50
176
     1
 40
0.0
176
     1
 40
1.0
176
     1
 90
        0
176
     1
 62
    18
420
        0
176
     1
 90
       50
176
     1
 90
        3
176
     1
 62
     5
420
      255
176
     1
290
     0
176
     1
 90
       50
176
     1
 90
       50
176
     1
 90
       50
176
     1
290
     0
176
     1
 90
       50
176
     1
 62
   256
176
     0
 40
1.0
176
     0
 90
        2
176
     1
  1
strokes_ogs.tif
176
     1
290
     0
176
     1
 40
1.0
176
     1
 40
1.0
176
     1
  0
VISUALSTYLE
  5
31
102
{ACAD_REACTORS
330
29
102
}
330
29
100
AcDbVisualStyle
  2
Hidden
 70
     6
177
     3
291
     0
 70
    58
 90
        1
176
     1
 90
        2
176
     1
 90
        2
176
     1
 90
        0
176
     1
 40
0.6
176
     1
 40
30.0
176
     1
 62
     7
420
 16777215
176
     1
 90
        2
176
     1
 90
        2
176
     1
 62
     7
176
     1
 62
   257
176
     1
 90
        2
176
     1
 90
        1
176
     1
 40
40.0
176
     1
 90
        0
176
     1
 62
   257
176
     1
 40
1.0
176
     1
 90
        1
176
     1
 90
        6
176
     1
 90
        2
176
     1
 62
     7
176
     1
 90
        3
176
     1
 90
        0
176
     1
 90
        0
176
     1
290
     0
176
     1
 90
        1
176
     1
 40
0.0
176
     1
 90
        0
176
     1
290
     0
176
     1
290
     1
176
     1
290
     1
176
     1
290
     0
176
     1
290
     0
176
     1
290
     0
176
     1
290
     0
176
     1
290
     0
176
     1
290
     0
176
     1
 90
       50
176
     1
 40
0.0
176
     1
 40
1.0
176
     1
 90
        0
176
     1
 62
    18
420
        0
176
     1
 90
       50
176
     1
 90
        3
176
     1
 62
     5
420
      255
176
     1
290
     0
176
     1
 90
       50
176
     1
 90
       50
176
     1
 90
       50
176
     1
290
     0
176
     1
 90
       50
176
     1
 62
   256
176
     0
 40
1.0
176
     0
 90
        2
176
     1
  1
strokes_ogs.tif
176
     1
290
     0
176
     1
 40
1.0
176
     1
 40
1.0
176
     1
  0
VISUALSTYLE
  5
3F
102
{ACAD_REACTORS
330
29
102
}
330
29
100
AcDbVisualStyle
  2
JitterOff
 70
    20
177
     3
291
     1
 70
    58
 90
        2
176
     0
 90
        2
176
     0
 90
        0
176
     0
 90
        0
176
     0
 40
0.6
176
     0
 40
30.0
176
     0
 62
     7
420
 16777215
176
     0
 90
        1
176
     0
 90
        4
176
     0
 62
     7
176
     0
 62
   257
176
     0
 90
        1
176
     0
 90
        1
176
     0
 40
1.0
176
     0
 90
       10
176
     2
 62
     7
176
     0
 40
1.0
176
     0
 90
        1
176
     0
 90
        6
176
     0
 90
        2
176
     0
 62
     7
176
     0
 90
        5
176
     0
 90
        0
176
     0
 90
        0
176
     0
290
     0
176
     0
 90
        1
176
     0
 40
0.0
176
     0
 90
        0
176
     0
290
     0
176
     0
290
     1
176
     0
290
     1
176
     0
290
     0
176
     0
290
     0
176
     0
290
     0
176
     0
290
     0
176
     0
290
     0
176
     0
290
     0
176
     0
 90
       50
176
     0
 40
0.0
176
     0
 40
1.0
176
     0
 90
        0
176
     0
 62
    18
420
        0
176
     0
 90
       50
176
     0
 90
        3
176
     0
 62
     5
420
      255
176
     0
290
     0
176
     0
 90
       50
176
     0
 90
       50
176
     0
 90
       50
176
     0
290
     0
176
     0
 90
       50
176
     0
 62
   256
176
     0
 40
1.0
176
     0
 90
        2
176
     0
  1
strokes_ogs.tif
176
     0
290
     0
176
     0
 40
1.0
176
     0
 40
1.0
176
     0
  0
VISUALSTYLE
  5
37
102
{ACAD_REACTORS
330
29
102
}
330
29
100
AcDbVisualStyle
  2
Linepattern
 70
    14
177
     3
291
     1
 70
    58
 90
        2
176
     1
 90
        2
176
     1
 90
        0
176
     1
 90
        0
176
     1
 40
0.6
176
     1
 40
30.0
176
     1
 62
     7
420
 16777215
176
     1
 90
        1
176
     1
 90
        4
176
     1
 62
     7
176
     1
 62
   257
176
     1
 90
        7
176
     1
 90
        7
176
     1
 40
1.0
176
     1
 90
        8
176
     1
 62
     7
176
     1
 40
1.0
176
     1
 90
        1
176
     1
 90
        6
176
     1
 90
        2
176
     1
 62
     7
176
     1
 90
        5
176
     1
 90
        0
176
     1
 90
        0
176
     1
290
     0
176
     1
 90
        1
176
     1
 40
0.0
176
     1
 90
        0
176
     1
290
     0
176
     1
290
     1
176
     1
290
     1
176
     1
290
     0
176
     1
290
     0
176
     1
290
     0
176
     1
290
     0
176
     1
290
     0
176
     1
290
     0
176
     1
 90
       50
176
     1
 40
0.0
176
     1
 40
1.0
176
     1
 90
        0
176
     1
 62
    18
420
        0
176
     1
 90
       50
176
     1
 90
        3
176
     1
 62
     5
420
      255
176
     1
290
     0
176
     1
 90
       50
176
     1
 90
       50
176
     1
 90
       50
176
     1
290
     0
176
     1
 90
       50
176
     1
 62
   256
176
     0
 40
1.0
176
     0
 90
        2
176
     1
  1
strokes_ogs.tif
176
     1
290
     0
176
     1
 40
1.0
176
     1
 40
1.0
176
     1
  0
VISUALSTYLE
  5
40
102
{ACAD_REACTORS
330
29
102
}
330
29
100
AcDbVisualStyle
  2
OverhangOff
 70
    21
177
     3
291
     1
 70
    58
 90
        2
176
     0
 90
        2
176
     0
 90
        0
176
     0
 90
        0
176
     0
 40
0.6
176
     0
 40
30.0
176
     0
 62
     7
420
 16777215
176
     0
 90
        1
176
     0
 90
        4
176
     0
 62
     7
176
     0
 62
   257
176
     0
 90
        1
176
     0
 90
        1
176
     0
 40
1.0
176
     0
 90
        9
176
     2
 62
     7
176
     0
 40
1.0
176
     0
 90
        1
176
     0
 90
        6
176
     0
 90
        2
176
     0
 62
     7
176
     0
 90
        5
176
     0
 90
        0
176
     0
 90
        0
176
     0
290
     0
176
     0
 90
        1
176
     0
 40
0.0
176
     0
 90
        0
176
     0
290
     0
176
     0
290
     1
176
     0
290
     1
176
     0
290
     0
176
     0
290
     0
176
     0
290
     0
176
     0
290
     0
176
     0
290
     0
176
     0
290
     0
176
     0
 90
       50
176
     0
 40
0.0
176
     0
 40
1.0
176
     0
 90
        0
176
     0
 62
    18
420
        0
176
     0
 90
       50
176
     0
 90
        3
176
     0
 62
     5
420
      255
176
     0
290
     0
176
     0
 90
       50
176
     0
 90
       50
176
     0
 90
       50
176
     0
290
     0
176
     0
 90
       50
176
     0
 62
   256
176
     0
 40
1.0
176
     0
 90
        2
176
     0
  1
strokes_ogs.tif
176
     0
290
     0
176
     0
 40
1.0
176
     0
 40
1.0
176
     0
  0
VISUALSTYLE
  5
33
102
{ACAD_REACTORS
330
29
102
}
330
29
100
AcDbVisualStyle
  2
Realistic
 70
     8
177
     3
291
     0
 70
    58
 90
        2
176
     1
 90
        3
176
     1
 90
        0
176
     1
 90
        2
176
     1
 40
0.6
176
     1
 40
30.0
176
     1
 62
     7
420
 16777215
176
     1
 90
        0
176
     1
 90
        0
176
     1
 62
     7
176
     1
 62
   257
176
     1
 90
        1
176
     1
 90
        1
176
     1
 40
1.0
176
     1
 90
        8
176
     1
 62
   257
176
     1
 40
1.0
176
     1
 90
        1
176
     1
 90
        6
176
     1
 90
        2
176
     1
 62
     7
176
     1
 90
        3
176
     1
 90
        0
176
     1
 90
        0
176
     1
290
     0
176
     1
 90
       13
176
     1
 40
0.0
176
     1
 90
        0
176
     1
290
     0
176
     1
290
     1
176
     1
290
     1
176
     1
290
     0
176
     1
290
     0
176
     1
290
     0
176
     1
290
     0
176
     1
290
     0
176
     1
290
     0
176
     1
 90
       50
176
     1
 40
0.0
176
     1
 40
1.0
176
     1
 90
        0
176
     1
 62
    18
420
        0
176
     1
 90
       50
176
     1
 90
        3
176
     1
 62
     5
420
      255
176
     1
290
     0
176
     1
 90
       50
176
     1
 90
       50
176
     1
 90
       50
176
     1
290
     0
176
     1
 90
       50
176
     1
 62
   256
176
     0
 40
1.0
176
     0
 90
        2
176
     1
  1
strokes_ogs.tif
176
     1
290
     0
176
     1
 40
1.0
176
     1
 40
1.0
176
     1
  0
VISUALSTYLE
  5
3E
102
{ACAD_REACTORS
330
29
102
}
330
29
100
AcDbVisualStyle
  2
Shaded
 70
    27
177
     3
291
     0
 70
    58
 90
        2
176
     1
 90
        2
176
     1
 90
        1
176
     1
 90
        2
176
     1
 40
0.6
176
     1
 40
30.0
176
     1
 62
     7
420
 16777215
176
     1
 90
        0
176
     1
 90
        4
176
     1
 62
     7
176
     1
 62
   257
176
     1
 90
        1
176
     1
 90
        1
176
     1
 40
1.0
176
     1
 90
        8
176
     1
 62
   257
176
     1
 40
1.0
176
     1
 90
        1
176
     1
 90
        6
176
     1
 90
        2
176
     1
 62
     8
420
  7895160
176
     1
 90
        3
176
     1
 90
        0
176
     1
 90
        0
176
     1
290
     0
176
     1
 90
        5
176
     1
 40
0.0
176
     1
 90
        0
176
     1
290
     0
176
     1
290
     1
176
     1
290
     1
176
     1
290
     0
176
     1
290
     0
176
     1
290
     0
176
     1
290
     0
176
     1
290
     0
176
     1
290
     0
176
     1
 90
       50
176
     1
 40
0.0
176
     1
 40
1.0
176
     1
 90
        0
176
     1
 62
    18
420
        0
176
     1
 90
       50
176
     1
 90
        3
176
     1
 62
     5
420
      255
176
     1
290
     0
176
     1
 90
       50
176
     1
 90
       50
176
     1
 90
       50
176
     1
290
     0
176
     1
 90
       50
176
     1
 62
   256
176
     0
 40
1.0
176
     0
 90
        2
176
     1
  1
strokes_ogs.tif
176
     1
290
     0
176
     1
 40
1.0
176
     1
 40
1.0
176
     1
  0
VISUALSTYLE
  5
3D
102
{ACAD_REACTORS
330
29
102
}
330
29
100
AcDbVisualStyle
  2
Shaded with edges
 70
    26
177
     3
291
     0
 70
    58
 90
        2
176
     1
 90
        2
176
     1
 90
        1
176
     1
 90
        2
176
     1
 40
0.6
176
     1
 40
30.0
176
     1
 62
     7
420
 16777215
176
     1
 90
        1
176
     1
 90
        2
176
     1
 62
     7
176
     1
 62
   257
176
     1
 90
        2
176
     1
 90
        1
176
     1
 40
1.0
176
     1
 90
        8
176
     1
 62
   257
176
     1
 40
1.0
176
     1
 90
        1
176
     1
 90
        6
176
     1
 90
        2
176
     1
 62
     7
176
     1
 90
        3
176
     1
 90
        0
176
     1
 90
        0
176
     1
290
     0
176
     1
 90
        5
176
     1
 40
0.0
176
     1
 90
        0
176
     1
290
     0
176
     1
290
     1
176
     1
290
     1
176
     1
290
     0
176
     1
290
     0
176
     1
290
     0
176
     1
290
     0
176
     1
290
     0
176
     1
290
     0
176
     1
 90
       50
176
     1
 40
0.0
176
     1
 40
1.0
176
     1
 90
        0
176
     1
 62
    18
420
        0
176
     1
 90
       50
176
     1
 90
        3
176
     1
 62
     5
420
      255
176
     1
290
     0
176
     1
 90
       50
176
     1
 90
       50
176
     1
 90
       50
176
     1
290
     0
176
     1
 90
       50
176
     1
 62
   256
176
     0
 40
1.0
176
     0
 90
        2
176
     1
  1
strokes_ogs.tif
176
     1
290
     0
176
     1
 40
1.0
176
     1
 40
1.0
176
     1
  0
VISUALSTYLE
  5
3A
102
{ACAD_REACTORS
330
29
102
}
330
29
100
AcDbVisualStyle
  2
Shades of Gray
 70
    23
177
     3
291
     0
 70
    58
 90
        2
176
     1
 90
        2
176
     1
 90
        3
176
     1
 90
        0
176
     1
 40
0.6
176
     1
 40
30.0
176
     1
 62
     7
420
 16777215
176
     1
 90
        2
176
     1
 90
        2
176
     1
 62
     7
176
     1
 62
     7
176
     1
 90
        1
176
     1
 90
        1
176
     1
 40
40.0
176
     1
 90
        8
176
     1
 62
     7
176
     1
 40
1.0
176
     1
 90
        1
176
     1
 90
        6
176
     1
 90
        2
176
     1
 62
     7
176
     1
 90
        3
176
     1
 90
        0
176
     1
 90
        0
176
     1
290
     0
176
     1
 90
        1
176
     1
 40
0.0
176
     1
 90
        0
176
     1
290
     0
176
     1
290
     1
176
     1
290
     1
176
     1
290
     0
176
     1
290
     0
176
     1
290
     0
176
     1
290
     0
176
     1
290
     0
176
     1
290
     0
176
     1
 90
       50
176
     1
 40
0.0
176
     1
 40
1.0
176
     1
 90
        0
176
     1
 62
    18
420
        0
176
     1
 90
       50
176
     1
 90
        3
176
     1
 62
     5
420
      255
176
     1
290
     0
176
     1
 90
       50
176
     1
 90
       50
176
     1
 90
       50
176
     1
290
     0
176
     1
 90
       50
176
     1
 62
   256
176
     0
 40
1.0
176
     0
 90
        2
176
     1
  1
strokes_ogs.tif
176
     1
290
     0
176
     1
 40
1.0
176
     1
 40
1.0
176
     1
  0
VISUALSTYLE
  5
3B
102
{ACAD_REACTORS
330
29
102
}
330
29
100
AcDbVisualStyle
  2
Sketchy
 70
    24
177
     3
291
     0
 70
    58
 90
        1
176
     1
 90
        2
176
     1
 90
        2
176
     1
 90
        0
176
     1
 40
0.6
176
     1
 40
30.0
176
     1
 62
     7
420
 16777215
176
     1
 90
        2
176
     1
 90
        2
176
     1
 62
     7
176
     1
 62
     7
176
     1
 90
        1
176
     1
 90
        1
176
     1
 40
40.0
176
     1
 90
       11
176
     1
 62
     7
176
     1
 40
1.0
176
     1
 90
        1
176
     1
 90
        6
176
     1
 90
        2
176
     1
 62
     7
176
     1
 90
        6
176
     1
 90
        0
176
     1
 90
        0
176
     1
290
     0
176
     1
 90
        1
176
     1
 40
0.0
176
     1
 90
        0
176
     1
290
     0
176
     1
290
     1
176
     1
290
     1
176
     1
290
     0
176
     1
290
     0
176
     1
290
     0
176
     1
290
     0
176
     1
290
     0
176
     1
290
     0
176
     1
 90
       50
176
     1
 40
0.0
176
     1
 40
1.0
176
     1
 90
        0
176
     1
 62
    18
420
        0
176
     1
 90
       50
176
     1
 90
        3
176
     1
 62
     5
420
      255
176
     1
290
     0
176
     1
 90
       50
176
     1
 90
       50
176
     1
 90
       50
176
     1
290
     0
176
     1
 90
       50
176
     1
 62
   256
176
     0
 40
1.0
176
     0
 90
        2
176
     1
  1
strokes_ogs.tif
176
     1
290
     0
176
     1
 40
1.0
176
     1
 40
1.0
176
     1
  0
VISUALSTYLE
  5
36
102
{ACAD_REACTORS
330
29
102
}
330
29
100
AcDbVisualStyle
  2
Thicken
 70
    13
177
     3
291
     1
 70
    58
 90
        2
176
     1
 90
        2
176
     1
 90
        0
176
     1
 90
        0
176
     1
 40
0.6
176
     1
 40
30.0
176
     1
 62
     7
420
 16777215
176
     1
 90
        1
176
     1
 90
        4
176
     1
 62
     7
176
     1
 62
   257
176
     1
 90
        1
176
     1
 90
        1
176
     1
 40
1.0
176
     1
 90
       12
176
     1
 62
     7
176
     1
 40
1.0
176
     1
 90
        1
176
     1
 90
        6
176
     1
 90
        2
176
     1
 62
     7
176
     1
 90
        5
176
     1
 90
        0
176
     1
 90
        0
176
     1
290
     0
176
     1
 90
        1
176
     1
 40
0.0
176
     1
 90
        0
176
     1
290
     0
176
     1
290
     1
176
     1
290
     1
176
     1
290
     0
176
     1
290
     0
176
     1
290
     0
176
     1
290
     0
176
     1
290
     0
176
     1
290
     0
176
     1
 90
       50
176
     1
 40
0.0
176
     1
 40
1.0
176
     1
 90
        0
176
     1
 62
    18
420
        0
176
     1
 90
       50
176
     1
 90
        3
176
     1
 62
     5
420
      255
176
     1
290
     0
176
     1
 90
       50
176
     1
 90
       50
176
     1
 90
       50
176
     1
290
     0
176
     1
 90
       50
176
     1
 62
   256
176
     0
 40
1.0
176
     0
 90
        2
176
     1
  1
strokes_ogs.tif
176
     1
290
     0
176
     1
 40
1.0
176
     1
 40
1.0
176
     1
  0
VISUALSTYLE
  5
30
102
{ACAD_REACTORS
330
29
102
}
330
29
100
AcDbVisualStyle
  2
Wireframe
 70
     5
177
     3
291
     0
 70
    58
 90
        0
176
     1
 90
        2
176
     1
 90
        0
176
     1
 90
        0
176
     1
 40
0.6
176
     1
 40
30.0
176
     1
 62
     7
420
 16777215
176
     1
 90
        1
176
     1
 90
        4
176
     1
 62
     7
176
     1
 62
   257
176
     1
 90
        1
176
     1
 90
        1
176
     1
 40
1.0
176
     1
 90
        0
176
     1
 62
   257
176
     1
 40
1.0
176
     1
 90
        1
176
     1
 90
        6
176
     1
 90
        2
176
     1
 62
     7
176
     1
 90
        3
176
     1
 90
        0
176
     1
 90
        0
176
     1
290
     0
176
     1
 90
        1
176
     1
 40
0.0
176
     1
 90
        0
176
     1
290
     0
176
     1
290
     1
176
     1
290
     1
176
     1
290
     0
176
     1
290
     0
176
     1
290
     0
176
     1
290
     0
176
     1
290
     0
176
     1
290
     0
176
     1
 90
       50
176
     1
 40
0.0
176
     1
 40
1.0
176
     1
 90
        0
176
     1
 62
    18
420
        0
176
     1
 90
       50
176
     1
 90
        3
176
     1
 62
     5
420
      255
176
     1
290
     0
176
     1
 90
       50
176
     1
 90
       50
176
     1
 90
       50
176
     1
290
     0
176
     1
 90
       50
176
     1
 62
   256
176
     0
 40
1.0
176
     0
 90
        2
176
     1
  1
strokes_ogs.tif
176
     1
290
     0
176
     1
 40
1.0
176
     1
 40
1.0
176
     1
  0
VISUALSTYLE
  5
3C
102
{ACAD_REACTORS
330
29
102
}
330
29
100
AcDbVisualStyle
  2
X-Ray
 70
    25
177
     3
291
     0
 70
    58
 90
        2
176
     1
 90
        2
176
     1
 90
        1
176
     1
 90
        1
176
     1
 40
0.5
176
     1
 40
30.0
176
     1
 62
     7
420
 16777215
176
     1
 90
        1
176
     1
 90
        0
176
     1
 62
     7
176
     1
 62
   257
176
     1
 90
        1
176
     1
 90
        1
176
     1
 40
1.0
176
     1
 90
        8
176
     1
 62
     7
176
     1
 40
1.0
176
     1
 90
        1
176
     1
 90
        6
176
     1
 90
        2
176
     1
 62
     7
176
     1
 90
        3
176
     1
 90
        0
176
     1
 90
        0
176
     1
290
     0
176
     1
 90
       13
176
     1
 40
0.0
176
     1
 90
        0
176
     1
290
     0
176
     1
290
     1
176
     1
290
     1
176
     1
290
     0
176
     1
290
     0
176
     1
290
     0
176
     1
290
     0
176
     1
290
     0
176
     1
290
     0
176
     1
 90
       50
176
     1
 40
0.0
176
     1
 40
1.0
176
     1
 90
        0
176
     1
 62
    18
420
        0
176
     1
 90
       50
176
     1
 90
        3
176
     1
 62
     5
420
      255
176
     1
290
     0
176
     1
 90
       50
176
     1
 90
       50
176
     1
 90
       50
176
     1
290
     0
176
     1
 90
       50
176
     1
 62
   256
176
     0
 40
1.0
176
     0
 90
        2
176
     1
  1
strokes_ogs.tif
176
     1
290
     0
176
     1
 40
1.0
176
     1
 40
1.0
176
     1
  0
DICTIONARYVAR
  5
157
102
{ACAD_REACTORS
330
152
102
}
330
152
100
DictionaryVariables
280
     0
  1
1:1
  0
DICTIONARYVAR
  5
154
102
{ACAD_REACTORS
330
152
102
}
330
152
100
DictionaryVariables
280
     0
  1
STANDARD
  0
DICTIONARYVAR
  5
153
102
{ACAD_REACTORS
330
152
102
}
330
152
100
DictionaryVariables
280
     0
  1
STANDARD
  0
DICTIONARYVAR
  5
155
102
{ACAD_REACTORS
330
152
102
}
330
152
100
DictionaryVariables
280
     0
  1
Imperial24
  0
DICTIONARYVAR
  5
156
102
{ACAD_REACTORS
330
152
102
}
330
152
100
DictionaryVariables
280
     0
  1
Imperial24
  0
DICTIONARY
  5
1A
330
19
100
AcDbDictionary
280
     1
281
     1
  3
BUMPTILE
360
1C
  3
DIFFUSETILE
360
1B
  3
OPACITYTILE
360
1F
  3
REFLECTIONTILE
360
1E
  3
REFRACTIONTILE
360
20
  3
SPECULARTILE
360
1D
  0
DICTIONARY
  5
12
330
11
100
AcDbDictionary
280
     1
281
     1
  3
BUMPTILE
360
14
  3
DIFFUSETILE
360
13
  3
OPACITYTILE
360
17
  3
REFLECTIONTILE
360
16
  3
REFRACTIONTILE
360
18
  3
SPECULARTILE
360
15
  0
DICTIONARY
  5
22
330
21
100
AcDbDictionary
280
     1
281
     1
  3
BUMPTILE
360
24
  3
DIFFUSETILE
360
23
  3
OPACITYTILE
360
27
  3
REFLECTIONTILE
360
26
  3
REFRACTIONTILE
360
28
  3
SPECULARTILE
360
25
  0
DICTIONARY
  5
158
330
65
100
AcDbDictionary
280
     1
281
     1
  3
ACAD_ROUNDTRIP_2008_TABLESTYLE_CELLSTYLEMAP
360
159
  0
XRECORD
  5
1C
102
{ACAD_REACTORS
330
1A
102
}
330
1A
100
AcDbXrecord
280
     1
270
     1
271
     1
  0
XRECORD
  5
1B
102
{ACAD_REACTORS
330
1A
102
}
330
1A
100
AcDbXrecord
280
     1
270
     1
271
     1
  0
XRECORD
  5
1F
102
{ACAD_REACTORS
330
1A
102
}
330
1A
100
AcDbXrecord
280
     1
270
     1
271
     1
  0
XRECORD
  5
1E
102
{ACAD_REACTORS
330
1A
102
}
330
1A
100
AcDbXrecord
280
     1
270
     1
271
     1
  0
XRECORD
  5
20
102
{ACAD_REACTORS
330
1A
102
}
330
1A
100
AcDbXrecord
280
     1
270
     1
271
     1
  0
XRECORD
  5
1D
102
{ACAD_REACTORS
330
1A
102
}
330
1A
100
AcDbXrecord
280
     1
270
     1
271
     1
  0
XRECORD
  5
14
102
{ACAD_REACTORS
330
12
102
}
330
12
100
AcDbXrecord
280
     1
270
     1
271
     1
  0
XRECORD
  5
13
102
{ACAD_REACTORS
330
12
102
}
330
12
100
AcDbXrecord
280
     1
270
     1
271
     1
  0
XRECORD
  5
17
102
{ACAD_REACTORS
330
12
102
}
330
12
100
AcDbXrecord
280
     1
270
     1
271
     1
  0
XRECORD
  5
16
102
{ACAD_REACTORS
330
12
102
}
330
12
100
AcDbXrecord
280
     1
270
     1
271
     1
  0
XRECORD
  5
18
102
{ACAD_REACTORS
330
12
102
}
330
12
100
AcDbXrecord
280
     1
270
     1
271
     1
  0
XRECORD
  5
15
102
{ACAD_REACTORS
330
12
102
}
330
12
100
AcDbXrecord
280
     1
270
     1
271
     1
  0
XRECORD
  5
24
102
{ACAD_REACTORS
330
22
102
}
330
22
100
AcDbXrecord
280
     1
270
     1
271
     1
  0
XRECORD
  5
23
102
{ACAD_REACTORS
330
22
102
}
330
22
100
AcDbXrecord
280
     1
270
     1
271
     1
  0
XRECORD
  5
27
102
{ACAD_REACTORS
330
22
102
}
330
22
100
AcDbXrecord
280
     1
270
     1
271
     1
  0
XRECORD
  5
26
102
{ACAD_REACTORS
330
22
102
}
330
22
100
AcDbXrecord
280
     1
270
     1
271
     1
  0
XRECORD
  5
28
102
{ACAD_REACTORS
330
22
102
}
330
22
100
AcDbXrecord
280
     1
270
     1
271
     1
  0
XRECORD
  5
25
102
{ACAD_REACTORS
330
22
102
}
330
22
100
AcDbXrecord
280
     1
270
     1
271
     1
  0
CELLSTYLEMAP
  5
159
102
{ACAD_REACTORS
330
158
102
}
330
158
100
AcDbCellStyleMap
 90
        3
300
CELLSTYLE
  1
TABLEFORMAT_BEGIN
 90
        5
170
     1
 91
        0
 92
    32768
 62
   257
 93
        1
300
CONTENTFORMAT
  1
CONTENTFORMAT_BEGIN
 90
        0
 91
        0
 92
      512
 93
        0
300

 40
0.0
140
1.0
 94
        5
 62
     0
340
55
144
0.25
309
CONTENTFORMAT_END
171
     0
 94
        0
309
TABLEFORMAT_END
  1
CELLSTYLE_BEGIN
 90
        1
 91
        1
300
_TITLE
309
CELLSTYLE_END
300
CELLSTYLE
  1
TABLEFORMAT_BEGIN
 90
        5
170
     1
 91
        0
 92
        0
 62
   257
 93
        1
300
CONTENTFORMAT
  1
CONTENTFORMAT_BEGIN
 90
        0
 91
        0
 92
      512
 93
        0
300

 40
0.0
140
1.0
 94
        5
 62
     0
340
55
144
0.18
309
CONTENTFORMAT_END
171
     0
 94
        0
309
TABLEFORMAT_END
  1
CELLSTYLE_BEGIN
 90
        2
 91
        1
300
_HEADER
309
CELLSTYLE_END
300
CELLSTYLE
  1
TABLEFORMAT_BEGIN
 90
        5
170
     1
 91
        0
 92
        0
 62
   257
 93
        1
300
CONTENTFORMAT
  1
CONTENTFORMAT_BEGIN
 90
        0
 91
        0
 92
      512
 93
        0
300

 40
0.0
140
1.0
 94
        2
 62
     0
340
55
144
0.18
309
CONTENTFORMAT_END
171
     0
 94
        0
309
TABLEFORMAT_END
  1
CELLSTYLE_BEGIN
 90
        3
 91
        2
300
_DATA
309
CELLSTYLE_END
  0
ENDSEC
  0
EOF
