  0
SECTION
  2
HEADER
  9
$ACADVER
  1
AC1024
  9
$ACADMAINTVER
 70
   181
  9
$DWGCODEPAGE
  3
ANSI_932
  9
$LASTSAVEDBY
  1
tabli
  9
$INSBASE
 10
0.0
 20
0.0
 30
0.0
  9
$EXTMIN
 10
-3916.619916083275
 20
-32649.69948746474
 30
-0.0000000000000191
  9
$EXTMAX
 10
89530.55695522932
 20
36.06447355195203
 30
0.0000000000000095
  9
$LIMMIN
 10
11.41515163845486
 20
3.700032552083333
  9
$LIMMAX
 10
195.6693657769097
 20
305.8443806966146
  9
$ORTHOMODE
 70
     1
  9
$REGENMODE
 70
     1
  9
$FILLMODE
 70
     1
  9
$QTEXTMODE
 70
     0
  9
$MIRRTEXT
 70
     1
  9
$LTSCALE
 40
1.0
  9
$ATTMODE
 70
     1
  9
$TEXTSIZE
 40
20.0
  9
$TRACEWID
 40
0.05
  9
$TEXTSTYLE
  7
GOTHIC
  9
$CLAYER
  8
TOUGU
  9
$CELTYPE
  6
ByLayer
  9
$CECOLOR
 62
   256
  9
$CELTSCALE
 40
1.0
  9
$DISPSILH
 70
     0
  9
$DIMSCALE
 40
5.0
  9
$DIMASZ
 40
2.5
  9
$DIMEXO
 40
1.0
  9
$DIMDLI
 40
2.5
  9
$DIMRND
 40
0.0
  9
$DIMDLE
 40
0.0
  9
$DIMEXE
 40
1.0
  9
$DIMTP
 40
0.0
  9
$DIMTM
 40
0.0
  9
$DIMTXT
 40
2.5
  9
$DIMCEN
 40
2.5
  9
$DIMTSZ
 40
0.0
  9
$DIMTOL
 70
     0
  9
$DIMLIM
 70
     0
  9
$DIMTIH
 70
     0
  9
$DIMTOH
 70
     0
  9
$DIMSE1
 70
     0
  9
$DIMSE2
 70
     0
  9
$DIMTAD
 70
     1
  9
$DIMZIN
 70
     0
  9
$DIMBLK
  1

  9
$DIMASO
 70
     1
  9
$DIMSHO
 70
     1
  9
$DIMPOST
  1

  9
$DIMAPOST
  1

  9
$DIMALT
 70
     0
  9
$DIMALTD
 70
     2
  9
$DIMALTF
 40
0.03937
  9
$DIMLFAC
 40
1.0
  9
$DIMTOFL
 70
     0
  9
$DIMTVP
 40
0.0
  9
$DIMTIX
 70
     0
  9
$DIMSOXD
 70
     0
  9
$DIMSAH
 70
     1
  9
$DIMBLK1
  1

  9
$DIMBLK2
  1

  9
$DIMSTYLE
  2
SC5
  9
$DIMCLRD
 70
   256
  9
$DIMCLRE
 70
   256
  9
$DIMCLRT
 70
     4
  9
$DIMTFAC
 40
1.0
  9
$DIMGAP
 40
1.0
  9
$DIMJUST
 70
     0
  9
$DIMSD1
 70
     0
  9
$DIMSD2
 70
     0
  9
$DIMTOLJ
 70
     1
  9
$DIMTZIN
 70
     0
  9
$DIMALTZ
 70
     0
  9
$DIMALTTZ
 70
     0
  9
$DIMUPT
 70
     0
  9
$DIMDEC
 70
     0
  9
$DIMTDEC
 70
     0
  9
$DIMALTU
 70
     2
  9
$DIMALTTD
 70
     2
  9
$DIMTXSTY
  7
GOTHIC
  9
$DIMAUNIT
 70
     0
  9
$DIMADEC
 70
     0
  9
$DIMALTRND
 40
0.0
  9
$DIMAZIN
 70
     0
  9
$DIMDSEP
 70
     0
  9
$DIMATFIT
 70
     3
  9
$DIMFRAC
 70
     0
  9
$DIMLDRBLK
  1

  9
$DIMLUNIT
 70
     2
  9
$DIMLWD
 70
    -2
  9
$DIMLWE
 70
    -2
  9
$DIMTMOVE
 70
     0
  9
$DIMFXL
 40
1.0
  9
$DIMFXLON
 70
     0
  9
$DIMJOGANG
 40
0.7853981633974483
  9
$DIMTFILL
 70
     0
  9
$DIMTFILLCLR
 70
     0
  9
$DIMARCSYM
 70
     0
  9
$DIMLTYPE
  6

  9
$DIMLTEX1
  6

  9
$DIMLTEX2
  6

  9
$DIMTXTDIRECTION
 70
     0
  9
$LUNITS
 70
     2
  9
$LUPREC
 70
     4
  9
$SKETCHINC
 40
0.1
  9
$FILLETRAD
 40
1.35
  9
$AUNITS
 70
     0
  9
$AUPREC
 70
     0
  9
$MENU
  1
acad
  9
$ELEVATION
 40
0.0
  9
$PELEVATION
 40
0.0
  9
$THICKNESS
 40
0.0
  9
$LIMCHECK
 70
     0
  9
$CHAMFERA
 40
0.5
  9
$CHAMFERB
 40
0.5
  9
$CHAMFERC
 40
0.0
  9
$CHAMFERD
 40
0.0
  9
$SKPOLY
 70
     0
  9
$TDCREATE
 40
2457891.611233125
  9
$TDUCREATE
 40
2457891.236233125
  9
$TDUPDATE
 40
2458982.372286794
  9
$TDUUPDATE
 40
2458981.997286794
  9
$TDINDWG
 40
4.5290195255
  9
$TDUSRTIMER
 40
4.5290195370
  9
$USRTIMER
 70
     1
  9
$ANGBASE
 50
0.0
  9
$ANGDIR
 70
     0
  9
$PDMODE
 70
     0
  9
$PDSIZE
 40
0.0
  9
$PLINEWID
 40
0.0
  9
$SPLFRAME
 70
     0
  9
$SPLINETYPE
 70
     6
  9
$SPLINESEGS
 70
     8
  9
$HANDSEED
  5
97F1D
  9
$SURFTAB1
 70
     6
  9
$SURFTAB2
 70
     6
  9
$SURFTYPE
 70
     6
  9
$SURFU
 70
     6
  9
$SURFV
 70
     6
  9
$UCSBASE
  2

  9
$UCSNAME
  2

  9
$UCSORG
 10
0.0
 20
0.0
 30
0.0
  9
$UCSXDIR
 10
1.0
 20
0.0
 30
0.0
  9
$UCSYDIR
 10
0.0
 20
1.0
 30
0.0
  9
$UCSORTHOREF
  2

  9
$UCSORTHOVIEW
 70
     0
  9
$UCSORGTOP
 10
0.0
 20
0.0
 30
0.0
  9
$UCSORGBOTTOM
 10
0.0
 20
0.0
 30
0.0
  9
$UCSORGLEFT
 10
0.0
 20
0.0
 30
0.0
  9
$UCSORGRIGHT
 10
0.0
 20
0.0
 30
0.0
  9
$UCSORGFRONT
 10
0.0
 20
0.0
 30
0.0
  9
$UCSORGBACK
 10
0.0
 20
0.0
 30
0.0
  9
$PUCSBASE
  2

  9
$PUCSNAME
  2

  9
$PUCSORG
 10
0.0
 20
0.0
 30
0.0
  9
$PUCSXDIR
 10
1.0
 20
0.0
 30
0.0
  9
$PUCSYDIR
 10
0.0
 20
1.0
 30
0.0
  9
$PUCSORTHOREF
  2

  9
$PUCSORTHOVIEW
 70
     0
  9
$PUCSORGTOP
 10
0.0
 20
0.0
 30
0.0
  9
$PUCSORGBOTTOM
 10
0.0
 20
0.0
 30
0.0
  9
$PUCSORGLEFT
 10
0.0
 20
0.0
 30
0.0
  9
$PUCSORGRIGHT
 10
0.0
 20
0.0
 30
0.0
  9
$PUCSORGFRONT
 10
0.0
 20
0.0
 30
0.0
  9
$PUCSORGBACK
 10
0.0
 20
0.0
 30
0.0
  9
$USERI1
 70
     0
  9
$USERI2
 70
     0
  9
$USERI3
 70
     0
  9
$USERI4
 70
     0
  9
$USERI5
 70
     0
  9
$USERR1
 40
0.0
  9
$USERR2
 40
0.0
  9
$USERR3
 40
0.0
  9
$USERR4
 40
0.0
  9
$USERR5
 40
0.0
  9
$WORLDVIEW
 70
     1
  9
$SHADEDGE
 70
     3
  9
$SHADEDIF
 70
    70
  9
$TILEMODE
 70
     1
  9
$MAXACTVP
 70
    16
  9
$PINSBASE
 10
0.0
 20
0.0
 30
0.0
  9
$PLIMCHECK
 70
     0
  9
$PEXTMIN
 10
25.69999999999999
 20
19.5
 30
0.0
  9
$PEXTMAX
 10
231.3
 20
175.5
 30
0.0
  9
$PLIMMIN
 10
-20.0
 20
-7.5
  9
$PLIMMAX
 10
277.0
 20
202.5
  9
$UNITMODE
 70
     0
  9
$VISRETAIN
 70
     0
  9
$PLINEGEN
 70
     1
  9
$PSLTSCALE
 70
     0
  9
$TREEDEPTH
 70
  3020
  9
$CMLSTYLE
  2
Standard
  9
$CMLJUST
 70
     0
  9
$CMLSCALE
 40
1.0
  9
$PROXYGRAPHICS
 70
     0
  9
$MEASUREMENT
 70
     1
  9
$CELWEIGHT
370
    -1
  9
$ENDCAPS
280
     0
  9
$JOINSTYLE
280
     0
  9
$LWDISPLAY
290
     0
  9
$INSUNITS
 70
     0
  9
$HYPERLINKBASE
  1

  9
$STYLESHEET
  1
SCDX.ctb
  9
$XEDIT
290
     1
  9
$CEPSNTYPE
380
     0
  9
$PSTYLEMODE
290
     1
  9
$FINGERPRINTGUID
  2

  9
$VERSIONGUID
  2
{352D8E2C-6ACB-4492-8FF1-AE8DCFD10265}
  9
$EXTNAMES
290
     1
  9
$PSVPSCALE
 40
0.0
  9
$OLESTARTUP
290
     0
  9
$SORTENTS
280
   127
  9
$INDEXCTL
280
     0
  9
$HIDETEXT
280
     1
  9
$XCLIPFRAME
280
     2
  9
$HALOGAP
280
     0
  9
$OBSCOLOR
 70
   257
  9
$OBSLTYPE
280
     0
  9
$INTERSECTIONDISPLAY
280
     0
  9
$INTERSECTIONCOLOR
 70
   257
  9
$DIMASSOC
280
     2
  9
$PROJECTNAME
  1

  9
$CAMERADISPLAY
290
     0
  9
$LENSLENGTH
 40
50.0
  9
$CAMERAHEIGHT
 40
0.0
  9
$STEPSPERSEC
 40
2.0
  9
$STEPSIZE
 40
6.0
  9
$3DDWFPREC
 40
2.0
  9
$PSOLWIDTH
 40
0.25
  9
$PSOLHEIGHT
 40
4.0
  9
$LOFTANG1
 40
1.570796326794896
  9
$LOFTANG2
 40
1.570796326794896
  9
$LOFTMAG1
 40
0.0
  9
$LOFTMAG2
 40
0.0
  9
$LOFTPARAM
 70
     7
  9
$LOFTNORMALS
280
     1
  9
$LATITUDE
 40
37.795
  9
$LONGITUDE
 40
-122.394
  9
$NORTHDIRECTION
 40
0.0
  9
$TIMEZONE
 70
 -8000
  9
$LIGHTGLYPHDISPLAY
280
     1
  9
$TILEMODELIGHTSYNCH
280
     1
  9
$CMATERIAL
347
1A5
  9
$SOLIDHIST
280
     1
  9
$SHOWHIST
280
     1
  9
$DWFFRAME
280
     2
  9
$DGNFRAME
280
     2
  9
$REALWORLDSCALE
290
     1
  9
$INTERFERECOLOR
 62
   256
  9
$INTERFEREOBJVS
345
172
  9
$INTERFEREVPVS
346
16F
  9
$CSHADOW
280
     0
  9
$SHADOWPLANELOCATION
 40
0.0
  0
ENDSEC
  0
SECTION
  2
CLASSES
  0
CLASS
  1
LWPOLYLINE
  2
AcDbPolyline
  3
ObjectDBX Classes
 90
        0
 91
        2
280
     0
281
     1
  0
CLASS
  1
IMAGE
  2
AcDbRasterImage
  3
ISM
 90
     2175
 91
        0
280
     0
281
     1
  0
CLASS
  1
OLE2FRAME
  2
AcDbOle2Frame
  3
ObjectDBX Classes
 90
        0
 91
        0
280
     0
281
     1
  0
CLASS
  1
HATCH
  2
AcDbHatch
  3
ObjectDBX Classes
 90
        0
 91
        2
280
     0
281
     1
  0
CLASS
  1
DICTIONARYVAR
  2
AcDbDictionaryVar
  3
ObjectDBX Classes
 90
        0
 91
        7
280
     0
281
     0
  0
CLASS
  1
RASTERVARIABLES
  2
AcDbRasterVariables
  3
ISM
 90
        0
 91
        1
280
     0
281
     0
  0
CLASS
  1
IMAGEDEF
  2
AcDbRasterImageDef
  3
ISM
 90
        0
 91
        0
280
     0
281
     0
  0
CLASS
  1
IMAGEDEF_REACTOR
  2
AcDbRasterImageDefReactor
  3
ISM
 90
        1
 91
        0
280
     0
281
     0
  0
CLASS
  1
IDBUFFER
  2
AcDbIdBuffer
  3
ObjectDBX Classes
 90
        0
 91
        0
280
     0
281
     0
  0
CLASS
  1
SPATIAL_FILTER
  2
AcDbSpatialFilter
  3
ObjectDBX Classes
 90
        0
 91
        0
280
     0
281
     0
  0
CLASS
  1
XRECORD
  2
AcDbXrecord
  3
ObjectDBX Classes
 90
        0
 91
       80
280
     0
281
     0
  0
CLASS
  1
SORTENTSTABLE
  2
AcDbSortentsTable
  3
ObjectDBX Classes
 90
        0
 91
        1
280
     0
281
     0
  0
CLASS
  1
LAYER_INDEX
  2
AcDbLayerIndex
  3
ObjectDBX Classes
 90
        0
 91
        0
280
     0
281
     0
  0
CLASS
  1
SPATIAL_INDEX
  2
AcDbSpatialIndex
  3
ObjectDBX Classes
 90
        0
 91
        0
280
     0
281
     0
  0
CLASS
  1
OBJECT_PTR
  2
CAseDLPNTableRecord
  3
ASE-LPNTableRecord
 90
        1
 91
        0
280
     0
281
     0
  0
CLASS
  1
LAYOUT
  2
AcDbLayout
  3
ObjectDBX Classes
 90
        0
 91
        2
280
     0
281
     0
  0
CLASS
  1
PLOTSETTINGS
  2
AcDbPlotSettings
  3
ObjectDBX Classes
 90
        0
 91
        0
280
     0
281
     0
  0
CLASS
  1
ACDBDICTIONARYWDFLT
  2
AcDbDictionaryWithDefault
  3
ObjectDBX Classes
 90
        0
 91
        1
280
     0
281
     0
  0
CLASS
  1
ACDBPLACEHOLDER
  2
AcDbPlaceHolder
  3
ObjectDBX Classes
 90
        0
 91
        1
280
     0
281
     0
  0
CLASS
  1
VBA_PROJECT
  2
AcDbVbaProject
  3
acad
 90
        0
 91
        0
280
     0
281
     0
  0
CLASS
  1
WIPEOUT
  2
AcDbWipeout
  3
WipeOut|Product Desc: Object Enabler for WipeOut entity | Company: Autodesk, Inc. | WEB Address: www.autodesk.com
 90
     2175
 91
        0
280
     0
281
     1
  0
CLASS
  1
WIPEOUTVARIABLES
  2
AcDbWipeoutVariables
  3
"WipeOut|Product Desc:     WipeOut Dbx Application|Company:          Autodesk, Inc.|WEB Address:      www.autodesk.com"
 90
        0
 91
        1
280
     0
281
     0
  0
CLASS
  1
RTEXT
  2
RText
  3
RText|AutoCAD Express Tool|expresstools@autodesk.com
 90
        0
 91
        0
280
     0
281
     1
  0
CLASS
  1
ARCALIGNEDTEXT
  2
AcDbArcAlignedText
  3
ATEXT|AutoCAD Express Tool|expresstools@autodesk.com
 90
        0
 91
        0
280
     0
281
     1
  0
CLASS
  1
VISUALSTYLE
  2
AcDbVisualStyle
  3
ObjectDBX Classes
 90
     4095
 91
       26
280
     0
281
     0
  0
CLASS
  1
SCALE
  2
AcDbScale
  3
ObjectDBX Classes
 90
     1153
 91
       33
280
     0
281
     0
  0
CLASS
  1
MATERIAL
  2
AcDbMaterial
  3
ObjectDBX Classes
 90
     1153
 91
        3
280
     0
281
     0
  0
CLASS
  1
TABLESTYLE
  2
AcDbTableStyle
  3
ObjectDBX Classes
 90
     4095
 91
        1
280
     0
281
     0
  0
CLASS
  1
MLEADERSTYLE
  2
AcDbMLeaderStyle
  3
ACDB_MLEADERSTYLE_CLASS
 90
     4095
 91
        2
280
     0
281
     0
  0
CLASS
  1
SUN
  2
AcDbSun
  3
SCENEOE
 90
     1153
 91
        3
280
     0
281
     0
  0
CLASS
  1
DIMASSOC
  2
AcDbDimAssoc
  3
"AcDbDimAssoc|Product Desc:     AcDim ARX App For Dimension|Company:          Autodesk, Inc.|WEB Address:      www.autodesk.com"
 90
        0
 91
        0
280
     0
281
     0
  0
CLASS
  1
HELIX
  2
AcDbHelix
  3
ObjectDBX Classes
 90
     4095
 91
        0
280
     0
281
     1
  0
CLASS
  1
GRADIENT_BACKGROUND
  2
AcDbGradientBackground
  3
SCENEOE
 90
     4095
 91
        1
280
     0
281
     0
  0
CLASS
  1
ACDB_ALDIMOBJECTCONTEXTDATA_CLASS
  2
AcDbAlignedDimensionObjectContextData
  3
ObjectDBX Classes
 90
     1153
 91
        0
280
     0
281
     0
  0
CLASS
  1
ACDB_LEADEROBJECTCONTEXTDATA_CLASS
  2
AcDbLeaderObjectContextData
  3
ObjectDBX Classes
 90
     1153
 91
        0
280
     0
281
     0
  0
CLASS
  1
BmDbComponentDefinitionManager
  2
BmDbComponentDefinitionManager
  3
BricsCAD | Description: Mechanical data
 90
     1025
 91
        0
280
     0
281
     0
  0
CLASS
  1
BmDbAssemblyDefinition
  2
BmDbAssemblyDefinition
  3
BricsCAD|Description: Mechanical data
 90
     1025
 91
        0
280
     0
281
     0
  0
CLASS
  1
BmDbXHardwarePartDefinition
  2
BmDbXHardwarePartDefinition
  3
BricsCAD|Description: Mechanical data
 90
     1025
 91
        0
280
     0
281
     0
  0
CLASS
  1
BmDbComponentInstance
  2
BmDbComponentInstance
  3
BricsCAD|Description: Mechanical data
 90
     1025
 91
        0
280
     0
281
     0
  0
CLASS
  1
ARC_DIMENSION
  2
AcDbArcDimension
  3
ObjectDBX Classes
 90
     1025
 91
        0
280
     0
281
     1
  0
CLASS
  1
ACDBASSOCNETWORK
  2
AcDbAssocNetwork
  3
ObjectDBX Classes
 90
     1025
 91
        0
280
     0
281
     0
  0
CLASS
  1
ACDBASSOCACTION
  2
AcDbAssocAction
  3
ObjectDBX Classes
 90
     1025
 91
        0
280
     0
281
     0
  0
CLASS
  1
ACDBASSOCARRAYACTIONBODY
  2
AcDbAssocArrayActionBody
  3
ObjectDBX Classes
 90
     1025
 91
        0
280
     0
281
     0
  0
CLASS
  1
ACDBASSOCVERTEXACTIONPARAM
  2
AcDbAssocVertexActionParam
  3
ObjectDBX Classes
 90
     1025
 91
        0
280
     0
281
     0
  0
CLASS
  1
ACDBASSOCDEPENDENCY
  2
AcDbAssocDependency
  3
ObjectDBX Classes
 90
     1025
 91
        0
280
     0
281
     0
  0
CLASS
  1
ACDBSECTIONVIEWSTYLE
  2
AcDbSectionViewStyle
  3
ObjectDBX Classes
 90
     1025
 91
        1
280
     0
281
     0
  0
CLASS
  1
ACDBDETAILVIEWSTYLE
  2
AcDbDetailViewStyle
  3
ObjectDBX Classes
 90
     1025
 91
        1
280
     0
281
     0
  0
CLASS
  1
ACDBASSOCARRAYPOLARPARAMETERS
  2
AcDbAssocArrayPolarParameters
  3
ObjectDBX Classes
 90
     1025
 91
        0
280
     0
281
     0
  0
CLASS
  1
EXACXREFPANELOBJECT
  2
ExAcXREFPanelObject
  3
EXAC_ESW
 90
     1025
 91
        0
280
     1
281
     0
  0
CLASS
  1
NPOCOLLECTION
  2
AcDbImpNonPersistentObjectsCollection
  3
ObjectDBX Classes
 90
     1153
 91
        0
280
     1
281
     0
  0
CLASS
  1
RAPIDRTRENDERSETTINGS
  2
AcDbRapidRTRenderSettings
  3
ObjectDBX Classes
 90
     1024
 91
        6
280
     0
281
     0
  0
CLASS
  1
MULTILEADER
  2
AcDbMLeader
  3
ACDB_MLEADER_CLASS
 90
     1025
 91
        0
280
     0
281
     1
  0
CLASS
  1
CELLSTYLEMAP
  2
AcDbCellStyleMap
  3
ObjectDBX Classes
 90
     1152
 91
        1
280
     0
281
     0
  0
ENDSEC
  0
SECTION
  2
TABLES
  0
TABLE
  2
VPORT
  5
7
330
0
100
AcDbSymbolTable
 70
     1
  0
VPORT
  5
15
330
7
100
AcDbSymbolTableRecord
100
AcDbViewportTableRecord
  2
*ACTIVE
 70
     0
 10
0.0
 20
0.0
 11
1.0
 21
1.0
 12
39368.50644381021
 22
-27828.87239624291
 13
0.0
 23
0.0
 14
1.0
 24
1.0
 15
0.0
 25
0.0
 16
0.0
 26
0.0
 36
1.0
 17
0.0
 27
0.0
 37
503.8830670699199
 40
466.8820413403601
 41
2.395646606914212
 42
50.0
 43
0.0
 44
0.0
 50
0.0
 51
0.0
 71
    16
 72
   100
 73
     1
 74
     1
 75
     0
 76
     0
 77
     0
 78
     0
281
     0
 65
     0
110
0.0
120
0.0
130
0.0
111
1.0
121
0.0
131
0.0
112
0.0
122
1.0
132
0.0
 79
     0
146
0.0
348
16E
 60
     2
 61
     5
292
     1
282
     1
141
0.0
142
0.0
 63
   250
421
  3355443
361
1AD
1001
ACAD_NAV_VCDISPLAY
1070
     3
  0
ENDTAB
  0
TABLE
  2
LTYPE
  5
4
330
0
100
AcDbSymbolTable
 70
     1
  0
LTYPE
  5
11
330
4
100
AcDbSymbolTableRecord
100
AcDbLinetypeTableRecord
  2
ByBlock
 70
     0
  3

 72
    65
 73
     0
 40
0.0
  0
LTYPE
  5
12
330
4
100
AcDbSymbolTableRecord
100
AcDbLinetypeTableRecord
  2
ByLayer
 70
     0
  3

 72
    65
 73
     0
 40
0.0
  0
LTYPE
  5
13
330
4
100
AcDbSymbolTableRecord
100
AcDbLinetypeTableRecord
  2
Continuous
 70
     0
  3
Solid line
 72
    65
 73
     0
 40
0.0
  0
ENDTAB
  0
TABLE
  2
LAYER
  5
2
102
{ACAD_XDICTIONARY
360
1325
102
}
330
0
100
AcDbSymbolTable
 70
    10
  0
LAYER
  5
14
330
2
100
AcDbSymbolTableRecord
100
AcDbLayerTableRecord
  2
0
 70
     0
 62
     7
  6
Continuous
370
    -3
390
1D
347
1A7
  0
LAYER
  5
1AE
330
2
100
AcDbSymbolTableRecord
100
AcDbLayerTableRecord
  2
FIG
 70
     0
 62
     2
  6
Continuous
370
    -3
390
1D
347
1A7
  0
LAYER
  5
1B0
330
2
100
AcDbSymbolTableRecord
100
AcDbLayerTableRecord
  2
PARTS
 70
     0
 62
     3
  6
Continuous
370
    -3
390
1D
347
1A7
  0
LAYER
  5
1B5
330
2
100
AcDbSymbolTableRecord
100
AcDbLayerTableRecord
  2
Defpoints
 70
     0
 62
     7
  6
Continuous
290
     0
370
    -3
390
1D
347
1A7
  0
LAYER
  5
494A
330
2
100
AcDbSymbolTableRecord
100
AcDbLayerTableRecord
  2
text
 70
     0
 62
     4
  6
Continuous
370
    -3
390
1D
347
1A7
  0
LAYER
  5
4A7D
330
2
100
AcDbSymbolTableRecord
100
AcDbLayerTableRecord
  2
frame
 70
     0
 62
     2
  6
Continuous
370
    -3
390
1D
347
1A7
  0
LAYER
  5
69A6
330
2
100
AcDbSymbolTableRecord
100
AcDbLayerTableRecord
  2
shade
 70
     0
 62
     6
  6
Continuous
370
    -3
390
1D
347
1A7
  0
LAYER
  5
12EC4
330
2
100
AcDbSymbolTableRecord
100
AcDbLayerTableRecord
  2
FLAME
 70
     0
 62
     2
  6
Continuous
370
    -3
390
1D
347
1A7
  0
LAYER
  5
13B08
330
2
100
AcDbSymbolTableRecord
100
AcDbLayerTableRecord
  2
レイヤー_1
 70
     0
 62
   160
  6
Continuous
370
    -3
390
1D
347
1A7
  0
LAYER
  5
2D4E4
330
2
100
AcDbSymbolTableRecord
100
AcDbLayerTableRecord
  2
TOUGU
 70
     0
 62
     3
  6
Continuous
370
    -3
390
1D
347
1A7
  0
ENDTAB
  0
TABLE
  2
STYLE
  5
3
330
0
100
AcDbSymbolTable
 70
     3
  0
STYLE
  5
17
330
3
100
AcDbSymbolTableRecord
100
AcDbTextStyleTableRecord
  2
Standard
 70
     0
 40
0.0
 41
1.0
 50
0.0
 71
     0
 42
5.0
  3
txt
  4
japanese.shx
  0
STYLE
  5
4A82
330
3
100
AcDbSymbolTableRecord
100
AcDbTextStyleTableRecord
  2
新規スタイル1
 70
     0
 40
0.0
 41
1.0
 50
0.0
 71
     0
 42
0.2
  3

  4

1001
ACAD
1000
ＭＳ Ｐ明朝
1071
    32786
  0
STYLE
  5
BB92
330
3
100
AcDbSymbolTableRecord
100
AcDbTextStyleTableRecord
  2
GOTHIC
 70
     0
 40
0.0
 41
1.0
 50
0.0
 71
     0
 42
20.0
  3

  4

1001
ACAD
1000
ＭＳ Ｐゴシック
1071
    32818
  0
ENDTAB
  0
TABLE
  2
VIEW
  5
5
330
0
100
AcDbSymbolTable
 70
     2
  0
VIEW
  5
B4BD
330
5
100
AcDbSymbolTableRecord
100
AcDbViewTableRecord
  2
ホーム
 70
     0
 40
300.0
 10
0.0
 20
0.0
 41
150.0
 11
-70.0
 21
-130.0
 31
80.0
 12
200.0
 22
150.0
 32
0.0
 42
50.0
 43
0.0
 44
0.0
 50
0.0
 71
     0
281
     6
 72
     0
 73
     0
332
B4BC
348
1AC
  0
ENDTAB
  0
TABLE
  2
UCS
  5
6
330
0
100
AcDbSymbolTable
 70
     0
  0
ENDTAB
  0
TABLE
  2
APPID
  5
8
330
0
100
AcDbSymbolTable
 70
    14
  0
APPID
  5
16
330
8
100
AcDbSymbolTableRecord
100
AcDbRegAppTableRecord
  2
ACAD
 70
     0
  0
APPID
  5
55D
330
8
100
AcDbSymbolTableRecord
100
AcDbRegAppTableRecord
  2
ACAD_DSTYLE_DIMRADIAL_EXTENSION
 70
     0
  0
APPID
  5
5A8
330
8
100
AcDbSymbolTableRecord
100
AcDbRegAppTableRecord
  2
ACAD_PSEXT
 70
     0
  0
APPID
  5
24E4
330
8
100
AcDbSymbolTableRecord
100
AcDbRegAppTableRecord
  2
AcadAnnotative
 70
     0
  0
APPID
  5
7B7C
330
8
100
AcDbSymbolTableRecord
100
AcDbRegAppTableRecord
  2
Sigma
 70
     0
  0
APPID
  5
7B7E
330
8
100
AcDbSymbolTableRecord
100
AcDbRegAppTableRecord
  2
ACAD_NAV_VCDISPLAY
 70
     0
  0
APPID
  5
BBA7
330
8
100
AcDbSymbolTableRecord
100
AcDbRegAppTableRecord
  2
AcAecLayerStandard
 70
     0
  0
APPID
  5
12ED1
330
8
100
AcDbSymbolTableRecord
100
AcDbRegAppTableRecord
  2
ACAD_DSTYLE_DIMJAG
 70
     0
  0
APPID
  5
12ED2
330
8
100
AcDbSymbolTableRecord
100
AcDbRegAppTableRecord
  2
ACAD_DSTYLE_DIMTALN
 70
     0
  0
APPID
  5
31B81
330
8
100
AcDbSymbolTableRecord
100
AcDbRegAppTableRecord
  2
ACAD_DSTYLE_DIMBREAK
 70
     0
  0
APPID
  5
3AF8A
330
8
100
AcDbSymbolTableRecord
100
AcDbRegAppTableRecord
  2
ACAD_EXEMPT_FROM_CAD_STANDARDS
 70
     0
  0
APPID
  5
3AFAD
330
8
100
AcDbSymbolTableRecord
100
AcDbRegAppTableRecord
  2
DCO15
 70
     0
  0
APPID
  5
48D40
330
8
100
AcDbSymbolTableRecord
100
AcDbRegAppTableRecord
  2
AcadAnnoMonitorAlertIconDisabled
 70
     0
  0
APPID
  5
8C188
330
8
100
AcDbSymbolTableRecord
100
AcDbRegAppTableRecord
  2
AcLayerTools
 70
     0
  0
ENDTAB
  0
TABLE
  2
DIMSTYLE
  5
9
330
0
100
AcDbSymbolTable
 70
     2
100
AcDbDimStyleTable
 71
     0
  0
DIMSTYLE
105
20A68
330
9
100
AcDbSymbolTableRecord
100
AcDbDimStyleTableRecord
  2
SC5
 70
     0
 40
5.0
 41
2.5
 42
1.0
 43
2.5
 44
1.0
 73
     0
 74
     0
 77
     1
140
2.5
141
2.5
143
0.03937
147
1.0
173
     1
176
   256
177
   256
178
     4
271
     0
272
     0
278
     0
340
BB92
1001
AcadAnnotative
1000
AnnotativeData
1002
{
1070
     1
1070
     0
1002
}
  0
ENDTAB
  0
TABLE
  2
BLOCK_RECORD
  5
1
330
0
100
AcDbSymbolTable
 70
     5
  0
BLOCK_RECORD
  5
A
102
{ACAD_XDICTIONARY
360
36CD0
102
}
330
1
100
AcDbSymbolTableRecord
100
AcDbBlockTableRecord
  2
*MODEL_SPACE
340
20
 70
     0
280
     1
281
     0
  0
BLOCK_RECORD
  5
B
330
1
100
AcDbSymbolTableRecord
100
AcDbBlockTableRecord
  2
*PAPER_SPACE
340
21
 70
     0
280
     1
281
     0
  0
BLOCK_RECORD
  5
753D
330
1
100
AcDbSymbolTableRecord
100
AcDbBlockTableRecord
  2
_OPEN
340
0
 70
     0
280
     1
281
     0
  0
BLOCK_RECORD
  5
C920
330
1
100
AcDbSymbolTableRecord
100
AcDbBlockTableRecord
  2
E17EFD15
340
0
102
{BLKREFS
331
C964
102
}
 70
     0
280
     1
281
     0
1001
AcadAnnotative
1000
AnnotativeData
1002
{
1070
     1
1070
     0
1002
}
  0
BLOCK_RECORD
  5
13CC9
330
1
100
AcDbSymbolTableRecord
100
AcDbBlockTableRecord
  2
lekilint
340
0
102
{BLKREFS
331
13CCC
331
13CCD
102
}
 70
     0
280
     1
281
     0
1001
AcadAnnotative
1000
AnnotativeData
1002
{
1070
     1
1070
     0
1002
}
  0
BLOCK_RECORD
  5
21870
330
1
100
AcDbSymbolTableRecord
100
AcDbBlockTableRecord
  2
arm
340
0
102
{BLKREFS
331
21873
102
}
 70
     0
280
     1
281
     0
1001
AcadAnnotative
1000
AnnotativeData
1002
{
1070
     1
1070
     0
1002
}
  0
BLOCK_RECORD
  5
21874
330
1
100
AcDbSymbolTableRecord
100
AcDbBlockTableRecord
  2
aam
340
0
102
{BLKREFS
331
21877
102
}
 70
     0
280
     1
281
     0
1001
AcadAnnotative
1000
AnnotativeData
1002
{
1070
     1
1070
     0
1002
}
  0
ENDTAB
  0
ENDSEC
  0
SECTION
  2
BLOCKS
  0
BLOCK
  5
D
330
A
100
AcDbEntity
  8
0
100
AcDbBlockBegin
  2
*MODEL_SPACE
 70
     0
 10
0.0
 20
0.0
 30
0.0
  3
*MODEL_SPACE
  1

  0
ENDBLK
  5
E
330
A
100
AcDbEntity
  8
0
100
AcDbBlockEnd
  0
BLOCK
  5
F
330
B
100
AcDbEntity
 67
     1
  8
0
100
AcDbBlockBegin
  2
*PAPER_SPACE
 70
     0
 10
0.0
 20
0.0
 30
0.0
  3
*PAPER_SPACE
  1

  0
ENDBLK
  5
10
330
B
100
AcDbEntity
 67
     1
  8
0
100
AcDbBlockEnd
  0
BLOCK
  5
753E
330
753D
100
AcDbEntity
  8
0
100
AcDbBlockBegin
  2
_OPEN
 70
     0
 10
0.0
 20
0.0
 30
0.0
  3
_OPEN
  1

  0
LINE
  5
7540
330
753D
100
AcDbEntity
  8
0
  6
ByBlock
 62
     0
370
    -2
100
AcDbLine
 10
-1.0
 20
0.166667
 30
0.0
 11
0.0
 21
0.0
 31
0.0
  0
LINE
  5
7541
330
753D
100
AcDbEntity
  8
0
  6
ByBlock
 62
     0
370
    -2
100
AcDbLine
 10
-1.0
 20
-0.166667
 30
0.0
 11
0.0
 21
0.0
 31
0.0
  0
LINE
  5
7542
330
753D
100
AcDbEntity
  8
0
  6
ByBlock
 62
     0
370
    -2
100
AcDbLine
 10
0.0
 20
0.0
 30
0.0
 11
-1.0
 21
0.0
 31
0.0
  0
ENDBLK
  5
753F
330
753D
100
AcDbEntity
  8
0
100
AcDbBlockEnd
  0
BLOCK
  5
C921
330
C920
100
AcDbEntity
  8
0
100
AcDbBlockBegin
  2
E17EFD15
 70
     0
 10
0.0
 20
0.0
 30
0.0
  3
E17EFD15
  1

  0
ENDBLK
  5
C922
330
C920
100
AcDbEntity
  8
0
100
AcDbBlockEnd
  0
BLOCK
  5
13CCA
330
13CC9
100
AcDbEntity
  8
0
100
AcDbBlockBegin
  2
lekilint
 70
     0
 10
0.0
 20
0.0
 30
0.0
  3
lekilint
  1

  0
ENDBLK
  5
13CCB
330
13CC9
100
AcDbEntity
  8
0
100
AcDbBlockEnd
  0
BLOCK
  5
21871
330
21870
100
AcDbEntity
  8
0
100
AcDbBlockBegin
  2
arm
 70
     0
 10
0.0
 20
0.0
 30
0.0
  3
arm
  1

  0
ENDBLK
  5
21872
330
21870
100
AcDbEntity
  8
0
100
AcDbBlockEnd
  0
BLOCK
  5
21875
330
21874
100
AcDbEntity
  8
0
100
AcDbBlockBegin
  2
aam
 70
     0
 10
0.0
 20
0.0
 30
0.0
  3
aam
  1

  0
ENDBLK
  5
21876
330
21874
100
AcDbEntity
  8
0
100
AcDbBlockEnd
  0
ENDSEC
  0
SECTION
  2
ENTITIES
  0
INSERT
  5
C964
330
A
100
AcDbEntity
  8
FIG
370
     0
100
AcDbBlockReference
  2
E17EFD15
 10
-1842.514759377162
 20
-756.0514799071137
 30
0.0
  0
INSERT
  5
13CCC
330
A
100
AcDbEntity
  8
frame
100
AcDbBlockReference
  2
lekilint
 10
-4296.836480548528
 20
-7147.686960071481
 30
0.0
  0
INSERT
  5
13CCD
330
A
100
AcDbEntity
  8
frame
100
AcDbBlockReference
  2
lekilint
 10
-4310.836480548529
 20
-7133.687995883092
 30
0.0
  0
HATCH
  5
1803A
330
A
100
AcDbEntity
  8
レイヤー_1
 62
     7
100
AcDbHatch
 10
0.0
 20
0.0
 30
0.0
210
0.0
220
0.0
230
1.0
  2
SOLID
 70
     1
 71
     0
 91
        1
 92
        1
 93
        1
 72
     4
 94
        3
 73
     0
 74
     0
 95
        8
 96
        4
 40
0.0
 40
0.0
 40
0.0
 40
0.0
 40
1.0
 40
1.0
 40
1.0
 40
1.0
 10
175.6833333333333
 20
36.05395779079861
 10
176.020263671875
 20
35.97334255642361
 10
176.3809651692708
 20
36.0133056640625
 10
176.7206515842013
 20
36.05395779079861
 97
        0
 97
        0
 75
     0
 76
     1
 98
        1
 10
0.0
 20
0.0
450
        0
451
        0
460
0.0
461
0.0
452
        1
462
0.0
453
        0
470

  0
HATCH
  5
1B49C
330
A
100
AcDbEntity
  8
レイヤー_1
 62
     7
100
AcDbHatch
 10
0.0
 20
0.0
 30
0.0
210
0.0
220
0.0
230
1.0
  2
SOLID
 70
     1
 71
     0
 91
        1
 92
        1
 93
        1
 72
     4
 94
        3
 73
     0
 74
     0
 95
        8
 96
        4
 40
0.0
 40
0.0
 40
0.0
 40
0.0
 40
1.0
 40
1.0
 40
1.0
 40
1.0
 10
-3916.609542370996
 20
-6556.851706807984
 10
-3916.272612032454
 20
-6556.93232204236
 10
-3915.911910535058
 20
-6556.892358934722
 10
-3915.572568629676
 20
-6556.851706807984
 97
        0
 97
        0
 75
     0
 76
     1
 98
        1
 10
-4091.806083712142
 20
-6591.847331265451
450
        0
451
        0
460
0.0
461
0.0
452
        1
462
0.0
453
        0
470

  0
INSERT
  5
21873
330
A
100
AcDbEntity
  8
PARTS
100
AcDbBlockReference
  2
arm
 10
2273.000299080948
 20
-5353.555433530938
 30
0.0
  0
INSERT
  5
21877
330
A
100
AcDbEntity
  8
PARTS
100
AcDbBlockReference
  2
aam
 10
938.452973030904
 20
-5255.409966559286
 30
0.0
  0
LINE
  5
588DC
330
A
100
AcDbEntity
  8
TOUGU
100
AcDbLine
 10
89510.55695522931
 20
-31570.04134107891
 30
0.0
 11
89530.55695522932
 21
-31570.04134107891
 31
0.0
  0
ARC
  5
6A1DC
330
A
100
AcDbEntity
  8
TOUGU
100
AcDbCircle
 10
78485.6861326262
 20
-32631.19948746473
 30
-0.0000000000000191
 40
30.0
100
AcDbArc
 50
321.9268766770737
 51
90.0
  0
LINE
  5
95C25
330
A
100
AcDbEntity
  8
FLAME
100
AcDbLine
 10
39325.72268786097
 20
-27861.2215446737
 30
0.0
 11
39235.72268786097
 21
-27861.2215446737
 31
0.0
  0
LINE
  5
95C26
330
A
100
AcDbEntity
  8
FLAME
100
AcDbLine
 10
39325.72268786097
 20
-27856.2215446737
 30
0.0
 11
39235.72268786097
 21
-27856.2215446737
 31
0.0
  0
LINE
  5
95C27
330
A
100
AcDbEntity
  8
FLAME
100
AcDbLine
 10
39325.72268786097
 20
-27851.2215446737
 30
0.0
 11
39235.72268786097
 21
-27851.2215446737
 31
0.0
  0
TEXT
  5
95C28
330
A
100
AcDbEntity
  8
text
  6
Continuous
100
AcDbText
 10
39239.17157374662
 20
-27860.08180734008
 30
0.0
 40
2.5
  1
KB334
  7
新規スタイル1
 11
39239.17157374662
 21
-27858.83180734009
 31
0.0
100
AcDbText
 73
     2
  0
TEXT
  5
95C29
330
A
100
AcDbEntity
  8
text
  6
Continuous
100
AcDbText
 10
39239.17157374662
 20
-27855.08180734009
 30
0.0
 40
2.5
  1
ブラケット　334
  7
新規スタイル1
 11
39239.17157374662
 21
-27853.83180734009
 31
0.0
100
AcDbText
 73
     2
  0
TEXT
  5
95C2A
330
A
100
AcDbEntity
  8
text
  6
Continuous
100
AcDbText
 10
39239.32439449819
 20
-27864.92082250897
 30
0.0
 40
2.5
  1
E26 LED電球(60W形相当　電球色 全方向/広配光タイプ）（別売）
 41
0.8672464372173431
  7
新規スタイル1
 72
     5
 11
39324.855356326
 21
-27864.92082250897
 31
0.0
100
AcDbText
  0
LWPOLYLINE
  5
95C2B
330
A
100
AcDbEntity
  8
Defpoints
100
AcDbPolyline
 90
        4
 70
     1
 43
0.0
 10
39175.72268786097
 20
-27962.2215446737
 10
39385.72268786097
 20
-27962.2215446737
 10
39385.72268786097
 20
-27665.2215446737
 10
39175.72268786097
 20
-27665.2215446737
  0
LWPOLYLINE
  5
95C2C
330
A
100
AcDbEntity
  8
FLAME
100
AcDbPolyline
 90
        4
 70
     1
 43
0.0
 10
39235.72268786097
 20
-27866.2215446737
 10
39325.72268786097
 20
-27866.2215446737
 10
39325.72268786097
 20
-27761.2215446737
 10
39235.72268786097
 20
-27761.2215446737
  0
LINE
  5
9633D
330
A
100
AcDbEntity
  8
shade
100
AcDbLine
 10
39273.547940777
 20
-27806.27367592813
 30
0.0000000000000095
 11
39273.547940777
 21
-27825.34247902445
 31
0.0000000000000095
  0
LINE
  5
9633E
330
A
100
AcDbEntity
  8
shade
100
AcDbLine
 10
39275.07990676392
 20
-27802.65671838078
 30
0.0000000000000095
 11
39275.07990676392
 21
-27801.14201934877
 31
0.0000000000000095
  0
POLYLINE
  5
9633F
330
A
100
AcDbEntity
  8
shade
100
AcDb2dPolyline
 66
     1
 10
0.0
 20
0.0
 30
0.0000000000000095
  0
VERTEX
  5
96340
330
9633F
100
AcDbEntity
  8
shade
100
AcDbVertex
100
AcDb2dVertex
 10
39275.14950898219
 20
-27803.37411374446
 30
0.0000000000000095
  0
VERTEX
  5
96341
330
9633F
100
AcDbEntity
  8
shade
100
AcDbVertex
100
AcDb2dVertex
 10
39275.10102806516
 20
-27803.0593162453
 30
0.0000000000000095
  0
VERTEX
  5
96342
330
9633F
100
AcDbEntity
  8
shade
100
AcDbVertex
100
AcDb2dVertex
 10
39275.07990676392
 20
-27802.65671838078
 30
0.0000000000000095
  0
SEQEND
  5
96343
330
9633F
100
AcDbEntity
  8
shade
  0
POLYLINE
  5
96344
330
A
100
AcDbEntity
  8
shade
100
AcDb2dPolyline
 66
     1
 10
0.0
 20
0.0
 30
0.0000000000000095
  0
VERTEX
  5
96345
330
96344
100
AcDbEntity
  8
shade
100
AcDbVertex
100
AcDb2dVertex
 10
39275.07990676392
 20
-27801.14201934877
 30
0.0000000000000095
  0
VERTEX
  5
96346
330
96344
100
AcDbEntity
  8
shade
100
AcDbVertex
100
AcDb2dVertex
 10
39275.10102806516
 20
-27800.74993903018
 30
0.0000000000000095
  0
VERTEX
  5
96347
330
96344
100
AcDbEntity
  8
shade
100
AcDbVertex
100
AcDb2dVertex
 10
39275.15404684175
 20
-27800.35803113037
 30
0.0000000000000095
  0
VERTEX
  5
96348
330
96344
100
AcDbEntity
  8
shade
100
AcDbVertex
100
AcDb2dVertex
 10
39275.27475767368
 20
-27799.92315757952
 30
0.0000000000000095
  0
SEQEND
  5
96349
330
96344
100
AcDbEntity
  8
shade
  0
LINE
  5
9634A
330
A
100
AcDbEntity
  8
shade
100
AcDbLine
 10
39274.54794077699
 20
-27806.27367592813
 30
0.0000000000000095
 11
39274.67333772313
 21
-27806.39907287426
 31
0.0000000000000095
  0
LINE
  5
9634B
330
A
100
AcDbEntity
  8
shade
100
AcDbLine
 10
39274.67294077699
 20
-27806.39867594176
 30
0.0000000000000095
 11
39274.67294077699
 21
-27806.46767132175
 31
0.0000000000000095
  0
LINE
  5
9634C
330
A
100
AcDbEntity
  8
shade
100
AcDbLine
 10
39274.54794077699
 20
-27806.27367592813
 30
0.0000000000000095
 11
39272.54794077699
 21
-27806.27367592813
 31
0.0000000000000095
  0
LINE
  5
9634D
330
A
100
AcDbEntity
  8
shade
100
AcDbLine
 10
39272.44624768275
 20
-27806.37536902238
 30
0.0000000000000095
 11
39272.54794077699
 21
-27806.27367592813
 31
0.0000000000000095
  0
LINE
  5
9634E
330
A
100
AcDbEntity
  8
shade
 48
5.0
100
AcDbLine
 10
39273.547940777
 20
-27806.27367592813
 30
0.0000000000000095
 11
39272.80789786026
 21
-27806.27367592813
 31
0.0000000000000095
  0
LINE
  5
9634F
330
A
100
AcDbEntity
  8
shade
 48
5.0
100
AcDbLine
 10
39273.547940777
 20
-27806.27367592813
 30
0.0000000000000095
 11
39274.28789786027
 21
-27806.27367592813
 31
0.0000000000000095
  0
POLYLINE
  5
96350
330
A
100
AcDbEntity
  8
shade
100
AcDb2dPolyline
 66
     1
 10
0.0
 20
0.0
 30
0.0000000000000095
  0
VERTEX
  5
96351
330
96350
100
AcDbEntity
  8
shade
100
AcDbVertex
100
AcDb2dVertex
 10
39257.10779278356
 20
-27825.53297773249
 30
0.0000000000000095
  0
VERTEX
  5
96352
330
96350
100
AcDbEntity
  8
shade
100
AcDbVertex
100
AcDb2dVertex
 10
39267.10269142456
 20
-27807.06107618632
 30
0.0000000000000095
  0
SEQEND
  5
96353
330
96350
100
AcDbEntity
  8
shade
  0
POLYLINE
  5
96354
330
A
100
AcDbEntity
  8
shade
100
AcDb2dPolyline
 66
     1
 10
0.0
 20
0.0
 30
0.0000000000000095
  0
VERTEX
  5
96355
330
96354
100
AcDbEntity
  8
shade
100
AcDbVertex
100
AcDb2dVertex
 10
39267.33764155369
 20
-27807.07377566955
 30
0.0000000000000095
  0
VERTEX
  5
96356
330
96354
100
AcDbEntity
  8
shade
100
AcDbVertex
100
AcDb2dVertex
 10
39257.67929213747
 20
-27825.53932747411
 30
0.0000000000000095
  0
SEQEND
  5
96357
330
96354
100
AcDbEntity
  8
shade
  0
POLYLINE
  5
96358
330
A
100
AcDbEntity
  8
shade
100
AcDb2dPolyline
 66
     1
 10
0.0
 20
0.0
 30
0.0000000000000095
  0
VERTEX
  5
96359
330
96358
100
AcDbEntity
  8
shade
100
AcDbVertex
100
AcDb2dVertex
 10
39258.54289252483
 20
-27825.51392850764
 30
0.0000000000000095
  0
VERTEX
  5
9635A
330
96358
100
AcDbEntity
  8
shade
100
AcDbVertex
100
AcDb2dVertex
 10
39267.68689349147
 20
-27807.10553083718
 30
0.0000000000000095
  0
SEQEND
  5
9635B
330
96358
100
AcDbEntity
  8
shade
  0
POLYLINE
  5
9635C
330
A
100
AcDbEntity
  8
shade
100
AcDb2dPolyline
 66
     1
 10
0.0
 20
0.0
 30
0.0000000000000095
  0
VERTEX
  5
9635D
330
9635C
100
AcDbEntity
  8
shade
100
AcDbVertex
100
AcDb2dVertex
 10
39268.11869207026
 20
-27807.1118805788
 30
0.0000000000000095
  0
VERTEX
  5
9635E
330
9635C
100
AcDbEntity
  8
shade
100
AcDbVertex
100
AcDb2dVertex
 10
39259.69859233075
 20
-27825.67902824922
 30
0.0000000000000095
  0
SEQEND
  5
9635F
330
9635C
100
AcDbEntity
  8
shade
  0
POLYLINE
  5
96360
330
A
100
AcDbEntity
  8
shade
100
AcDb2dPolyline
 66
     1
 10
0.0
 20
0.0
 30
0.0000000000000095
  0
VERTEX
  5
96361
330
96360
100
AcDbEntity
  8
shade
100
AcDbVertex
100
AcDb2dVertex
 10
39261.29244207197
 20
-27825.55202695734
 30
0.0000000000000095
  0
VERTEX
  5
96362
330
96360
100
AcDbEntity
  8
shade
100
AcDbVertex
100
AcDb2dVertex
 10
39268.67749194093
 20
-27807.18807747819
 30
0.0000000000000095
  0
SEQEND
  5
96363
330
96360
100
AcDbEntity
  8
shade
  0
POLYLINE
  5
96364
330
A
100
AcDbEntity
  8
shade
100
AcDb2dPolyline
 66
     1
 10
0.0
 20
0.0
 30
0.0000000000000095
  0
VERTEX
  5
96365
330
96364
100
AcDbEntity
  8
shade
100
AcDbVertex
100
AcDb2dVertex
 10
39269.42044077803
 20
-27807.21982618628
 30
0.0000000000000095
  0
VERTEX
  5
96366
330
96364
100
AcDbEntity
  8
shade
100
AcDbVertex
100
AcDb2dVertex
 10
39263.08314187774
 20
-27825.41232618223
 30
0.0000000000000095
  0
SEQEND
  5
96367
330
96364
100
AcDbEntity
  8
shade
  0
POLYLINE
  5
96368
330
A
100
AcDbEntity
  8
shade
100
AcDb2dPolyline
 66
     1
 10
0.0
 20
0.0
 30
0.0000000000000095
  0
VERTEX
  5
96369
330
96368
100
AcDbEntity
  8
shade
100
AcDbVertex
100
AcDb2dVertex
 10
39270.17609232813
 20
-27807.21982618628
 30
0.0000000000000095
  0
VERTEX
  5
9636A
330
96368
100
AcDbEntity
  8
shade
100
AcDbVertex
100
AcDb2dVertex
 10
39265.007192717
 20
-27825.31707682821
 30
0.0000000000000095
  0
SEQEND
  5
9636B
330
96368
100
AcDbEntity
  8
shade
  0
POLYLINE
  5
9636C
330
A
100
AcDbEntity
  8
shade
100
AcDb2dPolyline
 66
     1
 10
0.0
 20
0.0
 30
0.0000000000000095
  0
VERTEX
  5
9636D
330
9636C
100
AcDbEntity
  8
shade
100
AcDbVertex
100
AcDb2dVertex
 10
39271.12859232789
 20
-27807.24522515274
 30
0.0000000000000095
  0
VERTEX
  5
9636E
330
9636C
100
AcDbEntity
  8
shade
100
AcDbVertex
100
AcDb2dVertex
 10
39267.22969271644
 20
-27825.33612928283
 30
0.0000000000000095
  0
SEQEND
  5
9636F
330
9636C
100
AcDbEntity
  8
shade
  0
POLYLINE
  5
96370
330
A
100
AcDbEntity
  8
shade
100
AcDb2dPolyline
 66
     1
 10
0.0
 20
0.0
 30
0.0000000000000095
  0
VERTEX
  5
96371
330
96370
100
AcDbEntity
  8
shade
100
AcDbVertex
100
AcDb2dVertex
 10
39269.43314349104
 20
-27825.27897837851
 30
0.0000000000000095
  0
VERTEX
  5
96372
330
96370
100
AcDbEntity
  8
shade
100
AcDbVertex
100
AcDb2dVertex
 10
39271.99219271526
 20
-27807.25792463597
 30
0.0000000000000095
  0
SEQEND
  5
96373
330
96370
100
AcDbEntity
  8
shade
  0
POLYLINE
  5
96374
330
A
100
AcDbEntity
  8
shade
100
AcDb2dPolyline
 66
     1
 10
0.0
 20
0.0
 30
0.0000000000000095
  0
VERTEX
  5
96375
330
96374
100
AcDbEntity
  8
shade
100
AcDbVertex
100
AcDb2dVertex
 10
39273.05264155226
 20
-27807.26428083714
 30
0.0000000000000095
  0
VERTEX
  5
96376
330
96374
100
AcDbEntity
  8
shade
100
AcDbVertex
100
AcDb2dVertex
 10
39271.57944336131
 20
-27825.34247902445
 30
0.0000000000000095
  0
SEQEND
  5
96377
330
96374
100
AcDbEntity
  8
shade
  0
POLYLINE
  5
96378
330
A
100
AcDbEntity
  8
shade
100
AcDb2dPolyline
 66
     1
 10
0.0
 20
0.0
 30
0.0000000000000095
  0
VERTEX
  5
96379
330
96378
100
AcDbEntity
  8
shade
100
AcDbVertex
100
AcDb2dVertex
 10
39272.95739219824
 20
-27806.26732618651
 30
0.0000000000000095
  0
VERTEX
  5
9637A
330
96378
100
AcDbEntity
  8
shade
100
AcDbVertex
100
AcDb2dVertex
 10
39273.2494932317
 20
-27806.86422773666
 30
0.0000000000000095
  0
SEQEND
  5
9637B
330
96378
100
AcDbEntity
  8
shade
  0
POLYLINE
  5
9637C
330
A
100
AcDbEntity
  8
shade
100
AcDb2dPolyline
 66
     1
 10
0.0
 20
0.0
 30
0.0000000000000095
  0
VERTEX
  5
9637D
330
9637C
100
AcDbEntity
  8
shade
100
AcDbVertex
100
AcDb2dVertex
 10
39272.36684361949
 20
-27806.28002566975
 30
0.0000000000000095
  0
VERTEX
  5
9637E
330
9637C
100
AcDbEntity
  8
shade
100
AcDbVertex
100
AcDb2dVertex
 10
39272.62084297348
 20
-27806.6102251529
 30
0.0000000000000095
  0
SEQEND
  5
9637F
330
9637C
100
AcDbEntity
  8
shade
  0
POLYLINE
  5
96380
330
A
100
AcDbEntity
  8
shade
100
AcDb2dPolyline
 66
     1
 10
0.0
 20
0.0
 30
0.0000000000000095
  0
VERTEX
  5
96381
330
96380
100
AcDbEntity
  8
shade
100
AcDbVertex
100
AcDb2dVertex
 10
39271.77629181097
 20
-27806.2609764449
 30
0.0000000000000095
  0
VERTEX
  5
96382
330
96380
100
AcDbEntity
  8
shade
100
AcDbVertex
100
AcDb2dVertex
 10
39272.02394142333
 20
-27806.54672773674
 30
0.0000000000000095
  0
SEQEND
  5
96383
330
96380
100
AcDbEntity
  8
shade
  0
POLYLINE
  5
96384
330
A
100
AcDbEntity
  8
shade
100
AcDb2dPolyline
 66
     1
 10
0.0
 20
0.0
 30
0.0000000000000095
  0
VERTEX
  5
96385
330
96384
100
AcDbEntity
  8
shade
100
AcDbVertex
100
AcDb2dVertex
 10
39271.24924064838
 20
-27806.26732618651
 30
0.0000000000000095
  0
VERTEX
  5
96386
330
96384
100
AcDbEntity
  8
shade
100
AcDbVertex
100
AcDb2dVertex
 10
39271.49054051913
 20
-27806.43242592809
 30
0.0000000000000095
  0
SEQEND
  5
96387
330
96384
100
AcDbEntity
  8
shade
  0
POLYLINE
  5
96388
330
A
100
AcDbEntity
  8
shade
100
AcDb2dPolyline
 66
     1
 10
0.0
 20
0.0
 30
0.0000000000000095
  0
VERTEX
  5
96389
330
96388
100
AcDbEntity
  8
shade
100
AcDbVertex
100
AcDb2dVertex
 10
39270.7729906485
 20
-27806.28002566975
 30
0.0000000000000095
  0
VERTEX
  5
9638A
330
96388
100
AcDbEntity
  8
shade
100
AcDbVertex
100
AcDb2dVertex
 10
39270.98889155278
 20
-27806.40702696163
 30
0.0000000000000095
  0
SEQEND
  5
9638B
330
96388
100
AcDbEntity
  8
shade
  0
POLYLINE
  5
9638C
330
A
100
AcDbEntity
  8
shade
100
AcDb2dPolyline
 66
     1
 10
0.0
 20
0.0
 30
0.0000000000000095
  0
VERTEX
  5
9638D
330
9638C
100
AcDbEntity
  8
shade
100
AcDbVertex
100
AcDb2dVertex
 10
39270.31579310324
 20
-27806.27367592813
 30
0.0000000000000095
  0
VERTEX
  5
9638E
330
9638C
100
AcDbEntity
  8
shade
100
AcDbVertex
100
AcDb2dVertex
 10
39270.58884168208
 20
-27806.35622902869
 30
0.0000000000000095
  0
SEQEND
  5
9638F
330
9638C
100
AcDbEntity
  8
shade
  0
POLYLINE
  5
96390
330
A
100
AcDbEntity
  8
shade
100
AcDb2dPolyline
 66
     1
 10
0.0
 20
0.0
 30
0.0000000000000095
  0
VERTEX
  5
96391
330
96390
100
AcDbEntity
  8
shade
100
AcDbVertex
100
AcDb2dVertex
 10
39269.94749194061
 20
-27806.28637541136
 30
0.0000000000000095
  0
VERTEX
  5
96392
330
96390
100
AcDbEntity
  8
shade
100
AcDbVertex
100
AcDb2dVertex
 10
39270.20149129459
 20
-27806.318130579
 30
0.0000000000000095
  0
SEQEND
  5
96393
330
96390
100
AcDbEntity
  8
shade
  0
POLYLINE
  5
96394
330
A
100
AcDbEntity
  8
shade
100
AcDb2dPolyline
 66
     1
 10
0.0
 20
0.0
 30
0.0000000000000095
  0
VERTEX
  5
96395
330
96394
100
AcDbEntity
  8
shade
100
AcDbVertex
100
AcDb2dVertex
 10
39269.6299919407
 20
-27806.28002566975
 30
0.0000000000000095
  0
VERTEX
  5
96396
330
96394
100
AcDbEntity
  8
shade
100
AcDbVertex
100
AcDb2dVertex
 10
39269.88399129468
 20
-27806.31178083738
 30
0.0000000000000095
  0
SEQEND
  5
96397
330
96394
100
AcDbEntity
  8
shade
  0
POLYLINE
  5
96398
330
A
100
AcDbEntity
  8
shade
100
AcDb2dPolyline
 66
     1
 10
0.0
 20
0.0
 30
0.0000000000000095
  0
VERTEX
  5
96399
330
96398
100
AcDbEntity
  8
shade
100
AcDbVertex
100
AcDb2dVertex
 10
39269.02039090732
 20
-27806.28637541136
 30
0.0000000000000095
  0
VERTEX
  5
9639A
330
96398
100
AcDbEntity
  8
shade
100
AcDbVertex
100
AcDb2dVertex
 10
39269.20454310352
 20
-27806.2990748946
 30
0.0000000000000095
  0
VERTEX
  5
9639B
330
96398
100
AcDbEntity
  8
shade
100
AcDbVertex
100
AcDb2dVertex
 10
39269.41409103641
 20
-27806.28637541136
 30
0.0000000000000095
  0
VERTEX
  5
9639C
330
96398
100
AcDbEntity
  8
shade
100
AcDbVertex
100
AcDb2dVertex
 10
39269.56014155313
 20
-27806.2990748946
 30
0.0000000000000095
  0
SEQEND
  5
9639D
330
96398
100
AcDbEntity
  8
shade
  0
POLYLINE
  5
9639E
330
A
100
AcDbEntity
  8
shade
100
AcDb2dPolyline
 66
     1
 10
0.0
 20
0.0
 30
0.0000000000000095
  0
VERTEX
  5
9639F
330
9639E
100
AcDbEntity
  8
shade
100
AcDbVertex
100
AcDb2dVertex
 10
39268.11869207026
 20
-27807.1118805788
 30
0.0000000000000095
  0
VERTEX
  5
963A0
330
9639E
100
AcDbEntity
  8
shade
100
AcDbVertex
100
AcDb2dVertex
 10
39270.31579310324
 20
-27806.27367592813
 30
0.0000000000000095
  0
VERTEX
  5
963A1
330
9639E
100
AcDbEntity
  8
shade
100
AcDbVertex
100
AcDb2dVertex
 10
39268.67749194093
 20
-27807.18807747819
 30
0.0000000000000095
  0
VERTEX
  5
963A2
330
9639E
100
AcDbEntity
  8
shade
100
AcDbVertex
100
AcDb2dVertex
 10
39270.7729906485
 20
-27806.28002566975
 30
0.0000000000000095
  0
VERTEX
  5
963A3
330
9639E
100
AcDbEntity
  8
shade
100
AcDbVertex
100
AcDb2dVertex
 10
39269.42044077803
 20
-27807.21982618628
 30
0.0000000000000095
  0
VERTEX
  5
963A4
330
9639E
100
AcDbEntity
  8
shade
100
AcDbVertex
100
AcDb2dVertex
 10
39271.24924064838
 20
-27806.26732618651
 30
0.0000000000000095
  0
VERTEX
  5
963A5
330
9639E
100
AcDbEntity
  8
shade
100
AcDbVertex
100
AcDb2dVertex
 10
39270.17609232813
 20
-27807.21982618628
 30
0.0000000000000095
  0
VERTEX
  5
963A6
330
9639E
100
AcDbEntity
  8
shade
100
AcDbVertex
100
AcDb2dVertex
 10
39271.77629181097
 20
-27806.2609764449
 30
0.0000000000000095
  0
VERTEX
  5
963A7
330
9639E
100
AcDbEntity
  8
shade
100
AcDbVertex
100
AcDb2dVertex
 10
39271.12859232789
 20
-27807.24522515274
 30
0.0000000000000095
  0
VERTEX
  5
963A8
330
9639E
100
AcDbEntity
  8
shade
100
AcDbVertex
100
AcDb2dVertex
 10
39272.36684361949
 20
-27806.28002566975
 30
0.0000000000000095
  0
VERTEX
  5
963A9
330
9639E
100
AcDbEntity
  8
shade
100
AcDbVertex
100
AcDb2dVertex
 10
39271.99219271526
 20
-27807.25792463597
 30
0.0000000000000095
  0
VERTEX
  5
963AA
330
9639E
100
AcDbEntity
  8
shade
100
AcDbVertex
100
AcDb2dVertex
 10
39272.95739219824
 20
-27806.26732618651
 30
0.0000000000000095
  0
VERTEX
  5
963AB
330
9639E
100
AcDbEntity
  8
shade
100
AcDbVertex
100
AcDb2dVertex
 10
39273.05264155226
 20
-27807.26428083714
 30
0.0000000000000095
  0
VERTEX
  5
963AC
330
9639E
100
AcDbEntity
  8
shade
100
AcDbVertex
100
AcDb2dVertex
 10
39273.547940777
 20
-27806.27367592813
 30
0.0000000000000095
  0
SEQEND
  5
963AD
330
9639E
100
AcDbEntity
  8
shade
  0
POLYLINE
  5
963AE
330
A
100
AcDbEntity
  8
shade
100
AcDb2dPolyline
 66
     1
 10
0.0
 20
0.0
 30
0.0000000000000095
  0
VERTEX
  5
963AF
330
963AE
100
AcDbEntity
  8
shade
100
AcDbVertex
100
AcDb2dVertex
 10
39269.6299919407
 20
-27806.28002566975
 30
0.0000000000000095
  0
VERTEX
  5
963B0
330
963AE
100
AcDbEntity
  8
shade
100
AcDbVertex
100
AcDb2dVertex
 10
39267.33764155369
 20
-27807.07377566955
 30
0.0000000000000095
  0
VERTEX
  5
963B1
330
963AE
100
AcDbEntity
  8
shade
100
AcDbVertex
100
AcDb2dVertex
 10
39269.41409103641
 20
-27806.28637541136
 30
0.0000000000000095
  0
VERTEX
  5
963B2
330
963AE
100
AcDbEntity
  8
shade
100
AcDbVertex
100
AcDb2dVertex
 10
39267.10269142456
 20
-27807.06107618632
 30
0.0000000000000095
  0
VERTEX
  5
963B3
330
963AE
100
AcDbEntity
  8
shade
100
AcDbVertex
100
AcDb2dVertex
 10
39269.20454310352
 20
-27806.2990748946
 30
0.0000000000000095
  0
VERTEX
  5
963B4
330
963AE
100
AcDbEntity
  8
shade
100
AcDbVertex
100
AcDb2dVertex
 10
39267.04554052024
 20
-27806.99757877015
 30
0.0000000000000095
  0
VERTEX
  5
963B5
330
963AE
100
AcDbEntity
  8
shade
100
AcDbVertex
100
AcDb2dVertex
 10
39269.02039090732
 20
-27806.28637541136
 30
0.0000000000000095
  0
SEQEND
  5
963B6
330
963AE
100
AcDbEntity
  8
shade
  0
POLYLINE
  5
963B7
330
A
100
AcDbEntity
  8
shade
100
AcDb2dPolyline
 66
     1
 10
0.0
 20
0.0
 30
0.0000000000000095
  0
VERTEX
  5
963B8
330
963B7
100
AcDbEntity
  8
shade
100
AcDbVertex
100
AcDb2dVertex
 10
39269.6299919407
 20
-27806.28002566975
 30
0.0000000000000095
  0
VERTEX
  5
963B9
330
963B7
100
AcDbEntity
  8
shade
100
AcDbVertex
100
AcDb2dVertex
 10
39267.68689349147
 20
-27807.10553083718
 30
0.0000000000000095
  0
VERTEX
  5
963BA
330
963B7
100
AcDbEntity
  8
shade
100
AcDbVertex
100
AcDb2dVertex
 10
39269.94749194061
 20
-27806.28637541136
 30
0.0000000000000095
  0
VERTEX
  5
963BB
330
963B7
100
AcDbEntity
  8
shade
100
AcDbVertex
100
AcDb2dVertex
 10
39268.11869207026
 20
-27807.1118805788
 30
0.0000000000000095
  0
SEQEND
  5
963BC
330
963B7
100
AcDbEntity
  8
shade
  0
LINE
  5
963BD
330
A
100
AcDbEntity
  8
shade
100
AcDbLine
 10
39275.11831391217
 20
-27800.62216429765
 30
0.0000000000000095
 11
39275.24290364942
 21
-27800.7467540349
 31
0.0000000000000095
  0
SPLINE
  5
963BE
330
A
100
AcDbEntity
  8
shade
100
AcDbSpline
210
0.0
220
0.0
230
1.0
 70
     8
 71
     3
 72
     8
 73
     4
 74
     0
 42
0.00000001
 43
0.0000000001
 40
0.0
 40
0.0
 40
0.0
 40
0.0
 40
1.0
 40
1.0
 40
1.0
 40
1.0
 10
39310.93212672129
 20
-27781.45619545774
 30
0.0000000000000095
 10
39310.87609061595
 20
-27779.98917021995
 30
0.0000000000000095
 10
39308.79223717246
 20
-27779.99408415535
 30
0.0000000000000095
 10
39308.72861464056
 20
-27781.45619545774
 30
0.0000000000000095
  0
LINE
  5
963BF
330
A
100
AcDbEntity
  8
shade
100
AcDbLine
 10
39310.61418648053
 20
-27785.74649210131
 30
0.0000000000000095
 11
39308.38963930795
 21
-27802.54766825112
 31
0.0000000000000095
  0
LINE
  5
963C0
330
A
100
AcDbEntity
  8
shade
100
AcDbLine
 10
39307.51047591987
 20
-27809.25320724421
 30
0.0000000000000095
 11
39306.79011023339
 21
-27814.66646743878
 31
0.0000000000000095
  0
LINE
  5
963C1
330
A
100
AcDbEntity
  8
shade
100
AcDbLine
 10
39308.98293234941
 20
-27785.10026649265
 30
0.0000000000000095
 11
39307.56340848707
 21
-27795.82074932861
 31
0.0000000000000095
  0
LINE
  5
963C2
330
A
100
AcDbEntity
  8
shade
100
AcDbLine
 10
39306.67355513428
 20
-27802.51594319456
 30
0.0000000000000095
 11
39305.80490929212
 21
-27809.13682456389
 31
0.0000000000000095
  0
LINE
  5
963C3
330
A
100
AcDbEntity
  8
shade
100
AcDbLine
 10
39305.063336095
 20
-27814.70888246005
 30
0.0000000000000095
 11
39305.04212858437
 21
-27814.92078514762
 31
0.0000000000000095
  0
LINE
  5
963C4
330
A
100
AcDbEntity
  8
shade
100
AcDbLine
 10
39305.14799371876
 20
-27815.17493043769
 30
0.0000000000000095
 11
39301.12253232996
 21
-27792.5685861935
 31
0.0000000000000095
  0
LINE
  5
963C5
330
A
100
AcDbEntity
  8
shade
100
AcDbLine
 10
39306.83235283587
 20
-27814.87837012635
 30
0.0000000000000095
 11
39302.79637390115
 21
-27792.27202588216
 31
0.0000000000000095
  0
LINE
  5
963C6
330
A
100
AcDbEntity
  8
shade
100
AcDbLine
 10
39302.93396409211
 20
-27792.61100121477
 30
0.0000000000000095
 11
39302.89172148962
 21
-27792.79117884578
 31
0.0000000000000095
  0
LINE
  5
963C7
330
A
100
AcDbEntity
  8
shade
100
AcDbLine
 10
39299.7983560561
 20
-27806.1175992082
 30
0.0000000000000095
 11
39299.14161290152
 21
-27808.93543942223
 31
0.0000000000000095
  0
LINE
  5
963C8
330
A
100
AcDbEntity
  8
shade
100
AcDbLine
 10
39301.15442980532
 20
-27792.7380738598
 30
0.0000000000000095
 11
39299.90439360928
 21
-27798.13012654373
 31
0.0000000000000095
  0
LINE
  5
963C9
330
A
100
AcDbEntity
  8
shade
100
AcDbLine
 10
39298.98264278115
 20
-27802.10265536533
 30
0.0000000000000095
 11
39297.54208382696
 21
-27808.29990377829
 31
0.0000000000000095
  0
LINE
  5
963CA
330
A
100
AcDbEntity
  8
shade
100
AcDbLine
 10
39299.31110056783
 20
-27795.20642119531
 30
0.0000000000000095
 11
39302.73275136924
 21
-27811.97569986977
 31
0.0000000000000095
  0
LINE
  5
963CB
330
A
100
AcDbEntity
  8
shade
100
AcDbLine
 10
39297.62674145072
 20
-27795.46056648537
 30
0.0000000000000095
 11
39301.05908221685
 21
-27812.28295014582
 31
0.0000000000000095
  0
LINE
  5
963CC
330
A
100
AcDbEntity
  8
shade
100
AcDbLine
 10
39300.9213196071
 20
-27811.97569986977
 30
0.0000000000000095
 11
39300.96373462837
 21
-27811.78517711162
 31
0.0000000000000095
  0
LINE
  5
963CD
330
A
100
AcDbEntity
  8
shade
100
AcDbLine
 10
39303.67553728923
 20
-27797.19803058846
 30
0.0000000000000095
 11
39305.09506115157
 21
-27789.61315578851
 31
0.0000000000000095
  0
LINE
  5
963CE
330
A
100
AcDbEntity
  8
shade
100
AcDbLine
 10
39302.69033634798
 20
-27811.77448714691
 30
0.0000000000000095
 11
39303.64381223267
 21
-27806.68968473902
 31
0.0000000000000095
  0
LINE
  5
963CF
330
A
100
AcDbEntity
  8
shade
100
AcDbLine
 10
39304.52297562075
 20
-27801.94385766374
 30
0.0000000000000095
 11
39305.78370178149
 21
-27795.20642119531
 31
0.0000000000000095
  0
LINE
  5
963D0
330
A
100
AcDbEntity
  8
shade
100
AcDbLine
 10
39306.81131774402
 20
-27789.68729586634
 30
0.0000000000000095
 11
39306.85356034651
 21
-27789.47539317877
 31
0.0000000000000095
  0
LINE
  5
963D1
330
A
100
AcDbEntity
  8
shade
100
AcDbLine
 10
39305.05264613029
 20
-27789.31642305839
 30
0.0000000000000095
 11
39308.79223717246
 21
-27819.7195447901
 31
0.0000000000000095
  0
SPLINE
  5
963D2
330
A
100
AcDbEntity
  8
shade
100
AcDbSpline
210
0.0
220
0.0
230
1.0
 70
     8
 71
     3
 72
    32
 73
    28
 74
     0
 42
0.00000001
 43
0.0000000001
 40
0.0
 40
0.0
 40
0.0
 40
0.0
 40
1.0
 40
1.0
 40
1.0
 40
2.0
 40
2.0
 40
2.0
 40
3.0
 40
3.0
 40
3.0
 40
4.0
 40
4.0
 40
4.0
 40
5.0
 40
5.0
 40
5.0
 40
6.0
 40
6.0
 40
6.0
 40
7.0
 40
7.0
 40
7.0
 40
8.0
 40
8.0
 40
8.0
 40
9.0
 40
9.0
 40
9.0
 40
9.0
 10
39309.83037068092
 20
-27814.25335202833
 30
0.0000000000000095
 10
39309.83037068092
 20
-27814.25335202833
 30
0.0000000000000095
 10
39306.74769521211
 20
-27789.21055792399
 30
0.0000000000000095
 10
39306.74769521211
 20
-27789.21055792399
 30
0.0000000000000095
 10
39306.74769521211
 20
-27789.21055792399
 30
0.0000000000000095
 10
39306.70528019084
 20
-27789.03038029298
 30
0.0000000000000095
 10
39306.70528019084
 20
-27789.03038029298
 30
0.0000000000000095
 10
39306.70528019084
 20
-27789.03038029298
 30
0.0000000000000095
 10
39306.63114011301
 20
-27788.86089262667
 30
0.0000000000000095
 10
39306.63114011301
 20
-27788.86089262667
 30
0.0000000000000095
 10
39306.63114011301
 20
-27788.86089262667
 30
0.0000000000000095
 10
39306.5145850139
 20
-27788.712612471
 30
0.0000000000000095
 10
39306.5145850139
 20
-27788.712612471
 30
0.0000000000000095
 10
39306.5145850139
 20
-27788.712612471
 30
0.0000000000000095
 10
39306.37682240416
 20
-27788.5960573719
 30
0.0000000000000095
 10
39306.37682240416
 20
-27788.5960573719
 30
0.0000000000000095
 10
39306.37682240416
 20
-27788.5960573719
 30
0.0000000000000095
 10
39306.20733473785
 20
-27788.52191729407
 30
0.0000000000000095
 10
39306.20733473785
 20
-27788.52191729407
 30
0.0000000000000095
 10
39306.20733473785
 20
-27788.52191729407
 30
0.0000000000000095
 10
39306.02732952563
 20
-27788.46898472687
 30
0.0000000000000095
 10
39306.02732952563
 20
-27788.46898472687
 30
0.0000000000000095
 10
39306.02732952563
 20
-27788.46898472687
 30
0.0000000000000095
 10
39305.84715189461
 20
-27788.46898472687
 30
0.0000000000000095
 10
39305.84715189461
 20
-27788.46898472687
 30
0.0000000000000095
 10
39305.32955070006
 20
-27788.49053707507
 30
0.0000000000000095
 10
39304.94212568869
 20
-27789.03400108748
 30
0.0000000000000095
 10
39305.08454360564
 20
-27789.51780820003
 30
0.0000000000000095
  0
SPLINE
  5
963D3
330
A
100
AcDbEntity
  8
shade
100
AcDbSpline
210
0.0
220
0.0
230
1.0
 70
     8
 71
     3
 72
     8
 73
     4
 74
     0
 42
0.00000001
 43
0.0000000001
 40
0.0
 40
0.0
 40
0.0
 40
0.0
 40
1.0
 40
1.0
 40
1.0
 40
1.0
 10
39306.85356034651
 20
-27789.47539317877
 30
0.0000000000000095
 10
39306.93752829512
 20
-27788.93417061058
 30
0.0000000000000095
 10
39306.54596523289
 20
-27788.44001837088
 30
0.0000000000000095
 10
39305.98491450436
 20
-27788.46898472687
 30
0.0000000000000095
  0
SPLINE
  5
963D4
330
A
100
AcDbEntity
  8
shade
100
AcDbSpline
210
0.0
220
0.0
230
1.0
 70
     8
 71
     3
 72
     8
 73
     4
 74
     0
 42
0.00000001
 43
0.0000000001
 40
0.0
 40
0.0
 40
0.0
 40
0.0
 40
1.0
 40
1.0
 40
1.0
 40
1.0
 10
39305.14799371876
 20
-27815.17493043769
 30
0.0000000000000095
 10
39305.42093265646
 20
-27816.31634279875
 30
0.0000000000000095
 10
39306.97580526554
 20
-27815.96719475779
 30
0.0000000000000095
 10
39306.83235283587
 20
-27814.87837012635
 30
0.0000000000000095
  0
SPLINE
  5
963D5
330
A
100
AcDbEntity
  8
shade
100
AcDbSpline
210
0.0
220
0.0
230
1.0
 70
     8
 71
     3
 72
     8
 73
     4
 74
     0
 42
0.00000001
 43
0.0000000001
 40
0.0
 40
0.0
 40
0.0
 40
0.0
 40
1.0
 40
1.0
 40
1.0
 40
1.0
 10
39305.04212858437
 20
-27814.92078514762
 30
0.0000000000000095
 10
39304.96350561811
 20
-27815.46562851031
 30
0.0000000000000095
 10
39305.40627705968
 20
-27815.91995201052
 30
0.0000000000000095
 10
39305.95318944779
 20
-27815.88477857825
 30
0.0000000000000095
  0
SPLINE
  5
963D6
330
A
100
AcDbEntity
  8
shade
100
AcDbSpline
210
0.0
220
0.0
230
1.0
 70
     8
 71
     3
 72
     8
 73
     4
 74
     0
 42
0.00000001
 43
0.0000000001
 40
0.0
 40
0.0
 40
0.0
 40
0.0
 40
1.0
 40
1.0
 40
1.0
 40
1.0
 10
39302.79637390115
 20
-27792.27202588216
 30
0.0000000000000095
 10
39302.55533243879
 20
-27791.16837323515
 30
0.0000000000000095
 10
39300.98408004509
 20
-27791.446829574
 30
0.0000000000000095
 10
39301.12253232996
 20
-27792.5685861935
 30
0.0000000000000095
  0
SPLINE
  5
963D7
330
A
100
AcDbEntity
  8
shade
100
AcDbSpline
210
0.0
220
0.0
230
1.0
 70
     8
 71
     3
 72
     8
 73
     4
 74
     0
 42
0.00000001
 43
0.0000000001
 40
0.0
 40
0.0
 40
0.0
 40
0.0
 40
1.0
 40
1.0
 40
1.0
 40
1.0
 10
39302.93396409211
 20
-27792.61100121477
 30
0.0000000000000095
 10
39303.06586446313
 20
-27792.06908897144
 30
0.0000000000000095
 10
39302.60774774964
 20
-27791.53545282982
 30
0.0000000000000095
 10
39302.05480070403
 20
-27791.57286770631
 30
0.0000000000000095
  0
SPLINE
  5
963D8
330
A
100
AcDbEntity
  8
shade
100
AcDbSpline
210
0.0
220
0.0
230
1.0
 70
     8
 71
     3
 72
     8
 73
     4
 74
     0
 42
0.00000001
 43
0.0000000001
 40
0.0
 40
0.0
 40
0.0
 40
0.0
 40
1.0
 40
1.0
 40
1.0
 40
1.0
 10
39297.28776611811
 20
-27810.00547040604
 30
0.0000000000000095
 10
39297.49880671176
 20
-27810.59272879
 30
0.0000000000000095
 10
39298.27072561516
 20
-27810.77204432708
 30
0.0000000000000095
 10
39298.69660001573
 20
-27810.3125482633
 30
0.0000000000000095
  0
SPLINE
  5
963D9
330
A
100
AcDbEntity
  8
shade
100
AcDbSpline
210
0.0
220
0.0
230
1.0
 70
     8
 71
     3
 72
     8
 73
     4
 74
     0
 42
0.00000001
 43
0.0000000001
 40
0.0
 40
0.0
 40
0.0
 40
0.0
 40
1.0
 40
1.0
 40
1.0
 40
1.0
 10
39301.05908221685
 20
-27812.28295014582
 30
0.0000000000000095
 10
39301.33098664183
 20
-27813.40246532111
 30
0.0000000000000095
 10
39302.92551557161
 20
-27813.07262818414
 30
0.0000000000000095
 10
39302.72223382332
 20
-27811.93345726729
 30
0.0000000000000095
  0
SPLINE
  5
963DA
330
A
100
AcDbEntity
  8
shade
100
AcDbSpline
210
0.0
220
0.0
230
1.0
 70
     8
 71
     3
 72
     8
 73
     4
 74
     0
 42
0.00000001
 43
0.0000000001
 40
0.0
 40
0.0
 40
0.0
 40
0.0
 40
1.0
 40
1.0
 40
1.0
 40
1.0
 10
39300.9213196071
 20
-27811.97569986977
 30
0.0000000000000095
 10
39300.8190752672
 20
-27812.50899117382
 30
0.0000000000000095
 10
39301.29098548355
 20
-27813.03417879494
 30
0.0000000000000095
 10
39301.83238047053
 20
-27812.97159077574
 30
0.0000000000000095
  0
LINE
  5
963DB
330
A
100
AcDbEntity
  8
shade
100
AcDbLine
 10
39280.46538245766
 20
-27799.82517562555
 30
0.0000000000000095
 11
39275.35937253913
 21
-27801.07521182159
 31
0.0000000000000095
  0
POLYLINE
  5
963DC
330
A
100
AcDbEntity
  8
shade
100
AcDb2dPolyline
 66
     1
 10
0.0
 20
0.0
 30
0.0000000000000095
  0
VERTEX
  5
963DD
330
963DC
100
AcDbEntity
  8
shade
100
AcDbVertex
100
AcDb2dVertex
 10
39275.08704112769
 20
-27801.00958226132
 30
0.0000000000000095
  0
VERTEX
  5
963DE
330
963DC
100
AcDbEntity
  8
shade
100
AcDbVertex
100
AcDb2dVertex
 10
39275.15815981627
 20
-27801.05400431095
 30
0.0000000000000095
  0
VERTEX
  5
963DF
330
963DC
100
AcDbEntity
  8
shade
100
AcDbVertex
100
AcDb2dVertex
 10
39275.25350740474
 20
-27801.08572936751
 30
0.0000000000000095
  0
VERTEX
  5
963E0
330
963DC
100
AcDbEntity
  8
shade
100
AcDbVertex
100
AcDb2dVertex
 10
39275.35937253913
 20
-27801.07521182159
 30
0.0000000000000095
  0
SEQEND
  5
963E1
330
963DC
100
AcDbEntity
  8
shade
  0
POLYLINE
  5
963E2
330
A
100
AcDbEntity
  8
shade
100
AcDb2dPolyline
 66
     1
 10
0.0
 20
0.0
 30
0.0000000000000095
  0
VERTEX
  5
963E3
330
963E2
100
AcDbEntity
  8
shade
100
AcDbVertex
100
AcDb2dVertex
 10
39275.29826442816
 20
-27801.38072507868
 30
0.0000000000000095
  0
VERTEX
  5
963E4
330
963E2
100
AcDbEntity
  8
shade
100
AcDbVertex
100
AcDb2dVertex
 10
39275.43351261697
 20
-27801.37177213292
 30
0.0000000000000095
  0
VERTEX
  5
963E5
330
963E2
100
AcDbEntity
  8
shade
100
AcDbVertex
100
AcDb2dVertex
 10
39280.38063862451
 20
-27800.15346099345
 30
0.0000000000000095
  0
SEQEND
  5
963E6
330
963E2
100
AcDbEntity
  8
shade
  0
LINE
  5
963E7
330
A
100
AcDbEntity
  8
shade
100
AcDbLine
 10
39280.23235846884
 20
-27799.57085791671
 30
0.0000000000000095
 11
39275.33825123789
 21
-27800.76796154554
 31
0.0000000000000095
  0
POLYLINE
  5
963E8
330
A
100
AcDbEntity
  8
shade
100
AcDb2dPolyline
 66
     1
 10
0.0
 20
0.0
 30
0.0000000000000095
  0
VERTEX
  5
963E9
330
963E8
100
AcDbEntity
  8
shade
100
AcDbVertex
100
AcDb2dVertex
 10
39275.24290364942
 20
-27800.7467540349
 30
0.0000000000000095
  0
VERTEX
  5
963EA
330
963E8
100
AcDbEntity
  8
shade
100
AcDbVertex
100
AcDb2dVertex
 10
39275.2852324613
 20
-27800.76796154554
 30
0.0000000000000095
  0
VERTEX
  5
963EB
330
963E8
100
AcDbEntity
  8
shade
100
AcDbVertex
100
AcDb2dVertex
 10
39275.33825123789
 20
-27800.76796154554
 30
0.0000000000000095
  0
SEQEND
  5
963EC
330
963E8
100
AcDbEntity
  8
shade
  0
LINE
  5
963ED
330
A
100
AcDbEntity
  8
shade
100
AcDbLine
 10
39298.47417978224
 20
-27795.45004893944
 30
0.0000000000000095
 11
39299.96784372241
 21
-27802.3145580529
 31
0.0000000000000095
  0
LINE
  5
963EE
330
A
100
AcDbEntity
  8
shade
100
AcDbLine
 10
39298.80263756892
 20
-27795.55591407384
 30
0.0000000000000095
 11
39300.22216143125
 21
-27802.0814478547
 31
0.0000000000000095
  0
LINE
  5
963EF
330
A
100
AcDbEntity
  8
shade
100
AcDbLine
 10
39298.22003449217
 20
-27795.68315913766
 30
0.0000000000000095
 11
39299.63955835451
 21
-27802.20869291851
 31
0.0000000000000095
  0
POLYLINE
  5
963F0
330
A
100
AcDbEntity
  8
shade
100
AcDb2dPolyline
 66
     1
 10
0.0
 20
0.0
 30
0.0000000000000095
  0
VERTEX
  5
963F1
330
963F0
100
AcDbEntity
  8
shade
100
AcDbVertex
100
AcDb2dVertex
 10
39298.76022254764
 20
-27795.49246396071
 30
0.0000000000000095
  0
VERTEX
  5
963F2
330
963F0
100
AcDbEntity
  8
shade
100
AcDbVertex
100
AcDb2dVertex
 10
39298.65435741325
 20
-27795.45004893944
 30
0.0000000000000095
  0
VERTEX
  5
963F3
330
963F0
100
AcDbEntity
  8
shade
100
AcDbVertex
100
AcDb2dVertex
 10
39298.53780231415
 20
-27795.43953139352
 30
0.0000000000000095
  0
VERTEX
  5
963F4
330
963F0
100
AcDbEntity
  8
shade
100
AcDbVertex
100
AcDb2dVertex
 10
39298.42124721504
 20
-27795.46056648537
 30
0.0000000000000095
  0
VERTEX
  5
963F5
330
963F0
100
AcDbEntity
  8
shade
100
AcDbVertex
100
AcDb2dVertex
 10
39298.31538208064
 20
-27795.52418901727
 30
0.0000000000000095
  0
VERTEX
  5
963F6
330
963F0
100
AcDbEntity
  8
shade
100
AcDbVertex
100
AcDb2dVertex
 10
39298.2305520381
 20
-27795.60901905982
 30
0.0000000000000095
  0
VERTEX
  5
963F7
330
963F0
100
AcDbEntity
  8
shade
100
AcDbVertex
100
AcDb2dVertex
 10
39298.22003449217
 20
-27795.64074411638
 30
0.0000000000000095
  0
VERTEX
  5
963F8
330
963F0
100
AcDbEntity
  8
shade
100
AcDbVertex
100
AcDb2dVertex
 10
39298.22003449217
 20
-27795.68315913766
 30
0.0000000000000095
  0
SEQEND
  5
963F9
330
963F0
100
AcDbEntity
  8
shade
  0
POLYLINE
  5
963FA
330
A
100
AcDbEntity
  8
shade
100
AcDb2dPolyline
 66
     1
 10
0.0
 20
0.0
 30
0.0000000000000095
  0
VERTEX
  5
963FB
330
963FA
100
AcDbEntity
  8
shade
100
AcDbVertex
100
AcDb2dVertex
 10
39298.80263756892
 20
-27795.55591407384
 30
0.0000000000000095
  0
VERTEX
  5
963FC
330
963FA
100
AcDbEntity
  8
shade
100
AcDbVertex
100
AcDb2dVertex
 10
39298.79194760421
 20
-27795.52418901727
 30
0.0000000000000095
  0
VERTEX
  5
963FD
330
963FA
100
AcDbEntity
  8
shade
100
AcDbVertex
100
AcDb2dVertex
 10
39298.76022254764
 20
-27795.49246396071
 30
0.0000000000000095
  0
SEQEND
  5
963FE
330
963FA
100
AcDbEntity
  8
shade
  0
LINE
  5
963FF
330
A
100
AcDbEntity
  8
shade
100
AcDbLine
 10
39301.99117817212
 20
-27792.54737868286
 30
0.0000000000000095
 11
39303.72846985643
 21
-27802.3145580529
 31
0.0000000000000095
  0
SPLINE
  5
96400
330
A
100
AcDbEntity
  8
shade
100
AcDbSpline
210
0.0
220
0.0
230
1.0
 70
     8
 71
     3
 72
    20
 73
    16
 74
     0
 42
0.00000001
 43
0.0000000001
 40
0.0
 40
0.0
 40
0.0
 40
0.0
 40
1.0
 40
1.0
 40
1.0
 40
2.0
 40
2.0
 40
2.0
 40
3.0
 40
3.0
 40
3.0
 40
4.0
 40
4.0
 40
4.0
 40
5.0
 40
5.0
 40
5.0
 40
5.0
 10
39303.9933051112
 20
-27802.10265536533
 30
0.0000000000000095
 10
39303.9933051112
 20
-27802.10265536533
 30
0.0000000000000095
 10
39302.3196359588
 20
-27792.71703876795
 30
0.0000000000000095
 10
39302.3196359588
 20
-27792.71703876795
 30
0.0000000000000095
 10
39302.3196359588
 20
-27792.71703876795
 30
0.0000000000000095
 10
39302.25601342689
 20
-27792.6322087254
 30
0.0000000000000095
 10
39302.25601342689
 20
-27792.6322087254
 30
0.0000000000000095
 10
39302.25601342689
 20
-27792.6322087254
 30
0.0000000000000095
 10
39302.18187334906
 20
-27792.57927615821
 30
0.0000000000000095
 10
39302.18187334906
 20
-27792.57927615821
 30
0.0000000000000095
 10
39302.18187334906
 20
-27792.57927615821
 30
0.0000000000000095
 10
39302.08652576059
 20
-27792.54737868286
 30
0.0000000000000095
 10
39302.08652576059
 20
-27792.54737868286
 30
0.0000000000000095
 10
39301.89738235272
 20
-27792.52634359101
 30
0.0000000000000095
 10
39301.77393050219
 20
-27792.63358807569
 30
0.0000000000000095
 10
39301.72634291735
 20
-27792.81221393764
 30
0.0000000000000095
  0
LINE
  5
96401
330
A
100
AcDbEntity
  8
shade
100
AcDbLine
 10
39305.93198193715
 20
-27789.56005080253
 30
0.0000000000000095
 11
39307.61634105427
 21
-27802.32524801762
 31
0.0000000000000095
  0
LINE
  5
96402
330
A
100
AcDbEntity
  8
shade
100
AcDbLine
 10
39305.64593917175
 20
-27789.63419088035
 30
0.0000000000000095
 11
39307.28788326759
 21
-27802.18748540788
 31
0.0000000000000095
  0
LINE
  5
96403
330
A
100
AcDbEntity
  8
shade
100
AcDbLine
 10
39306.2392322132
 20
-27789.56005080253
 30
0.0000000000000095
 11
39307.89169385496
 21
-27802.11334533004
 31
0.0000000000000095
  0
POLYLINE
  5
96404
330
A
100
AcDbEntity
  8
shade
100
AcDb2dPolyline
 66
     1
 10
0.0
 20
0.0
 30
0.0000000000000095
  0
VERTEX
  5
96405
330
96404
100
AcDbEntity
  8
shade
100
AcDbVertex
100
AcDb2dVertex
 10
39306.19681719193
 20
-27789.4966006894
 30
0.0000000000000095
  0
VERTEX
  5
96406
330
96404
100
AcDbEntity
  8
shade
100
AcDbVertex
100
AcDb2dVertex
 10
39306.1226771141
 20
-27789.43297815749
 30
0.0000000000000095
  0
VERTEX
  5
96407
330
96404
100
AcDbEntity
  8
shade
100
AcDbVertex
100
AcDb2dVertex
 10
39306.0168119797
 20
-27789.39056313622
 30
0.0000000000000095
  0
VERTEX
  5
96408
330
96404
100
AcDbEntity
  8
shade
100
AcDbVertex
100
AcDb2dVertex
 10
39305.91077442652
 20
-27789.39056313622
 30
0.0000000000000095
  0
VERTEX
  5
96409
330
96404
100
AcDbEntity
  8
shade
100
AcDbVertex
100
AcDb2dVertex
 10
39305.81542683805
 20
-27789.42246061157
 30
0.0000000000000095
  0
VERTEX
  5
9640A
330
96404
100
AcDbEntity
  8
shade
100
AcDbVertex
100
AcDb2dVertex
 10
39305.73076921429
 20
-27789.47539317877
 30
0.0000000000000095
  0
VERTEX
  5
9640B
330
96404
100
AcDbEntity
  8
shade
100
AcDbVertex
100
AcDb2dVertex
 10
39305.66714668239
 20
-27789.56005080253
 30
0.0000000000000095
  0
VERTEX
  5
9640C
330
96404
100
AcDbEntity
  8
shade
100
AcDbVertex
100
AcDb2dVertex
 10
39305.64593917175
 20
-27789.60246582379
 30
0.0000000000000095
  0
VERTEX
  5
9640D
330
96404
100
AcDbEntity
  8
shade
100
AcDbVertex
100
AcDb2dVertex
 10
39305.64593917175
 20
-27789.63419088035
 30
0.0000000000000095
  0
SEQEND
  5
9640E
330
96404
100
AcDbEntity
  8
shade
  0
POLYLINE
  5
9640F
330
A
100
AcDbEntity
  8
shade
100
AcDb2dPolyline
 66
     1
 10
0.0
 20
0.0
 30
0.0000000000000095
  0
VERTEX
  5
96410
330
9640F
100
AcDbEntity
  8
shade
100
AcDbVertex
100
AcDb2dVertex
 10
39306.2392322132
 20
-27789.56005080253
 30
0.0000000000000095
  0
VERTEX
  5
96411
330
9640F
100
AcDbEntity
  8
shade
100
AcDbVertex
100
AcDb2dVertex
 10
39306.2285422485
 20
-27789.51780820003
 30
0.0000000000000095
  0
VERTEX
  5
96412
330
9640F
100
AcDbEntity
  8
shade
100
AcDbVertex
100
AcDb2dVertex
 10
39306.19681719193
 20
-27789.4966006894
 30
0.0000000000000095
  0
SEQEND
  5
96413
330
9640F
100
AcDbEntity
  8
shade
  0
SPLINE
  5
96414
330
A
100
AcDbEntity
  8
shade
100
AcDbSpline
210
0.0
220
0.0
230
1.0
 70
     8
 71
     3
 72
     8
 73
     4
 74
     0
 42
0.00000001
 43
0.0000000001
 40
0.0
 40
0.0
 40
0.0
 40
0.0
 40
1.0
 40
1.0
 40
1.0
 40
1.0
 10
39309.86209573748
 20
-27785.3016516343
 30
0.0000000000000095
 10
39310.8741940093
 20
-27784.97991818027
 30
0.0000000000000095
 10
39310.78953638555
 20
-27785.74718177645
 30
0.0000000000000095
 10
39311.48300474147
 20
-27785.81011463321
 30
0.0000000000000095
  0
SPLINE
  5
96415
330
A
100
AcDbEntity
  8
shade
100
AcDbSpline
210
0.0
220
0.0
230
1.0
 70
     8
 71
     3
 72
    11
 73
     7
 74
     0
 42
0.00000001
 43
0.0000000001
 40
0.0
 40
0.0
 40
0.0
 40
0.0
 40
1.0
 40
1.0
 40
1.0
 40
2.0
 40
2.0
 40
2.0
 40
2.0
 10
39309.78795565965
 20
-27785.01560886889
 30
0.0000000000000095
 10
39310.16796666324
 20
-27784.88698445479
 30
0.0000000000000095
 10
39310.5760819289
 20
-27784.86836322594
 30
0.0000000000000095
 10
39310.91091921065
 20
-27785.12147400329
 30
0.0000000000000095
 10
39311.09764875552
 20
-27785.25199502403
 30
0.0000000000000095
 10
39311.25334291897
 20
-27785.50217468203
 30
0.0000000000000095
 10
39311.50403983332
 20
-27785.50286435717
 30
0.0000000000000095
  0
POLYLINE
  5
96416
330
A
100
AcDbEntity
  8
shade
100
AcDb2dPolyline
 66
     1
 10
0.0
 20
0.0
 30
0.0000000000000095
  0
VERTEX
  5
96417
330
96416
100
AcDbEntity
  8
shade
100
AcDbVertex
100
AcDb2dVertex
 10
39309.78795565965
 20
-27785.01560886889
 30
0.0000000000000095
  0
VERTEX
  5
96418
330
96416
100
AcDbEntity
  8
shade
100
AcDbVertex
100
AcDb2dVertex
 10
39309.67140056054
 20
-27785.05785147138
 30
0.0000000000000095
  0
VERTEX
  5
96419
330
96416
100
AcDbEntity
  8
shade
100
AcDbVertex
100
AcDb2dVertex
 10
39309.56553542615
 20
-27785.13199154921
 30
0.0000000000000095
  0
VERTEX
  5
9641A
330
96416
100
AcDbEntity
  8
shade
100
AcDbVertex
100
AcDb2dVertex
 10
39309.49139534831
 20
-27785.22733913769
 30
0.0000000000000095
  0
SEQEND
  5
9641B
330
96416
100
AcDbEntity
  8
shade
  0
POLYLINE
  5
9641C
330
A
100
AcDbEntity
  8
shade
100
AcDb2dPolyline
 66
     1
 10
0.0
 20
0.0
 30
0.0000000000000095
  0
VERTEX
  5
9641D
330
9641C
100
AcDbEntity
  8
shade
100
AcDbVertex
100
AcDb2dVertex
 10
39309.86209573748
 20
-27785.3016516343
 30
0.0000000000000095
  0
VERTEX
  5
9641E
330
9641C
100
AcDbEntity
  8
shade
100
AcDbVertex
100
AcDb2dVertex
 10
39309.78795565965
 20
-27785.34389423679
 30
0.0000000000000095
  0
VERTEX
  5
9641F
330
9641C
100
AcDbEntity
  8
shade
100
AcDbVertex
100
AcDb2dVertex
 10
39309.73502309245
 20
-27785.39682680399
 30
0.0000000000000095
  0
VERTEX
  5
96420
330
9641C
100
AcDbEntity
  8
shade
100
AcDbVertex
100
AcDb2dVertex
 10
39309.69260807118
 20
-27785.48165684653
 30
0.0000000000000095
  0
SEQEND
  5
96421
330
9641C
100
AcDbEntity
  8
shade
  0
LINE
  5
96422
330
A
100
AcDbEntity
  8
shade
100
AcDbLine
 10
39312.43630820738
 20
-27819.99507000959
 30
0.0000000000000095
 11
39312.43630820738
 21
-27781.45619545774
 31
0.0000000000000095
  0
SPLINE
  5
96423
330
A
100
AcDbEntity
  8
shade
100
AcDbSpline
210
0.0
220
0.0
230
1.0
 70
     8
 71
     3
 72
     8
 73
     4
 74
     0
 42
0.00000001
 43
0.0000000001
 40
0.0
 40
0.0
 40
0.0
 40
0.0
 40
1.0
 40
1.0
 40
1.0
 40
1.0
 10
39311.50403983332
 20
-27785.50286435717
 30
0.0000000000000095
 10
39311.70559739376
 20
-27784.44748897014
 30
0.0000000000000095
 10
39310.85005537931
 20
-27783.44314954368
 30
0.0000000000000095
 10
39309.77743811372
 20
-27783.45832239681
 30
0.0000000000000095
  0
POLYLINE
  5
96424
330
A
100
AcDbEntity
  8
shade
100
AcDb2dPolyline
 66
     1
 10
0.0
 20
0.0
 30
0.0000000000000095
  0
VERTEX
  5
96425
330
96424
100
AcDbEntity
  8
shade
100
AcDbVertex
100
AcDb2dVertex
 10
39309.83037068092
 20
-27802.22990042915
 30
0.0000000000000095
  0
VERTEX
  5
96426
330
96424
100
AcDbEntity
  8
shade
100
AcDbVertex
100
AcDb2dVertex
 10
39309.83037068092
 20
-27819.99507000959
 30
0.0000000000000095
  0
VERTEX
  5
96427
330
96424
100
AcDbEntity
  8
shade
100
AcDbVertex
100
AcDb2dVertex
 10
39312.43630820738
 20
-27819.99507000959
 30
0.0000000000000095
  0
SEQEND
  5
96428
330
96424
100
AcDbEntity
  8
shade
  0
POLYLINE
  5
96429
330
A
100
AcDbEntity
  8
shade
100
AcDb2dPolyline
 66
     1
 10
0.0
 20
0.0
 30
0.0000000000000095
  0
VERTEX
  5
9642A
330
96429
100
AcDbEntity
  8
shade
100
AcDbVertex
100
AcDb2dVertex
 10
39312.43630820738
 20
-27781.45619545774
 30
0.0000000000000095
  0
VERTEX
  5
9642B
330
96429
100
AcDbEntity
  8
shade
100
AcDbVertex
100
AcDb2dVertex
 10
39307.82824374184
 20
-27781.45619545774
 30
0.0000000000000095
  0
VERTEX
  5
9642C
330
96429
100
AcDbEntity
  8
shade
100
AcDbVertex
100
AcDb2dVertex
 10
39307.82824374184
 20
-27783.45832239681
 30
0.0000000000000095
  0
VERTEX
  5
9642D
330
96429
100
AcDbEntity
  8
shade
100
AcDbVertex
100
AcDb2dVertex
 10
39309.77743811372
 20
-27783.45832239681
 30
0.0000000000000095
  0
SEQEND
  5
9642E
330
96429
100
AcDbEntity
  8
shade
  0
POLYLINE
  5
9642F
330
A
100
AcDbEntity
  8
shade
100
AcDb2dPolyline
 66
     1
 10
0.0
 20
0.0
 30
0.0000000000000095
  0
VERTEX
  5
96430
330
9642F
100
AcDbEntity
  8
shade
100
AcDbVertex
100
AcDb2dVertex
 10
39311.51472979803
 20
-27785.49217439246
 30
0.0000000000000095
  0
VERTEX
  5
96431
330
9642F
100
AcDbEntity
  8
shade
100
AcDbVertex
100
AcDb2dVertex
 10
39309.86209573748
 20
-27801.72143743024
 30
0.0000000000000095
  0
VERTEX
  5
96432
330
9642F
100
AcDbEntity
  8
shade
100
AcDbVertex
100
AcDb2dVertex
 10
39309.83037068092
 20
-27802.22990042915
 30
0.0000000000000095
  0
SEQEND
  5
96433
330
9642F
100
AcDbEntity
  8
shade
  0
LINE
  5
96434
330
A
100
AcDbEntity
  8
shade
100
AcDbLine
 10
39309.83037068092
 20
-27781.45619545774
 30
0.0000000000000095
 11
39309.83037068092
 21
-27783.45832239681
 31
0.0000000000000095
  0
LINE
  5
96435
330
A
100
AcDbEntity
  8
shade
100
AcDbLine
 10
39310.67780901244
 20
-27785.4075167687
 30
0.0000000000000095
 11
39310.67780901244
 21
-27785.33337669086
 31
0.0000000000000095
  0
LINE
  5
96436
330
A
100
AcDbEntity
  8
shade
100
AcDbLine
 10
39310.67780901244
 20
-27784.99440135826
 30
0.0000000000000095
 11
39310.67780901244
 21
-27783.70195014095
 31
0.0000000000000095
  0
SPLINE
  5
96437
330
A
100
AcDbEntity
  8
shade
100
AcDbSpline
210
0.0
220
0.0
230
1.0
 70
     8
 71
     3
 72
    29
 73
    25
 74
     0
 42
0.00000001
 43
0.0000000001
 40
0.0
 40
0.0
 40
0.0
 40
0.0
 40
1.0
 40
1.0
 40
1.0
 40
2.0
 40
2.0
 40
2.0
 40
3.0
 40
3.0
 40
3.0
 40
4.0
 40
4.0
 40
4.0
 40
5.0
 40
5.0
 40
5.0
 40
6.0
 40
6.0
 40
6.0
 40
7.0
 40
7.0
 40
7.0
 40
8.0
 40
8.0
 40
8.0
 40
8.0
 10
39308.98293234941
 20
-27783.45832239681
 30
0.0000000000000095
 10
39308.98293234941
 20
-27783.45832239681
 30
0.0000000000000095
 10
39308.98293234941
 20
-27785.4075167687
 30
0.0000000000000095
 10
39308.98293234941
 20
-27785.4075167687
 30
0.0000000000000095
 10
39308.98293234941
 20
-27785.4075167687
 30
0.0000000000000095
 10
39309.00413986004
 20
-27785.59821194563
 30
0.0000000000000095
 10
39309.00413986004
 20
-27785.59821194563
 30
0.0000000000000095
 10
39309.00413986004
 20
-27785.59821194563
 30
0.0000000000000095
 10
39309.06758997316
 20
-27785.77821715787
 30
0.0000000000000095
 10
39309.06758997316
 20
-27785.77821715787
 30
0.0000000000000095
 10
39309.06758997316
 20
-27785.77821715787
 30
0.0000000000000095
 10
39309.16293756163
 20
-27785.93718727824
 30
0.0000000000000095
 10
39309.16293756163
 20
-27785.93718727824
 30
0.0000000000000095
 10
39309.16293756163
 20
-27785.93718727824
 30
0.0000000000000095
 10
39309.30070017137
 20
-27786.07494988798
 30
0.0000000000000095
 10
39309.30070017137
 20
-27786.07494988798
 30
0.0000000000000095
 10
39309.30070017137
 20
-27786.07494988798
 30
0.0000000000000095
 10
39309.45967029175
 20
-27786.17029747646
 30
0.0000000000000095
 10
39309.45967029175
 20
-27786.17029747646
 30
0.0000000000000095
 10
39309.45967029175
 20
-27786.17029747646
 30
0.0000000000000095
 10
39309.63967550398
 20
-27786.23374758958
 30
0.0000000000000095
 10
39309.63967550398
 20
-27786.23374758958
 30
0.0000000000000095
 10
39310.16882875717
 20
-27786.35030268868
 30
0.0000000000000095
 10
39310.69005074622
 20
-27785.96287767731
 30
0.0000000000000095
 10
39310.67780901244
 20
-27785.4075167687
 30
0.0000000000000095
  0
SPLINE
  5
96438
330
A
100
AcDbEntity
  8
shade
100
AcDbSpline
210
0.0
220
0.0
230
1.0
 70
     8
 71
     3
 72
    11
 73
     7
 74
     0
 42
0.00000001
 43
0.0000000001
 40
0.0
 40
0.0
 40
0.0
 40
0.0
 40
1.0
 40
1.0
 40
1.0
 40
2.0
 40
2.0
 40
2.0
 40
2.0
 10
39310.22227858072
 20
-27784.92026128042
 30
0.0000000000000095
 10
39309.94520159217
 20
-27784.49749041799
 30
0.0000000000000095
 10
39309.30552789737
 20
-27784.75646343405
 30
0.0000000000000095
 10
39309.38535779513
 20
-27785.24854664832
 30
0.0000000000000095
 10
39309.52191347337
 20
-27785.73873325595
 30
0.0000000000000095
 10
39310.17486341466
 20
-27785.7261466846
 30
0.0000000000000095
 10
39310.27521114792
 20
-27785.22733913769
 30
0.0000000000000095
  0
SPLINE
  5
96439
330
A
100
AcDbEntity
  8
shade
100
AcDbSpline
210
0.0
220
0.0
230
1.0
 70
     8
 71
     3
 72
    35
 73
    31
 74
     0
 42
0.00000001
 43
0.0000000001
 40
0.0
 40
0.0
 40
0.0
 40
0.0
 40
1.0
 40
1.0
 40
1.0
 40
2.0
 40
2.0
 40
2.0
 40
3.0
 40
3.0
 40
3.0
 40
4.0
 40
4.0
 40
4.0
 40
5.0
 40
5.0
 40
5.0
 40
6.0
 40
6.0
 40
6.0
 40
7.0
 40
7.0
 40
7.0
 40
8.0
 40
8.0
 40
8.0
 40
9.0
 40
9.0
 40
9.0
 40
10.0
 40
10.0
 40
10.0
 40
10.0
 10
39310.10572348162
 20
-27784.94146879106
 30
0.0000000000000095
 10
39309.87192360826
 20
-27784.65111555601
 30
0.0000000000000095
 10
39309.45725642875
 20
-27784.86508726901
 30
0.0000000000000095
 10
39309.48070538361
 20
-27785.18509653519
 30
0.0000000000000095
 10
39309.48070538361
 20
-27785.18509653519
 30
0.0000000000000095
 10
39309.51260285895
 20
-27785.29096166959
 30
0.0000000000000095
 10
39309.51260285895
 20
-27785.29096166959
 30
0.0000000000000095
 10
39309.51260285895
 20
-27785.29096166959
 30
0.0000000000000095
 10
39309.56553542615
 20
-27785.38630925806
 30
0.0000000000000095
 10
39309.56553542615
 20
-27785.38630925806
 30
0.0000000000000095
 10
39309.56553542615
 20
-27785.38630925806
 30
0.0000000000000095
 10
39309.65019304991
 20
-27785.46044933589
 30
0.0000000000000095
 10
39309.65019304991
 20
-27785.46044933589
 30
0.0000000000000095
 10
39309.65019304991
 20
-27785.46044933589
 30
0.0000000000000095
 10
39309.75623060309
 20
-27785.50286435717
 30
0.0000000000000095
 10
39309.75623060309
 20
-27785.50286435717
 30
0.0000000000000095
 10
39309.75623060309
 20
-27785.50286435717
 30
0.0000000000000095
 10
39309.86209573748
 20
-27785.50286435717
 30
0.0000000000000095
 10
39309.86209573748
 20
-27785.50286435717
 30
0.0000000000000095
 10
39309.86209573748
 20
-27785.50286435717
 30
0.0000000000000095
 10
39309.96813329066
 20
-27785.48165684653
 30
0.0000000000000095
 10
39309.96813329066
 20
-27785.48165684653
 30
0.0000000000000095
 10
39309.96813329066
 20
-27785.48165684653
 30
0.0000000000000095
 10
39310.06348087913
 20
-27785.41803431462
 30
0.0000000000000095
 10
39310.06348087913
 20
-27785.41803431462
 30
0.0000000000000095
 10
39310.06348087913
 20
-27785.41803431462
 30
0.0000000000000095
 10
39310.13762095696
 20
-27785.33337669086
 30
0.0000000000000095
 10
39310.13762095696
 20
-27785.33337669086
 30
0.0000000000000095
 10
39310.13762095696
 20
-27785.33337669086
 30
0.0000000000000095
 10
39310.16934601353
 20
-27785.22733913769
 30
0.0000000000000095
 10
39310.16934601353
 20
-27785.22733913769
 30
0.0000000000000095
  0
SPLINE
  5
9643A
330
A
100
AcDbEntity
  8
shade
100
AcDbSpline
210
0.0
220
0.0
230
1.0
 70
     8
 71
     3
 72
    11
 73
     7
 74
     0
 42
0.00000001
 43
0.0000000001
 40
0.0
 40
0.0
 40
0.0
 40
0.0
 40
1.0
 40
1.0
 40
1.0
 40
2.0
 40
2.0
 40
2.0
 40
2.0
 10
39306.2921647804
 20
-27789.95213112112
 30
0.0000000000000095
 10
39306.53044754218
 20
-27789.66470900542
 30
0.0000000000000095
 10
39306.35682182503
 20
-27789.24004153634
 30
0.0000000000000095
 10
39305.96370699372
 20
-27789.21055792399
 30
0.0000000000000095
 10
39305.50679721172
 20
-27789.22245482021
 30
0.0000000000000095
 10
39305.32196427349
 20
-27789.75902208117
 30
0.0000000000000095
 10
39305.69887173894
 20
-27790.03678874487
 30
0.0000000000000095
  0
SPLINE
  5
9643B
330
A
100
AcDbEntity
  8
shade
100
AcDbSpline
210
0.0
220
0.0
230
1.0
 70
     8
 71
     3
 72
     8
 73
     4
 74
     0
 42
0.00000001
 43
0.0000000001
 40
0.0
 40
0.0
 40
0.0
 40
0.0
 40
1.0
 40
1.0
 40
1.0
 40
1.0
 10
39306.27095726976
 20
-27789.80385096545
 30
0.0000000000000095
 10
39306.47079064234
 20
-27789.07796787782
 30
0.0000000000000095
 10
39305.30713625793
 20
-27789.21452355606
 30
0.0000000000000095
 10
39305.67766422831
 20
-27789.87799104328
 30
0.0000000000000095
  0
SPLINE
  5
9643C
330
A
100
AcDbEntity
  8
shade
100
AcDbSpline
210
0.0
220
0.0
230
1.0
 70
     9
 71
     3
 72
    11
 73
     7
 74
     0
 42
0.00000001
 43
0.0000000001
 40
0.0
 40
0.0
 40
0.0
 40
0.0
 40
1.0
 40
1.0
 40
1.0
 40
2.0
 40
2.0
 40
2.0
 40
2.0
 10
39306.37682240416
 20
-27814.68767494941
 30
0.0000000000000095
 10
39306.3414765531
 20
-27814.06162233868
 30
0.0000000000000095
 10
39305.500934973
 20
-27814.10024414667
 30
0.0000000000000095
 10
39305.47645150544
 20
-27814.68767494941
 30
0.0000000000000095
 10
39305.49162435859
 20
-27815.25976048023
 30
0.0000000000000095
 10
39306.35061474874
 20
-27815.29734777551
 30
0.0000000000000095
 10
39306.37682240416
 20
-27814.68767494941
 30
0.0000000000000095
  0
SPLINE
  5
9643D
330
A
100
AcDbEntity
  8
shade
100
AcDbSpline
210
0.0
220
0.0
230
1.0
 70
     9
 71
     3
 72
    11
 73
     7
 74
     0
 42
0.00000001
 43
0.0000000001
 40
0.0
 40
0.0
 40
0.0
 40
0.0
 40
1.0
 40
1.0
 40
1.0
 40
2.0
 40
2.0
 40
2.0
 40
2.0
 10
39306.28164723447
 20
-27814.68767494941
 30
0.0000000000000095
 10
39306.24561170827
 20
-27814.20835072528
 30
0.0000000000000095
 10
39305.58766162219
 20
-27814.22524776627
 30
0.0000000000000095
 10
39305.58231663984
 20
-27814.68767494941
 30
0.0000000000000095
 10
39305.59611014269
 20
-27815.15286083312
 30
0.0000000000000095
 10
39306.24819799005
 20
-27815.14872278227
 30
0.0000000000000095
 10
39306.28164723447
 20
-27814.68767494941
 30
0.0000000000000095
  0
SPLINE
  5
9643E
330
A
100
AcDbEntity
  8
shade
100
AcDbSpline
210
0.0
220
0.0
230
1.0
 70
     8
 71
     3
 72
     8
 73
     4
 74
     0
 42
0.00000001
 43
0.0000000001
 40
0.0
 40
0.0
 40
0.0
 40
0.0
 40
1.0
 40
1.0
 40
1.0
 40
1.0
 10
39302.38325849071
 20
-27793.04532413584
 30
0.0000000000000095
 10
39302.87016914141
 20
-27791.91201545771
 30
0.0000000000000095
 10
39300.93683729781
 20
-27792.24961144003
 30
0.0000000000000095
 10
39301.78996544926
 20
-27793.15136168903
 30
0.0000000000000095
  0
SPLINE
  5
9643F
330
A
100
AcDbEntity
  8
shade
100
AcDbSpline
210
0.0
220
0.0
230
1.0
 70
     8
 71
     3
 72
     8
 73
     4
 74
     0
 42
0.00000001
 43
0.0000000001
 40
0.0
 40
0.0
 40
0.0
 40
0.0
 40
1.0
 40
1.0
 40
1.0
 40
1.0
 10
39302.35136101536
 20
-27792.88652643425
 30
0.0000000000000095
 10
39302.49705488924
 20
-27792.1537465952
 30
0.0000000000000095
 10
39301.36960844982
 20
-27792.34668321636
 30
0.0000000000000095
 10
39301.75824039269
 20
-27792.99239156865
 30
0.0000000000000095
  0
SPLINE
  5
96440
330
A
100
AcDbEntity
  8
shade
100
AcDbSpline
210
0.0
220
0.0
230
1.0
 70
     8
 71
     3
 72
     8
 73
     4
 74
     0
 42
0.00000001
 43
0.0000000001
 40
0.0
 40
0.0
 40
0.0
 40
0.0
 40
1.0
 40
1.0
 40
1.0
 40
1.0
 10
39308.79223717246
 20
-27819.7195447901
 30
0.0000000000000095
 10
39308.86723934423
 20
-27820.58422500019
 30
0.0000000000000095
 10
39310.04985979507
 20
-27820.78836884241
 30
0.0000000000000095
 10
39310.41297375767
 20
-27819.99507000959
 30
0.0000000000000095
  0
SPLINE
  5
96441
330
A
100
AcDbEntity
  8
shade
100
AcDbSpline
210
0.0
220
0.0
230
1.0
 70
     8
 71
     3
 72
    11
 73
     7
 74
     0
 42
0.00000001
 43
0.0000000001
 40
0.0
 40
0.0
 40
0.0
 40
0.0
 40
1.0
 40
1.0
 40
1.0
 40
2.0
 40
2.0
 40
2.0
 40
2.0
 10
39298.88729519268
 20
-27795.92678688179
 30
0.0000000000000095
 10
39299.11023268254
 20
-27795.61332952946
 30
0.0000000000000095
 10
39298.87281201468
 20
-27795.19193801731
 30
0.0000000000000095
 10
39298.49538729287
 20
-27795.21693874123
 30
0.0000000000000095
 10
39298.03864992966
 20
-27795.25418119893
 30
0.0000000000000095
 10
39297.91399114762
 20
-27795.83057719939
 30
0.0000000000000095
 10
39298.30469211593
 20
-27796.05385952682
 30
0.0000000000000095
  0
SPLINE
  5
96442
330
A
100
AcDbEntity
  8
shade
100
AcDbSpline
210
0.0
220
0.0
230
1.0
 70
     8
 71
     3
 72
     8
 73
     4
 74
     0
 42
0.00000001
 43
0.0000000001
 40
0.0
 40
0.0
 40
0.0
 40
0.0
 40
1.0
 40
1.0
 40
1.0
 40
1.0
 10
39298.85557013611
 20
-27795.77850672612
 30
0.0000000000000095
 10
39298.98160826843
 20
-27795.04589930585
 30
0.0000000000000095
 10
39297.84554088972
 20
-27795.27107823993
 30
0.0000000000000095
 10
39298.26227709466
 20
-27795.90557937115
 30
0.0000000000000095
  0
SPLINE
  5
96443
330
A
100
AcDbEntity
  8
shade
100
AcDbSpline
210
0.0
220
0.0
230
1.0
 70
     9
 71
     3
 72
    11
 73
     7
 74
     0
 42
0.00000001
 43
0.0000000001
 40
0.0
 40
0.0
 40
0.0
 40
0.0
 40
1.0
 40
1.0
 40
1.0
 40
2.0
 40
2.0
 40
2.0
 40
2.0
 10
39302.27722093753
 20
-27811.78517711162
 30
0.0000000000000095
 10
39302.25256505119
 20
-27811.19774630888
 30
0.0000000000000095
 10
39301.41236830866
 20
-27811.1589520821
 30
0.0000000000000095
 10
39301.37685003882
 20
-27811.78517711162
 30
0.0000000000000095
 10
39301.40305769423
 20
-27812.39467751893
 30
0.0000000000000095
 10
39302.26204808439
 20
-27812.35709022365
 30
0.0000000000000095
 10
39302.27722093753
 20
-27811.78517711162
 30
0.0000000000000095
  0
SPLINE
  5
96444
330
A
100
AcDbEntity
  8
shade
100
AcDbSpline
210
0.0
220
0.0
230
1.0
 70
     9
 71
     3
 72
    11
 73
     7
 74
     0
 42
0.00000001
 43
0.0000000001
 40
0.0
 40
0.0
 40
0.0
 40
0.0
 40
1.0
 40
1.0
 40
1.0
 40
2.0
 40
2.0
 40
2.0
 40
2.0
 10
39302.17135580313
 20
-27811.78517711162
 30
0.0000000000000095
 10
39302.16618323956
 20
-27811.32292234727
 30
0.0000000000000095
 10
39301.50840557227
 20
-27811.30533563113
 30
0.0000000000000095
 10
39301.47219762729
 20
-27811.78517711162
 30
0.0000000000000095
 10
39301.50547445292
 20
-27812.24605252569
 30
0.0000000000000095
 10
39302.15756230028
 20
-27812.25036299533
 30
0.0000000000000095
 10
39302.17135580313
 20
-27811.78517711162
 30
0.0000000000000095
  0
SPLINE
  5
96445
330
A
100
AcDbEntity
  8
shade
100
AcDbSpline
210
0.0
220
0.0
230
1.0
 70
     8
 71
     3
 72
     8
 73
     4
 74
     0
 42
0.00000001
 43
0.0000000001
 40
0.0
 40
0.0
 40
0.0
 40
0.0
 40
1.0
 40
1.0
 40
1.0
 40
1.0
 10
39299.31110056783
 20
-27795.20642119531
 30
0.0000000000000095
 10
39299.09109419733
 20
-27794.06293980881
 30
0.0000000000000095
 10
39297.48984093491
 20
-27794.33639600286
 30
0.0000000000000095
 10
39297.62674145072
 20
-27795.46056648537
 30
0.0000000000000095
  0
SPLINE
  5
96446
330
A
100
AcDbEntity
  8
shade
100
AcDbSpline
210
0.0
220
0.0
230
1.0
 70
     9
 71
     3
 72
    11
 73
     7
 74
     0
 42
0.00000001
 43
0.0000000001
 40
0.0
 40
0.0
 40
0.0
 40
0.0
 40
1.0
 40
1.0
 40
1.0
 40
2.0
 40
2.0
 40
2.0
 40
2.0
 10
39298.6224599379
 20
-27809.38045230803
 30
0.0000000000000095
 10
39298.59952823941
 20
-27808.80440114513
 30
0.0000000000000095
 10
39297.75709005268
 20
-27808.76439998686
 30
0.0000000000000095
 10
39297.72208903918
 20
-27809.38045230803
 30
0.0000000000000095
 10
39297.74846911339
 20
-27809.98995271533
 30
0.0000000000000095
 10
39298.60728708476
 20
-27809.95236542006
 30
0.0000000000000095
 10
39298.6224599379
 20
-27809.38045230803
 30
0.0000000000000095
  0
SPLINE
  5
96447
330
A
100
AcDbEntity
  8
shade
100
AcDbSpline
210
0.0
220
0.0
230
1.0
 70
     9
 71
     3
 72
    11
 73
     7
 74
     0
 42
0.00000001
 43
0.0000000001
 40
0.0
 40
0.0
 40
0.0
 40
0.0
 40
1.0
 40
1.0
 40
1.0
 40
2.0
 40
2.0
 40
2.0
 40
2.0
 10
39298.51659480351
 20
-27809.38045230803
 30
0.0000000000000095
 10
39298.51004288965
 20
-27808.92009415031
 30
0.0000000000000095
 10
39297.83674753165
 20
-27808.91750786853
 30
0.0000000000000095
 10
39297.81743662766
 20
-27809.38045230803
 30
0.0000000000000095
 10
39297.83674753165
 20
-27809.84322432874
 30
0.0000000000000095
 10
39298.51004288965
 20
-27809.84046562816
 30
0.0000000000000095
 10
39298.51659480351
 20
-27809.38045230803
 30
0.0000000000000095
  0
SPLINE
  5
96448
330
A
100
AcDbEntity
  8
shade
100
AcDbSpline
210
0.0
220
0.0
230
1.0
 70
     8
 71
     3
 72
    11
 73
     7
 74
     0
 42
0.00000001
 43
0.0000000001
 40
0.0
 40
0.0
 40
0.0
 40
0.0
 40
1.0
 40
1.0
 40
1.0
 40
2.0
 40
2.0
 40
2.0
 40
2.0
 10
39299.5230032554
 20
-27801.71074746553
 30
0.0000000000000095
 10
39299.30403139762
 20
-27802.00782503322
 30
0.0000000000000095
 10
39299.54421076604
 20
-27802.45611387594
 30
0.0000000000000095
 10
39299.9149111552
 20
-27802.42059560609
 30
0.0000000000000095
 10
39300.36440692942
 20
-27802.38231863567
 30
0.0000000000000095
 10
39300.50285921431
 20
-27801.81799195021
 30
0.0000000000000095
 10
39300.11612387807
 20
-27801.5836748205
 30
0.0000000000000095
  0
SPLINE
  5
96449
330
A
100
AcDbEntity
  8
shade
100
AcDbSpline
210
0.0
220
0.0
230
1.0
 70
     8
 71
     3
 72
     8
 73
     4
 74
     0
 42
0.00000001
 43
0.0000000001
 40
0.0
 40
0.0
 40
0.0
 40
0.0
 40
1.0
 40
1.0
 40
1.0
 40
1.0
 10
39299.55472831196
 20
-27801.8590276212
 30
0.0000000000000095
 10
39299.43869046922
 20
-27802.61663576538
 30
0.0000000000000095
 10
39300.569068028
 20
-27802.35128325425
 30
0.0000000000000095
 10
39300.14802135342
 20
-27801.73195497616
 30
0.0000000000000095
  0
SPLINE
  5
9644A
330
A
100
AcDbEntity
  8
shade
100
AcDbSpline
210
0.0
220
0.0
230
1.0
 70
     8
 71
     3
 72
    32
 73
    28
 74
     0
 42
0.00000001
 43
0.0000000001
 40
0.0
 40
0.0
 40
0.0
 40
0.0
 40
1.0
 40
1.0
 40
1.0
 40
2.0
 40
2.0
 40
2.0
 40
3.0
 40
3.0
 40
3.0
 40
4.0
 40
4.0
 40
4.0
 40
5.0
 40
5.0
 40
5.0
 40
6.0
 40
6.0
 40
6.0
 40
7.0
 40
7.0
 40
7.0
 40
8.0
 40
8.0
 40
8.0
 40
9.0
 40
9.0
 40
9.0
 40
9.0
 10
39303.31535444599
 20
-27801.7002299196
 30
0.0000000000000095
 10
39303.07810619692
 20
-27802.00196279451
 30
0.0000000000000095
 10
39303.28293971428
 20
-27802.42438881937
 30
0.0000000000000095
 10
39303.67553728923
 20
-27802.42059560609
 30
0.0000000000000095
 10
39303.67553728923
 20
-27802.42059560609
 30
0.0000000000000095
 10
39303.81329989897
 20
-27802.39938809545
 30
0.0000000000000095
 10
39303.81329989897
 20
-27802.39938809545
 30
0.0000000000000095
 10
39303.81329989897
 20
-27802.39938809545
 30
0.0000000000000095
 10
39303.940372544
 20
-27802.32524801762
 30
0.0000000000000095
 10
39303.940372544
 20
-27802.32524801762
 30
0.0000000000000095
 10
39303.940372544
 20
-27802.32524801762
 30
0.0000000000000095
 10
39304.03572013247
 20
-27802.21921046444
 30
0.0000000000000095
 10
39304.03572013247
 20
-27802.21921046444
 30
0.0000000000000095
 10
39304.03572013247
 20
-27802.21921046444
 30
0.0000000000000095
 10
39304.09934266438
 20
-27802.09213781941
 30
0.0000000000000095
 10
39304.09934266438
 20
-27802.09213781941
 30
0.0000000000000095
 10
39304.09934266438
 20
-27802.09213781941
 30
0.0000000000000095
 10
39304.10986021031
 20
-27801.95437520966
 30
0.0000000000000095
 10
39304.10986021031
 20
-27801.95437520966
 30
0.0000000000000095
 10
39304.10986021031
 20
-27801.95437520966
 30
0.0000000000000095
 10
39304.08865269967
 20
-27801.806095054
 30
0.0000000000000095
 10
39304.08865269967
 20
-27801.806095054
 30
0.0000000000000095
 10
39304.08865269967
 20
-27801.806095054
 30
0.0000000000000095
 10
39304.01451262183
 20
-27801.68953995489
 30
0.0000000000000095
 10
39304.01451262183
 20
-27801.68953995489
 30
0.0000000000000095
 10
39304.01451262183
 20
-27801.68953995489
 30
0.0000000000000095
 10
39303.89812994152
 20
-27801.59419236642
 30
0.0000000000000095
 10
39303.89812994152
 20
-27801.59419236642
 30
0.0000000000000095
  0
SPLINE
  5
9644B
330
A
100
AcDbEntity
  8
shade
100
AcDbSpline
210
0.0
220
0.0
230
1.0
 70
     8
 71
     3
 72
     8
 73
     4
 74
     0
 42
0.00000001
 43
0.0000000001
 40
0.0
 40
0.0
 40
0.0
 40
0.0
 40
1.0
 40
1.0
 40
1.0
 40
1.0
 10
39303.33656195663
 20
-27801.84851007527
 30
0.0000000000000095
 10
39303.1781090926
 20
-27802.58422103368
 30
0.0000000000000095
 10
39304.33659091344
 20
-27802.37990477267
 30
0.0000000000000095
 10
39303.92985499807
 20
-27801.74247252209
 30
0.0000000000000095
  0
SPLINE
  5
9644C
330
A
100
AcDbEntity
  8
shade
100
AcDbSpline
210
0.0
220
0.0
230
1.0
 70
     8
 71
     3
 72
    11
 73
     7
 74
     0
 42
0.00000001
 43
0.0000000001
 40
0.0
 40
0.0
 40
0.0
 40
0.0
 40
1.0
 40
1.0
 40
1.0
 40
2.0
 40
2.0
 40
2.0
 40
2.0
 10
39307.22443315446
 20
-27801.67902240897
 30
0.0000000000000095
 10
39306.98235717939
 20
-27801.9683411313
 30
0.0000000000000095
 10
39307.17736282598
 20
-27802.4143885298
 30
0.0000000000000095
 10
39307.55271852236
 20
-27802.42059560609
 30
0.0000000000000095
 10
39308.00773169771
 20
-27802.42852687023
 30
0.0000000000000095
 10
39308.18842658508
 20
-27801.86247599691
 30
0.0000000000000095
 10
39307.81755377713
 20
-27801.60488233113
 30
0.0000000000000095
  0
SPLINE
  5
9644D
330
A
100
AcDbEntity
  8
shade
100
AcDbSpline
210
0.0
220
0.0
230
1.0
 70
     8
 71
     3
 72
     8
 73
     4
 74
     0
 42
0.00000001
 43
0.0000000001
 40
0.0
 40
0.0
 40
0.0
 40
0.0
 40
1.0
 40
1.0
 40
1.0
 40
1.0
 10
39307.2456406651
 20
-27801.83782011056
 30
0.0000000000000095
 10
39307.04873841188
 20
-27802.55766854069
 30
0.0000000000000095
 10
39308.21566875322
 20
-27802.41352643587
 30
0.0000000000000095
 10
39307.83876128776
 20
-27801.7531624868
 30
0.0000000000000095
  0
LINE
  5
9644E
330
A
100
AcDbEntity
  8
shade
100
AcDbLine
 10
39275.10013415669
 20
-27803.19300685227
 30
0.0000000000000095
 11
39298.24124200281
 21
-27810.30203071737
 31
0.0000000000000095
  0
LINE
  5
9644F
330
A
100
AcDbEntity
  8
shade
100
AcDbLine
 10
39275.07990676392
 20
-27801.39982589494
 30
0.0000000000000095
 11
39298.76022254764
 21
-27808.68129413217
 31
0.0000000000000095
  0
LINE
  5
96450
330
A
100
AcDbEntity
  8
shade
100
AcDbLine
 10
39275.18165447149
 20
-27800.2585717216
 30
0.0000000000000095
 11
39297.66915647199
 21
-27795.01572601837
 31
0.0000000000000095
  0
LINE
  5
96451
330
A
100
AcDbEntity
  8
shade
100
AcDbLine
 10
39276.25982964725
 20
-27801.77436999744
 30
0.0000000000000095
 11
39297.88105915956
 21
-27796.70008513547
 31
0.0000000000000095
  0
SPLINE
  5
96452
330
A
100
AcDbEntity
  8
shade
100
AcDbSpline
210
0.0
220
0.0
230
1.0
 70
     8
 71
     3
 72
     8
 73
     4
 74
     0
 42
0.00000001
 43
0.0000000001
 40
0.0
 40
0.0
 40
0.0
 40
0.0
 40
1.0
 40
1.0
 40
1.0
 40
1.0
 10
39299.50179574476
 20
-27796.17041462592
 30
0.0000000000000095
 10
39299.90008313964
 20
-27795.68781444487
 30
0.0000000000000095
 10
39299.72421597827
 20
-27795.00951894208
 30
0.0000000000000095
 10
39299.1310953556
 20
-27794.79330578487
 30
0.0000000000000095
  0
LINE
  5
96453
330
A
100
AcDbEntity
  8
shade
100
AcDbLine
 10
39298.16692950619
 20
-27809.38045230803
 30
0.0000000000000095
 11
39298.1776194709
 21
-27809.38045230803
 31
0.0000000000000095
  0
SPLINE
  5
96454
330
A
100
AcDbEntity
  8
shade
100
AcDbSpline
210
0.0
220
0.0
230
1.0
 70
     8
 71
     3
 72
     8
 73
     4
 74
     0
 42
0.00000001
 43
0.0000000001
 40
0.0
 40
0.0
 40
0.0
 40
0.0
 40
1.0
 40
1.0
 40
1.0
 40
1.0
 10
39279.8721756256
 20
-27800.28070605727
 30
0.0000000000000095
 10
39281.0408301548
 20
-27800.67692442671
 30
0.0000000000000095
 10
39280.56357495609
 20
-27798.79738724424
 30
0.0000000000000095
 10
39279.73449922525
 20
-27799.68741301581
 30
0.0000000000000095
  0
SPLINE
  5
96455
330
A
100
AcDbEntity
  8
shade
100
AcDbSpline
210
0.0
220
0.0
230
1.0
 70
     8
 71
     3
 72
     8
 73
     4
 74
     0
 42
0.00000001
 43
0.0000000001
 40
0.0
 40
0.0
 40
0.0
 40
0.0
 40
1.0
 40
1.0
 40
1.0
 40
1.0
 10
39280.03105953658
 20
-27800.238291036
 30
0.0000000000000095
 10
39280.75289078274
 20
-27800.33415588082
 30
0.0000000000000095
 10
39280.51607358064
 20
-27799.22395131996
 30
0.0000000000000095
 10
39279.88277938092
 20
-27799.65568795925
 30
0.0000000000000095
  0
SPLINE
  5
96456
330
A
100
AcDbEntity
  8
shade
100
AcDbSpline
210
0.0
220
0.0
230
1.0
 70
     8
 71
     3
 72
     8
 73
     4
 74
     0
 42
0.00000001
 43
0.0000000001
 40
0.0
 40
0.0
 40
0.0
 40
0.0
 40
1.0
 40
1.0
 40
1.0
 40
1.0
 10
39298.24124200281
 20
-27810.30203071737
 30
0.0000000000000095
 10
39299.32851486518
 20
-27810.59307362757
 30
0.0000000000000095
 10
39299.82801208723
 20
-27809.06027062306
 30
0.0000000000000095
 10
39298.76022254764
 20
-27808.68129413217
 30
0.0000000000000095
  0
ARC
  5
96457
330
A
100
AcDbEntity
  8
shade
100
AcDbCircle
 10
39290.87402289404
 20
-27800.95940434766
 30
0.0000000000000086
 40
19.08105783734075
100
AcDbArc
 50
163.3844365053098
 51
196.1713162322836
  0
ARC
  5
96458
330
A
100
AcDbEntity
  8
shade
100
AcDbCircle
 10
39273.54794077716
 20
-27795.78914990556
 30
0.0000000000000086
 40
1.0
100
AcDbArc
 50
16.61556350056307
 51
163.3844365052848
  0
ARC
  5
96459
330
A
100
AcDbEntity
  8
shade
100
AcDbCircle
 10
39256.22185866074
 20
-27800.95940434923
 30
0.0000000000000086
 40
19.08105783734075
100
AcDbArc
 50
343.8286837717313
 51
352.7612751099734
  0
ARC
  5
9645A
330
A
100
AcDbEntity
  8
shade
100
AcDbCircle
 10
39256.22185866074
 20
-27800.95940434923
 30
0.0000000000000086
 40
19.08105783734075
100
AcDbArc
 50
5.57385629314147
 51
16.61556350069846
  0
CIRCLE
  5
9645B
330
A
100
AcDbEntity
  8
shade
100
AcDbCircle
 10
39273.547940777
 20
-27801.52367592813
 30
0.0000000000000095
 40
0.4
  0
CIRCLE
  5
9645C
330
A
100
AcDbEntity
  8
shade
100
AcDbCircle
 10
39273.547940777
 20
-27801.52367592813
 30
0.0000000000000095
 40
0.3
  0
ARC
  5
9645D
330
A
100
AcDbEntity
  8
shade
100
AcDbCircle
 10
39256.22185865995
 20
-27800.95940434766
 30
0.0000000000000086
 40
19.08105783734075
100
AcDbArc
 50
3.11312875959131
 51
16.61556349469015
  0
POLYLINE
  5
9645E
330
A
100
AcDbEntity
  8
shade
100
AcDb2dPolyline
 66
     1
 10
0.0
 20
0.0
 30
0.0000000000000095
  0
VERTEX
  5
9645F
330
9645E
100
AcDbEntity
  8
shade
100
AcDbVertex
100
AcDb2dVertex
 10
39256.65694175015
 20
-27826.29497902421
 30
0.0000000000000095
  0
VERTEX
  5
96460
330
9645E
100
AcDbEntity
  8
shade
100
AcDbVertex
100
AcDb2dVertex
 10
39256.6823423315
 20
-27826.17432747394
 30
0.0000000000000095
  0
SEQEND
  5
96461
330
9645E
100
AcDbEntity
  8
shade
  0
POLYLINE
  5
96462
330
A
100
AcDbEntity
  8
shade
100
AcDb2dPolyline
 66
     1
 10
0.0
 20
0.0
 30
0.0000000000000095
  0
VERTEX
  5
96463
330
96462
100
AcDbEntity
  8
shade
100
AcDbVertex
100
AcDb2dVertex
 10
39266.57564349175
 20
-27826.29497902421
 30
0.0000000000000095
  0
VERTEX
  5
96464
330
96462
100
AcDbEntity
  8
shade
100
AcDbVertex
100
AcDb2dVertex
 10
39267.40114219963
 20
-27825.46947708655
 30
0.0000000000000095
  0
SEQEND
  5
96465
330
96462
100
AcDbEntity
  8
shade
  0
POLYLINE
  5
96466
330
A
100
AcDbEntity
  8
shade
100
AcDb2dPolyline
 66
     1
 10
0.0
 20
0.0
 30
0.0000000000000095
  0
VERTEX
  5
96467
330
96466
100
AcDbEntity
  8
shade
100
AcDbVertex
100
AcDb2dVertex
 10
39256.80299226688
 20
-27826.29497902421
 30
0.0000000000000095
  0
VERTEX
  5
96468
330
96466
100
AcDbEntity
  8
shade
100
AcDbVertex
100
AcDb2dVertex
 10
39256.9426914271
 20
-27825.88857618211
 30
0.0000000000000095
  0
SEQEND
  5
96469
330
96466
100
AcDbEntity
  8
shade
  0
POLYLINE
  5
9646A
330
A
100
AcDbEntity
  8
shade
100
AcDb2dPolyline
 66
     1
 10
0.0
 20
0.0
 30
0.0000000000000095
  0
VERTEX
  5
9646B
330
9646A
100
AcDbEntity
  8
shade
100
AcDbVertex
100
AcDb2dVertex
 10
39257.3363915562
 20
-27826.29497902421
 30
0.0000000000000095
  0
VERTEX
  5
9646C
330
9646A
100
AcDbEntity
  8
shade
100
AcDbVertex
100
AcDb2dVertex
 10
39257.50149129777
 20
-27825.86317721564
 30
0.0000000000000095
  0
SEQEND
  5
9646D
330
9646A
100
AcDbEntity
  8
shade
  0
POLYLINE
  5
9646E
330
A
100
AcDbEntity
  8
shade
100
AcDb2dPolyline
 66
     1
 10
0.0
 20
0.0
 30
0.0000000000000095
  0
VERTEX
  5
9646F
330
9646E
100
AcDbEntity
  8
shade
100
AcDbVertex
100
AcDb2dVertex
 10
39258.01584136224
 20
-27826.29497902421
 30
0.0000000000000095
  0
VERTEX
  5
96470
330
9646E
100
AcDbEntity
  8
shade
100
AcDbVertex
100
AcDb2dVertex
 10
39258.2253925249
 20
-27825.87587669888
 30
0.0000000000000095
  0
SEQEND
  5
96471
330
9646E
100
AcDbEntity
  8
shade
  0
POLYLINE
  5
96472
330
A
100
AcDbEntity
  8
shade
100
AcDb2dPolyline
 66
     1
 10
0.0
 20
0.0
 30
0.0000000000000095
  0
VERTEX
  5
96473
330
96472
100
AcDbEntity
  8
shade
100
AcDbVertex
100
AcDb2dVertex
 10
39258.90484233095
 20
-27826.29497902421
 30
0.0000000000000095
  0
VERTEX
  5
96474
330
96472
100
AcDbEntity
  8
shade
100
AcDbVertex
100
AcDb2dVertex
 10
39259.20964284764
 20
-27825.88222644049
 30
0.0000000000000095
  0
SEQEND
  5
96475
330
96472
100
AcDbEntity
  8
shade
  0
POLYLINE
  5
96476
330
A
100
AcDbEntity
  8
shade
100
AcDb2dPolyline
 66
     1
 10
0.0
 20
0.0
 30
0.0000000000000095
  0
VERTEX
  5
96477
330
96476
100
AcDbEntity
  8
shade
100
AcDbVertex
100
AcDb2dVertex
 10
39259.95894142635
 20
-27826.29497902421
 30
0.0000000000000095
  0
VERTEX
  5
96478
330
96476
100
AcDbEntity
  8
shade
100
AcDbVertex
100
AcDb2dVertex
 10
39260.25739220142
 20
-27825.8949291535
 30
0.0000000000000095
  0
SEQEND
  5
96479
330
96476
100
AcDbEntity
  8
shade
  0
POLYLINE
  5
9647A
330
A
100
AcDbEntity
  8
shade
100
AcDb2dPolyline
 66
     1
 10
0.0
 20
0.0
 30
0.0000000000000095
  0
VERTEX
  5
9647B
330
9647A
100
AcDbEntity
  8
shade
100
AcDbVertex
100
AcDb2dVertex
 10
39261.32419239494
 20
-27826.29497902421
 30
0.0000000000000095
  0
VERTEX
  5
9647C
330
9647A
100
AcDbEntity
  8
shade
100
AcDbVertex
100
AcDb2dVertex
 10
39261.69249194268
 20
-27825.72982618215
 30
0.0000000000000095
  0
SEQEND
  5
9647D
330
9647A
100
AcDbEntity
  8
shade
  0
POLYLINE
  5
9647E
330
A
100
AcDbEntity
  8
shade
100
AcDb2dPolyline
 66
     1
 10
0.0
 20
0.0
 30
0.0000000000000095
  0
VERTEX
  5
9647F
330
9647E
100
AcDbEntity
  8
shade
100
AcDbVertex
100
AcDb2dVertex
 10
39262.98154278209
 20
-27826.29497902421
 30
0.0000000000000095
  0
VERTEX
  5
96480
330
9647E
100
AcDbEntity
  8
shade
100
AcDbVertex
100
AcDb2dVertex
 10
39263.43239220063
 20
-27825.59647837843
 30
0.0000000000000095
  0
SEQEND
  5
96481
330
9647E
100
AcDbEntity
  8
shade
  0
POLYLINE
  5
96482
330
A
100
AcDbEntity
  8
shade
100
AcDb2dPolyline
 66
     1
 10
0.0
 20
0.0
 30
0.0000000000000095
  0
VERTEX
  5
96483
330
96482
100
AcDbEntity
  8
shade
100
AcDbVertex
100
AcDb2dVertex
 10
39264.79129181272
 20
-27826.29497902421
 30
0.0000000000000095
  0
VERTEX
  5
96484
330
96482
100
AcDbEntity
  8
shade
100
AcDbVertex
100
AcDb2dVertex
 10
39265.44534265229
 20
-27825.59012863682
 30
0.0000000000000095
  0
SEQEND
  5
96485
330
96482
100
AcDbEntity
  8
shade
  0
POLYLINE
  5
96486
330
A
100
AcDbEntity
  8
shade
100
AcDb2dPolyline
 66
     1
 10
0.0
 20
0.0
 30
0.0000000000000095
  0
VERTEX
  5
96487
330
96486
100
AcDbEntity
  8
shade
100
AcDbVertex
100
AcDb2dVertex
 10
39256.80299226688
 20
-27826.29497902421
 30
0.0000000000000095
  0
VERTEX
  5
96488
330
96486
100
AcDbEntity
  8
shade
100
AcDbVertex
100
AcDb2dVertex
 10
39256.32039252539
 20
-27825.51392850764
 30
0.0000000000000095
  0
SEQEND
  5
96489
330
96486
100
AcDbEntity
  8
shade
  0
POLYLINE
  5
9648A
330
A
100
AcDbEntity
  8
shade
100
AcDb2dPolyline
 66
     1
 10
0.0
 20
0.0
 30
0.0000000000000095
  0
VERTEX
  5
9648B
330
9648A
100
AcDbEntity
  8
shade
100
AcDbVertex
100
AcDb2dVertex
 10
39256.65694175015
 20
-27826.29497902421
 30
0.0000000000000095
  0
VERTEX
  5
9648C
330
9648A
100
AcDbEntity
  8
shade
100
AcDbVertex
100
AcDb2dVertex
 10
39256.06639155651
 20
-27825.55837669896
 30
0.0000000000000095
  0
VERTEX
  5
9648D
330
9648A
100
AcDbEntity
  8
shade
100
AcDbVertex
100
AcDb2dVertex
 10
39256.80299226688
 20
-27826.29497902421
 30
0.0000000000000095
  0
VERTEX
  5
9648E
330
9648A
100
AcDbEntity
  8
shade
100
AcDbVertex
100
AcDb2dVertex
 10
39256.63154278369
 20
-27825.56472644057
 30
0.0000000000000095
  0
VERTEX
  5
9648F
330
9648A
100
AcDbEntity
  8
shade
100
AcDbVertex
100
AcDb2dVertex
 10
39257.3363915562
 20
-27826.29497902421
 30
0.0000000000000095
  0
VERTEX
  5
96490
330
9648A
100
AcDbEntity
  8
shade
100
AcDbVertex
100
AcDb2dVertex
 10
39257.10779278356
 20
-27825.53297773249
 30
0.0000000000000095
  0
VERTEX
  5
96491
330
9648A
100
AcDbEntity
  8
shade
100
AcDbVertex
100
AcDb2dVertex
 10
39258.01584136224
 20
-27826.29497902421
 30
0.0000000000000095
  0
VERTEX
  5
96492
330
9648A
100
AcDbEntity
  8
shade
100
AcDbVertex
100
AcDb2dVertex
 10
39257.67929213747
 20
-27825.53932747411
 30
0.0000000000000095
  0
VERTEX
  5
96493
330
9648A
100
AcDbEntity
  8
shade
100
AcDbVertex
100
AcDb2dVertex
 10
39258.90484233095
 20
-27826.29497902421
 30
0.0000000000000095
  0
VERTEX
  5
96494
330
9648A
100
AcDbEntity
  8
shade
100
AcDbVertex
100
AcDb2dVertex
 10
39258.54289252483
 20
-27825.51392850764
 30
0.0000000000000095
  0
VERTEX
  5
96495
330
9648A
100
AcDbEntity
  8
shade
100
AcDbVertex
100
AcDb2dVertex
 10
39259.95894142635
 20
-27826.29497902421
 30
0.0000000000000095
  0
VERTEX
  5
96496
330
9648A
100
AcDbEntity
  8
shade
100
AcDbVertex
100
AcDb2dVertex
 10
39259.69859233075
 20
-27825.67902824922
 30
0.0000000000000095
  0
VERTEX
  5
96497
330
9648A
100
AcDbEntity
  8
shade
100
AcDbVertex
100
AcDb2dVertex
 10
39261.32419239494
 20
-27826.29497902421
 30
0.0000000000000095
  0
VERTEX
  5
96498
330
9648A
100
AcDbEntity
  8
shade
100
AcDbVertex
100
AcDb2dVertex
 10
39261.29244207197
 20
-27825.55202695734
 30
0.0000000000000095
  0
VERTEX
  5
96499
330
9648A
100
AcDbEntity
  8
shade
100
AcDbVertex
100
AcDb2dVertex
 10
39262.98154278209
 20
-27826.29497902421
 30
0.0000000000000095
  0
VERTEX
  5
9649A
330
9648A
100
AcDbEntity
  8
shade
100
AcDbVertex
100
AcDb2dVertex
 10
39263.08314187774
 20
-27825.41232618223
 30
0.0000000000000095
  0
VERTEX
  5
9649B
330
9648A
100
AcDbEntity
  8
shade
100
AcDbVertex
100
AcDb2dVertex
 10
39264.79129181272
 20
-27826.29497902421
 30
0.0000000000000095
  0
VERTEX
  5
9649C
330
9648A
100
AcDbEntity
  8
shade
100
AcDbVertex
100
AcDb2dVertex
 10
39265.007192717
 20
-27825.31707682821
 30
0.0000000000000095
  0
VERTEX
  5
9649D
330
9648A
100
AcDbEntity
  8
shade
100
AcDbVertex
100
AcDb2dVertex
 10
39266.57564349175
 20
-27826.29497902421
 30
0.0000000000000095
  0
VERTEX
  5
9649E
330
9648A
100
AcDbEntity
  8
shade
100
AcDbVertex
100
AcDb2dVertex
 10
39267.22969271644
 20
-27825.33612928283
 30
0.0000000000000095
  0
VERTEX
  5
9649F
330
9648A
100
AcDbEntity
  8
shade
100
AcDbVertex
100
AcDb2dVertex
 10
39268.4425418118
 20
-27826.29497902421
 30
0.0000000000000095
  0
VERTEX
  5
964A0
330
9648A
100
AcDbEntity
  8
shade
100
AcDbVertex
100
AcDb2dVertex
 10
39269.43314349104
 20
-27825.27897837851
 30
0.0000000000000095
  0
VERTEX
  5
964A1
330
9648A
100
AcDbEntity
  8
shade
100
AcDbVertex
100
AcDb2dVertex
 10
39270.53169077775
 20
-27826.29497902421
 30
0.0000000000000095
  0
VERTEX
  5
964A2
330
9648A
100
AcDbEntity
  8
shade
100
AcDbVertex
100
AcDb2dVertex
 10
39271.57944336131
 20
-27825.34247902445
 30
0.0000000000000095
  0
VERTEX
  5
964A3
330
9648A
100
AcDbEntity
  8
shade
100
AcDbVertex
100
AcDb2dVertex
 10
39272.48114219836
 20
-27826.26322708635
 30
0.0000000000000095
  0
VERTEX
  5
964A4
330
9648A
100
AcDbEntity
  8
shade
100
AcDbVertex
100
AcDb2dVertex
 10
39273.547940777
 20
-27825.34247902445
 30
0.0000000000000095
  0
SEQEND
  5
964A5
330
9648A
100
AcDbEntity
  8
shade
  0
POLYLINE
  5
964A6
330
A
100
AcDbEntity
  8
shade
100
AcDb2dPolyline
 66
     1
 10
0.0
 20
0.0
 30
0.0000000000000095
  0
VERTEX
  5
964A7
330
964A6
100
AcDbEntity
  8
shade
100
AcDbVertex
100
AcDb2dVertex
 10
39256.06639155651
 20
-27825.55837669896
 30
0.0000000000000095
  0
VERTEX
  5
964A8
330
964A6
100
AcDbEntity
  8
shade
100
AcDbVertex
100
AcDb2dVertex
 10
39267.04554052024
 20
-27806.99757877015
 30
0.0000000000000095
  0
SEQEND
  5
964A9
330
964A6
100
AcDbEntity
  8
shade
  0
POLYLINE
  5
964AA
330
A
100
AcDbEntity
  8
shade
100
AcDb2dPolyline
 66
     1
 10
0.0
 20
0.0
 30
0.0000000000000095
  0
VERTEX
  5
964AB
330
964AA
100
AcDbEntity
  8
shade
100
AcDbVertex
100
AcDb2dVertex
 10
39256.63154278369
 20
-27825.56472644057
 30
0.0000000000000095
  0
VERTEX
  5
964AC
330
964AA
100
AcDbEntity
  8
shade
100
AcDbVertex
100
AcDb2dVertex
 10
39267.04554052024
 20
-27806.99757877015
 30
0.0000000000000095
  0
VERTEX
  5
964AD
330
964AA
100
AcDbEntity
  8
shade
100
AcDbVertex
100
AcDb2dVertex
 10
39256.32039252539
 20
-27825.51392850764
 30
0.0000000000000095
  0
SEQEND
  5
964AE
330
964AA
100
AcDbEntity
  8
shade
  0
POLYLINE
  5
964AF
330
A
100
AcDbEntity
  8
shade
100
AcDb2dPolyline
 66
     1
 10
0.0
 20
0.0
 30
0.0000000000000095
  0
VERTEX
  5
964B0
330
964AF
100
AcDbEntity
  8
shade
100
AcDbVertex
100
AcDb2dVertex
 10
39256.80299226688
 20
-27826.29497902421
 30
0.0000000000000095
  0
VERTEX
  5
964B1
330
964AF
100
AcDbEntity
  8
shade
100
AcDbVertex
100
AcDb2dVertex
 10
39256.32039252539
 20
-27825.51392850764
 30
0.0000000000000095
  0
SEQEND
  5
964B2
330
964AF
100
AcDbEntity
  8
shade
  0
LINE
  5
964B3
330
A
100
AcDbEntity
  8
shade
100
AcDbLine
 10
39274.64963387125
 20
-27806.37536902238
 30
0.0000000000000095
 11
39274.547940777
 21
-27806.27367592813
 31
0.0000000000000095
  0
LINE
  5
964B4
330
A
100
AcDbEntity
  8
shade
 48
5.0
100
AcDbLine
 10
39273.547940777
 20
-27806.27367592813
 30
0.0000000000000095
 11
39274.28798369373
 21
-27806.27367592813
 31
0.0000000000000095
  0
POLYLINE
  5
964B5
330
A
100
AcDbEntity
  8
shade
100
AcDb2dPolyline
 66
     1
 10
0.0
 20
0.0
 30
0.0000000000000095
  0
VERTEX
  5
964B6
330
964B5
100
AcDbEntity
  8
shade
100
AcDbVertex
100
AcDb2dVertex
 10
39289.98808877042
 20
-27825.53297773249
 30
0.0000000000000095
  0
VERTEX
  5
964B7
330
964B5
100
AcDbEntity
  8
shade
100
AcDbVertex
100
AcDb2dVertex
 10
39279.99319012943
 20
-27807.06107618632
 30
0.0000000000000095
  0
SEQEND
  5
964B8
330
964B5
100
AcDbEntity
  8
shade
  0
POLYLINE
  5
964B9
330
A
100
AcDbEntity
  8
shade
100
AcDb2dPolyline
 66
     1
 10
0.0
 20
0.0
 30
0.0000000000000095
  0
VERTEX
  5
964BA
330
964B9
100
AcDbEntity
  8
shade
100
AcDbVertex
100
AcDb2dVertex
 10
39279.75824000029
 20
-27807.07377566955
 30
0.0000000000000095
  0
VERTEX
  5
964BB
330
964B9
100
AcDbEntity
  8
shade
100
AcDbVertex
100
AcDb2dVertex
 10
39289.41658941652
 20
-27825.53932747411
 30
0.0000000000000095
  0
SEQEND
  5
964BC
330
964B9
100
AcDbEntity
  8
shade
  0
POLYLINE
  5
964BD
330
A
100
AcDbEntity
  8
shade
100
AcDb2dPolyline
 66
     1
 10
0.0
 20
0.0
 30
0.0000000000000095
  0
VERTEX
  5
964BE
330
964BD
100
AcDbEntity
  8
shade
100
AcDbVertex
100
AcDb2dVertex
 10
39288.55298902917
 20
-27825.51392850764
 30
0.0000000000000095
  0
VERTEX
  5
964BF
330
964BD
100
AcDbEntity
  8
shade
100
AcDbVertex
100
AcDb2dVertex
 10
39279.40898806252
 20
-27807.10553083718
 30
0.0000000000000095
  0
SEQEND
  5
964C0
330
964BD
100
AcDbEntity
  8
shade
  0
POLYLINE
  5
964C1
330
A
100
AcDbEntity
  8
shade
100
AcDb2dPolyline
 66
     1
 10
0.0
 20
0.0
 30
0.0000000000000095
  0
VERTEX
  5
964C2
330
964C1
100
AcDbEntity
  8
shade
100
AcDbVertex
100
AcDb2dVertex
 10
39278.97718948372
 20
-27807.1118805788
 30
0.0000000000000095
  0
VERTEX
  5
964C3
330
964C1
100
AcDbEntity
  8
shade
100
AcDbVertex
100
AcDb2dVertex
 10
39287.39728922325
 20
-27825.67902824922
 30
0.0000000000000095
  0
SEQEND
  5
964C4
330
964C1
100
AcDbEntity
  8
shade
  0
POLYLINE
  5
964C5
330
A
100
AcDbEntity
  8
shade
100
AcDb2dPolyline
 66
     1
 10
0.0
 20
0.0
 30
0.0000000000000095
  0
VERTEX
  5
964C6
330
964C5
100
AcDbEntity
  8
shade
100
AcDbVertex
100
AcDb2dVertex
 10
39285.80343948202
 20
-27825.55202695734
 30
0.0000000000000095
  0
VERTEX
  5
964C7
330
964C5
100
AcDbEntity
  8
shade
100
AcDbVertex
100
AcDb2dVertex
 10
39278.41838961306
 20
-27807.18807747819
 30
0.0000000000000095
  0
SEQEND
  5
964C8
330
964C5
100
AcDbEntity
  8
shade
  0
POLYLINE
  5
964C9
330
A
100
AcDbEntity
  8
shade
100
AcDb2dPolyline
 66
     1
 10
0.0
 20
0.0
 30
0.0000000000000095
  0
VERTEX
  5
964CA
330
964C9
100
AcDbEntity
  8
shade
100
AcDbVertex
100
AcDb2dVertex
 10
39277.67544077596
 20
-27807.21982618628
 30
0.0000000000000095
  0
VERTEX
  5
964CB
330
964C9
100
AcDbEntity
  8
shade
100
AcDbVertex
100
AcDb2dVertex
 10
39284.01273967626
 20
-27825.41232618223
 30
0.0000000000000095
  0
SEQEND
  5
964CC
330
964C9
100
AcDbEntity
  8
shade
  0
POLYLINE
  5
964CD
330
A
100
AcDbEntity
  8
shade
100
AcDb2dPolyline
 66
     1
 10
0.0
 20
0.0
 30
0.0000000000000095
  0
VERTEX
  5
964CE
330
964CD
100
AcDbEntity
  8
shade
100
AcDbVertex
100
AcDb2dVertex
 10
39276.91978922586
 20
-27807.21982618628
 30
0.0000000000000095
  0
VERTEX
  5
964CF
330
964CD
100
AcDbEntity
  8
shade
100
AcDbVertex
100
AcDb2dVertex
 10
39282.08868883699
 20
-27825.31707682821
 30
0.0000000000000095
  0
SEQEND
  5
964D0
330
964CD
100
AcDbEntity
  8
shade
  0
POLYLINE
  5
964D1
330
A
100
AcDbEntity
  8
shade
100
AcDb2dPolyline
 66
     1
 10
0.0
 20
0.0
 30
0.0000000000000095
  0
VERTEX
  5
964D2
330
964D1
100
AcDbEntity
  8
shade
100
AcDbVertex
100
AcDb2dVertex
 10
39275.9672892261
 20
-27807.24522515274
 30
0.0000000000000095
  0
VERTEX
  5
964D3
330
964D1
100
AcDbEntity
  8
shade
100
AcDbVertex
100
AcDb2dVertex
 10
39279.86618883755
 20
-27825.33612928283
 30
0.0000000000000095
  0
SEQEND
  5
964D4
330
964D1
100
AcDbEntity
  8
shade
  0
POLYLINE
  5
964D5
330
A
100
AcDbEntity
  8
shade
100
AcDb2dPolyline
 66
     1
 10
0.0
 20
0.0
 30
0.0000000000000095
  0
VERTEX
  5
964D6
330
964D5
100
AcDbEntity
  8
shade
100
AcDbVertex
100
AcDb2dVertex
 10
39277.66273806295
 20
-27825.27897837851
 30
0.0000000000000095
  0
VERTEX
  5
964D7
330
964D5
100
AcDbEntity
  8
shade
100
AcDbVertex
100
AcDb2dVertex
 10
39275.10368883874
 20
-27807.25792463597
 30
0.0000000000000095
  0
SEQEND
  5
964D8
330
964D5
100
AcDbEntity
  8
shade
  0
POLYLINE
  5
964D9
330
A
100
AcDbEntity
  8
shade
100
AcDb2dPolyline
 66
     1
 10
0.0
 20
0.0
 30
0.0000000000000095
  0
VERTEX
  5
964DA
330
964D9
100
AcDbEntity
  8
shade
100
AcDbVertex
100
AcDb2dVertex
 10
39274.04324000173
 20
-27807.26428083714
 30
0.0000000000000095
  0
VERTEX
  5
964DB
330
964D9
100
AcDbEntity
  8
shade
100
AcDbVertex
100
AcDb2dVertex
 10
39275.51643819268
 20
-27825.34247902445
 30
0.0000000000000095
  0
SEQEND
  5
964DC
330
964D9
100
AcDbEntity
  8
shade
  0
POLYLINE
  5
964DD
330
A
100
AcDbEntity
  8
shade
100
AcDb2dPolyline
 66
     1
 10
0.0
 20
0.0
 30
0.0000000000000095
  0
VERTEX
  5
964DE
330
964DD
100
AcDbEntity
  8
shade
100
AcDbVertex
100
AcDb2dVertex
 10
39274.13848935575
 20
-27806.26732618651
 30
0.0000000000000095
  0
VERTEX
  5
964DF
330
964DD
100
AcDbEntity
  8
shade
100
AcDbVertex
100
AcDb2dVertex
 10
39273.8463883223
 20
-27806.86422773666
 30
0.0000000000000095
  0
SEQEND
  5
964E0
330
964DD
100
AcDbEntity
  8
shade
  0
POLYLINE
  5
964E1
330
A
100
AcDbEntity
  8
shade
100
AcDb2dPolyline
 66
     1
 10
0.0
 20
0.0
 30
0.0000000000000095
  0
VERTEX
  5
964E2
330
964E1
100
AcDbEntity
  8
shade
100
AcDbVertex
100
AcDb2dVertex
 10
39274.7290379345
 20
-27806.28002566975
 30
0.0000000000000095
  0
VERTEX
  5
964E3
330
964E1
100
AcDbEntity
  8
shade
100
AcDbVertex
100
AcDb2dVertex
 10
39274.47503858052
 20
-27806.6102251529
 30
0.0000000000000095
  0
SEQEND
  5
964E4
330
964E1
100
AcDbEntity
  8
shade
  0
POLYLINE
  5
964E5
330
A
100
AcDbEntity
  8
shade
100
AcDb2dPolyline
 66
     1
 10
0.0
 20
0.0
 30
0.0000000000000095
  0
VERTEX
  5
964E6
330
964E5
100
AcDbEntity
  8
shade
100
AcDbVertex
100
AcDb2dVertex
 10
39275.31958974302
 20
-27806.2609764449
 30
0.0000000000000095
  0
VERTEX
  5
964E7
330
964E5
100
AcDbEntity
  8
shade
100
AcDbVertex
100
AcDb2dVertex
 10
39275.07194013066
 20
-27806.54672773674
 30
0.0000000000000095
  0
SEQEND
  5
964E8
330
964E5
100
AcDbEntity
  8
shade
  0
POLYLINE
  5
964E9
330
A
100
AcDbEntity
  8
shade
100
AcDb2dPolyline
 66
     1
 10
0.0
 20
0.0
 30
0.0000000000000095
  0
VERTEX
  5
964EA
330
964E9
100
AcDbEntity
  8
shade
100
AcDbVertex
100
AcDb2dVertex
 10
39275.84664090561
 20
-27806.26732618651
 30
0.0000000000000095
  0
VERTEX
  5
964EB
330
964E9
100
AcDbEntity
  8
shade
100
AcDbVertex
100
AcDb2dVertex
 10
39275.60534103486
 20
-27806.43242592809
 30
0.0000000000000095
  0
SEQEND
  5
964EC
330
964E9
100
AcDbEntity
  8
shade
  0
POLYLINE
  5
964ED
330
A
100
AcDbEntity
  8
shade
100
AcDb2dPolyline
 66
     1
 10
0.0
 20
0.0
 30
0.0000000000000095
  0
VERTEX
  5
964EE
330
964ED
100
AcDbEntity
  8
shade
100
AcDbVertex
100
AcDb2dVertex
 10
39276.3228909055
 20
-27806.28002566975
 30
0.0000000000000095
  0
VERTEX
  5
964EF
330
964ED
100
AcDbEntity
  8
shade
100
AcDbVertex
100
AcDb2dVertex
 10
39276.10699000121
 20
-27806.40702696163
 30
0.0000000000000095
  0
SEQEND
  5
964F0
330
964ED
100
AcDbEntity
  8
shade
  0
POLYLINE
  5
964F1
330
A
100
AcDbEntity
  8
shade
100
AcDb2dPolyline
 66
     1
 10
0.0
 20
0.0
 30
0.0000000000000095
  0
VERTEX
  5
964F2
330
964F1
100
AcDbEntity
  8
shade
100
AcDbVertex
100
AcDb2dVertex
 10
39276.78008845075
 20
-27806.27367592813
 30
0.0000000000000095
  0
VERTEX
  5
964F3
330
964F1
100
AcDbEntity
  8
shade
100
AcDbVertex
100
AcDb2dVertex
 10
39276.50703987192
 20
-27806.35622902869
 30
0.0000000000000095
  0
SEQEND
  5
964F4
330
964F1
100
AcDbEntity
  8
shade
  0
POLYLINE
  5
964F5
330
A
100
AcDbEntity
  8
shade
100
AcDb2dPolyline
 66
     1
 10
0.0
 20
0.0
 30
0.0000000000000095
  0
VERTEX
  5
964F6
330
964F5
100
AcDbEntity
  8
shade
100
AcDbVertex
100
AcDb2dVertex
 10
39277.14838961337
 20
-27806.28637541136
 30
0.0000000000000095
  0
VERTEX
  5
964F7
330
964F5
100
AcDbEntity
  8
shade
100
AcDbVertex
100
AcDb2dVertex
 10
39276.8943902594
 20
-27806.318130579
 30
0.0000000000000095
  0
SEQEND
  5
964F8
330
964F5
100
AcDbEntity
  8
shade
  0
POLYLINE
  5
964F9
330
A
100
AcDbEntity
  8
shade
100
AcDb2dPolyline
 66
     1
 10
0.0
 20
0.0
 30
0.0000000000000095
  0
VERTEX
  5
964FA
330
964F9
100
AcDbEntity
  8
shade
100
AcDbVertex
100
AcDb2dVertex
 10
39277.4658896133
 20
-27806.28002566975
 30
0.0000000000000095
  0
VERTEX
  5
964FB
330
964F9
100
AcDbEntity
  8
shade
100
AcDbVertex
100
AcDb2dVertex
 10
39277.21189025931
 20
-27806.31178083738
 30
0.0000000000000095
  0
SEQEND
  5
964FC
330
964F9
100
AcDbEntity
  8
shade
  0
POLYLINE
  5
964FD
330
A
100
AcDbEntity
  8
shade
100
AcDb2dPolyline
 66
     1
 10
0.0
 20
0.0
 30
0.0000000000000095
  0
VERTEX
  5
964FE
330
964FD
100
AcDbEntity
  8
shade
100
AcDbVertex
100
AcDb2dVertex
 10
39278.07549064667
 20
-27806.28637541136
 30
0.0000000000000095
  0
VERTEX
  5
964FF
330
964FD
100
AcDbEntity
  8
shade
100
AcDbVertex
100
AcDb2dVertex
 10
39277.89133845047
 20
-27806.2990748946
 30
0.0000000000000095
  0
VERTEX
  5
96500
330
964FD
100
AcDbEntity
  8
shade
100
AcDbVertex
100
AcDb2dVertex
 10
39277.68179051758
 20
-27806.28637541136
 30
0.0000000000000095
  0
VERTEX
  5
96501
330
964FD
100
AcDbEntity
  8
shade
100
AcDbVertex
100
AcDb2dVertex
 10
39277.53574000085
 20
-27806.2990748946
 30
0.0000000000000095
  0
SEQEND
  5
96502
330
964FD
100
AcDbEntity
  8
shade
  0
POLYLINE
  5
96503
330
A
100
AcDbEntity
  8
shade
100
AcDb2dPolyline
 66
     1
 10
0.0
 20
0.0
 30
0.0000000000000095
  0
VERTEX
  5
96504
330
96503
100
AcDbEntity
  8
shade
100
AcDbVertex
100
AcDb2dVertex
 10
39278.97718948372
 20
-27807.1118805788
 30
0.0000000000000095
  0
VERTEX
  5
96505
330
96503
100
AcDbEntity
  8
shade
100
AcDbVertex
100
AcDb2dVertex
 10
39276.78008845075
 20
-27806.27367592813
 30
0.0000000000000095
  0
VERTEX
  5
96506
330
96503
100
AcDbEntity
  8
shade
100
AcDbVertex
100
AcDb2dVertex
 10
39278.41838961306
 20
-27807.18807747819
 30
0.0000000000000095
  0
VERTEX
  5
96507
330
96503
100
AcDbEntity
  8
shade
100
AcDbVertex
100
AcDb2dVertex
 10
39276.3228909055
 20
-27806.28002566975
 30
0.0000000000000095
  0
VERTEX
  5
96508
330
96503
100
AcDbEntity
  8
shade
100
AcDbVertex
100
AcDb2dVertex
 10
39277.67544077596
 20
-27807.21982618628
 30
0.0000000000000095
  0
VERTEX
  5
96509
330
96503
100
AcDbEntity
  8
shade
100
AcDbVertex
100
AcDb2dVertex
 10
39275.84664090561
 20
-27806.26732618651
 30
0.0000000000000095
  0
VERTEX
  5
9650A
330
96503
100
AcDbEntity
  8
shade
100
AcDbVertex
100
AcDb2dVertex
 10
39276.91978922586
 20
-27807.21982618628
 30
0.0000000000000095
  0
VERTEX
  5
9650B
330
96503
100
AcDbEntity
  8
shade
100
AcDbVertex
100
AcDb2dVertex
 10
39275.31958974302
 20
-27806.2609764449
 30
0.0000000000000095
  0
VERTEX
  5
9650C
330
96503
100
AcDbEntity
  8
shade
100
AcDbVertex
100
AcDb2dVertex
 10
39275.9672892261
 20
-27807.24522515274
 30
0.0000000000000095
  0
VERTEX
  5
9650D
330
96503
100
AcDbEntity
  8
shade
100
AcDbVertex
100
AcDb2dVertex
 10
39274.7290379345
 20
-27806.28002566975
 30
0.0000000000000095
  0
VERTEX
  5
9650E
330
96503
100
AcDbEntity
  8
shade
100
AcDbVertex
100
AcDb2dVertex
 10
39275.10368883874
 20
-27807.25792463597
 30
0.0000000000000095
  0
VERTEX
  5
9650F
330
96503
100
AcDbEntity
  8
shade
100
AcDbVertex
100
AcDb2dVertex
 10
39274.13848935575
 20
-27806.26732618651
 30
0.0000000000000095
  0
VERTEX
  5
96510
330
96503
100
AcDbEntity
  8
shade
100
AcDbVertex
100
AcDb2dVertex
 10
39274.04324000173
 20
-27807.26428083714
 30
0.0000000000000095
  0
VERTEX
  5
96511
330
96503
100
AcDbEntity
  8
shade
100
AcDbVertex
100
AcDb2dVertex
 10
39273.547940777
 20
-27806.27367592813
 30
0.0000000000000095
  0
SEQEND
  5
96512
330
96503
100
AcDbEntity
  8
shade
  0
POLYLINE
  5
96513
330
A
100
AcDbEntity
  8
shade
100
AcDb2dPolyline
 66
     1
 10
0.0
 20
0.0
 30
0.0000000000000095
  0
VERTEX
  5
96514
330
96513
100
AcDbEntity
  8
shade
100
AcDbVertex
100
AcDb2dVertex
 10
39277.4658896133
 20
-27806.28002566975
 30
0.0000000000000095
  0
VERTEX
  5
96515
330
96513
100
AcDbEntity
  8
shade
100
AcDbVertex
100
AcDb2dVertex
 10
39279.75824000029
 20
-27807.07377566955
 30
0.0000000000000095
  0
VERTEX
  5
96516
330
96513
100
AcDbEntity
  8
shade
100
AcDbVertex
100
AcDb2dVertex
 10
39277.68179051758
 20
-27806.28637541136
 30
0.0000000000000095
  0
VERTEX
  5
96517
330
96513
100
AcDbEntity
  8
shade
100
AcDbVertex
100
AcDb2dVertex
 10
39279.99319012943
 20
-27807.06107618632
 30
0.0000000000000095
  0
VERTEX
  5
96518
330
96513
100
AcDbEntity
  8
shade
100
AcDbVertex
100
AcDb2dVertex
 10
39277.89133845047
 20
-27806.2990748946
 30
0.0000000000000095
  0
VERTEX
  5
96519
330
96513
100
AcDbEntity
  8
shade
100
AcDbVertex
100
AcDb2dVertex
 10
39280.05034103375
 20
-27806.99757877015
 30
0.0000000000000095
  0
VERTEX
  5
9651A
330
96513
100
AcDbEntity
  8
shade
100
AcDbVertex
100
AcDb2dVertex
 10
39278.07549064667
 20
-27806.28637541136
 30
0.0000000000000095
  0
SEQEND
  5
9651B
330
96513
100
AcDbEntity
  8
shade
  0
POLYLINE
  5
9651C
330
A
100
AcDbEntity
  8
shade
100
AcDb2dPolyline
 66
     1
 10
0.0
 20
0.0
 30
0.0000000000000095
  0
VERTEX
  5
9651D
330
9651C
100
AcDbEntity
  8
shade
100
AcDbVertex
100
AcDb2dVertex
 10
39277.4658896133
 20
-27806.28002566975
 30
0.0000000000000095
  0
VERTEX
  5
9651E
330
9651C
100
AcDbEntity
  8
shade
100
AcDbVertex
100
AcDb2dVertex
 10
39279.40898806252
 20
-27807.10553083718
 30
0.0000000000000095
  0
VERTEX
  5
9651F
330
9651C
100
AcDbEntity
  8
shade
100
AcDbVertex
100
AcDb2dVertex
 10
39277.14838961337
 20
-27806.28637541136
 30
0.0000000000000095
  0
VERTEX
  5
96520
330
9651C
100
AcDbEntity
  8
shade
100
AcDbVertex
100
AcDb2dVertex
 10
39278.97718948372
 20
-27807.1118805788
 30
0.0000000000000095
  0
SEQEND
  5
96521
330
9651C
100
AcDbEntity
  8
shade
  0
POLYLINE
  5
96522
330
A
100
AcDbEntity
  8
shade
100
AcDb2dPolyline
 66
     1
 10
0.0
 20
0.0
 30
0.0000000000000095
  0
VERTEX
  5
96523
330
96522
100
AcDbEntity
  8
shade
100
AcDbVertex
100
AcDb2dVertex
 10
39290.43893980384
 20
-27826.29497902421
 30
0.0000000000000095
  0
VERTEX
  5
96524
330
96522
100
AcDbEntity
  8
shade
100
AcDbVertex
100
AcDb2dVertex
 10
39290.41353922249
 20
-27826.17432747394
 30
0.0000000000000095
  0
SEQEND
  5
96525
330
96522
100
AcDbEntity
  8
shade
  0
POLYLINE
  5
96526
330
A
100
AcDbEntity
  8
shade
100
AcDb2dPolyline
 66
     1
 10
0.0
 20
0.0
 30
0.0000000000000095
  0
VERTEX
  5
96527
330
96526
100
AcDbEntity
  8
shade
100
AcDbVertex
100
AcDb2dVertex
 10
39280.52023806225
 20
-27826.29497902421
 30
0.0000000000000095
  0
VERTEX
  5
96528
330
96526
100
AcDbEntity
  8
shade
100
AcDbVertex
100
AcDb2dVertex
 10
39279.69473935436
 20
-27825.46947708655
 30
0.0000000000000095
  0
SEQEND
  5
96529
330
96526
100
AcDbEntity
  8
shade
  0
POLYLINE
  5
9652A
330
A
100
AcDbEntity
  8
shade
100
AcDb2dPolyline
 66
     1
 10
0.0
 20
0.0
 30
0.0000000000000095
  0
VERTEX
  5
9652B
330
9652A
100
AcDbEntity
  8
shade
100
AcDbVertex
100
AcDb2dVertex
 10
39290.29288928711
 20
-27826.29497902421
 30
0.0000000000000095
  0
VERTEX
  5
9652C
330
9652A
100
AcDbEntity
  8
shade
100
AcDbVertex
100
AcDb2dVertex
 10
39290.15319012689
 20
-27825.88857618211
 30
0.0000000000000095
  0
SEQEND
  5
9652D
330
9652A
100
AcDbEntity
  8
shade
  0
POLYLINE
  5
9652E
330
A
100
AcDbEntity
  8
shade
100
AcDb2dPolyline
 66
     1
 10
0.0
 20
0.0
 30
0.0000000000000095
  0
VERTEX
  5
9652F
330
9652E
100
AcDbEntity
  8
shade
100
AcDbVertex
100
AcDb2dVertex
 10
39289.75948999779
 20
-27826.29497902421
 30
0.0000000000000095
  0
VERTEX
  5
96530
330
9652E
100
AcDbEntity
  8
shade
100
AcDbVertex
100
AcDb2dVertex
 10
39289.59439025622
 20
-27825.86317721564
 30
0.0000000000000095
  0
SEQEND
  5
96531
330
9652E
100
AcDbEntity
  8
shade
  0
POLYLINE
  5
96532
330
A
100
AcDbEntity
  8
shade
100
AcDb2dPolyline
 66
     1
 10
0.0
 20
0.0
 30
0.0000000000000095
  0
VERTEX
  5
96533
330
96532
100
AcDbEntity
  8
shade
100
AcDbVertex
100
AcDb2dVertex
 10
39289.08004019175
 20
-27826.29497902421
 30
0.0000000000000095
  0
VERTEX
  5
96534
330
96532
100
AcDbEntity
  8
shade
100
AcDbVertex
100
AcDb2dVertex
 10
39288.87048902908
 20
-27825.87587669888
 30
0.0000000000000095
  0
SEQEND
  5
96535
330
96532
100
AcDbEntity
  8
shade
  0
POLYLINE
  5
96536
330
A
100
AcDbEntity
  8
shade
100
AcDb2dPolyline
 66
     1
 10
0.0
 20
0.0
 30
0.0000000000000095
  0
VERTEX
  5
96537
330
96536
100
AcDbEntity
  8
shade
100
AcDbVertex
100
AcDb2dVertex
 10
39288.19103922304
 20
-27826.29497902421
 30
0.0000000000000095
  0
VERTEX
  5
96538
330
96536
100
AcDbEntity
  8
shade
100
AcDbVertex
100
AcDb2dVertex
 10
39287.88623870636
 20
-27825.88222644049
 30
0.0000000000000095
  0
SEQEND
  5
96539
330
96536
100
AcDbEntity
  8
shade
  0
POLYLINE
  5
9653A
330
A
100
AcDbEntity
  8
shade
100
AcDb2dPolyline
 66
     1
 10
0.0
 20
0.0
 30
0.0000000000000095
  0
VERTEX
  5
9653B
330
9653A
100
AcDbEntity
  8
shade
100
AcDbVertex
100
AcDb2dVertex
 10
39287.13694012764
 20
-27826.29497902421
 30
0.0000000000000095
  0
VERTEX
  5
9653C
330
9653A
100
AcDbEntity
  8
shade
100
AcDbVertex
100
AcDb2dVertex
 10
39286.83848935257
 20
-27825.8949291535
 30
0.0000000000000095
  0
SEQEND
  5
9653D
330
9653A
100
AcDbEntity
  8
shade
  0
POLYLINE
  5
9653E
330
A
100
AcDbEntity
  8
shade
100
AcDb2dPolyline
 66
     1
 10
0.0
 20
0.0
 30
0.0000000000000095
  0
VERTEX
  5
9653F
330
9653E
100
AcDbEntity
  8
shade
100
AcDbVertex
100
AcDb2dVertex
 10
39285.77168915905
 20
-27826.29497902421
 30
0.0000000000000095
  0
VERTEX
  5
96540
330
9653E
100
AcDbEntity
  8
shade
100
AcDbVertex
100
AcDb2dVertex
 10
39285.40338961131
 20
-27825.72982618215
 30
0.0000000000000095
  0
SEQEND
  5
96541
330
9653E
100
AcDbEntity
  8
shade
  0
POLYLINE
  5
96542
330
A
100
AcDbEntity
  8
shade
100
AcDb2dPolyline
 66
     1
 10
0.0
 20
0.0
 30
0.0000000000000095
  0
VERTEX
  5
96543
330
96542
100
AcDbEntity
  8
shade
100
AcDbVertex
100
AcDb2dVertex
 10
39284.11433877189
 20
-27826.29497902421
 30
0.0000000000000095
  0
VERTEX
  5
96544
330
96542
100
AcDbEntity
  8
shade
100
AcDbVertex
100
AcDb2dVertex
 10
39283.66348935337
 20
-27825.59647837843
 30
0.0000000000000095
  0
SEQEND
  5
96545
330
96542
100
AcDbEntity
  8
shade
  0
POLYLINE
  5
96546
330
A
100
AcDbEntity
  8
shade
100
AcDb2dPolyline
 66
     1
 10
0.0
 20
0.0
 30
0.0000000000000095
  0
VERTEX
  5
96547
330
96546
100
AcDbEntity
  8
shade
100
AcDbVertex
100
AcDb2dVertex
 10
39282.30458974128
 20
-27826.29497902421
 30
0.0000000000000095
  0
VERTEX
  5
96548
330
96546
100
AcDbEntity
  8
shade
100
AcDbVertex
100
AcDb2dVertex
 10
39281.6505389017
 20
-27825.59012863682
 30
0.0000000000000095
  0
SEQEND
  5
96549
330
96546
100
AcDbEntity
  8
shade
  0
POLYLINE
  5
9654A
330
A
100
AcDbEntity
  8
shade
100
AcDb2dPolyline
 66
     1
 10
0.0
 20
0.0
 30
0.0000000000000095
  0
VERTEX
  5
9654B
330
9654A
100
AcDbEntity
  8
shade
100
AcDbVertex
100
AcDb2dVertex
 10
39290.29288928711
 20
-27826.29497902421
 30
0.0000000000000095
  0
VERTEX
  5
9654C
330
9654A
100
AcDbEntity
  8
shade
100
AcDbVertex
100
AcDb2dVertex
 10
39290.77548902861
 20
-27825.51392850764
 30
0.0000000000000095
  0
SEQEND
  5
9654D
330
9654A
100
AcDbEntity
  8
shade
  0
POLYLINE
  5
9654E
330
A
100
AcDbEntity
  8
shade
100
AcDb2dPolyline
 66
     1
 10
0.0
 20
0.0
 30
0.0000000000000095
  0
VERTEX
  5
9654F
330
9654E
100
AcDbEntity
  8
shade
100
AcDbVertex
100
AcDb2dVertex
 10
39290.43893980384
 20
-27826.29497902421
 30
0.0000000000000095
  0
VERTEX
  5
96550
330
9654E
100
AcDbEntity
  8
shade
100
AcDbVertex
100
AcDb2dVertex
 10
39291.02948999748
 20
-27825.55837669896
 30
0.0000000000000095
  0
VERTEX
  5
96551
330
9654E
100
AcDbEntity
  8
shade
100
AcDbVertex
100
AcDb2dVertex
 10
39290.29288928711
 20
-27826.29497902421
 30
0.0000000000000095
  0
VERTEX
  5
96552
330
9654E
100
AcDbEntity
  8
shade
100
AcDbVertex
100
AcDb2dVertex
 10
39290.4643387703
 20
-27825.56472644057
 30
0.0000000000000095
  0
VERTEX
  5
96553
330
9654E
100
AcDbEntity
  8
shade
100
AcDbVertex
100
AcDb2dVertex
 10
39289.75948999779
 20
-27826.29497902421
 30
0.0000000000000095
  0
VERTEX
  5
96554
330
9654E
100
AcDbEntity
  8
shade
100
AcDbVertex
100
AcDb2dVertex
 10
39289.98808877042
 20
-27825.53297773249
 30
0.0000000000000095
  0
VERTEX
  5
96555
330
9654E
100
AcDbEntity
  8
shade
100
AcDbVertex
100
AcDb2dVertex
 10
39289.08004019175
 20
-27826.29497902421
 30
0.0000000000000095
  0
VERTEX
  5
96556
330
9654E
100
AcDbEntity
  8
shade
100
AcDbVertex
100
AcDb2dVertex
 10
39289.41658941652
 20
-27825.53932747411
 30
0.0000000000000095
  0
VERTEX
  5
96557
330
9654E
100
AcDbEntity
  8
shade
100
AcDbVertex
100
AcDb2dVertex
 10
39288.19103922304
 20
-27826.29497902421
 30
0.0000000000000095
  0
VERTEX
  5
96558
330
9654E
100
AcDbEntity
  8
shade
100
AcDbVertex
100
AcDb2dVertex
 10
39288.55298902917
 20
-27825.51392850764
 30
0.0000000000000095
  0
VERTEX
  5
96559
330
9654E
100
AcDbEntity
  8
shade
100
AcDbVertex
100
AcDb2dVertex
 10
39287.13694012764
 20
-27826.29497902421
 30
0.0000000000000095
  0
VERTEX
  5
9655A
330
9654E
100
AcDbEntity
  8
shade
100
AcDbVertex
100
AcDb2dVertex
 10
39287.39728922325
 20
-27825.67902824922
 30
0.0000000000000095
  0
VERTEX
  5
9655B
330
9654E
100
AcDbEntity
  8
shade
100
AcDbVertex
100
AcDb2dVertex
 10
39285.77168915905
 20
-27826.29497902421
 30
0.0000000000000095
  0
VERTEX
  5
9655C
330
9654E
100
AcDbEntity
  8
shade
100
AcDbVertex
100
AcDb2dVertex
 10
39285.80343948202
 20
-27825.55202695734
 30
0.0000000000000095
  0
VERTEX
  5
9655D
330
9654E
100
AcDbEntity
  8
shade
100
AcDbVertex
100
AcDb2dVertex
 10
39284.11433877189
 20
-27826.29497902421
 30
0.0000000000000095
  0
VERTEX
  5
9655E
330
9654E
100
AcDbEntity
  8
shade
100
AcDbVertex
100
AcDb2dVertex
 10
39284.01273967626
 20
-27825.41232618223
 30
0.0000000000000095
  0
VERTEX
  5
9655F
330
9654E
100
AcDbEntity
  8
shade
100
AcDbVertex
100
AcDb2dVertex
 10
39282.30458974128
 20
-27826.29497902421
 30
0.0000000000000095
  0
VERTEX
  5
96560
330
9654E
100
AcDbEntity
  8
shade
100
AcDbVertex
100
AcDb2dVertex
 10
39282.08868883699
 20
-27825.31707682821
 30
0.0000000000000095
  0
VERTEX
  5
96561
330
9654E
100
AcDbEntity
  8
shade
100
AcDbVertex
100
AcDb2dVertex
 10
39280.52023806225
 20
-27826.29497902421
 30
0.0000000000000095
  0
VERTEX
  5
96562
330
9654E
100
AcDbEntity
  8
shade
100
AcDbVertex
100
AcDb2dVertex
 10
39279.86618883755
 20
-27825.33612928283
 30
0.0000000000000095
  0
VERTEX
  5
96563
330
9654E
100
AcDbEntity
  8
shade
100
AcDbVertex
100
AcDb2dVertex
 10
39278.65333974219
 20
-27826.29497902421
 30
0.0000000000000095
  0
VERTEX
  5
96564
330
9654E
100
AcDbEntity
  8
shade
100
AcDbVertex
100
AcDb2dVertex
 10
39277.66273806295
 20
-27825.27897837851
 30
0.0000000000000095
  0
VERTEX
  5
96565
330
9654E
100
AcDbEntity
  8
shade
100
AcDbVertex
100
AcDb2dVertex
 10
39276.56419077624
 20
-27826.29497902421
 30
0.0000000000000095
  0
VERTEX
  5
96566
330
9654E
100
AcDbEntity
  8
shade
100
AcDbVertex
100
AcDb2dVertex
 10
39275.51643819268
 20
-27825.34247902445
 30
0.0000000000000095
  0
VERTEX
  5
96567
330
9654E
100
AcDbEntity
  8
shade
100
AcDbVertex
100
AcDb2dVertex
 10
39274.61473935562
 20
-27826.26322708635
 30
0.0000000000000095
  0
VERTEX
  5
96568
330
9654E
100
AcDbEntity
  8
shade
100
AcDbVertex
100
AcDb2dVertex
 10
39273.547940777
 20
-27825.34247902445
 30
0.0000000000000095
  0
SEQEND
  5
96569
330
9654E
100
AcDbEntity
  8
shade
  0
POLYLINE
  5
9656A
330
A
100
AcDbEntity
  8
shade
100
AcDb2dPolyline
 66
     1
 10
0.0
 20
0.0
 30
0.0000000000000095
  0
VERTEX
  5
9656B
330
9656A
100
AcDbEntity
  8
shade
100
AcDbVertex
100
AcDb2dVertex
 10
39291.02948999748
 20
-27825.55837669896
 30
0.0000000000000095
  0
VERTEX
  5
9656C
330
9656A
100
AcDbEntity
  8
shade
100
AcDbVertex
100
AcDb2dVertex
 10
39280.05034103375
 20
-27806.99757877015
 30
0.0000000000000095
  0
SEQEND
  5
9656D
330
9656A
100
AcDbEntity
  8
shade
  0
POLYLINE
  5
9656E
330
A
100
AcDbEntity
  8
shade
100
AcDb2dPolyline
 66
     1
 10
0.0
 20
0.0
 30
0.0000000000000095
  0
VERTEX
  5
9656F
330
9656E
100
AcDbEntity
  8
shade
100
AcDbVertex
100
AcDb2dVertex
 10
39290.4643387703
 20
-27825.56472644057
 30
0.0000000000000095
  0
VERTEX
  5
96570
330
9656E
100
AcDbEntity
  8
shade
100
AcDbVertex
100
AcDb2dVertex
 10
39280.05034103375
 20
-27806.99757877015
 30
0.0000000000000095
  0
VERTEX
  5
96571
330
9656E
100
AcDbEntity
  8
shade
100
AcDbVertex
100
AcDb2dVertex
 10
39290.77548902861
 20
-27825.51392850764
 30
0.0000000000000095
  0
SEQEND
  5
96572
330
9656E
100
AcDbEntity
  8
shade
  0
POLYLINE
  5
96573
330
A
100
AcDbEntity
  8
shade
100
AcDb2dPolyline
 66
     1
 10
0.0
 20
0.0
 30
0.0000000000000095
  0
VERTEX
  5
96574
330
96573
100
AcDbEntity
  8
shade
100
AcDbVertex
100
AcDb2dVertex
 10
39290.29288928711
 20
-27826.29497902421
 30
0.0000000000000095
  0
VERTEX
  5
96575
330
96573
100
AcDbEntity
  8
shade
100
AcDbVertex
100
AcDb2dVertex
 10
39290.77548902861
 20
-27825.51392850764
 30
0.0000000000000095
  0
SEQEND
  5
96576
330
96573
100
AcDbEntity
  8
shade
  0
VIEWPORT
  5
7AF4
330
B
100
AcDbEntity
 67
     1
  8
0
370
     0
100
AcDbViewport
 10
128.5
 20
97.5
 30
0.0
 40
314.226
 41
222.18
 68
     2
 69
     1
 12
128.5
 22
97.5
 13
0.0
 23
0.0
 14
10.0
 24
10.0
 15
10.0
 25
10.0
 16
0.0
 26
0.0
 36
1.0
 17
0.0
 27
0.0
 37
0.0
 42
50.0
 43
0.0
 44
0.0
 45
222.18
 50
0.0
 51
0.0
 72
   100
 90
   557152
  1

281
     0
 71
     1
 74
     0
110
0.0
120
0.0
130
0.0
111
1.0
121
0.0
131
0.0
112
0.0
122
1.0
132
0.0
 79
     0
146
0.0
170
     0
 61
     5
348
16E
292
     1
282
     1
141
0.0
142
0.0
 63
   250
421
  3355443
361
7AF5
  0
VIEWPORT
  5
7AF6
330
B
100
AcDbEntity
 67
     1
  8
shade
370
     0
100
AcDbViewport
 10
128.5
 20
97.5
 30
0.0
 40
205.6
 41
156.0
 68
     1
 69
     2
 12
-3053.898918492886
 22
262.0013435347981
 13
0.0
 23
0.0
 14
1.0
 24
1.0
 15
0.0
 25
0.0
 16
0.0
 26
0.0
 36
1.0
 17
0.0
 27
0.0
 37
-112.9712864381978
 42
50.0
 43
0.0
 44
0.0
 45
6373.138014223217
 50
0.0
 51
0.0
 72
   100
 90
   819248
  1

281
     0
 71
     0
 74
     0
110
0.0
120
0.0
130
0.0
111
1.0
121
0.0
131
0.0
112
0.0
122
1.0
132
0.0
 79
     1
146
0.0
170
     0
 61
     5
348
16E
292
     1
282
     1
141
0.0
142
0.0
 63
   250
421
  3355443
361
7AF7
  0
ENDSEC
  0
SECTION
  2
OBJECTS
  0
DICTIONARY
  5
19
330
0
100
AcDbDictionary
281
     1
  3
ACAD_BACKGROUND
350
B4BB
  3
ACAD_CIP_PREVIOUS_PRODUCT_INFO
350
3AF88
  3
ACAD_COLOR
350
5AA
  3
ACAD_DETAILVIEWSTYLE
350
1D6
  3
ACAD_GROUP
350
1A
  3
ACAD_IMAGE_VARS
350
7535
  3
ACAD_LAYOUT
350
1E
  3
ACAD_MATERIAL
350
1A4
  3
ACAD_MLEADERSTYLE
350
1AA
  3
ACAD_MLINESTYLE
350
1B
  3
ACAD_PLOTSETTINGS
350
22
  3
ACAD_PLOTSTYLENAME
350
1F
  3
ACAD_RENDER_RAPIDRT_SETTINGS
350
490F5
  3
ACAD_SCALELIST
350
182
  3
ACAD_SECTIONVIEWSTYLE
350
1D7
  3
ACAD_TABLESTYLE
350
1A8
  3
ACAD_VISUALSTYLE
350
169
  3
ACAD_WIPEOUT_VARS
350
23
  3
AcadDim
350
8F8F
  3
ACDB_RECOMPOSE_DATA
350
97EDB
  3
AcDbVariableDictionary
350
1D1
  3
AcDsDecomposeData
350
97EE2
  3
ASE_INDEX_DICTIONARY
350
48BBF
  0
SUN
  5
1AD
330
15
100
AcDbSun
 90
        1
290
     0
 63
     7
421
 16777215
 40
1.0
291
     1
 91
  2455826
 92
 54000000
292
     0
 70
     0
 71
   256
280
     1
1001
ACAD
1000
AcDbSavedByObjectVersion
1070
     0
1000
AcDbSavedByObjectVersion
1070
     0
1000
AcDbSavedByObjectVersion
1070
     0
1000
AcDbSavedByObjectVersion
1070
     0
1000
AcDbSavedByObjectVersion
1070
     0
  0
DICTIONARY
  5
1325
330
2
100
AcDbDictionary
280
     1
281
     1
  3
ACAD_LAYERSTATES
360
1326
  0
DICTIONARY
  5
36CD0
330
A
100
AcDbDictionary
280
     1
281
     1
  3
ACAD_SORTENTS
360
70005
  0
SUN
  5
7AF5
330
7AF4
100
AcDbSun
 90
        1
290
     0
 63
     7
421
 16777215
 40
1.0
291
     1
 91
  2455826
 92
 54000000
292
     0
 70
     0
 71
   256
280
     1
1001
ACAD
1000
AcDbSavedByObjectVersion
1070
     0
1000
AcDbSavedByObjectVersion
1070
     0
1000
AcDbSavedByObjectVersion
1070
     0
1000
AcDbSavedByObjectVersion
1070
     0
1000
AcDbSavedByObjectVersion
1070
     0
  0
SUN
  5
7AF7
330
7AF6
100
AcDbSun
 90
        1
290
     0
 63
     7
421
 16777215
 40
1.0
291
     1
 91
  2455826
 92
 54000000
292
     0
 70
     0
 71
   256
280
     1
1001
ACAD
1000
AcDbSavedByObjectVersion
1070
     0
1000
AcDbSavedByObjectVersion
1070
     0
1000
AcDbSavedByObjectVersion
1070
     0
1000
AcDbSavedByObjectVersion
1070
     0
1000
AcDbSavedByObjectVersion
1070
     0
  0
DICTIONARY
  5
B4BB
102
{ACAD_REACTORS
330
19
102
}
330
19
100
AcDbDictionary
281
     1
  3
B4BC
350
B4BC
  0
XRECORD
  5
3AF88
102
{ACAD_REACTORS
330
19
102
}
330
19
100
AcDbXrecord
280
     1
300
ACDLT
300
2015
300
ACDLT_F_S
  0
DICTIONARY
  5
5AA
102
{ACAD_REACTORS
330
19
102
}
330
19
100
AcDbDictionary
281
     1
  0
DICTIONARY
  5
1D6
102
{ACAD_REACTORS
330
19
102
}
330
19
100
AcDbDictionary
281
     1
  3
Metric50
350
3AF7C
  0
DICTIONARY
  5
1A
102
{ACAD_REACTORS
330
19
102
}
330
19
100
AcDbDictionary
281
     1
  0
RASTERVARIABLES
  5
7535
102
{ACAD_REACTORS
330
19
102
}
330
19
100
AcDbRasterVariables
 90
        0
 70
     1
 71
     1
 72
     0
  0
DICTIONARY
  5
1E
102
{ACAD_REACTORS
330
19
102
}
330
19
100
AcDbDictionary
281
     1
  3
Layout1
350
21
  3
Model
350
20
  0
DICTIONARY
  5
1A4
102
{ACAD_REACTORS
330
19
102
}
330
19
100
AcDbDictionary
281
     1
  3
ByBlock
350
1A6
  3
ByLayer
350
1A5
  3
Global
350
1A7
  0
DICTIONARY
  5
1AA
102
{ACAD_REACTORS
330
19
102
}
330
19
100
AcDbDictionary
281
     1
  3
A-SC4
350
13DCB
  3
Standard
350
1AB
  0
DICTIONARY
  5
1B
102
{ACAD_REACTORS
330
19
102
}
330
19
100
AcDbDictionary
281
     1
  3
Standard
350
1C
  0
DICTIONARY
  5
22
102
{ACAD_REACTORS
330
19
102
}
330
19
100
AcDbDictionary
281
     1
  0
ACDBDICTIONARYWDFLT
  5
1F
102
{ACAD_REACTORS
330
19
102
}
330
19
100
AcDbDictionary
281
     1
  3
Normal
350
1D
100
AcDbDictionaryWithDefault
340
1D
  0
DICTIONARY
  5
490F5
102
{ACAD_REACTORS
330
19
102
}
330
19
100
AcDbDictionary
281
     1
  3
オーバーナイト品質
350
490FB
  3
コーヒー ブレイク品質
350
490F9
  3
ランチ タイム品質
350
490FA
  3
中
350
490F7
  3
低
350
490F6
  3
高
350
490F8
  0
DICTIONARY
  5
182
102
{ACAD_REACTORS
330
19
102
}
330
19
100
AcDbDictionary
281
     1
  3
A0
350
183
  3
A1
350
184
  3
A2
350
185
  3
A3
350
186
  3
A4
350
187
  3
A5
350
188
  3
A6
350
189
  3
A7
350
18A
  3
A8
350
18B
  3
A9
350
18C
  3
B0
350
18D
  3
B1
350
18E
  3
B2
350
18F
  3
B3
350
190
  3
B4
350
191
  3
B5
350
192
  3
B6
350
193
  3
B7
350
194
  3
B8
350
195
  3
B9
350
196
  3
C0
350
197
  3
C1
350
198
  3
C2
350
199
  3
C3
350
19A
  3
C4
350
19B
  3
C5
350
19C
  3
C6
350
19D
  3
C7
350
19E
  3
C8
350
19F
  3
C9
350
1A0
  3
D0
350
1A1
  3
D1
350
1A2
  3
D2
350
1A3
  0
DICTIONARY
  5
1D7
102
{ACAD_REACTORS
330
19
102
}
330
19
100
AcDbDictionary
281
     1
  3
Metric50
350
3AF7B
  0
DICTIONARY
  5
1A8
102
{ACAD_REACTORS
330
19
102
}
330
19
100
AcDbDictionary
281
     1
  3
Standard
350
1A9
  0
DICTIONARY
  5
169
102
{ACAD_REACTORS
330
19
102
}
330
19
100
AcDbDictionary
281
     1
  3
2dWireframe
350
16E
  3
3DWIREFRAME
350
2B3D9
  3
Basic
350
171
  3
Brighten
350
175
  3
ColorChange
350
179
  3
Conceptual
350
173
  3
Dim
350
174
  3
EdgeColorOff
350
17C
  3
Facepattern
350
178
  3
Flat
350
16A
  3
FlatWithEdges
350
16B
  3
Gouraud
350
16C
  3
GouraudWithEdges
350
16D
  3
Hidden
350
170
  3
JitterOff
350
17A
  3
Linepattern
350
177
  3
Modeling
350
1AC
  3
OverhangOff
350
17B
  3
Realistic
350
172
  3
Shaded
350
181
  3
Shaded with edges
350
180
  3
Shades of Gray
350
17D
  3
Sketchy
350
17E
  3
Thicken
350
176
  3
Wireframe
350
16F
  3
X-Ray
350
17F
  0
WIPEOUTVARIABLES
  5
23
330
19
100
AcDbWipeoutVariables
 70
     1
  0
XRECORD
  5
8F8F
102
{ACAD_REACTORS
330
19
102
}
330
19
100
AcDbXrecord
280
     1
 90
   990106
  3
_Open
 60
     0
 61
     0
 62
     1
 63
     3
 64
     0
 65
     0
 66
     0
 67
     2
 68
     1
 69
     0
 70
     0
 71
     0
 72
     0
 40
0.0
170
     0
340
0
  0
XRECORD
  5
97EDB
102
{ACAD_REACTORS
330
19
102
}
330
19
100
AcDbXrecord
280
     1
 90
        1
330
1A9
  0
DICTIONARY
  5
1D1
102
{ACAD_REACTORS
330
19
102
}
330
19
100
AcDbDictionary
281
     1
  3
CANNOSCALE
350
1D2
  3
CMLEADERSTYLE
350
1D4
  3
CTABLESTYLE
350
1D3
  3
CVIEWDETAILSTYLE
350
3AFBB
  3
CVIEWSECTIONSTYLE
350
3AFBC
  3
MLEADERSCALE
350
90ABF
  3
MSLTSCALE
350
1D5
  0
DICTIONARY
  5
97EE2
102
{ACAD_REACTORS
330
19
102
}
330
19
100
AcDbDictionary
281
     1
  3
AcDsRecords
350
97EE4
  3
AcDsSchemas
350
97EE3
1001
ACAD
1070
     2
  0
DICTIONARY
  5
48BBF
102
{ACAD_REACTORS
330
19
102
}
330
19
100
AcDbDictionary
281
     1
  3
ASEBlockHierarchyIndexRecord
350
48BC0
1001
DCO15
1040
1908960461.97
  0
DICTIONARY
  5
1326
102
{ACAD_REACTORS
330
1325
102
}
330
1325
100
AcDbDictionary
281
     1
  0
SORTENTSTABLE
  5
70005
102
{ACAD_REACTORS
330
36CD0
102
}
330
36CD0
100
AcDbSortentsTable
330
A
331
13CCC
  5
19BB2
331
13CCD
  5
19BB3
331
21873
  5
22617
331
21877
  5
22618
331
6A1DC
  5
6A6A7
331
C964
  5
19BA7
331
1803A
  5
19D1C
331
588DC
  5
5B619
331
1B49C
  5
1FE16
  0
GRADIENT_BACKGROUND
  5
B4BC
102
{ACAD_REACTORS
330
B4BB
102
}
330
B4BB
100
AcDbGradientBackground
 90
-1040187137
 91
-1031765761
 92
-1023410177
140
0.0
141
0.5
142
0.0
  0
ACDBDETAILVIEWSTYLE
  5
3AF7C
102
{ACAD_XDICTIONARY
360
97E74
102
}
102
{ACAD_REACTORS
330
1D6
102
}
330
1D6
100
AcDbModelDocViewStyle
 70
     0
  3
Metric50
290
     0
100
AcDbDetailViewStyle
 70
     0
 71
     0
 90
        3
 71
     1
340
17
 62
   256
 40
5.0
340
0
 62
   256
 40
5.0
300

 40
0.0
280
     1
 71
     2
340
13
 90
       25
 62
   256
 71
     3
340
17
 62
   256
 40
5.0
 90
        0
 40
15.0
 90
        1
300
%<\AcVar ViewDetailId>% (%<\AcVar ViewScale \f "%sn">%)
 71
     4
340
13
 90
       25
 62
   256
340
13
 90
       25
 62
   256
280
     0
  0
LAYOUT
  5
21
102
{ACAD_REACTORS
330
1E
102
}
330
1E
100
AcDbPlotSettings
  1

  2
none_device
  4
ISO_A4_(210.00_x_297.00_MM)
  6

 40
7.5
 41
20.0
 42
7.5
 43
20.0
 44
210.0
 45
297.0
 46
0.0
 47
0.0
 48
0.0
 49
0.0
140
0.0
141
0.0
142
1.0
143
1.0
 70
     0
 72
     1
 73
     1
 74
     5
  7
SCDX.ctb
 75
     0
147
1.0
 76
     0
 77
     2
 78
   300
148
0.0
149
0.0
100
AcDbLayout
  1
Layout1
 70
     0
 71
     1
 10
-20.0
 20
-7.5
 11
277.0
 21
202.5
 12
0.0
 22
0.0
 32
0.0
 14
25.69999999999999
 24
19.5
 34
0.0
 15
231.3
 25
175.5
 35
0.0
146
0.0
 13
0.0
 23
0.0
 33
0.0
 16
1.0
 26
0.0
 36
0.0
 17
0.0
 27
1.0
 37
0.0
 76
     0
330
B
331
7AF6
  0
LAYOUT
  5
20
102
{ACAD_REACTORS
330
1E
102
}
330
1E
100
AcDbPlotSettings
  1

  2
Microsoft Print to PDF
  4
A4
  6

 40
3.174999952316284
 41
3.174999952316284
 42
3.175003051757812
 43
3.17498779296875
 44
210.0156707763672
 45
297.0106506347656
 46
-3.167166113853454
 47
-3.169668555259704
 48
39175.72268786097
 49
-29447.2215446737
140
40225.72268786096
141
-27962.2215446737
142
1.0
143
5.0
 70
  3236
 72
     1
 73
     0
 74
     4
  7
SCDX.ctb
 75
     0
147
0.1939673026402791
 76
     0
 77
     2
 78
   300
148
-39175.72268786097
149
29447.2215446737
100
AcDbLayout
  1
Model
 70
     0
 71
     0
 10
0.0
 20
0.0
 11
0.0
 21
0.0
 12
0.0
 22
0.0
 32
0.0
 14
-10584.33390404313
 24
-32649.69948746474
 34
-99.50000000000001
 15
89530.55695522932
 25
1344.898882316116
 35
99.50000000000001
146
0.0
 13
0.0
 23
0.0
 33
0.0
 16
0.0
 26
0.0
 36
0.0
 17
0.0
 27
0.0
 37
0.0
 76
     0
330
A
331
15
1001
ACAD_PSEXT
1000
Microsoft Print to PDF
1000
Microsoft Print To PDF
1000
PORTPROMPT:
1000

1070
     0
  0
MATERIAL
  5
1A6
102
{ACAD_REACTORS
330
1A4
102
}
330
1A4
100
AcDbMaterial
  1
ByBlock
 73
     1
 78
     1
172
     1
176
     1
270
     1
274
     1
  0
MATERIAL
  5
1A5
102
{ACAD_REACTORS
330
1A4
102
}
330
1A4
100
AcDbMaterial
  1
ByLayer
 73
     1
 78
     1
172
     1
176
     1
270
     1
274
     1
  0
MATERIAL
  5
1A7
102
{ACAD_XDICTIONARY
360
40EA8
102
}
102
{ACAD_REACTORS
330
1A4
102
}
330
1A4
100
AcDbMaterial
  1
Global
 73
     1
 78
     1
172
     1
176
     1
270
     1
274
     1
  0
MLEADERSTYLE
  5
13DCB
102
{ACAD_XDICTIONARY
360
97F19
102
}
102
{ACAD_REACTORS
330
1AA
102
}
330
1AA
100
AcDbMLeaderStyle
179
     2
170
     2
171
     1
172
     0
 90
        3
 40
0.0
 41
0.0
173
     1
 91
-1073741824
340
11
 92
       -2
290
     1
 42
2.0
291
     1
 43
2.0
  3

 44
2.5
300

342
BB92
174
     6
178
     6
175
     1
176
     0
 93
-1023410172
 45
2.5
292
     0
297
     0
 46
4.0
 94
-1056964608
 47
1.0
 49
1.0
140
1.0
293
     1
141
0.0
294
     1
177
     0
142
5.0
295
     0
296
     0
143
3.75
271
     0
272
     9
273
     9
  0
MLEADERSTYLE
  5
1AB
102
{ACAD_XDICTIONARY
360
97F15
102
}
102
{ACAD_REACTORS
330
1AA
102
}
330
1AA
100
AcDbMLeaderStyle
179
     2
170
     2
171
     1
172
     0
 90
        2
 40
0.0
 41
0.0
173
     1
 91
-1056964608
340
11
 92
       -2
290
     1
 42
2.0
291
     1
 43
8.0
  3
Standard
341
753D
 44
3.0
300

342
17
174
     4
178
     5
175
     1
176
     0
 93
-1023410172
 45
2.5
292
     0
297
     0
 46
4.0
 94
-1056964608
 47
1.0
 49
1.0
140
1.0
293
     1
141
0.0
294
     1
177
     0
142
1.0
295
     0
296
     0
143
3.75
271
     0
272
     9
273
     9
  0
MLINESTYLE
  5
1C
102
{ACAD_REACTORS
330
1B
102
}
330
1B
100
AcDbMlineStyle
  2
STANDARD
 70
     0
  3

 62
     0
 51
90.0
 52
90.0
 71
     2
 49
0.5
 62
   256
  6
BYLAYER
 49
-0.5
 62
   256
  6
BYLAYER
  0
ACDBPLACEHOLDER
  5
1D
102
{ACAD_REACTORS
330
1F
102
}
330
1F
  0
ACAD_PROXY_OBJECT
  5
490FB
102
{ACAD_REACTORS
330
490F5
102
}
330
490F5
100
AcDbProxyObject
 90
      499
 91
      550
 95
  6881311
 70
     0
162
               358
311
426A8C3F0C340C3F0C328C290C320C30553AA32430C400C8008001099A4E55B8C3B0C3CCC300C3A8C3CCC2C0C0
161
               241
310
40AD0540D01404D002000040902000000000000021000000000000000840CC
 94
        0
  0
ACAD_PROXY_OBJECT
  5
490F9
102
{ACAD_REACTORS
330
490F5
102
}
330
490F5
100
AcDbProxyObject
 90
      499
 91
      550
 95
  6881311
 70
     0
162
               374
311
42ECCC3F0C348C3F0C0800358C3B0C290C2BCC30553AA3242CC400C00080001949B8C3B0C3CCC300C3A8C3CCC2C0C0
161
               217
310
40AD0340D014050A40502000000000000021000000000000000840CC
 94
        0
  0
ACAD_PROXY_OBJECT
  5
490FA
102
{ACAD_REACTORS
330
490F5
102
}
330
490F5
100
AcDbProxyObject
 90
      499
 91
      550
 95
  6881311
 70
     0
162
               342
311
427A4C3CCC304C08002FCC290C380C30553AA3242CD800C00080001949B8C3B0C3CCC300C3A8C3CCC2C0C0
161
               217
310
40AD0440D014053C40902000000000000021000000000000000840CC
 94
        0
  0
ACAD_PROXY_OBJECT
  5
490F7
102
{ACAD_REACTORS
330
490F5
102
}
330
490F5
100
AcDbProxyObject
 90
      499
 91
      550
 95
  6881311
 70
     0
162
               278
311
404B53A43CD4008003B0C3CCC300C3A8C3CCC2C0C08003B0C364C3ACC248C1A640A1D4
161
               209
310
40AD0140E4150140502000000000000021000000000000000840CC
 94
        0
  0
ACAD_PROXY_OBJECT
  5
490F6
102
{ACAD_REACTORS
330
490F5
102
}
330
490F5
100
AcDbProxyObject
 90
      499
 91
      550
 95
  6881311
 70
     0
162
               278
311
405393E43CC4008003B0C3CCC300C3A8C3CCC2C0C08003B0C364C3ACC248C1A640A1D4
161
               193
310
40AE40E40501902000000000000021000000000000000840CC
 94
        0
  0
ACAD_PROXY_OBJECT
  5
490F8
102
{ACAD_REACTORS
330
490F5
102
}
330
490F5
100
AcDbProxyObject
 90
      499
 91
      550
 95
  6881311
 70
     0
162
               294
311
407626A440C400C0008003B0C3CCC300C3A8C3CCC2C0C08003B0C364C3ACC248C1A640A1D4
161
               209
310
40AD0240E4290140902000000000000021000000000000000840CC
 94
        0
  0
SCALE
  5
183
102
{ACAD_REACTORS
330
182
102
}
330
182
100
AcDbScale
 70
     0
300
1:1
140
1.0
141
1.0
290
     1
  0
SCALE
  5
184
102
{ACAD_REACTORS
330
182
102
}
330
182
100
AcDbScale
 70
     0
300
1:2
140
1.0
141
2.0
290
     0
  0
SCALE
  5
185
102
{ACAD_REACTORS
330
182
102
}
330
182
100
AcDbScale
 70
     0
300
1:4
140
1.0
141
4.0
290
     0
  0
SCALE
  5
186
102
{ACAD_REACTORS
330
182
102
}
330
182
100
AcDbScale
 70
     0
300
1:5
140
1.0
141
5.0
290
     0
  0
SCALE
  5
187
102
{ACAD_REACTORS
330
182
102
}
330
182
100
AcDbScale
 70
     0
300
1:8
140
1.0
141
8.0
290
     0
  0
SCALE
  5
188
102
{ACAD_REACTORS
330
182
102
}
330
182
100
AcDbScale
 70
     0
300
1:10
140
1.0
141
10.0
290
     0
  0
SCALE
  5
189
102
{ACAD_REACTORS
330
182
102
}
330
182
100
AcDbScale
 70
     0
300
1:16
140
1.0
141
16.0
290
     0
  0
SCALE
  5
18A
102
{ACAD_REACTORS
330
182
102
}
330
182
100
AcDbScale
 70
     0
300
1:20
140
1.0
141
20.0
290
     0
  0
SCALE
  5
18B
102
{ACAD_REACTORS
330
182
102
}
330
182
100
AcDbScale
 70
     0
300
1:30
140
1.0
141
30.0
290
     0
  0
SCALE
  5
18C
102
{ACAD_REACTORS
330
182
102
}
330
182
100
AcDbScale
 70
     0
300
1:40
140
1.0
141
40.0
290
     0
  0
SCALE
  5
18D
102
{ACAD_REACTORS
330
182
102
}
330
182
100
AcDbScale
 70
     0
300
1:50
140
1.0
141
50.0
290
     0
  0
SCALE
  5
18E
102
{ACAD_REACTORS
330
182
102
}
330
182
100
AcDbScale
 70
     0
300
1:100
140
1.0
141
100.0
290
     0
  0
SCALE
  5
18F
102
{ACAD_REACTORS
330
182
102
}
330
182
100
AcDbScale
 70
     0
300
2:1
140
2.0
141
1.0
290
     0
  0
SCALE
  5
190
102
{ACAD_REACTORS
330
182
102
}
330
182
100
AcDbScale
 70
     0
300
4:1
140
4.0
141
1.0
290
     0
  0
SCALE
  5
191
102
{ACAD_REACTORS
330
182
102
}
330
182
100
AcDbScale
 70
     0
300
8:1
140
8.0
141
1.0
290
     0
  0
SCALE
  5
192
102
{ACAD_REACTORS
330
182
102
}
330
182
100
AcDbScale
 70
     0
300
10:1
140
10.0
141
1.0
290
     0
  0
SCALE
  5
193
102
{ACAD_REACTORS
330
182
102
}
330
182
100
AcDbScale
 70
     0
300
100:1
140
100.0
141
1.0
290
     0
  0
SCALE
  5
194
102
{ACAD_REACTORS
330
182
102
}
330
182
100
AcDbScale
 70
     0
300
1/128" = 1'-0"
140
0.0078125
141
12.0
290
     0
  0
SCALE
  5
195
102
{ACAD_REACTORS
330
182
102
}
330
182
100
AcDbScale
 70
     0
300
1/64" = 1'-0"
140
0.015625
141
12.0
290
     0
  0
SCALE
  5
196
102
{ACAD_REACTORS
330
182
102
}
330
182
100
AcDbScale
 70
     0
300
1/32" = 1'-0"
140
0.03125
141
12.0
290
     0
  0
SCALE
  5
197
102
{ACAD_REACTORS
330
182
102
}
330
182
100
AcDbScale
 70
     0
300
1/16" = 1'-0"
140
0.0625
141
12.0
290
     0
  0
SCALE
  5
198
102
{ACAD_REACTORS
330
182
102
}
330
182
100
AcDbScale
 70
     0
300
3/32" = 1'-0"
140
0.09375
141
12.0
290
     0
  0
SCALE
  5
199
102
{ACAD_REACTORS
330
182
102
}
330
182
100
AcDbScale
 70
     0
300
1/8" = 1'-0"
140
0.125
141
12.0
290
     0
  0
SCALE
  5
19A
102
{ACAD_REACTORS
330
182
102
}
330
182
100
AcDbScale
 70
     0
300
3/16" = 1'-0"
140
0.1875
141
12.0
290
     0
  0
SCALE
  5
19B
102
{ACAD_REACTORS
330
182
102
}
330
182
100
AcDbScale
 70
     0
300
1/4" = 1'-0"
140
0.25
141
12.0
290
     0
  0
SCALE
  5
19C
102
{ACAD_REACTORS
330
182
102
}
330
182
100
AcDbScale
 70
     0
300
3/8" = 1'-0"
140
0.375
141
12.0
290
     0
  0
SCALE
  5
19D
102
{ACAD_REACTORS
330
182
102
}
330
182
100
AcDbScale
 70
     0
300
1/2" = 1'-0"
140
0.5
141
12.0
290
     0
  0
SCALE
  5
19E
102
{ACAD_REACTORS
330
182
102
}
330
182
100
AcDbScale
 70
     0
300
3/4" = 1'-0"
140
0.75
141
12.0
290
     0
  0
SCALE
  5
19F
102
{ACAD_REACTORS
330
182
102
}
330
182
100
AcDbScale
 70
     0
300
1" = 1'-0"
140
1.0
141
12.0
290
     0
  0
SCALE
  5
1A0
102
{ACAD_REACTORS
330
182
102
}
330
182
100
AcDbScale
 70
     0
300
1-1/2" = 1'-0"
140
1.5
141
12.0
290
     0
  0
SCALE
  5
1A1
102
{ACAD_REACTORS
330
182
102
}
330
182
100
AcDbScale
 70
     0
300
3" = 1'-0"
140
3.0
141
12.0
290
     0
  0
SCALE
  5
1A2
102
{ACAD_REACTORS
330
182
102
}
330
182
100
AcDbScale
 70
     0
300
6" = 1'-0"
140
6.0
141
12.0
290
     0
  0
SCALE
  5
1A3
102
{ACAD_REACTORS
330
182
102
}
330
182
100
AcDbScale
 70
     0
300
1'-0" = 1'-0"
140
12.0
141
12.0
290
     0
  0
ACDBSECTIONVIEWSTYLE
  5
3AF7B
102
{ACAD_XDICTIONARY
360
97E72
102
}
102
{ACAD_REACTORS
330
1D7
102
}
330
1D7
100
AcDbModelDocViewStyle
 70
     0
  3
Metric50
290
     0
100
AcDbSectionViewStyle
 70
     0
 71
     0
 90
      102
 71
     1
340
17
 62
   256
 40
5.0
340
0
340
0
 62
   256
 40
5.0
300
I, O, Q, S, X, Z
 40
10.0
 90
        0
 40
2.5
 90
        0
 71
     2
340
13
 90
       25
 62
   256
340
13
 90
       50
 62
   256
 40
5.0
 40
2.5
 40
5.0
 71
     3
340
17
 62
   256
 40
5.0
 90
        0
 40
15.0
 90
        1
300
%<\AcVar ViewSectionStartId>%-%<\AcVar ViewSectionEndId>% (%<\AcVar ViewScale \f "%sn">%)
 71
     4
 62
   256
 62
   257
300
ANSI31
 40
1.0
 90
        0
290
     0
290
     0
 90
        6
 40
0.0
 40
1.570796326794896
 40
0.2617993877991494
 40
1.308996938995747
 40
-0.2617993877991494
 40
1.832595714594046
  0
TABLESTYLE
  5
1A9
102
{ACAD_XDICTIONARY
360
97ED9
102
}
102
{ACAD_REACTORS
330
1A8
102
}
330
1A8
100
AcDbTableStyle
280
     0
  3
Standard
 70
     0
 71
     0
 40
1.5
 41
1.5
280
     0
281
     0
  7
Standard
140
4.5
170
     2
 62
     0
 63
     7
283
     0
 90
        4
 91
        0
  1

274
    -2
284
     1
 64
     0
275
    -2
285
     1
 65
     0
276
    -2
286
     1
 66
     0
277
    -2
287
     1
 67
     0
278
    -2
288
     1
 68
     0
279
    -2
289
     1
 69
     0
  7
Standard
140
6.0
170
     5
 62
     0
 63
     7
283
     0
 90
        4
 91
        0
  1

274
    -2
284
     1
 64
     0
275
    -2
285
     1
 65
     0
276
    -2
286
     1
 66
     0
277
    -2
287
     1
 67
     0
278
    -2
288
     1
 68
     0
279
    -2
289
     1
 69
     0
  7
Standard
140
4.5
170
     5
 62
     0
 63
     7
283
     0
 90
        4
 91
        0
  1

274
    -2
284
     1
 64
     0
275
    -2
285
     1
 65
     0
276
    -2
286
     1
 66
     0
277
    -2
287
     1
 67
     0
278
    -2
288
     1
 68
     0
279
    -2
289
     1
 69
     0
  0
VISUALSTYLE
  5
16E
102
{ACAD_XDICTIONARY
360
97EED
102
}
102
{ACAD_REACTORS
330
169
102
}
330
169
100
AcDbVisualStyle
  2
2dWireframe
 70
     4
177
     2
291
     0
 71
     0
176
     1
 72
     2
176
     1
 73
     0
176
     1
 90
        0
176
     1
 40
0.6
176
     1
 41
30.0
176
     1
 63
     7
421
 16777215
176
     1
 74
     1
176
     1
 91
        4
176
     1
 64
     7
176
     1
 65
   257
176
     1
 75
     1
176
     1
175
     1
176
     1
 42
1.0
176
     1
 92
        0
176
     1
 66
   257
176
     1
 43
1.0
176
     1
 76
     1
176
     1
 77
     6
176
     1
 78
     2
176
     1
 67
     7
176
     1
 79
     5
176
     1
170
     0
176
     1
171
     0
176
     1
290
     0
176
     1
 93
        1
176
     1
 44
0.0
176
     1
173
     0
176
     1
1001
ACAD
1000
AcDbSavedByObjectVersion
1070
     0
  0
VISUALSTYLE
  5
2B3D9
102
{ACAD_XDICTIONARY
360
97F1B
102
}
102
{ACAD_REACTORS
330
169
102
}
330
169
100
AcDbVisualStyle
  2
3dWireframe
 70
     5
177
     2
291
     0
 71
     0
176
     1
 72
     2
176
     1
 73
     0
176
     1
 90
        0
176
     1
 40
0.6
176
     1
 41
30.0
176
     1
 63
     7
176
     1
 74
     1
176
     1
 91
        4
176
     1
 64
     7
176
     1
 65
   257
176
     1
 75
     1
176
     1
175
     1
176
     1
 42
1.0
176
     1
 92
        0
176
     1
 66
   257
176
     1
 43
1.0
176
     1
 76
     1
176
     1
 77
     6
176
     1
 78
     2
176
     1
 67
     7
176
     1
 79
     5
176
     1
170
     0
176
     1
171
     0
176
     1
290
     0
176
     1
 93
        1
176
     1
 44
0.0
176
     1
173
     0
176
     1
1001
ACAD
1000
AcDbSavedByObjectVersion
1070
     0
  0
VISUALSTYLE
  5
171
102
{ACAD_XDICTIONARY
360
97EF3
102
}
102
{ACAD_REACTORS
330
169
102
}
330
169
100
AcDbVisualStyle
  2
Basic
 70
     7
177
     2
291
     1
 71
     1
176
     1
 72
     0
176
     1
 73
     1
176
     1
 90
        0
176
     1
 40
0.6
176
     1
 41
30.0
176
     1
 63
     7
421
 16777215
176
     1
 74
     0
176
     1
 91
        4
176
     1
 64
     7
176
     1
 65
   257
176
     1
 75
     1
176
     1
175
     1
176
     1
 42
1.0
176
     1
 92
        8
176
     1
 66
     7
176
     1
 43
1.0
176
     1
 76
     1
176
     1
 77
     6
176
     1
 78
     2
176
     1
 67
     7
176
     1
 79
     5
176
     1
170
     0
176
     1
171
     0
176
     1
290
     0
176
     1
 93
        1
176
     1
 44
0.0
176
     1
173
     0
176
     1
1001
ACAD
1000
AcDbSavedByObjectVersion
1070
     0
  0
VISUALSTYLE
  5
175
102
{ACAD_XDICTIONARY
360
97EFB
102
}
102
{ACAD_REACTORS
330
169
102
}
330
169
100
AcDbVisualStyle
  2
Brighten
 70
    12
177
     2
291
     1
 71
     2
176
     1
 72
     2
176
     1
 73
     0
176
     1
 90
        0
176
     1
 40
0.6
176
     1
 41
30.0
176
     1
 63
     7
421
 16777215
176
     1
 74
     1
176
     1
 91
        4
176
     1
 64
     7
176
     1
 65
   257
176
     1
 75
     1
176
     1
175
     1
176
     1
 42
1.0
176
     1
 92
        8
176
     1
 66
     7
176
     1
 43
1.0
176
     1
 76
     1
176
     1
 77
     6
176
     1
 78
     2
176
     1
 67
     7
176
     1
 79
     5
176
     1
170
     0
176
     1
171
     0
176
     1
290
     0
176
     1
 93
        1
176
     1
 44
50.0
176
     1
173
     0
176
     1
1001
ACAD
1000
AcDbSavedByObjectVersion
1070
     0
  0
VISUALSTYLE
  5
179
102
{ACAD_XDICTIONARY
360
97F03
102
}
102
{ACAD_REACTORS
330
169
102
}
330
169
100
AcDbVisualStyle
  2
ColorChange
 70
    16
177
     2
291
     1
 71
     2
176
     1
 72
     2
176
     1
 73
     3
176
     1
 90
        0
176
     1
 40
0.6
176
     1
 41
30.0
176
     1
 63
     8
421
  8421504
176
     1
 74
     1
176
     1
 91
        4
176
     1
 64
     7
176
     1
 65
   257
176
     1
 75
     1
176
     1
175
     1
176
     1
 42
1.0
176
     1
 92
        8
176
     1
 66
     8
424
  8421504
176
     1
 43
1.0
176
     1
 76
     1
176
     1
 77
     6
176
     1
 78
     2
176
     1
 67
     7
176
     1
 79
     5
176
     1
170
     0
176
     1
171
     0
176
     1
290
     0
176
     1
 93
        1
176
     1
 44
0.0
176
     1
173
     0
176
     1
1001
ACAD
1000
AcDbSavedByObjectVersion
1070
     0
  0
VISUALSTYLE
  5
173
102
{ACAD_XDICTIONARY
360
97EF7
102
}
102
{ACAD_REACTORS
330
169
102
}
330
169
100
AcDbVisualStyle
  2
Conceptual
 70
     9
177
     2
291
     0
 71
     3
176
     1
 72
     2
176
     1
 73
     0
176
     1
 90
        0
176
     1
 40
0.6
176
     1
 41
30.0
176
     1
 63
     7
421
 16777215
176
     1
 74
     2
176
     1
 91
        2
176
     1
 64
     7
176
     1
 65
   257
176
     1
 75
     1
176
     1
175
     1
176
     1
 42
179.0
176
     1
 92
        8
176
     1
 66
     7
176
     1
 43
1.0
176
     1
 76
     1
176
     1
 77
     6
176
     1
 78
     2
176
     1
 67
     7
176
     1
 79
     3
176
     1
170
     0
176
     1
171
     0
176
     1
290
     0
176
     1
 93
        1
176
     1
 44
0.0
176
     1
173
     0
176
     1
1001
ACAD
1000
AcDbSavedByObjectVersion
1070
     0
  0
VISUALSTYLE
  5
174
102
{ACAD_XDICTIONARY
360
97EF9
102
}
102
{ACAD_REACTORS
330
169
102
}
330
169
100
AcDbVisualStyle
  2
Dim
 70
    11
177
     2
291
     1
 71
     2
176
     1
 72
     2
176
     1
 73
     0
176
     1
 90
        0
176
     1
 40
0.6
176
     1
 41
30.0
176
     1
 63
     7
421
 16777215
176
     1
 74
     1
176
     1
 91
        4
176
     1
 64
     7
176
     1
 65
   257
176
     1
 75
     1
176
     1
175
     1
176
     1
 42
1.0
176
     1
 92
        8
176
     1
 66
     7
176
     1
 43
1.0
176
     1
 76
     1
176
     1
 77
     6
176
     1
 78
     2
176
     1
 67
     7
176
     1
 79
     5
176
     1
170
     0
176
     1
171
     0
176
     1
290
     0
176
     1
 93
        1
176
     1
 44
-50.0
176
     1
173
     0
176
     1
1001
ACAD
1000
AcDbSavedByObjectVersion
1070
     0
  0
VISUALSTYLE
  5
17C
102
{ACAD_XDICTIONARY
360
97F09
102
}
102
{ACAD_REACTORS
330
169
102
}
330
169
100
AcDbVisualStyle
  2
EdgeColorOff
 70
    22
177
     2
291
     1
 71
     2
176
     0
 72
     2
176
     0
 73
     0
176
     0
 90
        0
176
     0
 40
0.6
176
     0
 41
30.0
176
     0
 63
     7
421
 16777215
176
     0
 74
     1
176
     0
 91
        4
176
     0
 64
     7
176
     0
 65
   257
176
     0
 75
     1
176
     0
175
     1
176
     0
 42
1.0
176
     0
 92
        8
176
     2
 66
     7
176
     0
 43
1.0
176
     0
 76
     1
176
     0
 77
     6
176
     0
 78
     2
176
     0
 67
     7
176
     0
 79
     5
176
     0
170
     0
176
     0
171
     0
176
     0
290
     0
176
     0
 93
        1
176
     0
 44
0.0
176
     0
173
     0
176
     0
1001
ACAD
1000
AcDbSavedByObjectVersion
1070
     0
  0
VISUALSTYLE
  5
178
102
{ACAD_XDICTIONARY
360
97F01
102
}
102
{ACAD_REACTORS
330
169
102
}
330
169
100
AcDbVisualStyle
  2
Facepattern
 70
    15
177
     2
291
     1
 71
     2
176
     1
 72
     2
176
     1
 73
     0
176
     1
 90
        0
176
     1
 40
0.6
176
     1
 41
30.0
176
     1
 63
     7
421
 16777215
176
     1
 74
     1
176
     1
 91
        4
176
     1
 64
     7
176
     1
 65
   257
176
     1
 75
     1
176
     1
175
     1
176
     1
 42
1.0
176
     1
 92
        8
176
     1
 66
     7
176
     1
 43
1.0
176
     1
 76
     1
176
     1
 77
     6
176
     1
 78
     2
176
     1
 67
     7
176
     1
 79
     5
176
     1
170
     0
176
     1
171
     0
176
     1
290
     0
176
     1
 93
        1
176
     1
 44
0.0
176
     1
173
     0
176
     1
1001
ACAD
1000
AcDbSavedByObjectVersion
1070
     0
  0
VISUALSTYLE
  5
16A
102
{ACAD_XDICTIONARY
360
97EE5
102
}
102
{ACAD_REACTORS
330
169
102
}
330
169
100
AcDbVisualStyle
  2
Flat
 70
     0
177
     2
291
     1
 71
     2
176
     1
 72
     1
176
     1
 73
     1
176
     1
 90
        2
176
     1
 40
0.6
176
     1
 41
30.0
176
     1
 63
     7
421
 16777215
176
     1
 74
     0
176
     1
 91
        0
176
     1
 64
     7
176
     1
 65
   257
176
     1
 75
     1
176
     1
175
     1
176
     1
 42
1.0
176
     1
 92
        8
176
     1
 66
     7
176
     1
 43
1.0
176
     1
 76
     1
176
     1
 77
     6
176
     1
 78
     2
176
     1
 67
     7
176
     1
 79
     5
176
     1
170
     0
176
     1
171
     0
176
     1
290
     0
176
     1
 93
       13
176
     1
 44
0.0
176
     1
173
     0
176
     1
1001
ACAD
1000
AcDbSavedByObjectVersion
1070
     0
  0
VISUALSTYLE
  5
16B
102
{ACAD_XDICTIONARY
360
97EE7
102
}
102
{ACAD_REACTORS
330
169
102
}
330
169
100
AcDbVisualStyle
  2
FlatWithEdges
 70
     1
177
     2
291
     1
 71
     2
176
     1
 72
     1
176
     1
 73
     1
176
     1
 90
        2
176
     1
 40
0.6
176
     1
 41
30.0
176
     1
 63
     7
421
 16777215
176
     1
 74
     1
176
     1
 91
        0
176
     1
 64
     7
176
     1
 65
   257
176
     1
 75
     1
176
     1
175
     1
176
     1
 42
1.0
176
     1
 92
        0
176
     1
 66
   257
176
     1
 43
1.0
176
     1
 76
     1
176
     1
 77
     6
176
     1
 78
     2
176
     1
 67
     7
176
     1
 79
     5
176
     1
170
     0
176
     1
171
     0
176
     1
290
     0
176
     1
 93
       13
176
     1
 44
0.0
176
     1
173
     0
176
     1
1001
ACAD
1000
AcDbSavedByObjectVersion
1070
     0
  0
VISUALSTYLE
  5
16C
102
{ACAD_XDICTIONARY
360
97EE9
102
}
102
{ACAD_REACTORS
330
169
102
}
330
169
100
AcDbVisualStyle
  2
Gouraud
 70
     2
177
     2
291
     1
 71
     2
176
     1
 72
     2
176
     1
 73
     1
176
     1
 90
        2
176
     1
 40
0.6
176
     1
 41
30.0
176
     1
 63
     7
421
 16777215
176
     1
 74
     0
176
     1
 91
        0
176
     1
 64
     7
176
     1
 65
   257
176
     1
 75
     1
176
     1
175
     1
176
     1
 42
1.0
176
     1
 92
        0
176
     1
 66
     7
176
     1
 43
1.0
176
     1
 76
     1
176
     1
 77
     6
176
     1
 78
     2
176
     1
 67
     7
176
     1
 79
     5
176
     1
170
     0
176
     1
171
     0
176
     1
290
     0
176
     1
 93
       13
176
     1
 44
0.0
176
     1
173
     0
176
     1
1001
ACAD
1000
AcDbSavedByObjectVersion
1070
     0
  0
VISUALSTYLE
  5
16D
102
{ACAD_XDICTIONARY
360
97EEB
102
}
102
{ACAD_REACTORS
330
169
102
}
330
169
100
AcDbVisualStyle
  2
GouraudWithEdges
 70
     3
177
     2
291
     1
 71
     2
176
     1
 72
     2
176
     1
 73
     1
176
     1
 90
        2
176
     1
 40
0.6
176
     1
 41
30.0
176
     1
 63
     7
421
 16777215
176
     1
 74
     1
176
     1
 91
        0
176
     1
 64
     7
176
     1
 65
   257
176
     1
 75
     1
176
     1
175
     1
176
     1
 42
1.0
176
     1
 92
        0
176
     1
 66
   257
176
     1
 43
1.0
176
     1
 76
     1
176
     1
 77
     6
176
     1
 78
     2
176
     1
 67
     7
176
     1
 79
     5
176
     1
170
     0
176
     1
171
     0
176
     1
290
     0
176
     1
 93
       13
176
     1
 44
0.0
176
     1
173
     0
176
     1
1001
ACAD
1000
AcDbSavedByObjectVersion
1070
     0
  0
VISUALSTYLE
  5
170
102
{ACAD_XDICTIONARY
360
97EF1
102
}
102
{ACAD_REACTORS
330
169
102
}
330
169
100
AcDbVisualStyle
  2
Hidden
 70
     6
177
     2
291
     0
 71
     1
176
     1
 72
     2
176
     1
 73
     2
176
     1
 90
        0
176
     1
 40
0.6
176
     1
 41
30.0
176
     1
 63
     7
421
 16777215
176
     1
 74
     2
176
     1
 91
        2
176
     1
 64
     7
176
     1
 65
   257
176
     1
 75
     2
176
     1
175
     1
176
     1
 42
40.0
176
     1
 92
        0
176
     1
 66
   257
176
     1
 43
1.0
176
     1
 76
     1
176
     1
 77
     6
176
     1
 78
     2
176
     1
 67
     7
176
     1
 79
     3
176
     1
170
     0
176
     1
171
     0
176
     1
290
     0
176
     1
 93
        1
176
     1
 44
0.0
176
     1
173
     0
176
     1
1001
ACAD
1000
AcDbSavedByObjectVersion
1070
     0
  0
VISUALSTYLE
  5
17A
102
{ACAD_XDICTIONARY
360
97F05
102
}
102
{ACAD_REACTORS
330
169
102
}
330
169
100
AcDbVisualStyle
  2
JitterOff
 70
    20
177
     2
291
     1
 71
     2
176
     0
 72
     2
176
     0
 73
     0
176
     0
 90
        0
176
     0
 40
0.6
176
     0
 41
30.0
176
     0
 63
     7
421
 16777215
176
     0
 74
     1
176
     0
 91
        4
176
     0
 64
     7
176
     0
 65
   257
176
     0
 75
     1
176
     0
175
     1
176
     0
 42
1.0
176
     0
 92
       10
176
     2
 66
     7
176
     0
 43
1.0
176
     0
 76
     1
176
     0
 77
     6
176
     0
 78
     2
176
     0
 67
     7
176
     0
 79
     5
176
     0
170
     0
176
     0
171
     0
176
     0
290
     0
176
     0
 93
        1
176
     0
 44
0.0
176
     0
173
     0
176
     0
1001
ACAD
1000
AcDbSavedByObjectVersion
1070
     0
  0
VISUALSTYLE
  5
177
102
{ACAD_XDICTIONARY
360
97EFF
102
}
102
{ACAD_REACTORS
330
169
102
}
330
169
100
AcDbVisualStyle
  2
Linepattern
 70
    14
177
     2
291
     1
 71
     2
176
     1
 72
     2
176
     1
 73
     0
176
     1
 90
        0
176
     1
 40
0.6
176
     1
 41
30.0
176
     1
 63
     7
421
 16777215
176
     1
 74
     1
176
     1
 91
        4
176
     1
 64
     7
176
     1
 65
   257
176
     1
 75
     7
176
     1
175
     7
176
     1
 42
1.0
176
     1
 92
        8
176
     1
 66
     7
176
     1
 43
1.0
176
     1
 76
     1
176
     1
 77
     6
176
     1
 78
     2
176
     1
 67
     7
176
     1
 79
     5
176
     1
170
     0
176
     1
171
     0
176
     1
290
     0
176
     1
 93
        1
176
     1
 44
0.0
176
     1
173
     0
176
     1
1001
ACAD
1000
AcDbSavedByObjectVersion
1070
     0
  0
VISUALSTYLE
  5
1AC
102
{ACAD_XDICTIONARY
360
97F17
102
}
102
{ACAD_REACTORS
330
169
102
}
330
169
100
AcDbVisualStyle
  2

 70
    10
177
     2
291
     0
 71
     2
176
     1
 72
     3
176
     1
 73
     0
176
     1
 90
        2
176
     1
 40
0.6
176
     1
 41
30.0
176
     1
 63
     7
421
 16777215
176
     1
 74
     2
176
     1
 91
        0
176
     1
 64
     7
176
     1
 65
   257
176
     1
 75
     1
176
     1
175
     1
176
     1
 42
180.0
176
     1
 92
        8
176
     1
 66
     8
424
  7895160
176
     1
 43
1.0
176
     1
 76
     1
176
     1
 77
     6
176
     1
 78
     2
176
     1
 67
     7
176
     1
 79
     5
176
     1
170
     0
176
     1
171
     0
176
     1
290
     0
176
     1
 93
       13
176
     1
 44
0.0
176
     1
173
     0
176
     1
1001
ACAD
1000
AcDbSavedByObjectVersion
1070
     0
  0
VISUALSTYLE
  5
17B
102
{ACAD_XDICTIONARY
360
97F07
102
}
102
{ACAD_REACTORS
330
169
102
}
330
169
100
AcDbVisualStyle
  2
OverhangOff
 70
    21
177
     2
291
     1
 71
     2
176
     0
 72
     2
176
     0
 73
     0
176
     0
 90
        0
176
     0
 40
0.6
176
     0
 41
30.0
176
     0
 63
     7
421
 16777215
176
     0
 74
     1
176
     0
 91
        4
176
     0
 64
     7
176
     0
 65
   257
176
     0
 75
     1
176
     0
175
     1
176
     0
 42
1.0
176
     0
 92
        9
176
     2
 66
     7
176
     0
 43
1.0
176
     0
 76
     1
176
     0
 77
     6
176
     0
 78
     2
176
     0
 67
     7
176
     0
 79
     5
176
     0
170
     0
176
     0
171
     0
176
     0
290
     0
176
     0
 93
        1
176
     0
 44
0.0
176
     0
173
     0
176
     0
1001
ACAD
1000
AcDbSavedByObjectVersion
1070
     0
  0
VISUALSTYLE
  5
172
102
{ACAD_XDICTIONARY
360
97EF5
102
}
102
{ACAD_REACTORS
330
169
102
}
330
169
100
AcDbVisualStyle
  2
Realistic
 70
     8
177
     2
291
     0
 71
     2
176
     1
 72
     3
176
     1
 73
     0
176
     1
 90
        2
176
     1
 40
0.6
176
     1
 41
30.0
176
     1
 63
     7
421
 16777215
176
     1
 74
     0
176
     1
 91
        0
176
     1
 64
     7
176
     1
 65
   257
176
     1
 75
     1
176
     1
175
     1
176
     1
 42
1.0
176
     1
 92
        8
176
     1
 66
   257
176
     1
 43
1.0
176
     1
 76
     1
176
     1
 77
     6
176
     1
 78
     2
176
     1
 67
     7
176
     1
 79
     3
176
     1
170
     0
176
     1
171
     0
176
     1
290
     0
176
     1
 93
       13
176
     1
 44
0.0
176
     1
173
     0
176
     1
1001
ACAD
1000
AcDbSavedByObjectVersion
1070
     0
  0
VISUALSTYLE
  5
181
102
{ACAD_XDICTIONARY
360
97F13
102
}
102
{ACAD_REACTORS
330
169
102
}
330
169
100
AcDbVisualStyle
  2
Shaded
 70
    27
177
     2
291
     0
 71
     2
176
     1
 72
     2
176
     1
 73
     1
176
     1
 90
        2
176
     1
 40
0.6
176
     1
 41
30.0
176
     1
 63
     7
421
 16777215
176
     1
 74
     0
176
     1
 91
        4
176
     1
 64
     7
176
     1
 65
   257
176
     1
 75
     1
176
     1
175
     1
176
     1
 42
1.0
176
     1
 92
        8
176
     1
 66
   257
176
     1
 43
1.0
176
     1
 76
     1
176
     1
 77
     6
176
     1
 78
     2
176
     1
 67
     8
425
  7895160
176
     1
 79
     3
176
     1
170
     0
176
     1
171
     0
176
     1
290
     0
176
     1
 93
        5
176
     1
 44
0.0
176
     1
173
     0
176
     1
1001
ACAD
1000
AcDbSavedByObjectVersion
1070
     0
  0
VISUALSTYLE
  5
180
102
{ACAD_XDICTIONARY
360
97F11
102
}
102
{ACAD_REACTORS
330
169
102
}
330
169
100
AcDbVisualStyle
  2
Shaded with edges
 70
    26
177
     2
291
     0
 71
     2
176
     1
 72
     2
176
     1
 73
     1
176
     1
 90
        2
176
     1
 40
0.6
176
     1
 41
30.0
176
     1
 63
     7
421
 16777215
176
     1
 74
     1
176
     1
 91
       10
176
     1
 64
     7
176
     1
 65
   257
176
     1
 75
     2
176
     1
175
     1
176
     1
 42
1.0
176
     1
 92
        8
176
     1
 66
   257
176
     1
 43
1.0
176
     1
 76
     1
176
     1
 77
     6
176
     1
 78
     2
176
     1
 67
     7
176
     1
 79
     3
176
     1
170
     0
176
     1
171
     0
176
     1
290
     0
176
     1
 93
        5
176
     1
 44
0.0
176
     1
173
     0
176
     1
1001
ACAD
1000
AcDbSavedByObjectVersion
1070
     0
  0
VISUALSTYLE
  5
17D
102
{ACAD_XDICTIONARY
360
97F0B
102
}
102
{ACAD_REACTORS
330
169
102
}
330
169
100
AcDbVisualStyle
  2
Shades of Gray
 70
    23
177
     2
291
     0
 71
     2
176
     1
 72
     2
176
     1
 73
     3
176
     1
 90
        0
176
     1
 40
0.6
176
     1
 41
30.0
176
     1
 63
     7
421
 16777215
176
     1
 74
     2
176
     1
 91
        2
176
     1
 64
     7
176
     1
 65
     7
176
     1
 75
     1
176
     1
175
     1
176
     1
 42
40.0
176
     1
 92
        8
176
     1
 66
     7
176
     1
 43
1.0
176
     1
 76
     1
176
     1
 77
     6
176
     1
 78
     2
176
     1
 67
     7
176
     1
 79
     3
176
     1
170
     0
176
     1
171
     0
176
     1
290
     0
176
     1
 93
        1
176
     1
 44
0.0
176
     1
173
     0
176
     1
1001
ACAD
1000
AcDbSavedByObjectVersion
1070
     0
  0
VISUALSTYLE
  5
17E
102
{ACAD_XDICTIONARY
360
97F0D
102
}
102
{ACAD_REACTORS
330
169
102
}
330
169
100
AcDbVisualStyle
  2
Sketchy
 70
    24
177
     2
291
     0
 71
     1
176
     1
 72
     2
176
     1
 73
     2
176
     1
 90
        0
176
     1
 40
0.6
176
     1
 41
30.0
176
     1
 63
     7
421
 16777215
176
     1
 74
     2
176
     1
 91
        2
176
     1
 64
     7
176
     1
 65
     7
176
     1
 75
     1
176
     1
175
     1
176
     1
 42
40.0
176
     1
 92
       11
176
     1
 66
     7
176
     1
 43
1.0
176
     1
 76
     1
176
     1
 77
     6
176
     1
 78
     2
176
     1
 67
     7
176
     1
 79
     6
176
     1
170
     0
176
     1
171
     0
176
     1
290
     0
176
     1
 93
        1
176
     1
 44
0.0
176
     1
173
     0
176
     1
1001
ACAD
1000
AcDbSavedByObjectVersion
1070
     0
  0
VISUALSTYLE
  5
176
102
{ACAD_XDICTIONARY
360
97EFD
102
}
102
{ACAD_REACTORS
330
169
102
}
330
169
100
AcDbVisualStyle
  2
Thicken
 70
    13
177
     2
291
     1
 71
     2
176
     1
 72
     2
176
     1
 73
     0
176
     1
 90
        0
176
     1
 40
0.6
176
     1
 41
30.0
176
     1
 63
     7
421
 16777215
176
     1
 74
     1
176
     1
 91
        4
176
     1
 64
     7
176
     1
 65
   257
176
     1
 75
     1
176
     1
175
     1
176
     1
 42
1.0
176
     1
 92
       12
176
     1
 66
     7
176
     1
 43
1.0
176
     1
 76
     1
176
     1
 77
     6
176
     1
 78
     2
176
     1
 67
     7
176
     1
 79
     5
176
     1
170
     0
176
     1
171
     0
176
     1
290
     0
176
     1
 93
        1
176
     1
 44
0.0
176
     1
173
     0
176
     1
1001
ACAD
1000
AcDbSavedByObjectVersion
1070
     0
  0
VISUALSTYLE
  5
16F
102
{ACAD_XDICTIONARY
360
97EEF
102
}
102
{ACAD_REACTORS
330
169
102
}
330
169
100
AcDbVisualStyle
  2
Wireframe
 70
     5
177
     2
291
     0
 71
     0
176
     1
 72
     2
176
     1
 73
     0
176
     1
 90
        0
176
     1
 40
0.6
176
     1
 41
30.0
176
     1
 63
     7
421
 16777215
176
     1
 74
     1
176
     1
 91
        4
176
     1
 64
     7
176
     1
 65
   257
176
     1
 75
     1
176
     1
175
     1
176
     1
 42
1.0
176
     1
 92
        0
176
     1
 66
   257
176
     1
 43
1.0
176
     1
 76
     1
176
     1
 77
     6
176
     1
 78
     2
176
     1
 67
     7
176
     1
 79
     3
176
     1
170
     0
176
     1
171
     0
176
     1
290
     0
176
     1
 93
        1
176
     1
 44
0.0
176
     1
173
     0
176
     1
1001
ACAD
1000
AcDbSavedByObjectVersion
1070
     0
  0
VISUALSTYLE
  5
17F
102
{ACAD_XDICTIONARY
360
97F0F
102
}
102
{ACAD_REACTORS
330
169
102
}
330
169
100
AcDbVisualStyle
  2
X-Ray
 70
    25
177
     2
291
     0
 71
     2
176
     1
 72
     2
176
     1
 73
     1
176
     1
 90
        1
176
     1
 40
0.5
176
     1
 41
30.0
176
     1
 63
     7
421
 16777215
176
     1
 74
     1
176
     1
 91
        0
176
     1
 64
     7
176
     1
 65
   257
176
     1
 75
     1
176
     1
175
     1
176
     1
 42
1.0
176
     1
 92
        8
176
     1
 66
     7
176
     1
 43
1.0
176
     1
 76
     1
176
     1
 77
     6
176
     1
 78
     2
176
     1
 67
     7
176
     1
 79
     3
176
     1
170
     0
176
     1
171
     0
176
     1
290
     0
176
     1
 93
       13
176
     1
 44
0.0
176
     1
173
     0
176
     1
1001
ACAD
1000
AcDbSavedByObjectVersion
1070
     0
  0
DICTIONARYVAR
  5
1D2
102
{ACAD_REACTORS
330
1D1
102
}
330
1D1
100
DictionaryVariables
280
     0
  1
1:1
  0
DICTIONARYVAR
  5
1D4
102
{ACAD_REACTORS
330
1D1
102
}
330
1D1
100
DictionaryVariables
280
     0
  1
A-SC4
  0
DICTIONARYVAR
  5
1D3
102
{ACAD_REACTORS
330
1D1
102
}
330
1D1
100
DictionaryVariables
280
     0
  1
STANDARD
  0
DICTIONARYVAR
  5
3AFBB
102
{ACAD_REACTORS
330
1D1
102
}
330
1D1
100
DictionaryVariables
280
     0
  1
Metric50
  0
DICTIONARYVAR
  5
3AFBC
102
{ACAD_REACTORS
330
1D1
102
}
330
1D1
100
DictionaryVariables
280
     0
  1
Metric50
  0
DICTIONARYVAR
  5
90ABF
102
{ACAD_REACTORS
330
1D1
102
}
330
1D1
100
DictionaryVariables
280
     0
  1
5.000000
  0
DICTIONARYVAR
  5
1D5
102
{ACAD_REACTORS
330
1D1
102
}
330
1D1
100
DictionaryVariables
280
     0
  1
0
  0
DICTIONARY
  5
97EE4
102
{ACAD_REACTORS
330
97EE2
102
}
330
97EE2
100
AcDbDictionary
281
     1
  0
DICTIONARY
  5
97EE3
102
{ACAD_REACTORS
330
97EE2
102
}
330
97EE2
100
AcDbDictionary
281
     1
  3
140685976139456
350
97EDC
  3
140685976139472
350
97EDD
  3
140685976139488
350
97EDE
  3
140685976139504
350
97EDF
  3
140685976139520
350
97EE0
  3
140685976139536
350
97EE1
  0
XRECORD
  5
48BC0
102
{ACAD_REACTORS
330
48BBF
102
}
330
48BBF
100
AcDbXrecord
280
     1
330
0
330
0
330
0
330
0
330
0
330
0
330
0
330
0
330
0
330
0
330
0
330
0
330
0
330
0
330
0
330
0
330
0
330
0
330
0
330
0
330
0
330
0
330
0
330
0
330
0
330
0
330
0
330
0
330
0
330
0
330
0
330
0
330
0
330
0
330
0
330
0
330
0
330
0
330
0
330
0
330
0
330
0
330
0
330
0
330
13CCC
330
13CCD
330
C964
330
0
330
0
330
0
330
0
330
0
330
21873
330
21877
330
0
330
0
330
0
330
0
330
0
330
0
330
0
330
0
330
0
330
0
330
0
330
0
330
0
330
0
330
0
330
0
330
0
330
0
330
0
330
0
330
0
330
0
330
0
330
0
330
0
330
0
330
0
330
0
330
0
330
0
330
0
330
0
330
0
330
0
330
0
330
0
330
0
330
0
330
0
330
0
330
0
330
0
330
0
330
0
330
0
330
0
330
0
330
0
330
0
330
0
330
0
330
0
330
0
330
0
330
0
330
0
330
0
330
0
330
0
330
0
330
0
330
0
330
0
330
0
330
0
330
0
330
0
330
0
330
0
330
0
330
0
330
0
330
0
330
0
330
0
330
0
330
0
330
0
330
0
330
0
330
0
330
0
330
0
330
0
330
0
330
0
330
0
330
0
330
0
330
0
330
0
330
0
330
0
330
0
330
0
330
0
330
0
330
0
330
0
330
0
330
0
330
0
330
0
330
0
330
0
330
0
330
0
330
0
330
0
330
0
330
0
330
0
330
0
330
0
330
0
330
0
330
0
330
0
330
0
330
0
330
0
330
0
330
0
330
0
330
0
330
0
330
0
330
0
330
0
330
0
330
0
330
0
330
0
330
0
330
0
330
0
330
0
330
0
330
0
330
0
330
0
330
0
330
0
330
0
330
0
330
0
330
0
330
0
330
0
330
0
330
0
330
0
330
0
330
0
330
0
330
0
330
0
330
0
330
0
330
0
330
0
330
0
330
0
330
0
330
0
330
0
330
0
330
0
330
0
330
0
330
0
330
0
330
0
330
0
330
0
330
0
330
0
330
0
330
0
330
0
330
0
330
0
330
0
330
0
330
0
330
0
330
0
330
0
330
0
330
0
330
0
330
0
330
0
330
0
330
0
330
0
330
0
330
0
330
0
330
0
330
0
330
0
330
0
330
0
330
0
330
0
330
0
330
0
330
0
330
0
330
0
330
0
330
0
330
0
330
0
330
0
330
0
330
0
330
0
330
0
330
0
330
0
330
0
330
0
330
0
330
0
330
0
330
0
330
0
330
0
330
0
330
0
330
0
330
0
330
0
330
0
330
0
330
0
330
0
330
0
330
0
330
0
330
0
330
0
330
0
330
0
330
0
330
0
330
0
330
0
330
0
330
0
330
0
330
0
330
0
330
0
330
0
330
0
330
0
330
0
330
0
330
0
330
0
330
0
330
0
330
0
330
0
330
0
330
0
330
0
330
0
330
0
330
0
330
0
330
0
330
0
330
0
330
0
330
0
330
0
330
0
330
0
330
0
330
0
330
0
330
0
330
0
330
0
330
0
330
0
330
0
330
0
330
0
330
0
330
0
330
0
330
0
330
0
330
0
330
0
330
0
330
0
330
0
330
0
330
0
330
0
330
0
330
0
330
0
330
0
330
0
330
0
330
0
330
0
330
0
330
0
330
0
330
0
330
0
330
0
330
0
330
0
330
0
330
0
330
0
330
0
330
0
330
0
330
0
330
0
330
0
330
0
330
0
330
0
330
0
330
0
330
0
330
0
330
0
330
0
330
0
330
0
330
0
330
0
330
0
330
0
330
0
330
0
330
0
330
0
330
0
330
0
330
0
330
0
330
0
330
0
330
0
330
0
330
0
330
0
330
0
330
0
330
0
330
0
330
0
330
0
330
0
330
0
330
0
330
0
330
0
330
0
330
0
330
0
330
0
330
0
330
0
330
0
330
0
330
0
330
0
330
0
330
0
330
0
330
0
330
0
330
0
330
0
330
0
330
0
330
0
330
0
330
0
330
0
330
0
330
0
330
0
330
0
330
0
330
0
330
0
330
0
330
0
330
0
330
0
330
0
330
0
330
0
330
0
330
0
330
0
330
0
330
0
330
0
330
0
330
0
330
0
330
0
330
0
330
0
330
0
330
0
330
0
330
0
330
0
330
0
330
0
330
0
330
0
330
0
330
0
330
0
330
0
330
0
330
0
330
0
330
0
330
0
330
0
330
0
330
0
330
0
330
0
330
0
330
0
330
0
330
0
330
0
330
0
330
0
330
0
330
0
330
0
330
0
330
0
330
0
330
0
330
0
330
0
330
0
330
0
  0
DICTIONARY
  5
97E74
330
3AF7C
100
AcDbDictionary
280
     1
281
     1
  3
ACAD_XREC_ROUNDTRIP
360
97E84
  0
DICTIONARY
  5
40EA8
330
1A7
100
AcDbDictionary
280
     1
281
     1
  3
FBXASSET
360
40EA9
  0
DICTIONARY
  5
97F19
330
13DCB
100
AcDbDictionary
280
     1
281
     1
  3
ACAD_XREC_ROUNDTRIP
360
97F1A
  0
DICTIONARY
  5
97F15
330
1AB
100
AcDbDictionary
280
     1
281
     1
  3
ACAD_XREC_ROUNDTRIP
360
97F16
  0
DICTIONARY
  5
97E72
330
3AF7B
100
AcDbDictionary
280
     1
281
     1
  3
ACAD_XREC_ROUNDTRIP
360
97E85
  0
DICTIONARY
  5
97ED9
330
1A9
100
AcDbDictionary
280
     1
281
     1
  3
ACAD_ROUNDTRIP_2008_TABLESTYLE_CELLSTYLEMAP
360
97EDA
  0
DICTIONARY
  5
97EED
330
16E
100
AcDbDictionary
280
     1
281
     1
  3
ACAD_XREC_ROUNDTRIP
360
97EEE
  0
DICTIONARY
  5
97F1B
330
2B3D9
100
AcDbDictionary
280
     1
281
     1
  3
ACAD_XREC_ROUNDTRIP
360
97F1C
  0
DICTIONARY
  5
97EF3
330
171
100
AcDbDictionary
280
     1
281
     1
  3
ACAD_XREC_ROUNDTRIP
360
97EF4
  0
DICTIONARY
  5
97EFB
330
175
100
AcDbDictionary
280
     1
281
     1
  3
ACAD_XREC_ROUNDTRIP
360
97EFC
  0
DICTIONARY
  5
97F03
330
179
100
AcDbDictionary
280
     1
281
     1
  3
ACAD_XREC_ROUNDTRIP
360
97F04
  0
DICTIONARY
  5
97EF7
330
173
100
AcDbDictionary
280
     1
281
     1
  3
ACAD_XREC_ROUNDTRIP
360
97EF8
  0
DICTIONARY
  5
97EF9
330
174
100
AcDbDictionary
280
     1
281
     1
  3
ACAD_XREC_ROUNDTRIP
360
97EFA
  0
DICTIONARY
  5
97F09
330
17C
100
AcDbDictionary
280
     1
281
     1
  3
ACAD_XREC_ROUNDTRIP
360
97F0A
  0
DICTIONARY
  5
97F01
330
178
100
AcDbDictionary
280
     1
281
     1
  3
ACAD_XREC_ROUNDTRIP
360
97F02
  0
DICTIONARY
  5
97EE5
330
16A
100
AcDbDictionary
280
     1
281
     1
  3
ACAD_XREC_ROUNDTRIP
360
97EE6
  0
DICTIONARY
  5
97EE7
330
16B
100
AcDbDictionary
280
     1
281
     1
  3
ACAD_XREC_ROUNDTRIP
360
97EE8
  0
DICTIONARY
  5
97EE9
330
16C
100
AcDbDictionary
280
     1
281
     1
  3
ACAD_XREC_ROUNDTRIP
360
97EEA
  0
DICTIONARY
  5
97EEB
330
16D
100
AcDbDictionary
280
     1
281
     1
  3
ACAD_XREC_ROUNDTRIP
360
97EEC
  0
DICTIONARY
  5
97EF1
330
170
100
AcDbDictionary
280
     1
281
     1
  3
ACAD_XREC_ROUNDTRIP
360
97EF2
  0
DICTIONARY
  5
97F05
330
17A
100
AcDbDictionary
280
     1
281
     1
  3
ACAD_XREC_ROUNDTRIP
360
97F06
  0
DICTIONARY
  5
97EFF
330
177
100
AcDbDictionary
280
     1
281
     1
  3
ACAD_XREC_ROUNDTRIP
360
97F00
  0
DICTIONARY
  5
97F17
330
1AC
100
AcDbDictionary
280
     1
281
     1
  3
ACAD_XREC_ROUNDTRIP
360
97F18
  0
DICTIONARY
  5
97F07
330
17B
100
AcDbDictionary
280
     1
281
     1
  3
ACAD_XREC_ROUNDTRIP
360
97F08
  0
DICTIONARY
  5
97EF5
330
172
100
AcDbDictionary
280
     1
281
     1
  3
ACAD_XREC_ROUNDTRIP
360
97EF6
  0
DICTIONARY
  5
97F13
330
181
100
AcDbDictionary
280
     1
281
     1
  3
ACAD_XREC_ROUNDTRIP
360
97F14
  0
DICTIONARY
  5
97F11
330
180
100
AcDbDictionary
280
     1
281
     1
  3
ACAD_XREC_ROUNDTRIP
360
97F12
  0
DICTIONARY
  5
97F0B
330
17D
100
AcDbDictionary
280
     1
281
     1
  3
ACAD_XREC_ROUNDTRIP
360
97F0C
  0
DICTIONARY
  5
97F0D
330
17E
100
AcDbDictionary
280
     1
281
     1
  3
ACAD_XREC_ROUNDTRIP
360
97F0E
  0
DICTIONARY
  5
97EFD
330
176
100
AcDbDictionary
280
     1
281
     1
  3
ACAD_XREC_ROUNDTRIP
360
97EFE
  0
DICTIONARY
  5
97EEF
330
16F
100
AcDbDictionary
280
     1
281
     1
  3
ACAD_XREC_ROUNDTRIP
360
97EF0
  0
DICTIONARY
  5
97F0F
330
17F
100
AcDbDictionary
280
     1
281
     1
  3
ACAD_XREC_ROUNDTRIP
360
97F10
  0
XRECORD
  5
97EDC
102
{ACAD_REACTORS
330
97EE3
102
}
330
97EE3
100
AcDbXrecord
280
     1
  1
AcDb_Thumbnail_Schema
102
{ATTRRECORD
341
97EDE
  2
AcDbDs::TreatedAsObjectData
280
     1
291
     1
102
ATTRRECORD}
102
{ATTRRECORD
341
97EDF
  2
AcDbDs::Legacy
280
     1
291
     1
102
ATTRRECORD}
  2
AcDbDs::ID
280
    10
 91
        8
102
{ATTRRECORD
341
97EE0
  2
AcDs:Indexable
280
     1
291
     1
102
ATTRRECORD}
102
{ATTRRECORD
341
97EE1
  2
AcDbDs::HandleAttribute
280
     7
282
     1
102
ATTRRECORD}
  2
Thumbnail_Data
280
    15
 91
        0
  0
XRECORD
  5
97EDD
102
{ACAD_REACTORS
330
97EE3
102
}
330
97EE3
100
AcDbXrecord
280
     1
  1
AcDb3DSolid_ASM_Data
102
{ATTRRECORD
341
97EDE
  2
AcDbDs::TreatedAsObjectData
280
     1
291
     1
102
ATTRRECORD}
102
{ATTRRECORD
341
97EDF
  2
AcDbDs::Legacy
280
     1
291
     1
102
ATTRRECORD}
  2
AcDbDs::ID
280
    10
 91
        8
102
{ATTRRECORD
341
97EE0
  2
AcDs:Indexable
280
     1
291
     1
102
ATTRRECORD}
102
{ATTRRECORD
341
97EE1
  2
AcDbDs::HandleAttribute
280
     7
282
     1
102
ATTRRECORD}
  2
ASM_Data
280
    15
 91
        0
  0
XRECORD
  5
97EDE
102
{ACAD_REACTORS
330
97EE3
102
}
330
97EE3
100
AcDbXrecord
280
     1
  1
AcDbDs::TreatedAsObjectDataSchema
  2
AcDbDs::TreatedAsObjectData
280
     1
 91
        0
  0
XRECORD
  5
97EDF
102
{ACAD_REACTORS
330
97EE3
102
}
330
97EE3
100
AcDbXrecord
280
     1
  1
AcDbDs::LegacySchema
  2
AcDbDs::Legacy
280
     1
 91
        0
  0
XRECORD
  5
97EE0
102
{ACAD_REACTORS
330
97EE3
102
}
330
97EE3
100
AcDbXrecord
280
     1
  1
AcDbDs::IndexedPropertySchema
  2
AcDs:Indexable
280
     1
 91
        0
  0
XRECORD
  5
97EE1
102
{ACAD_REACTORS
330
97EE3
102
}
330
97EE3
100
AcDbXrecord
280
     1
  1
AcDbDs::HandleAttributeSchema
  2
AcDbDs::HandleAttribute
280
     7
 91
        1
284
     1
  0
XRECORD
  5
97E84
102
{ACAD_REACTORS
330
97E74
102
}
330
97E74
100
AcDbXrecord
280
     1
102
DISPLAYNAME
  1
Metric50
102
FLAGS
 90
        0
  0
XRECORD
  5
40EA9
102
{ACAD_REACTORS
330
40EA8
102
}
330
40EA8
100
AcDbXrecord
280
     1
 70
     1
 90
-1625056298
 71
     1
  1
3BCEE4F9-3C7E-44D3-8123-A410D2FC01B9
311
504B03041400060808007B57B24A45AB2E32D8000000200100004F00000036353343394331412D434231392D343334302D423638372D3435453434363637313239362F4173736574446174612F446566696E6974696F6E4974657261746F7250726F706572746965732E62696E454E3D4FC33010350C200606FE017FC0388E
311
2F4E5D8150E3A49DBAC0C682AEE1DA467292AA76C4CAC8BF065B14F5A477EFDDF77D33C67E4E1625BB88F88AFE36F28A063A76ED6BBBA71ED955CAB87183EEFA5CBB8C3285356D7172214DAD3BDF927338D038F9BB73EB7D8F21AE43F790866E22FE133E6DD8FD1D4BF73F23D24B89F1E3307F46EF293C095D286BAC5C705B
311
49C34141C62B3D2B39140D80D6A5CC8D162FE4C7E9D89217AAB24D034BC3952D1B0E502B3E93B9E20B90599D2F6D262B23C27EEA3703764E64E2F4C2FB61D815F0F62842D7D32F504B03041400060808007B57B24ADD9E587A27010000300200004500000036353343394331412D434231392D343334302D423638372D3435
311
453434363637313239362F4173736574446174612F496E7374616E636550726F706572746965732E62696EEB606060F80F0540260323103700495E20ED9E9A975A94991C9C9C919A9BA8021430767276753571B3D435763677D535317131D6B5303432D67534313470317273363074B2644768046B313471713532B5D43535
311
3131D635313332D475727372D13534373670367376B67474B504EA00DBCBA019D37FE8ABC6157B20CD04146B0062181F4C03F940F0C11EA29A8141C08141002C0426541C106CAC2CA046088033B02A030AC2157C6006F21A8018AAF50194E6010A610250382264E08660284CD9E98021862280A91564B406929A0FF62C401E
311
28B6F88038B83CB1243943D7A928312F2535052493C9900824C518FC184C81340383A5D796380186AB7E37323F87313058307032B030BCDFA7E2753A1124A30754D1DB04520732111908A431C175893104300000504B03041400060808007B57B24A88E57597CD3F0000904100006B00000036353343394331412D43423139
311
2D343334302D423638372D3435453434363637313239362F5265736F75726365732F33424345453446392D334337452D343444332D383132332D4134313044324643303142392F7468756D626E61696C2F302F67656E657269635F706E67355B773CD4FF1FBF73E71C0E67EF7576C9DEF3EC995D46C6A1EC5046649CBDF79E
311
192942562825CE965D8A868C2842C8DE9FDFD1F7E7F138F7078FCF6B3F5FCFD7EBFDFEC41B196891913091804020321D6D7513FC77D8C5070EC3FFEE51B21F068154CC75D455CC028A3EA68992803810109FDDE5D5CEC5521B28A1B422BF80741695D5B529DA1C2D058AD2388BDA9F476F7C2CADC939304173DBF48A452BF8
311
A700C0C70C3D121C1AA15A5270C22E2B9E28763651F7DA0D12CE11077B2ECD0D560B5E3DE2368B1E65C5E1C87384A4CC5F2D9FB8BE39E9B77C753783A37998F5CEF1B4FEE553463245C9712270880DF339E0B882A6BA713D865F6F384C842D440934EF264F4A304F8DE4EEFA1E2BF5E2D91F5ADD9613D6E31DDB33ED31DB1D
311
7916CAF091286EA3D31B9CFECB78BB0060245B943C4C040119FF780A74DD308BA9D028678674EB5504ECF284EE814DAED07440BAF649BE4B55DA2890F4D73E2D489A59EE54FDB0A85B59F2F52C4858A02705C4815A792B0C4A996A2023ECB195073E115E3E3647F64243A8338F2000BCB58DA5692C7E7C3D413F963FEDF3CF
311
00FBB0F831A9D51360FECA43819F527B89FA260EB63C5DA676830AA3626A3693B23F1A17A0DFFCE3EE164E31B5365EDF0C89EF64D8E38AB0BA9A1117D7C3A0EC44F44F4023095E80BA610DE336D0F99593A88BFC5306E72DF98F7FD132ED95878DF2964EA7E43071359FD83B2BDF9C6B5BDF768F0F3C0FC351199526F53D94
311
60A34511F75D1B63E488178569472C91A94497807A3FD4A390C6558F26D416365C3656DE6E769DA9D8FC73774E1709812842DD8EF96AED1960F79D21B395CDDFE6F92CB4EB962A4668C76990E2EF29798C8941D67DA50F4A5F947872460F1F6FDB794E8A29FD7AC0C0D6E0714339CE258FB17AE8535221E3464A10F29A0BE5
311
EEECEFC5675926A89F49EB14E5711894F6586DB5754EB4D5DA9C6437EBA57DB97A24F8B8A8DB295FFD73266CF57E82694DF5166DDF93573AFE9C9C5EB05F8FEF8E89E0A8917B0B3724DB7BEBB53252581EFC3E38166BA131A3A5B42FE2AD00A769BBFA4458D2DE7822F8C4F63D0B8E21B285AE13325F3410A435C648C9D91F
311
DEB109E73CEDA7BC796961AF79175E1A3CE4C5E8B0D009B0C9E29EFD98BC8E97554E3D8D838424E270F7685226E5AC268E021EDE3522D583E8F20C0BDE2959EF5BBFEEDAB32FE9A3ED0E39F211A86AA9DEBFC68182EDED132AB8BB794442D2D7EA9F4D8BFF52BC4D55BB165124EE90A42D101E67BBBB292FFB4F66DE5BF230
311
0E44546757DA7CEF8932BFC9F92A0707953491A55C5A5ACEDABD9FA1AEA01BAC3DC5A24E22E7C47213493996EFBC369D086ED9397C9BA6C7F9855C7BD5E15BFC8C53DB3D2A4C5901A57ACD2FBDF4D1676E95338B2C2BCE65FDA4C64F5FEFDC7D9CA5AA1FCF11E193F2FDABF0F4916BF13FB916A224380E6462A9815F2300DC
311
49CC4DF8D055CEF76462F4B7A7ACA7365C2707891370BC1D0AA6203C44CCAB47084FEC057F27FFCD57F89B8B9852459798A675C66BD7CE572CAF71FF7E6D7ECF7BF62CAB7B3F1107DCD04DC55A3F9961700286141C94A4F771FEB2BCDA2DDEE0CB0BAE402FF1DB0100F8E475DFFFC074DDB4498AB7D186A7654DDB1CB680D7
311
03D47CEB4E72F8CB13D86A4AA68116E26387B93FD6738779B34FEDB8E517EDF2BAF28D9BE93A1D3A164320E07D42E514725C29515FF361754213EDE06B079A2E99EB1CA82A02019EADEEB87B9AF005BD04BBCECB14AACD6B24EFBE482194A97DD32400685FF1FEF1544D1B14EFB1E7F08E6D2CD2AF52DE757F35F5E62332EE
311
88EA26417AD5C3E0E319D68F25414E6D672BD4522B278C57D18F0113921C71D96527E091F00CEB15AE23D24667369BD3CEFA10C7549D930890BA4366F4EBC55F01F746109F98ABCDD5A3EE06619C6AD78AB33E48E4C9BD21BF7478B385EC05C4F8987E2C1BFA0A60EBEDAA0AE0B015C2720ECE180FB6F2DEFBEB822D96338C
311
9B63822183BBF52FB664A7AE57003AABCE512BF77E7E31BDA2E739AC4C131657DDFE5225E900FB56CC01CDE808FA4A9C9DA16AC679656BB64796283D89812B8F91136AE18EE5EBBAF47A73BE3C153EB5D4CD491B4BFB4FE690A4CF9ABA08C0D8AA64220C438C96EA6CA80B58FE5761E697B3A292EB9FBDA502FA863E49FE69
311
4ADDFFF9D62C520BDD1A22014147A0903A05B9B729F54272EF83931FEEC057BFF8C8055C279EAC5C0011804828734024F6CFA319C9CC6867C727184465CD9BB7ED386AFFD96B294A85E3802FAE47244602D8273615952B98C4F23F7EAE4463D9D638EEE374A20959E0FE519C4CFB0FBFE5DD80C2AA3F9DB961D1BDE57E67C9
311
BB47B77FDD74EE3094F5DBBE3EBC1FBDB7393F5116263009E2EFE1AF9A221B2AE234C902BF70E9F280ED23E73908361565964333A3F01D0B006AF32FB21AA1316744B489D5A198E85299241735BE559675130955C902A8ED761FC0DBE337A9F91919AF5CE32AF902ADF9AB2615E00E8A94586BA1A90839B61832FF1BFB76D2
311
EFADE6DB1BA04CCAD3DA649E7E2A0219F592E22F2AD54847EEA8E42271011E9074F8F3DD9FBA6CDF88FFC9FC7E811AD1CA8F4557CE4AFC7BBEDCF0114A48689F20A584520C74DA8127124B767E2FB91A6B186246727BE63C9445BAE02088D58B8EFDC0F1072407CD9B89A13F6303B4A928F593AD489B58E6869325790ADC40
311
6036C591729FE14021F94B7796BB11848D463536A092A26F077F94639F7CEEE2A724C66EC885F4A24F8B8A0AC321F8FD149BA529460FAA34E4663C02D41FDF80BCA222D42F0ABFF8490F4FA74C673807C2051D8E467B47B616072860069A9A303ABA9B319D58404461401B0A0F9BE5E1E151C14BC33B32ABE03DDE91708DFA
311
EB15E7C0D593C86BB7D7EC17BE56E57975F077BFD5525F3A1A361D584A75E08CF29FC7B44B2B3085014F3A5A14517377C3F6B8F37E59514C3B12F8AACDEDDA4DFC49BE5710101534CD6FB6DE15B50F11A09472AABA727F0C49D9CB906B158030065F48EB3625E010CEC1D511D0053474B11E6A4F01C0D6EF1BED3A944FDEC7
311
0E0DDCDC756C86545910E0DAE3BE3AA9A404574C2995CD5CAF9549226BC94B4F4F0F5F9086F418F6B32346464610D8BC7391D3C3A3CCF04CFC1FB2A3A3170E369511868F14EEA4E5E438CC73DB1F3248AA94B6B2FF33B222FF3D1E7BF146CAD229770158063BCE4F5391964DF62F7E52A7BE0EEA829C9E13C4C147D6F93FE5
311
9E111DAB5E4594D6F3CD1AD375EE039930EFE5AF2BB2D41C83C7DABD8C659BAFBE8FAB392CA634F3D15C1D945DB4588D2B0824A4EC928AAC565557CA2F0DAA588CA5BE30B3A8004F7BF005E96CBF891D7F18112A3619FDF530DC8AA64954258E1811789B5189B49B4EB53F5F89F7D37523894F3EB57B373763C91E502F52CC
311
99EB7BDDF933FC324C4FFC2561DFFA7339FAFDD0A4BFBE6D3A8FF9ED1FC49898139864602458968913181918F719CCF5A68B2EE9C1FF050E34E63107003B8120FA982C21B30A874E4F5E4B38D5A8290C4B8D9BE48A0BE31EA995BDC37AC6DE90BA17D259DEF53605D55922FEB1855D915B659FBEB350EE0DFB2F9F766E1C84
311
CC8964B75D08667445EAB966015F63A18A9E0A325C1B3DC628C0D3CB60F767FA93CC65F25458BD23C3B312716E5F40E5858AC06EBA9AB14F95DB99147B832069201541D09A0D856E12C629CF32683760EE855537D1901988D5EBC156676C7DD51D7207CF3267AF1D76C2AD867315E44618015313A98B19941C696FED3461CA
311
A9B5415F918556D7802EDACEFD6B2E45853A9735DFC9DBF7E440F9319F8B6805A973BCCDC76C069A9144E51F187EDCC12FC31B5DEAAF0A76137199B106EC84ADA6B6EE697D4E6A96E007417F4E880E8B1E89B4BCE9D81EF611E2ED8F0C1A6C25F620FAFAAB656A7C42D464880E8AFAB0E0FC8EA38CA9A8AEEAEE3E4648BA46
311
80270A89743CDD3E6C6CBF34B7B640EFA285ABC7EA0A1E28F3CC963D114A80123EE66D0AF7D5380EB41909B605AB4765B709B808590458157E69BA1378FEC4B48CAF6A730E3BE3C5EF2DD1A5EAF94B1DDE50CEB55DDFD7EE9A16747FA4B223359FB1FCC69E1194892BABB93A1D5C4E807AC0EA2E30180811E77A2291F6E7F7
311
FAA5E0F60215BC6024E48DE436C511F0628B8CA189982D4D83CCA17D305A7E923C37941CFDFDCD93ACAF735EF5F0E61BBD3E6C41A59B242790D3A3BAC7064DCD89AA2E37214EC839820949D5CAA31E240D2948E48F690298974A96BA9A8432BC90F5071D6537C9666EA4564796B7AFFFA548077BEEA75F63083435074BA182
311
F3699557397F71548383FDA8CA34D99B981E72835ECDA5DDDC151315173D05A21F651AAF8524E88209E2E7A737ED1045800CE3390050BCFB8BE588DF111617874C62575039CA588EEFDEFEFE319B739DE2EDC147092A262611E159650E787917885EF08F1F51B8F2D8A71D60B58B190FEF9541A1BE94BC19FEA50784DA1419
311
FE4B0FB51B8D36B5FF8E1286FD8AF42B91E59A5F1CC4D60174E764045FD8C57B18209B217F89A62252BD20BE0E63E12B8E8F029FE19E0E8D0870F58721A557082250D5424F7909369376E41666C0EE77CD87CB283F661D5FB6D0DA023CB67320A20DC7BE661E9E1BFE5463085C557DA1FF9BE835733766C3D139F2CF9E2208
311
873AD0EB4814DE9E6BF2CAF81614D4D43906ED1C05A3265CABBFE192770FC2F64F940CB6B17B5F166F133C9AEEAD2641807C3E69515171DD74C4A85311513D6EC9530B3B601B6BA3EBFF3B5C3D2F7D69765141E345F75433953D013ADDF8F6AA7DC3F4A7563FE5C7D367937E2900D7EAD0F9FC9A4A1A9B5BDF1FEF08532660
311
C01C5D6DE22199AA774383E306DAB87E301ABB7D213887F9869D4942D0D71E94B27EDF216A318BD488D45DF84529EF575AF3C3938C0AAA0215B01994153E2054A0B894DA5C784980633AAD48576957CF4AEAEAFADC7C587368551C73DBE1E57C58AC713303A8BFC258BD04B51724459FF9E24C03A81E0E0679CEB9B348C0DC
311
998FEB9C6D6EFA77D247CC8F92D3848599ED89A23218D0636465AD1CEEB7DC140D7426F83491C4E8E8281C2FB35240918FFECE880CA2A42D70E8B20B34DF5221C7DB0CF90ECCB9C745B37A47E9B716FF7A97B7A252C1F3814DC7B1E1A7F72B8751D524EF7CAE45B0C73B3BE7D08ED39781B380DDFC9AA4A4749C9493DB5BAD
311
07A6EA6C092FBD0E85DB004DF06B8C9D3089C5320187E4CE1846158C7EA7DDAE8AD9AFFF21AA3A1026BB06A259845E8232DEE62811A4DA9CEAB3A4887320B76E2AE5615EAB7BDF738CBDD01F1E64064BC13D9EC53576751CA8CACD58B3CEB0E6CA585BD089B2A59B9FC101403387AADBDBE70586B93D64BF3AD4453EF9C3B6
311
A93817E8346991798601344F79A83C51F3D50F7BF2683A3605F51A72449489E0EE6169C749C60B1035651103AEE24D24E51A759C840DD3FC6504DA6FE107510E447B43461C79D22970B75DE5E1BD3007D1AFC619A4A4A69B5626AF5E9B8374E20677F77E2F8E73DF868E8BEC7EBA7B6A75EEF7205E1AB9486CB642741D6E03
311
FF13FCCEDB1C4AC129886268B01CDF4B124AF797CF784F3C6DEC97A17D4B558070A0F1C04DA4FF9BDBF34159AEFE958479824B3F58EBD1E19088A2AFDE501B6F2052368A3FD0E650A179EFAB1561E1D27527077136E652676C3670F42DCB3352F48F6BC86D2C3B0051727E41A0A4DC6CE2BE9D47F5CAA2935A3C0539AF0806
311
65997194ABECD723B08129CC5B6B21D2E7D54CD4D12610E7E9FB8306771A89576C7A982002775ED44F3F744CF21EEBB27A631671D921938AAEE3EB0D19CD1E083727F607823E817BF599DCED5394E37EEBC2E88782E638920CA641EF74D4CDFCDEF06F4278ECB18E31E7E9876F2D783C8BF429C75395F57E98C2B495A3DA07
311
7EB3AC3C158608B6B57FE3EA48484D9A480096FCEE0DE880950E7E5A5714131C5C41AAA29FD19AE81AC145FA1B9E85C7169A5AB837B213493DF7E9AA4B5FBF9CDEB36EBD21EF1181B7CF7366AB2A951D01E37AF4EB835D1BE8C117CFBE7625D2EBCDB0B20C5A4B45CED0BCDE3EE8DA9DA78C2E21DEAAFFD1197E463C33CC6A
311
80FB785669B856EFF7A8CCCA2841B5A5369173320B1170C368B2748D81062EA0296E5E2D95D7667A4A46D98A6FF475C76AAB0A8C8D45E226FAFC9FE0133EA9F60111F99CA81ACE03A1D14C89E8B0D69079C91464FA1D99E651D0EAF606F345C42A8A1AA9BA391031582B96D5B4176A77AADB01F12FD298A75DEEBB2C82F0B8
311
650E880722F8DDD90C56A7A058E5FDEF1AC93545BA27367C76F5D8F9690CB6F8DAE141EDD7971F0FB548A2AE435F224D6E5954CA155512F7332029D5A1230854B79F258EC5FFDB09F5F6343A8EB193229B7F7E79B3E48F8E183860B38C8269D1B53738FF1E0BACF6AADA6D4869E9DE708E79B5DADCC09B1BC76F649731CFAF
311
59A83FD8BAE4C749D66FA87A3810D4D62FFE826FA400C0F325D2BC0F3CA35F5847B82A2ACC7961745C823E4D863D54460AF792CE6F79B5C7A33B25C3AEA6CDE15A919B6367D781E9D44F61BF828672594A3E1D9EDD6DF179A81F27EAC05B936575D73E05C209DDD2115CFB705DF9BBF3C911589B3640735E9E618FC9C36A73
311
26C82B2205E244C55D56FDB9D5DC93CE958D4BF8174D2B3DA54CB3C09F2C2A6DFF73D23B2197355761AD421EC581284A7EF8DE2CE3497C0C804D49B41DFD6A7360844E5BEFFB495CFCDB97A4595911CDBA623274CE852B5E278AF0BEB1770E9D37CD977B2766A7DED0E94B840E1E95E8C77DE5CB6354AF7871427C28ADBEEF
311
7BA0A28E19DE9ACD75F379FE373EAE6DDDAE3834692F9C2B03B4FCA8FCA9ABE8EEEBEBB725B88A7C90941E850682CA04061A7DF0CE82ED49BFAFFD42C309818FAE14755CAAE78B0F73243ECCCAD7DF58FCB9CDFAE7A4D3E6671A613639130D056C8383C8F4FCF4808C331E544DD26E4755D09EA05253B3049A1E32587CC25D
311
72E073E2CD96D04A71BBCB0038FEC3F53D254199C3CDC67CD66640269431860225392B2CB3ECD0B4498AAE78BA1994246AE1EE78F2EDFB79F6C6CB6B5E279C4D373FBC21CB2698C9ACBBEB6A4BB6B39E16AB0E421CCBFC7654D81ED86022F9BB522146F9F4772E2D0E4FA70120C95A85A417BF5078B232F4754363EB1750B2
311
AC2148EB46B1EA72AD9B4D23ADCBC589D70106C3EC2ABEEED84DFE28E718C6C83502C28E9FDD3B09DA0A6F6F7B72B706A31C9E2A331EE70DA56A083D2177BFD63C55B11D8D949FAFCF90B23A1E24B9B5018B9A17E99F2890EC302F330FE7936E2C23F0D237EC8916F5166AB84B62A21BB0B950146962D754F92CC2C8877BED
311
8FC7B7B25726DD19545392570B3A2C66B58F027BEF412E552D12A588C4A3CC5C3193FCB3485EFFF700D0B9EEC077754A33DC1FB9E25AF814628F91DDFECB667D3F7690803F38D13F8AE39353523BB08FC6760144AFA2CE28236F65EDBB3D5F59A57D612B99E3D7E5F8A851666BF9B5A6658EFC96EEB37A378ABB0EB3FDDF13
311
03AF32C41BD1C8560745D7BD81066B0D6313359CF488563D3BA3F8E2185D1FAA3EBA1397C9D0E3DD232180A4DCADB6AF25DB3AC3CC26589C8239E66E81547BC7E2F328F9884764CA37EB5DBE390DFC03A5246B456A7C3684C4377D0EEF9A350680FA9A077E8B2957B489E09AB1AD41316944C2254B5984830F691C93CAA767
311
EECF976FA5647538830B5E63236A6F0365C1E0F3E327F24FE35EDDBD7360B0F7374837409F7A6311BECC12B7026D4FA1AE204FA3F5FE904B1F420C7A9044AE58E403E7C4848E7DA25DC9EDAC79DD756FAA26B9EA83ACE8A214A2612A22AFA19DAE7DBAC5F8CDE1292A485F98DAC731A29FE01A3966E96BCB9FB5A4C8830E1B
311
9AF0C54B87FBE221A097036E5D28D1F869F810C06A9BB0AC0612F69AEBAF893C6E7AD59460208BAB3A6B09CA4F6BDDAB8CF0D1F84B72487498395A70DCD754796E271099A567A55CF242BBED64696378BB6CF25EF0FCDB589F3A82F1116D010A9AB9FA4358809EE0C973A2B4229BAA876A70B03AB49CBA7FBE71DB1832FFD3
311
2F9BF2C8E98075CACAFB36921235D0F552B6A67E94E094097A5D7DF681B40623DA535ADA7A9AD8E9A62407D7C9A5AE51D62A17A83A23728DE86BB56115804D3F2675F2C6B87541A0FC497BF0CA86420F558C9859EBE9FAD62747E323E3AADC03FDCDDFE7407B09DA90B44E3185723C5381EAEF589765E2F7A099BA46695BAD
311
60CEF3491B8A171F5F56444F7CE9455312C3498C74173AEA0214EC029833B34B650CBB5A5508D5091665309642791708ECF27CF11DB3D797D6CFE474453BD4BFADB768094B2147814D81C7CBAF8228DCAF5564B5891F5EF6A860EB2E323CB82AB868D8EA048880D63B0DE5341F1B3D53297B928A11E15F25E5148990F71074
311
7C3509ED14909C552EBE3973246FCE55D00564D8310BC3EBC5085D08D806799B77D6C57FDF5E55837F9E934F09C03C729271B64F12D0A9F9E938107CAF7BF1EC8CF1BB9B42363D33070F4CACB425E605DDB0A34A12BB936DE286B9887A4E2E558F0886498BFF49C311D96C277CF6A9FC0D75AD0ECC5226D7E0E3572012E56D
311
7FDE4410CEC7A6D0F997F225A2055B8B92E3956E875AE4993CB3D4C9063AF98FD45E1BAB165640A43439A2C9181A7C355B297C0A0CCFFAE19B6FA3C2BA238A885FBC98B8F6DAF4B94B97304878DF4D8BFF6A4AEDF79E90ED4E68F00CD7299F4E0D83E35601AF0CBEF18C1E870E74758FA91F5131075004DB3CFCF09AE1DABC
311
11957FD9808C92E8A678CE9DBE40DDA0E0D1D505AAFBCBA208232BFB6FB3704E8985E61ADE53DE74152F5C7DE74B1DEDCD37DC3E8FB30D7EBA8B9EFFC3606BF90B8D438279CB7709FC7C00D327F41817EEA71CD9E49FE9C8C9A81C70915D9F0F15958EC5AA4C3BBFAF46986B90F188BDB24B89DE3C6F29EC3E6F66D84856EE
311
96A35E657CA41B41EFD8DBFA16AD6E91439EA92B40B21C053249F51AE50EB0B24C770FFAF40DF12C8436366819C48E36547D4E7B72FE2BBF10828583057814A668BDF183F6B2E58DFB151103E56303E63D00F39C27C4661605DB644D19175D02E3F0241E8FC3458D17AAAADB117CE9EEA690D0DB01E634878C04C2C9310B69
311
FCAB831151E3AD293BEF6E46B0ABCECB50F5939B39C613D41E81FAE8D34CAE3C4566B761D37185FE864AC32FCB71AEF39DAA5BAB88609BB980CD2F07A8F941653B529567726E2B2A58D079DD57E1E5E31426CF184A04D7B03B985F276D47406AF276FE32E3328BA866EB1FD39BEF57863A317634AA5FE467409B3873F5069E
311
F0D71AF00AD189D17BA1974ECDB2D623E9E14086386A6AAB5807825C37B015BFE892AFD154920EC437EB945D958E18622E1E0FE2FA06557CE4BB9BBD05A2D40E774DA2B65473791E314B7D6C886820B2FCFE4AA272B3B8B15E7344A145E8AF919B5454D89D36D413E87211186BF6F645E5EC94DCCE8E1C799022E4EC9BC86D
311
7A0F2AFB1FC4B2CE48F84B3F49ECE65BAD24CADCC07EFF39AB06BE9E6B27A059938EA7208838455383DDBCFCD967DDE4650EF92A14FF933C975DB20BD7FEEBC4487576485963D757D16340D9599FEB362F775F38CA4185A86F74B629C81B133644A3B18FD056E997E0734F9BE26D11C0AAFC669E2AC9FC41D281F8B2E1C35A
311
E27BCE05F3DA295488096688719D974DF1B5D182DB7792288697F8763CFB43562C1CDEE11C4AABD5C22B6E33F6F389CFC3477C5919DC0D533F8A7A1846B7ADB60ABDC26C43D0CFC8910B7C15EE22675BD02702ED39DB77A87A192CA7A543E6205B979B9F5A6B512A3CA799E198B2D5797C0AF8D1D872CA455D4D431A7879D4
311
DD76110B5FF7F4176B54477A9EB5E4A5D11214FDA585F0382751D8E2582BA5D2075053298FEB8F1537304E32CB22C2E2B693DC0A760B1DFCA751BDC445AFDCBB12820ED85F6D5298933C7EF1211E9E057684056CDA3FEF3BB6052355E162DF27C59E965A8DDB7F9437EB72CDDA3A090DE65A5B2F50326247B7EC67B73ACC70
311
47FC9B353D6EE990F772207C6EC52B39DC2F3C0754821DAB559F7C1809C7D0DD5B0499D0442E0A6E391B3D5DB46D11E731E6794EC77523FBDAA242ED67F9FA1FB684255671F63C9BCFE6E7E896D51001A6113EF2298BA494E0B0980D1FA5B9D60796554C02256B1E0345FB7C6186B6A19D2DCA270416262845FA4F42DB5D9B
311
0A0B6F07FCA2E56C242522E001E0CEB734AF310FC8BFB57E38E03AACE93B3326A2197891E68452B26A6307FDABFEE0223D3C03C3C73D2D5BC054C8311F12004CAE488E5C29287F8156A2CAA4AD0D7BE6B97264E4139F437CE73ADF52E5134C52B819777C18B323A5924E4F67AFD13B1CDC3A61793A79FAF5C0CEB718E44107
311
1E797C6DCCB9EFCF7E4A1E9F3DF3C2F9C9E8294E9586868788C972857FB0556D7A26941A7EEB9B580AD78EC40B85DC906B4120A563CA3B87797ED612D3B035962BB75F6515A393F4CB057F564CDF54F2E5A024514E6A1F901DB80C7E70B1FC05E356A7E72FABF4775B3E3FB8F70A2A8E7B6A94542BB304157978CCC999E707
311
A29CC795E67A59CC546A5D47B368954CA7B6E75EC9E1F6FC73CE3B4F71F8CB1A6B15923D61EAAEB14626AAA9D04A26EB9C66CD1BE86CA31A5D8703DE04CD1EBCE4F5CCB62F93909AD11E55799A781A956ED27D3E738F4538CB04ADABC7DAEF20BC35BA6A90BCC1DC61BA05F20D8832FFB9BC9B15E2DB838A0AFBB7E0C82A56
311
2127E0446894F427794C3037186F622BF24DE1B00AA10A23BFA47B2A180D6DA5AD6F7326FEB8C100C2D7142EB2A0B2A9D1008A09BA343D70E054AB69E2A7EDB783CBD92537FAF4A44D1296AC2792729104B3276C276C951D0CF3CF3F1E6B017720A7B8505A5FF9589365979678C36F1BAF759EAF57C60F1FF5FE9DCF5F8E76
311
4FF25A2D06CF25117A8FED51884C13B2B750DB0E4F5E3D64124FCF11F0AD8F1CC3B3DA4B38ED22BF1CB2585EE6BFEBBA63FBFD44F9537B9B37BDD6B358720F98A8125AED4349CCFEB0E135F19E208A04CA7E2B10711185D72E381F448036EF57C9F874E54A971CA37A639E986AC0226DC5AA00D5B14FEA9192234B3DE61781
311
4FC221C92F33F1D392F297731B567FD98FD91D989379AF567A65B8ADF177591DB90FBEA99BF4ED11B16E50A0AB1DBF1156D034BBE04D69D08F939D8E92BF525A1DDAFF80ECBC95D8F45D3FDD289FD23F7D8B452F8EBB34EC082DEEE68E18EDDF072060FAD2AB1504DD4879BF67099FC58F6E9DEFBF645D16334A3E9A127C6F
311
1AF6132CF287E433B43A0EE93812B4AA0B194E03EE3FF91EF9C6ED0074A2F6EB18A96A7C9890B1FCDA1F2095E944DB911ED54C60DF16FB74C8CE9BDC7C54C4F14078CF73C2FFF1F1BBCCD7CF64F71407EA1683DBC410D226627F66E509060D5C0AFD611DE681D509DB8DD12FB1265B03C6F5C55FF4C30BD94187FF692B4F15
311
2982502F193098A789526A038AB529A52BC0DC4FB6285CBAC10A8B8DB75DCD9BDABBB221E27D1F8DA9F5EE5926A1C8AA9BA9BC09239C6A7F12914EA3B59EFF7AAEC3FFCCE56F1C5C2980AD072793527565E774F4631DB178CEEC691B1F367BEA0CF2907E1D6B854D527065979DDEF002D8B2ACEA7CE21AE297737EDE1D45B3
311
1233B73FEA35BCFDD0B09721FDBAF6432681F2FD10C3E9EFB246FD6E854B344ACC9D8A0EEF876A7314B49B6A499FC650B099D650DBFEC7638ADFD245E2B7839DA5AC5F7D5623FC0ECEEC8653FC9B2BDD1AD4D00A566FBA7186DD3C9CD26512551637498CADB950FEC71ADB9A5524285DE328B8EC7EC75D2345AEC6A27C42AF
311
6D9B92155315C80DBFCABBB7DA0FAE425C4FB896B15C9BFAC4FE67DF5A23D30C93DA4D8F36FB15D100050DA6062E22AEC5F4DAC4F6FEEF97AE05DE63C6D38F9E068A20BC5E3B6BCD75320C5090924E7F93640A7735B1A43451C2D91EE62C6238B797349E59890AF3A520DF4A87095F3ABEC2E61F0593416CE46CDCBE0E00E2
311
523FCCD04408588B5B6C9DB6459C786CE378770B54F51DA3A5E1DF2A3349BEAAC234A6CF8993B598B3B25B4B113E353A4D750FA7534749430F3EBF2512E7EA3FD43C6AB9A1F765A58463B306721A15D224FAFE8C6F5E3432D57EE697DA0DD5A9D4866A8BCCAAA9DFF1F06047851408FEC060471D0E3EB86BFAF46E4B5E6031
311
1DC3E3CEA147C75CF971BE74689507154FF2D2E92F15CDB2B9182B11459FD8ACAC5A85F174BC94A7F4EE4C4F5CAFA7C02E37BF0BC77B7DCD0C047BC316F562A01A441AFA7931CC84A28CB9F4AA367EB515778F29BFE61195FA671F4352E5E46E3A64773F1F76EE5EB36D7BCE9BCEAD837A4D77F8DB8C92AEEF6711920D7C7D
311
0F76B0FD0EB7AB83724CD35BCA7D36DDDF5FBB7FF6F04A91F3E2BB3B8F1A43CD659639507FF6331C5F697BCC782AE57D757A27D97F1AB9E0AEDB43F92F1B2AACDF5FEC8ADBAF9F814E2027003BA2F9E144B1938A7A04050AE5D953B82C45619165C813A10E76DD6906B3C16438064D14CDA713AEC420034613E1AC7241904A
311
49FBF87409AFB1FCB9B72FE7933A87D8FBEDACECE4EDCF6A4FE9FB94D5DEB74FAB7CFEAE17EE965DF980DCCA2D04134994F9A2E94D2265DA4FE6AA7B7AC15FACAC2B5ABBCD7DFF542C5314FDAB2E1B9D8B65220B8E2B638BE008E8DCA22678C820C5053664D15E89F2D735B51A84955E81A443545E9FF787BE0FA700A76D13
311
6C27DA179A7C6E8939E01BE756E19CB292798063D8B97F44E8A27BCF3A614FEB8BE974A718E86F7EC99B53CA35FA24F61F2B07266684623A3D4CF073E511F3A10A8FDAFAF0078C577F4DF9D339FE7862E5FA47CF4344209E5BF76D783B1B48E152AD281B15FCB934DCDA49CEC5706B1EE8B460F435324A5CAD154725E21AB8
311
044B75A557A79F6C807B9340AA3D92503E866F4274412926C8C504E4D5EF8C0E68DD0B028781A6B4054F11CF18941F101C57CCC796773ABC8DED9CD91FE5788806C05E548895354AEAC96546D55B0E94A59F148D061F42AA398D822CDECA4CDE79E13469BDCC44FDC990F366BA5978C15F97ED80CBFD73B0CD9B8B83A4F684
311
5BDFBFAF034019473FB9A63BD55D3A4A7284757071574029A4D016DCCBE95DD679EF3C4880BF169422F8C89B68A988D2B13793CAED4F74DE7486C72DC94DF46B8E93D8E02EFCB1FF9B3BA10C8AE7F653DF94F4AF466CDDCEF5776687F7C4C14B63E4EED1719DC2EC482D7DBCC7AE518CDE3D5FF86D39000EC3673C0044E1D3
311
08BF05F74D1B5F033A7D1BE7F74BC55BBE3E4A20F920946CA0271EB17BD2B80E5660ACB8A29A79F5E4BBA49D4D945B6EEF4A7EFEAA65E5555BBB57A7E15D2F83C69F30BBB978D2B39F1F26FC097424D39BB33CA3D87ABF64E307938B685BAD44F71556A30B7E712CA4FE600613C3E554B69ADE949A7CFE214DF1FFF05CB821
311
51EC6FC31950239F94CF7AD39DC473F6EA356E5EC2C4EFA04383CEFE985A127484366FBEE3C0EC4FEA363E4F6632AE781392FD45D67B63FB8DF70E82734F431FD3443172A0E30A83D60982D55FA6A2CF86DBA8382502ACC6CDEF3B907982EED1160E14863FA242F9757347E1544275CCDCF71ECD5F8621CBEA326B8BA884AD
311
7F825781923E66971F04010D574C541D8427A438A37EEF8AF88240EED7362C953F5A81DE2D56109CDE2524EA0F5D2F87308C0C47BD97AD605878AB8589E17CA83930CB5E0DCCD75853D68B1AB136594926DE426C367428E9334AFAFF90ECE221BB5DC9E5BB53D2CDEF954EAA9CD814F0E5725F1965DD458E5F8487683AD86B
311
9D0076BE3EE91EB1CECC5331A67A3F79D8B27587C12EC2A6A70474749F27B4C0BBAFB94B34189E88DC18964BE4121B9137FD516C7755356E50D6714E31ACD222621EBBCD1CFF81D87479056A9DA0E0B8EA19D24CF937DA89F78E8650CCBDC110AAB6C4E46DCBFD0446BA9E2060E81F314AC2031E88135E5476AC0160EF5C0D
311
D2EEF1B8B5CB2D198BE9A554A9093B5F7D7E4B5407DDFCA1D9C152FD97F55BFFFDFE802954DFEC8995B983E28AC92F1971E28F531DC407A1280EB125F64A72E617EFB27DFBCEDCDA2D6F2BDADA36873EE46B9BE1782998C63DA7182BC383FB6FD15DA472B175D7E8B4FC88F38D6E07FEAA3FA3CBB8F6B449ECF14D2175E5C5
311
CCA3A42ABF24CA6C9395AF74535F4DDB38CB84F56614B0FD32D7E19CA5CF988DB4449C40E23DF2B16772594554579094450F56F253CD25EA7F77366FB1CFE79696C428BB64D5A41E986189427E5E4D7E2DAE3D5BB4972B3DC44EAABDDDD63A2264ECFA5C786EB0EE1FDC5BE34FA0F08376869FD1E61EA06CAE15191135445E
311
E8F0394161C3266A596AA035572BB0C8876180D8B9C77D307DF9DCDF7365ABDA6F3A2366436457A4DFC1F259666569A9E4A79C817BDD5610E5200FCE894A358EC72858D50EF67545DA81C6FACE3D457BAF70367E1E6BDD9A952FB4F56247F58F523B97E640246051A72F79BE42FFA0B3187F63097F91C48B868586F714B0EB
311
D5A00A8412C1236E1298F60C72BE6C96B82B404CADAA304AE9F303176B14BA53FBC2D5E86377E35542019E24D97B96A49B2C0E5006E7795954DEAF5DA58958839043C6C70BD3B1B33B6DC5C31316D8A6923F142E26F6711A2258AF977DDF1F970ECC4F1F2B434B96D81BEB6E89BF3BBB3C7C8CC80505070723D6D7D7D3C8CA
311
27CA164A26024FED94B12A86031867241DA53D929636DA600F050BC40CE48B8BA03D69224720DEE2ED2127390BDF5E6EA64527BBD4C4C63FA76BB801FEEC0E61218EC98A8A86CD8313781617877E66692839B9468CF4DB8E50A73986E558E309C0D6F676F921BE02F1185454DC75B111572FF9D27D85EA14C05AD7271225B3
311
91C4275659CA4A43759D0BA44639BE4C30A84DB7F67A41399FB95CBF923B1B1672ABC807C1590557FB18D811983FA97F5E609516D62281D38B1281F68FC75528C35E4CD7DF0F7DBB5E5DD69C414EBEA2F4A5B241B996BA77AE6C772E367408C633EA3E438B68563EA8BE7667F3A4C4FDEEA52ABD78A2820F443B7914A15F18
311
0018D231E64519C56A12F6CA7C8DAE18F06F6B769DBF92329EF6A5D18FBCE600F36BD8E8198DE5CDAA96181F3A756EBA5501CEE58F497EA4F418A2B82565B9BCC611713C0B708CCA1F398B78C5F7D03B3437CC18F13061F55C7BEDADD5ACB1DB0E36D3CE47FF6EA1A563A57E9649EA5D14D1A50EAA457463381C073777EF16
311
00607BAF6428A7DDC079D47A204EF1E1F1F0589FB054D45E02CE623B3823C317C601E589E22B1E88B448524B86A82828E32345EC18AE17214B42F8C41C6D428016D9BA31DDCB47572561E5A402E5BA4FCE55F78AF7268524AA04130F3A20BA5D1E9F9948EA48FC8F5314FDB35E21898198060034ACE5E3E2BBCA34092518F2
311
75190AF65F45867FF0900AA4B81F25427414C372BF51DC29AA855C5428EE1EEDD6B849AD60F6E73475C2D2523F8A2772C840A478DED18A8C5C91B085F255DC4F54EA7AA8947354FD17ECF8FB3B4A0DE7B483CAF3A1165EE05BBA413E5C1FEF3DE1D6B8F2F3F3251C17D9FCAB48A9AAF63AC773A0E413BBC46A9ADF84A566FC
311
920E4D8C52C9769EE3301CADEEEDD92B312E02E2A7E35B7F1E7D203FE5A7D75578B06E99D0E46FFADB8FDA17ED8880390DA29094202D6F645F76F6F96409CDA05495A96E84B04A00D1A6C6C81D7F3DE9376E828CCF144EE50E364ACCE7237EA0BFB5607ED1AC3CFE73794E5B61739D14DF1743441B1AC98F00ECEDE9E7301F
311
A29755FBEFA68C91EF2B314CF510537EF1ABFC9A762496280B546F5EDAAF8A5B387D469FC9A878A92828C88608453ACEC6094DCA54111E7AD5B2663DFE2DD151B7F123B9F4FEF8EE36AB125FD7AD52A59B1B765B3E3F73E3F73DEA93875004D2AFFE3CDE9493B87A9904DD052028949041A91DC0E1BA47BA714343FD5B25E0
311
A6A09503AFC17C790058A836A324FE31D7893512E28230332F153181C1E018E1124EBE1BA262AA428A518237D1EA7275E48C5C561BD19ED6912EDD8367DA0F31E40EEAE9683DA9257525AEA7B632B97119E17145A90231768A4F3B9120FF32E8319B015E3CBE26F1A754177D8185345817C096B0CE443A955D13AC15E1FB5D
311
EEA0239EC32A3C92241A237B0B02FFCB4F93CF2B02570C8D192E2F2A68CEEB42F12E6F8CEEFF46C251E22B4341C56FB08CCE550E7A9D6F4D6564B9EA52A83D5BF2C6E03FA19D2775E15A8A7ACF30A13C259EE7F5EF2AC3BA354F1500E1A07FC63FB4686E2F12EC69719F9ECF5FE3F35598DF2CE944008CE78F0911BA5BE5D0
311
A34E0098FF038669C26030BA9B300303039852A8F6F496341737CA7E0D2E3AAA36DE0A70AA7D9CA0D54D9AD84B18A44C9E625475E1C97B93BEBB38DCE7D227E67A2D00F531436136355F243D1FC0D712C5765754FA22FCFFAE97919161F46D6E61ACB37D83777B385889770B50765B127768443A5C4D3A4E35A3151111F146
311
B7CA116F918A049F1C272F2CD7976C69A0068773451659A97E0F4A08FE604C3FF6CE7385DB19F4D3ABC8A0D80DA8A42096AC377DB49382B36E270B6FA7570188B4B7D1DDDDA82ACA487CCA5D38BD3BD039ADBAFA4ACFF27809239B722081E2EB9F145320553D183F28471C388BC8814E5045676767AB58A8E72D1CED2CA731
311
379515D2E533E4CF0B39DFC625F97AC4836831A4DE330E87A8126FA17EBE583D614E71E22A8DBF2825599743E0640037303E8E1B1E8EA4E1ABFA4F62907B5E4E0E5DCFDAB417C36C6848A2B8D15F1E505434C0707E16B1CFC2A1C36A42BBF55734F8F4301DDC2A5110CEE8C0747F69519265012A2174BF4E955ECD4FDE095A
311
3ABC70536B7AD0B9D7892F81287D667C108703C9B66A221E9A0929D030008F77FF6F5D2108EF5706FC87A3069B976F7C9FC3239D13D283CDEA83597461079FEEE049B0F392889898B7D87D31F8D60ED7B56B91823A8E4EDDB36C6172ECEE42BD42B12CD67994FA0F0DFAE9389356F4CD4425A4B8AA55CBF7ECD585C6A2C231
311
6791E43D5C06841ADBB226A87FD61515FFBB0167B74E56BD7F3E90A57A97FEDCBDF483A0D6699A8C0849CAEB4947FAA90D8E332D9DEBD9F4738C37DA0CAF9CF3DAA68BCB67C420459C7A64498D6E848E5CADE92BB6901F607AA331104A67F7CD650EE169B1DAE94D2C31C2F993632259B6957E246EFE4C5481107B07118607
311
700040E5812A2A2A38DA0076875258C753F60E0F2662C748EDD5F3F3686B8FC3BD6FE631ECCAA1E8B1C1E565AD117E54893E79F4672E32F9E46B2A183DFDCF3EECB4D4D077DBEA0DA254D256045109670050129E9B9B1A9E4A11344D61497A992778095151510C4BB7EF2009B63AA4360635312E4CF668B7E0D3D85A8688E2
311
BD83B569439892ADB63461930D428E0DE42E4AC57CE48DA5CC1449530D8BD3D6A0F08DF20C8E8F570F2CFFFCEA286E30969B4654D498A58D9DA782E19FE3F002181838925592C4A1EF0B332D88B61A92C644547BED490D3A42CFFAB70E36D961F694F6307F72FF15A1C79D5B1B5CEFD353D9E2B52566DEC8F8F09CB3E8359C
311
0F68EBBB7898243E34E12A015B2685AB303C04D3A9E00671FF3DFF0A184E4A2ABEB2B666AF5B3A209C73D8EF29DCDB069C9F391EEE9DD0F74C7BCDE16F8F02E3B8816122BBEB50665775B600549D8BB33A54A6BF940C028118BC6878C79958D6784F9DEAA6E26748386FFAF8D0D0101E2847B6563F5D8DC1D78F787BE00E2C
311
941AE12148D4A81599FE8F68D4DA5CDED75530ADE138240300EE13B0FC13A1687FED6774662C05A2B7DFB186732F0D7A93545D8B0A6390AE5054D9CB582DA846D7A061B3358B45E2B52DDE63E114397EDB7E09233A579155D795BE76102CF277F4DF8B188C4F2879BEAE3C08347124BF9ED23B128259FE107D31E34A652F09
311
0B30B39E0D9AF917B76A2806135621A8A60681F16AF216514BBD02711585B5B1AE823F4B2D0369EA5B6BCB863072727FFC871CA6C9AB79A814D989057E9470A3D238BC87CBB4A0EA49AFE2B86F22E499793CAA9047080450166BDC357524561E258C77CB697F1ABB32562CF87C3B7AA12F911EF19FB3E5C02222E887D08202
311
A60A17151F5E053A86B437771088B4FEE14D652C43E8D939995D34545E12E2FF93D4E366EAD25F10CB7DED141563C3D0C447AF06078A91135FD4B9611583CB4BF3BD167F2399CEAB0E0100F8FFC305F00F1711717173138B4B48C83022295DE657EFEDD97F238ECA80F528AFB4F8D67AD4E2594B9A3AA86D7487EFC313BA95
311
745C186F0CDD84CC12DC9CB0424B42203D351FD9C0A3AF10CC7F388E0329279087386421F194F4A29464C1DEF7EF8BE515E4A199DCD5B909342598D8FE6A231F71336248D5CEC5454455C7BE383B3BC7B260FED27F703FDC39A170F3827239102F59D4DEE7FEF82EAA1A5E4BA94DCC4CC44E7E2EDE20F24244E4454369D2E8
311
7C3F823F193FD4FD27E1C23984B01898D15ABC20711A8A558054951A6AE280096BA36CBA439603B7B0B4C45F248C14B2383B4B5CD8ECECE4FF859AD4A6CA2326D020EF090F4041D28DB66E5256B56232CC52829DE8060BAE6BBF37D4B7469B822454FE93210A3E8D15E69FFCF01123222611C51C4FD0A041A0CFA2471CF6BE
311
38D2B20FA4C3525B5B8B586759475CF80ADFE67A284AC24651E52B8E683D24C2622642F27E7C3C22783BCF63648BC398BD6CD0D9C97E7E7E3EACB6126DB7A6C1FD9F1031302EE67ED96F22B77C7CA0239BB324207559B105E4693EB26EC46182A92C9C0DBD24F29B31C5C5AC1F84300E0E17CEEAC15F5736FA4A98971E2F14
311
23BFCD68D4BBD5F86E74B40A369F39507C88FCDB35D2DD8DEBEA4AF999E23CF2816D204200DF6E611781B9884C1AC8888B4DE397320472959434323A5A36B22A8E1F721A270DF3BD65E4A31C11FF048AFB0D8B7B6881423793963A23CFCE935FC189ED36FAE35C46DA3574C979E4394BE52084F3081837BE033396D2EBD80F
311
1F691B273F660D2B32FA27A33B1DE4ADA5F0FA4651511102DFA410DDA86E065272CA314D5249DF91B06BB92807B28EFD54F08F7B525252782CD276DD02E6B0319B13DF87B1F6361AD6B28FC0D711CF445429B9E5A433CD493051C49A9E03DDB1B147D880253514A5DED88009018620EE229101C041950E2D8AA8E1F5F5438E
311
0C0C0C60EEDEE9E3E0C051948C69F84BB7B2A48A1F3C8EB9E6864687F4F4F6F6E2FA87608ADAF9C5E117B7C1A737E710769DA1D15ECE6A84502AA855398712D5FB51BE92E4EF824969CE18278798AC303C2C7980DD2500ADF8FB1E6D6C2FAAFF9987178923334A244758BAA01A9A1B70FA5097D01E1CC2A58DAD0EC94CE643
311
0AA9B0C10D75E3C6BAC670EFBADEE1607739CE0FC18A2587E3EC3058562014C64219C69BC269082D5C2F4A659278D585755912176D78A1B641719C2A394CED495A1AC5D583FD2F5EDD93308EA7EAE8A6DD396598BDBD3D4CFED62D18A5BDFDE0DD5C80D1A89BA62697B131AE7CE9A6594138582F1B37D68F1749AC7CB67A70
311
695D48A4A056AC1FBD4E82358CEAE38F54B95A9016F9000F9879C0D9D131768635CA798895F27D6F1614F11F2838A83611AA51C9A3DDB539D42979C29F10465655C17BEC3E2760B80DCBF609198C7B171A531905F3EC218D696025975E986C6B4C666666787271F202805577DD5A3EF0CAFAF91B62DC4B2DB4217A7606282F
311
31D8DDBC290593BAA93EA6353AFA9939B877978481E15CFC9F2755CDC00C538F63A4BA3E80AE009B73CA0185687D339A507D165B74290D6EE46D5C58148F020C3668ABE9EF2F7549170DC80DB41FFC1D678FF19AEB10C7133832B104B80F691B3138F97A92D26E551F1F110400D45AC71A9B9AC41A1A1B1DAEED0B0810638E
311
FFB511D46B121C6FEA0F38CD00E03CFFEB9713FE1F9C263E4DDEC160D0497FA9A132BA608584057FB15380825DE6C7FC3C667EE947D488A09898D8E939C4953BF4EC9836344D2CC6B2971B2A21A572B06096F4982D2CC7232D46E8EA69DC83722E267754D777F97F96D5DA74E1E75178084D0E70F12AD33E5F71EF2AFA599B
311
2BEBF60A5BE475F444F240CBFE8143C334E7ED9150FEEFEF7EB020C4DBED388DD1D6A167A76F3CBF119B578AE8CFA7736ACAFA4440A1C47185638A0D2F3EB5BDDEFDA958FB13CE4AA4923D5BF840392D45544329525749734866684BF7F8D9D54D892E19BCA9F829A0F8BFCBEEA6CFDFC61D74EA1A645ED7A1FF241739F156
311
94BD835B66FEC5677E40FE69BD3F91AE402F036537218A401CB0828604AD189E575015C6F3F6BBC8AC79CF6C70653847254B31551EFCBEB5978B9DB85D58D0FA41A9DFE9C624834AA04949D24B5AE6D299E072D152D12097920F14AA92C31C3B97E28B6C2E6E9C23D63043ECBBC0A60FDF5BD0C33C127EA8A3308B8B6AFFEB
311
28B4455BF6E7AF4FC6222728357EB8E46E85053E6A8843AB23295BF838ABDA94658FEF3F832F147046B4ACD6F7D48E8FCC9618582961C898D1C7A253C91BFECBDA6BA18A1FCF70755DCCEE2222F41B76D23CA98D0CB3D95F0CF66D57FFF65E2A90F5DF40FC3187621E981BD0BC1D992787212688976B94A8F0C6EF646624B5
311
70B78E068826F87CE27041A95C9A4871FF65CC17FCB1639629AD6A9517000D63AC231F3D741CB8430777E7ECF80CE7A3F73C0F162F7E56AA71F4DA80A33CD6ACEE78E2C11FAC03DAFCE929B106F8F6B3ED2DC71FF994BD9CEF4E9A94896EF1B6E2B7B4978168BCF0847A3D2A4F1B0500B926E634B174548E9FBAD27153FB5F
311
C36799B1E6C7C38A94E1F9E996796D7B485E635D5287A2AE76FBD11A341DB3F8F810385BB7296391973DC6C37C452A9305AEBBE0CDB6C566DB59FE60C8E94B1FD090354BF51439FFD1B48D725228FFA88C84F686F547107A7A235665A4593B7C34D748C1AC8D56DD5DA861EEFBADDECBBD65117E65851F90351AEB65F0EFCF
311
F4BCFEF24CB7A5879699FAC437A7AF9099186CF006BB923A59E37D7A36A29FD8D2CBB914A5E9D0A8FD212FBF796AE9A67958FF1D5D8B85F78F96219D4714EB919929241B6C018AAE0C02069F8D919961EC5DDFBFB7573E3AC8E08BFB7C8534BE6DE045B3CD63DBD71F7638BA2309CAE398EA3A7D8F98BBBC7AEB367EFA5CFA
311
27A9F8F2F52FE878058E6209C026453F8E7E8A237DFC389E9590F6059B397CFD65183BBF936E86896612A5B5FEE49DAC8455D026218AFEBEC12B3523A45B57B82C9C97E02ACFA1184DB18E48CF615DBF39C3CC6F0B4AE6BBEEA2E39D944E290302FA3DE33FA7E40296E2EF7BF1CD855BBECFAD0FD622BEE9746FC4FDFDE545
311
AE6E3BC234CADF83A0FB76DFB145BF3828AE3436368AC24989454F8FF70A177672C711CAA1A76107218CF948CA01F873520E7A2B118EBB161ABAD432932029628B6761590C98AB590C8C8C79798CE9F715BA696E839E9131A4BB68BE923F1747FBFF165331FFDD4D05997ACD168F12CA75348DAC04C7F509FE83898A8B4211
311
81AF492861CE81E4A2DD0A30850CFA95E05F097FF70F9E777310D584A75BA7018922E271DAB1D785671157685B7D383D3E074DDB4F1E44EF04B07BAAC75A062077C54B9752C738C9D804D402E02851F3F89605AF189738C18C021D2139EAF72513824E10DDD3047BACC8521ED7E98B257D1166903B1B08FA6F918FD7E16291
311
3FEC7D0EF4787E29C35FBA8C6E2C9C20E9AB30AE42CA2A01A090E7D010C1B5BF9CEE2A304BF3A987FB40D836979B79E18D70F257DA61E808472DD85B82761825779D6B90CAEB0F23360C6F80A7D7D77545E95B3DFF0CF96A827F9B5BCECD2C9698718417EF80FEEDEE938AFF55859D0D540B7FE09435583A6F04874A0C7E8C
311
F234DF4879722000167F5872CEC6BF3EF7E5A8CC8121E6A359227C8A29C95212F9F735BC72A887D56B8F309FC525BFB4FD767AAEC4AEFF249CFBBD2DE1AB9969A6155C7D8DABC307E47324C1F916C7BCFF40ABA5644E9FFB9238D19ADADA49D9610F01ABBA57E4DFCBDCCBB2B93C8953206C91DE01B0E2651A6D6C31721915
311
B31F7B7CBCE55466F6D70402788FA91D73BE4ADCBA99A35F17D6B83383704917D6833F0FA3CD45C926ADB8BC17999A4A0AFBCE2541F7B8CF4C2F5FBA611B3E626D64407CB32C122DFF4EF8674D6EDBB86C8F7C6A16D50FA685E2CCA34F8F7D1D8265BB0042E9D7F1F666F7BE5FAA5184DF58E12122A42EF02F461B3F369AC7
311
46F96528AD208512AB56844CF75B97F352DF7995024FB02855385854F3798670D01CAC771AC3E1889EC25F61A20C1F8CAB46898817F9C47E2CDA1F286BF2F358298709FE567C91133E2638C8B53975E753EA8BFD3578B5F7186B7BF084EBA3F77BAC3132A5779902EC22AF2D2E79F42D324E083386DAEE9810D1B44A5DAA54
311
513C7A71E52A4AB9257D975B621308FE4D2141CC3DCFE946C154A3C1DFCCA7629EC69ACFA831634ADDA93C0388D2A9A2DDAFCF957C6995BCE7FBB6DC4EBAE79E63EB08E9A25F52F67076F7093CA545CA3053B5BF576DEAD4E0017143C5F759F32B2D6F145B52B67B48909B7C7FCA6586EE385A2189C16932CB6DDFD9152AE3
311
17C430492A578ED27B72D85D40C7C93C097939E1B50F4D67F05334FE9DC362C30B7FF561B95259138ECFD9274C8D695C31B14D4EAA9F3D7FA8DDF652F8C5DEFA23284C799B7D94416DEE81E05A866302DC70192A5368EA65E1CED8BF107A1E2D3119A71E85DC1A7B0C1E93274CE04DD0F2ABC8AC7C987FDB002B6F81757B43
311
502EF7A0D92E416494FAEEA4C9C090CD9557AA4D532F4996A272B94355C5A0E4974EEA9627476F30809B94D8D8D860062E02204643BEC7D0438AF800FC7E2B26955D595421E83C69E1A07E0E3122285835F014AD538188CF9737CE76D464A353FA55A001AB2526B84E985083693BC76FE211CA1D000679C889E3C009832C87
311
E1AC2EDD05C302557422DF0800E316FCAC86978A371F025A6C7DAA9F333E7BD160403A1A06EA75AA9888FF01504B03041400060808007B57B24A28BB58AF800100009E0500003D00000036353343394331412D434231392D343334302D423638372D3435453434363637313239362F536368656D61732F436F6D6D6F6E5363
311
68656D612E786D6CBD544D4FC23018BEFB2B96DE15493C78601010A34B880709DEDFB52FD0D8B54BD70DF6EFED3AC0B12E6442E2716BFB3CEFF3D18E26FB440405EA8C2B1992E1C323095052C5B8DC842437EBFB673219DF8DA659866649B798C078B48AE6410122242F2A4994AC7F93815DF85C049C8564CA0A901499DD88
311
6B2EB9B1E02448F358701A9235880C49A0119892A20C89D1B9FD768815CAD268CB5E0355B40B1E47F3E37A2020464BED06AA57CE8FCC20C3C3446D46761A2632A8C1283D07031EFF2AE7CCB1BFEEE916E406DFAC8E36FFD99A9D60A6944090EEDC3B670C7DC13DE86B6B2C5C240D6E503BB85ACD579D513F1B9F9A69DC9CC2
311
2AFA80C426D40AF0B21EA168559156B6276F0F726A6BFF04DCD513A87A62CAD41FB24FCB2858B3952E3D852084DA25B9303C15687973CC8E8AAE11DF2836C38C6A9E765E8C1BA1BFB1DC29CDFE518C8B5A7655A4ED7E77291ABEB80DBD82EC866ADE1B8D05AF9E35CF09D7A061F38A986D9EC412B8F0F65E5D81534D9B231D
311
1E5A8FE577A241F3A5FD01504B03041400060808007B57B24A2CCEBD668A040000E01200003E00000036353343394331412D434231392D343334302D423638372D3435453434363637313239362F536368656D61732F47656E65726963536368656D612E786D6CD5586D6FDB380CFE7EBF42F0F7A649B70E1B90744856B497
311
0F450FCD7A5F05459613EDE4174872DADCAF3F522F8ED3B88D2F1D06AC4050DBA2493EE4438AF2F8EB73AEC8466823CB62928C06C384888297A92C5693A4B6D9D9E7E4EBD51FE3A931C22EF85AE4EC6AFC38BF261BA626C9AD288496DC3F4FCEAFC63366845F7A10452AF41DB320C0D44EC26EAB2091873556558269567081
311
1A6A49643A49A6E9069FA4604A64B29016DC4B48552F95E4932463CA888468C1D2B250DB4962750DF7CE273069CE8363F1FF4EDB00E0A21999574AE4A2B00C353B93F3BD4777B8A61ED8F604ABFEDD79CE56A2B7BDFBDBC50996E0ADDE16FED26223C5D30956C29BDF4A55EA686E5E58B112DA45CE67F76F4FA27EFA3FB672
311
FD7372FC388FAECDCA5209E693CAD167BADCD272F943701B3812F8A3D852008B1D2E32DB927B2F833C6EA95879925356D254582695095A3CE982924720BE5774A3CB9CDCDB350427D2DF20DA1B5532EBE2D5D6288D75D4F7E4FD9890A0EF8E3D93EBB8F8BA4758158EF6FB90A6F9520281C93DE7AAC6D24607DA296BB96018
311
123F821A7D6A5C5884050C475DA4865442732C8B95684A50165CBB3A32F25F783A4A480ED59AD7F924B968AEA50131F46303223E6A397B0E52976030DC1DCA81D7E7C1EDEEA42C19FF27635C505E2BD5198A599020DF50A2330FCB3AAF28CB0124108429553EF1B228802E2265D8F7CC2401042B155BCC7070F1E5C55F13B4
311
A9577362CCCE46C32174E010C3C378C44841A4BDA00FE3A12006CE11EE6AEC59894D3526DDE1CD59D503ECC324017F8061B7F162162FA62EDD81AE3308617770796DCBDAD2B2625C5AE8A63DE20B2C8AA5E95E76E5730823955956E33E705425A2187C185D36489A1B44D3DCEC2172F6BA2105C3546287A7194B2331768EBB
311
E64F6E70A9930ABE0ADEA89E9E2C38523B810287AD67A54A039C1606EAFE68F8304610BB9093DBDDABC0B2AE4E290DCDA15376D7E39F72B556F0B32EAB5D3D498B4C41ABADEC3A1434C422D87E8025A84BDCB2B1417ED750FAE4DA8976863974C577C7F902D3F156AD354DEA3540DE6BEAE2BEA52F7A2EB4CA43802ECE5BF2
311
CE2EDC9347179FFB023CE412E60BE16DA0BE29B374988A553F561DC04615DD35F7D2C8979F60E5955CE93DF29DED8AFA1EE6642D53418086C03C47C377910F75F7E8F5EF665F70B60FFB22AEDF897D119E8423C773E819A3C1E55E550599EE6EDCA34D0C86FD72057DF2CD46F16A470682471C164E4346D5306BF12D7D12D8
311
2CFF673D41636C347443FEB51B50D72EA171A8E4A58623A4A16E0FA2B8B10A0D23268D87C33896EE8FB73305A74BF224EDBADFA0BD674AB354D63DB7BD5D83426761C077DE767728235446A552754EB93B755891C3C4CC6CADE37CF0E912A7BB38DBA010F9DE1282EDF470CA69A9CDA482E334C4A6EA4107987980B17E72F3
311
1730EBF88BBD39E7C629F56797A3C0009C2C5AE7951D9A05A02773440F02EEB4DE396A3B6A570C72CCFBCD823B0B8ED3F1D5CEDDFED772FA70236C83FB7D86C385D570B87107535572A60A96035F8F7C6A7192F13007246BBE0521855E6AC46F3E27689CEE7D186A6FD679D98CDCAD13333E04EBE7ED6F55FF01504B030414
311
00060808007B57B24A6180134D5F0100006B0300004500000036353343394331412D434231392D343334302D423638372D3435453434363637313239362F536368656D61732F52656E6465724D6174657269616C536368656D612E786D6CA5934D6FC2300C86EFFB1551EEE343DBA41D1A103009551ADAD40EAE28A4A68D94
311
26284961FCFBE5A340113B2071746D3F765EBF4DC6BFB5407BD0862B49F0B037C0082453059725C18DDD3EBFE3F1E829991803366715D474942CD30FB4A782E00C64017A412D684E454CE3FE28995203B162A6EA5AC94B66997D225E109CD63B0135484BAD1B3C07E9080CA35DB3119C11BCA5C200461A68A1A438126C75E3
311
E230D40FF81FB3F03C91D1E3A3A0AF79FE28E25BC39EC3E17E4C2A2D94A0833A51AF55BCCA7D88572FCBAC529C4140B020FC3AAFA886621DCED7EAD7664CC86024E806DC297DA1BB393E4156543457A4537DB8817349A70F8ACBF09B3EEE2CB2F33E91B65D60786E4E3B39B77E3FEEEF5650424525DA657FB8B46BE6BF0646
311
46F0A0F7327C0BC1BC1B4CBBC1C419FA3CCB23500007872A2580CAAE5461865565294E4EDB4617B62FF579DF9A5B2F54E834076A597573A020912FED777F9B3F504B03041400060808007B57B24AE175255051000000570000004700000036353343394331412D434231392D343334302D423638372D343545343436363731
311
3239362F4173736574446174612F41737365745461626C654F66436F6E74656E74732E62696E5361606030767276753571B3D435763677D535317131D6B5303432D67534313470317273363074B21402AACB4D2C492DCA4CCC492C28484D2C4ACC4B4E050A82012F90744FCD03CA26072767A4E6260200504B030414000608
311
08007B57B24AF865834058000000680000004500000036353343394331412D434231392D343334302D423638372D3435453434363637313239362F4173736574446174612F53747265616D56657273696F6E5461626C652E696E66558CBD0A80300C06F73E4B117FB66E451741D041DC5BF98480A492E4FDD18EAEC7DD4555
311
D89EF28DF51A0B1BD8340C4DE7DD848B988C0ACF0649566493F2408C508DDEBB99D5129FF8F1AF8CF5B9503E20FAE5A16B5AF702504B03041400060808007B57B24A312781AE350100009A0400003600000036353343394331412D434231392D343334302D423638372D3435453434363637313239362F4173736574446174
311
612F636E782E786D6CCD94314FC3301085FF4AE43D765251512AC71582A51348540C6C57E752AC3A76645F10FC7BEC3403A888A943D7F3BBF3F327BF939BCFDE161F18A2F1AE6135AF58814EFBD6B843C346EACA152B364A06EFE9878C150E7A6C582E33250FC18FC35C6AB183D1E6AA35EE3817EF6344DAC1DEE253F7E01D
311
A1A3C80A6D21C68645FD8E3D7018C9B7188FBC05025EF380D18F41639A44A6C779920E08842D538BAABE2DAB6559AF7675B55EDEAD97376F5264A5927BEFEDAC37E9B2E087429F6E65AA92221F2B3906336BF25B98FACB23DF1B2745522A1929242673077D0DA90386C11A0D94D009AF09A94C22845E8A9358499119FC22F1
311
889D7126B76C9331201F9E933D0C64F0EA88FCE7F5F264B62E12388DD7CBE3DCE1E529BC4C3FE8F514C82931D796937387DCB8EE022911D31A49A1C95B457D03504B03041400060808007B57B24A1B3DCBDCE40000005E0100006700000036353343394331412D434231392D343334302D423638372D343545343436363731
311
3239362F5265736F75726365732F33424345453446392D334337452D343444332D383132332D4134313044324643303142392F7468756D626E61696C2F302F636E782E786D6C4D90C16EC4200C447F05714F48568DBA5D11F6277AEAA5728937454B300253B57F5F6839ECC9D6CC93E5197DFD3EBCF8C2941D8555CEE32405
311
064B9B0BFB2A0BDF86B31457A313113F6052043870954D9646EF894AECD2863728BEA9DE857B17770C989C7D8F6197C27AC87995D97EE2012314A60DF37DDC80619CC784994AB2580FB03BB01FB009817193E634CDCFC3B40CF3F9759E2ECBCB65797AD3AA91467F10F9CEBBC098280A4B7509F59B49AB661B5D92EB4C8B20
311
CDC36B5A55D3E8CCA9A6EF10FFC40A418CDE59E05A9222CBC84385100EADFE61A3554B5BC75F1575B666CC2F504B03041400060808007B57B24AA233C2345D000000800000006500000036353343394331412D434231392D343334302D423638372D3435453434363637313239362F5265736F75726365732F334243454534
311
46392D334337452D343444332D383132332D4134313044324643303142392F7468756D626E61696C2F636E782E786D6C4D8B490E80201004BF42E6EE76F3C0F216234B883063108CCF170C074F95AE5473F5C4C06E932E4F28601967600677D21E9D8092EDB002539227A2FCCB80E1168D80A6417297A89C5D6963B7129A0D
311
1E8F2EE73AA7B62BBEB8B27DE50B504B03041400060808007B57B24ABE89762363000000880000005B00000036353343394331412D434231392D343334302D423638372D3435453434363637313239362F5265736F75726365732F33424345453446392D334337452D343444332D383132332D413431304432464330314239
311
2F636E782E786D6C4DCC3B0E80201004D0AB90EDFD75167CCE820A4A845D83603CBE602CAC26799919AEEEE0D965E2E908050C6D0FCCE04C8BC355404EB6198129C92351FAD580A10E464065907C8D948F8F166375F655BDC3FDC3B4E530A176BE7057BDC43B2A593FE403504B03041400060808007B57B24A80C3FAB37E00
311
0000A30000003600000036353343394331412D434231392D343334302D423638372D3435453434363637313239362F5265736F75726365732F636E782E786D6C4D8CD10A832018465F45FE7B374D61056A2CB3F78865212B0D97638F3F1D5DECEA83C3778E683FDB8ADE36BE5CF012E88500B2FE1126E71709E998710DA855
311
228670FCDD00F971B3120A06259618D27EA2C9CE635A0B5D9D7F9E9075DA183E3498E99BC19CF70CD7B462F8CE29E9AB4113DA35D9B81625CFAF97B7E4D517504B03041400060808007B57B24A103AB6E4090100004F0300003400000036353343394331412D434231392D343334302D423638372D34354534343636373132
311
39362F536368656D61732F636E782E786D6CCD93BD4E042114855F65423F30639CB86E18B6B0B0B2512B3B84BBBB64813BE1C7E8DB0B23C56E62A7C57670F842CE395CF8EED3D9EE034234E86732D28174E0156AE30F33C969DF6F48B7133C20A6338C745E3A98499589E0878079699286BDCCB6AAD6F853131FD039F42FEA
311
084E924E5919E34CE2BAA53227D4104F54CB24E9480344CC4141B9211907ED06154026D044DC0CE35D3F4CFDB8791D87ED74BF9D6EDF38ABA4E0EF88B6F1C62708B8740ACBC2173B0367F558F01C4C636A0622CEBDD1D2066785103CA6503A6864FA5A0A2997C51A2553A98AADE00F2338AB512F023F828760D47526BE30F7
311
6F919FC16B084FE5958291F63A93FFE6F16F05B075F6CB08D4AF20BE01504B03041400060808007B57B24AE3603EBE7A000000C20000002C00000036353343394331412D434231392D343334302D423638372D3435453434363637313239362F636E782E786D6C6DCD410EC2201085E1AB90D9DBEACE05D09878023D01A1D3
311
4A8419C380F1F82DA68B9AB8FDFEC93C3D7C52546FCC12980C9CBA232824CF63A0D9402DD3E10C6AB03A3397DD192872090D3406ABE7CCF5B5D18893ABB1690CF4DCF02282E5EA8A5BB96FFE536F285CB347F95BEFFE81C9ED5AFF9D5B1FB575BB00504B03041400060808007B57B24AEDC29EC37E000000A3000000070000
311
00636E782E786D6C4D8CD10A832018465F45FE7BB75C66096A2CE9416259C84C87CBB1C79F4617BBFAE0F09D23FAEFE6D0C7C4B70D5E02B954808C7F84D9FA5542DA17DC01EA958821EC7F37407EDA8C848241893586F43AD16C9629B9429DF5CF13B2A6D65C933BD603E198D6B4C203EB5A4C9B9152C65A72E32C1BD7A2E4
311
397A794B5EFD00504B03041400060808007B57B24ACA1DF9C9A900000073010000130000005B436F6E74656E745F54797065735D2E786D6CA590410EC2300C04BF12E5DEBA70400835E500FC800F84E0B411AD13252E2ABF27A55740421CEDDDD9B55CEFA7A117778CC979527255565220197F75D42A39B22DB652EC9BFAFC
311
089844F65252B2630E3B80643A1C742A7D40CA8AF571D09CC7D842D0E6A65B8475556DC07862242E78CE904D7D44ABC79EC569CAEBA537E3521C16DF5CA5A40EA17746733E0B6615DE7217475F386F18B9481C510F1F021CD9FF027EA0E1F5C4E609504B03041400060808007B57B24A3DEE336E64000000790000001B0000
311
006175746F6465736B2D64657369676E2D7061636B6167652E786D6C35CBC10E83200C00D05F21DCA56CA76D41FC96062B120735B69A7DBE268BB7777961F8D5AF396893C2ADB70FE7ADA196782C2DF776D7A97B5933C430F15651E5469C55D70F80A4992A3ADC954792C525AE70A1E4D6AD9816CC044FEFDF01FE3FDE9078
311
02504B03041400060808007B57B24A5DC79EE9F8000000960100003700000036353343394331412D434231392D343334302D423638372D3435453434363637313239362F4173736574446174612F636F72652E786D6C8550CB6EC32010FC156BEFD8E08782234CE4A8CD17F4D41B02E2A2C460F1A8FAF985C495DA534FBB9A
311
9D99DD1D76FA5AEFD5A7F6C1383B01A93154DA4AA78C5D2648F18A285427CEBC73F1170D2A2B563D418181B3C5BBB4ED9074366A5B50EB94DE4111828E50C97B6E2608F243AFA216296646B8D59B9037B1E89AD44F1E672919B54B8DCA6EE66AB4077E69E7F6759E3B7438930EF51D1DD038F4149D7137F623BD60DAB7AC29
311
62CEA2597FB64BAF45D40A788BC901E10111FA46F071188F43FFCE9AC2E42C449F7FDE9796EF80CFE5EA1711056B9ED33FAE6953FFBB266363D7EEAE4F45004EF2918F01674D4929974784B99644F937504B03041400060808007B57B24A5D98CEDDF30000008E0100006800000036353343394331412D434231392D343334
311
302D423638372D3435453434363637313239362F5265736F75726365732F33424345453446392D334337452D343444332D383132332D4134313044324643303142392F7468756D626E61696C2F302F636F72652E786D6C8550CB6EC32010FC156BEFD8E08782234CE448CD17F4D41B0292A0C460F1A8FAF985D895DA534FBB
311
9A9D99DD1D76FA5A9ED5A7F6C1383B01A93154DA4AA78CBD4D90E21551A84E9C79E7E22F1A54562C7A8202036737EFD2BA43D2D9A86D41AD537A0745083A42259FB99920C8BB5E442D52CC8CF0A857211FE2A66B526F3CCE52326A971A95DDCCD5680FFCD2CEEDDB3C77E870261DEA3B3AA071E8293AE36EEC477AC1B46F59
311
53C49C45B3FC6C975E8BA815F0169303C20322F49DE0E3301E87FE833585C959883EFFBC2F2DDF01C7ACD9D03F6E6955FFBB256363D7EE6E9B220027F9B8D780B3A6A493CB2BBA5C4B92FC1B504B03041400060808007B57B24A3D09AFEBFA000000960100006600000036353343394331412D434231392D343334302D4236
311
38372D3435453434363637313239362F5265736F75726365732F33424345453446392D334337452D343444332D383132332D4134313044324643303142392F7468756D626E61696C2F636F72652E786D6C8550CB6EC32010FC156BEFD8E08782234CE448CD17F4D41BC5C441B1C1E211F5F30B892BB5A79E76353B33BB3BEC
311
F4B52EC54339AFAD198094180A65A49DB4990788E18A281427CE9CB5E1170D0A235635408681B3D9D9B8ED90B4262893516327B583C27B15A0904B6A06F0F2A656518A1812C3DFCB4DC8BB985549CA178FB318F5B44BF594DCF4552B07FC528FF5DB3836E870260D6A1BDAA1BE6B293AE3A66F7B7AC1B4AD5995C59C05BDFE
311
6C974E89A026E0352607843B44E83BC1C7AE3F76ED07AB3293331F5CFA795F9ABF031E6E71FD34422FAC7A4DFFB8C66DFADF356A139A7A777D293C70928E7C0E38AB724AA93C234C3527CABF01504B03041400060808007B57B24AD62A6C7E0D010000B10100005C00000036353343394331412D434231392D343334302D42
311
3638372D3435453434363637313239362F5265736F75726365732F33424345453446392D334337452D343444332D383132332D4134313044324643303142392F636F72652E786D6C85904D6EC3201484AF62B1C7E6CF0A8E30919DD827E8AA3B6413172586C840D5E31712576A575D3D34CCF0F1469CBED67BF1A9376F9C6D
311
012E1128B49DDC6CECD28218AE9083E224C5E65CF865038555AB6E41968114CBE6E26397266783B659B56ED6BBA8BCD70114D33D1D5AE0A70FBDAA52C5901CFE563ED474538B2E71F9F24911A399F7A899D36BE66AF406E4483A32741D85871E53C828AF6153330E7B441BD6F01171464495C35204B3FED0A74DABA0672009
311
C207886A88F91B46C7BA39D6EC5D54D929850F5BDA7987E6ED80A4FD7918D8D8407A3E0C90B10B851C130A3B86D1858C6784FB4654AFE01F607CCCFF03A3B181921DF84A782071FAFFF3428A2A1798C6B3DD3473D9F21B504B03041400060808007B57B24AC99BF9B4FA000000960100003700000036353343394331412D43
311
4231392D343334302D423638372D3435453434363637313239362F5265736F75726365732F636F72652E786D6C8550CB6AC33010FC15B377D9961F440EB28203CD07949E7A13F2C6158925A347E9E7574A5C684F3DED323B33BB3BFCF4B5DE8B4F745E5B33022D6B28D0283B6BB38C10C39530284E823B6BC32F1A1446AE38
311
428641F0C5D9B8ED90B226A0C9A8B133EEA0F41E0314EA9E9A11BCFAC055963286C4F0B77293EA26172C69F9E4091EA39E77A99E939BBE6A74202ECDD4BC4C534B0E67DA92AE653D19FA8E9173DD0EDDC02E35EB1A5E65B1E041AF3FDB9543197006D1D4F440EA9E50F646EB633F1CFBEE9D579929B80F2EFDBC2FCDDF8178
311
456FA353E879F59CFE718DDBFCBF6BD426B4CDEEFA547810341DF918085EE594527944986A4E547C03504B03041400060808007B57B24A9E9574D4F7000000940100003500000036353343394331412D434231392D343334302D423638372D3435453434363637313239362F536368656D61732F636F72652E786D6C8550CB
311
6EC32010FC156BEFD8E08782234CE448CD0FB4A7DE10262E4A0C168FAA9F5FB05DA93DF5B4ABD999D9DD6197AFE5597C2AE7B53503901243A18CB49336F30031DC1185E2C299B336FCA24161C4A206C83070363B1BD70392D60465326AECA40E5078AF0214F2999A01BCFC508B28450C89E11FE52AE443CCAA24E5CEE32C46
311
3D1D523D25377DD7CA01BFD563FD328E0D3A5D4983DA8676A8EF5A8AAEB8E9DB9EDE306D6B56653167412F3FDBA55322A809788DC909E10E11FA46F0B9EBCF5DFBCEAACCE4CC07977E3E96E6EF80BF6E777A56EDB33F9E719DFEF78CDA84A63E3C7785074ED289DB80B32A6794CA1660AA394FFE0D504B0304140006080800
311
7B57B24A78E5D62C00010000D70100002D00000036353343394331412D434231392D343334302D423638372D3435453434363637313239362F636F72652E786D6C9591DD4EC42010855FA5997BDAD2FF6E281BB7F10DBCF20ECB6C25BB85861FE3E34B6D8D7AA75790C377663833ECFCBEDC9337B44E193D004D7348504F46
311
2A3D0F10FC9574909C39B3C6F81F18245A2C38C0260367B335613DA4C9688F7A53B5917888C239F4904CF77819C04DAFB88854041F09774B5731DDC48C294D778E33AF962FEB64517894C08B9CB624AF09ED9E687EAAFB535D3DB36C23390B4AFBB2389AE1F2823231AB8F9180D72CDB5F2315943C1825E31FD555A105DED4
311
E5D88FF4818C17DA93AAAC727269BA9654F56355354D4B8BBE8945A29933E76D9CCC51649BC15FEDBBF157B2B0CA7F26DB1D0E38FD0E956D63E62CFBDC413CB795F00F504B03041400060808007B57B24AF164889B07010000B201000008000000636F72652E786D6C8D50CB6EC32010FC15B4776CF043B1234CE448CD17F4
311
D41B35C445B1C1021CB57F5F48A8D4DE7A5A3433BB330C3B7DAE0BBA2BE7B53503D082005266B2529B79803D5C7107E8C499B336FC9201326255032418389B9DDDB70C4DD60465126AAC541914DEAB00685AE263003F7DA85514620F51E16FC526A69B9855418BA78EB3A0D79FD5C9291194045E117AC0A4C5B47BA5E4D8F6
311
C7B67963655272B6EF5A662B2DA3BBBE6AE5805FAAB17A19C71A1FCEB4C64DDDB5B86F9B0E9F49DD377D77215D53B1322D73E6838B7FCE4762CE80BCB8275F563E29CEDEAD5DB2208692C89AE50B38616522FE84DE37F98FD0DA84BACA079F1B1E388D811E44344E0DC6F1A837CED436FF06504B010214001400060808007B
311
57B24A45AB2E32D8000000200100004F000000000000000000000000000000000036353343394331412D434231392D343334302D423638372D3435453434363637313239362F4173736574446174612F446566696E6974696F6E4974657261746F7250726F706572746965732E62696E504B010214001400060808007B57B2
311
4ADD9E587A270100003002000045000000000000000000000000004501000036353343394331412D434231392D343334302D423638372D3435453434363637313239362F4173736574446174612F496E7374616E636550726F706572746965732E62696E504B010214001400060808007B57B24A88E57597CD3F0000904100
311
006B00000000000000000000000000CF02000036353343394331412D434231392D343334302D423638372D3435453434363637313239362F5265736F75726365732F33424345453446392D334337452D343444332D383132332D4134313044324643303142392F7468756D626E61696C2F302F67656E657269635F706E6750
311
4B010214001400060808007B57B24A28BB58AF800100009E0500003D000000000000000000000000002543000036353343394331412D434231392D343334302D423638372D3435453434363637313239362F536368656D61732F436F6D6D6F6E536368656D612E786D6C504B010214001400060808007B57B24A2CCEBD668A
311
040000E01200003E000000000000000000000000000045000036353343394331412D434231392D343334302D423638372D3435453434363637313239362F536368656D61732F47656E65726963536368656D612E786D6C504B010214001400060808007B57B24A6180134D5F0100006B030000450000000000000000000000
311
0000E649000036353343394331412D434231392D343334302D423638372D3435453434363637313239362F536368656D61732F52656E6465724D6174657269616C536368656D612E786D6C504B010214001400060808007B57B24AE175255051000000570000004700000000000000000000000000A84B0000363533433943
311
31412D434231392D343334302D423638372D3435453434363637313239362F4173736574446174612F41737365745461626C654F66436F6E74656E74732E62696E504B010214001400060808007B57B24AF8658340580000006800000045000000000000000000000000005E4C000036353343394331412D434231392D3433
311
34302D423638372D3435453434363637313239362F4173736574446174612F53747265616D56657273696F6E5461626C652E696E66504B010214001400060808007B57B24A312781AE350100009A0400003600000000000000000000000000194D000036353343394331412D434231392D343334302D423638372D34354534
311
34363637313239362F4173736574446174612F636E782E786D6C504B010214001400060808007B57B24A1B3DCBDCE40000005E0100006700000000000000000000000000A24E000036353343394331412D434231392D343334302D423638372D3435453434363637313239362F5265736F75726365732F3342434545344639
311
2D334337452D343444332D383132332D4134313044324643303142392F7468756D626E61696C2F302F636E782E786D6C504B010214001400060808007B57B24AA233C2345D0000008000000065000000000000000000000000000B50000036353343394331412D434231392D343334302D423638372D343545343436363731
311
3239362F5265736F75726365732F33424345453446392D334337452D343444332D383132332D4134313044324643303142392F7468756D626E61696C2F636E782E786D6C504B010214001400060808007B57B24ABE89762363000000880000005B00000000000000000000000000EB50000036353343394331412D43423139
311
2D343334302D423638372D3435453434363637313239362F5265736F75726365732F33424345453446392D334337452D343444332D383132332D4134313044324643303142392F636E782E786D6C504B010214001400060808007B57B24A80C3FAB37E000000A30000003600000000000000000000000000C7510000363533
311
43394331412D434231392D343334302D423638372D3435453434363637313239362F5265736F75726365732F636E782E786D6C504B010214001400060808007B57B24A103AB6E4090100004F03000034000000000000000000000000009952000036353343394331412D434231392D343334302D423638372D343545343436
311
3637313239362F536368656D61732F636E782E786D6C504B010214001400060808007B57B24AE3603EBE7A000000C20000002C00000000000000000000000000F453000036353343394331412D434231392D343334302D423638372D3435453434363637313239362F636E782E786D6C504B010214001400060808007B57B2
311
4AEDC29EC37E000000A30000000700000000000000000000000000B8540000636E782E786D6C504B010214001400060808007B57B24ACA1DF9C9A90000007301000013000000000000000000000000005B5500005B436F6E74656E745F54797065735D2E786D6C504B010214001400060808007B57B24A3DEE336E64000000
311
790000001B00000000000000000000000000355600006175746F6465736B2D64657369676E2D7061636B6167652E786D6C504B010214001400060808007B57B24A5DC79EE9F8000000960100003700000000000000000000000000D256000036353343394331412D434231392D343334302D423638372D3435453434363637
311
313239362F4173736574446174612F636F72652E786D6C504B010214001400060808007B57B24A5D98CEDDF30000008E01000068000000000000000000000000001F58000036353343394331412D434231392D343334302D423638372D3435453434363637313239362F5265736F75726365732F33424345453446392D3343
311
37452D343444332D383132332D4134313044324643303142392F7468756D626E61696C2F302F636F72652E786D6C504B010214001400060808007B57B24A3D09AFEBFA0000009601000066000000000000000000000000009859000036353343394331412D434231392D343334302D423638372D3435453434363637313239
311
362F5265736F75726365732F33424345453446392D334337452D343444332D383132332D4134313044324643303142392F7468756D626E61696C2F636F72652E786D6C504B010214001400060808007B57B24AD62A6C7E0D010000B10100005C00000000000000000000000000165B000036353343394331412D434231392D
311
343334302D423638372D3435453434363637313239362F5265736F75726365732F33424345453446392D334337452D343444332D383132332D4134313044324643303142392F636F72652E786D6C504B010214001400060808007B57B24AC99BF9B4FA0000009601000037000000000000000000000000009D5C0000363533
311
43394331412D434231392D343334302D423638372D3435453434363637313239362F5265736F75726365732F636F72652E786D6C504B010214001400060808007B57B24A9E9574D4F7000000940100003500000000000000000000000000EC5D000036353343394331412D434231392D343334302D423638372D3435453434
311
363637313239362F536368656D61732F636F72652E786D6C504B010214001400060808007B57B24A78E5D62C00010000D70100002D00000000000000000000000000365F000036353343394331412D434231392D343334302D423638372D3435453434363637313239362F636F72652E786D6C504B01021400140006080800
311
7B57B24AF164889B07010000B2010000080000000000000000000000000081600000636F72652E786D6C504B0506000000001A001A00210B0000AE6100000000
310
504B03041400060808007B57B24A000000000000000000000000370000006662782F43384643463441382D334535322D344239422D393638422D3037424442444436363636302F617474726962757465732E62696E504B03041400060808007B57B24A000000000000000000000000350000006662782F4338464346344138
310
2D334535322D344239422D393638422D3037424442444436363636302F76657274696365732E62696E504B03041400060808007B57B24AF270F1330600000004000000360000006662782F43384643463441382D334535322D344239422D393638422D3037424442444436363636302F747269616E676C65732E62696E6366
310
60600000504B03041400060808007B57B24A88E57597CD3F000090410000420000006662782F43384643463441382D334535322D344239422D393638422D3037424442444436363636302F7265736F75726365732F322F305F67656E657269632E706E67355B773CD4FF1FBF73E71C0E67EF7576C9DEF3EC995D46C6A1EC50
310
46649CBDF79E192942562825CE965D8A868C2842C8DE9FDFD1F7E7F138F7078FCF6B3F5FCFD7EBFDFEC41B196891913091804020321D6D7513FC77D8C5070EC3FFEE51B21F068154CC75D455CC028A3EA68992803810109FDDE5D5CEC5521B28A1B422BF80741695D5B529DA1C2D058AD2388BDA9F476F7C2CADC939304173
310
DBF48A452BF8A700C0C70C3D121C1AA15A5270C22E2B9E28763651F7DA0D12CE11077B2ECD0D560B5E3DE2368B1E65C5E1C87384A4CC5F2D9FB8BE39E9B77C753783A37998F5CEF1B4FEE553463245C9712270880DF339E0B882A6BA713D865F6F384C842D440934EF264F4A304F8DE4EEFA1E2BF5E2D91F5ADD9613D6E31D
310
DB33ED31DB1D7916CAF091286EA3D31B9CFECB78BB0060245B943C4C040119FF780A74DD308BA9D028678674EB5504ECF284EE814DAED07440BAF649BE4B55DA2890F4D73E2D489A59EE54FDB0A85B59F2F52C4858A02705C4815A792B0C4A996A2023ECB195073E115E3E3647F64243A8338F2000BCB58DA5692C7E7C3D41
310
3F963FEDF3CF00FBB0F831A9D51360FECA43819F527B89FA260EB63C5DA676830AA3626A3693B23F1A17A0DFFCE3EE164E31B5365EDF0C89EF64D8E38AB0BA9A1117D7C3A0EC44F44F4023095E80BA610DE336D0F99593A88BFC5306E72DF98F7FD132ED95878DF2964EA7E43071359FD83B2BDF9C6B5BDF768F0F3C0FC351
310
199526F53D9460A34511F75D1B63E488178569472C91A94497807A3FD4A390C6558F26D416365C3656DE6E769DA9D8FC73774E1709812842DD8EF96AED1960F79D21B395CDDFE6F92CB4EB962A4668C76990E2EF29798C8941D67DA50F4A5F947872460F1F6FDB794E8A29FD7AC0C0D6E0714339CE258FB17AE8535221E346
310
4A10F29A0BE5EEECEFC5675926A89F49EB14E5711894F6586DB5754EB4D5DA9C6437EBA57DB97A24F8B8A8DB295FFD73266CF57E82694DF5166DDF93573AFE9C9C5EB05F8FEF8E89E0A8917B0B3724DB7BEBB53252581EFC3E38166BA131A3A5B42FE2AD00A769BBFA4458D2DE7822F8C4F63D0B8E21B285AE13325F3410A4
310
35C648C9D91FDEB109E73CEDA7BC796961AF79175E1A3CE4C5E8B0D009B0C9E29EFD98BC8E97554E3D8D838424E270F7685226E5AC268E021EDE3522D583E8F20C0BDE2959EF5BBFEEDAB32FE9A3ED0E39F211A86AA9DEBFC68182EDED132AB8BB794442D2D7EA9F4D8BFF52BC4D55BB165124EE90A42D101E67BBBB292FFB
310
4F66DE5BF2300E44546757DA7CEF8932BFC9F92A0707953491A55C5A5ACEDABD9FA1AEA01BAC3DC5A24E22E7C47213493996EFBC369D086ED9397C9BA6C7F9855C7BD5E15BFC8C53DB3D2A4C5901A57ACD2FBDF4D1676E95338B2C2BCE65FDA4C64F5FEFDC7D9CA5AA1FCF11E193F2FDABF0F4916BF13FB916A224380E6462
310
A9815F2300DC49CC4DF8D055CEF76462F4B7A7ACA7365C2707891370BC1D0AA6203C44CCAB47084FEC057F27FFCD57F89B8B9852459798A675C66BD7CE572CAF71FF7E6D7ECF7BF62CAB7B3F1107DCD04DC55A3F9961700286141C94A4F771FEB2BCDA2DDEE0CB0BAE402FF1DB0100F8E475DFFFC074DDB4498AB7D186A765
310
4DDB1CB680D703D47CEB4E72F8CB13D86A4AA68116E26387B93FD6738779B34FEDB8E517EDF2BAF28D9BE93A1D3A164320E07D42E514725C29515FF361754213EDE06B079A2E99EB1CA82A02019EADEEB87B9AF005BD04BBCECB14AACD6B24EFBE482194A97DD32400685FF1FEF1544D1B14EFB1E7F08E6D2CD2AF52DE757F
310
35F5E62332EE88EA26417AD5C3E0E319D68F25414E6D672BD4522B278C57D18F0113921C71D96527E091F00CEB15AE23D24667369BD3CEFA10C7549D930890BA4366F4EBC55F01F746109F98ABCDD5A3EE06619C6AD78AB33E48E4C9BD21BF7478B385EC05C4F8987E2C1BFA0A60EBEDAA0AE0B015C2720ECE180FB6F2DEFB
310
EB822D96338C9B63822183BBF52FB664A7AE57003AABCE512BF77E7E31BDA2E739AC4C131657DDFE5225E900FB56CC01CDE808FA4A9C9DA16AC679656BB64796283D89812B8F91136AE18EE5EBBAF47A73BE3C153EB5D4CD491B4BFB4FE690A4CF9ABA08C0D8AA64220C438C96EA6CA80B58FE5761E697B3A292EB9FBDA502
310
FA863E49FE694ADDFFF9D62C520BDD1A22014147A0903A05B9B729F54272EF83931FEEC057BFF8C8055C279EAC5C0011804828734024F6CFA319C9CC6867C727184465CD9BB7ED386AFFD96B294A85E3802FAE47244602D8273615952B98C4F23F7EAE4463D9D638EEE374A20959E0FE519C4CFB0FBFE5DD80C2AA3F9DB961
310
D1BDE57E67C9BB47B77FDD74EE3094F5DBBE3EBC1FBDB7393F5116263009E2EFE1AF9A221B2AE234C902BF70E9F280ED23E73908361565964333A3F01D0B006AF32FB21AA1316744B489D5A198E85299241735BE559675130955C902A8ED761FC0DBE337A9F91919AF5CE32AF902ADF9AB2615E00E8A94586BA1A90839B618
310
32FF1BFB76D2EFADE6DB1BA04CCAD3DA649E7E2A0219F592E22F2AD54847EEA8E42271011E9074F8F3DD9FBA6CDF88FFC9FC7E811AD1CA8F4557CE4AFC7BBEDCF0114A48689F20A584520C74DA8127124B767E2FB91A6B186246727BE63C9445BAE02088D58B8EFDC0F1072407CD9B89A13F6303B4A928F593AD489B58E686
310
9325790ADC406036C591729FE14021F94B7796BB11848D463536A092A26F077F94639F7CEEE2A724C66EC885F4A24F8B8A0AC321F8FD149BA529460FAA34E4663C02D41FDF80BCA222D42F0ABFF8490F4FA74C673807C2051D8E467B47B616072860069A9A303ABA9B319D58404461401B0A0F9BE5E1E151C14BC33B32ABE0
310
3DDE91708DFAEB15E7C0D593C86BB7D7EC17BE56E57975F077BFD5525F3A1A361D584A75E08CF29FC7B44B2B3085014F3A5A14517377C3F6B8F37E59514C3B12F8AACDEDDA4DFC49BE5710101534CD6FB6DE15B50F11A09472AABA727F0C49D9CB906B158030065F48EB3625E010CEC1D511D0053474B11E6A4F01C0D6EF1B
310
ED3A944FDEC70E0DDCDC756C86545910E0DAE3BE3AA9A404574C2995CD5CAF9549226BC94B4F4F0F5F9086F418F6B32346464610D8BC7391D3C3A3CCF04CFC1FB2A3A3170E369511868F14EEA4E5E438CC73DB1F3248AA94B6B2FF33B222FF3D1E7BF146CAD229770158063BCE4F5391964DF62F7E52A7BE0EEA829C9E13C4
310
C147D6F93FE59E111DAB5E4594D6F3CD1AD375EE039930EFE5AF2BB2D41C83C7DABD8C659BAFBE8FAB392CA634F3D15C1D945DB4588D2B0824A4EC928AAC565557CA2F0DAA588CA5BE30B3A8004F7BF005E96CBF891D7F18112A3619FDF530DC8AA64954258E1811789B5189B49B4EB53F5F89F7D37523894F3EB57B373763
310
C91E502F52CC99EB7BDDF933FC324C4FFC2561DFFA7339FAFDD0A4BFBE6D3A8FF9ED1FC49898139864602458968913181918F719CCF5A68B2EE9C1FF050E34E63107003B8120FA982C21B30A874E4F5E4B38D5A8290C4B8D9BE48A0BE31EA995BDC37AC6DE90BA17D259DEF53605D55922FEB1855D915B659FBEB350EE0DFB
310
2F9F766E1C84CC8964B75D08667445EAB966015F63A18A9E0A325C1B3DC628C0D3CB60F767FA93CC65F25458BD23C3B312716E5F40E5858AC06EBA9AB14F95DB99147B832069201541D09A0D856E12C629CF32683760EE855537D1901988D5EBC156676C7DD51D7207CF3267AF1D76C2AD867315E44618015313A98B19941C
310
696FED3461CAA9B5415F918556D7802EDACEFD6B2E45853A9735DFC9DBF7E440F9319F8B6805A973BCCDC76C069A9144E51F187EDCC12FC31B5DEAAF0A76137199B106EC84ADA6B6EE697D4E6A96E007417F4E880E8B1E89B4BCE9D81EF611E2ED8F0C1A6C25F620FAFAAB656A7C42D464880E8AFAB0E0FC8EA38CA9A8AEEA
310
EE3E4648BA4680270A89743CDD3E6C6CBF34B7B640EFA285ABC7EA0A1E28F3CC963D114A80123EE66D0AF7D5380EB41909B605AB4765B709B808590458157E69BA1378FEC4B48CAF6A730E3BE3C5EF2DD1A5EAF94B1DDE50CEB55DDFD7EE9A16747FA4B223359FB1FCC69E1194892BABB93A1D5C4E807AC0EA2E30180811E7
310
7A2291F6E7F7FAA5E0F60215BC6024E48DE436C511F0628B8CA189982D4D83CCA17D305A7E923C37941CFDFDCD93ACAF735EF5F0E61BBD3E6C41A59B242790D3A3BAC7064DCD89AA2E37214EC839820949D5CAA31E240D2948E48F690298974A96BA9A8432BC90F5071D6537C9666EA4564796B7AFFFA548077BEEA75F6308
310
3435074BA182F3699557397F71548383FDA8CA34D99B981E72835ECDA5DDDC151315173D05A21F651AAF8524E88209E2E7A737ED1045800CE3390050BCFB8BE588DF111617874C62575039CA588EEFDEFEFE319B739DE2EDC147092A262611E159650E787917885EF08F1F51B8F2D8A71D60B58B190FEF9541A1BE94BC19FE
310
A50784DA1419FE4B0FB51B8D36B5FF8E1286FD8AF42B91E59A5F1CC4D60174E764045FD8C57B18209B217F89A62252BD20BE0E63E12B8E8F029FE19E0E8D0870F58721A557082250D5424F7909369376E41666C0EE77CD87CB283F661D5FB6D0DA023CB67320A20DC7BE661E9E1BFE5463085C557DA1FF9BE835733766C3D1
310
39F2CF9E2208873AD0EB4814DE9E6BF2CAF81614D4D43906ED1C05A3265CABBFE192770FC2F64F940CB6B17B5F166F133C9AEEAD2641807C3E69515171DD74C4A85311513D6EC9530B3B601B6BA3EBFF3B5C3D2F7D69765141E345F75433953D013ADDF8F6AA7DC3F4A7563FE5C7D367937E2900D7EAD0F9FC9A4A1A9B5BDF
310
1FEF08532660C01C5D6DE22199AA774383E306DAB87E301ABB7D213887F9869D4942D0D71E94B27EDF216A318BD488D45DF84529EF575AF3C3938C0AAA0215B01994153E2054A0B894DA5C784980633AAD48576957CF4AEAEAFADC7C587368551C73DBE1E57C58AC713303A8BFC258BD04B51724459FF9E24C03A81E0E0679
310
CEB9B348C0DC998FEB9C6D6EFA77D247CC8F92D3848599ED89A23218D0636465AD1CEEB7DC140D7426F83491C4E8E8281C2FB35240918FFECE880CA2A42D70E8B20B34DF5221C7DB0CF90ECCB9C745B37A47E9B716FF7A97B7A252C1F3814DC7B1E1A7F72B8751D524EF7CAE45B0C73B3BE7D08ED39781B380DDFC9AA4A474
310
9C9493DB5BAD07A6EA6C092FBD0E85DB004DF06B8C9D3089C5320187E4CE1846158C7EA7DDAE8AD9AFFF21AA3A1026BB06A259845E8232DEE62811A4DA9CEAB3A4887320B76E2AE5615EAB7BDF738CBDD01F1E64064BC13D9EC53576751CA8CACD58B3CEB0E6CA585BD089B2A59B9FC101403387AADBDBE70586B93D64BF3A
310
D4453EF9C3B6A93817E8346991798601344F79A83C51F3D50F7BF2683A3605F51A72449489E0EE6169C749C60B1035651103AEE24D24E51A759C840DD3FC6504DA6FE107510E447B43461C79D22970B75DE5E1BD3007D1AFC619A4A4A69B5626AF5E9B8374E20677F77E2F8E73DF868E8BEC7EBA7B6A75EEF7205E1AB9486C
310
B642741D6E03FF13FCCEDB1C4AC129886268B01CDF4B124AF797CF784F3C6DEC97A17D4B558070A0F1C04DA4FF9BDBF34159AEFE958479824B3F58EBD1E19088A2AFDE501B6F2052368A3FD0E650A179EFAB1561E1D27527077136E652676C3670F42DCB3352F48F6BC86D2C3B0051727E41A0A4DC6CE2BE9D47F5CAA2935A
310
3C0539AF080665997194ABECD723B08129CC5B6B21D2E7D54CD4D12610E7E9FB8306771A89576C7A982002775ED44F3F744CF21EEBB27A631671D921938AAEE3EB0D19CD1E083727F607823E817BF599DCED5394E37EEBC2E88782E638920CA641EF74D4CDFCDEF06F4278ECB18E31E7E9876F2D783C8BF429C75395F57E98
310
C2B495A3DA077EB3AC3C158608B6B57FE3EA48484D9A480096FCEE0DE880950E7E5A5714131C5C41AAA29FD19AE81AC145FA1B9E85C7169A5AB837B213493DF7E9AA4B5FBF9CDEB36EBD21EF1181B7CF7366AB2A951D01E37AF4EB835D1BE8C117CFBE7625D2EBCDB0B20C5A4B45CED0BCDE3EE8DA9DA78C2E21DEAAFFD119
310
7E463C33CC6A80FB785669B856EFF7A8CCCA2841B5A5369173320B1170C368B2748D81062EA0296E5E2D95D7667A4A46D98A6FF475C76AAB0A8C8D45E226FAFC9FE0133EA9F60111F99CA81ACE03A1D14C89E8B0D69079C91464FA1D99E651D0EAF606F345C42A8A1AA9BA391031582B96D5B4176A77AADB01F12FD298A75D
310
EEBB2C82F0B8650E880722F8DDD90C56A7A058E5FDEF1AC93545BA27367C76F5D8F9690CB6F8DAE141EDD7971F0FB548A2AE435F224D6E5954CA155512F7332029D5A1230854B79F258EC5FFDB09F5F6343A8EB193229B7F7E79B3E48F8E183860B38C8269D1B53738FF1E0BACF6AADA6D4869E9DE708E79B5DADCC09B1BC7
310
6F649731CFAF59A83FD8BAE4C749D66FA87A3810D4D62FFE826FA400C0F325D2BC0F3CA35F5847B82A2ACC7961745C823E4D863D54460AF792CE6F79B5C7A33B25C3AEA6CDE15A919B6367D781E9D44F61BF828672594A3E1D9EDD6DF179A81F27EAC05B936575D73E05C209DDD2115CFB705DF9BBF3C911589B3640735E9E
310
618FC9C36A7326C82B2205E244C55D56FDB9D5DC93CE958D4BF8174D2B3DA54CB3C09F2C2A6DFF73D23B2197355761AD421EC581284A7EF8DE2CE3497C0C804D49B41DFD6A7360844E5BEFFB495CFCDB97A4595911CDBA623274CE852B5E278AF0BEB1770E9D37CD977B2766A7DED0E94B840E1E95E8C77DE5CB6354AF7871
310
427C28ADBEEF7BA0A28E19DE9ACD75F379FE373EAE6DDDAE3834692F9C2B03B4FCA8FCA9ABE8EEEBEBB725B88A7C90941E850682CA04061A7DF0CE82ED49BFAFFD42C309818FAE14755CAAE78B0F73243ECCCAD7DF58FCB9CDFAE7A4D3E6671A613639130D056C8383C8F4FCF4808C331E544DD26E4755D09EA05253B3049A
310
1E32587CC25D72E073E2CD96D04A71BBCB0038FEC3F53D254199C3CDC67CD66640269431860225392B2CB3ECD0B4498AAE78BA1994246AE1EE78F2EDFB79F6C6CB6B5E279C4D373FBC21CB2698C9ACBBEB6A4BB6B39E16AB0E421CCBFC7654D81ED86022F9BB522146F9F4772E2D0E4FA70120C95A85A417BF5078B232F475
310
4363EB1750B2AC2148EB46B1EA72AD9B4D23ADCBC589D70106C3EC2ABEEED84DFE28E718C6C83502C28E9FDD3B09DA0A6F6F7B72B706A31C9E2A331EE70DA56A083D2177BFD63C55B11D8D949FAFCF90B23A1E24B9B5018B9A17E99F2890EC302F330FE7936E2C23F0D237EC8916F5166AB84B62A21BB0B950146962D754F9
310
2CC2C8877BED8FC7B7B25726DD19545392570B3A2C66B58F027BEF412E552D12A588C4A3CC5C3193FCB3485EFFF700D0B9EEC077754A33DC1FB9E25AF814628F91DDFECB667D3F7690803F38D13F8AE39353523BB08FC6760144AFA2CE28236F65EDBB3D5F59A57D612B99E3D7E5F8A851666BF9B5A6658EFC96EEB37A378A
310
BB0EB3FDDF1303AF32C41BD1C8560745D7BD81066B0D6313359CF488563D3BA3F8E2185D1FAA3EBA1397C9D0E3DD232180A4DCADB6AF25DB3AC3CC26589C8239E66E81547BC7E2F328F9884764CA37EB5DBE390DFC03A5246B456A7C3684C4377D0EEF9A350680FA9A077E8B2957B489E09AB1AD41316944C2254B5984830F
310
691C93CAA767EECF976FA5647538830B5E63236A6F0365C1E0F3E327F24FE35EDDBD7360B0F7374837409F7A6311BECC12B7026D4FA1AE204FA3F5FE904B1F420C7A9044AE58E403E7C4848E7DA25DC9EDAC79DD756FAA26B9EA83ACE8A214A2612A22AFA19DAE7DBAC5F8CDE1292A485F98DAC731A29FE01A3966E96BCB9F
310
B5A4C8830E1B9AF0C54B87FBE221A097036E5D28D1F869F810C06A9BB0AC0612F69AEBAF893C6E7AD59460208BAB3A6B09CA4F6BDDAB8CF0D1F84B72487498395A70DCD754796E271099A567A55CF242BBED64696378BB6CF25EF0FCDB589F3A82F1116D010A9AB9FA4358809EE0C973A2B4229BAA876A70B03AB49CBA7FBE
310
71DB1832FFD32F9BF2C8E98075CACAFB36921235D0F552B6A67E94E094097A5D7DF681B40623DA535ADA7A9AD8E9A62407D7C9A5AE51D62A17A83A23728DE86BB56115804D3F2675F2C6B87541A0FC497BF0CA86420F558C9859EBE9FAD62747E323E3AADC03FDCDDFE7407B09DA90B44E3185723C5381EAEF589765E2F7A0
310
99BA46695BAD60CEF3491B8A171F5F56444F7CE9455312C3498C74173AEA0214EC029833B34B650CBB5A5508D5091665309642791708ECF27CF11DB3D797D6CFE474453BD4BFADB768094B2147814D81C7CBAF8228DCAF5564B5891F5EF6A860EB2E323CB82AB868D8EA048880D63B0DE5341F1B3D53297B928A11E15F25E5
310
148990F710747C3509ED14909C552EBE3973246FCE55D00564D8310BC3EBC5085D08D806799B77D6C57FDF5E55837F9E934F09C03C729271B64F12D0A9F9E938107CAF7BF1EC8CF1BB9B42363D33070F4CACB425E605DDB0A34A12BB936DE286B9887A4E2E558F0886498BFF49C311D96C277CF6A9FC0D75AD0ECC5226D7E0
310
E3572012E56D7FDE4410CEC7A6D0F997F225A2055B8B92E3956E875AE4993CB3D4C9063AF98FD45E1BAB165640A43439A2C9181A7C355B297C0A0CCFFAE19B6FA3C2BA238A885FBC98B8F6DAF4B94B97304878DF4D8BFF6A4AEDF79E90ED4E68F00CD7299F4E0D83E35601AF0CBEF18C1E870E74758FA91F5131075004DB3C
310
FCF09AE1DABC11957FD9808C92E8A678CE9DBE40DDA0E0D1D505AAFBCBA208232BFB6FB3704E8985E61ADE53DE74152F5C7DE74B1DEDCD37DC3E8FB30D7EBA8B9EFFC3606BF90B8D438279CB7709FC7C00D327F41817EEA71CD9E49FE9C8C9A81C70915D9F0F15958EC5AA4C3BBFAF46986B90F188BDB24B89DE3C6F29EC3E
310
6F66D84856EE96A35E657CA41B41EFD8DBFA16AD6E91439EA92B40B21C053249F51AE50EB0B24C770FFAF40DF12C8436366819C48E36547D4E7B72FE2BBF10828583057814A668BDF183F6B2E58DFB151103E56303E63D00F39C27C4661605DB644D19175D02E3F0241E8FC3458D17AAAADB117CE9EEA690D0DB01E634878C
310
04C2C9310B69FCAB831151E3AD293BEF6E46B0ABCECB50F5939B39C613D41E81FAE8D34CAE3C4566B761D37185FE864AC32FCB71AEF39DAA5BAB88609BB980CD2F07A8F941653B529567726E2B2A58D079DD57E1E5E31426CF184A04D7B03B985F276D47406AF276FE32E3328BA866EB1FD39BEF57863A317634AA5FE46740
310
9B3873F5069EF0D71AF00AD189D17BA1974ECDB2D623E9E14086386A6AAB5807825C37B015BFE892AFD154920EC437EB945D958E18622E1E0FE2FA06557CE4BB9BBD05A2D40E774DA2B65473791E314B7D6C886820B2FCFE4AA272B3B8B15E7344A145E8AF919B5454D89D36D413E87211186BF6F645E5EC94DCCE8E1C7990
310
22E4EC9BC86D7A0F2AFB1FC4B2CE48F84B3F49ECE65BAD24CADCC07EFF39AB06BE9E6B27A059938EA7208838455383DDBCFCD967DDE4650EF92A14FF933C975DB20BD7FEEBC4487576485963D757D16340D9599FEB362F775F38CA4185A86F74B629C81B133644A3B18FD056E997E0734F9BE26D11C0AAFC669E2AC9FC41D2
310
81F8B2E1C35AE27BCE05F3DA295488096688719D974DF1B5D182DB7792288697F8763CFB43562C1CDEE11C4AABD5C22B6E33F6F389CFC3477C5919DC0D533F8A7A1846B7ADB60ABDC26C43D0CFC8910B7C15EE22675BD02702ED39DB77A87A192CA7A543E6205B979B9F5A6B512A3CA799E198B2D5797C0AF8D1D872CA455D
310
4D431A7879D4DD76110B5FF7F4176B54477A9EB5E4A5D11214FDA585F0382751D8E2582BA5D2075053298FEB8F1537304E32CB22C2E2B693DC0A760B1DFCA751BDC445AFDCBB12820ED85F6D5298933C7EF1211E9E057684056CDA3FEF3BB6052355E162DF27C59E965A8DDB7F9437EB72CDDA3A090DE65A5B2F50326247B7
310
EC67B73ACC7047FC9B353D6EE990F772207C6EC52B39DC2F3C0754821DAB559F7C1809C7D0DD5B0499D0442E0A6E391B3D5DB46D11E731E6794EC77523FBDAA242ED67F9FA1FB684255671F63C9BCFE6E7E896D51001A6113EF2298BA494E0B0980D1FA5B9D60796554C02256B1E0345FB7C6186B6A19D2DCA270416262845
310
FA4F42DB5D9B0A0B6F07FCA2E56C242522E001E0CEB734AF310FC8BFB57E38E03AACE93B3326A2197891E68452B26A6307FDABFEE0223D3C03C3C73D2D5BC054C8311F12004CAE488E5C29287F8156A2CAA4AD0D7BE6B97264E4139F437CE73ADF52E5134C52B819777C18B323A5924E4F67AFD13B1CDC3A61793A79FAF5C0
310
CEB718E441071E797C6DCCB9EFCF7E4A1E9F3DF3C2F9C9E8294E9586868788C972857FB0556D7A26941A7EEB9B580AD78EC40B85DC906B4120A563CA3B87797ED612D3B035962BB75F6515A393F4CB057F564CDF54F2E5A024514E6A1F901DB80C7E70B1FC05E356A7E72FABF4775B3E3FB8F70A2A8E7B6A94542BB3041579
310
78CCC999E707A29CC795E67A59CC546A5D47B368954CA7B6E75EC9E1F6FC73CE3B4F71F8CB1A6B15923D61EAAEB14626AAA9D04A26EB9C66CD1BE86CA31A5D8703DE04CD1EBCE4F5CCB62F93909AD11E55799A781A956ED27D3E738F4538CB04ADABC7DAEF20BC35BA6A90BCC1DC61BA05F20D8832FFB9BC9B15E2DB838A0A
310
FBB7E0C82A562127E0446894F427794C3037186F622BF24DE1B00AA10A23BFA47B2A180D6DA5AD6F7326FEB8C100C2D7142EB2A0B2A9D1008A09BA343D70E054AB69E2A7EDB783CBD92537FAF4A44D1296AC2792729104B3276C276C951D0CF3CF3F1E6B017720A7B8505A5FF9589365979678C36F1BAF759EAF57C60F1FF5
310
FE9DCF5F8E764FF25A2D06CF25117A8FED51884C13B2B750DB0E4F5E3D64124FCF11F0AD8F1CC3B3DA4B38ED22BF1CB2585EE6BFEBBA63FBFD44F9537B9B37BDD6B358720F98A8125AED4349CCFEB0E135F19E208A04CA7E2B10711185D72E381F448036EF57C9F874E54A971CA37A639E986AC0226DC5AA00D5B14FEA9192
310
234B3DE617814FC221C92F33F1D392F297731B567FD98FD91D989379AF567A65B8ADF177591DB90FBEA99BF4ED11B16E50A0AB1DBF1156D034BBE04D69D08F939D8E92BF525A1DDAFF80ECBC95D8F45D3FDD289FD23F7D8B452F8EBB34EC082DEEE68E18EDDF072060FAD2AB1504DD4879BF67099FC58F6E9DEFBF645D1633
310
4A3E9A127C6F1AF6132CF287E433B43A0EE93812B4AA0B194E03EE3FF91EF9C6ED0074A2F6EB18A96A7C9890B1FCDA1F2095E944DB911ED54C60DF16FB74C8CE9BDC7C54C4F14078CF73C2FFF1F1BBCCD7CF64F71407EA1683DBC410D226627F66E509060D5C0AFD611DE681D509DB8DD12FB1265B03C6F5C55FF4C30BD941
310
87FF692B4F152982502F193098A789526A038AB529A52BC0DC4FB6285CBAC10A8B8DB75DCD9BDABBB221E27D1F8DA9F5EE5926A1C8AA9BA9BC09239C6A7F12914EA3B59EFF7AAEC3FFCCE56F1C5C2980AD072793527565E774F4631DB178CEEC691B1F367BEA0CF2907E1D6B854D527065979DDEF002D8B2ACEA7CE21AE297
310
737EDE1D45B31233B73FEA35BCFDD0B09721FDBAF6432681F2FD10C3E9EFB246FD6E854B344ACC9D8A0EEF876A7314B49B6A499FC650B099D650DBFEC7638ADFD245E2B7839DA5AC5F7D5623FC0ECEEC8653FC9B2BDD1AD4D00A566FBA7186DD3C9CD26512551637498CADB950FEC71ADB9A5524285DE328B8EC7EC75D2345
310
AEC6A27C42AF6D9B92155315C80DBFCABBB7DA0FAE425C4FB896B15C9BFAC4FE67DF5A23D30C93DA4D8F36FB15D100050DA6062E22AEC5F4DAC4F6FEEF97AE05DE63C6D38F9E068A20BC5E3B6BCD75320C5090924E7F93640A7735B1A43451C2D91EE62C6238B797349E59890AF3A520DF4A87095F3ABEC2E61F0593416CE4
310
6CDCBE0E00E2523FCCD04408588B5B6C9DB6459C786CE378770B54F51DA3A5E1DF2A3349BEAAC234A6CF8993B598B3B25B4B113E353A4D750FA7534749430F3EBF2512E7EA3FD43C6AB9A1F765A58463B306721A15D224FAFE8C6F5E3432D57EE697DA0DD5A9D4866A8BCCAAA9DFF1F06047851408FEC060471D0E3EB86BFA
310
F46E4B5E60311DC3E3CEA147C75CF971BE74689507154FF2D2E92F15CDB2B9182B11459FD8ACAC5A85F174BC94A7F4EE4C4F5CAFA7C02E37BF0BC77B7DCD0C047BC316F562A01A441AFA7931CC84A28CB9F4AA367EB515778F29BFE61195FA671F4352E5E46E3A64773F1F76EE5EB36D7BCE9BCEAD837A4D77F8DB8C92AEEF
310
6711920D7C7D0F76B0FD0EB7AB83724CD35BCA7D36DDDF5FBB7FF6F04A91F3E2BB3B8F1A43CD659639507FF6331C5F697BCC782AE57D757A27D97F1AB9E0AEDB43F92F1B2AACDF5FEC8ADBAF9F814E2027003BA2F9E144B1938A7A04050AE5D953B82C45619165C813A10E76DD6906B3C16438064D14CDA713AEC420034613
310
E1AC7241904A49FBF87409AFB1FCB9B72FE7933A87D8FBEDACECE4EDCF6A4FE9FB94D5DEB74FAB7CFEAE17EE965DF980DCCA2D04134994F9A2E94D2265DA4FE6AA7B7AC15FACAC2B5ABBCD7DFF542C5314FDAB2E1B9D8B65220B8E2B638BE008E8DCA22678C820C5053664D15E89F2D735B51A84955E81A443545E9FF787BE
310
0FA700A76D136C27DA179A7C6E8939E01BE756E19CB292798063D8B97F44E8A27BCF3A614FEB8BE974A718E86F7EC99B53CA35FA24F61F2B07266684623A3D4CF073E511F3A10A8FDAFAF0078C577F4DF9D339FE7862E5FA47CF4344209E5BF76D783B1B48E152AD281B15FCB934DCDA49CEC5706B1EE8B460F435324A5CAD
310
154725E21AB8044B75A557A79F6C807B9340AA3D92503E866F4274412926C8C504E4D5EF8C0E68DD0B028781A6B4054F11CF18941F101C57CCC796773ABC8DED9CD91FE5788806C05E548895354AEAC96546D55B0E94A59F148D061F42AA398D822CDECA4CDE79E13469BDCC44FDC990F366BA5978C15F97ED80CBFD73B0CD
310
9B8B83A4F6845BDFBFAF034019473FB9A63BD55D3A4A7284757071574029A4D016DCCBE95DD679EF3C4880BF169422F8C89B68A988D2B13793CAED4F74DE7486C72DC94DF46B8E93D8E02EFCB1FF9B3BA10C8AE7F653DF94F4AF466CDDCEF5776687F7C4C14B63E4EED1719DC2EC482D7DBCC7AE518CDE3D5FF86D39000EC3
310
673C0044E1D308BF05F74D1B5F033A7D1BE7F74BC55BBE3E4A20F920946CA0271EB17BD2B80E5660ACB8A29A79F5E4BBA49D4D945B6EEF4A7EFEAA65E5555BBB57A7E15D2F83C69F30BBB978D2B39F1F26FC097424D39BB33CA3D87ABF64E307938B685BAD44F71556A30B7E712CA4FE600613C3E554B69ADE949A7CFE214D
310
F1FFF05CB82151EC6FC31950239F94CF7AD39DC473F6EA356E5EC2C4EFA04383CEFE985A127484366FBEE3C0EC4FEA363E4F6632AE781392FD45D67B63FB8DF70E82734F431FD3443172A0E30A83D60982D55FA6A2CF86DBA8382502ACC6CDEF3B907982EED1160E14863FA242F9757347E1544275CCDCF71ECD5F8621CBEA
310
326B8BA884AD7F825781923E66971F04010D574C541D8427A438A37EEF8AF88240EED7362C953F5A81DE2D56109CDE2524EA0F5D2F87308C0C47BD97AD605878AB8589E17CA83930CB5E0DCCD75853D68B1AB136594926DE426C367428E9334AFAFF90ECE221BB5DC9E5BB53D2CDEF954EAA9CD814F0E5725F1965DD458E5F
310
8487683AD86B9D0076BE3EE91EB1CECC5331A67A3F79D8B27587C12EC2A6A70474749F27B4C0BBAFB94B34189E88DC18964BE4121B9137FD516C7755356E50D6714E31ACD222621EBBCD1CFF81D87479056A9DA0E0B8EA19D24CF937DA89F78E8650CCBDC110AAB6C4E46DCBFD0446BA9E2060E81F314AC2031E88135E5476
310
AC0160EF5C0DD2EEF1B8B5CB2D198BE9A554A9093B5F7D7E4B5407DDFCA1D9C152FD97F55BFFFDFE802954DFEC8995B983E28AC92F1971E28F531DC407A1280EB125F64A72E617EFB27DFBCEDCDA2D6F2BDADA36873EE46B9BE1782998C63DA7182BC383FB6FD15DA472B175D7E8B4FC88F38D6E07FEAA3FA3CBB8F6B449EC
310
F14D2175E5C5CCA3A42ABF24CA6C9395AF74535F4DDB38CB84F56614B0FD32D7E19CA5CF988DB4449C40E23DF2B16772594554579094450F56F253CD25EA7F77366FB1CFE79696C428BB64D5A41E986189427E5E4D7E2DAE3D5BB4972B3DC44EAABDDDD63A2264ECFA5C786EB0EE1FDC5BE34FA0F08376869FD1E61EA06CAE
310
15191135445EE8F0394161C3266A596AA035572BB0C8876180D8B9C77D307DF9DCDF7365ABDA6F3A2366436457A4DFC1F259666569A9E4A79C817BDD5610E5200FCE894A358EC72858D50EF67545DA81C6FACE3D457BAF70367E1E6BDD9A952FB4F56247F58F523B97E640246051A72F79BE42FFA0B3187F63097F91C48B86
310
8586F714B0EBD5A00A8412C1236E1298F60C72BE6C96B82B404CADAA304AE9F303176B14BA53FBC2D5E86377E35542019E24D97B96A49B2C0E5006E7795954DEAF5DA58958839043C6C70BD3B1B33B6DC5C31316D8A6923F142E26F6711A2258AF977DDF1F970ECC4F1F2B434B96D81BEB6E89BF3BBB3C7C8CC80505070723
310
D6D7D7D3C8CA27CA164A26024FED94B12A86031867241DA53D929636DA600F050BC40CE48B8BA03D69224720DEE2ED2127390BDF5E6EA64527BBD4C4C63FA76BB801FEEC0E61218EC98A8A86CD8313781617877E66692839B9468CF4DB8E50A73986E558E309C0D6F676F921BE02F1185454DC75B111572FF9D27D85EA14C0
310
5AD7271225B391C4275659CA4A43759D0BA44639BE4C30A84DB7F67A41399FB95CBF923B1B1672ABC807C1590557FB18D811983FA97F5E609516D62281D38B1281F68FC75528C35E4CD7DF0F7DBB5E5DD69C414EBEA2F4A5B241B996BA77AE6C772E367408C633EA3E438B68563EA8BE7667F3A4C4FDEEA52ABD78A2820F44
310
3B7914A15F180018D231E64519C56A12F6CA7C8DAE18F06F6B769DBF92329EF6A5D18FBCE600F36BD8E8198DE5CDAA96181F3A756EBA5501CEE58F497EA4F418A2B82565B9BCC611713C0B708CCA1F398B78C5F7D03B3437CC18F13061F55C7BEDADD5ACB1DB0E36D3CE47FF6EA1A563A57E9649EA5D14D1A50EAA45746338
310
1C073777EF1600607BAF6428A7DDC079D47A204EF1E1F1F0589FB054D45E02CE623B3823C317C601E589E22B1E88B448524B86A82828E32345EC18AE17214B42F8C41C6D428016D9BA31DDCB47572561E5A402E5BA4FCE55F78AF7268524AA04130F3A20BA5D1E9F9948EA48FC8F5314FDB35E21898198060034ACE5E3E2BB
310
CA34092518F275190AF65F45867FF0900AA4B81F25427414C372BF51DC29AA855C5428EE1EEDD6B849AD60F6E73475C2D2523F8A2772C840A478DED18A8C5C91B085F255DC4F54EA7AA8947354FD17ECF8FB3B4A0DE7B483CAF3A1165EE05BBA413E5C1FEF3DE1D6B8F2F3F3251C17D9FCAB48A9AAF63AC773A0E413BBC46A
310
9ADF84A566FC920E4D8C52C9769EE3301CADEEEDD92B312E02E2A7E35B7F1E7D203FE5A7D75578B06E99D0E46FFADB8FDA17ED8880390DA29094202D6F645F76F6F96409CDA05495A96E84B04A00D1A6C6C81D7F3DE9376E828CCF144EE50E364ACCE7237EA0BFB5607ED1AC3CFE73794E5B61739D14DF1743441B1AC98F00
310
ECEDE9E7301FA29755FBEFA68C91EF2B314CF510537EF1ABFC9A762496280B546F5EDAAF8A5B387D469FC9A878A92828C88608453ACEC6094DCA54111E7AD5B2663DFE2DD151B7F123B9F4FEF8EE36AB125FD7AD52A59B1B765B3E3F73E3F73DEA93875004D2AFFE3CDE9493B87A9904DD052028949041A91DC0E1BA47BA71
310
4343FD5B25E0A6A09503AFC17C790058A836A324FE31D7893512E28230332F153181C1E018E1124EBE1BA262AA428A518237D1EA7275E48C5C561BD19ED6912EDD8367DA0F31E40EEAE9683DA9257525AEA7B632B97119E17145A90231768A4F3B9120FF32E8319B015E3CBE26F1A754177D8185345817C096B0CE443A955D
310
13AC15E1FB5DEEA0239EC32A3C92241A237B0B02FFCB4F93CF2B02570C8D192E2F2A68CEEB42F12E6F8CEEFF46C251E22B4341C56FB08CCE550E7A9D6F4D6564B9EA52A83D5BF2C6E03FA19D2775E15A8A7ACF30A13C259EE7F5EF2AC3BA354F1500E1A07FC63FB4686E2F12EC69719F9ECF5FE3F35598DF2CE944008CE78F
310
0911BA5BE5D0A34E0098FF038669C26030BA9B300303039852A8F6F496341737CA7E0D2E3AAA36DE0A70AA7D9CA0D54D9AD84B18A44C9E625475E1C97B93BEBB38DCE7D227E67A2D00F531436136355F243D1FC0D712C5765754FA22FCFFAE97919161F46D6E61ACB37D83777B385889770B50765B127768443A5C4D3A4E35
310
A3151111F146B7CA116F918A049F1C272F2CD7976C69A0068773451659A97E0F4A08FE604C3FF6CE7385DB19F4D3ABC8A0D80DA8A42096AC377DB49382B36E270B6FA7570188B4B7D1DDDDA82ACA487CCA5D38BD3BD039ADBAFA4ACFF27809239B722081E2EB9F145320553D183F28471C388BC8814E5045676767AB58A8E7
310
2D1CED2CA731379515D2E533E4CF0B39DFC625F97AC4836831A4DE330E87A8126FA17EBE583D614E71E22A8DBF2825599743E0640037303E8E1B1E8EA4E1ABFA4F62907B5E4E0E5DCFDAB417C36C6848A2B8D15F1E505434C0707E16B1CFC2A1C36A42BBF55734F8F4301DDC2A5110CEE8C0747F69519265012A2174BF4E95
310
5ECD4FDE095A3ABC70536B7AD0B9D7892F81287D667C108703C9B66A221E9A0929D030008F77FF6F5D2108EF5706FC87A3069B976F7C9FC3239D13D283CDEA83597461079FEEE049B0F392889898B7D87D31F8D60ED7B56B91823A8E4EDDB36C6172ECEE42BD42B12CD67994FA0F0DFAE9389356F4CD4425A4B8AA55CBF7EC
310
D585C6A2C2316791E43D5C06841ADBB226A87FD61515FFBB0167B74E56BD7F3E90A57A97FEDCBDF483A0D6699A8C0849CAEB4947FAA90D8E332D9DEBD9F4738C37DA0CAF9CF3DAA68BCB67C420459C7A64498D6E848E5CADE92BB6901F607AA331104A67F7CD650EE169B1DAE94D2C31C2F993632259B6957E246EFE4C5481
310
107B07118607700040E5812A2A2A38DA0076875258C753F60E0F2662C748EDD5F3F3686B8FC3BD6FE631ECCAA1E8B1C1E565AD117E54893E79F4672E32F9E46B2A183DFDCF3EECB4D4D077DBEA0DA254D256045109670050129E9B9B1A9E4A11344D61497A992778095151510C4BB7EF2009B63AA4360635312E4CF668B7E0
310
D3D85A8688E2BD83B569439892ADB63461930D428E0DE42E4AC57CE48DA5CC1449530D8BD3D6A0F08DF20C8E8F570F2CFFFCEA286E30969B4654D498A58D9DA782E19FE3F002181838925592C4A1EF0B332D88B61A92C644547BED490D3A42CFFAB70E36D961F694F6307F72FF15A1C79D5B1B5CEFD353D9E2B52566DEC8F8
310
F09CB3E8359C0F68EBBB7898243E34E12A015B2685AB303C04D3A9E00671FF3DFF0A184E4A2ABEB2B666AF5B3A209C73D8EF29DCDB069C9F391EEE9DD0F74C7BCDE16F8F02E3B8816122BBEB50665775B600549D8BB33A54A6BF940C028118BC6878C79958D6784F9DEAA6E26748386FFAF8D0D0101E2847B6563F5D8DC1D7
310
8F787BE00E2C941AE12148D4A81599FE8F68D4DA5CDED75530ADE138240300EE13B0FC13A1687FED6774662C05A2B7DFB186732F0D7A93545D8B0A6390AE5054D9CB582DA846D7A061B3358B45E2B52DDE63E114397EDB7E09233A579155D795BE76102CF277F4DF8B188C4F2879BEAE3C08347124BF9ED23B128259FE107D
310
31E34A652F090B30B39E0D9AF917B76A2806135621A8A60681F16AF216514BBD02711585B5B1AE823F4B2D0369EA5B6BCB863072727FFC871CA6C9AB79A814D989057E9470A3D238BC87CBB4A0EA49AFE2B86F22E499793CAA9047080450166BDC357524561E258C77CB697F1ABB32562CF87C3B7AA12F911EF19FB3E5C022
310
22E887D08202A60A17151F5E053A86B437771088B4FEE14D652C43E8D939995D34545E12E2FF93D4E366EAD25F10CB7DED141563C3D0C447AF06078A91135FD4B9611583CB4BF3BD167F2399CEAB0E0100F8FFC305F00F1711717173138B4B48C83022295DE657EFEDD97F238ECA80F528AFB4F8D67AD4E2594B9A3AA86D74
310
87EFC313BA95745C186F0CDD84CC12DC9CB0424B42203D351FD9C0A3AF10CC7F388E0329279087386421F194F4A29464C1DEF7EF8BE515E4A199DCD5B909342598D8FE6A231F71336248D5CEC5454455C7BE383B3BC7B260FED27F703FDC39A170F3827239102F59D4DEE7FEF82EAA1A5E4BA94DCC4CC44E7E2EDE20F24244
310
E4454369D2E87C3F823F193FD4FD27E1C23984B01898D15ABC20711A8A558054951A6AE280096BA36CBA439603B7B0B4C45F248C14B2383B4B5CD8ECECE4FF859AD4A6CA2326D020EF090F4041D28DB66E5256B56232CC52829DE8060BAE6BBF37D4B7469B822454FE93210A3E8D15E69FFCF01123222611C51C4FD0A041A0
310
CFA2471CF6BE38D2B20FA4C3525B5B8B586759475CF80ADFE67A284AC24651E52B8E683D24C2622642F27E7C3C22783BCF63648BC398BD6CD0D9C97E7E7E3EACB6126DB7A6C1FD9F1031302EE67ED96F22B77C7CA0239BB324207559B105E4693EB26EC46182A92C9C0DBD24F29B31C5C5AC1F84300E0E17CEEAC15F5736FA
310
4A98971E2F1423BFCD68D4BBD5F86E74B40A369F39507C88FCDB35D2DD8DEBEA4AF999E23CF2816D204200DF6E611781B9884C1AC8888B4DE397320472959434323A5A36B22A8E1F721A270DF3BD65E4A31C11FF048AFB0D8B7B6881423793963A23CFCE935FC189ED36FAE35C46DA3574C979E4394BE52084F3081837BE03
310
3396D2EBD80F1F691B273F660D2B32FA27A33B1DE4ADA5F0FA4651511102DFA410DDA86E065272CA314D5249DF91B06BB92807B28EFD54F08F7B525252782CD276DD02E6B0319B13DF87B1F6361AD6B28FC0D711CF445429B9E5A433CD493051C49A9E03DDB1B147D880253514A5DED88009018620EE229101C041950E2D8A
310
A8E1F5F5438E0C0C0C60EEDEE9E3E0C051948C69F84BB7B2A48A1F3C8EB9E6864687F4F4F6F6E2FA87608ADAF9C5E117B7C1A737E710769DA1D15ECE6A84502AA855398712D5FB51BE92E4EF824969CE18278798AC303C2C7980DD2500ADF8FB1E6D6C2FAAFF9987178923334A244758BAA01A9A1B70FA5097D01E1CC2A58D
310
AD0EC94CE6430AA9B0C10D75E3C6BAC670EFBADEE1607739CE0FC18A2587E3EC3058562014C64219C69BC269082D5C2F4A659278D585755912176D78A1B641719C2A394CED495A1AC5D583FD2F5EDD93308EA7EAE8A6DD396598BDBD3D4CFED62D18A5BDFDE0DD5C80D1A89BA62697B131AE7CE9A6594138582F1B37D68F17
310
49AC7CB67A70695D48A4A056AC1FBD4E82358CEAE38F54B95A9016F9000F9879C0D9D131768635CA798895F27D6F1614F11F2838A83611AA51C9A3DDB539D42979C29F10465655C17BEC3E2760B80DCBF609198C7B171A531905F3EC218D696025975E986C6B4C666666787271F202805577DD5A3EF0CAFAF91B62DC4B2DB4
310
217A7606282F31D8DDBC290593BAA93EA6353AFA9939B877978481E15CFC9F2755CDC00C538F63A4BA3E80AE009B73CA0185687D339A507D165B74290D6EE46D5C58148F020C3668ABE9EF2F7549170DC80DB41FFC1D678FF19AEB10C7133832B104B80F691B3138F97A92D26E551F1F110400D45AC71A9B9AC41A1A1B1DAE
310
ED0B0810638EFFB511D46B121C6FEA0F38CD00E03CFFEB9713FE1F9C263E4DDEC160D0497FA9A132BA608584057FB15380825DE6C7FC3C667EE947D488A09898D8E939C4953BF4EC9836344D2CC6B2971B2A21A572B06096F4982D2CC7232D46E8EA69DC83722E267754D777F97F96D5DA74E1E75178084D0E70F12AD33E5F
310
71EF2AFA599B2BEBF60A5BE475F444F240CBFE8143C334E7ED9150FEEFEF7EB020C4DBED388DD1D6A167A76F3CBF119B578AE8CFA7736ACAFA4440A1C47185638A0D2F3EB5BDDEFDA958FB13CE4AA4923D5BF840392D45544329525749734866684BF7F8D9D54D892E19BCA9F829A0F8BFCBEEA6CFDFC61D74EA1A645ED7A1
310
FF241739F15694BD835B66FEC5677E40FE69BD3F91AE402F036537218A401CB0828604AD189E575015C6F3F6BBC8AC79CF6C70653847254B31551EFCBEB5978B9DB85D58D0FA41A9DFE9C624834AA04949D24B5AE6D299E072D152D12097920F14AA92C31C3B97E28B6C2E6E9C23D63043ECBBC0A60FDF5BD0C33C127EA8A3
310
308B8B6AFFEB28B4455BF6E7AF4FC6222728357EB8E46E85053E6A8843AB23295BF838ABDA94658FEF3F832F147046B4ACD6F7D48E8FCC9618582961C898D1C7A253C91BFECBDA6BA18A1FCF70755DCCEE2222F41B76D23CA98D0CB3D95F0CF66D57FFF65E2A90F5DF40FC3187621E981BD0BC1D992787212688976B94A8F0
310
C6EF646624B570B78E068826F87CE27041A95C9A4871FF65CC17FCB1639629AD6A9517000D63AC231F3D741CB8430777E7ECF80CE7A3F73C0F162F7E56AA71F4DA80A33CD6ACEE78E2C11FAC03DAFCE929B106F8F6B3ED2DC71FF994BD9CEF4E9A94896EF1B6E2B7B4978168BCF0847A3D2A4F1B0500B926E634B174548E9F
310
BAD27153FB5FC36799B1E6C7C38A94E1F9E996796D7B485E635D5287A2AE76FBD11A341DB3F8F810385BB7296391973DC6C37C452A9305AEBBE0CDB6C566DB59FE60C8E94B1FD090354BF51439FFD1B48D725228FFA88C84F686F547107A7A235665A4593B7C34D748C1AC8D56DD5DA861EEFBADDECBBD65117E65851F9035
310
1AEB65F0EFCFF4BCFEF24CB7A5879699FAC437A7AF9099186CF006BB923A59E37D7A36A29FD8D2CBB914A5E9D0A8FD212FBF796AE9A67958FF1D5D8B85F78F96219D4714EB919929241B6C018AAE0C02069F8D919961EC5DDFBFB7573E3AC8E08BFB7C8534BE6DE045B3CD63DBD71F7638BA2309CAE398EA3A7D8F98BBBC7A
310
EB367EFA5CFA27A9F8F2F52FE878058E6209C026453F8E7E8A237DFC389E9590F6059B397CFD65183BBF936E86896612A5B5FEE49DAC8455D026218AFEBEC12B3523A45B57B82C9C97E02ACFA1184DB18E48CF615DBF39C3CC6F0B4AE6BBEEA2E39D944E290302FA3DE33FA7E40296E2EF7BF1CD855BBECFAD0FD622BEE974
310
6FC4FDFDE545AE6E3BC234CADF83A0FB76DFB145BF3828AE3436368AC24989454F8FF70A177672C711CAA1A76107218CF948CA01F873520E7A2B118EBB161ABAD432932029628B6761590C98AB590C8C8C79798CE9F715BA696E839E9131A4BB68BE923F1747FBFF165331FFDD4D05997ACD168F12CA75348DAC04C7F509FE
310
83898A8B421181AF492861CE81E4A2DD0A30850CFA95E05F097FF70F9E777310D584A75BA7018922E271DAB1D785671157685B7D383D3E074DDB4F1E44EF04B07BAAC75A062077C54B9752C738C9D804D402E02851F3F89605AF189738C18C021D2139EAF72513824E10DDD3047BACC8521ED7E98B257D1166903B1B08FA6F
310
918FD7E162913FEC7D0EF4787E29C35FBA8C6E2C9C20E9AB30AE42CA2A01A090E7D010C1B5BF9CEE2A304BF3A987FB40D836979B79E18D70F257DA61E808472DD85B82761825779D6B90CAEB0F23360C6F80A7D7D77545E95B3DFF0CF96A827F9B5BCECD2C9698718417EF80FEEDEE938AFF55859D0D540B7FE09435583A6F
310
04874A0C7E8CF234DF4879722000167F5872CEC6BF3EF7E5A8CC8121E6A359227C8A29C95212F9F735BC72A887D56B8F309FC525BFB4FD767AAEC4AEFF249CFBBD2DE1AB9969A6155C7D8DABC307E47324C1F916C7BCFF40ABA5644E9FFB9238D19ADADA49D9610F01ABBA57E4DFCBDCCBB2B93C8953206C91DE01B0E2651A
310
6D6C31721915B31F7B7CBCE55466F6D70402788FA91D73BE4ADCBA99A35F17D6B83383704917D6833F0FA3CD45C926ADB8BC17999A4A0AFBCE2541F7B8CF4C2F5FBA611B3E626D64407CB32C122DFF4EF8674D6EDBB86C8F7C6A16D50FA685E2CCA34F8F7D1D8265BB0042E9D7F1F666F7BE5FAA5184DF58E12122A42EF02F
310
461B3F369AC746F96528AD208512AB56844CF75B97F352DF7995024FB02855385854F3798670D01CAC771AC3E1889EC25F61A20C1F8CAB46898817F9C47E2CDA1F286BF2F358298709FE567C91133E2638C8B53975E753EA8BFD3578B5F7186B7BF084EBA3F77BAC3132A5779902EC22AF2D2E79F42D324E083386DAEE9810
310
D1B44A5DAA54513C7A71E52A4AB9257D975B621308FE4D2141CC3DCFE946C154A3C1DFCCA7629EC69ACFA831634ADDA93C0388D2A9A2DDAFCF957C6995BCE7FBB6DC4EBAE79E63EB08E9A25F52F67076F7093CA545CA3053B5BF576DEAD4E0017143C5F759F32B2D6F145B52B67B48909B7C7FCA6586EE385A2189C16932CB
310
6DDFD9152AE317C430492A578ED27B72D85D40C7C93C097939E1B50F4D67F05334FE9DC362C30B7FF561B95259138ECFD9274C8D695C31B14D4EAA9F3D7FA8DDF652F8C5DEFA23284C799B7D94416DEE81E05A866302DC70192A5368EA65E1CED8BF107A1E2D3119A71E85DC1A7B0C1E93274CE04DD0F2ABC8AC7C987FDB00
310
2B6F81757B43502EF7A0D92E416494FAEEA4C9C090CD9557AA4D532F4996A272B94355C5A0E4974EEA9627476F30809B94D8D8D860062E02204643BEC7D0438AF800FC7E2B26955D595421E83C69E1A07E0E3122285835F014AD538188CF9737CE76D464A353FA55A001AB2526B84E985083693BC76FE211CA1D000679C889
310
E3C009832C87E1AC2EDD05C302557422DF0800E316FCAC86978A371F025A6C7DAA9F333E7BD160403A1A06EA75AA9888FF01504B03041400060808007B57B24A51464CB48900000043010000360000006662782F43384643463441382D334535322D344239422D393638422D3037424442444436363636302F646972656374
310
6F72792E786D6C9D8F310EC2300C45AF127987122606C71DD918B841D4B851A43646695A717C52A85029031293A5A76FBF6FACEF7DA7264E43906840EF0FA03836E242F406C6DCEE4EA06AC22492573150D1F66C60C640E8938CB705396EEDD86DE9B5042FE27813D640EA63BB001C722AF6E55CB61E4863F58284D5D3F53D
310
D715CE1C3985E63FD7F1B7EBDD617E9F1E504B03041400060808007B57B24A20D25C9342070000201C0000340000006662782F43384643463441382D334535322D344239422D393638422D3037424442444436363636302F6F626A656374732E786D6CDD595B6FE23814FE2B56F665F7212421D0C288322A504668D499D1A0
310
59ED5B6482A1DE3A1739494BF7D7EFB16387380D90CE455A2D9520759CE373BE733F99BC3F440C3D119ED124BEB1BC9E6B211287C996C6FB1BABC877F6C842EFA768C29324AFEDB3508C23726389656B3AD9F3A448D5D296EC70C19AABCBD95F280B494C2C14329C653756163E9008F77091275B923DF6B638C7BDFDEED0F3
310
7AE54693EC9EE3F4A171548A3989736015D663A0A238F0CC7F4124673A71C406639BDF6D5BFFCC36470A6E324AE32CC771F88AABC671FD135C358EF3BDC1E2AE3F1CDBC3C1C0B707577DCF9E2D670BDBBBF6DDF9D57C3EBEBD1B5B683AD92409AB149092780B5A7CB1A6DEC411772AF1150A6D7C87491C9350A1D9B6614B14
310
5D4AB2262606B09E14ADA69052D6DA82DF51F813DB3A8162B064A0AD85D3BF75EB4D367F030859172BE51911569EE51C74ADB02FFDC19D38E5AAA1179AA108E78453CC10A31B8E392808B6960A32C8086F11A490C04C6A51D3ABF30A867DD997DAB8DC158C09FFB5A6D2D302F04792679233FA0FE147EEEBA7014F206D41E3
310
7CA484CD5F5220319E3872B1BCE7F7D5CD1248B463780FD602628A4D7EBF81D75CC482D5C29A7E5C6E0E6B111FDA0F4F7992129E0BCB93CEACFC4E6BB0665A607C1D40297135757744E52B40FF0990AF784113D01CA787C161A065E738CE76098F403BC845B60B5F2E1297AFAE264EF5F0142123569EC214DCF627616A8861
310
9C5D83743A7902A34FB8AF845B8798814DDFD358F839180A62092C41BCDF6D0ED67405C11416E129CC407AF89B38E212C14F4907E24D43436DE1B783A2B4C334FDECA8AB0F60339C8695AA0C194FE13BFC29F8DE2ED61FD705DFE190DC2BC75E901D8D690EC9B49D210374C3E5BFAD3E498FFCC0920D66C7A78D4D211CB34F
310
44DC6851CB5AA90549BD0027220D979A912BF714BC9D311C93A4C8D47A5B9C0A1396F060F312942EDC7AD69FDA06CAC39401B4C63248EE21A7A9C0C49A2A6D5581B05713142C0C736581FB52ABC1A688D2004749118B50FBDA149B7C409C1196085425356DD8DA6B35D92DDDED8A0C82572BC9B901A4F2674DB8B4F001C4B1
310
367E39D9710C493489030A39189CA5F504E3800ABCF33C6784ED02CA5811053BCA208F04114E4FD0EF28413D733D9297E7846F5B099A96A57D52DB90005C01AB41D2D9AA8CF94AA79C3C515166CA7CA6B381B143D5A1D67470225D884CD102A8364669E6FE6C7E7737588E6D7F7E7D670F060BDF1E797DDFBE1D78EEA2BF9C
310
BBDE0C5296B21289C0315AD5F31DA852943986FFE50F45B4893165704350C0DBF4DD7B993D6F1C088DCE7CB49C2F07B723DBBF1BF6EDC16C3CB3C757A399ED5ECF16B3C5E20A3EAEC34996143C2499D377DC409B641AEF4F7155C55291B5407EF8569042597339D9697D3585F91FC7D0664E3094F85F0DA255EC6A2908BB06
310
51F1683384E2F051A4A82084AAAFD57D1A41B4C9475B9C7B635C767BBE2B3F9E37EEBBE3FE687C5519FBD9402DCFF9E138D72641087D679107498A439AB727D4062E1DE3F49B724BCFF78608D0A9BEAB43CEE71975484023BC27C10E8B2EA125305E92A03587ED599265342699ECF25E557F0D9A6E0F8A2933E7B61821CD82
310
88E4F87BEC4FB60D0D9B86D8CC02E847733111B858155406AD3A90531445F70B895BCAFF1264384A59D9E95EC2C0EB6B08748FD36671826971C413D85B80F3C0DD1239B8B844BD625FD707AD5A6B521F7F37F913F0E8BAE617C2A38FE85E3AF586DE587C461054AE869E7FAD1571092B7D542EFA385640E719BE04CF84EE1F
310
3A159ADD74522BD9CAA23A2711B4B1382F78277FBD1ABAAF0E5271A1E110B593DE581CCAFE4D7770809E6CE04E95B7B563A00EA531CCB93A09F24A8A561396BA90333D31BA7A835F9F55769DEA0FC7CB5F5E31D79D2F8242AF0B0E502D970158451FA3A66EADBA8D7A287BC6790881742D7FED1978C4966C8F8D9941AEAD44
310
D7F5E9A5EA7925026A04135B2CE2ECBDB8605F31A81ABAE7CCF950166D4EB9BE1289AD07C3E9231F06D326ADCF1FD60D2AB0D2F9E92F0223F2DCA0A056E7A21B3E43EADBEAD8F337282889BEADCE3CFE9FE828B4026B9D054C83B3845118CA932DDA9304B2378C1D3A741B3C2299CCCAC72E45BF11E8F0F4533953CDF186E9
310
1E277CC0309866AA172B42188A42C6BCB1D43AFA0DC6A06212298753BD4768C3540CB350C1E98D05169B53E8B67A1B1867C9E1A1A4DE18578263E3782FF27DF954F5FFF1B157DD57B5A70B2E4A32C399A0B04DE57B02A8FACA1BD3C9F78BAED9413887CB4D9157C21C178ED22810F40B81523898FA3D2A780F50509C97CBEB
310
C93D4643DA69327FD60E4AAA768EF95E8ED76B3679BBF8E288C9F8EA334A59B117EA3CD7FD1A946CD175B3A29C424DC0309498291635E4FC9DF38527F08A29424B0A46807E3F8CAEFE70E649142571B9E4DCAA175568FD00AF9DB68E1EF9411BEF7A43474E01D4583FD8E08CF4F0367B8405502DA762365A426C1840154D6B
310
06A0352274018F19FB570BA46AA3DA84A41E76053C72A68FC091C4BB1CE136F50DB50124F80270256F1E2FF4C2C4E130049FFE0B504B03041400060808007B57B24A03896497DF000000530100003C0000006662782F43384643463441382D334535322D344239422D393638422D3037424442444436363636302F7265736F
310
75726365732F322F636E782E786D6C4D90CD6EC32010845F05EDDD1847B59A4698BC444FB944146F5C14602D7EA2F6ED0B29957ADAD5CCA7D5CCCAF39777EC8131590A0B4C5C00C36068B5615BA0E4DB700476563212E57F18B0A03D2ED06450728B54F62EAD78D3C535D5D970EFA2B86E18305A73DDC306CC389DD202C97C
310
A2D75C974C2BA63B5F75D67CE211139568B09EC8D6633F6122EA8C2BA883985E07310FD3F17D12A7F9ED34BF5CE4D848253F885CE76DC818696786EA126A1E21C7662B59A2ED4C2B518DBF70BC869363B5954C39D60F742C7FEF15B35E6F383E915F57C9B155ACE3D9BFCEF60EF503504B03041400060808007B57B24AFF15
310
A4A45D000000800000003A0000006662782F43384643463441382D334535322D344239422D393638422D3037424442444436363636302F7265736F75726365732F636E782E786D6C4D8B3B0E80201005AF42B6F75B59F0390B113044D83508C6E30BC6C26AF226F3B8BA6360974DA7271430F523308B2B198F9B80925DB700
310
539227A2FCCB80A18E5640D320F996A81C9F32D6E9129A0D1EF74FCE750E6D57BC7165FBCA07504B03041400060808007B57B24A5A58E3023E01000046050000300000006662782F43384643463441382D334535322D344239422D393638422D3037424442444436363636302F636E782E786D6CCD94C14E032110865F8570
310
DF65D7D8581B96261E7C020FC61BCB4E572C0B1B188C7D7BA1D2AA31351E9AD81B19FE49FE6FE6CFF0F5DB64C82BF8A09DED685B379480556ED076EC68C44DB5A4642DB8770EBFC828B172828EE632157CF42ECEA534C0464693AB46DB6D294A44AFFB881028514686D0D1A09E6192B58CE80608DB7A9028EBB6F6105CF40A
310
523FEA094ABFF22011062AAE9AF6A66A1655BB7C689BD5E276B5B87EE22C2B05EF9D3345AF2D827733512E3D6C32D37096BF058F5E174D26A0E2D359DD6BCB59FA173C24B7762C3ADCCD5937CF462B89694CCC2904AC9208E4C4D98758709679BF51DFDF3D1E1C90417B50E8FCEE9F06D09E1AC0D1589D92F037FEBDF0776C
310
D7BF24DCFFDAF649D862EB6CA887B48614D79FFB4F299276349717FAA3B1F3673E9D12D4EAF2900FBECE44CCF6272F2D3D5F40F10E504B03041400060808007B57B24ACA1120D27F000000A30000000B0000006662782F636E782E786D6C4D8C410EC2201444AF42FE1E45AD95264023C5DEA3B1B421D28FC1623CBE60BA70
310
362F799919D17E164FDE36BE5C4009871D0362F11E4687B384B44E940369958821AC7F3520382C5642D1A0C41C437A6E6AB4D3907CB1DEE163931DEFBBBEBA727ABA9D8FB4D28DA64DCD3565176DB431750ECB8B7D9964FCFE32CBBDFA02504B03041400060808007B57B24AA6D797065F0000008200000007000000636E78
310
2E786D6C4DCB3B0E80201045D1AD90E9FD7516806B51190811670C8A61F982B1B0BAC9C97B72CA7B1037C6D3332918DA1E04D2CAC69353902EDB8C20262D23F3F59B81A079470595414B17391D1F19B4730A5583A7ED43BBE4025D9592775E5ADFFA01504B03041400060808007B57B24AECFD112DA8000000260100001300
310
00005B436F6E74656E745F54797065735D2E786D6C7D4F4B0EC22010BD0A61DF525D18634ABB506FE00510A79458060253536F2FD89D5197F3FED3F68B9BD80362B21E25DFD40D6780DADF2C1AC9671AAA3D677DD75E9E0112CB5A4C928F44E12044D22338956A1F003333F8E814E5331A1194BE2B0362DB343BA13D122055
310
543278D79E6050F344ECBC6478EDCD76CE8EABAE5449AE4298AC56946789C28AAFBEABC53F3EAF09A84A1441B91F0101CD4780756578C173A578FFDDBD00504B03041400060808007B57B24A3DEE336E64000000790000001B0000006175746F6465736B2D64657369676E2D7061636B6167652E786D6C35CBC10E83200C00
310
D05F21DCA56CA76D41FC96062B120735B69A7DBE268BB7777961F8D5AF396893C2ADB70FE7ADA196782C2DF776D7A97B5933C430F15651E5469C55D70F80A4992A3ADC954792C525AE70A1E4D6AD9816CC044FEFDF01FE3FDE907802504B03041400060808007B57B24AA7A4DA67F40000008E0100003D0000006662782F43
310
384643463441382D334535322D344239422D393638422D3037424442444436363636302F7265736F75726365732F322F636F72652E786D6C8550CB6EC32010FC158B3B36B87643234C143BF517F4D41B02E2A2C460F1A8FAF985984AEDA9A75DCDCECCEE0E3D7DADF7EA5339AFAD1900AE11A89411566AB30C20862B24A03A
310
31EAAC0DBF68A0327C5503C830607471366E0512D60465326AAC5405E4DEAB002A714FCD00BCF8502BAF790C89E16FF5C6C58D2FAAC6F5CE6334462D8B54CBE4A6AF5A39C03099DAEE424638B6CF0876683E43325D089CA7797E25633B1DE6336DB298D1A0D79FEDC2291E9404AC45F800510F3179C3E8D8BF1CFBEE9D3699
310
C9A80F2EFD5C96E6EF129D363BFAC72D6EF27FB7A84D786A8BDBAEF0E9FE74DC63C06893D349E5115DAA3949F60D504B03041400060808007B57B24A940E7A5CF9000000960100003B0000006662782F43384643463441382D334535322D344239422D393638422D3037424442444436363636302F7265736F75726365732F
310
636F72652E786D6C8550CB6EC32010FC158B3B3676ED8646982876EA2FE8A937041B1725068B47D5CF2FC4AED49E7A5A343B33CB0C3B7D2DF7E2139CD7D6F4A82E092AC048ABB4997B14C31553549C3873D6865F345418B1408F328C389B9D8DEB0E496B02988C1AAB600785F7105021EFE9D1232F3F6011A5882131FCAD5C
310
85BC8919CABADC789CC5A8D52ED52AB9E9AB0687784DC7A6BDD0010FCD33C12D99CE988E178AA7719A5EE9D08C87E9CCAA2CE62CE8E5E7BA74200228C41B521F30E9704DDF6A72EC5E8E5DFBCEAACCE4CC079732EF47733AC41D781B9D04CFAA6DFBC735AEEA7FD7A84D786A76D74DE1538EF4C9C782B32AB794C6A3C23473
310
A3FC1B504B03041400060808007B57B24A6708262CF3000000B1010000310000006662782F43384643463441382D334535322D344239422D393638422D3037424442444436363636302F636F72652E786D6C8D504B6EC32014BC8AF5F6D8C6B1133BC24475DC9CA0ABEE10100725068B4FD5E31762576A7761F3D030C3CC1B
310
72FA9E1FD997B44E19DD03CE4BC8A4E646283DF510FC15B5909D28B1C6F83F34C8349B650F09064A266BC2B241DC682F7542B51172039973D243C61FF1D283E33739B39C051F19EE9E2F8CDFD924739CAF3C4ABC9A7FA5DC4AE6A5005A95F880CA06E1F60397C7A63B36F527291293921094D8AC9488EEEAAAA4057A6E2FE7
310
4BFDD6A2DD7B53A17AE806D4EDDB019587611CC6711F4F498A24A6C4791B77DE3E49DBBD2A5F85FF328745BC905969BFAB36C355E180E298E7F94049910A8CE3D96E9CA96CFA03504B03041400060808007B57B24A459F790054010000DD0200000C0000006662782F636F72652E786D6C8D52CB6E833010FC15E43BCF9286
310
46C65142CA17F4D49B631C6A056C646C94CFEF9A872887A61592B16677667746C6C747DB7803D7BD5032477110218F4BA62A21EB1C5973F333E41D09D64A991F6DC893B4E539723022B8D6CA7633C494345C3A54AA8ACF20ED7B6E90C71AB8E4A8675FBCA501B5063AFA7BD05176A7350FE260EA23D85A51CD5451819AB809
310
AE1189B322492FD9D93F27AF919F46E5C9CF8A4BE6974559BE67E7A4D897271C3A32C146B4CB74A63935BC422489E2BD1FEDFC38FB88A3C3EEEDB04B3F71E83A09EE8D06CFF350E70E91DBF581C309DFE8D9AEFA5BCF0A695E92596F62F4E000D61B0B04872E1FF88DE16D3384C1909FA1D766B1700768E0CC289D42A55276
310
2D0DB4B11CA4236FFC703855417914F84D2779A2F35C0382A2B286D5A881EBD51A377DBB53C7B53F988727956E69B32E37ADB89EEBA08DA585CE54A3F47FD88BD525CCD03D4CF20D504B03041400060808007B57B24AC40EEF9B08010000B201000008000000636F72652E786D6C8D50416EC32010FC0AE28E0DAEDDD00813
310
C54EFD829E7AA3401C141B2CC051FBFB42E24AEDADA74533B33BC3B0C3E73C819BF6C138DB42526008B4954E193BB6708D6744213870E69D8BBF64105831EB16661872367AB72E1B249D8DDA66D43AA5375084A02304724A8F160679D1B328C41A93225C8B45C8AB1875418A878EB368E69F55E9B5885A415E61B243B84184
310
BE11BC6F5EF64DFDCECAACE46C5D8DDAAC8C4AEEE66CB4879CD0BEAA4FB4435DF58C518D8723A2FD89A2A11F8657DA55FD6E38B2322F7316A24F7FDE8EA49C110471CBBEAC7C509C7D38376D82144A0167A72FC8312B33F127F4BAA87F8436363E55DBC1C746489953A03B918C738369DCEB4D33B7CDBF01504B0102140014
310
00060808007B57B24A0000000000000000000000003700000000000000000000000000000000006662782F43384643463441382D334535322D344239422D393638422D3037424442444436363636302F617474726962757465732E62696E504B010214001400060808007B57B24A0000000000000000000000003500000000
310
000000000000000000550000006662782F43384643463441382D334535322D344239422D393638422D3037424442444436363636302F76657274696365732E62696E504B010214001400060808007B57B24AF270F13306000000040000003600000000000000000000000000A80000006662782F43384643463441382D3345
310
35322D344239422D393638422D3037424442444436363636302F747269616E676C65732E62696E504B010214001400060808007B57B24A88E57597CD3F0000904100004200000000000000000000000000020100006662782F43384643463441382D334535322D344239422D393638422D3037424442444436363636302F72
310
65736F75726365732F322F305F67656E657269632E706E67504B010214001400060808007B57B24A51464CB4890000004301000036000000000000000000000000002F4100006662782F43384643463441382D334535322D344239422D393638422D3037424442444436363636302F6469726563746F72792E786D6C504B01
310
0214001400060808007B57B24A20D25C9342070000201C000034000000000000000000000000000C4200006662782F43384643463441382D334535322D344239422D393638422D3037424442444436363636302F6F626A656374732E786D6C504B010214001400060808007B57B24A03896497DF000000530100003C000000
310
00000000000000000000A04900006662782F43384643463441382D334535322D344239422D393638422D3037424442444436363636302F7265736F75726365732F322F636E782E786D6C504B010214001400060808007B57B24AFF15A4A45D000000800000003A00000000000000000000000000D94A00006662782F433846
310
43463441382D334535322D344239422D393638422D3037424442444436363636302F7265736F75726365732F636E782E786D6C504B010214001400060808007B57B24A5A58E3023E0100004605000030000000000000000000000000008E4B00006662782F43384643463441382D334535322D344239422D393638422D3037
310
424442444436363636302F636E782E786D6C504B010214001400060808007B57B24ACA1120D27F000000A30000000B000000000000000000000000001A4D00006662782F636E782E786D6C504B010214001400060808007B57B24AA6D797065F000000820000000700000000000000000000000000C24D0000636E782E786D
310
6C504B010214001400060808007B57B24AECFD112DA8000000260100001300000000000000000000000000464E00005B436F6E74656E745F54797065735D2E786D6C504B010214001400060808007B57B24A3DEE336E64000000790000001B000000000000000000000000001F4F00006175746F6465736B2D64657369676E
310
2D7061636B6167652E786D6C504B010214001400060808007B57B24AA7A4DA67F40000008E0100003D00000000000000000000000000BC4F00006662782F43384643463441382D334535322D344239422D393638422D3037424442444436363636302F7265736F75726365732F322F636F72652E786D6C504B010214001400
310
060808007B57B24A940E7A5CF9000000960100003B000000000000000000000000000B5100006662782F43384643463441382D334535322D344239422D393638422D3037424442444436363636302F7265736F75726365732F636F72652E786D6C504B010214001400060808007B57B24A6708262CF3000000B10100003100
310
0000000000000000000000005D5200006662782F43384643463441382D334535322D344239422D393638422D3037424442444436363636302F636F72652E786D6C504B010214001400060808007B57B24A459F790054010000DD0200000C000000000000000000000000009F5300006662782F636F72652E786D6C504B0102
310
14001400060808007B57B24AC40EEF9B08010000B201000008000000000000000000000000001D550000636F72652E786D6C504B050600000000120012002D0600004B5600000000
  0
XRECORD
  5
97F1A
102
{ACAD_REACTORS
330
97F19
102
}
330
97F19
100
AcDbXrecord
280
     1
102
ACAD_ROUNDTRIP_2012_MLEADER_STYLE
298
     1
  0
XRECORD
  5
97F16
102
{ACAD_REACTORS
330
97F15
102
}
330
97F15
100
AcDbXrecord
280
     1
102
ACAD_ROUNDTRIP_2012_MLEADER_STYLE
298
     1
  0
XRECORD
  5
97E85
102
{ACAD_REACTORS
330
97E72
102
}
330
97E72
100
AcDbXrecord
280
     1
102
DISPLAYNAME
  1
Metric50
102
FLAGS
 90
        0
  0
CELLSTYLEMAP
  5
97EDA
102
{ACAD_REACTORS
330
97ED9
102
}
330
97ED9
100
AcDbCellStyleMap
 90
        3
300
CELLSTYLE
  1
TABLEFORMAT_BEGIN
 90
        5
170
     1
 91
        0
 92
        0
 62
   257
 93
        1
300
CONTENTFORMAT
  1
CONTENTFORMAT_BEGIN
 90
        0
 91
        0
 92
        4
 93
        0
300

 40
0.0
140
1.0
 94
        5
 62
     0
340
17
144
6.0
309
CONTENTFORMAT_END
171
     1
301
MARGIN
  1
CELLMARGIN_BEGIN
 40
1.5
 40
1.5
 40
1.5
 40
1.5
 40
1.5
 40
1.5
309
CELLMARGIN_END
 94
        6
 95
        1
302
GRIDFORMAT
  1
GRIDFORMAT_BEGIN
 90
        0
 91
        1
 62
     0
 92
       -2
340
11
 93
        0
 40
0.045
309
GRIDFORMAT_END
 95
        2
302
GRIDFORMAT
  1
GRIDFORMAT_BEGIN
 90
        0
 91
        1
 62
     0
 92
       -2
340
11
 93
        0
 40
0.045
309
GRIDFORMAT_END
 95
        4
302
GRIDFORMAT
  1
GRIDFORMAT_BEGIN
 90
        0
 91
        1
 62
     0
 92
       -2
340
11
 93
        0
 40
0.045
309
GRIDFORMAT_END
 95
        8
302
GRIDFORMAT
  1
GRIDFORMAT_BEGIN
 90
        0
 91
        1
 62
     0
 92
       -2
340
11
 93
        0
 40
0.045
309
GRIDFORMAT_END
 95
       16
302
GRIDFORMAT
  1
GRIDFORMAT_BEGIN
 90
        0
 91
        1
 62
     0
 92
       -2
340
11
 93
        0
 40
0.045
309
GRIDFORMAT_END
 95
       32
302
GRIDFORMAT
  1
GRIDFORMAT_BEGIN
 90
        0
 91
        1
 62
     0
 92
       -2
340
11
 93
        0
 40
0.045
309
GRIDFORMAT_END
309
TABLEFORMAT_END
  1
CELLSTYLE_BEGIN
 90
        1
 91
        1
300
_TITLE
309
CELLSTYLE_END
300
CELLSTYLE
  1
TABLEFORMAT_BEGIN
 90
        5
170
     1
 91
        0
 92
        0
 62
   257
 93
        1
300
CONTENTFORMAT
  1
CONTENTFORMAT_BEGIN
 90
        0
 91
        0
 92
        4
 93
        0
300

 40
0.0
140
1.0
 94
        5
 62
     0
340
17
144
4.5
309
CONTENTFORMAT_END
171
     1
301
MARGIN
  1
CELLMARGIN_BEGIN
 40
1.5
 40
1.5
 40
1.5
 40
1.5
 40
1.5
 40
1.5
309
CELLMARGIN_END
 94
        6
 95
        1
302
GRIDFORMAT
  1
GRIDFORMAT_BEGIN
 90
        0
 91
        1
 62
     0
 92
       -2
340
11
 93
        0
 40
0.045
309
GRIDFORMAT_END
 95
        2
302
GRIDFORMAT
  1
GRIDFORMAT_BEGIN
 90
        0
 91
        1
 62
     0
 92
       -2
340
11
 93
        0
 40
0.045
309
GRIDFORMAT_END
 95
        4
302
GRIDFORMAT
  1
GRIDFORMAT_BEGIN
 90
        0
 91
        1
 62
     0
 92
       -2
340
11
 93
        0
 40
0.045
309
GRIDFORMAT_END
 95
        8
302
GRIDFORMAT
  1
GRIDFORMAT_BEGIN
 90
        0
 91
        1
 62
     0
 92
       -2
340
11
 93
        0
 40
0.045
309
GRIDFORMAT_END
 95
       16
302
GRIDFORMAT
  1
GRIDFORMAT_BEGIN
 90
        0
 91
        1
 62
     0
 92
       -2
340
11
 93
        0
 40
0.045
309
GRIDFORMAT_END
 95
       32
302
GRIDFORMAT
  1
GRIDFORMAT_BEGIN
 90
        0
 91
        1
 62
     0
 92
       -2
340
11
 93
        0
 40
0.045
309
GRIDFORMAT_END
309
TABLEFORMAT_END
  1
CELLSTYLE_BEGIN
 90
        2
 91
        1
300
_HEADER
309
CELLSTYLE_END
300
CELLSTYLE
  1
TABLEFORMAT_BEGIN
 90
        5
170
     1
 91
        0
 92
        0
 62
   257
 93
        1
300
CONTENTFORMAT
  1
CONTENTFORMAT_BEGIN
 90
        0
 91
        0
 92
        4
 93
        0
300

 40
0.0
140
1.0
 94
        2
 62
     0
340
17
144
4.5
309
CONTENTFORMAT_END
171
     1
301
MARGIN
  1
CELLMARGIN_BEGIN
 40
1.5
 40
1.5
 40
1.5
 40
1.5
 40
1.5
 40
1.5
309
CELLMARGIN_END
 94
        6
 95
        1
302
GRIDFORMAT
  1
GRIDFORMAT_BEGIN
 90
        0
 91
        1
 62
     0
 92
       -2
340
11
 93
        0
 40
0.045
309
GRIDFORMAT_END
 95
        2
302
GRIDFORMAT
  1
GRIDFORMAT_BEGIN
 90
        0
 91
        1
 62
     0
 92
       -2
340
11
 93
        0
 40
0.045
309
GRIDFORMAT_END
 95
        4
302
GRIDFORMAT
  1
GRIDFORMAT_BEGIN
 90
        0
 91
        1
 62
     0
 92
       -2
340
11
 93
        0
 40
0.045
309
GRIDFORMAT_END
 95
        8
302
GRIDFORMAT
  1
GRIDFORMAT_BEGIN
 90
        0
 91
        1
 62
     0
 92
       -2
340
11
 93
        0
 40
0.045
309
GRIDFORMAT_END
 95
       16
302
GRIDFORMAT
  1
GRIDFORMAT_BEGIN
 90
        0
 91
        1
 62
     0
 92
       -2
340
11
 93
        0
 40
0.045
309
GRIDFORMAT_END
 95
       32
302
GRIDFORMAT
  1
GRIDFORMAT_BEGIN
 90
        0
 91
        1
 62
     0
 92
       -2
340
11
 93
        0
 40
0.045
309
GRIDFORMAT_END
309
TABLEFORMAT_END
  1
CELLSTYLE_BEGIN
 90
        3
 91
        2
300
_DATA
309
CELLSTYLE_END
  0
XRECORD
  5
97EEE
102
{ACAD_REACTORS
330
97EED
102
}
330
97EED
100
AcDbXrecord
280
     1
102
RTVSPost2010Prop28
280
     1
102
RTVSPost2010PropOp28
 70
     1
102
RTVSPost2010Prop29
280
     1
102
RTVSPost2010PropOp29
 70
     1
102
RTVSPost2010Prop30
280
     0
102
RTVSPost2010PropOp30
 70
     1
102
RTVSPost2010Prop31
280
     0
102
RTVSPost2010PropOp31
 70
     1
102
RTVSPost2010Prop32
280
     0
102
RTVSPost2010PropOp32
 70
     1
102
RTVSPost2010Prop33
280
     0
102
RTVSPost2010PropOp33
 70
     1
102
RTVSPost2010Prop34
280
     0
102
RTVSPost2010PropOp34
 70
     1
102
RTVSPost2010Prop35
280
     0
102
RTVSPost2010PropOp35
 70
     1
102
RTVSPost2010Prop36
280
     0
102
RTVSPost2010PropOp36
 70
     1
102
RTVSPost2010Prop37
 90
       50
102
RTVSPost2010PropOp37
 70
     1
102
RTVSPost2010Prop38
140
0.0
102
RTVSPost2010PropOp38
 70
     1
102
RTVSPost2010Prop39
140
1.0
102
RTVSPost2010PropOp39
 70
     1
102
RTVSPost2010Prop40
 90
        0
102
RTVSPost2010PropOp40
 70
     1
102
RTVSPost2010Prop41ColorIndex
 90
       18
102
RTVSPost2010Prop41ColorRGB
 90
        0
102
RTVSPost2010PropOp41
 70
     1
102
RTVSPost2010Prop42
 90
       50
102
RTVSPost2010PropOp42
 70
     1
102
RTVSPost2010Prop43
 90
        3
102
RTVSPost2010PropOp43
 70
     1
102
RTVSPost2010Prop44ColorIndex
 90
        5
102
RTVSPost2010Prop44ColorRGB
 90
      255
102
RTVSPost2010PropOp44
 70
     1
102
RTVSPost2010Prop45
280
     0
102
RTVSPost2010PropOp45
 70
     1
102
RTVSPost2010Prop46
 90
       50
102
RTVSPost2010PropOp46
 70
     1
102
RTVSPost2010Prop47
 90
       50
102
RTVSPost2010PropOp47
 70
     1
102
RTVSPost2010Prop48
 90
       50
102
RTVSPost2010PropOp48
 70
     1
102
RTVSPost2010Prop49
280
     0
102
RTVSPost2010PropOp49
 70
     1
102
RTVSPost2010Prop50
 90
       50
102
RTVSPost2010PropOp50
 70
     1
102
RTVSPost2010Prop51ColorIndex
 90
      256
102
RTVSPost2010Prop51ColorRGB
 90
-16777216
102
RTVSPost2010PropOp51
 70
     0
102
RTVSPost2010Prop52
140
1.0
102
RTVSPost2010PropOp52
 70
     0
102
RTVSPost2010Prop53
 90
        2
102
RTVSPost2010PropOp53
 70
     1
102
RTVSPost2010Prop54
  1
strokes_ogs.tif
102
RTVSPost2010PropOp54
 70
     1
102
RTVSPost2010Prop55
280
     0
102
RTVSPost2010PropOp55
 70
     1
102
RTVSPost2010Prop56
140
1.0
102
RTVSPost2010PropOp56
 70
     1
102
RTVSPost2010Prop57
140
1.0
102
RTVSPost2010PropOp57
 70
     1
  0
XRECORD
  5
97F1C
102
{ACAD_REACTORS
330
97F1B
102
}
330
97F1B
100
AcDbXrecord
280
     1
102
RTVSPost2010Prop28
280
     0
102
RTVSPost2010PropOp28
 70
     1
102
RTVSPost2010Prop29
280
     1
102
RTVSPost2010PropOp29
 70
     1
102
RTVSPost2010Prop30
280
     1
102
RTVSPost2010PropOp30
 70
     1
102
RTVSPost2010Prop31
280
     0
102
RTVSPost2010PropOp31
 70
     1
102
RTVSPost2010Prop32
280
     0
102
RTVSPost2010PropOp32
 70
     1
102
RTVSPost2010Prop33
280
     0
102
RTVSPost2010PropOp33
 70
     1
102
RTVSPost2010Prop34
280
     0
102
RTVSPost2010PropOp34
 70
     1
102
RTVSPost2010Prop35
280
     0
102
RTVSPost2010PropOp35
 70
     1
102
RTVSPost2010Prop36
280
     0
102
RTVSPost2010PropOp36
 70
     1
102
RTVSPost2010Prop37
 90
       50
102
RTVSPost2010PropOp37
 70
     1
102
RTVSPost2010Prop38
140
0.0
102
RTVSPost2010PropOp38
 70
     1
102
RTVSPost2010Prop39
140
1.0
102
RTVSPost2010PropOp39
 70
     1
102
RTVSPost2010Prop40
 90
        0
102
RTVSPost2010PropOp40
 70
     1
102
RTVSPost2010Prop41ColorIndex
 90
       18
102
RTVSPost2010Prop41ColorRGB
 90
        0
102
RTVSPost2010PropOp41
 70
     1
102
RTVSPost2010Prop42
 90
       50
102
RTVSPost2010PropOp42
 70
     1
102
RTVSPost2010Prop43
 90
        3
102
RTVSPost2010PropOp43
 70
     1
102
RTVSPost2010Prop44ColorIndex
 90
        5
102
RTVSPost2010Prop44ColorRGB
 90
      255
102
RTVSPost2010PropOp44
 70
     1
102
RTVSPost2010Prop45
280
     0
102
RTVSPost2010PropOp45
 70
     1
102
RTVSPost2010Prop46
 90
       50
102
RTVSPost2010PropOp46
 70
     1
102
RTVSPost2010Prop47
 90
       50
102
RTVSPost2010PropOp47
 70
     1
102
RTVSPost2010Prop48
 90
       50
102
RTVSPost2010PropOp48
 70
     1
102
RTVSPost2010Prop49
280
     0
102
RTVSPost2010PropOp49
 70
     1
102
RTVSPost2010Prop50
 90
       50
102
RTVSPost2010PropOp50
 70
     1
102
RTVSPost2010Prop51ColorIndex
 90
      256
102
RTVSPost2010Prop51ColorRGB
 90
-16777216
102
RTVSPost2010PropOp51
 70
     0
102
RTVSPost2010Prop52
140
1.0
102
RTVSPost2010PropOp52
 70
     0
102
RTVSPost2010Prop53
 90
        2
102
RTVSPost2010PropOp53
 70
     1
102
RTVSPost2010Prop54
  1
strokes_ogs.tif
102
RTVSPost2010PropOp54
 70
     1
102
RTVSPost2010Prop55
280
     0
102
RTVSPost2010PropOp55
 70
     1
102
RTVSPost2010Prop56
140
1.0
102
RTVSPost2010PropOp56
 70
     1
102
RTVSPost2010Prop57
140
1.0
102
RTVSPost2010PropOp57
 70
     1
  0
XRECORD
  5
97EF4
102
{ACAD_REACTORS
330
97EF3
102
}
330
97EF3
100
AcDbXrecord
280
     1
102
RTVSPost2010Prop28
280
     0
102
RTVSPost2010PropOp28
 70
     1
102
RTVSPost2010Prop29
280
     1
102
RTVSPost2010PropOp29
 70
     1
102
RTVSPost2010Prop30
280
     1
102
RTVSPost2010PropOp30
 70
     1
102
RTVSPost2010Prop31
280
     0
102
RTVSPost2010PropOp31
 70
     1
102
RTVSPost2010Prop32
280
     0
102
RTVSPost2010PropOp32
 70
     1
102
RTVSPost2010Prop33
280
     0
102
RTVSPost2010PropOp33
 70
     1
102
RTVSPost2010Prop34
280
     0
102
RTVSPost2010PropOp34
 70
     1
102
RTVSPost2010Prop35
280
     0
102
RTVSPost2010PropOp35
 70
     1
102
RTVSPost2010Prop36
280
     0
102
RTVSPost2010PropOp36
 70
     1
102
RTVSPost2010Prop37
 90
       50
102
RTVSPost2010PropOp37
 70
     1
102
RTVSPost2010Prop38
140
0.0
102
RTVSPost2010PropOp38
 70
     1
102
RTVSPost2010Prop39
140
1.0
102
RTVSPost2010PropOp39
 70
     1
102
RTVSPost2010Prop40
 90
        0
102
RTVSPost2010PropOp40
 70
     1
102
RTVSPost2010Prop41ColorIndex
 90
       18
102
RTVSPost2010Prop41ColorRGB
 90
        0
102
RTVSPost2010PropOp41
 70
     1
102
RTVSPost2010Prop42
 90
       50
102
RTVSPost2010PropOp42
 70
     1
102
RTVSPost2010Prop43
 90
        3
102
RTVSPost2010PropOp43
 70
     1
102
RTVSPost2010Prop44ColorIndex
 90
        5
102
RTVSPost2010Prop44ColorRGB
 90
      255
102
RTVSPost2010PropOp44
 70
     1
102
RTVSPost2010Prop45
280
     0
102
RTVSPost2010PropOp45
 70
     1
102
RTVSPost2010Prop46
 90
       50
102
RTVSPost2010PropOp46
 70
     1
102
RTVSPost2010Prop47
 90
       50
102
RTVSPost2010PropOp47
 70
     1
102
RTVSPost2010Prop48
 90
       50
102
RTVSPost2010PropOp48
 70
     1
102
RTVSPost2010Prop49
280
     0
102
RTVSPost2010PropOp49
 70
     1
102
RTVSPost2010Prop50
 90
       50
102
RTVSPost2010PropOp50
 70
     1
102
RTVSPost2010Prop51ColorIndex
 90
      256
102
RTVSPost2010Prop51ColorRGB
 90
-16777216
102
RTVSPost2010PropOp51
 70
     0
102
RTVSPost2010Prop52
140
1.0
102
RTVSPost2010PropOp52
 70
     0
102
RTVSPost2010Prop53
 90
        2
102
RTVSPost2010PropOp53
 70
     1
102
RTVSPost2010Prop54
  1
strokes_ogs.tif
102
RTVSPost2010PropOp54
 70
     1
102
RTVSPost2010Prop55
280
     0
102
RTVSPost2010PropOp55
 70
     1
102
RTVSPost2010Prop56
140
1.0
102
RTVSPost2010PropOp56
 70
     1
102
RTVSPost2010Prop57
140
1.0
102
RTVSPost2010PropOp57
 70
     1
  0
XRECORD
  5
97EFC
102
{ACAD_REACTORS
330
97EFB
102
}
330
97EFB
100
AcDbXrecord
280
     1
102
RTVSPost2010Prop28
280
     0
102
RTVSPost2010PropOp28
 70
     1
102
RTVSPost2010Prop29
280
     1
102
RTVSPost2010PropOp29
 70
     1
102
RTVSPost2010Prop30
280
     1
102
RTVSPost2010PropOp30
 70
     1
102
RTVSPost2010Prop31
280
     0
102
RTVSPost2010PropOp31
 70
     1
102
RTVSPost2010Prop32
280
     0
102
RTVSPost2010PropOp32
 70
     1
102
RTVSPost2010Prop33
280
     0
102
RTVSPost2010PropOp33
 70
     1
102
RTVSPost2010Prop34
280
     0
102
RTVSPost2010PropOp34
 70
     1
102
RTVSPost2010Prop35
280
     0
102
RTVSPost2010PropOp35
 70
     1
102
RTVSPost2010Prop36
280
     0
102
RTVSPost2010PropOp36
 70
     1
102
RTVSPost2010Prop37
 90
       50
102
RTVSPost2010PropOp37
 70
     1
102
RTVSPost2010Prop38
140
0.0
102
RTVSPost2010PropOp38
 70
     1
102
RTVSPost2010Prop39
140
1.0
102
RTVSPost2010PropOp39
 70
     1
102
RTVSPost2010Prop40
 90
        0
102
RTVSPost2010PropOp40
 70
     1
102
RTVSPost2010Prop41ColorIndex
 90
       18
102
RTVSPost2010Prop41ColorRGB
 90
        0
102
RTVSPost2010PropOp41
 70
     1
102
RTVSPost2010Prop42
 90
       50
102
RTVSPost2010PropOp42
 70
     1
102
RTVSPost2010Prop43
 90
        3
102
RTVSPost2010PropOp43
 70
     1
102
RTVSPost2010Prop44ColorIndex
 90
        5
102
RTVSPost2010Prop44ColorRGB
 90
      255
102
RTVSPost2010PropOp44
 70
     1
102
RTVSPost2010Prop45
280
     0
102
RTVSPost2010PropOp45
 70
     1
102
RTVSPost2010Prop46
 90
       50
102
RTVSPost2010PropOp46
 70
     1
102
RTVSPost2010Prop47
 90
       50
102
RTVSPost2010PropOp47
 70
     1
102
RTVSPost2010Prop48
 90
       50
102
RTVSPost2010PropOp48
 70
     1
102
RTVSPost2010Prop49
280
     0
102
RTVSPost2010PropOp49
 70
     1
102
RTVSPost2010Prop50
 90
       50
102
RTVSPost2010PropOp50
 70
     1
102
RTVSPost2010Prop51ColorIndex
 90
      256
102
RTVSPost2010Prop51ColorRGB
 90
-16777216
102
RTVSPost2010PropOp51
 70
     0
102
RTVSPost2010Prop52
140
1.0
102
RTVSPost2010PropOp52
 70
     0
102
RTVSPost2010Prop53
 90
        2
102
RTVSPost2010PropOp53
 70
     1
102
RTVSPost2010Prop54
  1
strokes_ogs.tif
102
RTVSPost2010PropOp54
 70
     1
102
RTVSPost2010Prop55
280
     0
102
RTVSPost2010PropOp55
 70
     1
102
RTVSPost2010Prop56
140
1.0
102
RTVSPost2010PropOp56
 70
     1
102
RTVSPost2010Prop57
140
1.0
102
RTVSPost2010PropOp57
 70
     1
  0
XRECORD
  5
97F04
102
{ACAD_REACTORS
330
97F03
102
}
330
97F03
100
AcDbXrecord
280
     1
102
RTVSPost2010Prop28
280
     0
102
RTVSPost2010PropOp28
 70
     1
102
RTVSPost2010Prop29
280
     1
102
RTVSPost2010PropOp29
 70
     1
102
RTVSPost2010Prop30
280
     1
102
RTVSPost2010PropOp30
 70
     1
102
RTVSPost2010Prop31
280
     0
102
RTVSPost2010PropOp31
 70
     1
102
RTVSPost2010Prop32
280
     0
102
RTVSPost2010PropOp32
 70
     1
102
RTVSPost2010Prop33
280
     0
102
RTVSPost2010PropOp33
 70
     1
102
RTVSPost2010Prop34
280
     0
102
RTVSPost2010PropOp34
 70
     1
102
RTVSPost2010Prop35
280
     0
102
RTVSPost2010PropOp35
 70
     1
102
RTVSPost2010Prop36
280
     0
102
RTVSPost2010PropOp36
 70
     1
102
RTVSPost2010Prop37
 90
       50
102
RTVSPost2010PropOp37
 70
     1
102
RTVSPost2010Prop38
140
0.0
102
RTVSPost2010PropOp38
 70
     1
102
RTVSPost2010Prop39
140
1.0
102
RTVSPost2010PropOp39
 70
     1
102
RTVSPost2010Prop40
 90
        0
102
RTVSPost2010PropOp40
 70
     1
102
RTVSPost2010Prop41ColorIndex
 90
       18
102
RTVSPost2010Prop41ColorRGB
 90
        0
102
RTVSPost2010PropOp41
 70
     1
102
RTVSPost2010Prop42
 90
       50
102
RTVSPost2010PropOp42
 70
     1
102
RTVSPost2010Prop43
 90
        3
102
RTVSPost2010PropOp43
 70
     1
102
RTVSPost2010Prop44ColorIndex
 90
        5
102
RTVSPost2010Prop44ColorRGB
 90
      255
102
RTVSPost2010PropOp44
 70
     1
102
RTVSPost2010Prop45
280
     0
102
RTVSPost2010PropOp45
 70
     1
102
RTVSPost2010Prop46
 90
       50
102
RTVSPost2010PropOp46
 70
     1
102
RTVSPost2010Prop47
 90
       50
102
RTVSPost2010PropOp47
 70
     1
102
RTVSPost2010Prop48
 90
       50
102
RTVSPost2010PropOp48
 70
     1
102
RTVSPost2010Prop49
280
     0
102
RTVSPost2010PropOp49
 70
     1
102
RTVSPost2010Prop50
 90
       50
102
RTVSPost2010PropOp50
 70
     1
102
RTVSPost2010Prop51ColorIndex
 90
      256
102
RTVSPost2010Prop51ColorRGB
 90
-16777216
102
RTVSPost2010PropOp51
 70
     0
102
RTVSPost2010Prop52
140
1.0
102
RTVSPost2010PropOp52
 70
     0
102
RTVSPost2010Prop53
 90
        2
102
RTVSPost2010PropOp53
 70
     1
102
RTVSPost2010Prop54
  1
strokes_ogs.tif
102
RTVSPost2010PropOp54
 70
     1
102
RTVSPost2010Prop55
280
     0
102
RTVSPost2010PropOp55
 70
     1
102
RTVSPost2010Prop56
140
1.0
102
RTVSPost2010PropOp56
 70
     1
102
RTVSPost2010Prop57
140
1.0
102
RTVSPost2010PropOp57
 70
     1
  0
XRECORD
  5
97EF8
102
{ACAD_REACTORS
330
97EF7
102
}
330
97EF7
100
AcDbXrecord
280
     1
102
RTVSPost2010Prop28
280
     0
102
RTVSPost2010PropOp28
 70
     1
102
RTVSPost2010Prop29
280
     1
102
RTVSPost2010PropOp29
 70
     1
102
RTVSPost2010Prop30
280
     1
102
RTVSPost2010PropOp30
 70
     1
102
RTVSPost2010Prop31
280
     0
102
RTVSPost2010PropOp31
 70
     1
102
RTVSPost2010Prop32
280
     0
102
RTVSPost2010PropOp32
 70
     1
102
RTVSPost2010Prop33
280
     0
102
RTVSPost2010PropOp33
 70
     1
102
RTVSPost2010Prop34
280
     0
102
RTVSPost2010PropOp34
 70
     1
102
RTVSPost2010Prop35
280
     0
102
RTVSPost2010PropOp35
 70
     1
102
RTVSPost2010Prop36
280
     0
102
RTVSPost2010PropOp36
 70
     1
102
RTVSPost2010Prop37
 90
       50
102
RTVSPost2010PropOp37
 70
     1
102
RTVSPost2010Prop38
140
0.0
102
RTVSPost2010PropOp38
 70
     1
102
RTVSPost2010Prop39
140
1.0
102
RTVSPost2010PropOp39
 70
     1
102
RTVSPost2010Prop40
 90
        0
102
RTVSPost2010PropOp40
 70
     1
102
RTVSPost2010Prop41ColorIndex
 90
       18
102
RTVSPost2010Prop41ColorRGB
 90
        0
102
RTVSPost2010PropOp41
 70
     1
102
RTVSPost2010Prop42
 90
       50
102
RTVSPost2010PropOp42
 70
     1
102
RTVSPost2010Prop43
 90
        3
102
RTVSPost2010PropOp43
 70
     1
102
RTVSPost2010Prop44ColorIndex
 90
        5
102
RTVSPost2010Prop44ColorRGB
 90
      255
102
RTVSPost2010PropOp44
 70
     1
102
RTVSPost2010Prop45
280
     0
102
RTVSPost2010PropOp45
 70
     1
102
RTVSPost2010Prop46
 90
       50
102
RTVSPost2010PropOp46
 70
     1
102
RTVSPost2010Prop47
 90
       50
102
RTVSPost2010PropOp47
 70
     1
102
RTVSPost2010Prop48
 90
       50
102
RTVSPost2010PropOp48
 70
     1
102
RTVSPost2010Prop49
280
     0
102
RTVSPost2010PropOp49
 70
     1
102
RTVSPost2010Prop50
 90
       50
102
RTVSPost2010PropOp50
 70
     1
102
RTVSPost2010Prop51ColorIndex
 90
      256
102
RTVSPost2010Prop51ColorRGB
 90
-16777216
102
RTVSPost2010PropOp51
 70
     0
102
RTVSPost2010Prop52
140
1.0
102
RTVSPost2010PropOp52
 70
     0
102
RTVSPost2010Prop53
 90
        2
102
RTVSPost2010PropOp53
 70
     1
102
RTVSPost2010Prop54
  1
strokes_ogs.tif
102
RTVSPost2010PropOp54
 70
     1
102
RTVSPost2010Prop55
280
     0
102
RTVSPost2010PropOp55
 70
     1
102
RTVSPost2010Prop56
140
1.0
102
RTVSPost2010PropOp56
 70
     1
102
RTVSPost2010Prop57
140
1.0
102
RTVSPost2010PropOp57
 70
     1
  0
XRECORD
  5
97EFA
102
{ACAD_REACTORS
330
97EF9
102
}
330
97EF9
100
AcDbXrecord
280
     1
102
RTVSPost2010Prop28
280
     0
102
RTVSPost2010PropOp28
 70
     1
102
RTVSPost2010Prop29
280
     1
102
RTVSPost2010PropOp29
 70
     1
102
RTVSPost2010Prop30
280
     1
102
RTVSPost2010PropOp30
 70
     1
102
RTVSPost2010Prop31
280
     0
102
RTVSPost2010PropOp31
 70
     1
102
RTVSPost2010Prop32
280
     0
102
RTVSPost2010PropOp32
 70
     1
102
RTVSPost2010Prop33
280
     0
102
RTVSPost2010PropOp33
 70
     1
102
RTVSPost2010Prop34
280
     0
102
RTVSPost2010PropOp34
 70
     1
102
RTVSPost2010Prop35
280
     0
102
RTVSPost2010PropOp35
 70
     1
102
RTVSPost2010Prop36
280
     0
102
RTVSPost2010PropOp36
 70
     1
102
RTVSPost2010Prop37
 90
       50
102
RTVSPost2010PropOp37
 70
     1
102
RTVSPost2010Prop38
140
0.0
102
RTVSPost2010PropOp38
 70
     1
102
RTVSPost2010Prop39
140
1.0
102
RTVSPost2010PropOp39
 70
     1
102
RTVSPost2010Prop40
 90
        0
102
RTVSPost2010PropOp40
 70
     1
102
RTVSPost2010Prop41ColorIndex
 90
       18
102
RTVSPost2010Prop41ColorRGB
 90
        0
102
RTVSPost2010PropOp41
 70
     1
102
RTVSPost2010Prop42
 90
       50
102
RTVSPost2010PropOp42
 70
     1
102
RTVSPost2010Prop43
 90
        3
102
RTVSPost2010PropOp43
 70
     1
102
RTVSPost2010Prop44ColorIndex
 90
        5
102
RTVSPost2010Prop44ColorRGB
 90
      255
102
RTVSPost2010PropOp44
 70
     1
102
RTVSPost2010Prop45
280
     0
102
RTVSPost2010PropOp45
 70
     1
102
RTVSPost2010Prop46
 90
       50
102
RTVSPost2010PropOp46
 70
     1
102
RTVSPost2010Prop47
 90
       50
102
RTVSPost2010PropOp47
 70
     1
102
RTVSPost2010Prop48
 90
       50
102
RTVSPost2010PropOp48
 70
     1
102
RTVSPost2010Prop49
280
     0
102
RTVSPost2010PropOp49
 70
     1
102
RTVSPost2010Prop50
 90
       50
102
RTVSPost2010PropOp50
 70
     1
102
RTVSPost2010Prop51ColorIndex
 90
      256
102
RTVSPost2010Prop51ColorRGB
 90
-16777216
102
RTVSPost2010PropOp51
 70
     0
102
RTVSPost2010Prop52
140
1.0
102
RTVSPost2010PropOp52
 70
     0
102
RTVSPost2010Prop53
 90
        2
102
RTVSPost2010PropOp53
 70
     1
102
RTVSPost2010Prop54
  1
strokes_ogs.tif
102
RTVSPost2010PropOp54
 70
     1
102
RTVSPost2010Prop55
280
     0
102
RTVSPost2010PropOp55
 70
     1
102
RTVSPost2010Prop56
140
1.0
102
RTVSPost2010PropOp56
 70
     1
102
RTVSPost2010Prop57
140
1.0
102
RTVSPost2010PropOp57
 70
     1
  0
XRECORD
  5
97F0A
102
{ACAD_REACTORS
330
97F09
102
}
330
97F09
100
AcDbXrecord
280
     1
102
RTVSPost2010Prop28
280
     0
102
RTVSPost2010PropOp28
 70
     0
102
RTVSPost2010Prop29
280
     1
102
RTVSPost2010PropOp29
 70
     0
102
RTVSPost2010Prop30
280
     1
102
RTVSPost2010PropOp30
 70
     0
102
RTVSPost2010Prop31
280
     0
102
RTVSPost2010PropOp31
 70
     0
102
RTVSPost2010Prop32
280
     0
102
RTVSPost2010PropOp32
 70
     0
102
RTVSPost2010Prop33
280
     0
102
RTVSPost2010PropOp33
 70
     0
102
RTVSPost2010Prop34
280
     0
102
RTVSPost2010PropOp34
 70
     0
102
RTVSPost2010Prop35
280
     0
102
RTVSPost2010PropOp35
 70
     0
102
RTVSPost2010Prop36
280
     0
102
RTVSPost2010PropOp36
 70
     0
102
RTVSPost2010Prop37
 90
       50
102
RTVSPost2010PropOp37
 70
     0
102
RTVSPost2010Prop38
140
0.0
102
RTVSPost2010PropOp38
 70
     0
102
RTVSPost2010Prop39
140
1.0
102
RTVSPost2010PropOp39
 70
     0
102
RTVSPost2010Prop40
 90
        0
102
RTVSPost2010PropOp40
 70
     0
102
RTVSPost2010Prop41ColorIndex
 90
       18
102
RTVSPost2010Prop41ColorRGB
 90
        0
102
RTVSPost2010PropOp41
 70
     0
102
RTVSPost2010Prop42
 90
       50
102
RTVSPost2010PropOp42
 70
     0
102
RTVSPost2010Prop43
 90
        3
102
RTVSPost2010PropOp43
 70
     0
102
RTVSPost2010Prop44ColorIndex
 90
        5
102
RTVSPost2010Prop44ColorRGB
 90
      255
102
RTVSPost2010PropOp44
 70
     0
102
RTVSPost2010Prop45
280
     0
102
RTVSPost2010PropOp45
 70
     0
102
RTVSPost2010Prop46
 90
       50
102
RTVSPost2010PropOp46
 70
     0
102
RTVSPost2010Prop47
 90
       50
102
RTVSPost2010PropOp47
 70
     0
102
RTVSPost2010Prop48
 90
       50
102
RTVSPost2010PropOp48
 70
     0
102
RTVSPost2010Prop49
280
     0
102
RTVSPost2010PropOp49
 70
     0
102
RTVSPost2010Prop50
 90
       50
102
RTVSPost2010PropOp50
 70
     0
102
RTVSPost2010Prop51ColorIndex
 90
      256
102
RTVSPost2010Prop51ColorRGB
 90
-16777216
102
RTVSPost2010PropOp51
 70
     0
102
RTVSPost2010Prop52
140
1.0
102
RTVSPost2010PropOp52
 70
     0
102
RTVSPost2010Prop53
 90
        2
102
RTVSPost2010PropOp53
 70
     0
102
RTVSPost2010Prop54
  1
strokes_ogs.tif
102
RTVSPost2010PropOp54
 70
     0
102
RTVSPost2010Prop55
280
     0
102
RTVSPost2010PropOp55
 70
     0
102
RTVSPost2010Prop56
140
1.0
102
RTVSPost2010PropOp56
 70
     0
102
RTVSPost2010Prop57
140
1.0
102
RTVSPost2010PropOp57
 70
     0
  0
XRECORD
  5
97F02
102
{ACAD_REACTORS
330
97F01
102
}
330
97F01
100
AcDbXrecord
280
     1
102
RTVSPost2010Prop28
280
     0
102
RTVSPost2010PropOp28
 70
     1
102
RTVSPost2010Prop29
280
     1
102
RTVSPost2010PropOp29
 70
     1
102
RTVSPost2010Prop30
280
     1
102
RTVSPost2010PropOp30
 70
     1
102
RTVSPost2010Prop31
280
     0
102
RTVSPost2010PropOp31
 70
     1
102
RTVSPost2010Prop32
280
     0
102
RTVSPost2010PropOp32
 70
     1
102
RTVSPost2010Prop33
280
     0
102
RTVSPost2010PropOp33
 70
     1
102
RTVSPost2010Prop34
280
     0
102
RTVSPost2010PropOp34
 70
     1
102
RTVSPost2010Prop35
280
     0
102
RTVSPost2010PropOp35
 70
     1
102
RTVSPost2010Prop36
280
     0
102
RTVSPost2010PropOp36
 70
     1
102
RTVSPost2010Prop37
 90
       50
102
RTVSPost2010PropOp37
 70
     1
102
RTVSPost2010Prop38
140
0.0
102
RTVSPost2010PropOp38
 70
     1
102
RTVSPost2010Prop39
140
1.0
102
RTVSPost2010PropOp39
 70
     1
102
RTVSPost2010Prop40
 90
        0
102
RTVSPost2010PropOp40
 70
     1
102
RTVSPost2010Prop41ColorIndex
 90
       18
102
RTVSPost2010Prop41ColorRGB
 90
        0
102
RTVSPost2010PropOp41
 70
     1
102
RTVSPost2010Prop42
 90
       50
102
RTVSPost2010PropOp42
 70
     1
102
RTVSPost2010Prop43
 90
        3
102
RTVSPost2010PropOp43
 70
     1
102
RTVSPost2010Prop44ColorIndex
 90
        5
102
RTVSPost2010Prop44ColorRGB
 90
      255
102
RTVSPost2010PropOp44
 70
     1
102
RTVSPost2010Prop45
280
     0
102
RTVSPost2010PropOp45
 70
     1
102
RTVSPost2010Prop46
 90
       50
102
RTVSPost2010PropOp46
 70
     1
102
RTVSPost2010Prop47
 90
       50
102
RTVSPost2010PropOp47
 70
     1
102
RTVSPost2010Prop48
 90
       50
102
RTVSPost2010PropOp48
 70
     1
102
RTVSPost2010Prop49
280
     0
102
RTVSPost2010PropOp49
 70
     1
102
RTVSPost2010Prop50
 90
       50
102
RTVSPost2010PropOp50
 70
     1
102
RTVSPost2010Prop51ColorIndex
 90
      256
102
RTVSPost2010Prop51ColorRGB
 90
-16777216
102
RTVSPost2010PropOp51
 70
     0
102
RTVSPost2010Prop52
140
1.0
102
RTVSPost2010PropOp52
 70
     0
102
RTVSPost2010Prop53
 90
        2
102
RTVSPost2010PropOp53
 70
     1
102
RTVSPost2010Prop54
  1
strokes_ogs.tif
102
RTVSPost2010PropOp54
 70
     1
102
RTVSPost2010Prop55
280
     0
102
RTVSPost2010PropOp55
 70
     1
102
RTVSPost2010Prop56
140
1.0
102
RTVSPost2010PropOp56
 70
     1
102
RTVSPost2010Prop57
140
1.0
102
RTVSPost2010PropOp57
 70
     1
  0
XRECORD
  5
97EE6
102
{ACAD_REACTORS
330
97EE5
102
}
330
97EE5
100
AcDbXrecord
280
     1
102
RTVSPost2010Prop28
280
     0
102
RTVSPost2010PropOp28
 70
     1
102
RTVSPost2010Prop29
280
     1
102
RTVSPost2010PropOp29
 70
     1
102
RTVSPost2010Prop30
280
     1
102
RTVSPost2010PropOp30
 70
     1
102
RTVSPost2010Prop31
280
     0
102
RTVSPost2010PropOp31
 70
     1
102
RTVSPost2010Prop32
280
     0
102
RTVSPost2010PropOp32
 70
     1
102
RTVSPost2010Prop33
280
     0
102
RTVSPost2010PropOp33
 70
     1
102
RTVSPost2010Prop34
280
     0
102
RTVSPost2010PropOp34
 70
     1
102
RTVSPost2010Prop35
280
     0
102
RTVSPost2010PropOp35
 70
     1
102
RTVSPost2010Prop36
280
     0
102
RTVSPost2010PropOp36
 70
     1
102
RTVSPost2010Prop37
 90
       50
102
RTVSPost2010PropOp37
 70
     1
102
RTVSPost2010Prop38
140
0.0
102
RTVSPost2010PropOp38
 70
     1
102
RTVSPost2010Prop39
140
1.0
102
RTVSPost2010PropOp39
 70
     1
102
RTVSPost2010Prop40
 90
        0
102
RTVSPost2010PropOp40
 70
     1
102
RTVSPost2010Prop41ColorIndex
 90
       18
102
RTVSPost2010Prop41ColorRGB
 90
        0
102
RTVSPost2010PropOp41
 70
     1
102
RTVSPost2010Prop42
 90
       50
102
RTVSPost2010PropOp42
 70
     1
102
RTVSPost2010Prop43
 90
        3
102
RTVSPost2010PropOp43
 70
     1
102
RTVSPost2010Prop44ColorIndex
 90
        5
102
RTVSPost2010Prop44ColorRGB
 90
      255
102
RTVSPost2010PropOp44
 70
     1
102
RTVSPost2010Prop45
280
     0
102
RTVSPost2010PropOp45
 70
     1
102
RTVSPost2010Prop46
 90
       50
102
RTVSPost2010PropOp46
 70
     1
102
RTVSPost2010Prop47
 90
       50
102
RTVSPost2010PropOp47
 70
     1
102
RTVSPost2010Prop48
 90
       50
102
RTVSPost2010PropOp48
 70
     1
102
RTVSPost2010Prop49
280
     0
102
RTVSPost2010PropOp49
 70
     1
102
RTVSPost2010Prop50
 90
       50
102
RTVSPost2010PropOp50
 70
     1
102
RTVSPost2010Prop51ColorIndex
 90
      256
102
RTVSPost2010Prop51ColorRGB
 90
-16777216
102
RTVSPost2010PropOp51
 70
     0
102
RTVSPost2010Prop52
140
1.0
102
RTVSPost2010PropOp52
 70
     0
102
RTVSPost2010Prop53
 90
        2
102
RTVSPost2010PropOp53
 70
     1
102
RTVSPost2010Prop54
  1
strokes_ogs.tif
102
RTVSPost2010PropOp54
 70
     1
102
RTVSPost2010Prop55
280
     0
102
RTVSPost2010PropOp55
 70
     1
102
RTVSPost2010Prop56
140
1.0
102
RTVSPost2010PropOp56
 70
     1
102
RTVSPost2010Prop57
140
1.0
102
RTVSPost2010PropOp57
 70
     1
  0
XRECORD
  5
97EE8
102
{ACAD_REACTORS
330
97EE7
102
}
330
97EE7
100
AcDbXrecord
280
     1
102
RTVSPost2010Prop28
280
     0
102
RTVSPost2010PropOp28
 70
     1
102
RTVSPost2010Prop29
280
     1
102
RTVSPost2010PropOp29
 70
     1
102
RTVSPost2010Prop30
280
     1
102
RTVSPost2010PropOp30
 70
     1
102
RTVSPost2010Prop31
280
     0
102
RTVSPost2010PropOp31
 70
     1
102
RTVSPost2010Prop32
280
     0
102
RTVSPost2010PropOp32
 70
     1
102
RTVSPost2010Prop33
280
     0
102
RTVSPost2010PropOp33
 70
     1
102
RTVSPost2010Prop34
280
     0
102
RTVSPost2010PropOp34
 70
     1
102
RTVSPost2010Prop35
280
     0
102
RTVSPost2010PropOp35
 70
     1
102
RTVSPost2010Prop36
280
     0
102
RTVSPost2010PropOp36
 70
     1
102
RTVSPost2010Prop37
 90
       50
102
RTVSPost2010PropOp37
 70
     1
102
RTVSPost2010Prop38
140
0.0
102
RTVSPost2010PropOp38
 70
     1
102
RTVSPost2010Prop39
140
1.0
102
RTVSPost2010PropOp39
 70
     1
102
RTVSPost2010Prop40
 90
        0
102
RTVSPost2010PropOp40
 70
     1
102
RTVSPost2010Prop41ColorIndex
 90
       18
102
RTVSPost2010Prop41ColorRGB
 90
        0
102
RTVSPost2010PropOp41
 70
     1
102
RTVSPost2010Prop42
 90
       50
102
RTVSPost2010PropOp42
 70
     1
102
RTVSPost2010Prop43
 90
        3
102
RTVSPost2010PropOp43
 70
     1
102
RTVSPost2010Prop44ColorIndex
 90
        5
102
RTVSPost2010Prop44ColorRGB
 90
      255
102
RTVSPost2010PropOp44
 70
     1
102
RTVSPost2010Prop45
280
     0
102
RTVSPost2010PropOp45
 70
     1
102
RTVSPost2010Prop46
 90
       50
102
RTVSPost2010PropOp46
 70
     1
102
RTVSPost2010Prop47
 90
       50
102
RTVSPost2010PropOp47
 70
     1
102
RTVSPost2010Prop48
 90
       50
102
RTVSPost2010PropOp48
 70
     1
102
RTVSPost2010Prop49
280
     0
102
RTVSPost2010PropOp49
 70
     1
102
RTVSPost2010Prop50
 90
       50
102
RTVSPost2010PropOp50
 70
     1
102
RTVSPost2010Prop51ColorIndex
 90
      256
102
RTVSPost2010Prop51ColorRGB
 90
-16777216
102
RTVSPost2010PropOp51
 70
     0
102
RTVSPost2010Prop52
140
1.0
102
RTVSPost2010PropOp52
 70
     0
102
RTVSPost2010Prop53
 90
        2
102
RTVSPost2010PropOp53
 70
     1
102
RTVSPost2010Prop54
  1
strokes_ogs.tif
102
RTVSPost2010PropOp54
 70
     1
102
RTVSPost2010Prop55
280
     0
102
RTVSPost2010PropOp55
 70
     1
102
RTVSPost2010Prop56
140
1.0
102
RTVSPost2010PropOp56
 70
     1
102
RTVSPost2010Prop57
140
1.0
102
RTVSPost2010PropOp57
 70
     1
  0
XRECORD
  5
97EEA
102
{ACAD_REACTORS
330
97EE9
102
}
330
97EE9
100
AcDbXrecord
280
     1
102
RTVSPost2010Prop28
280
     0
102
RTVSPost2010PropOp28
 70
     1
102
RTVSPost2010Prop29
280
     1
102
RTVSPost2010PropOp29
 70
     1
102
RTVSPost2010Prop30
280
     1
102
RTVSPost2010PropOp30
 70
     1
102
RTVSPost2010Prop31
280
     0
102
RTVSPost2010PropOp31
 70
     1
102
RTVSPost2010Prop32
280
     0
102
RTVSPost2010PropOp32
 70
     1
102
RTVSPost2010Prop33
280
     0
102
RTVSPost2010PropOp33
 70
     1
102
RTVSPost2010Prop34
280
     0
102
RTVSPost2010PropOp34
 70
     1
102
RTVSPost2010Prop35
280
     0
102
RTVSPost2010PropOp35
 70
     1
102
RTVSPost2010Prop36
280
     0
102
RTVSPost2010PropOp36
 70
     1
102
RTVSPost2010Prop37
 90
       50
102
RTVSPost2010PropOp37
 70
     1
102
RTVSPost2010Prop38
140
0.0
102
RTVSPost2010PropOp38
 70
     1
102
RTVSPost2010Prop39
140
1.0
102
RTVSPost2010PropOp39
 70
     1
102
RTVSPost2010Prop40
 90
        0
102
RTVSPost2010PropOp40
 70
     1
102
RTVSPost2010Prop41ColorIndex
 90
       18
102
RTVSPost2010Prop41ColorRGB
 90
        0
102
RTVSPost2010PropOp41
 70
     1
102
RTVSPost2010Prop42
 90
       50
102
RTVSPost2010PropOp42
 70
     1
102
RTVSPost2010Prop43
 90
        3
102
RTVSPost2010PropOp43
 70
     1
102
RTVSPost2010Prop44ColorIndex
 90
        5
102
RTVSPost2010Prop44ColorRGB
 90
      255
102
RTVSPost2010PropOp44
 70
     1
102
RTVSPost2010Prop45
280
     0
102
RTVSPost2010PropOp45
 70
     1
102
RTVSPost2010Prop46
 90
       50
102
RTVSPost2010PropOp46
 70
     1
102
RTVSPost2010Prop47
 90
       50
102
RTVSPost2010PropOp47
 70
     1
102
RTVSPost2010Prop48
 90
       50
102
RTVSPost2010PropOp48
 70
     1
102
RTVSPost2010Prop49
280
     0
102
RTVSPost2010PropOp49
 70
     1
102
RTVSPost2010Prop50
 90
       50
102
RTVSPost2010PropOp50
 70
     1
102
RTVSPost2010Prop51ColorIndex
 90
      256
102
RTVSPost2010Prop51ColorRGB
 90
-16777216
102
RTVSPost2010PropOp51
 70
     0
102
RTVSPost2010Prop52
140
1.0
102
RTVSPost2010PropOp52
 70
     0
102
RTVSPost2010Prop53
 90
        2
102
RTVSPost2010PropOp53
 70
     1
102
RTVSPost2010Prop54
  1
strokes_ogs.tif
102
RTVSPost2010PropOp54
 70
     1
102
RTVSPost2010Prop55
280
     0
102
RTVSPost2010PropOp55
 70
     1
102
RTVSPost2010Prop56
140
1.0
102
RTVSPost2010PropOp56
 70
     1
102
RTVSPost2010Prop57
140
1.0
102
RTVSPost2010PropOp57
 70
     1
  0
XRECORD
  5
97EEC
102
{ACAD_REACTORS
330
97EEB
102
}
330
97EEB
100
AcDbXrecord
280
     1
102
RTVSPost2010Prop28
280
     0
102
RTVSPost2010PropOp28
 70
     1
102
RTVSPost2010Prop29
280
     1
102
RTVSPost2010PropOp29
 70
     1
102
RTVSPost2010Prop30
280
     1
102
RTVSPost2010PropOp30
 70
     1
102
RTVSPost2010Prop31
280
     0
102
RTVSPost2010PropOp31
 70
     1
102
RTVSPost2010Prop32
280
     0
102
RTVSPost2010PropOp32
 70
     1
102
RTVSPost2010Prop33
280
     0
102
RTVSPost2010PropOp33
 70
     1
102
RTVSPost2010Prop34
280
     0
102
RTVSPost2010PropOp34
 70
     1
102
RTVSPost2010Prop35
280
     0
102
RTVSPost2010PropOp35
 70
     1
102
RTVSPost2010Prop36
280
     0
102
RTVSPost2010PropOp36
 70
     1
102
RTVSPost2010Prop37
 90
       50
102
RTVSPost2010PropOp37
 70
     1
102
RTVSPost2010Prop38
140
0.0
102
RTVSPost2010PropOp38
 70
     1
102
RTVSPost2010Prop39
140
1.0
102
RTVSPost2010PropOp39
 70
     1
102
RTVSPost2010Prop40
 90
        0
102
RTVSPost2010PropOp40
 70
     1
102
RTVSPost2010Prop41ColorIndex
 90
       18
102
RTVSPost2010Prop41ColorRGB
 90
        0
102
RTVSPost2010PropOp41
 70
     1
102
RTVSPost2010Prop42
 90
       50
102
RTVSPost2010PropOp42
 70
     1
102
RTVSPost2010Prop43
 90
        3
102
RTVSPost2010PropOp43
 70
     1
102
RTVSPost2010Prop44ColorIndex
 90
        5
102
RTVSPost2010Prop44ColorRGB
 90
      255
102
RTVSPost2010PropOp44
 70
     1
102
RTVSPost2010Prop45
280
     0
102
RTVSPost2010PropOp45
 70
     1
102
RTVSPost2010Prop46
 90
       50
102
RTVSPost2010PropOp46
 70
     1
102
RTVSPost2010Prop47
 90
       50
102
RTVSPost2010PropOp47
 70
     1
102
RTVSPost2010Prop48
 90
       50
102
RTVSPost2010PropOp48
 70
     1
102
RTVSPost2010Prop49
280
     0
102
RTVSPost2010PropOp49
 70
     1
102
RTVSPost2010Prop50
 90
       50
102
RTVSPost2010PropOp50
 70
     1
102
RTVSPost2010Prop51ColorIndex
 90
      256
102
RTVSPost2010Prop51ColorRGB
 90
-16777216
102
RTVSPost2010PropOp51
 70
     0
102
RTVSPost2010Prop52
140
1.0
102
RTVSPost2010PropOp52
 70
     0
102
RTVSPost2010Prop53
 90
        2
102
RTVSPost2010PropOp53
 70
     1
102
RTVSPost2010Prop54
  1
strokes_ogs.tif
102
RTVSPost2010PropOp54
 70
     1
102
RTVSPost2010Prop55
280
     0
102
RTVSPost2010PropOp55
 70
     1
102
RTVSPost2010Prop56
140
1.0
102
RTVSPost2010PropOp56
 70
     1
102
RTVSPost2010Prop57
140
1.0
102
RTVSPost2010PropOp57
 70
     1
  0
XRECORD
  5
97EF2
102
{ACAD_REACTORS
330
97EF1
102
}
330
97EF1
100
AcDbXrecord
280
     1
102
RTVSPost2010Prop28
280
     0
102
RTVSPost2010PropOp28
 70
     1
102
RTVSPost2010Prop29
280
     1
102
RTVSPost2010PropOp29
 70
     1
102
RTVSPost2010Prop30
280
     1
102
RTVSPost2010PropOp30
 70
     1
102
RTVSPost2010Prop31
280
     0
102
RTVSPost2010PropOp31
 70
     1
102
RTVSPost2010Prop32
280
     0
102
RTVSPost2010PropOp32
 70
     1
102
RTVSPost2010Prop33
280
     0
102
RTVSPost2010PropOp33
 70
     1
102
RTVSPost2010Prop34
280
     0
102
RTVSPost2010PropOp34
 70
     1
102
RTVSPost2010Prop35
280
     0
102
RTVSPost2010PropOp35
 70
     1
102
RTVSPost2010Prop36
280
     0
102
RTVSPost2010PropOp36
 70
     1
102
RTVSPost2010Prop37
 90
       50
102
RTVSPost2010PropOp37
 70
     1
102
RTVSPost2010Prop38
140
0.0
102
RTVSPost2010PropOp38
 70
     1
102
RTVSPost2010Prop39
140
1.0
102
RTVSPost2010PropOp39
 70
     1
102
RTVSPost2010Prop40
 90
        0
102
RTVSPost2010PropOp40
 70
     1
102
RTVSPost2010Prop41ColorIndex
 90
       18
102
RTVSPost2010Prop41ColorRGB
 90
        0
102
RTVSPost2010PropOp41
 70
     1
102
RTVSPost2010Prop42
 90
       50
102
RTVSPost2010PropOp42
 70
     1
102
RTVSPost2010Prop43
 90
        3
102
RTVSPost2010PropOp43
 70
     1
102
RTVSPost2010Prop44ColorIndex
 90
        5
102
RTVSPost2010Prop44ColorRGB
 90
      255
102
RTVSPost2010PropOp44
 70
     1
102
RTVSPost2010Prop45
280
     0
102
RTVSPost2010PropOp45
 70
     1
102
RTVSPost2010Prop46
 90
       50
102
RTVSPost2010PropOp46
 70
     1
102
RTVSPost2010Prop47
 90
       50
102
RTVSPost2010PropOp47
 70
     1
102
RTVSPost2010Prop48
 90
       50
102
RTVSPost2010PropOp48
 70
     1
102
RTVSPost2010Prop49
280
     0
102
RTVSPost2010PropOp49
 70
     1
102
RTVSPost2010Prop50
 90
       50
102
RTVSPost2010PropOp50
 70
     1
102
RTVSPost2010Prop51ColorIndex
 90
      256
102
RTVSPost2010Prop51ColorRGB
 90
-16777216
102
RTVSPost2010PropOp51
 70
     0
102
RTVSPost2010Prop52
140
1.0
102
RTVSPost2010PropOp52
 70
     0
102
RTVSPost2010Prop53
 90
        2
102
RTVSPost2010PropOp53
 70
     1
102
RTVSPost2010Prop54
  1
strokes_ogs.tif
102
RTVSPost2010PropOp54
 70
     1
102
RTVSPost2010Prop55
280
     0
102
RTVSPost2010PropOp55
 70
     1
102
RTVSPost2010Prop56
140
1.0
102
RTVSPost2010PropOp56
 70
     1
102
RTVSPost2010Prop57
140
1.0
102
RTVSPost2010PropOp57
 70
     1
  0
XRECORD
  5
97F06
102
{ACAD_REACTORS
330
97F05
102
}
330
97F05
100
AcDbXrecord
280
     1
102
RTVSPost2010Prop28
280
     0
102
RTVSPost2010PropOp28
 70
     0
102
RTVSPost2010Prop29
280
     1
102
RTVSPost2010PropOp29
 70
     0
102
RTVSPost2010Prop30
280
     1
102
RTVSPost2010PropOp30
 70
     0
102
RTVSPost2010Prop31
280
     0
102
RTVSPost2010PropOp31
 70
     0
102
RTVSPost2010Prop32
280
     0
102
RTVSPost2010PropOp32
 70
     0
102
RTVSPost2010Prop33
280
     0
102
RTVSPost2010PropOp33
 70
     0
102
RTVSPost2010Prop34
280
     0
102
RTVSPost2010PropOp34
 70
     0
102
RTVSPost2010Prop35
280
     0
102
RTVSPost2010PropOp35
 70
     0
102
RTVSPost2010Prop36
280
     0
102
RTVSPost2010PropOp36
 70
     0
102
RTVSPost2010Prop37
 90
       50
102
RTVSPost2010PropOp37
 70
     0
102
RTVSPost2010Prop38
140
0.0
102
RTVSPost2010PropOp38
 70
     0
102
RTVSPost2010Prop39
140
1.0
102
RTVSPost2010PropOp39
 70
     0
102
RTVSPost2010Prop40
 90
        0
102
RTVSPost2010PropOp40
 70
     0
102
RTVSPost2010Prop41ColorIndex
 90
       18
102
RTVSPost2010Prop41ColorRGB
 90
        0
102
RTVSPost2010PropOp41
 70
     0
102
RTVSPost2010Prop42
 90
       50
102
RTVSPost2010PropOp42
 70
     0
102
RTVSPost2010Prop43
 90
        3
102
RTVSPost2010PropOp43
 70
     0
102
RTVSPost2010Prop44ColorIndex
 90
        5
102
RTVSPost2010Prop44ColorRGB
 90
      255
102
RTVSPost2010PropOp44
 70
     0
102
RTVSPost2010Prop45
280
     0
102
RTVSPost2010PropOp45
 70
     0
102
RTVSPost2010Prop46
 90
       50
102
RTVSPost2010PropOp46
 70
     0
102
RTVSPost2010Prop47
 90
       50
102
RTVSPost2010PropOp47
 70
     0
102
RTVSPost2010Prop48
 90
       50
102
RTVSPost2010PropOp48
 70
     0
102
RTVSPost2010Prop49
280
     0
102
RTVSPost2010PropOp49
 70
     0
102
RTVSPost2010Prop50
 90
       50
102
RTVSPost2010PropOp50
 70
     0
102
RTVSPost2010Prop51ColorIndex
 90
      256
102
RTVSPost2010Prop51ColorRGB
 90
-16777216
102
RTVSPost2010PropOp51
 70
     0
102
RTVSPost2010Prop52
140
1.0
102
RTVSPost2010PropOp52
 70
     0
102
RTVSPost2010Prop53
 90
        2
102
RTVSPost2010PropOp53
 70
     0
102
RTVSPost2010Prop54
  1
strokes_ogs.tif
102
RTVSPost2010PropOp54
 70
     0
102
RTVSPost2010Prop55
280
     0
102
RTVSPost2010PropOp55
 70
     0
102
RTVSPost2010Prop56
140
1.0
102
RTVSPost2010PropOp56
 70
     0
102
RTVSPost2010Prop57
140
1.0
102
RTVSPost2010PropOp57
 70
     0
  0
XRECORD
  5
97F00
102
{ACAD_REACTORS
330
97EFF
102
}
330
97EFF
100
AcDbXrecord
280
     1
102
RTVSPost2010Prop28
280
     0
102
RTVSPost2010PropOp28
 70
     1
102
RTVSPost2010Prop29
280
     1
102
RTVSPost2010PropOp29
 70
     1
102
RTVSPost2010Prop30
280
     1
102
RTVSPost2010PropOp30
 70
     1
102
RTVSPost2010Prop31
280
     0
102
RTVSPost2010PropOp31
 70
     1
102
RTVSPost2010Prop32
280
     0
102
RTVSPost2010PropOp32
 70
     1
102
RTVSPost2010Prop33
280
     0
102
RTVSPost2010PropOp33
 70
     1
102
RTVSPost2010Prop34
280
     0
102
RTVSPost2010PropOp34
 70
     1
102
RTVSPost2010Prop35
280
     0
102
RTVSPost2010PropOp35
 70
     1
102
RTVSPost2010Prop36
280
     0
102
RTVSPost2010PropOp36
 70
     1
102
RTVSPost2010Prop37
 90
       50
102
RTVSPost2010PropOp37
 70
     1
102
RTVSPost2010Prop38
140
0.0
102
RTVSPost2010PropOp38
 70
     1
102
RTVSPost2010Prop39
140
1.0
102
RTVSPost2010PropOp39
 70
     1
102
RTVSPost2010Prop40
 90
        0
102
RTVSPost2010PropOp40
 70
     1
102
RTVSPost2010Prop41ColorIndex
 90
       18
102
RTVSPost2010Prop41ColorRGB
 90
        0
102
RTVSPost2010PropOp41
 70
     1
102
RTVSPost2010Prop42
 90
       50
102
RTVSPost2010PropOp42
 70
     1
102
RTVSPost2010Prop43
 90
        3
102
RTVSPost2010PropOp43
 70
     1
102
RTVSPost2010Prop44ColorIndex
 90
        5
102
RTVSPost2010Prop44ColorRGB
 90
      255
102
RTVSPost2010PropOp44
 70
     1
102
RTVSPost2010Prop45
280
     0
102
RTVSPost2010PropOp45
 70
     1
102
RTVSPost2010Prop46
 90
       50
102
RTVSPost2010PropOp46
 70
     1
102
RTVSPost2010Prop47
 90
       50
102
RTVSPost2010PropOp47
 70
     1
102
RTVSPost2010Prop48
 90
       50
102
RTVSPost2010PropOp48
 70
     1
102
RTVSPost2010Prop49
280
     0
102
RTVSPost2010PropOp49
 70
     1
102
RTVSPost2010Prop50
 90
       50
102
RTVSPost2010PropOp50
 70
     1
102
RTVSPost2010Prop51ColorIndex
 90
      256
102
RTVSPost2010Prop51ColorRGB
 90
-16777216
102
RTVSPost2010PropOp51
 70
     0
102
RTVSPost2010Prop52
140
1.0
102
RTVSPost2010PropOp52
 70
     0
102
RTVSPost2010Prop53
 90
        2
102
RTVSPost2010PropOp53
 70
     1
102
RTVSPost2010Prop54
  1
strokes_ogs.tif
102
RTVSPost2010PropOp54
 70
     1
102
RTVSPost2010Prop55
280
     0
102
RTVSPost2010PropOp55
 70
     1
102
RTVSPost2010Prop56
140
1.0
102
RTVSPost2010PropOp56
 70
     1
102
RTVSPost2010Prop57
140
1.0
102
RTVSPost2010PropOp57
 70
     1
  0
XRECORD
  5
97F18
102
{ACAD_REACTORS
330
97F17
102
}
330
97F17
100
AcDbXrecord
280
     1
102
RTVSPost2010Prop28
280
     0
102
RTVSPost2010PropOp28
 70
     1
102
RTVSPost2010Prop29
280
     1
102
RTVSPost2010PropOp29
 70
     1
102
RTVSPost2010Prop30
280
     1
102
RTVSPost2010PropOp30
 70
     1
102
RTVSPost2010Prop31
280
     0
102
RTVSPost2010PropOp31
 70
     1
102
RTVSPost2010Prop32
280
     0
102
RTVSPost2010PropOp32
 70
     1
102
RTVSPost2010Prop33
280
     0
102
RTVSPost2010PropOp33
 70
     1
102
RTVSPost2010Prop34
280
     0
102
RTVSPost2010PropOp34
 70
     1
102
RTVSPost2010Prop35
280
     0
102
RTVSPost2010PropOp35
 70
     1
102
RTVSPost2010Prop36
280
     0
102
RTVSPost2010PropOp36
 70
     1
102
RTVSPost2010Prop37
 90
       50
102
RTVSPost2010PropOp37
 70
     1
102
RTVSPost2010Prop38
140
0.0
102
RTVSPost2010PropOp38
 70
     1
102
RTVSPost2010Prop39
140
1.0
102
RTVSPost2010PropOp39
 70
     1
102
RTVSPost2010Prop40
 90
        0
102
RTVSPost2010PropOp40
 70
     1
102
RTVSPost2010Prop41ColorIndex
 90
       18
102
RTVSPost2010Prop41ColorRGB
 90
        0
102
RTVSPost2010PropOp41
 70
     1
102
RTVSPost2010Prop42
 90
       50
102
RTVSPost2010PropOp42
 70
     1
102
RTVSPost2010Prop43
 90
        3
102
RTVSPost2010PropOp43
 70
     1
102
RTVSPost2010Prop44ColorIndex
 90
        5
102
RTVSPost2010Prop44ColorRGB
 90
      255
102
RTVSPost2010PropOp44
 70
     1
102
RTVSPost2010Prop45
280
     0
102
RTVSPost2010PropOp45
 70
     1
102
RTVSPost2010Prop46
 90
       50
102
RTVSPost2010PropOp46
 70
     1
102
RTVSPost2010Prop47
 90
       50
102
RTVSPost2010PropOp47
 70
     1
102
RTVSPost2010Prop48
 90
       50
102
RTVSPost2010PropOp48
 70
     1
102
RTVSPost2010Prop49
280
     0
102
RTVSPost2010PropOp49
 70
     1
102
RTVSPost2010Prop50
 90
       50
102
RTVSPost2010PropOp50
 70
     1
102
RTVSPost2010Prop51ColorIndex
 90
      256
102
RTVSPost2010Prop51ColorRGB
 90
-16777216
102
RTVSPost2010PropOp51
 70
     0
102
RTVSPost2010Prop52
140
1.0
102
RTVSPost2010PropOp52
 70
     0
102
RTVSPost2010Prop53
 90
        2
102
RTVSPost2010PropOp53
 70
     1
102
RTVSPost2010Prop54
  1
strokes_ogs.tif
102
RTVSPost2010PropOp54
 70
     1
102
RTVSPost2010Prop55
280
     0
102
RTVSPost2010PropOp55
 70
     1
102
RTVSPost2010Prop56
140
1.0
102
RTVSPost2010PropOp56
 70
     1
102
RTVSPost2010Prop57
140
1.0
102
RTVSPost2010PropOp57
 70
     1
  0
XRECORD
  5
97F08
102
{ACAD_REACTORS
330
97F07
102
}
330
97F07
100
AcDbXrecord
280
     1
102
RTVSPost2010Prop28
280
     0
102
RTVSPost2010PropOp28
 70
     0
102
RTVSPost2010Prop29
280
     1
102
RTVSPost2010PropOp29
 70
     0
102
RTVSPost2010Prop30
280
     1
102
RTVSPost2010PropOp30
 70
     0
102
RTVSPost2010Prop31
280
     0
102
RTVSPost2010PropOp31
 70
     0
102
RTVSPost2010Prop32
280
     0
102
RTVSPost2010PropOp32
 70
     0
102
RTVSPost2010Prop33
280
     0
102
RTVSPost2010PropOp33
 70
     0
102
RTVSPost2010Prop34
280
     0
102
RTVSPost2010PropOp34
 70
     0
102
RTVSPost2010Prop35
280
     0
102
RTVSPost2010PropOp35
 70
     0
102
RTVSPost2010Prop36
280
     0
102
RTVSPost2010PropOp36
 70
     0
102
RTVSPost2010Prop37
 90
       50
102
RTVSPost2010PropOp37
 70
     0
102
RTVSPost2010Prop38
140
0.0
102
RTVSPost2010PropOp38
 70
     0
102
RTVSPost2010Prop39
140
1.0
102
RTVSPost2010PropOp39
 70
     0
102
RTVSPost2010Prop40
 90
        0
102
RTVSPost2010PropOp40
 70
     0
102
RTVSPost2010Prop41ColorIndex
 90
       18
102
RTVSPost2010Prop41ColorRGB
 90
        0
102
RTVSPost2010PropOp41
 70
     0
102
RTVSPost2010Prop42
 90
       50
102
RTVSPost2010PropOp42
 70
     0
102
RTVSPost2010Prop43
 90
        3
102
RTVSPost2010PropOp43
 70
     0
102
RTVSPost2010Prop44ColorIndex
 90
        5
102
RTVSPost2010Prop44ColorRGB
 90
      255
102
RTVSPost2010PropOp44
 70
     0
102
RTVSPost2010Prop45
280
     0
102
RTVSPost2010PropOp45
 70
     0
102
RTVSPost2010Prop46
 90
       50
102
RTVSPost2010PropOp46
 70
     0
102
RTVSPost2010Prop47
 90
       50
102
RTVSPost2010PropOp47
 70
     0
102
RTVSPost2010Prop48
 90
       50
102
RTVSPost2010PropOp48
 70
     0
102
RTVSPost2010Prop49
280
     0
102
RTVSPost2010PropOp49
 70
     0
102
RTVSPost2010Prop50
 90
       50
102
RTVSPost2010PropOp50
 70
     0
102
RTVSPost2010Prop51ColorIndex
 90
      256
102
RTVSPost2010Prop51ColorRGB
 90
-16777216
102
RTVSPost2010PropOp51
 70
     0
102
RTVSPost2010Prop52
140
1.0
102
RTVSPost2010PropOp52
 70
     0
102
RTVSPost2010Prop53
 90
        2
102
RTVSPost2010PropOp53
 70
     0
102
RTVSPost2010Prop54
  1
strokes_ogs.tif
102
RTVSPost2010PropOp54
 70
     0
102
RTVSPost2010Prop55
280
     0
102
RTVSPost2010PropOp55
 70
     0
102
RTVSPost2010Prop56
140
1.0
102
RTVSPost2010PropOp56
 70
     0
102
RTVSPost2010Prop57
140
1.0
102
RTVSPost2010PropOp57
 70
     0
  0
XRECORD
  5
97EF6
102
{ACAD_REACTORS
330
97EF5
102
}
330
97EF5
100
AcDbXrecord
280
     1
102
RTVSPost2010Prop28
280
     0
102
RTVSPost2010PropOp28
 70
     1
102
RTVSPost2010Prop29
280
     1
102
RTVSPost2010PropOp29
 70
     1
102
RTVSPost2010Prop30
280
     1
102
RTVSPost2010PropOp30
 70
     1
102
RTVSPost2010Prop31
280
     0
102
RTVSPost2010PropOp31
 70
     1
102
RTVSPost2010Prop32
280
     0
102
RTVSPost2010PropOp32
 70
     1
102
RTVSPost2010Prop33
280
     0
102
RTVSPost2010PropOp33
 70
     1
102
RTVSPost2010Prop34
280
     0
102
RTVSPost2010PropOp34
 70
     1
102
RTVSPost2010Prop35
280
     0
102
RTVSPost2010PropOp35
 70
     1
102
RTVSPost2010Prop36
280
     0
102
RTVSPost2010PropOp36
 70
     1
102
RTVSPost2010Prop37
 90
       50
102
RTVSPost2010PropOp37
 70
     1
102
RTVSPost2010Prop38
140
0.0
102
RTVSPost2010PropOp38
 70
     1
102
RTVSPost2010Prop39
140
1.0
102
RTVSPost2010PropOp39
 70
     1
102
RTVSPost2010Prop40
 90
        0
102
RTVSPost2010PropOp40
 70
     1
102
RTVSPost2010Prop41ColorIndex
 90
       18
102
RTVSPost2010Prop41ColorRGB
 90
        0
102
RTVSPost2010PropOp41
 70
     1
102
RTVSPost2010Prop42
 90
       50
102
RTVSPost2010PropOp42
 70
     1
102
RTVSPost2010Prop43
 90
        3
102
RTVSPost2010PropOp43
 70
     1
102
RTVSPost2010Prop44ColorIndex
 90
        5
102
RTVSPost2010Prop44ColorRGB
 90
      255
102
RTVSPost2010PropOp44
 70
     1
102
RTVSPost2010Prop45
280
     0
102
RTVSPost2010PropOp45
 70
     1
102
RTVSPost2010Prop46
 90
       50
102
RTVSPost2010PropOp46
 70
     1
102
RTVSPost2010Prop47
 90
       50
102
RTVSPost2010PropOp47
 70
     1
102
RTVSPost2010Prop48
 90
       50
102
RTVSPost2010PropOp48
 70
     1
102
RTVSPost2010Prop49
280
     0
102
RTVSPost2010PropOp49
 70
     1
102
RTVSPost2010Prop50
 90
       50
102
RTVSPost2010PropOp50
 70
     1
102
RTVSPost2010Prop51ColorIndex
 90
      256
102
RTVSPost2010Prop51ColorRGB
 90
-16777216
102
RTVSPost2010PropOp51
 70
     0
102
RTVSPost2010Prop52
140
1.0
102
RTVSPost2010PropOp52
 70
     0
102
RTVSPost2010Prop53
 90
        2
102
RTVSPost2010PropOp53
 70
     1
102
RTVSPost2010Prop54
  1
strokes_ogs.tif
102
RTVSPost2010PropOp54
 70
     1
102
RTVSPost2010Prop55
280
     0
102
RTVSPost2010PropOp55
 70
     1
102
RTVSPost2010Prop56
140
1.0
102
RTVSPost2010PropOp56
 70
     1
102
RTVSPost2010Prop57
140
1.0
102
RTVSPost2010PropOp57
 70
     1
  0
XRECORD
  5
97F14
102
{ACAD_REACTORS
330
97F13
102
}
330
97F13
100
AcDbXrecord
280
     1
102
RTVSPost2010Prop28
280
     0
102
RTVSPost2010PropOp28
 70
     1
102
RTVSPost2010Prop29
280
     1
102
RTVSPost2010PropOp29
 70
     1
102
RTVSPost2010Prop30
280
     1
102
RTVSPost2010PropOp30
 70
     1
102
RTVSPost2010Prop31
280
     0
102
RTVSPost2010PropOp31
 70
     1
102
RTVSPost2010Prop32
280
     0
102
RTVSPost2010PropOp32
 70
     1
102
RTVSPost2010Prop33
280
     0
102
RTVSPost2010PropOp33
 70
     1
102
RTVSPost2010Prop34
280
     0
102
RTVSPost2010PropOp34
 70
     1
102
RTVSPost2010Prop35
280
     0
102
RTVSPost2010PropOp35
 70
     1
102
RTVSPost2010Prop36
280
     0
102
RTVSPost2010PropOp36
 70
     1
102
RTVSPost2010Prop37
 90
       50
102
RTVSPost2010PropOp37
 70
     1
102
RTVSPost2010Prop38
140
0.0
102
RTVSPost2010PropOp38
 70
     1
102
RTVSPost2010Prop39
140
1.0
102
RTVSPost2010PropOp39
 70
     1
102
RTVSPost2010Prop40
 90
        0
102
RTVSPost2010PropOp40
 70
     1
102
RTVSPost2010Prop41ColorIndex
 90
       18
102
RTVSPost2010Prop41ColorRGB
 90
        0
102
RTVSPost2010PropOp41
 70
     1
102
RTVSPost2010Prop42
 90
       50
102
RTVSPost2010PropOp42
 70
     1
102
RTVSPost2010Prop43
 90
        3
102
RTVSPost2010PropOp43
 70
     1
102
RTVSPost2010Prop44ColorIndex
 90
        5
102
RTVSPost2010Prop44ColorRGB
 90
      255
102
RTVSPost2010PropOp44
 70
     1
102
RTVSPost2010Prop45
280
     0
102
RTVSPost2010PropOp45
 70
     1
102
RTVSPost2010Prop46
 90
       50
102
RTVSPost2010PropOp46
 70
     1
102
RTVSPost2010Prop47
 90
       50
102
RTVSPost2010PropOp47
 70
     1
102
RTVSPost2010Prop48
 90
       50
102
RTVSPost2010PropOp48
 70
     1
102
RTVSPost2010Prop49
280
     0
102
RTVSPost2010PropOp49
 70
     1
102
RTVSPost2010Prop50
 90
       50
102
RTVSPost2010PropOp50
 70
     1
102
RTVSPost2010Prop51ColorIndex
 90
      256
102
RTVSPost2010Prop51ColorRGB
 90
-16777216
102
RTVSPost2010PropOp51
 70
     0
102
RTVSPost2010Prop52
140
1.0
102
RTVSPost2010PropOp52
 70
     0
102
RTVSPost2010Prop53
 90
        2
102
RTVSPost2010PropOp53
 70
     1
102
RTVSPost2010Prop54
  1
strokes_ogs.tif
102
RTVSPost2010PropOp54
 70
     1
102
RTVSPost2010Prop55
280
     0
102
RTVSPost2010PropOp55
 70
     1
102
RTVSPost2010Prop56
140
1.0
102
RTVSPost2010PropOp56
 70
     1
102
RTVSPost2010Prop57
140
1.0
102
RTVSPost2010PropOp57
 70
     1
  0
XRECORD
  5
97F12
102
{ACAD_REACTORS
330
97F11
102
}
330
97F11
100
AcDbXrecord
280
     1
102
RTVSPost2010Prop28
280
     0
102
RTVSPost2010PropOp28
 70
     1
102
RTVSPost2010Prop29
280
     1
102
RTVSPost2010PropOp29
 70
     1
102
RTVSPost2010Prop30
280
     1
102
RTVSPost2010PropOp30
 70
     1
102
RTVSPost2010Prop31
280
     0
102
RTVSPost2010PropOp31
 70
     1
102
RTVSPost2010Prop32
280
     0
102
RTVSPost2010PropOp32
 70
     1
102
RTVSPost2010Prop33
280
     0
102
RTVSPost2010PropOp33
 70
     1
102
RTVSPost2010Prop34
280
     0
102
RTVSPost2010PropOp34
 70
     1
102
RTVSPost2010Prop35
280
     0
102
RTVSPost2010PropOp35
 70
     1
102
RTVSPost2010Prop36
280
     0
102
RTVSPost2010PropOp36
 70
     1
102
RTVSPost2010Prop37
 90
       50
102
RTVSPost2010PropOp37
 70
     1
102
RTVSPost2010Prop38
140
0.0
102
RTVSPost2010PropOp38
 70
     1
102
RTVSPost2010Prop39
140
1.0
102
RTVSPost2010PropOp39
 70
     1
102
RTVSPost2010Prop40
 90
        0
102
RTVSPost2010PropOp40
 70
     1
102
RTVSPost2010Prop41ColorIndex
 90
       18
102
RTVSPost2010Prop41ColorRGB
 90
        0
102
RTVSPost2010PropOp41
 70
     1
102
RTVSPost2010Prop42
 90
       50
102
RTVSPost2010PropOp42
 70
     1
102
RTVSPost2010Prop43
 90
        3
102
RTVSPost2010PropOp43
 70
     1
102
RTVSPost2010Prop44ColorIndex
 90
        5
102
RTVSPost2010Prop44ColorRGB
 90
      255
102
RTVSPost2010PropOp44
 70
     1
102
RTVSPost2010Prop45
280
     0
102
RTVSPost2010PropOp45
 70
     1
102
RTVSPost2010Prop46
 90
       50
102
RTVSPost2010PropOp46
 70
     1
102
RTVSPost2010Prop47
 90
       50
102
RTVSPost2010PropOp47
 70
     1
102
RTVSPost2010Prop48
 90
       50
102
RTVSPost2010PropOp48
 70
     1
102
RTVSPost2010Prop49
280
     0
102
RTVSPost2010PropOp49
 70
     1
102
RTVSPost2010Prop50
 90
       50
102
RTVSPost2010PropOp50
 70
     1
102
RTVSPost2010Prop51ColorIndex
 90
      256
102
RTVSPost2010Prop51ColorRGB
 90
-16777216
102
RTVSPost2010PropOp51
 70
     0
102
RTVSPost2010Prop52
140
1.0
102
RTVSPost2010PropOp52
 70
     0
102
RTVSPost2010Prop53
 90
        2
102
RTVSPost2010PropOp53
 70
     1
102
RTVSPost2010Prop54
  1
strokes_ogs.tif
102
RTVSPost2010PropOp54
 70
     1
102
RTVSPost2010Prop55
280
     0
102
RTVSPost2010PropOp55
 70
     1
102
RTVSPost2010Prop56
140
1.0
102
RTVSPost2010PropOp56
 70
     1
102
RTVSPost2010Prop57
140
1.0
102
RTVSPost2010PropOp57
 70
     1
  0
XRECORD
  5
97F0C
102
{ACAD_REACTORS
330
97F0B
102
}
330
97F0B
100
AcDbXrecord
280
     1
102
RTVSPost2010Prop28
280
     0
102
RTVSPost2010PropOp28
 70
     1
102
RTVSPost2010Prop29
280
     1
102
RTVSPost2010PropOp29
 70
     1
102
RTVSPost2010Prop30
280
     1
102
RTVSPost2010PropOp30
 70
     1
102
RTVSPost2010Prop31
280
     0
102
RTVSPost2010PropOp31
 70
     1
102
RTVSPost2010Prop32
280
     0
102
RTVSPost2010PropOp32
 70
     1
102
RTVSPost2010Prop33
280
     0
102
RTVSPost2010PropOp33
 70
     1
102
RTVSPost2010Prop34
280
     0
102
RTVSPost2010PropOp34
 70
     1
102
RTVSPost2010Prop35
280
     0
102
RTVSPost2010PropOp35
 70
     1
102
RTVSPost2010Prop36
280
     0
102
RTVSPost2010PropOp36
 70
     1
102
RTVSPost2010Prop37
 90
       50
102
RTVSPost2010PropOp37
 70
     1
102
RTVSPost2010Prop38
140
0.0
102
RTVSPost2010PropOp38
 70
     1
102
RTVSPost2010Prop39
140
1.0
102
RTVSPost2010PropOp39
 70
     1
102
RTVSPost2010Prop40
 90
        0
102
RTVSPost2010PropOp40
 70
     1
102
RTVSPost2010Prop41ColorIndex
 90
       18
102
RTVSPost2010Prop41ColorRGB
 90
        0
102
RTVSPost2010PropOp41
 70
     1
102
RTVSPost2010Prop42
 90
       50
102
RTVSPost2010PropOp42
 70
     1
102
RTVSPost2010Prop43
 90
        3
102
RTVSPost2010PropOp43
 70
     1
102
RTVSPost2010Prop44ColorIndex
 90
        5
102
RTVSPost2010Prop44ColorRGB
 90
      255
102
RTVSPost2010PropOp44
 70
     1
102
RTVSPost2010Prop45
280
     0
102
RTVSPost2010PropOp45
 70
     1
102
RTVSPost2010Prop46
 90
       50
102
RTVSPost2010PropOp46
 70
     1
102
RTVSPost2010Prop47
 90
       50
102
RTVSPost2010PropOp47
 70
     1
102
RTVSPost2010Prop48
 90
       50
102
RTVSPost2010PropOp48
 70
     1
102
RTVSPost2010Prop49
280
     0
102
RTVSPost2010PropOp49
 70
     1
102
RTVSPost2010Prop50
 90
       50
102
RTVSPost2010PropOp50
 70
     1
102
RTVSPost2010Prop51ColorIndex
 90
      256
102
RTVSPost2010Prop51ColorRGB
 90
-16777216
102
RTVSPost2010PropOp51
 70
     0
102
RTVSPost2010Prop52
140
1.0
102
RTVSPost2010PropOp52
 70
     0
102
RTVSPost2010Prop53
 90
        2
102
RTVSPost2010PropOp53
 70
     1
102
RTVSPost2010Prop54
  1
strokes_ogs.tif
102
RTVSPost2010PropOp54
 70
     1
102
RTVSPost2010Prop55
280
     0
102
RTVSPost2010PropOp55
 70
     1
102
RTVSPost2010Prop56
140
1.0
102
RTVSPost2010PropOp56
 70
     1
102
RTVSPost2010Prop57
140
1.0
102
RTVSPost2010PropOp57
 70
     1
  0
XRECORD
  5
97F0E
102
{ACAD_REACTORS
330
97F0D
102
}
330
97F0D
100
AcDbXrecord
280
     1
102
RTVSPost2010Prop28
280
     0
102
RTVSPost2010PropOp28
 70
     1
102
RTVSPost2010Prop29
280
     1
102
RTVSPost2010PropOp29
 70
     1
102
RTVSPost2010Prop30
280
     1
102
RTVSPost2010PropOp30
 70
     1
102
RTVSPost2010Prop31
280
     0
102
RTVSPost2010PropOp31
 70
     1
102
RTVSPost2010Prop32
280
     0
102
RTVSPost2010PropOp32
 70
     1
102
RTVSPost2010Prop33
280
     0
102
RTVSPost2010PropOp33
 70
     1
102
RTVSPost2010Prop34
280
     0
102
RTVSPost2010PropOp34
 70
     1
102
RTVSPost2010Prop35
280
     0
102
RTVSPost2010PropOp35
 70
     1
102
RTVSPost2010Prop36
280
     0
102
RTVSPost2010PropOp36
 70
     1
102
RTVSPost2010Prop37
 90
       50
102
RTVSPost2010PropOp37
 70
     1
102
RTVSPost2010Prop38
140
0.0
102
RTVSPost2010PropOp38
 70
     1
102
RTVSPost2010Prop39
140
1.0
102
RTVSPost2010PropOp39
 70
     1
102
RTVSPost2010Prop40
 90
        0
102
RTVSPost2010PropOp40
 70
     1
102
RTVSPost2010Prop41ColorIndex
 90
       18
102
RTVSPost2010Prop41ColorRGB
 90
        0
102
RTVSPost2010PropOp41
 70
     1
102
RTVSPost2010Prop42
 90
       50
102
RTVSPost2010PropOp42
 70
     1
102
RTVSPost2010Prop43
 90
        3
102
RTVSPost2010PropOp43
 70
     1
102
RTVSPost2010Prop44ColorIndex
 90
        5
102
RTVSPost2010Prop44ColorRGB
 90
      255
102
RTVSPost2010PropOp44
 70
     1
102
RTVSPost2010Prop45
280
     0
102
RTVSPost2010PropOp45
 70
     1
102
RTVSPost2010Prop46
 90
       50
102
RTVSPost2010PropOp46
 70
     1
102
RTVSPost2010Prop47
 90
       50
102
RTVSPost2010PropOp47
 70
     1
102
RTVSPost2010Prop48
 90
       50
102
RTVSPost2010PropOp48
 70
     1
102
RTVSPost2010Prop49
280
     0
102
RTVSPost2010PropOp49
 70
     1
102
RTVSPost2010Prop50
 90
       50
102
RTVSPost2010PropOp50
 70
     1
102
RTVSPost2010Prop51ColorIndex
 90
      256
102
RTVSPost2010Prop51ColorRGB
 90
-16777216
102
RTVSPost2010PropOp51
 70
     0
102
RTVSPost2010Prop52
140
1.0
102
RTVSPost2010PropOp52
 70
     0
102
RTVSPost2010Prop53
 90
        2
102
RTVSPost2010PropOp53
 70
     1
102
RTVSPost2010Prop54
  1
strokes_ogs.tif
102
RTVSPost2010PropOp54
 70
     1
102
RTVSPost2010Prop55
280
     0
102
RTVSPost2010PropOp55
 70
     1
102
RTVSPost2010Prop56
140
1.0
102
RTVSPost2010PropOp56
 70
     1
102
RTVSPost2010Prop57
140
1.0
102
RTVSPost2010PropOp57
 70
     1
  0
XRECORD
  5
97EFE
102
{ACAD_REACTORS
330
97EFD
102
}
330
97EFD
100
AcDbXrecord
280
     1
102
RTVSPost2010Prop28
280
     0
102
RTVSPost2010PropOp28
 70
     1
102
RTVSPost2010Prop29
280
     1
102
RTVSPost2010PropOp29
 70
     1
102
RTVSPost2010Prop30
280
     1
102
RTVSPost2010PropOp30
 70
     1
102
RTVSPost2010Prop31
280
     0
102
RTVSPost2010PropOp31
 70
     1
102
RTVSPost2010Prop32
280
     0
102
RTVSPost2010PropOp32
 70
     1
102
RTVSPost2010Prop33
280
     0
102
RTVSPost2010PropOp33
 70
     1
102
RTVSPost2010Prop34
280
     0
102
RTVSPost2010PropOp34
 70
     1
102
RTVSPost2010Prop35
280
     0
102
RTVSPost2010PropOp35
 70
     1
102
RTVSPost2010Prop36
280
     0
102
RTVSPost2010PropOp36
 70
     1
102
RTVSPost2010Prop37
 90
       50
102
RTVSPost2010PropOp37
 70
     1
102
RTVSPost2010Prop38
140
0.0
102
RTVSPost2010PropOp38
 70
     1
102
RTVSPost2010Prop39
140
1.0
102
RTVSPost2010PropOp39
 70
     1
102
RTVSPost2010Prop40
 90
        0
102
RTVSPost2010PropOp40
 70
     1
102
RTVSPost2010Prop41ColorIndex
 90
       18
102
RTVSPost2010Prop41ColorRGB
 90
        0
102
RTVSPost2010PropOp41
 70
     1
102
RTVSPost2010Prop42
 90
       50
102
RTVSPost2010PropOp42
 70
     1
102
RTVSPost2010Prop43
 90
        3
102
RTVSPost2010PropOp43
 70
     1
102
RTVSPost2010Prop44ColorIndex
 90
        5
102
RTVSPost2010Prop44ColorRGB
 90
      255
102
RTVSPost2010PropOp44
 70
     1
102
RTVSPost2010Prop45
280
     0
102
RTVSPost2010PropOp45
 70
     1
102
RTVSPost2010Prop46
 90
       50
102
RTVSPost2010PropOp46
 70
     1
102
RTVSPost2010Prop47
 90
       50
102
RTVSPost2010PropOp47
 70
     1
102
RTVSPost2010Prop48
 90
       50
102
RTVSPost2010PropOp48
 70
     1
102
RTVSPost2010Prop49
280
     0
102
RTVSPost2010PropOp49
 70
     1
102
RTVSPost2010Prop50
 90
       50
102
RTVSPost2010PropOp50
 70
     1
102
RTVSPost2010Prop51ColorIndex
 90
      256
102
RTVSPost2010Prop51ColorRGB
 90
-16777216
102
RTVSPost2010PropOp51
 70
     0
102
RTVSPost2010Prop52
140
1.0
102
RTVSPost2010PropOp52
 70
     0
102
RTVSPost2010Prop53
 90
        2
102
RTVSPost2010PropOp53
 70
     1
102
RTVSPost2010Prop54
  1
strokes_ogs.tif
102
RTVSPost2010PropOp54
 70
     1
102
RTVSPost2010Prop55
280
     0
102
RTVSPost2010PropOp55
 70
     1
102
RTVSPost2010Prop56
140
1.0
102
RTVSPost2010PropOp56
 70
     1
102
RTVSPost2010Prop57
140
1.0
102
RTVSPost2010PropOp57
 70
     1
  0
XRECORD
  5
97EF0
102
{ACAD_REACTORS
330
97EEF
102
}
330
97EEF
100
AcDbXrecord
280
     1
102
RTVSPost2010Prop28
280
     0
102
RTVSPost2010PropOp28
 70
     1
102
RTVSPost2010Prop29
280
     1
102
RTVSPost2010PropOp29
 70
     1
102
RTVSPost2010Prop30
280
     1
102
RTVSPost2010PropOp30
 70
     1
102
RTVSPost2010Prop31
280
     0
102
RTVSPost2010PropOp31
 70
     1
102
RTVSPost2010Prop32
280
     0
102
RTVSPost2010PropOp32
 70
     1
102
RTVSPost2010Prop33
280
     0
102
RTVSPost2010PropOp33
 70
     1
102
RTVSPost2010Prop34
280
     0
102
RTVSPost2010PropOp34
 70
     1
102
RTVSPost2010Prop35
280
     0
102
RTVSPost2010PropOp35
 70
     1
102
RTVSPost2010Prop36
280
     0
102
RTVSPost2010PropOp36
 70
     1
102
RTVSPost2010Prop37
 90
       50
102
RTVSPost2010PropOp37
 70
     1
102
RTVSPost2010Prop38
140
0.0
102
RTVSPost2010PropOp38
 70
     1
102
RTVSPost2010Prop39
140
1.0
102
RTVSPost2010PropOp39
 70
     1
102
RTVSPost2010Prop40
 90
        0
102
RTVSPost2010PropOp40
 70
     1
102
RTVSPost2010Prop41ColorIndex
 90
       18
102
RTVSPost2010Prop41ColorRGB
 90
        0
102
RTVSPost2010PropOp41
 70
     1
102
RTVSPost2010Prop42
 90
       50
102
RTVSPost2010PropOp42
 70
     1
102
RTVSPost2010Prop43
 90
        3
102
RTVSPost2010PropOp43
 70
     1
102
RTVSPost2010Prop44ColorIndex
 90
        5
102
RTVSPost2010Prop44ColorRGB
 90
      255
102
RTVSPost2010PropOp44
 70
     1
102
RTVSPost2010Prop45
280
     0
102
RTVSPost2010PropOp45
 70
     1
102
RTVSPost2010Prop46
 90
       50
102
RTVSPost2010PropOp46
 70
     1
102
RTVSPost2010Prop47
 90
       50
102
RTVSPost2010PropOp47
 70
     1
102
RTVSPost2010Prop48
 90
       50
102
RTVSPost2010PropOp48
 70
     1
102
RTVSPost2010Prop49
280
     0
102
RTVSPost2010PropOp49
 70
     1
102
RTVSPost2010Prop50
 90
       50
102
RTVSPost2010PropOp50
 70
     1
102
RTVSPost2010Prop51ColorIndex
 90
      256
102
RTVSPost2010Prop51ColorRGB
 90
-16777216
102
RTVSPost2010PropOp51
 70
     0
102
RTVSPost2010Prop52
140
1.0
102
RTVSPost2010PropOp52
 70
     0
102
RTVSPost2010Prop53
 90
        2
102
RTVSPost2010PropOp53
 70
     1
102
RTVSPost2010Prop54
  1
strokes_ogs.tif
102
RTVSPost2010PropOp54
 70
     1
102
RTVSPost2010Prop55
280
     0
102
RTVSPost2010PropOp55
 70
     1
102
RTVSPost2010Prop56
140
1.0
102
RTVSPost2010PropOp56
 70
     1
102
RTVSPost2010Prop57
140
1.0
102
RTVSPost2010PropOp57
 70
     1
  0
XRECORD
  5
97F10
102
{ACAD_REACTORS
330
97F0F
102
}
330
97F0F
100
AcDbXrecord
280
     1
102
RTVSPost2010Prop28
280
     0
102
RTVSPost2010PropOp28
 70
     1
102
RTVSPost2010Prop29
280
     1
102
RTVSPost2010PropOp29
 70
     1
102
RTVSPost2010Prop30
280
     1
102
RTVSPost2010PropOp30
 70
     1
102
RTVSPost2010Prop31
280
     0
102
RTVSPost2010PropOp31
 70
     1
102
RTVSPost2010Prop32
280
     0
102
RTVSPost2010PropOp32
 70
     1
102
RTVSPost2010Prop33
280
     0
102
RTVSPost2010PropOp33
 70
     1
102
RTVSPost2010Prop34
280
     0
102
RTVSPost2010PropOp34
 70
     1
102
RTVSPost2010Prop35
280
     0
102
RTVSPost2010PropOp35
 70
     1
102
RTVSPost2010Prop36
280
     0
102
RTVSPost2010PropOp36
 70
     1
102
RTVSPost2010Prop37
 90
       50
102
RTVSPost2010PropOp37
 70
     1
102
RTVSPost2010Prop38
140
0.0
102
RTVSPost2010PropOp38
 70
     1
102
RTVSPost2010Prop39
140
1.0
102
RTVSPost2010PropOp39
 70
     1
102
RTVSPost2010Prop40
 90
        0
102
RTVSPost2010PropOp40
 70
     1
102
RTVSPost2010Prop41ColorIndex
 90
       18
102
RTVSPost2010Prop41ColorRGB
 90
        0
102
RTVSPost2010PropOp41
 70
     1
102
RTVSPost2010Prop42
 90
       50
102
RTVSPost2010PropOp42
 70
     1
102
RTVSPost2010Prop43
 90
        3
102
RTVSPost2010PropOp43
 70
     1
102
RTVSPost2010Prop44ColorIndex
 90
        5
102
RTVSPost2010Prop44ColorRGB
 90
      255
102
RTVSPost2010PropOp44
 70
     1
102
RTVSPost2010Prop45
280
     0
102
RTVSPost2010PropOp45
 70
     1
102
RTVSPost2010Prop46
 90
       50
102
RTVSPost2010PropOp46
 70
     1
102
RTVSPost2010Prop47
 90
       50
102
RTVSPost2010PropOp47
 70
     1
102
RTVSPost2010Prop48
 90
       50
102
RTVSPost2010PropOp48
 70
     1
102
RTVSPost2010Prop49
280
     0
102
RTVSPost2010PropOp49
 70
     1
102
RTVSPost2010Prop50
 90
       50
102
RTVSPost2010PropOp50
 70
     1
102
RTVSPost2010Prop51ColorIndex
 90
      256
102
RTVSPost2010Prop51ColorRGB
 90
-16777216
102
RTVSPost2010PropOp51
 70
     0
102
RTVSPost2010Prop52
140
1.0
102
RTVSPost2010PropOp52
 70
     0
102
RTVSPost2010Prop53
 90
        2
102
RTVSPost2010PropOp53
 70
     1
102
RTVSPost2010Prop54
  1
strokes_ogs.tif
102
RTVSPost2010PropOp54
 70
     1
102
RTVSPost2010Prop55
280
     0
102
RTVSPost2010PropOp55
 70
     1
102
RTVSPost2010Prop56
140
1.0
102
RTVSPost2010PropOp56
 70
     1
102
RTVSPost2010Prop57
140
1.0
102
RTVSPost2010PropOp57
 70
     1
  0
ENDSEC
  0
EOF
