  0
SECTION
  2
HEADER
  9
$ACADVER
  1
AC1032
  9
$ACADMAINTVER
 90
      228
  9
$DWGCODEPAGE
  3
ANSI_932
  9
$REQUIREDVERSIONS
160
                 0
  9
$INSBASE
 10
0.0
 20
0.0
 30
0.0
  9
$EXTMIN
 10
1.000000000000000E+20
 20
1.000000000000000E+20
 30
1.000000000000000E+20
  9
$EXTMAX
 10
-1.000000000000000E+20
 20
-1.000000000000000E+20
 30
-1.000000000000000E+20
  9
$LIMMIN
 10
0.0
 20
0.0
  9
$LIMMAX
 10
12.0
 20
9.0
  9
$ORTHOMODE
 70
     0
  9
$REGENMODE
 70
     1
  9
$FILLMODE
 70
     1
  9
$QTEXTMODE
 70
     0
  9
$MIRRTEXT
 70
     0
  9
$LTSCALE
 40
1.0
  9
$ATTMODE
 70
     1
  9
$TEXTSIZE
 40
0.2
  9
$TRACEWID
 40
0.05
  9
$TEXTSTYLE
  7
Standard
  9
$CLAYER
  8
0
  9
$CELTYPE
  6
ByLayer
  9
$CECOLOR
 62
   256
  9
$CELTSCALE
 40
1.0
  9
$DISPSILH
 70
     0
  9
$DIMSCALE
 40
1.0
  9
$DIMASZ
 40
0.18
  9
$DIMEXO
 40
0.0625
  9
$DIMDLI
 40
0.38
  9
$DIMRND
 40
0.0
  9
$DIMDLE
 40
0.0
  9
$DIMEXE
 40
0.18
  9
$DIMTP
 40
0.0
  9
$DIMTM
 40
0.0
  9
$DIMTXT
 40
0.18
  9
$DIMCEN
 40
0.09
  9
$DIMTSZ
 40
0.0
  9
$DIMTOL
 70
     0
  9
$DIMLIM
 70
     0
  9
$DIMTIH
 70
     1
  9
$DIMTOH
 70
     1
  9
$DIMSE1
 70
     0
  9
$DIMSE2
 70
     0
  9
$DIMTAD
 70
     0
  9
$DIMZIN
 70
     0
  9
$DIMBLK
  1

  9
$DIMASO
 70
     1
  9
$DIMSHO
 70
     1
  9
$DIMPOST
  1

  9
$DIMAPOST
  1

  9
$DIMALT
 70
     0
  9
$DIMALTD
 70
     2
  9
$DIMALTF
 40
25.4
  9
$DIMLFAC
 40
1.0
  9
$DIMTOFL
 70
     0
  9
$DIMTVP
 40
0.0
  9
$DIMTIX
 70
     0
  9
$DIMSOXD
 70
     0
  9
$DIMSAH
 70
     0
  9
$DIMBLK1
  1

  9
$DIMBLK2
  1

  9
$DIMSTYLE
  2
Standard
  9
$DIMCLRD
 70
     0
  9
$DIMCLRE
 70
     0
  9
$DIMCLRT
 70
     0
  9
$DIMTFAC
 40
1.0
  9
$DIMGAP
 40
0.09
  9
$DIMJUST
 70
     0
  9
$DIMSD1
 70
     0
  9
$DIMSD2
 70
     0
  9
$DIMTOLJ
 70
     1
  9
$DIMTZIN
 70
     0
  9
$DIMALTZ
 70
     0
  9
$DIMALTTZ
 70
     0
  9
$DIMUPT
 70
     0
  9
$DIMDEC
 70
     4
  9
$DIMTDEC
 70
     4
  9
$DIMALTU
 70
     2
  9
$DIMALTTD
 70
     2
  9
$DIMTXSTY
  7
Standard
  9
$DIMAUNIT
 70
     0
  9
$DIMADEC
 70
     0
  9
$DIMALTRND
 40
0.0
  9
$DIMAZIN
 70
     0
  9
$DIMDSEP
 70
    46
  9
$DIMATFIT
 70
     3
  9
$DIMFRAC
 70
     0
  9
$DIMLDRBLK
  1

  9
$DIMLUNIT
 70
     2
  9
$DIMLWD
 70
    -2
  9
$DIMLWE
 70
    -2
  9
$DIMTMOVE
 70
     0
  9
$DIMFXL
 40
1.0
  9
$DIMFXLON
 70
     0
  9
$DIMJOGANG
 40
0.7853981633974483
  9
$DIMTFILL
 70
     0
  9
$DIMTFILLCLR
 70
     0
  9
$DIMARCSYM
 70
     0
  9
$DIMLTYPE
  6

  9
$DIMLTEX1
  6

  9
$DIMLTEX2
  6

  9
$DIMTXTDIRECTION
 70
     0
  9
$LUNITS
 70
     2
  9
$LUPREC
 70
     4
  9
$SKETCHINC
 40
0.1
  9
$FILLETRAD
 40
0.0
  9
$AUNITS
 70
     0
  9
$AUPREC
 70
     0
  9
$MENU
  1
.
  9
$ELEVATION
 40
0.0
  9
$PELEVATION
 40
0.0
  9
$THICKNESS
 40
0.0
  9
$LIMCHECK
 70
     0
  9
$CHAMFERA
 40
0.0
  9
$CHAMFERB
 40
0.0
  9
$CHAMFERC
 40
0.0
  9
$CHAMFERD
 40
0.0
  9
$SKPOLY
 70
     0
  9
$TDCREATE
 40
2460062.646851852
  9
$TDUCREATE
 40
2460062.271851852
  9
$TDUPDATE
 40
2460062.646851852
  9
$TDUUPDATE
 40
2460062.271851852
  9
$TDINDWG
 40
0.0000000000
  9
$TDUSRTIMER
 40
0.0000000000
  9
$USRTIMER
 70
     1
  9
$ANGBASE
 50
0.0
  9
$ANGDIR
 70
     0
  9
$PDMODE
 70
     0
  9
$PDSIZE
 40
0.0
  9
$PLINEWID
 40
0.0
  9
$SPLFRAME
 70
     0
  9
$SPLINETYPE
 70
     6
  9
$SPLINESEGS
 70
     8
  9
$HANDSEED
  5
329
  9
$SURFTAB1
 70
     6
  9
$SURFTAB2
 70
     6
  9
$SURFTYPE
 70
     6
  9
$SURFU
 70
     6
  9
$SURFV
 70
     6
  9
$UCSBASE
  2

  9
$UCSNAME
  2

  9
$UCSORG
 10
0.0
 20
0.0
 30
0.0
  9
$UCSXDIR
 10
1.0
 20
0.0
 30
0.0
  9
$UCSYDIR
 10
0.0
 20
1.0
 30
0.0
  9
$UCSORTHOREF
  2

  9
$UCSORTHOVIEW
 70
     0
  9
$UCSORGTOP
 10
0.0
 20
0.0
 30
0.0
  9
$UCSORGBOTTOM
 10
0.0
 20
0.0
 30
0.0
  9
$UCSORGLEFT
 10
0.0
 20
0.0
 30
0.0
  9
$UCSORGRIGHT
 10
0.0
 20
0.0
 30
0.0
  9
$UCSORGFRONT
 10
0.0
 20
0.0
 30
0.0
  9
$UCSORGBACK
 10
0.0
 20
0.0
 30
0.0
  9
$PUCSBASE
  2

  9
$PUCSNAME
  2

  9
$PUCSORG
 10
0.0
 20
0.0
 30
0.0
  9
$PUCSXDIR
 10
1.0
 20
0.0
 30
0.0
  9
$PUCSYDIR
 10
0.0
 20
1.0
 30
0.0
  9
$PUCSORTHOREF
  2

  9
$PUCSORTHOVIEW
 70
     0
  9
$PUCSORGTOP
 10
0.0
 20
0.0
 30
0.0
  9
$PUCSORGBOTTOM
 10
0.0
 20
0.0
 30
0.0
  9
$PUCSORGLEFT
 10
0.0
 20
0.0
 30
0.0
  9
$PUCSORGRIGHT
 10
0.0
 20
0.0
 30
0.0
  9
$PUCSORGFRONT
 10
0.0
 20
0.0
 30
0.0
  9
$PUCSORGBACK
 10
0.0
 20
0.0
 30
0.0
  9
$USERI1
 70
     0
  9
$USERI2
 70
     0
  9
$USERI3
 70
     0
  9
$USERI4
 70
     0
  9
$USERI5
 70
     0
  9
$USERR1
 40
0.0
  9
$USERR2
 40
0.0
  9
$USERR3
 40
0.0
  9
$USERR4
 40
0.0
  9
$USERR5
 40
0.0
  9
$WORLDVIEW
 70
     1
  9
$SHADEDGE
 70
     3
  9
$SHADEDIF
 70
    70
  9
$TILEMODE
 70
     1
  9
$MAXACTVP
 70
    64
  9
$PINSBASE
 10
0.0
 20
0.0
 30
0.0
  9
$PLIMCHECK
 70
     0
  9
$PEXTMIN
 10
1.000000000000000E+20
 20
1.000000000000000E+20
 30
1.000000000000000E+20
  9
$PEXTMAX
 10
-1.000000000000000E+20
 20
-1.000000000000000E+20
 30
-1.000000000000000E+20
  9
$PLIMMIN
 10
0.0
 20
0.0
  9
$PLIMMAX
 10
12.0
 20
9.0
  9
$UNITMODE
 70
     0
  9
$VISRETAIN
 70
     1
  9
$PLINEGEN
 70
     0
  9
$PSLTSCALE
 70
     1
  9
$TREEDEPTH
 70
  3020
  9
$CMLSTYLE
  2
Standard
  9
$CMLJUST
 70
     0
  9
$CMLSCALE
 40
1.0
  9
$PROXYGRAPHICS
 70
     1
  9
$MEASUREMENT
 70
     0
  9
$CELWEIGHT
370
    -1
  9
$ENDCAPS
280
     0
  9
$JOINSTYLE
280
     0
  9
$LWDISPLAY
290
     1
  9
$INSUNITS
 70
     4
  9
$HYPERLINKBASE
  1

  9
$STYLESHEET
  1

  9
$XEDIT
290
     1
  9
$CEPSNTYPE
380
     0
  9
$PSTYLEMODE
290
     1
  9
$FINGERPRINTGUID
  2
{D3BF28EF-551B-7C43-A8CA-A8710A931718}
  9
$VERSIONGUID
  2
{99E5160A-4526-E249-A1FB-898D4EA6CB57}
  9
$EXTNAMES
290
     1
  9
$PSVPSCALE
 40
0.0
  9
$OLESTARTUP
290
     0
  9
$SORTENTS
280
   127
  9
$INDEXCTL
280
     0
  9
$HIDETEXT
280
     1
  9
$XCLIPFRAME
280
     2
  9
$HALOGAP
280
     0
  9
$OBSCOLOR
 70
   257
  9
$OBSLTYPE
280
     0
  9
$INTERSECTIONDISPLAY
280
     0
  9
$INTERSECTIONCOLOR
 70
   257
  9
$DIMASSOC
280
     2
  9
$PROJECTNAME
  1

  9
$CAMERADISPLAY
290
     0
  9
$LENSLENGTH
 40
50.0
  9
$CAMERAHEIGHT
 40
0.0
  9
$STEPSPERSEC
 40
2.0
  9
$STEPSIZE
 40
6.0
  9
$3DDWFPREC
 40
2.0
  9
$PSOLWIDTH
 40
0.25
  9
$PSOLHEIGHT
 40
4.0
  9
$LOFTANG1
 40
1.570796326794896
  9
$LOFTANG2
 40
1.570796326794896
  9
$LOFTMAG1
 40
0.0
  9
$LOFTMAG2
 40
0.0
  9
$LOFTPARAM
 70
     7
  9
$LOFTNORMALS
280
     1
  9
$LATITUDE
 40
37.795
  9
$LONGITUDE
 40
-122.394
  9
$NORTHDIRECTION
 40
0.0
  9
$TIMEZONE
 70
 -8000
  9
$LIGHTGLYPHDISPLAY
280
     1
  9
$TILEMODELIGHTSYNCH
280
     1
  9
$CMATERIAL
347
11
  9
$SOLIDHIST
280
     0
  9
$SHOWHIST
280
     1
  9
$DWFFRAME
280
     2
  9
$DGNFRAME
280
     0
  9
$REALWORLDSCALE
290
     1
  9
$INTERFERECOLOR
 62
     1
  9
$INTERFEREOBJVS
345
33
  9
$INTERFEREVPVS
346
30
  9
$CSHADOW
280
     0
  9
$SHADOWPLANELOCATION
 40
0.0
  0
ENDSEC
  0
SECTION
  2
CLASSES
  0
CLASS
  1
ACDBDICTIONARYWDFLT
  2
AcDbDictionaryWithDefault
  3
ObjectDBX Classes
 90
        0
 91
        1
280
     0
281
     0
  0
CLASS
  1
MATERIAL
  2
AcDbMaterial
  3
ObjectDBX Classes
 90
     1153
 91
        3
280
     0
281
     0
  0
CLASS
  1
VISUALSTYLE
  2
AcDbVisualStyle
  3
ObjectDBX Classes
 90
     4095
 91
       24
280
     0
281
     0
  0
CLASS
  1
SCALE
  2
AcDbScale
  3
ObjectDBX Classes
 90
     1153
 91
       17
280
     0
281
     0
  0
CLASS
  1
TABLESTYLE
  2
AcDbTableStyle
  3
ObjectDBX Classes
 90
     4095
 91
        1
280
     0
281
     0
  0
CLASS
  1
MLEADERSTYLE
  2
AcDbMLeaderStyle
  3
ACDB_MLEADERSTYLE_CLASS
 90
     4095
 91
        1
280
     0
281
     0
  0
CLASS
  1
ACDBSECTIONVIEWSTYLE
  2
AcDbSectionViewStyle
  3
ObjectDBX Classes
 90
     1025
 91
        1
280
     0
281
     0
  0
CLASS
  1
ACDBDETAILVIEWSTYLE
  2
AcDbDetailViewStyle
  3
ObjectDBX Classes
 90
     1025
 91
        1
280
     0
281
     0
  0
CLASS
  1
DICTIONARYVAR
  2
AcDbDictionaryVar
  3
ObjectDBX Classes
 90
        0
 91
        5
280
     0
281
     0
  0
CLASS
  1
CELLSTYLEMAP
  2
AcDbCellStyleMap
  3
ObjectDBX Classes
 90
     1152
 91
        1
280
     0
281
     0
  0
ENDSEC
  0
SECTION
  2
TABLES
  0
TABLE
  2
VPORT
  5
8
330
0
100
AcDbSymbolTable
 70
     1
  0
VPORT
  5
57
330
8
100
AcDbSymbolTableRecord
100
AcDbViewportTableRecord
  2
*Active
 70
     0
 10
0.0
 20
0.0
 11
1.0
 21
1.0
 12
0.0
 22
0.0
 13
0.0
 23
0.0
 14
1.0
 24
1.0
 15
0.0
 25
0.0
 16
0.0
 26
0.0
 36
1.0
 17
338.666666582
 27
190.4999999523751
 37
0.0
 40
388.8749999028449
 41
1.776612021857632
 42
50.0
 43
0.0
 44
0.0
 50
0.0
 51
0.0
 71
     0
 72
   100
 73
     1
 74
     1
 75
     0
 76
     0
 77
     0
 78
     0
281
     0
 65
     1
110
0.0
120
0.0
130
0.0
111
1.0
121
0.0
131
0.0
112
0.0
122
1.0
132
0.0
 79
     0
146
0.0
 60
     3
 61
     5
292
     1
282
     1
141
0.0
142
0.0
 63
   250
421
  3355443
  0
ENDTAB
  0
TABLE
  2
LTYPE
  5
5
330
0
100
AcDbSymbolTable
 70
     1
  0
LTYPE
  5
5B
330
5
100
AcDbSymbolTableRecord
100
AcDbLinetypeTableRecord
  2
ByBlock
 70
     0
  3

 72
    65
 73
     0
 40
0.0
  0
LTYPE
  5
5C
330
5
100
AcDbSymbolTableRecord
100
AcDbLinetypeTableRecord
  2
ByLayer
 70
     0
  3

 72
    65
 73
     0
 40
0.0
  0
LTYPE
  5
5D
330
5
100
AcDbSymbolTableRecord
100
AcDbLinetypeTableRecord
  2
Continuous
 70
     0
  3
Solid line
 72
    65
 73
     0
 40
0.0
  0
ENDTAB
  0
TABLE
  2
LAYER
  5
2
330
0
100
AcDbSymbolTable
 70
     4
  0
LAYER
  5
54
330
2
100
AcDbSymbolTableRecord
100
AcDbLayerTableRecord
  2
0
 70
     0
 62
     7
  6
Continuous
370
    -3
390
F
347
21
348
0
  0
LAYER
  5
78
330
2
100
AcDbSymbolTableRecord
100
AcDbLayerTableRecord
  2
FLAME
 70
     0
 62
     7
  6
Continuous
370
     0
390
F
347
21
348
0
  0
LAYER
  5
80
330
2
100
AcDbSymbolTableRecord
100
AcDbLayerTableRecord
  2
SPEC
 70
     0
 62
     7
  6
Continuous
370
     0
390
F
347
21
348
0
  0
LAYER
  5
83
330
2
100
AcDbSymbolTableRecord
100
AcDbLayerTableRecord
  2
HONTAI
 70
     0
 62
     7
  6
Continuous
370
     0
390
F
347
21
348
0
  0
ENDTAB
  0
TABLE
  2
STYLE
  5
3
330
0
100
AcDbSymbolTable
 70
     2
  0
STYLE
  5
55
330
3
100
AcDbSymbolTableRecord
100
AcDbTextStyleTableRecord
  2
Standard
 70
     0
 40
0.0
 41
1.0
 50
0.0
 71
     0
 42
0.2
  3
txt
  4

  0
STYLE
  5
5A
330
3
100
AcDbSymbolTableRecord
100
AcDbTextStyleTableRecord
  2
Annotative
 70
     0
 40
0.0
 41
1.0
 50
0.0
 71
     0
 42
0.2
  3
txt
  4

1001
AcadAnnotative
1000
AnnotativeData
1002
{
1070
     1
1070
     1
1002
}
  0
ENDTAB
  0
TABLE
  2
VIEW
  5
6
330
0
100
AcDbSymbolTable
 70
     0
  0
ENDTAB
  0
TABLE
  2
UCS
  5
7
330
0
100
AcDbSymbolTable
 70
     0
  0
ENDTAB
  0
TABLE
  2
APPID
  5
9
330
0
100
AcDbSymbolTable
 70
     2
  0
APPID
  5
56
330
9
100
AcDbSymbolTableRecord
100
AcDbRegAppTableRecord
  2
ACAD
 70
     0
  0
APPID
  5
5E
330
9
100
AcDbSymbolTableRecord
100
AcDbRegAppTableRecord
  2
AcadAnnotative
 70
     0
  0
ENDTAB
  0
TABLE
  2
DIMSTYLE
  5
A
330
0
100
AcDbSymbolTable
 70
     2
100
AcDbDimStyleTable
 71
     0
  0
DIMSTYLE
105
58
330
A
100
AcDbSymbolTableRecord
100
AcDbDimStyleTableRecord
  2
Standard
 70
     0
340
55
  0
DIMSTYLE
105
59
330
A
100
AcDbSymbolTableRecord
100
AcDbDimStyleTableRecord
  2
Annotative
 70
     0
340
55
1001
AcadAnnotative
1000
AnnotativeData
1002
{
1070
     1
1070
     1
1002
}
  0
ENDTAB
  0
TABLE
  2
BLOCK_RECORD
  5
1
330
0
100
AcDbSymbolTable
 70
     1
  0
BLOCK_RECORD
  5
70
330
1
100
AcDbSymbolTableRecord
100
AcDbBlockTableRecord
  2
*Model_Space
340
73
 70
     0
280
     1
281
     0
  0
BLOCK_RECORD
  5
6C
330
1
100
AcDbSymbolTableRecord
100
AcDbBlockTableRecord
  2
*Paper_Space
340
6F
 70
     0
280
     1
281
     0
  0
BLOCK_RECORD
  5
74
330
1
100
AcDbSymbolTableRecord
100
AcDbBlockTableRecord
  2
*Paper_Space0
340
77
 70
     0
280
     1
281
     0
  0
ENDTAB
  0
ENDSEC
  0
SECTION
  2
BLOCKS
  0
BLOCK
  5
71
330
70
100
AcDbEntity
  8
0
100
AcDbBlockBegin
  2
*Model_Space
 70
     0
 10
0.0
 20
0.0
 30
0.0
  3
*Model_Space
  1

  0
ENDBLK
  5
72
330
70
100
AcDbEntity
  8
0
100
AcDbBlockEnd
  0
BLOCK
  5
6D
330
6C
100
AcDbEntity
 67
     1
  8
0
100
AcDbBlockBegin
  2
*Paper_Space
 70
     0
 10
0.0
 20
0.0
 30
0.0
  3
*Paper_Space
  1

  0
ENDBLK
  5
6E
330
6C
100
AcDbEntity
 67
     1
  8
0
100
AcDbBlockEnd
  0
BLOCK
  5
75
330
74
100
AcDbEntity
 67
     1
  8
0
100
AcDbBlockBegin
  2
*Paper_Space0
 70
     0
 10
0.0
 20
0.0
 30
0.0
  3
*Paper_Space0
  1

  0
ENDBLK
  5
76
330
74
100
AcDbEntity
 67
     1
  8
0
100
AcDbBlockEnd
  0
ENDSEC
  0
SECTION
  2
ENTITIES
  0
LINE
  5
79
330
70
100
AcDbEntity
  8
FLAME
 62
     2
420
 16776960
370
    25
100
AcDbLine
 10
501.9523808268935
 20
380.9999999047501
 30
0.0
 11
501.9523808268935
 21
0.0
 31
0.0
  0
LINE
  5
7A
330
70
100
AcDbEntity
  8
FLAME
 62
     2
420
 16776960
370
    25
100
AcDbLine
 10
175.3809523371077
 20
0.0
 30
0.0
 11
175.3809523371077
 21
380.9999999047501
 31
0.0
  0
LINE
  5
7B
330
70
100
AcDbEntity
  8
FLAME
 62
     2
420
 16776960
370
    25
100
AcDbLine
 10
501.9523808268935
 20
0.0
 30
0.0
 11
175.3809523371077
 21
0.0
 31
0.0
  0
LINE
  5
7C
330
70
100
AcDbEntity
  8
FLAME
 62
     2
420
 16776960
370
    25
100
AcDbLine
 10
501.9523808268935
 20
18.1428571383218
 30
0.0
 11
175.3809523371077
 21
18.1428571383218
 31
0.0
  0
LINE
  5
7D
330
70
100
AcDbEntity
  8
FLAME
 62
     2
420
 16776960
370
    25
100
AcDbLine
 10
501.9523808268935
 20
36.2857142766436
 30
0.0
 11
175.3809523371077
 21
36.2857142766436
 31
0.0
  0
LINE
  5
7E
330
70
100
AcDbEntity
  8
FLAME
 62
     2
420
 16776960
370
    25
100
AcDbLine
 10
501.9523808268935
 20
54.42857141496538
 30
0.0
 11
175.3809523371077
 21
54.42857141496538
 31
0.0
  0
LINE
  5
7F
330
70
100
AcDbEntity
  8
FLAME
 62
     2
420
 16776960
370
    25
100
AcDbLine
 10
501.9523808268935
 20
380.9999999047501
 30
0.0
 11
175.3809523371077
 21
380.9999999047501
 31
0.0
  0
MTEXT
  5
81
330
70
100
AcDbEntity
  8
SPEC
100
AcDbMText
 10
186.2666666201
 20
21.77142895048298
 30
0.0
 40
0.2
 41
0.0
 46
0.0
 71
     7
 72
     1
  1
\C9;\c12632256;\FKozuka Gothic Pr6N R|b0|i0|c128;\H7.992533;\W1.000000;E17 LED電球(60W相当 電球色 全方向/広配光タイプ）ｘ2灯
 73
     1
 44
1.0
  0
MTEXT
  5
82
330
70
100
AcDbEntity
  8
SPEC
100
AcDbMText
 10
186.2316127735376
 20
41.30775531159961
 30
0.0
 40
0.2
 41
0.0
 46
0.0
 71
     7
 72
     1
  1
\C9;\c12632256;\FKozuka Gothic Pr6N R|b0|i0|c128;\H9.071429;\W1.000000;KC2652
 73
     1
 44
1.0
  0
ELLIPSE
  5
84
330
70
100
AcDbEntity
  8
HONTAI
 62
     2
420
 16776960
370
    25
100
AcDbEllipse
 10
341.4109948785386
 20
157.7018315146855
 30
0.0
 11
13.95627524836022
 21
0.0929091665787755
 31
0.0
210
0.0
220
0.0
230
0.9999999999999998
 40
0.6880241004214563
 41
0.0
 42
6.283185307179586
  0
LINE
  5
85
330
70
100
AcDbEntity
  8
HONTAI
 62
     2
420
 16776960
370
    25
100
AcDbLine
 10
344.5586072945601
 20
247.2217374508613
 30
0.0
 11
341.8263184116701
 21
249.8579777979613
 31
0.0
  0
LINE
  5
86
330
70
100
AcDbEntity
  8
HONTAI
 62
     2
420
 16776960
370
    25
100
AcDbLine
 10
341.8263184116701
 20
249.8579777979613
 30
0.0
 11
341.369302819768
 21
167.3042210542755
 31
0.0
  0
LINE
  5
87
330
70
100
AcDbEntity
  8
HONTAI
 62
     2
420
 16776960
370
    25
100
AcDbLine
 10
341.8263184116701
 20
249.8579777979613
 30
0.0
 11
341.9014733672377
 21
253.8489585619641
 31
0.0
  0
LINE
  5
88
330
70
100
AcDbEntity
  8
HONTAI
 62
     2
420
 16776960
370
    25
100
AcDbLine
 10
341.9014733672377
 20
253.8489585619641
 30
0.0
 11
344.9463579112002
 21
257.7116191584259
 31
0.0
  0
LINE
  5
89
330
70
100
AcDbEntity
  8
HONTAI
 62
     2
420
 16776960
370
    25
100
AcDbLine
 10
344.9463579112002
 20
257.7116191584259
 30
0.0
 11
345.0956821835812
 21
260.5639931677453
 31
0.0
  0
LINE
  5
8A
330
70
100
AcDbEntity
  8
HONTAI
 62
     2
420
 16776960
370
    25
100
AcDbLine
 10
345.0956821835812
 20
260.5639931677453
 30
0.0
 11
341.7028671567772
 21
256.5978716417869
 31
0.0
  0
LINE
  5
8B
330
70
100
AcDbEntity
  8
HONTAI
 62
     2
420
 16776960
370
    25
100
AcDbLine
 10
344.9463579112002
 20
257.7116191584259
 30
0.0
 11
348.9404125825316
 21
253.7054367021283
 31
0.0
  0
LINE
  5
8C
330
70
100
AcDbEntity
  8
HONTAI
 62
     2
420
 16776960
370
    25
100
AcDbLine
 10
341.671080306748
 20
138.1220518081362
 30
0.0
 11
337.64745647257
 21
135.1046053045967
 31
0.0
  0
LINE
  5
8D
330
70
100
AcDbEntity
  8
HONTAI
 62
     2
420
 16776960
370
    25
100
AcDbLine
 10
337.64745647257
 20
135.1046053045967
 30
0.0
 11
335.4898932236361
 21
138.6009945379035
 31
0.0
  0
LINE
  5
8E
330
70
100
AcDbEntity
  8
HONTAI
 62
     2
420
 16776960
370
    25
100
AcDbLine
 10
335.4898932236361
 20
138.6009945379035
 30
0.0
 11
331.2947110111198
 21
136.0122178427724
 31
0.0
  0
LINE
  5
8F
330
70
100
AcDbEntity
  8
HONTAI
 62
     2
420
 16776960
370
    25
100
AcDbLine
 10
316.1684165818626
 20
139.463109335822
 30
0.0
 11
316.1684165818626
 21
143.6299826221137
 31
0.0
  0
LINE
  5
90
330
70
100
AcDbEntity
  8
HONTAI
 62
     2
420
 16776960
370
    25
100
AcDbLine
 10
316.1684165818626
 20
143.6299826221137
 30
0.0
 11
311.6618297545796
 21
140.8999375250954
 31
0.0
  0
LINE
  5
91
330
70
100
AcDbEntity
  8
HONTAI
 62
     2
420
 16776960
370
    25
100
AcDbLine
 10
311.6618297545796
 20
140.8999375250954
 30
0.0
 11
311.6618297545796
 21
145.1308367625681
 31
0.0
  0
LINE
  5
92
330
70
100
AcDbEntity
  8
HONTAI
 62
     2
420
 16776960
370
    25
100
AcDbLine
 10
311.6618297545796
 20
145.1308367625681
 30
0.0
 11
308.1302860721176
 21
142.448721707212
 31
0.0
  0
LINE
  5
93
330
70
100
AcDbEntity
  8
HONTAI
 62
     2
420
 16776960
370
    25
100
AcDbLine
 10
308.1302860721176
 20
142.448721707212
 30
0.0
 11
306.7400425990024
 21
145.5619388723739
 31
0.0
  0
LINE
  5
94
330
70
100
AcDbEntity
  8
HONTAI
 62
     2
420
 16776960
370
    25
100
AcDbLine
 10
306.7400425990024
 20
145.5619388723739
 30
0.0
 11
302.6340235962556
 21
143.7283481473412
 31
0.0
  0
LINE
  5
95
330
70
100
AcDbEntity
  8
HONTAI
 62
     2
420
 16776960
370
    25
100
AcDbLine
 10
302.6340235962556
 20
143.7283481473412
 30
0.0
 11
301.7058926246106
 21
148.0524231827771
 31
0.0
  0
LINE
  5
96
330
70
100
AcDbEntity
  8
HONTAI
 62
     2
420
 16776960
370
    25
100
AcDbLine
 10
301.7058926246106
 20
148.0524231827771
 30
0.0
 11
297.1032060180655
 21
145.7056395756441
 31
0.0
  0
LINE
  5
97
330
70
100
AcDbEntity
  8
HONTAI
 62
     2
420
 16776960
370
    25
100
AcDbLine
 10
297.1032060180655
 20
145.7056395756441
 30
0.0
 11
297.6785726451073
 21
149.7288121586655
 31
0.0
  0
LINE
  5
98
330
70
100
AcDbEntity
  8
HONTAI
 62
     2
420
 16776960
370
    25
100
AcDbLine
 10
297.6785726451073
 20
149.7288121586655
 30
0.0
 11
293.5553992960523
 21
147.8129518179038
 31
0.0
  0
LINE
  5
99
330
70
100
AcDbEntity
  8
HONTAI
 62
     2
420
 16776960
370
    25
100
AcDbLine
 10
293.5553992960523
 20
147.8129518179038
 30
0.0
 11
293.5553992960523
 21
151.5967424577652
 31
0.0
  0
LINE
  5
9A
330
70
100
AcDbEntity
  8
HONTAI
 62
     2
420
 16776960
370
    25
100
AcDbLine
 10
293.5553992960523
 20
151.5967424577652
 30
0.0
 11
289.5761292061603
 21
150.0640541851483
 31
0.0
  0
LINE
  5
9B
330
70
100
AcDbEntity
  8
HONTAI
 62
     2
420
 16776960
370
    25
100
AcDbLine
 10
289.5761292061603
 20
150.0640541851483
 30
0.0
 11
289.5761292061603
 21
153.7999147833477
 31
0.0
  0
LINE
  5
9C
330
70
100
AcDbEntity
  8
HONTAI
 62
     2
420
 16776960
370
    25
100
AcDbLine
 10
289.5761292061603
 20
153.7999147833477
 30
0.0
 11
284.8295393404508
 21
152.5066978756247
 31
0.0
  0
LINE
  5
9D
330
70
100
AcDbEntity
  8
HONTAI
 62
     2
420
 16776960
370
    25
100
AcDbLine
 10
284.8295393404508
 20
152.5066978756247
 30
0.0
 11
285.9322227048849
 21
155.907316447322
 31
0.0
  0
LINE
  5
9E
330
70
100
AcDbEntity
  8
HONTAI
 62
     2
420
 16776960
370
    25
100
AcDbLine
 10
285.9322227048849
 20
155.907316447322
 30
0.0
 11
280.6105126218131
 21
155.1888129309603
 31
0.0
  0
LINE
  5
9F
330
70
100
AcDbEntity
  8
HONTAI
 62
     2
420
 16776960
370
    25
100
AcDbLine
 10
280.6105126218131
 20
155.1888129309603
 30
0.0
 11
282.5182164447054
 21
158.4717525197767
 31
0.0
  0
LINE
  5
A0
330
70
100
AcDbEntity
  8
HONTAI
 62
     2
420
 16776960
370
    25
100
AcDbLine
 10
282.5182164447054
 20
158.4717525197767
 30
0.0
 11
277.2923597312189
 21
158.4717525197767
 31
0.0
  0
LINE
  5
A1
330
70
100
AcDbEntity
  8
HONTAI
 62
     2
420
 16776960
370
    25
100
AcDbLine
 10
277.2923597312189
 20
158.4717525197767
 30
0.0
 11
279.5455299400212
 21
161.5848802632187
 31
0.0
  0
LINE
  5
A2
330
70
100
AcDbEntity
  8
HONTAI
 62
     2
420
 16776960
370
    25
100
AcDbLine
 10
279.5455299400212
 20
161.5848802632187
 30
0.0
 11
273.8882098586545
 21
161.0580969135041
 31
0.0
  0
LINE
  5
A3
330
70
100
AcDbEntity
  8
HONTAI
 62
     2
420
 16776960
370
    25
100
AcDbLine
 10
273.8882098586545
 20
161.0580969135041
 30
0.0
 11
276.3333332162683
 21
164.0754539953366
 31
0.0
  0
LINE
  5
A4
330
70
100
AcDbEntity
  8
HONTAI
 62
     2
420
 16776960
370
    25
100
AcDbLine
 10
276.3333332162683
 20
164.0754539953366
 30
0.0
 11
270.72406302455
 21
164.0754539953366
 31
0.0
  0
LINE
  5
A5
330
70
100
AcDbEntity
  8
HONTAI
 62
     2
420
 16776960
370
    25
100
AcDbLine
 10
270.72406302455
 20
164.0754539953366
 30
0.0
 11
273.3128432316486
 21
167.1407411188364
 31
0.0
  0
LINE
  5
A6
330
70
100
AcDbEntity
  8
HONTAI
 62
     2
420
 16776960
370
    25
100
AcDbLine
 10
273.3128432316486
 20
167.1407411188364
 30
0.0
 11
267.7994264094796
 21
167.1407411188364
 31
0.0
  0
LINE
  5
A7
330
70
100
AcDbEntity
  8
HONTAI
 62
     2
420
 16776960
370
    25
100
AcDbLine
 10
267.7994264094796
 20
167.1407411188364
 30
0.0
 11
270.6279632452878
 21
170.3497289456013
 31
0.0
  0
LINE
  5
A8
330
70
100
AcDbEntity
  8
HONTAI
 62
     2
420
 16776960
370
    25
100
AcDbLine
 10
270.6279632452878
 20
170.3497289456013
 30
0.0
 11
265.0186930535696
 21
170.7808310554135
 31
0.0
  0
LINE
  5
A9
330
70
100
AcDbEntity
  8
HONTAI
 62
     2
420
 16776960
370
    25
100
AcDbLine
 10
265.0186930535696
 20
170.7808310554135
 30
0.0
 11
268.9021097739123
 21
174.0376595021271
 31
0.0
  0
LINE
  5
AA
330
70
100
AcDbEntity
  8
HONTAI
 62
     2
420
 16776960
370
    25
100
AcDbLine
 10
268.9021097739123
 20
174.0376595021271
 30
0.0
 11
262.9569831741862
 21
174.8519336800969
 31
0.0
  0
LINE
  5
AB
330
70
100
AcDbEntity
  8
HONTAI
 62
     2
420
 16776960
370
    25
100
AcDbLine
 10
262.9569831741862
 20
174.8519336800969
 30
0.0
 11
267.1668927342795
 21
177.3080800502001
 31
0.0
  0
LINE
  5
AC
330
70
100
AcDbEntity
  8
HONTAI
 62
     2
420
 16776960
370
    25
100
AcDbLine
 10
267.1668927342795
 20
177.3080800502001
 30
0.0
 11
261.3176195041373
 21
178.840768322817
 31
0.0
  0
LINE
  5
AD
330
70
100
AcDbEntity
  8
HONTAI
 62
     2
420
 16776960
370
    25
100
AcDbLine
 10
261.3176195041373
 20
178.840768322817
 30
0.0
 11
265.3449394836418
 21
181.0439406483995
 31
0.0
  0
LINE
  5
AE
330
70
100
AcDbEntity
  8
HONTAI
 62
     2
420
 16776960
370
    25
100
AcDbLine
 10
265.3449394836418
 20
181.0439406483995
 30
0.0
 11
260.6944493971599
 21
182.3370681344091
 31
0.0
  0
LINE
  5
AF
330
70
100
AcDbEntity
  8
HONTAI
 62
     2
420
 16776960
370
    25
100
AcDbLine
 10
260.6944493971599
 20
182.3370681344091
 30
0.0
 11
264.9615260054127
 21
184.7797118248662
 31
0.0
  0
LINE
  5
B0
330
70
100
AcDbEntity
  8
HONTAI
 62
     2
420
 16776960
370
    25
100
AcDbLine
 10
264.9615260054127
 20
184.7797118248662
 30
0.0
 11
258.9222709039954
 21
186.1466122294798
 31
0.0
  0
LINE
  5
B1
330
70
100
AcDbEntity
  8
HONTAI
 62
     2
420
 16776960
370
    25
100
AcDbLine
 10
258.9222709039954
 20
186.1466122294798
 30
0.0
 11
263.6208108800898
 21
188.9724279881063
 31
0.0
  0
LINE
  5
B2
330
70
100
AcDbEntity
  8
HONTAI
 62
     2
420
 16776960
370
    25
100
AcDbLine
 10
263.6208108800898
 20
188.9724279881063
 30
0.0
 11
258.6825142752485
 21
190.5529568806448
 31
0.0
  0
LINE
  5
B3
330
70
100
AcDbEntity
  8
HONTAI
 62
     2
420
 16776960
370
    25
100
AcDbLine
 10
258.6825142752485
 20
190.5529568806448
 30
0.0
 11
263.4769076208934
 21
192.8518998678368
 31
0.0
  0
LINE
  5
B4
330
70
100
AcDbEntity
  8
HONTAI
 62
     2
420
 16776960
370
    25
100
AcDbLine
 10
263.4769076208934
 20
192.8518998678368
 30
0.0
 11
258.7786140544773
 21
194.097186733899
 31
0.0
  0
LINE
  5
B5
330
70
100
AcDbEntity
  8
HONTAI
 62
     2
420
 16776960
370
    25
100
AcDbLine
 10
258.7786140544773
 20
194.097186733899
 30
0.0
 11
263.1412976225985
 21
196.3003590594815
 31
0.0
  0
LINE
  5
B6
330
70
100
AcDbEntity
  8
HONTAI
 62
     2
420
 16776960
370
    25
100
AcDbLine
 10
263.1412976225985
 20
196.3003590594815
 30
0.0
 11
258.2032474274701
 21
197.9767480353699
 31
0.0
  0
LINE
  5
B7
330
70
100
AcDbEntity
  8
HONTAI
 62
     2
420
 16776960
370
    25
100
AcDbLine
 10
258.2032474274701
 20
197.9767480353699
 30
0.0
 11
263.4314896493544
 21
200.1393691661623
 31
0.0
  0
LINE
  5
B8
330
70
100
AcDbEntity
  8
HONTAI
 62
     2
420
 16776960
370
    25
100
AcDbLine
 10
263.4314896493544
 20
200.1393691661623
 30
0.0
 11
259.0661741631572
 21
202.7183347130177
 31
0.0
  0
LINE
  5
B9
330
70
100
AcDbEntity
  8
HONTAI
 62
     2
420
 16776960
370
    25
100
AcDbLine
 10
259.0661741631572
 20
202.7183347130177
 30
0.0
 11
264.8673975036856
 21
204.2727524634728
 31
0.0
  0
LINE
  5
BA
330
70
100
AcDbEntity
  8
HONTAI
 62
     2
420
 16776960
370
    25
100
AcDbLine
 10
264.8673975036856
 20
204.2727524634728
 30
0.0
 11
259.9769043787798
 21
207.1943388836959
 31
0.0
  0
LINE
  5
BB
330
70
100
AcDbEntity
  8
HONTAI
 62
     2
420
 16776960
370
    25
100
AcDbLine
 10
259.9769043787798
 20
207.1943388836959
 30
0.0
 11
266.0178843480551
 21
208.5833264530283
 31
0.0
  0
LINE
  5
BC
330
70
100
AcDbEntity
  8
HONTAI
 62
     2
420
 16776960
370
    25
100
AcDbLine
 10
266.0178843480551
 20
208.5833264530283
 30
0.0
 11
262.0866641477781
 21
211.2654415083781
 31
0.0
  0
LINE
  5
BD
330
70
100
AcDbEntity
  8
HONTAI
 62
     2
420
 16776960
370
    25
100
AcDbLine
 10
262.0866641477781
 20
211.2654415083781
 30
0.0
 11
268.4630077056702
 21
212.6064990360498
 31
0.0
  0
LINE
  5
BE
330
70
100
AcDbEntity
  8
HONTAI
 62
     2
420
 16776960
370
    25
100
AcDbLine
 10
268.4630077056702
 20
212.6064990360498
 30
0.0
 11
264.9679326573475
 21
215.5974767106174
 31
0.0
  0
LINE
  5
BF
330
70
100
AcDbEntity
  8
HONTAI
 62
     2
420
 16776960
370
    25
100
AcDbLine
 10
264.9679326573475
 20
215.5974767106174
 30
0.0
 11
269.8584257822533
 21
216.0284893987097
 31
0.0
  0
LINE
  5
C0
330
70
100
AcDbEntity
  8
HONTAI
 62
     2
420
 16776960
370
    25
100
AcDbLine
 10
269.8584257822533
 20
216.0284893987097
 30
0.0
 11
267.0776924263446
 21
219.9080507001794
 31
0.0
  0
LINE
  5
C1
330
70
100
AcDbEntity
  8
HONTAI
 62
     2
420
 16776960
370
    25
100
AcDbLine
 10
267.0776924263446
 20
219.9080507001794
 30
0.0
 11
273.5020858738504
 21
220.9137767796419
 31
0.0
  0
LINE
  5
C2
330
70
100
AcDbEntity
  8
HONTAI
 62
     2
420
 16776960
370
    25
100
AcDbLine
 10
273.5020858738504
 20
220.9137767796419
 30
0.0
 11
270.6733026283279
 21
224.5059366745569
 31
0.0
  0
LINE
  5
C3
330
70
100
AcDbEntity
  8
HONTAI
 62
     2
420
 16776960
370
    25
100
AcDbLine
 10
270.6733026283279
 20
224.5059366745569
 30
0.0
 11
277.5294058533549
 21
224.9848794043241
 31
0.0
  0
LINE
  5
C4
330
70
100
AcDbEntity
  8
HONTAI
 62
     2
420
 16776960
370
    25
100
AcDbLine
 10
277.5294058533549
 20
224.9848794043241
 30
0.0
 11
274.4130624991859
 21
228.4333385959688
 31
0.0
  0
LINE
  5
C5
330
70
100
AcDbEntity
  8
HONTAI
 62
     2
420
 16776960
370
    25
100
AcDbLine
 10
274.4130624991859
 20
228.4333385959688
 30
0.0
 11
281.1730659449521
 21
228.4333385959688
 31
0.0
  0
LINE
  5
C6
330
70
100
AcDbEntity
  8
HONTAI
 62
     2
420
 16776960
370
    25
100
AcDbLine
 10
281.1730659449521
 20
228.4333385959688
 30
0.0
 11
278.6885170368752
 21
232.3775518006558
 31
0.0
  0
LINE
  5
C7
330
70
100
AcDbEntity
  8
HONTAI
 62
     2
420
 16776960
370
    25
100
AcDbLine
 10
278.6885170368752
 20
232.3775518006558
 30
0.0
 11
285.8321803705834
 21
231.8507684509412
 31
0.0
  0
LINE
  5
C8
330
70
100
AcDbEntity
  8
HONTAI
 62
     2
420
 16776960
370
    25
100
AcDbLine
 10
285.8321803705834
 20
231.8507684509412
 30
0.0
 11
283.8185203808138
 21
235.7781703723531
 31
0.0
  0
LINE
  5
C9
330
70
100
AcDbEntity
  8
HONTAI
 62
     2
420
 16776960
370
    25
100
AcDbLine
 10
283.8185203808138
 20
235.7781703723531
 30
0.0
 11
290.3868170874813
 21
234.6286541679004
 31
0.0
  0
LINE
  5
CA
330
70
100
AcDbEntity
  8
HONTAI
 62
     2
420
 16776960
370
    25
100
AcDbLine
 10
290.3868170874813
 20
234.6286541679004
 30
0.0
 11
289.7636469805399
 21
238.9871581991244
 31
0.0
  0
LINE
  5
CB
330
70
100
AcDbEntity
  8
HONTAI
 62
     2
420
 16776960
370
    25
100
AcDbLine
 10
289.7636469805399
 20
238.9871581991244
 30
0.0
 11
296.2360903176594
 21
237.5502405881106
 31
0.0
  0
LINE
  5
CC
330
70
100
AcDbEntity
  8
HONTAI
 62
     2
420
 16776960
370
    25
100
AcDbLine
 10
296.2360903176594
 20
237.5502405881106
 30
0.0
 11
296.2360903176594
 21
241.48908848962
 31
0.0
  0
LINE
  5
CD
330
70
100
AcDbEntity
  8
HONTAI
 62
     2
420
 16776960
370
    25
100
AcDbLine
 10
296.2360903176594
 20
241.48908848962
 30
0.0
 11
302.8613076628044
 21
240.004330258678
 31
0.0
  0
LINE
  5
CE
330
70
100
AcDbEntity
  8
HONTAI
 62
     2
420
 16776960
370
    25
100
AcDbLine
 10
302.8613076628044
 20
240.004330258678
 30
0.0
 11
301.9503310374688
 21
243.5006300702701
 31
0.0
  0
LINE
  5
CF
330
70
100
AcDbEntity
  8
HONTAI
 62
     2
420
 16776960
370
    25
100
AcDbLine
 10
301.9503310374688
 20
243.5006300702701
 30
0.0
 11
307.7993578579328
 21
242.4469739491403
 31
0.0
  0
LINE
  5
D0
330
70
100
AcDbEntity
  8
HONTAI
 62
     2
420
 16776960
370
    25
100
AcDbLine
 10
307.7993578579328
 20
242.4469739491403
 30
0.0
 11
307.3200910101544
 21
246.0869744640103
 31
0.0
  0
LINE
  5
D1
330
70
100
AcDbEntity
  8
HONTAI
 62
     2
420
 16776960
370
    25
100
AcDbLine
 10
307.3200910101544
 20
246.0869744640103
 30
0.0
 11
313.8883877168219
 21
244.1232735033076
 31
0.0
  0
LINE
  5
D2
330
70
100
AcDbEntity
  8
HONTAI
 62
     2
420
 16776960
370
    25
100
AcDbLine
 10
313.8883877168219
 20
244.1232735033076
 30
0.0
 11
313.8883877168219
 21
247.2843312884104
 31
0.0
  0
LINE
  5
D3
330
70
100
AcDbEntity
  8
HONTAI
 62
     2
420
 16776960
370
    25
100
AcDbLine
 10
313.8883877168219
 20
247.2843312884104
 30
0.0
 11
319.9293676860627
 21
245.033318342887
 31
0.0
  0
LINE
  5
D4
330
70
100
AcDbEntity
  8
HONTAI
 62
     2
420
 16776960
370
    25
100
AcDbLine
 10
319.9293676860627
 20
245.033318342887
 30
0.0
 11
319.9293676860627
 21
248.5775481961347
 31
0.0
  0
LINE
  5
D5
330
70
100
AcDbEntity
  8
HONTAI
 62
     2
420
 16776960
370
    25
100
AcDbLine
 10
319.9293676860627
 20
248.5775481961347
 30
0.0
 11
326.4715449655652
 21
246.2408692433067
 31
0.0
  0
LINE
  5
D6
330
70
100
AcDbEntity
  8
HONTAI
 62
     2
420
 16776960
370
    25
100
AcDbLine
 10
326.4715449655652
 20
246.2408692433067
 30
0.0
 11
327.7223013518356
 21
249.7427067561408
 31
0.0
  0
LINE
  5
D7
330
70
100
AcDbEntity
  8
HONTAI
 62
     2
420
 16776960
370
    25
100
AcDbLine
 10
327.7223013518356
 20
249.7427067561408
 30
0.0
 11
332.4644750451909
 21
247.0551434212637
 31
0.0
  0
LINE
  5
D8
330
70
100
AcDbEntity
  8
HONTAI
 62
     2
420
 16776960
370
    25
100
AcDbLine
 10
332.4644750451909
 20
247.0551434212637
 30
0.0
 11
334.7656951436416
 21
249.9767298414933
 31
0.0
  0
LINE
  5
D9
330
70
100
AcDbEntity
  8
HONTAI
 62
     2
420
 16776960
370
    25
100
AcDbLine
 10
334.7656951436416
 20
249.9767298414933
 30
0.0
 11
338.2633824625172
 21
247.2217374508613
 31
0.0
  0
LINE
  5
DA
330
70
100
AcDbEntity
  8
HONTAI
 62
     2
420
 16776960
370
    25
100
AcDbLine
 10
334.7656951436416
 20
249.9767298414933
 30
0.0
 11
340.5991213652844
 21
167.2909950140679
 31
0.0
  0
LINE
  5
DB
330
70
100
AcDbEntity
  8
HONTAI
 62
     2
420
 16776960
370
    25
100
AcDbLine
 10
327.7223013518356
 20
249.7427067561408
 30
0.0
 11
339.8639185898416
 21
167.2506539084965
 31
0.0
  0
LINE
  5
DC
330
70
100
AcDbEntity
  8
HONTAI
 62
     2
420
 16776960
370
    25
100
AcDbLine
 10
321.0511046915822
 20
243.8399136403361
 30
0.0
 11
339.1994247915887
 21
167.190834567241
 31
0.0
  0
LINE
  5
DD
330
70
100
AcDbEntity
  8
HONTAI
 62
     2
420
 16776960
370
    25
100
AcDbLine
 10
315.213794280047
 20
242.9993897344445
 30
0.0
 11
338.6819409087931
 21
167.1286045171885
 31
0.0
  0
LINE
  5
DE
330
70
100
AcDbEntity
  8
HONTAI
 62
     2
420
 16776960
370
    25
100
AcDbLine
 10
309.0553033343735
 20
241.6339812704554
 30
0.0
 11
338.1205380208622
 21
167.0452462656588
 31
0.0
  0
LINE
  5
DF
330
70
100
AcDbEntity
  8
HONTAI
 62
     2
420
 16776960
370
    25
100
AcDbLine
 10
303.8746898753895
 20
239.3563120198446
 30
0.0
 11
337.5030365721043
 21
166.9339750447762
 31
0.0
  0
LINE
  5
E0
330
70
100
AcDbEntity
  8
HONTAI
 62
     2
420
 16776960
370
    25
100
AcDbLine
 10
298.358952142079
 20
237.5830592665255
 30
0.0
 11
336.8341176261503
 21
166.7894169223323
 31
0.0
  0
LINE
  5
E1
330
70
100
AcDbEntity
  8
HONTAI
 62
     2
420
 16776960
370
    25
100
AcDbLine
 10
293.026622526881
 20
233.8991384787758
 30
0.0
 11
336.1726496988232
 21
166.6207191381323
 31
0.0
  0
LINE
  5
E2
330
70
100
AcDbEntity
  8
HONTAI
 62
     2
420
 16776960
370
    25
100
AcDbLine
 10
287.2143463832971
 20
231.2164756909784
 30
0.0
 11
335.4590159736237
 21
166.4082515611252
 31
0.0
  0
LINE
  5
E3
330
70
100
AcDbEntity
  8
HONTAI
 62
     2
420
 16776960
370
    25
100
AcDbLine
 10
282.5603402431421
 20
227.7937010594882
 30
0.0
 11
334.6491275604253
 21
166.1257958814118
 31
0.0
  0
LINE
  5
E4
330
70
100
AcDbEntity
  8
HONTAI
 62
     2
420
 16776960
370
    25
100
AcDbLine
 10
274.4130624991859
 20
228.4333385959688
 30
0.0
 11
333.6568158010048
 21
165.7130809476434
 31
0.0
  0
LINE
  5
E5
330
70
100
AcDbEntity
  8
HONTAI
 62
     2
420
 16776960
370
    25
100
AcDbLine
 10
273.5020858738504
 20
220.9137767796419
 30
0.0
 11
332.7828164072482
 21
165.2797340911
 31
0.0
  0
LINE
  5
E6
330
70
100
AcDbEntity
  8
HONTAI
 62
     2
420
 16776960
370
    25
100
AcDbLine
 10
269.8584257822533
 20
216.0284893987097
 30
0.0
 11
332.0928634160475
 21
164.8833029437443
 31
0.0
  0
LINE
  5
E7
330
70
100
AcDbEntity
  8
HONTAI
 62
     2
420
 16776960
370
    25
100
AcDbLine
 10
268.4630077056702
 20
212.6064990360498
 30
0.0
 11
331.3739180787278
 21
164.4091921135361
 31
0.0
  0
LINE
  5
E8
330
70
100
AcDbEntity
  8
HONTAI
 62
     2
420
 16776960
370
    25
100
AcDbLine
 10
266.0178843480551
 20
208.5833264530283
 30
0.0
 11
330.9085558520694
 21
164.0626519396619
 31
0.0
  0
LINE
  5
E9
330
70
100
AcDbEntity
  8
HONTAI
 62
     2
420
 16776960
370
    25
100
AcDbLine
 10
264.8673975036856
 20
204.2727524634728
 30
0.0
 11
330.2962576043434
 21
163.5482927703544
 31
0.0
  0
LINE
  5
EA
330
70
100
AcDbEntity
  8
HONTAI
 62
     2
420
 16776960
370
    25
100
AcDbLine
 10
263.4314896493544
 20
200.1393691661559
 30
0.0
 11
329.7597203969418
 21
163.0289360048162
 31
0.0
  0
LINE
  5
EB
330
70
100
AcDbEntity
  8
HONTAI
 62
     2
420
 16776960
370
    25
100
AcDbLine
 10
264.6883524980398
 20
194.7431350456079
 30
0.0
 11
329.3058802008163
 21
162.5234447442715
 31
0.0
  0
LINE
  5
EC
330
70
100
AcDbEntity
  8
HONTAI
 62
     2
420
 16776960
370
    25
100
AcDbLine
 10
262.9142880619403
 20
192.2005216717698
 30
0.0
 11
328.8662793613629
 21
161.9542214435975
 31
0.0
  0
LINE
  5
ED
330
70
100
AcDbEntity
  8
HONTAI
 62
     2
420
 16776960
370
    25
100
AcDbLine
 10
264.9319364202015
 20
187.9120591558596
 30
0.0
 11
328.3415161861971
 21
161.1162673131156
 31
0.0
  0
LINE
  5
EE
330
70
100
AcDbEntity
  8
HONTAI
 62
     2
420
 16776960
370
    25
100
AcDbLine
 10
266.433994592462
 20
183.3230158681151
 30
0.0
 11
327.9208811858616
 21
160.2105910163208
 31
0.0
  0
LINE
  5
EF
330
70
100
AcDbEntity
  8
HONTAI
 62
     2
420
 16776960
370
    25
100
AcDbLine
 10
268.4600507893811
 20
178.9416360224293
 30
0.0
 11
327.6654614346364
 21
159.4130308227977
 31
0.0
  0
LINE
  5
F0
330
70
100
AcDbEntity
  8
HONTAI
 62
     2
420
 16776960
370
    25
100
AcDbLine
 10
270.4756820566524
 20
175.5481711882911
 30
0.0
 11
327.5058344508171
 21
158.5728430832364
 31
0.0
  0
LINE
  5
F1
330
70
100
AcDbEntity
  8
HONTAI
 62
     2
420
 16776960
370
    25
100
AcDbLine
 10
271.9630109477466
 20
172.038100431896
 30
0.0
 11
327.4566030406437
 21
157.9145192455873
 31
0.0
  0
LINE
  5
F2
330
70
100
AcDbEntity
  8
HONTAI
 62
     2
420
 16776960
370
    25
100
AcDbLine
 10
274.4985666617263
 20
168.6341732565774
 30
0.0
 11
327.4696987915656
 21
157.3037613693322
 31
0.0
  0
LINE
  5
F3
330
70
100
AcDbEntity
  8
HONTAI
 62
     2
420
 16776960
370
    25
100
AcDbLine
 10
277.3418880789753
 20
166.3942486042643
 30
0.0
 11
327.5719768815941
 21
156.5074327273122
 31
0.0
  0
LINE
  5
F4
330
70
100
AcDbEntity
  8
HONTAI
 62
     2
420
 16776960
370
    25
100
AcDbLine
 10
280.2342450246254
 20
163.5460774157697
 30
0.0
 11
327.7216261003466
 21
155.8803166617044
 31
0.0
  0
LINE
  5
F5
330
70
100
AcDbEntity
  8
HONTAI
 62
     2
420
 16776960
370
    25
100
AcDbLine
 10
283.3865641936118
 20
160.8474193423057
 30
0.0
 11
327.9447773973617
 21
155.2263910953666
 31
0.0
  0
LINE
  5
F6
330
70
100
AcDbEntity
  8
HONTAI
 62
     2
420
 16776960
370
    25
100
AcDbLine
 10
328.6149364951286
 20
153.9132147458848
 30
0.0
 11
290.2581912291168
 21
155.6971754064401
 31
0.0
  0
LINE
  5
F7
330
70
100
AcDbEntity
  8
HONTAI
 62
     2
420
 16776960
370
    25
100
AcDbLine
 10
286.9782318405211
 20
158.0972505736822
 30
0.0
 11
328.1932656950694
 21
154.6655237437911
 31
0.0
  0
LINE
  5
F8
330
70
100
AcDbEntity
  8
HONTAI
 62
     2
420
 16776960
370
    25
100
AcDbLine
 10
284.8295393404508
 20
152.5066978756247
 30
0.0
 11
329.037090596709
 21
153.303849470828
 31
0.0
  0
LINE
  5
F9
330
70
100
AcDbEntity
  8
HONTAI
 62
     2
420
 16776960
370
    25
100
AcDbLine
 10
289.5761292061603
 20
150.0640541851483
 30
0.0
 11
329.4584870160294
 21
152.7860590737329
 31
0.0
  0
LINE
  5
FA
330
70
100
AcDbEntity
  8
HONTAI
 62
     2
420
 16776960
370
    25
100
AcDbLine
 10
297.6785726451073
 20
149.7288121586655
 30
0.0
 11
329.9102807858396
 21
152.3020500760479
 31
0.0
  0
LINE
  5
FB
330
70
100
AcDbEntity
  8
HONTAI
 62
     2
420
 16776960
370
    25
100
AcDbLine
 10
301.7058926246106
 20
148.0524231827771
 30
0.0
 11
330.450428948971
 21
151.7956651093435
 31
0.0
  0
LINE
  5
FC
330
70
100
AcDbEntity
  8
HONTAI
 62
     2
420
 16776960
370
    25
100
AcDbLine
 10
306.7400425990024
 20
145.5619388723739
 30
0.0
 11
330.9129977546415
 21
151.4111426802105
 31
0.0
  0
LINE
  5
FD
330
70
100
AcDbEntity
  8
HONTAI
 62
     2
420
 16776960
370
    25
100
AcDbLine
 10
311.6618297545796
 20
145.1308367625681
 30
0.0
 11
331.481304109535
 21
150.9888327427487
 31
0.0
  0
LINE
  5
FE
330
70
100
AcDbEntity
  8
HONTAI
 62
     2
420
 16776960
370
    25
100
AcDbLine
 10
316.1684165818626
 20
143.6299826221137
 30
0.0
 11
332.3305824031284
 21
150.4414840535725
 31
0.0
  0
LINE
  5
FF
330
70
100
AcDbEntity
  8
HONTAI
 62
     2
420
 16776960
370
    25
100
AcDbLine
 10
320.2290018695749
 20
142.8846525899059
 30
0.0
 11
333.0339798417998
 21
150.0507685024635
 31
0.0
  0
LINE
  5
100
330
70
100
AcDbEntity
  8
HONTAI
 62
     2
420
 16776960
370
    25
100
AcDbLine
 10
320.915006447572
 20
137.595179036721
 30
0.0
 11
333.7360396747864
 21
149.7085158972087
 31
0.0
  0
LINE
  5
101
330
70
100
AcDbEntity
  8
HONTAI
 62
     2
420
 16776960
370
    25
100
AcDbLine
 10
325.9491564219613
 20
136.8288349004133
 30
0.0
 11
334.2729591248823
 21
149.475244450601
 31
0.0
  0
LINE
  5
102
330
70
100
AcDbEntity
  8
HONTAI
 62
     2
420
 16776960
370
    25
100
AcDbLine
 10
331.2947110111198
 20
136.0122178427724
 30
0.0
 11
334.8266312086283
 21
149.2119995653576
 31
0.0
  0
LINE
  5
103
330
70
100
AcDbEntity
  8
HONTAI
 62
     2
420
 16776960
370
    25
100
AcDbLine
 10
337.64745647257
 20
135.1046053045967
 30
0.0
 11
338.819387743585
 21
148.257176984282
 31
0.0
  0
LINE
  5
104
330
70
100
AcDbEntity
  8
HONTAI
 62
     2
420
 16776960
370
    25
100
AcDbLine
 10
337.8756318458758
 20
257.7116191584259
 30
0.0
 11
337.7263075734961
 21
260.5639931677453
 31
0.0
  0
LINE
  5
105
330
70
100
AcDbEntity
  8
HONTAI
 62
     2
420
 16776960
370
    25
100
AcDbLine
 10
337.8756318458758
 20
257.7116191584259
 30
0.0
 11
333.8815771745444
 21
253.7054367021283
 31
0.0
  0
LINE
  5
106
330
70
100
AcDbEntity
  8
HONTAI
 62
     2
420
 16776960
370
    25
100
AcDbLine
 10
333.8815771745444
 20
253.7054367021283
 30
0.0
 11
334.7656951436416
 21
249.9767298414933
 31
0.0
  0
LINE
  5
107
330
70
100
AcDbEntity
  8
HONTAI
 62
     2
420
 16776960
370
    25
100
AcDbLine
 10
337.7263075734961
 20
260.5639931677453
 30
0.0
 11
334.6939899237223
 21
256.8340344030389
 31
0.0
  0
LINE
  5
108
330
70
100
AcDbEntity
  8
HONTAI
 62
     2
420
 16776960
370
    25
100
AcDbLine
 10
334.6939899237223
 20
256.8340344030389
 30
0.0
 11
330.9148135692416
 21
259.9063641214609
 31
0.0
  0
LINE
  5
109
330
70
100
AcDbEntity
  8
HONTAI
 62
     2
420
 16776960
370
    25
100
AcDbLine
 10
330.9148135692416
 20
259.9063641214609
 30
0.0
 11
330.5695845262028
 21
257.6811263520625
 31
0.0
  0
LINE
  5
10A
330
70
100
AcDbEntity
  8
HONTAI
 62
     2
420
 16776960
370
    25
100
AcDbLine
 10
330.5695845262028
 20
257.6811263520625
 30
0.0
 11
333.8815771745444
 21
253.7054367021283
 31
0.0
  0
LINE
  5
10B
330
70
100
AcDbEntity
  8
HONTAI
 62
     2
420
 16776960
370
    25
100
AcDbLine
 10
327.7223013518356
 20
249.7427067561408
 30
0.0
 11
327.0237490816926
 21
253.4841179463085
 31
0.0
  0
LINE
  5
10C
330
70
100
AcDbEntity
  8
HONTAI
 62
     2
420
 16776960
370
    25
100
AcDbLine
 10
327.0237490816926
 20
253.4841179463085
 30
0.0
 11
330.5695845262028
 21
257.6811263520625
 31
0.0
  0
LINE
  5
10D
330
70
100
AcDbEntity
  8
HONTAI
 62
     2
420
 16776960
370
    25
100
AcDbLine
 10
327.0237490816926
 20
253.4841179463085
 30
0.0
 11
323.4005409944003
 21
257.1806329879121
 31
0.0
  0
LINE
  5
10E
330
70
100
AcDbEntity
  8
HONTAI
 62
     2
420
 16776960
370
    25
100
AcDbLine
 10
323.4005409944003
 20
257.1806329879121
 30
0.0
 11
324.7109477278367
 21
259.9144337971278
 31
0.0
  0
LINE
  5
10F
330
70
100
AcDbEntity
  8
HONTAI
 62
     2
420
 16776960
370
    25
100
AcDbLine
 10
324.7109477278367
 20
259.9144337971278
 30
0.0
 11
328.179903348925
 21
257.1035514656803
 31
0.0
  0
LINE
  5
110
330
70
100
AcDbEntity
  8
HONTAI
 62
     2
420
 16776960
370
    25
100
AcDbLine
 10
328.179903348925
 20
257.1035514656803
 30
0.0
 11
330.9148135692416
 21
259.9063641214609
 31
0.0
  0
LINE
  5
111
330
70
100
AcDbEntity
  8
HONTAI
 62
     2
420
 16776960
370
    25
100
AcDbLine
 10
319.9293676860627
 20
248.5775481961347
 30
0.0
 11
319.9293676860627
 21
252.3289681735237
 31
0.0
  0
LINE
  5
112
330
70
100
AcDbEntity
  8
HONTAI
 62
     2
420
 16776960
370
    25
100
AcDbLine
 10
319.9293676860627
 20
252.3289681735237
 30
0.0
 11
316.6166358086504
 21
256.1409266550315
 31
0.0
  0
LINE
  5
113
330
70
100
AcDbEntity
  8
HONTAI
 62
     2
420
 16776960
370
    25
100
AcDbLine
 10
316.6166358086504
 20
256.1409266550315
 30
0.0
 11
318.5438059970947
 21
259.1828747097282
 31
0.0
  0
LINE
  5
114
330
70
100
AcDbEntity
  8
HONTAI
 62
     2
420
 16776960
370
    25
100
AcDbLine
 10
318.5438059970947
 20
259.1828747097282
 30
0.0
 11
321.5541142791795
 21
257.2757493167474
 31
0.0
  0
LINE
  5
115
330
70
100
AcDbEntity
  8
HONTAI
 62
     2
420
 16776960
370
    25
100
AcDbLine
 10
321.5541142791795
 20
257.2757493167474
 30
0.0
 11
324.7109477278367
 21
259.9144337971278
 31
0.0
  0
LINE
  5
116
330
70
100
AcDbEntity
  8
HONTAI
 62
     2
420
 16776960
370
    25
100
AcDbLine
 10
323.4005409944003
 20
257.1806329879121
 30
0.0
 11
319.9293676860627
 21
252.3289681735237
 31
0.0
  0
LINE
  5
117
330
70
100
AcDbEntity
  8
HONTAI
 62
     2
420
 16776960
370
    25
100
AcDbLine
 10
316.6166358086504
 20
256.1409266550315
 30
0.0
 11
313.2183997686965
 21
250.7452200990721
 31
0.0
  0
LINE
  5
118
330
70
100
AcDbEntity
  8
HONTAI
 62
     2
420
 16776960
370
    25
100
AcDbLine
 10
313.2183997686965
 20
250.7452200990721
 30
0.0
 11
313.8883877168219
 21
247.2843312884104
 31
0.0
  0
LINE
  5
119
330
70
100
AcDbEntity
  8
HONTAI
 62
     2
420
 16776960
370
    25
100
AcDbLine
 10
313.2183997686965
 20
250.7452200990721
 30
0.0
 11
309.2361727625179
 21
254.7621331617045
 31
0.0
  0
LINE
  5
11A
330
70
100
AcDbEntity
  8
HONTAI
 62
     2
420
 16776960
370
    25
100
AcDbLine
 10
309.2361727625179
 20
254.7621331617045
 30
0.0
 11
311.8651177491502
 21
258.0066214111351
 31
0.0
  0
LINE
  5
11B
330
70
100
AcDbEntity
  8
HONTAI
 62
     2
420
 16776960
370
    25
100
AcDbLine
 10
311.8651177491502
 20
258.0066214111351
 30
0.0
 11
314.5370229611724
 21
255.8416291929796
 31
0.0
  0
LINE
  5
11C
330
70
100
AcDbEntity
  8
HONTAI
 62
     2
420
 16776960
370
    25
100
AcDbLine
 10
314.5370229611724
 20
255.8416291929796
 30
0.0
 11
318.5438059970947
 21
259.1828747097282
 31
0.0
  0
LINE
  5
11D
330
70
100
AcDbEntity
  8
HONTAI
 62
     2
420
 16776960
370
    25
100
AcDbLine
 10
309.2361727625179
 20
254.7621331617045
 30
0.0
 11
306.2590508833992
 21
249.2389112337188
 31
0.0
  0
LINE
  5
11E
330
70
100
AcDbEntity
  8
HONTAI
 62
     2
420
 16776960
370
    25
100
AcDbLine
 10
306.2590508833992
 20
249.2389112337188
 30
0.0
 11
307.3200910101544
 21
246.0869744640103
 31
0.0
  0
LINE
  5
11F
330
70
100
AcDbEntity
  8
HONTAI
 62
     2
420
 16776960
370
    25
100
AcDbLine
 10
306.2590508833992
 20
249.2389112337188
 30
0.0
 11
302.8179395572673
 21
252.8309817069152
 31
0.0
  0
LINE
  5
120
330
70
100
AcDbEntity
  8
HONTAI
 62
     2
420
 16776960
370
    25
100
AcDbLine
 10
302.8179395572673
 20
252.8309817069152
 30
0.0
 11
305.7176887936372
 21
256.2299012659509
 31
0.0
  0
LINE
  5
121
330
70
100
AcDbEntity
  8
HONTAI
 62
     2
420
 16776960
370
    25
100
AcDbLine
 10
305.7176887936372
 20
256.2299012659509
 30
0.0
 11
308.3081938685591
 21
254.91665389305
 31
0.0
  0
LINE
  5
122
330
70
100
AcDbEntity
  8
HONTAI
 62
     2
420
 16776960
370
    25
100
AcDbLine
 10
308.3081938685591
 20
254.91665389305
 30
0.0
 11
311.8651177491502
 21
258.0066214111351
 31
0.0
  0
LINE
  5
123
330
70
100
AcDbEntity
  8
HONTAI
 62
     2
420
 16776960
370
    25
100
AcDbLine
 10
302.8179395572673
 20
252.8309817069152
 30
0.0
 11
300.0726891968182
 21
247.2304099915356
 31
0.0
  0
LINE
  5
124
330
70
100
AcDbEntity
  8
HONTAI
 62
     2
420
 16776960
370
    25
100
AcDbLine
 10
300.0726891968182
 20
247.2304099915356
 30
0.0
 11
301.9503310374688
 21
243.5006300702701
 31
0.0
  0
LINE
  5
125
330
70
100
AcDbEntity
  8
HONTAI
 62
     2
420
 16776960
370
    25
100
AcDbLine
 10
300.0726891968182
 20
247.2304099915356
 30
0.0
 11
296.5157653162259
 21
250.5520691848985
 31
0.0
  0
LINE
  5
126
330
70
100
AcDbEntity
  8
HONTAI
 62
     2
420
 16776960
370
    25
100
AcDbLine
 10
296.5157653162259
 20
250.5520691848985
 30
0.0
 11
299.7247587139768
 21
254.5304414864395
 31
0.0
  0
LINE
  5
127
330
70
100
AcDbEntity
  8
HONTAI
 62
     2
420
 16776960
370
    25
100
AcDbLine
 10
299.7247587139768
 20
254.5304414864395
 30
0.0
 11
302.1992048247602
 21
253.3330846620253
 31
0.0
  0
LINE
  5
128
330
70
100
AcDbEntity
  8
HONTAI
 62
     2
420
 16776960
370
    25
100
AcDbLine
 10
302.1992048247602
 20
253.3330846620253
 30
0.0
 11
305.7176887936372
 21
256.2299012659509
 31
0.0
  0
LINE
  5
129
330
70
100
AcDbEntity
  8
HONTAI
 62
     2
420
 16776960
370
    25
100
AcDbLine
 10
296.2868507138469
 20
251.0823399816562
 30
0.0
 11
294.2046888301947
 21
251.6261134580805
 31
0.0
  0
LINE
  5
12A
330
70
100
AcDbEntity
  8
HONTAI
 62
     2
420
 16776960
370
    25
100
AcDbLine
 10
294.2046888301947
 20
251.6261134580805
 30
0.0
 11
290.4427520872085
 21
247.7128401683523
 31
0.0
  0
LINE
  5
12B
330
70
100
AcDbEntity
  8
HONTAI
 62
     2
420
 16776960
370
    25
100
AcDbLine
 10
290.4427520872085
 20
247.7128401683523
 30
0.0
 11
293.5496754786385
 21
244.7260696571935
 31
0.0
  0
LINE
  5
12C
330
70
100
AcDbEntity
  8
HONTAI
 62
     2
420
 16776960
370
    25
100
AcDbLine
 10
293.5496754786385
 20
244.7260696571935
 30
0.0
 11
296.5157653162259
 21
250.5520691848985
 31
0.0
  0
LINE
  5
12D
330
70
100
AcDbEntity
  8
HONTAI
 62
     2
420
 16776960
370
    25
100
AcDbLine
 10
293.5496754786385
 20
244.7260696571935
 30
0.0
 11
296.2360903176594
 21
241.48908848962
 31
0.0
  0
LINE
  5
12E
330
70
100
AcDbEntity
  8
HONTAI
 62
     2
420
 16776960
370
    25
100
AcDbLine
 10
290.0844723973942
 20
248.0580974274395
 30
0.0
 11
288.1156589713056
 21
248.7201758387746
 31
0.0
  0
LINE
  5
12F
330
70
100
AcDbEntity
  8
HONTAI
 62
     2
420
 16776960
370
    25
100
AcDbLine
 10
288.1156589713056
 20
248.7201758387746
 30
0.0
 11
284.4700276021721
 21
244.7682723662197
 31
0.0
  0
LINE
  5
130
330
70
100
AcDbEntity
  8
HONTAI
 62
     2
420
 16776960
370
    25
100
AcDbLine
 10
284.4700276021721
 20
244.7682723662197
 30
0.0
 11
287.7057777430034
 21
241.7832925209353
 31
0.0
  0
LINE
  5
131
330
70
100
AcDbEntity
  8
HONTAI
 62
     2
420
 16776960
370
    25
100
AcDbLine
 10
287.7057777430034
 20
241.7832925209353
 30
0.0
 11
290.4427520872046
 21
247.7128401683459
 31
0.0
  0
LINE
  5
132
330
70
100
AcDbEntity
  8
HONTAI
 62
     2
420
 16776960
370
    25
100
AcDbLine
 10
296.2868507138469
 20
251.0823399816562
 30
0.0
 11
299.7247587139768
 21
254.5304414864395
 31
0.0
  0
LINE
  5
133
330
70
100
AcDbEntity
  8
HONTAI
 62
     2
420
 16776960
370
    25
100
AcDbLine
 10
290.0844723973942
 20
248.0580974274395
 30
0.0
 11
294.2046888301947
 21
251.6261134580805
 31
0.0
  0
LINE
  5
134
330
70
100
AcDbEntity
  8
HONTAI
 62
     2
420
 16776960
370
    25
100
AcDbLine
 10
287.7057777430034
 20
241.7832925209353
 30
0.0
 11
289.7636469805399
 21
238.9871581991244
 31
0.0
  0
LINE
  5
135
330
70
100
AcDbEntity
  8
HONTAI
 62
     2
420
 16776960
370
    25
100
AcDbLine
 10
283.8185203808138
 20
235.7781703723531
 30
0.0
 11
281.5808739825253
 21
238.7853333781468
 31
0.0
  0
LINE
  5
136
330
70
100
AcDbEntity
  8
HONTAI
 62
     2
420
 16776960
370
    25
100
AcDbLine
 10
281.5808739825253
 20
238.7853333781468
 30
0.0
 11
278.2932758935266
 21
241.4805040045549
 31
0.0
  0
LINE
  5
137
330
70
100
AcDbEntity
  8
HONTAI
 62
     2
420
 16776960
370
    25
100
AcDbLine
 10
278.2932758935266
 20
241.4805040045549
 30
0.0
 11
276.87962349982
 21
234.8900338540516
 31
0.0
  0
LINE
  5
138
330
70
100
AcDbEntity
  8
HONTAI
 62
     2
420
 16776960
370
    25
100
AcDbLine
 10
276.87962349982
 20
234.8900338540516
 30
0.0
 11
278.6885170368752
 21
232.3775518006558
 31
0.0
  0
LINE
  5
139
330
70
100
AcDbEntity
  8
HONTAI
 62
     2
420
 16776960
370
    25
100
AcDbLine
 10
281.5808739825253
 20
238.7853333781468
 30
0.0
 11
284.4700276021721
 21
244.7682723662197
 31
0.0
  0
LINE
  5
13A
330
70
100
AcDbEntity
  8
HONTAI
 62
     2
420
 16776960
370
    25
100
AcDbLine
 10
284.4700276021721
 20
244.7682723662197
 30
0.0
 11
282.3772701018315
 21
245.2856664353778
 31
0.0
  0
LINE
  5
13B
330
70
100
AcDbEntity
  8
HONTAI
 62
     2
420
 16776960
370
    25
100
AcDbLine
 10
282.3772701018315
 20
245.2856664353778
 30
0.0
 11
278.2932758935266
 21
241.4805040045549
 31
0.0
  0
LINE
  5
13C
330
70
100
AcDbEntity
  8
HONTAI
 62
     2
420
 16776960
370
    25
100
AcDbLine
 10
276.87962349982
 20
234.8900338540516
 30
0.0
 11
273.1891455670749
 21
237.8446168887899
 31
0.0
  0
LINE
  5
13D
330
70
100
AcDbEntity
  8
HONTAI
 62
     2
420
 16776960
370
    25
100
AcDbLine
 10
273.1891455670749
 20
237.8446168887899
 30
0.0
 11
271.9662142737487
 21
230.9475196620454
 31
0.0
  0
LINE
  5
13E
330
70
100
AcDbEntity
  8
HONTAI
 62
     2
420
 16776960
370
    25
100
AcDbLine
 10
271.9662142737487
 20
230.9475196620454
 30
0.0
 11
274.4130624991859
 21
228.4333385959688
 31
0.0
  0
LINE
  5
13F
330
70
100
AcDbEntity
  8
HONTAI
 62
     2
420
 16776960
370
    25
100
AcDbLine
 10
273.1891455670749
 20
237.8446168887899
 30
0.0
 11
276.8976114072281
 21
241.6281392634764
 31
0.0
  0
LINE
  5
140
330
70
100
AcDbEntity
  8
HONTAI
 62
     2
420
 16776960
370
    25
100
AcDbLine
 10
276.8976114072281
 20
241.6281392634764
 30
0.0
 11
278.2932758935266
 21
241.4805040045549
 31
0.0
  0
LINE
  5
141
330
70
100
AcDbEntity
  8
HONTAI
 62
     2
420
 16776960
370
    25
100
AcDbLine
 10
271.9662142737487
 20
230.9475196620454
 30
0.0
 11
269.0083123504705
 21
233.1341489695149
 31
0.0
  0
LINE
  5
142
330
70
100
AcDbEntity
  8
HONTAI
 62
     2
420
 16776960
370
    25
100
AcDbLine
 10
269.0083123504705
 20
233.1341489695149
 30
0.0
 11
273.1891455670749
 21
237.8446168887899
 31
0.0
  0
LINE
  5
143
330
70
100
AcDbEntity
  8
HONTAI
 62
     2
420
 16776960
370
    25
100
AcDbLine
 10
269.0083123504705
 20
233.1341489695149
 30
0.0
 11
267.6210257936431
 21
226.7195713413199
 31
0.0
  0
LINE
  5
144
330
70
100
AcDbEntity
  8
HONTAI
 62
     2
420
 16776960
370
    25
100
AcDbLine
 10
267.6210257936431
 20
226.7195713413199
 30
0.0
 11
265.5201367735109
 21
228.2242706157314
 31
0.0
  0
LINE
  5
145
330
70
100
AcDbEntity
  8
HONTAI
 62
     2
420
 16776960
370
    25
100
AcDbLine
 10
265.5201367735109
 20
228.2242706157314
 30
0.0
 11
269.0083123504705
 21
233.1341489695149
 31
0.0
  0
LINE
  5
146
330
70
100
AcDbEntity
  8
HONTAI
 62
     2
420
 16776960
370
    25
100
AcDbLine
 10
267.6210257936431
 20
226.7195713413199
 30
0.0
 11
270.6733026283279
 21
224.5059366745569
 31
0.0
  0
LINE
  5
147
330
70
100
AcDbEntity
  8
HONTAI
 62
     2
420
 16776960
370
    25
100
AcDbLine
 10
265.5201367735109
 20
228.2242706157314
 30
0.0
 11
264.6483392889589
 21
221.7700791657861
 31
0.0
  0
LINE
  5
148
330
70
100
AcDbEntity
  8
HONTAI
 62
     2
420
 16776960
370
    25
100
AcDbLine
 10
264.6483392889589
 20
221.7700791657861
 30
0.0
 11
267.0776924263446
 21
219.9080507001794
 31
0.0
  0
LINE
  5
149
330
70
100
AcDbEntity
  8
HONTAI
 62
     2
420
 16776960
370
    25
100
AcDbLine
 10
264.6483392889589
 20
221.7700791657861
 30
0.0
 11
261.5963088639536
 21
223.829103679503
 31
0.0
  0
LINE
  5
14A
330
70
100
AcDbEntity
  8
HONTAI
 62
     2
420
 16776960
370
    25
100
AcDbLine
 10
261.5963088639536
 20
223.829103679503
 30
0.0
 11
265.5201367735109
 21
228.2242706157314
 31
0.0
  0
LINE
  5
14B
330
70
100
AcDbEntity
  8
HONTAI
 62
     2
420
 16776960
370
    25
100
AcDbLine
 10
261.5963088639536
 20
223.829103679503
 30
0.0
 11
261.5963088639536
 21
217.8897130688456
 31
0.0
  0
LINE
  5
14C
330
70
100
AcDbEntity
  8
HONTAI
 62
     2
420
 16776960
370
    25
100
AcDbLine
 10
261.5963088639536
 20
217.8897130688456
 30
0.0
 11
259.138865021828
 21
219.3151846997427
 31
0.0
  0
LINE
  5
14D
330
70
100
AcDbEntity
  8
HONTAI
 62
     2
420
 16776960
370
    25
100
AcDbLine
 10
259.138865021828
 20
219.3151846997427
 30
0.0
 11
261.5963088639536
 21
223.829103679503
 31
0.0
  0
LINE
  5
14E
330
70
100
AcDbEntity
  8
HONTAI
 62
     2
420
 16776960
370
    25
100
AcDbLine
 10
261.5963088639536
 20
217.8897130688456
 30
0.0
 11
264.9679326573475
 21
215.5974767106174
 31
0.0
  0
LINE
  5
14F
330
70
100
AcDbEntity
  8
HONTAI
 62
     2
420
 16776960
370
    25
100
AcDbLine
 10
259.138865021828
 20
219.3151846997427
 30
0.0
 11
259.138865021828
 21
212.9893134173191
 31
0.0
  0
LINE
  5
150
330
70
100
AcDbEntity
  8
HONTAI
 62
     2
420
 16776960
370
    25
100
AcDbLine
 10
259.138865021828
 20
212.9893134173191
 30
0.0
 11
262.0866641477781
 21
211.2654415083781
 31
0.0
  0
LINE
  5
151
330
70
100
AcDbEntity
  8
HONTAI
 62
     2
420
 16776960
370
    25
100
AcDbLine
 10
259.138865021828
 20
212.9893134173191
 30
0.0
 11
257.1170735123014
 21
214.4680803930612
 31
0.0
  0
LINE
  5
152
330
70
100
AcDbEntity
  8
HONTAI
 62
     2
420
 16776960
370
    25
100
AcDbLine
 10
257.1170735123014
 20
214.4680803930612
 30
0.0
 11
259.138865021828
 21
217.4716223255101
 31
0.0
  0
LINE
  5
153
330
70
100
AcDbEntity
  8
HONTAI
 62
     2
420
 16776960
370
    25
100
AcDbLine
 10
257.1170735123014
 20
214.4680803930612
 30
0.0
 11
257.5810629592801
 21
208.6946564938416
 31
0.0
  0
LINE
  5
154
330
70
100
AcDbEntity
  8
HONTAI
 62
     2
420
 16776960
370
    25
100
AcDbLine
 10
257.5810629592801
 20
208.6946564938416
 30
0.0
 11
259.9769043787798
 21
207.1943388836959
 31
0.0
  0
LINE
  5
155
330
70
100
AcDbEntity
  8
HONTAI
 62
     2
420
 16776960
370
    25
100
AcDbLine
 10
257.5810629592801
 20
208.6946564938416
 30
0.0
 11
255.7780832547673
 21
209.6153425180411
 31
0.0
  0
LINE
  5
156
330
70
100
AcDbEntity
  8
HONTAI
 62
     2
420
 16776960
370
    25
100
AcDbLine
 10
255.7780832547673
 20
209.6153425180411
 30
0.0
 11
257.2256114738078
 21
213.1175417870274
 31
0.0
  0
LINE
  5
157
330
70
100
AcDbEntity
  8
HONTAI
 62
     2
420
 16776960
370
    25
100
AcDbLine
 10
255.7780832547673
 20
209.6153425180411
 30
0.0
 11
256.337186842258
 21
204.4770810925817
 31
0.0
  0
LINE
  5
158
330
70
100
AcDbEntity
  8
HONTAI
 62
     2
420
 16776960
370
    25
100
AcDbLine
 10
256.337186842258
 20
204.4770810925817
 30
0.0
 11
259.0661741631572
 21
202.7183347130177
 31
0.0
  0
LINE
  5
159
330
70
100
AcDbEntity
  8
HONTAI
 62
     2
420
 16776960
370
    25
100
AcDbLine
 10
256.337186842258
 20
204.4770810925817
 30
0.0
 11
255.0046032366934
 21
205.1225270640814
 31
0.0
  0
LINE
  5
15A
330
70
100
AcDbEntity
  8
HONTAI
 62
     2
420
 16776960
370
    25
100
AcDbLine
 10
255.0046032366934
 20
205.1225270640814
 30
0.0
 11
255.875907901853
 21
208.0818494499469
 31
0.0
  0
LINE
  5
15B
330
70
100
AcDbEntity
  8
HONTAI
 62
     2
420
 16776960
370
    25
100
AcDbLine
 10
255.0046032366934
 20
205.1225270640814
 30
0.0
 11
255.7236267132187
 21
199.410714729611
 31
0.0
  0
LINE
  5
15C
330
70
100
AcDbEntity
  8
HONTAI
 62
     2
420
 16776960
370
    25
100
AcDbLine
 10
255.7236267132187
 20
199.410714729611
 30
0.0
 11
258.2032474274701
 21
197.9767480353699
 31
0.0
  0
LINE
  5
15D
330
70
100
AcDbEntity
  8
HONTAI
 62
     2
420
 16776960
370
    25
100
AcDbLine
 10
255.3641149749554
 20
202.2666208968468
 30
0.0
 11
254.67244297408
 21
199.9327587281983
 31
0.0
  0
LINE
  5
15E
330
70
100
AcDbEntity
  8
HONTAI
 62
     2
420
 16776960
370
    25
100
AcDbLine
 10
254.67244297408
 20
199.9327587281983
 30
0.0
 11
255.7236267132187
 21
199.410714729611
 31
0.0
  0
LINE
  5
15F
330
70
100
AcDbEntity
  8
HONTAI
 62
     2
420
 16776960
370
    25
100
AcDbLine
 10
254.67244297408
 20
199.9327587281983
 30
0.0
 11
254.8350733697231
 21
195.759894186699
 31
0.0
  0
LINE
  5
160
330
70
100
AcDbEntity
  8
HONTAI
 62
     2
420
 16776960
370
    25
100
AcDbLine
 10
254.8350733697231
 20
195.759894186699
 30
0.0
 11
258.7786140544773
 21
194.097186733899
 31
0.0
  0
LINE
  5
161
330
70
100
AcDbEntity
  8
HONTAI
 62
     2
420
 16776960
370
    25
100
AcDbLine
 10
254.67244297408
 20
199.9327587281983
 30
0.0
 11
255.6997249732337
 21
195.3953327988033
 31
0.0
  0
LINE
  5
162
330
70
100
AcDbEntity
  8
HONTAI
 62
     2
420
 16776960
370
    25
100
AcDbLine
 10
254.8350733697231
 20
195.759894186699
 30
0.0
 11
256.0686002797364
 21
190.3680327646826
 31
0.0
  0
LINE
  5
163
330
70
100
AcDbEntity
  8
HONTAI
 62
     2
420
 16776960
370
    25
100
AcDbLine
 10
256.0686002797364
 20
190.3680327646826
 30
0.0
 11
258.6825142752485
 21
190.5529568806448
 31
0.0
  0
LINE
  5
164
330
70
100
AcDbEntity
  8
HONTAI
 62
     2
420
 16776960
370
    25
100
AcDbLine
 10
256.0686002797364
 20
190.3680327646826
 30
0.0
 11
257.2745293044406
 21
185.7979569450708
 31
0.0
  0
LINE
  5
165
330
70
100
AcDbEntity
  8
HONTAI
 62
     2
420
 16776960
370
    25
100
AcDbLine
 10
257.2745293044406
 20
185.7979569450708
 30
0.0
 11
258.9222709039954
 21
186.1466122294798
 31
0.0
  0
LINE
  5
166
330
70
100
AcDbEntity
  8
HONTAI
 62
     2
420
 16776960
370
    25
100
AcDbLine
 10
257.2745293044406
 20
185.7979569450708
 30
0.0
 11
258.439061501143
 21
182.3080954972727
 31
0.0
  0
LINE
  5
167
330
70
100
AcDbEntity
  8
HONTAI
 62
     2
420
 16776960
370
    25
100
AcDbLine
 10
258.439061501143
 20
182.3080954972727
 30
0.0
 11
260.6944493971599
 21
182.3370681344091
 31
0.0
  0
LINE
  5
168
330
70
100
AcDbEntity
  8
HONTAI
 62
     2
420
 16776960
370
    25
100
AcDbLine
 10
258.439061501143
 20
182.3080954972727
 30
0.0
 11
259.3463419811186
 21
178.3775638156945
 31
0.0
  0
LINE
  5
169
330
70
100
AcDbEntity
  8
HONTAI
 62
     2
420
 16776960
370
    25
100
AcDbLine
 10
259.3463419811186
 20
178.3775638156945
 30
0.0
 11
261.3342096215815
 21
178.836421205248
 31
0.0
  0
LINE
  5
16A
330
70
100
AcDbEntity
  8
HONTAI
 62
     2
420
 16776960
370
    25
100
AcDbLine
 10
261.3342096215815
 20
178.836421205248
 30
0.0
 11
261.3070238874502
 21
175.1684865672085
 31
0.0
  0
LINE
  5
16B
330
70
100
AcDbEntity
  8
HONTAI
 62
     2
420
 16776960
370
    25
100
AcDbLine
 10
261.3070238874502
 20
175.1684865672085
 30
0.0
 11
262.9569831741862
 21
174.8519336800969
 31
0.0
  0
LINE
  5
16C
330
70
100
AcDbEntity
  8
HONTAI
 62
     2
420
 16776960
370
    25
100
AcDbLine
 10
262.9569831741862
 20
174.8519336800969
 30
0.0
 11
263.2260625561003
 21
170.8343052436942
 31
0.0
  0
LINE
  5
16D
330
70
100
AcDbEntity
  8
HONTAI
 62
     2
420
 16776960
370
    25
100
AcDbLine
 10
263.2260625561003
 20
170.8343052436942
 30
0.0
 11
265.0186930535696
 21
170.7808310554135
 31
0.0
  0
LINE
  5
16E
330
70
100
AcDbEntity
  8
HONTAI
 62
     2
420
 16776960
370
    25
100
AcDbLine
 10
265.0186930535696
 20
170.7808310554135
 30
0.0
 11
265.8959115513062
 21
167.2085227822341
 31
0.0
  0
LINE
  5
16F
330
70
100
AcDbEntity
  8
HONTAI
 62
     2
420
 16776960
370
    25
100
AcDbLine
 10
265.8959115513062
 20
167.2085227822341
 30
0.0
 11
267.7994264094796
 21
167.1407411188364
 31
0.0
  0
LINE
  5
170
330
70
100
AcDbEntity
  8
HONTAI
 62
     2
420
 16776960
370
    25
100
AcDbLine
 10
267.7994264094796
 20
167.1407411188364
 30
0.0
 11
268.5763561632338
 21
163.7778585127751
 31
0.0
  0
LINE
  5
171
330
70
100
AcDbEntity
  8
HONTAI
 62
     2
420
 16776960
370
    25
100
AcDbLine
 10
268.5763561632338
 20
163.7778585127751
 30
0.0
 11
270.72406302455
 21
164.2740451354874
 31
0.0
  0
LINE
  5
172
330
70
100
AcDbEntity
  8
HONTAI
 62
     2
420
 16776960
370
    25
100
AcDbLine
 10
270.72406302455
 20
164.2740451354874
 30
0.0
 11
272.0603427754757
 21
160.4650520696316
 31
0.0
  0
LINE
  5
173
330
70
100
AcDbEntity
  8
HONTAI
 62
     2
420
 16776960
370
    25
100
AcDbLine
 10
272.0603427754757
 20
160.4650520696316
 30
0.0
 11
273.8882098586545
 21
161.0580969135041
 31
0.0
  0
LINE
  5
174
330
70
100
AcDbEntity
  8
HONTAI
 62
     2
420
 16776960
370
    25
100
AcDbLine
 10
273.8882098586545
 20
161.0580969135041
 30
0.0
 11
274.9315864094868
 21
157.8422293912827
 31
0.0
  0
LINE
  5
175
330
70
100
AcDbEntity
  8
HONTAI
 62
     2
420
 16776960
370
    25
100
AcDbLine
 10
274.9315864094868
 20
157.8422293912827
 30
0.0
 11
276.8718858936767
 21
158.4717525197703
 31
0.0
  0
LINE
  5
176
330
70
100
AcDbEntity
  8
HONTAI
 62
     2
420
 16776960
370
    25
100
AcDbLine
 10
276.8718858936767
 20
158.4717525197703
 30
0.0
 11
278.5667906498379
 21
154.8038524284147
 31
0.0
  0
LINE
  5
177
330
70
100
AcDbEntity
  8
HONTAI
 62
     2
420
 16776960
370
    25
100
AcDbLine
 10
278.5667906498379
 20
154.8038524284147
 30
0.0
 11
280.6105126218131
 21
155.1888129309603
 31
0.0
  0
LINE
  5
178
330
70
100
AcDbEntity
  8
HONTAI
 62
     2
420
 16776960
370
    25
100
AcDbLine
 10
280.6105126218131
 20
155.1888129309603
 30
0.0
 11
282.7224900780287
 21
152.0361607874957
 31
0.0
  0
LINE
  5
179
330
70
100
AcDbEntity
  8
HONTAI
 62
     2
420
 16776960
370
    25
100
AcDbLine
 10
282.7224900780287
 20
152.0361607874957
 30
0.0
 11
284.8295393404508
 21
152.5066978756247
 31
0.0
  0
LINE
  5
17A
330
70
100
AcDbEntity
  8
HONTAI
 62
     2
420
 16776960
370
    25
100
AcDbLine
 10
284.8295393404508
 20
152.5066978756247
 30
0.0
 11
286.8030345506521
 21
149.6785571522875
 31
0.0
  0
LINE
  5
17B
330
70
100
AcDbEntity
  8
HONTAI
 62
     2
420
 16776960
370
    25
100
AcDbLine
 10
286.8030345506521
 20
149.6785571522875
 30
0.0
 11
289.5761292061603
 21
150.0640541851483
 31
0.0
  0
LINE
  5
17C
330
70
100
AcDbEntity
  8
HONTAI
 62
     2
420
 16776960
370
    25
100
AcDbLine
 10
289.5761292061603
 20
150.0640541851483
 30
0.0
 11
291.0427596832715
 21
148.0431233239623
 31
0.0
  0
LINE
  5
17D
330
70
100
AcDbEntity
  8
HONTAI
 62
     2
420
 16776960
370
    25
100
AcDbLine
 10
291.0427596832715
 20
148.0431233239623
 30
0.0
 11
293.5553992960523
 21
148.0431233239623
 31
0.0
  0
LINE
  5
17E
330
70
100
AcDbEntity
  8
HONTAI
 62
     2
420
 16776960
370
    25
100
AcDbLine
 10
293.5553992960523
 20
148.0431233239623
 30
0.0
 11
295.4084001676818
 21
145.4431868288484
 31
0.0
  0
LINE
  5
17F
330
70
100
AcDbEntity
  8
HONTAI
 62
     2
420
 16776960
370
    25
100
AcDbLine
 10
295.4084001676818
 20
145.4431868288484
 30
0.0
 11
297.1032060180655
 21
145.7056395756441
 31
0.0
  0
LINE
  5
180
330
70
100
AcDbEntity
  8
HONTAI
 62
     2
420
 16776960
370
    25
100
AcDbLine
 10
297.1032060180655
 20
145.7056395756441
 30
0.0
 11
299.9839817082758
 21
143.2206994118583
 31
0.0
  0
LINE
  5
181
330
70
100
AcDbEntity
  8
HONTAI
 62
     2
420
 16776960
370
    25
100
AcDbLine
 10
299.9839817082758
 20
143.2206994118583
 30
0.0
 11
302.6214735408323
 21
143.7868176769607
 31
0.0
  0
LINE
  5
182
330
70
100
AcDbEntity
  8
HONTAI
 62
     2
420
 16776960
370
    25
100
AcDbLine
 10
302.6214735408323
 20
143.7868176769607
 30
0.0
 11
305.110535316534
 21
141.2271315968284
 31
0.0
  0
LINE
  5
183
330
70
100
AcDbEntity
  8
HONTAI
 62
     2
420
 16776960
370
    25
100
AcDbLine
 10
305.110535316534
 20
141.2271315968284
 30
0.0
 11
308.0830337063478
 21
142.5545354578673
 31
0.0
  0
LINE
  5
184
330
70
100
AcDbEntity
  8
HONTAI
 62
     2
420
 16776960
370
    25
100
AcDbLine
 10
308.0830337063478
 20
142.5545354578673
 30
0.0
 11
309.8521969884525
 21
140.2138046712062
 31
0.0
  0
LINE
  5
185
330
70
100
AcDbEntity
  8
HONTAI
 62
     2
420
 16776960
370
    25
100
AcDbLine
 10
309.8521969884525
 20
140.2138046712062
 30
0.0
 11
311.6618297545796
 21
140.8999375250954
 31
0.0
  0
LINE
  5
186
330
70
100
AcDbEntity
  8
HONTAI
 62
     2
420
 16776960
370
    25
100
AcDbLine
 10
311.6618297545796
 20
140.8999375250954
 30
0.0
 11
315.54943543964
 21
138.6704752139679
 31
0.0
  0
LINE
  5
187
330
70
100
AcDbEntity
  8
HONTAI
 62
     2
420
 16776960
370
    25
100
AcDbLine
 10
315.54943543964
 20
138.6704752139679
 30
0.0
 11
316.1684165818626
 21
139.463109335822
 31
0.0
  0
LINE
  5
188
330
70
100
AcDbEntity
  8
HONTAI
 62
     2
420
 16776960
370
    25
100
AcDbLine
 10
316.1684165818626
 20
139.463109335822
 30
0.0
 11
320.915006447572
 21
137.595179036721
 31
0.0
  0
LINE
  5
189
330
70
100
AcDbEntity
  8
HONTAI
 62
     2
420
 16776960
370
    25
100
AcDbLine
 10
323.9992669395256
 20
139.1663446015637
 30
0.0
 11
325.9491564219613
 21
136.8288349004133
 31
0.0
  0
LINE
  5
18A
330
70
100
AcDbEntity
  8
HONTAI
 62
     2
420
 16776960
370
    25
100
AcDbLine
 10
320.915006447572
 20
137.595179036721
 30
0.0
 11
323.9992669395256
 21
139.1663446015637
 31
0.0
  0
LINE
  5
18B
330
70
100
AcDbEntity
  8
HONTAI
 62
     2
420
 16776960
370
    25
100
AcDbLine
 10
325.9491564219613
 20
136.8288349004133
 30
0.0
 11
329.4787288269215
 21
138.2629804381145
 31
0.0
  0
LINE
  5
18C
330
70
100
AcDbEntity
  8
HONTAI
 62
     2
420
 16776960
370
    25
100
AcDbLine
 10
329.4787288269215
 20
138.2629804381145
 30
0.0
 11
331.2947110111198
 21
136.0122178427724
 31
0.0
  0
LINE
  5
18D
330
70
100
AcDbEntity
  8
HONTAI
 62
     2
420
 16776960
370
    25
100
AcDbLine
 10
290.3868170874813
 20
234.6286541679004
 30
0.0
 11
293.0266225268758
 21
233.899138478795
 31
0.0
  0
LINE
  5
18E
330
70
100
AcDbEntity
  8
HONTAI
 62
     2
420
 16776960
370
    25
100
AcDbLine
 10
293.0266225268797
 20
233.8991384787886
 30
0.0
 11
292.5866753503021
 21
238.3604305524527
 31
0.0
  0
LINE
  5
18F
330
70
100
AcDbEntity
  8
HONTAI
 62
     2
420
 16776960
370
    25
100
AcDbLine
 10
296.2360903176594
 20
237.5502405881106
 30
0.0
 11
298.6770247105197
 21
237.5879765537454
 31
0.0
  0
LINE
  5
190
330
70
100
AcDbEntity
  8
HONTAI
 62
     2
420
 16776960
370
    25
100
AcDbLine
 10
298.6770247105197
 20
237.5879765537454
 30
0.0
 11
298.0248672768137
 21
241.0882108768462
 31
0.0
  0
LINE
  5
191
330
70
100
AcDbEntity
  8
HONTAI
 62
     2
420
 16776960
370
    25
100
AcDbLine
 10
302.8613076628044
 20
240.004330258678
 30
0.0
 11
303.8746898753946
 21
239.3563120198446
 31
0.0
  0
LINE
  5
192
330
70
100
AcDbEntity
  8
HONTAI
 62
     2
420
 16776960
370
    25
100
AcDbLine
 10
303.9553683915895
 20
243.1394383804209
 30
0.0
 11
303.8746898753934
 21
239.3563120198446
 31
0.0
  0
LINE
  5
193
330
70
100
AcDbEntity
  8
HONTAI
 62
     2
420
 16776960
370
    25
100
AcDbLine
 10
307.7993578579328
 20
242.4469739491403
 30
0.0
 11
309.0553033343735
 21
241.6339812704554
 31
0.0
  0
LINE
  5
194
330
70
100
AcDbEntity
  8
HONTAI
 62
     2
420
 16776960
370
    25
100
AcDbLine
 10
309.0553033343735
 20
241.633981270449
 30
0.0
 11
309.0190379958378
 21
245.5790461567322
 31
0.0
  0
LINE
  5
195
330
70
100
AcDbEntity
  8
HONTAI
 62
     2
420
 16776960
370
    25
100
AcDbLine
 10
313.8883877168219
 20
244.1232735033076
 30
0.0
 11
315.2137942800509
 21
242.9993897344445
 31
0.0
  0
LINE
  5
196
330
70
100
AcDbEntity
  8
HONTAI
 62
     2
420
 16776960
370
    25
100
AcDbLine
 10
315.213794280047
 20
242.9993897344445
 30
0.0
 11
315.2323084775139
 21
246.7835544201717
 31
0.0
  0
LINE
  5
197
330
70
100
AcDbEntity
  8
HONTAI
 62
     2
420
 16776960
370
    25
100
AcDbLine
 10
319.9293676860627
 20
245.033318342887
 30
0.0
 11
321.0511046915822
 21
243.8399136403426
 31
0.0
  0
LINE
  5
198
330
70
100
AcDbEntity
  8
HONTAI
 62
     2
420
 16776960
370
    25
100
AcDbLine
 10
321.0511046915822
 20
243.839913640349
 30
0.0
 11
321.3284136116508
 21
248.0778489326116
 31
0.0
  0
LINE
  5
199
330
70
100
AcDbEntity
  8
HONTAI
 62
     2
420
 16776960
370
    25
100
AcDbLine
 10
285.8321803705834
 20
231.8507684509412
 30
0.0
 11
287.3299693861113
 21
231.0611565325206
 31
0.0
  0
LINE
  5
19A
330
70
100
AcDbEntity
  8
HONTAI
 62
     2
420
 16776960
370
    25
100
AcDbLine
 10
287.2206989758584
 20
231.1187622549335
 30
0.0
 11
286.9534479515494
 21
235.2295273674307
 31
0.0
  0
LINE
  5
19B
330
70
100
AcDbEntity
  8
HONTAI
 62
     2
420
 16776960
370
    25
100
AcDbLine
 10
281.1730659449521
 20
228.4333385959688
 30
0.0
 11
282.5603402431485
 21
227.7937010594882
 31
0.0
  0
LINE
  5
19C
330
70
100
AcDbEntity
  8
HONTAI
 62
     2
420
 16776960
370
    25
100
AcDbLine
 10
282.5603402431447
 20
227.7937010594882
 30
0.0
 11
282.2369745948237
 21
232.1158837640483
 31
0.0
  0
LINE
  5
19D
330
70
100
AcDbEntity
  8
HONTAI
 62
     2
420
 16776960
370
    25
100
AcDbLine
 10
277.7480695106783
 20
228.4333385959688
 30
0.0
 11
279.5822449838734
 21
226.1679287536072
 31
0.0
  0
LINE
  5
19E
330
70
100
AcDbEntity
  8
HONTAI
 62
     2
420
 16776960
370
    25
100
AcDbLine
 10
279.5822449838734
 20
226.1679287536072
 30
0.0
 11
277.5294058533549
 21
224.9848794043241
 31
0.0
  0
LINE
  5
19F
330
70
100
AcDbEntity
  8
HONTAI
 62
     2
420
 16776960
370
    25
100
AcDbLine
 10
274.1013542408414
 20
224.7454080394444
 30
0.0
 11
276.0373951781147
 21
222.3726027119272
 31
0.0
  0
LINE
  5
1A0
330
70
100
AcDbEntity
  8
HONTAI
 62
     2
420
 16776960
370
    25
100
AcDbLine
 10
276.0373951781147
 20
222.3726027119272
 30
0.0
 11
273.5020858738504
 21
220.9137767796419
 31
0.0
  0
LINE
  5
1A1
330
70
100
AcDbEntity
  8
HONTAI
 62
     2
420
 16776960
370
    25
100
AcDbLine
 10
270.4845971666968
 20
220.4413948945577
 30
0.0
 11
272.740187111215
 21
218.0600614445364
 31
0.0
  0
LINE
  5
1A2
330
70
100
AcDbEntity
  8
HONTAI
 62
     2
420
 16776960
370
    25
100
AcDbLine
 10
272.740187111215
 20
218.0600614445364
 30
0.0
 11
269.8584257822533
 21
216.0284893987097
 31
0.0
  0
LINE
  5
1A3
330
70
100
AcDbEntity
  8
HONTAI
 62
     2
420
 16776960
370
    25
100
AcDbLine
 10
269.8584257822533
 20
216.0284893987097
 30
0.0
 11
270.5348203823482
 21
214.2725150924519
 31
0.0
  0
LINE
  5
1A4
330
70
100
AcDbEntity
  8
HONTAI
 62
     2
420
 16776960
370
    25
100
AcDbLine
 10
270.5348203823482
 20
214.2725150924519
 30
0.0
 11
268.4630077056702
 21
212.6064990360498
 31
0.0
  0
LINE
  5
1A5
330
70
100
AcDbEntity
  8
HONTAI
 62
     2
420
 16776960
370
    25
100
AcDbLine
 10
268.4630077056702
 20
212.6064990360498
 30
0.0
 11
268.4679358994586
 21
210.2902082352738
 31
0.0
  0
LINE
  5
1A6
330
70
100
AcDbEntity
  8
HONTAI
 62
     2
420
 16776960
370
    25
100
AcDbLine
 10
268.4679358994586
 20
210.2902082352738
 30
0.0
 11
266.0023936771859
 21
208.5797647214234
 31
0.0
  0
LINE
  5
1A7
330
70
100
AcDbEntity
  8
HONTAI
 62
     2
420
 16776960
370
    25
100
AcDbLine
 10
266.0023936771859
 20
208.5797647214234
 30
0.0
 11
267.0929698271777
 21
205.845054557827
 31
0.0
  0
LINE
  5
1A8
330
70
100
AcDbEntity
  8
HONTAI
 62
     2
420
 16776960
370
    25
100
AcDbLine
 10
267.0929698271777
 20
205.845054557827
 30
0.0
 11
264.8673975036856
 21
204.2727524634728
 31
0.0
  0
LINE
  5
1A9
330
70
100
AcDbEntity
  8
HONTAI
 62
     2
420
 16776960
370
    25
100
AcDbLine
 10
264.8673975036856
 20
204.2727524634728
 30
0.0
 11
266.1090559334931
 21
201.9447474174438
 31
0.0
  0
LINE
  5
1AA
330
70
100
AcDbEntity
  8
HONTAI
 62
     2
420
 16776960
370
    25
100
AcDbLine
 10
266.1090559334931
 20
201.9447474174438
 30
0.0
 11
263.4314896493544
 21
200.1393691661623
 31
0.0
  0
LINE
  5
1AB
330
70
100
AcDbEntity
  8
HONTAI
 62
     2
420
 16776960
370
    25
100
AcDbLine
 10
263.4314896493544
 20
200.1393691661623
 30
0.0
 11
265.5157013990778
 21
197.7954902098969
 31
0.0
  0
LINE
  5
1AC
330
70
100
AcDbEntity
  8
HONTAI
 62
     2
420
 16776960
370
    25
100
AcDbLine
 10
265.5157013990778
 20
197.7954902098969
 30
0.0
 11
263.1412976225985
 21
196.3003590594815
 31
0.0
  0
LINE
  5
1AD
330
70
100
AcDbEntity
  8
HONTAI
 62
     2
420
 16776960
370
    25
100
AcDbLine
 10
263.1412976225985
 20
196.3003590594815
 30
0.0
 11
265.6751284687534
 21
193.7498727752888
 31
0.0
  0
LINE
  5
1AE
330
70
100
AcDbEntity
  8
HONTAI
 62
     2
420
 16776960
370
    25
100
AcDbLine
 10
265.6751284687534
 20
193.7498727752888
 30
0.0
 11
262.4705704453997
 21
191.9515125739683
 31
0.0
  0
LINE
  5
1AF
330
70
100
AcDbEntity
  8
HONTAI
 62
     2
420
 16776960
370
    25
100
AcDbLine
 10
262.4705704453997
 20
191.9515125739683
 30
0.0
 11
265.7209606711513
 21
190.2031391138701
 31
0.0
  0
LINE
  5
1B0
330
70
100
AcDbEntity
  8
HONTAI
 62
     2
420
 16776960
370
    25
100
AcDbLine
 10
265.7209606711513
 20
190.2031391138701
 30
0.0
 11
263.6208108800898
 21
188.9724279881063
 31
0.0
  0
LINE
  5
1B1
330
70
100
AcDbEntity
  8
HONTAI
 62
     2
420
 16776960
370
    25
100
AcDbLine
 10
263.6208108800898
 20
188.9724279881063
 30
0.0
 11
266.7233552916043
 21
186.4632545383125
 31
0.0
  0
LINE
  5
1B2
330
70
100
AcDbEntity
  8
HONTAI
 62
     2
420
 16776960
370
    25
100
AcDbLine
 10
266.7233552916043
 20
186.4632545383125
 30
0.0
 11
264.9615260054127
 21
184.7797118248662
 31
0.0
  0
LINE
  5
1B3
330
70
100
AcDbEntity
  8
HONTAI
 62
     2
420
 16776960
370
    25
100
AcDbLine
 10
264.9615260054127
 20
184.7797118248662
 30
0.0
 11
267.2787627337005
 21
182.4872966232035
 31
0.0
  0
LINE
  5
1B4
330
70
100
AcDbEntity
  8
HONTAI
 62
     2
420
 16776960
370
    25
100
AcDbLine
 10
267.2787627337005
 20
182.4872966232035
 30
0.0
 11
265.3449394836418
 21
181.0439406483995
 31
0.0
  0
LINE
  5
1B5
330
70
100
AcDbEntity
  8
HONTAI
 62
     2
420
 16776960
370
    25
100
AcDbLine
 10
265.3449394836418
 20
181.0439406483995
 30
0.0
 11
268.4600507893811
 21
178.9416360224293
 31
0.0
  0
LINE
  5
1B6
330
70
100
AcDbEntity
  8
HONTAI
 62
     2
420
 16776960
370
    25
100
AcDbLine
 10
268.4600507893811
 20
178.9416360224293
 30
0.0
 11
267.1668927342795
 21
177.3080800502001
 31
0.0
  0
LINE
  5
1B7
330
70
100
AcDbEntity
  8
HONTAI
 62
     2
420
 16776960
370
    25
100
AcDbLine
 10
267.1668927342795
 20
177.3080800502001
 30
0.0
 11
270.4756820566524
 21
175.5481711882911
 31
0.0
  0
LINE
  5
1B8
330
70
100
AcDbEntity
  8
HONTAI
 62
     2
420
 16776960
370
    25
100
AcDbLine
 10
270.4756820566524
 20
175.5481711882911
 30
0.0
 11
268.9021097739123
 21
174.0376595021271
 31
0.0
  0
LINE
  5
1B9
330
70
100
AcDbEntity
  8
HONTAI
 62
     2
420
 16776960
370
    25
100
AcDbLine
 10
268.9021097739123
 20
174.0376595021271
 30
0.0
 11
271.9630109477466
 21
172.038100431896
 31
0.0
  0
LINE
  5
1BA
330
70
100
AcDbEntity
  8
HONTAI
 62
     2
420
 16776960
370
    25
100
AcDbLine
 10
271.9630109477466
 20
172.038100431896
 30
0.0
 11
270.6279632452878
 21
170.3497289456013
 31
0.0
  0
LINE
  5
1BB
330
70
100
AcDbEntity
  8
HONTAI
 62
     2
420
 16776960
370
    25
100
AcDbLine
 10
270.6279632452878
 20
170.3497289456013
 30
0.0
 11
274.4985666617263
 21
168.6341732565774
 31
0.0
  0
LINE
  5
1BC
330
70
100
AcDbEntity
  8
HONTAI
 62
     2
420
 16776960
370
    25
100
AcDbLine
 10
274.4985666617263
 20
168.6341732565774
 30
0.0
 11
272.5926942682254
 21
166.2880370775587
 31
0.0
  0
LINE
  5
1BD
330
70
100
AcDbEntity
  8
HONTAI
 62
     2
420
 16776960
370
    25
100
AcDbLine
 10
272.5926942682254
 20
166.2880370775587
 30
0.0
 11
277.3418880789753
 21
166.3942486042643
 31
0.0
  0
LINE
  5
1BE
330
70
100
AcDbEntity
  8
HONTAI
 62
     2
420
 16776960
370
    25
100
AcDbLine
 10
277.3418880789753
 20
166.3942486042643
 30
0.0
 11
275.7479818610347
 21
163.3531125021889
 31
0.0
  0
LINE
  5
1BF
330
70
100
AcDbEntity
  8
HONTAI
 62
     2
420
 16776960
370
    25
100
AcDbLine
 10
275.7479818610347
 20
163.3531125021889
 30
0.0
 11
280.2342450246254
 21
163.5460774157697
 31
0.0
  0
LINE
  5
1C0
330
70
100
AcDbEntity
  8
HONTAI
 62
     2
420
 16776960
370
    25
100
AcDbLine
 10
280.2342450246254
 20
163.5460774157697
 30
0.0
 11
278.7821410306118
 21
160.5301320761413
 31
0.0
  0
LINE
  5
1C1
330
70
100
AcDbEntity
  8
HONTAI
 62
     2
420
 16776960
370
    25
100
AcDbLine
 10
278.7821410306118
 20
160.5301320761413
 30
0.0
 11
283.3865641936118
 21
160.8474193423057
 31
0.0
  0
LINE
  5
1C2
330
70
100
AcDbEntity
  8
HONTAI
 62
     2
420
 16776960
370
    25
100
AcDbLine
 10
283.3865641936118
 20
160.8474193423057
 30
0.0
 11
282.3005947751893
 21
158.0972505736822
 31
0.0
  0
LINE
  5
1C3
330
70
100
AcDbEntity
  8
HONTAI
 62
     2
420
 16776960
370
    25
100
AcDbLine
 10
282.3005947751893
 20
158.0972505736822
 30
0.0
 11
286.9782318405211
 21
158.0972505736822
 31
0.0
  0
LINE
  5
1C4
330
70
100
AcDbEntity
  8
HONTAI
 62
     2
420
 16776960
370
    25
100
AcDbLine
 10
286.9782318405211
 20
158.0972505736822
 30
0.0
 11
285.9322227048849
 21
155.907316447322
 31
0.0
  0
LINE
  5
1C5
330
70
100
AcDbEntity
  8
HONTAI
 62
     2
420
 16776960
370
    25
100
AcDbLine
 10
285.9322227048849
 20
155.907316447322
 30
0.0
 11
290.2581912291168
 21
155.6971754064401
 31
0.0
  0
LINE
  5
1C6
330
70
100
AcDbEntity
  8
HONTAI
 62
     2
420
 16776960
370
    25
100
AcDbLine
 10
290.2581912291168
 20
155.6971754064401
 30
0.0
 11
289.5761292061603
 21
152.592288494776
 31
0.0
  0
LINE
  5
1C7
330
70
100
AcDbEntity
  8
HONTAI
 62
     2
420
 16776960
370
    25
100
AcDbLine
 10
289.5761292061603
 20
152.592288494776
 30
0.0
 11
294.2712194465743
 21
153.1833520272376
 31
0.0
  0
LINE
  5
1C8
330
70
100
AcDbEntity
  8
HONTAI
 62
     2
420
 16776960
370
    25
100
AcDbLine
 10
294.2712194465743
 20
153.1833520272376
 30
0.0
 11
293.5553992960523
 21
150.3356427579512
 31
0.0
  0
LINE
  5
1C9
330
70
100
AcDbEntity
  8
HONTAI
 62
     2
420
 16776960
370
    25
100
AcDbLine
 10
293.5553992960523
 20
150.3356427579512
 30
0.0
 11
297.6785726451073
 21
149.7288121586655
 31
0.0
  0
LINE
  5
1CA
330
70
100
AcDbEntity
  8
HONTAI
 62
     2
420
 16776960
370
    25
100
AcDbLine
 10
297.3250425271151
 20
147.2568010771509
 30
0.0
 11
301.7058926246106
 21
148.0524231827771
 31
0.0
  0
LINE
  5
1CB
330
70
100
AcDbEntity
  8
HONTAI
 62
     2
420
 16776960
370
    25
100
AcDbLine
 10
331.2947110111198
 20
136.0122178427724
 30
0.0
 11
330.5131567071179
 21
141.9021761575022
 31
0.0
  0
LINE
  5
1CC
330
70
100
AcDbEntity
  8
HONTAI
 62
     2
420
 16776960
370
    25
100
AcDbLine
 10
330.5131567071179
 20
141.9021761575022
 30
0.0
 11
325.9491564219613
 21
136.8288349004133
 31
0.0
  0
LINE
  5
1CD
330
70
100
AcDbEntity
  8
HONTAI
 62
     2
420
 16776960
370
    25
100
AcDbLine
 10
325.9491564219613
 20
136.8288349004133
 30
0.0
 11
325.4297247946479
 21
142.7141253707613
 31
0.0
  0
LINE
  5
1CE
330
70
100
AcDbEntity
  8
HONTAI
 62
     2
420
 16776960
370
    25
100
AcDbLine
 10
325.4297247946479
 20
142.7141253707613
 30
0.0
 11
320.915006447572
 21
137.595179036721
 31
0.0
  0
LINE
  5
1CF
330
70
100
AcDbEntity
  8
HONTAI
 62
     2
420
 16776960
370
    25
100
AcDbLine
 10
320.915006447572
 20
137.595179036721
 30
0.0
 11
320.2290018695749
 21
142.8846525899059
 31
0.0
  0
LINE
  5
1D0
330
70
100
AcDbEntity
  8
HONTAI
 62
     2
420
 16776960
370
    25
100
AcDbLine
 10
320.2290018695749
 20
142.8846525899059
 30
0.0
 11
316.1684165818626
 21
139.463109335822
 31
0.0
  0
LINE
  5
1D1
330
70
100
AcDbEntity
  8
HONTAI
 62
     2
420
 16776960
370
    25
100
AcDbLine
 10
338.2633824625172
 20
247.2217374508613
 30
0.0
 11
341.8263184116701
 21
249.8579777979549
 31
0.0
  0
LINE
  5
1D2
330
70
100
AcDbEntity
  8
HONTAI
 62
     2
420
 16776960
370
    25
100
AcDbLine
 10
341.9014733672363
 20
253.8489585619641
 30
0.0
 11
337.8756318458758
 21
257.7116191584259
 31
0.0
  0
LINE
  5
1D3
330
70
100
AcDbEntity
  8
HONTAI
 62
     2
420
 16776960
370
    25
100
AcDbLine
 10
337.5619382651396
 20
260.3618076406494
 30
0.0
 11
341.7028671567772
 21
256.5978716417869
 31
0.0
  0
LINE
  5
1D4
330
70
100
AcDbEntity
  8
HONTAI
 62
     2
420
 16776960
370
    25
100
AcDbLine
 10
341.671080306748
 20
138.1220518081362
 30
0.0
 11
345.3023807760211
 21
135.1046053045967
 31
0.0
  0
LINE
  5
1D5
330
70
100
AcDbEntity
  8
HONTAI
 62
     2
420
 16776960
370
    25
100
AcDbLine
 10
345.3023807760211
 20
135.1046053045967
 30
0.0
 11
347.4599440249524
 21
138.6009945379035
 31
0.0
  0
LINE
  5
1D6
330
70
100
AcDbEntity
  8
HONTAI
 62
     2
420
 16776960
370
    25
100
AcDbLine
 10
347.4599440249524
 20
138.6009945379035
 30
0.0
 11
351.65512623747
 21
136.0122178427724
 31
0.0
  0
LINE
  5
1D7
330
70
100
AcDbEntity
  8
HONTAI
 62
     2
420
 16776960
370
    25
100
AcDbLine
 10
366.7814206667285
 20
139.463109335822
 30
0.0
 11
366.7814206667285
 21
143.6299826221137
 31
0.0
  0
LINE
  5
1D8
330
70
100
AcDbEntity
  8
HONTAI
 62
     2
420
 16776960
370
    25
100
AcDbLine
 10
366.7814206667285
 20
143.6299826221137
 30
0.0
 11
371.2880074940114
 21
140.8999375250954
 31
0.0
  0
LINE
  5
1D9
330
70
100
AcDbEntity
  8
HONTAI
 62
     2
420
 16776960
370
    25
100
AcDbLine
 10
371.2880074940114
 20
140.8999375250954
 30
0.0
 11
371.2880074940114
 21
145.1308367625681
 31
0.0
  0
LINE
  5
1DA
330
70
100
AcDbEntity
  8
HONTAI
 62
     2
420
 16776960
370
    25
100
AcDbLine
 10
371.2880074940114
 20
145.1308367625681
 30
0.0
 11
374.8195511764734
 21
142.448721707212
 31
0.0
  0
LINE
  5
1DB
330
70
100
AcDbEntity
  8
HONTAI
 62
     2
420
 16776960
370
    25
100
AcDbLine
 10
374.8195511764734
 20
142.448721707212
 30
0.0
 11
376.2097946495886
 21
145.5619388723739
 31
0.0
  0
LINE
  5
1DC
330
70
100
AcDbEntity
  8
HONTAI
 62
     2
420
 16776960
370
    25
100
AcDbLine
 10
376.2097946495886
 20
145.5619388723739
 30
0.0
 11
380.3158136523329
 21
143.7283481473412
 31
0.0
  0
LINE
  5
1DD
330
70
100
AcDbEntity
  8
HONTAI
 62
     2
420
 16776960
370
    25
100
AcDbLine
 10
380.3158136523329
 20
143.7283481473412
 30
0.0
 11
381.2439446239792
 21
148.0524231827771
 31
0.0
  0
LINE
  5
1DE
330
70
100
AcDbEntity
  8
HONTAI
 62
     2
420
 16776960
370
    25
100
AcDbLine
 10
381.2439446239792
 20
148.0524231827771
 30
0.0
 11
385.8466312305243
 21
145.7056395756441
 31
0.0
  0
LINE
  5
1DF
330
70
100
AcDbEntity
  8
HONTAI
 62
     2
420
 16776960
370
    25
100
AcDbLine
 10
385.8466312305243
 20
145.7056395756441
 30
0.0
 11
385.2712646034837
 21
149.7288121586655
 31
0.0
  0
LINE
  5
1E0
330
70
100
AcDbEntity
  8
HONTAI
 62
     2
420
 16776960
370
    25
100
AcDbLine
 10
385.2712646034837
 20
149.7288121586655
 30
0.0
 11
389.3944379525375
 21
147.8129518179038
 31
0.0
  0
LINE
  5
1E1
330
70
100
AcDbEntity
  8
HONTAI
 62
     2
420
 16776960
370
    25
100
AcDbLine
 10
389.3944379525375
 20
147.8129518179038
 30
0.0
 11
389.3944379525375
 21
151.5967424577652
 31
0.0
  0
LINE
  5
1E2
330
70
100
AcDbEntity
  8
HONTAI
 62
     2
420
 16776960
370
    25
100
AcDbLine
 10
389.3944379525375
 20
151.5967424577652
 30
0.0
 11
393.3737080424283
 21
150.0640541851483
 31
0.0
  0
LINE
  5
1E3
330
70
100
AcDbEntity
  8
HONTAI
 62
     2
420
 16776960
370
    25
100
AcDbLine
 10
393.3737080424283
 20
150.0640541851483
 30
0.0
 11
393.3737080424283
 21
153.7999147833477
 31
0.0
  0
LINE
  5
1E4
330
70
100
AcDbEntity
  8
HONTAI
 62
     2
420
 16776960
370
    25
100
AcDbLine
 10
393.3737080424283
 20
153.7999147833477
 30
0.0
 11
398.120297908139
 21
152.5066978756247
 31
0.0
  0
LINE
  5
1E5
330
70
100
AcDbEntity
  8
HONTAI
 62
     2
420
 16776960
370
    25
100
AcDbLine
 10
398.120297908139
 20
152.5066978756247
 30
0.0
 11
397.0176145437049
 21
155.907316447322
 31
0.0
  0
LINE
  5
1E6
330
70
100
AcDbEntity
  8
HONTAI
 62
     2
420
 16776960
370
    25
100
AcDbLine
 10
397.0176145437049
 20
155.907316447322
 30
0.0
 11
402.3393246267766
 21
155.1888129309603
 31
0.0
  0
LINE
  5
1E7
330
70
100
AcDbEntity
  8
HONTAI
 62
     2
420
 16776960
370
    25
100
AcDbLine
 10
402.3393246267766
 20
155.1888129309603
 30
0.0
 11
400.431620803883
 21
158.4717525197767
 31
0.0
  0
LINE
  5
1E8
330
70
100
AcDbEntity
  8
HONTAI
 62
     2
420
 16776960
370
    25
100
AcDbLine
 10
400.431620803883
 20
158.4717525197767
 30
0.0
 11
405.6574775173722
 21
158.4717525197767
 31
0.0
  0
LINE
  5
1E9
330
70
100
AcDbEntity
  8
HONTAI
 62
     2
420
 16776960
370
    25
100
AcDbLine
 10
405.6574775173722
 20
158.4717525197767
 30
0.0
 11
403.4043073085698
 21
161.5848802632187
 31
0.0
  0
LINE
  5
1EA
330
70
100
AcDbEntity
  8
HONTAI
 62
     2
420
 16776960
370
    25
100
AcDbLine
 10
403.4043073085698
 20
161.5848802632187
 30
0.0
 11
409.0616273899352
 21
161.0580969135041
 31
0.0
  0
LINE
  5
1EB
330
70
100
AcDbEntity
  8
HONTAI
 62
     2
420
 16776960
370
    25
100
AcDbLine
 10
409.0616273899352
 20
161.0580969135041
 30
0.0
 11
406.6165040323228
 21
164.0754539953366
 31
0.0
  0
LINE
  5
1EC
330
70
100
AcDbEntity
  8
HONTAI
 62
     2
420
 16776960
370
    25
100
AcDbLine
 10
406.6165040323228
 20
164.0754539953366
 30
0.0
 11
412.2257742240397
 21
164.0754539953366
 31
0.0
  0
LINE
  5
1ED
330
70
100
AcDbEntity
  8
HONTAI
 62
     2
420
 16776960
370
    25
100
AcDbLine
 10
412.2257742240397
 20
164.0754539953366
 30
0.0
 11
409.6369940169425
 21
167.1407411188364
 31
0.0
  0
LINE
  5
1EE
330
70
100
AcDbEntity
  8
HONTAI
 62
     2
420
 16776960
370
    25
100
AcDbLine
 10
409.6369940169425
 20
167.1407411188364
 30
0.0
 11
415.1504108391114
 21
167.1407411188364
 31
0.0
  0
LINE
  5
1EF
330
70
100
AcDbEntity
  8
HONTAI
 62
     2
420
 16776960
370
    25
100
AcDbLine
 10
415.1504108391114
 20
167.1407411188364
 30
0.0
 11
412.3218740033019
 21
170.3497289456013
 31
0.0
  0
LINE
  5
1F0
330
70
100
AcDbEntity
  8
HONTAI
 62
     2
420
 16776960
370
    25
100
AcDbLine
 10
412.3218740033019
 20
170.3497289456013
 30
0.0
 11
417.9311441950201
 21
170.7808310554135
 31
0.0
  0
LINE
  5
1F1
330
70
100
AcDbEntity
  8
HONTAI
 62
     2
420
 16776960
370
    25
100
AcDbLine
 10
417.9311441950201
 20
170.7808310554135
 30
0.0
 11
414.0477274746761
 21
174.0376595021271
 31
0.0
  0
LINE
  5
1F2
330
70
100
AcDbEntity
  8
HONTAI
 62
     2
420
 16776960
370
    25
100
AcDbLine
 10
414.0477274746761
 20
174.0376595021271
 30
0.0
 11
419.9928540744036
 21
174.8519336800969
 31
0.0
  0
LINE
  5
1F3
330
70
100
AcDbEntity
  8
HONTAI
 62
     2
420
 16776960
370
    25
100
AcDbLine
 10
419.9928540744036
 20
174.8519336800969
 30
0.0
 11
415.7829445143102
 21
177.3080800502001
 31
0.0
  0
LINE
  5
1F4
330
70
100
AcDbEntity
  8
HONTAI
 62
     2
420
 16776960
370
    25
100
AcDbLine
 10
415.7829445143102
 20
177.3080800502001
 30
0.0
 11
421.6322177444524
 21
178.840768322817
 31
0.0
  0
LINE
  5
1F5
330
70
100
AcDbEntity
  8
HONTAI
 62
     2
420
 16776960
370
    25
100
AcDbLine
 10
421.6322177444524
 20
178.840768322817
 30
0.0
 11
417.6048977649491
 21
181.0439406483995
 31
0.0
  0
LINE
  5
1F6
330
70
100
AcDbEntity
  8
HONTAI
 62
     2
420
 16776960
370
    25
100
AcDbLine
 10
417.6048977649491
 20
181.0439406483995
 30
0.0
 11
422.2553878514299
 21
182.3370681344091
 31
0.0
  0
LINE
  5
1F7
330
70
100
AcDbEntity
  8
HONTAI
 62
     2
420
 16776960
370
    25
100
AcDbLine
 10
422.2553878514299
 20
182.3370681344091
 30
0.0
 11
417.9883112431784
 21
184.7797118248662
 31
0.0
  0
LINE
  5
1F8
330
70
100
AcDbEntity
  8
HONTAI
 62
     2
420
 16776960
370
    25
100
AcDbLine
 10
417.9883112431784
 20
184.7797118248662
 30
0.0
 11
424.0275663445956
 21
186.1466122294798
 31
0.0
  0
LINE
  5
1F9
330
70
100
AcDbEntity
  8
HONTAI
 62
     2
420
 16776960
370
    25
100
AcDbLine
 10
424.0275663445956
 20
186.1466122294798
 30
0.0
 11
419.3290263684986
 21
188.9724279881063
 31
0.0
  0
LINE
  5
1FA
330
70
100
AcDbEntity
  8
HONTAI
 62
     2
420
 16776960
370
    25
100
AcDbLine
 10
419.3290263684986
 20
188.9724279881063
 30
0.0
 11
424.26732297334
 21
190.5529568806448
 31
0.0
  0
LINE
  5
1FB
330
70
100
AcDbEntity
  8
HONTAI
 62
     2
420
 16776960
370
    25
100
AcDbLine
 10
424.26732297334
 20
190.5529568806448
 30
0.0
 11
419.4729296276976
 21
192.8518998678368
 31
0.0
  0
LINE
  5
1FC
330
70
100
AcDbEntity
  8
HONTAI
 62
     2
420
 16776960
370
    25
100
AcDbLine
 10
419.4729296276976
 20
192.8518998678368
 30
0.0
 11
424.1712231941138
 21
194.097186733899
 31
0.0
  0
LINE
  5
1FD
330
70
100
AcDbEntity
  8
HONTAI
 62
     2
420
 16776960
370
    25
100
AcDbLine
 10
424.1712231941138
 20
194.097186733899
 30
0.0
 11
419.8085396259926
 21
196.3003590594815
 31
0.0
  0
LINE
  5
1FE
330
70
100
AcDbEntity
  8
HONTAI
 62
     2
420
 16776960
370
    25
100
AcDbLine
 10
419.8085396259926
 20
196.3003590594815
 30
0.0
 11
424.746589821121
 21
197.9767480353699
 31
0.0
  0
LINE
  5
1FF
330
70
100
AcDbEntity
  8
HONTAI
 62
     2
420
 16776960
370
    25
100
AcDbLine
 10
424.746589821121
 20
197.9767480353699
 30
0.0
 11
419.5183475992354
 21
200.1393691661623
 31
0.0
  0
LINE
  5
200
330
70
100
AcDbEntity
  8
HONTAI
 62
     2
420
 16776960
370
    25
100
AcDbLine
 10
419.5183475992354
 20
200.1393691661623
 30
0.0
 11
423.8836630854339
 21
202.7183347130177
 31
0.0
  0
LINE
  5
201
330
70
100
AcDbEntity
  8
HONTAI
 62
     2
420
 16776960
370
    25
100
AcDbLine
 10
423.8836630854339
 20
202.7183347130177
 30
0.0
 11
418.0824397449041
 21
204.2727524634728
 31
0.0
  0
LINE
  5
202
330
70
100
AcDbEntity
  8
HONTAI
 62
     2
420
 16776960
370
    25
100
AcDbLine
 10
418.0824397449041
 20
204.2727524634728
 30
0.0
 11
422.9729328698087
 21
207.1943388836959
 31
0.0
  0
LINE
  5
203
330
70
100
AcDbEntity
  8
HONTAI
 62
     2
420
 16776960
370
    25
100
AcDbLine
 10
422.9729328698087
 20
207.1943388836959
 30
0.0
 11
416.9319529005345
 21
208.5833264530283
 31
0.0
  0
LINE
  5
204
330
70
100
AcDbEntity
  8
HONTAI
 62
     2
420
 16776960
370
    25
100
AcDbLine
 10
416.9319529005345
 20
208.5833264530283
 30
0.0
 11
420.8631731008116
 21
211.2654415083781
 31
0.0
  0
LINE
  5
205
330
70
100
AcDbEntity
  8
HONTAI
 62
     2
420
 16776960
370
    25
100
AcDbLine
 10
420.8631731008116
 20
211.2654415083781
 30
0.0
 11
414.4868295429208
 21
212.6064990360498
 31
0.0
  0
LINE
  5
206
330
70
100
AcDbEntity
  8
HONTAI
 62
     2
420
 16776960
370
    25
100
AcDbLine
 10
414.4868295429208
 20
212.6064990360498
 30
0.0
 11
417.9819045912435
 21
215.5974767106174
 31
0.0
  0
LINE
  5
207
330
70
100
AcDbEntity
  8
HONTAI
 62
     2
420
 16776960
370
    25
100
AcDbLine
 10
417.9819045912435
 20
215.5974767106174
 30
0.0
 11
413.0914114663364
 21
216.0284893987097
 31
0.0
  0
LINE
  5
208
330
70
100
AcDbEntity
  8
HONTAI
 62
     2
420
 16776960
370
    25
100
AcDbLine
 10
413.0914114663364
 20
216.0284893987097
 30
0.0
 11
415.8721448222464
 21
219.9080507001794
 31
0.0
  0
LINE
  5
209
330
70
100
AcDbEntity
  8
HONTAI
 62
     2
420
 16776960
370
    25
100
AcDbLine
 10
415.8721448222464
 20
219.9080507001794
 30
0.0
 11
409.4477513747393
 21
220.9137767796419
 31
0.0
  0
LINE
  5
20A
330
70
100
AcDbEntity
  8
HONTAI
 62
     2
420
 16776960
370
    25
100
AcDbLine
 10
409.4477513747393
 20
220.9137767796419
 30
0.0
 11
412.2765346202631
 21
224.5059366745569
 31
0.0
  0
LINE
  5
20B
330
70
100
AcDbEntity
  8
HONTAI
 62
     2
420
 16776960
370
    25
100
AcDbLine
 10
412.2765346202631
 20
224.5059366745569
 30
0.0
 11
405.4204313952361
 21
224.9848794043241
 31
0.0
  0
LINE
  5
20C
330
70
100
AcDbEntity
  8
HONTAI
 62
     2
420
 16776960
370
    25
100
AcDbLine
 10
405.4204313952361
 20
224.9848794043241
 30
0.0
 11
408.5367747494038
 21
228.4333385959688
 31
0.0
  0
LINE
  5
20D
330
70
100
AcDbEntity
  8
HONTAI
 62
     2
420
 16776960
370
    25
100
AcDbLine
 10
408.5367747494038
 20
228.4333385959688
 30
0.0
 11
401.776771303639
 21
228.4333385959688
 31
0.0
  0
LINE
  5
20E
330
70
100
AcDbEntity
  8
HONTAI
 62
     2
420
 16776960
370
    25
100
AcDbLine
 10
401.776771303639
 20
228.4333385959688
 30
0.0
 11
404.2613202117145
 21
232.3775518006558
 31
0.0
  0
LINE
  5
20F
330
70
100
AcDbEntity
  8
HONTAI
 62
     2
420
 16776960
370
    25
100
AcDbLine
 10
404.2613202117145
 20
232.3775518006558
 30
0.0
 11
397.1176568780064
 21
231.8507684509412
 31
0.0
  0
LINE
  5
210
330
70
100
AcDbEntity
  8
HONTAI
 62
     2
420
 16776960
370
    25
100
AcDbLine
 10
397.1176568780064
 20
231.8507684509412
 30
0.0
 11
399.1313168677773
 21
235.7781703723531
 31
0.0
  0
LINE
  5
211
330
70
100
AcDbEntity
  8
HONTAI
 62
     2
420
 16776960
370
    25
100
AcDbLine
 10
399.1313168677773
 20
235.7781703723531
 30
0.0
 11
392.5630201611085
 21
234.6286541679004
 31
0.0
  0
LINE
  5
212
330
70
100
AcDbEntity
  8
HONTAI
 62
     2
420
 16776960
370
    25
100
AcDbLine
 10
392.5630201611085
 20
234.6286541679004
 30
0.0
 11
393.1861902680512
 21
238.9871581991244
 31
0.0
  0
LINE
  5
213
330
70
100
AcDbEntity
  8
HONTAI
 62
     2
420
 16776960
370
    25
100
AcDbLine
 10
393.1861902680512
 20
238.9871581991244
 30
0.0
 11
386.7137469309316
 21
237.5502405881106
 31
0.0
  0
LINE
  5
214
330
70
100
AcDbEntity
  8
HONTAI
 62
     2
420
 16776960
370
    25
100
AcDbLine
 10
386.7137469309316
 20
237.5502405881106
 30
0.0
 11
386.7137469309316
 21
241.48908848962
 31
0.0
  0
LINE
  5
215
330
70
100
AcDbEntity
  8
HONTAI
 62
     2
420
 16776960
370
    25
100
AcDbLine
 10
386.7137469309316
 20
241.48908848962
 30
0.0
 11
380.0885295857854
 21
240.004330258678
 31
0.0
  0
LINE
  5
216
330
70
100
AcDbEntity
  8
HONTAI
 62
     2
420
 16776960
370
    25
100
AcDbLine
 10
380.0885295857854
 20
240.004330258678
 30
0.0
 11
380.9995062111196
 21
243.5006300702701
 31
0.0
  0
LINE
  5
217
330
70
100
AcDbEntity
  8
HONTAI
 62
     2
420
 16776960
370
    25
100
AcDbLine
 10
380.9995062111196
 20
243.5006300702701
 30
0.0
 11
375.150479390657
 21
242.4469739491403
 31
0.0
  0
LINE
  5
218
330
70
100
AcDbEntity
  8
HONTAI
 62
     2
420
 16776960
370
    25
100
AcDbLine
 10
375.150479390657
 20
242.4469739491403
 30
0.0
 11
375.6297462384354
 21
246.0869744640103
 31
0.0
  0
LINE
  5
219
330
70
100
AcDbEntity
  8
HONTAI
 62
     2
420
 16776960
370
    25
100
AcDbLine
 10
375.6297462384354
 20
246.0869744640103
 30
0.0
 11
369.0614495317678
 21
244.1232735033076
 31
0.0
  0
LINE
  5
21A
330
70
100
AcDbEntity
  8
HONTAI
 62
     2
420
 16776960
370
    25
100
AcDbLine
 10
369.0614495317678
 20
244.1232735033076
 30
0.0
 11
369.0614495317678
 21
247.2843312884104
 31
0.0
  0
LINE
  5
21B
330
70
100
AcDbEntity
  8
HONTAI
 62
     2
420
 16776960
370
    25
100
AcDbLine
 10
369.0614495317678
 20
247.2843312884104
 30
0.0
 11
363.0204695625271
 21
245.033318342887
 31
0.0
  0
LINE
  5
21C
330
70
100
AcDbEntity
  8
HONTAI
 62
     2
420
 16776960
370
    25
100
AcDbLine
 10
363.0204695625271
 20
245.033318342887
 30
0.0
 11
363.0204695625271
 21
248.5775481961347
 31
0.0
  0
LINE
  5
21D
330
70
100
AcDbEntity
  8
HONTAI
 62
     2
420
 16776960
370
    25
100
AcDbLine
 10
363.0204695625271
 20
248.5775481961347
 30
0.0
 11
356.4782922830259
 21
246.2408692433067
 31
0.0
  0
LINE
  5
21E
330
70
100
AcDbEntity
  8
HONTAI
 62
     2
420
 16776960
370
    25
100
AcDbLine
 10
356.4782922830259
 20
246.2408692433067
 30
0.0
 11
355.2275358967541
 21
249.7427067561408
 31
0.0
  0
LINE
  5
21F
330
70
100
AcDbEntity
  8
HONTAI
 62
     2
420
 16776960
370
    25
100
AcDbLine
 10
355.2275358967541
 20
249.7427067561408
 30
0.0
 11
350.4853622033976
 21
247.0551434212637
 31
0.0
  0
LINE
  5
220
330
70
100
AcDbEntity
  8
HONTAI
 62
     2
420
 16776960
370
    25
100
AcDbLine
 10
350.4853622033976
 20
247.0551434212637
 30
0.0
 11
348.1841421049495
 21
249.9767298414933
 31
0.0
  0
LINE
  5
221
330
70
100
AcDbEntity
  8
HONTAI
 62
     2
420
 16776960
370
    25
100
AcDbLine
 10
348.1841421049495
 20
249.9767298414933
 30
0.0
 11
344.6864547860739
 21
247.2217374508613
 31
0.0
  0
LINE
  5
222
330
70
100
AcDbEntity
  8
HONTAI
 62
     2
420
 16776960
370
    25
100
AcDbLine
 10
348.1841421049495
 20
249.9767298414933
 30
0.0
 11
342.3507158833054
 21
167.2909950140679
 31
0.0
  0
LINE
  5
223
330
70
100
AcDbEntity
  8
HONTAI
 62
     2
420
 16776960
370
    25
100
AcDbLine
 10
355.2275358967541
 20
249.7427067561408
 30
0.0
 11
343.0859186587495
 21
167.2506539084965
 31
0.0
  0
LINE
  5
224
330
70
100
AcDbEntity
  8
HONTAI
 62
     2
420
 16776960
370
    25
100
AcDbLine
 10
361.8987325570089
 20
243.8399136403361
 30
0.0
 11
343.7504124569997
 21
167.190834567241
 31
0.0
  0
LINE
  5
225
330
70
100
AcDbEntity
  8
HONTAI
 62
     2
420
 16776960
370
    25
100
AcDbLine
 10
367.736042968544
 20
242.9993897344445
 30
0.0
 11
344.2678963397954
 21
167.1286045171885
 31
0.0
  0
LINE
  5
226
330
70
100
AcDbEntity
  8
HONTAI
 62
     2
420
 16776960
370
    25
100
AcDbLine
 10
373.8945339142176
 20
241.6339812704554
 30
0.0
 11
344.8292992277289
 21
167.0452462656588
 31
0.0
  0
LINE
  5
227
330
70
100
AcDbEntity
  8
HONTAI
 62
     2
420
 16776960
370
    25
100
AcDbLine
 10
379.0751473732003
 20
239.3563120198446
 30
0.0
 11
345.4468006764855
 21
166.9339750447762
 31
0.0
  0
LINE
  5
228
330
70
100
AcDbEntity
  8
HONTAI
 62
     2
420
 16776960
370
    25
100
AcDbLine
 10
384.5908851065121
 20
237.5830592665255
 30
0.0
 11
346.1157196224382
 21
166.7894169223323
 31
0.0
  0
LINE
  5
229
330
70
100
AcDbEntity
  8
HONTAI
 62
     2
420
 16776960
370
    25
100
AcDbLine
 10
389.9232147217101
 20
233.8991384787758
 30
0.0
 11
346.7771875497653
 21
166.6207191381323
 31
0.0
  0
LINE
  5
22A
330
70
100
AcDbEntity
  8
HONTAI
 62
     2
420
 16776960
370
    25
100
AcDbLine
 10
395.7354908652927
 20
231.2164756909784
 30
0.0
 11
347.4908212749661
 21
166.4082515611252
 31
0.0
  0
LINE
  5
22B
330
70
100
AcDbEntity
  8
HONTAI
 62
     2
420
 16776960
370
    25
100
AcDbLine
 10
400.3894970054464
 20
227.7937010594882
 30
0.0
 11
348.3007096881645
 21
166.1257958814118
 31
0.0
  0
LINE
  5
22C
330
70
100
AcDbEntity
  8
HONTAI
 62
     2
420
 16776960
370
    25
100
AcDbLine
 10
408.5367747494038
 20
228.4333385959688
 30
0.0
 11
349.2930214475862
 21
165.7130809476434
 31
0.0
  0
LINE
  5
22D
330
70
100
AcDbEntity
  8
HONTAI
 62
     2
420
 16776960
370
    25
100
AcDbLine
 10
409.4477513747393
 20
220.9137767796419
 30
0.0
 11
350.1670208413403
 21
165.2797340911
 31
0.0
  0
LINE
  5
22E
330
70
100
AcDbEntity
  8
HONTAI
 62
     2
420
 16776960
370
    25
100
AcDbLine
 10
413.0914114663364
 20
216.0284893987097
 30
0.0
 11
350.8569738325423
 21
164.8833029437443
 31
0.0
  0
LINE
  5
22F
330
70
100
AcDbEntity
  8
HONTAI
 62
     2
420
 16776960
370
    25
100
AcDbLine
 10
414.4868295429208
 20
212.6064990360498
 30
0.0
 11
351.5759191698634
 21
164.4091921135361
 31
0.0
  0
LINE
  5
230
330
70
100
AcDbEntity
  8
HONTAI
 62
     2
420
 16776960
370
    25
100
AcDbLine
 10
416.9319529005345
 20
208.5833264530283
 30
0.0
 11
352.0412813965192
 21
164.0626519396619
 31
0.0
  0
LINE
  5
231
330
70
100
AcDbEntity
  8
HONTAI
 62
     2
420
 16776960
370
    25
100
AcDbLine
 10
418.0824397449041
 20
204.2727524634728
 30
0.0
 11
352.6535796442477
 21
163.5482927703544
 31
0.0
  0
LINE
  5
232
330
70
100
AcDbEntity
  8
HONTAI
 62
     2
420
 16776960
370
    25
100
AcDbLine
 10
419.518347599234
 20
200.1393691661559
 30
0.0
 11
353.190116851648
 21
163.0289360048162
 31
0.0
  0
LINE
  5
233
330
70
100
AcDbEntity
  8
HONTAI
 62
     2
420
 16776960
370
    25
100
AcDbLine
 10
418.2614847505512
 20
194.7431350456079
 30
0.0
 11
353.6439570477722
 21
162.5234447442715
 31
0.0
  0
LINE
  5
234
330
70
100
AcDbEntity
  8
HONTAI
 62
     2
420
 16776960
370
    25
100
AcDbLine
 10
420.0355491866495
 20
192.2005216717698
 30
0.0
 11
354.0835578872282
 21
161.9542214435975
 31
0.0
  0
LINE
  5
235
330
70
100
AcDbEntity
  8
HONTAI
 62
     2
420
 16776960
370
    25
100
AcDbLine
 10
418.0179008283896
 20
187.9120591558596
 30
0.0
 11
354.6083210623914
 21
161.1162673131156
 31
0.0
  0
LINE
  5
236
330
70
100
AcDbEntity
  8
HONTAI
 62
     2
420
 16776960
370
    25
100
AcDbLine
 10
416.5158426561265
 20
183.3230158681151
 30
0.0
 11
355.0289560627295
 21
160.2105910163208
 31
0.0
  0
LINE
  5
237
330
70
100
AcDbEntity
  8
HONTAI
 62
     2
420
 16776960
370
    25
100
AcDbLine
 10
414.4897864592087
 20
178.9416360224293
 30
0.0
 11
355.2843758139521
 21
159.4130308227977
 31
0.0
  0
LINE
  5
238
330
70
100
AcDbEntity
  8
HONTAI
 62
     2
420
 16776960
370
    25
100
AcDbLine
 10
412.4741551919374
 20
175.5481711882911
 30
0.0
 11
355.4440027977726
 21
158.5728430832364
 31
0.0
  0
LINE
  5
239
330
70
100
AcDbEntity
  8
HONTAI
 62
     2
420
 16776960
370
    25
100
AcDbLine
 10
410.9868263008443
 20
172.038100431896
 30
0.0
 11
355.4932342079474
 21
157.9145192455873
 31
0.0
  0
LINE
  5
23A
330
70
100
AcDbEntity
  8
HONTAI
 62
     2
420
 16776960
370
    25
100
AcDbLine
 10
408.4512705868633
 20
168.6341732565774
 30
0.0
 11
355.4801384570242
 21
157.3037613693322
 31
0.0
  0
LINE
  5
23B
330
70
100
AcDbEntity
  8
HONTAI
 62
     2
420
 16776960
370
    25
100
AcDbLine
 10
405.6079491696132
 20
166.3942486042643
 30
0.0
 11
355.3778603669957
 21
156.5074327273122
 31
0.0
  0
LINE
  5
23C
330
70
100
AcDbEntity
  8
HONTAI
 62
     2
420
 16776960
370
    25
100
AcDbLine
 10
402.715592223963
 20
163.5460774157697
 30
0.0
 11
355.2282111482432
 21
155.8803166617044
 31
0.0
  0
LINE
  5
23D
330
70
100
AcDbEntity
  8
HONTAI
 62
     2
420
 16776960
370
    25
100
AcDbLine
 10
399.5632730549793
 20
160.8474193423057
 30
0.0
 11
355.0050598512294
 21
155.2263910953666
 31
0.0
  0
LINE
  5
23E
330
70
100
AcDbEntity
  8
HONTAI
 62
     2
420
 16776960
370
    25
100
AcDbLine
 10
354.3349007534624
 20
153.9132147458848
 30
0.0
 11
392.691646019473
 21
155.6971754064401
 31
0.0
  0
LINE
  5
23F
330
70
100
AcDbEntity
  8
HONTAI
 62
     2
420
 16776960
370
    25
100
AcDbLine
 10
395.97160540807
 20
158.0972505736822
 30
0.0
 11
354.7565715535217
 21
154.6655237437911
 31
0.0
  0
LINE
  5
240
330
70
100
AcDbEntity
  8
HONTAI
 62
     2
420
 16776960
370
    25
100
AcDbLine
 10
398.120297908139
 20
152.5066978756247
 30
0.0
 11
353.9127466518808
 21
153.303849470828
 31
0.0
  0
LINE
  5
241
330
70
100
AcDbEntity
  8
HONTAI
 62
     2
420
 16776960
370
    25
100
AcDbLine
 10
393.3737080424283
 20
150.0640541851483
 30
0.0
 11
353.4913502325616
 21
152.7860590737329
 31
0.0
  0
LINE
  5
242
330
70
100
AcDbEntity
  8
HONTAI
 62
     2
420
 16776960
370
    25
100
AcDbLine
 10
385.2712646034837
 20
149.7288121586655
 30
0.0
 11
353.0395564627515
 21
152.3020500760479
 31
0.0
  0
LINE
  5
243
330
70
100
AcDbEntity
  8
HONTAI
 62
     2
420
 16776960
370
    25
100
AcDbLine
 10
381.2439446239792
 20
148.0524231827771
 30
0.0
 11
352.4994082996201
 21
151.7956651093435
 31
0.0
  0
LINE
  5
244
330
70
100
AcDbEntity
  8
HONTAI
 62
     2
420
 16776960
370
    25
100
AcDbLine
 10
376.2097946495886
 20
145.5619388723739
 30
0.0
 11
352.0368394939483
 21
151.4111426802105
 31
0.0
  0
LINE
  5
245
330
70
100
AcDbEntity
  8
HONTAI
 62
     2
420
 16776960
370
    25
100
AcDbLine
 10
371.2880074940114
 20
145.1308367625681
 30
0.0
 11
351.4685331390535
 21
150.9888327427487
 31
0.0
  0
LINE
  5
246
330
70
100
AcDbEntity
  8
HONTAI
 62
     2
420
 16776960
370
    25
100
AcDbLine
 10
366.7814206667285
 20
143.6299826221137
 30
0.0
 11
350.6192548454627
 21
150.4414840535725
 31
0.0
  0
LINE
  5
247
330
70
100
AcDbEntity
  8
HONTAI
 62
     2
420
 16776960
370
    25
100
AcDbLine
 10
362.720835379015
 20
142.8846525899059
 30
0.0
 11
349.91585740679
 21
150.0507685024635
 31
0.0
  0
LINE
  5
248
330
70
100
AcDbEntity
  8
HONTAI
 62
     2
420
 16776960
370
    25
100
AcDbLine
 10
362.0348308010165
 20
137.595179036721
 30
0.0
 11
349.2137975738034
 21
149.7085158972087
 31
0.0
  0
LINE
  5
249
330
70
100
AcDbEntity
  8
HONTAI
 62
     2
420
 16776960
370
    25
100
AcDbLine
 10
357.0006808266285
 20
136.8288349004133
 30
0.0
 11
348.6768781237075
 21
149.475244450601
 31
0.0
  0
LINE
  5
24A
330
70
100
AcDbEntity
  8
HONTAI
 62
     2
420
 16776960
370
    25
100
AcDbLine
 10
351.65512623747
 20
136.0122178427724
 30
0.0
 11
348.1232060399627
 21
149.2119995653576
 31
0.0
  0
LINE
  5
24B
330
70
100
AcDbEntity
  8
HONTAI
 62
     2
420
 16776960
370
    25
100
AcDbLine
 10
349.0682600740454
 20
253.7054367021283
 30
0.0
 11
348.1841421049495
 21
249.9767298414933
 31
0.0
  0
LINE
  5
24C
330
70
100
AcDbEntity
  8
HONTAI
 62
     2
420
 16776960
370
    25
100
AcDbLine
 10
345.0956821835812
 20
260.5639931677453
 30
0.0
 11
348.2558473248675
 21
256.8340344030389
 31
0.0
  0
LINE
  5
24D
330
70
100
AcDbEntity
  8
HONTAI
 62
     2
420
 16776960
370
    25
100
AcDbLine
 10
348.2558473248675
 20
256.8340344030389
 30
0.0
 11
352.0350236793494
 21
259.9063641214609
 31
0.0
  0
LINE
  5
24E
330
70
100
AcDbEntity
  8
HONTAI
 62
     2
420
 16776960
370
    25
100
AcDbLine
 10
352.0350236793494
 20
259.9063641214609
 30
0.0
 11
352.3802527223856
 21
257.6811263520625
 31
0.0
  0
LINE
  5
24F
330
70
100
AcDbEntity
  8
HONTAI
 62
     2
420
 16776960
370
    25
100
AcDbLine
 10
352.3802527223856
 20
257.6811263520625
 30
0.0
 11
349.0682600740454
 21
253.7054367021283
 31
0.0
  0
LINE
  5
250
330
70
100
AcDbEntity
  8
HONTAI
 62
     2
420
 16776960
370
    25
100
AcDbLine
 10
355.2275358967541
 20
249.7427067561408
 30
0.0
 11
355.9260881668972
 21
253.4841179463085
 31
0.0
  0
LINE
  5
251
330
70
100
AcDbEntity
  8
HONTAI
 62
     2
420
 16776960
370
    25
100
AcDbLine
 10
355.9260881668972
 20
253.4841179463085
 30
0.0
 11
352.3802527223856
 21
257.6811263520625
 31
0.0
  0
LINE
  5
252
330
70
100
AcDbEntity
  8
HONTAI
 62
     2
420
 16776960
370
    25
100
AcDbLine
 10
355.9260881668972
 20
253.4841179463085
 30
0.0
 11
359.5492962541895
 21
257.1806329879121
 31
0.0
  0
LINE
  5
253
330
70
100
AcDbEntity
  8
HONTAI
 62
     2
420
 16776960
370
    25
100
AcDbLine
 10
359.5492962541895
 20
257.1806329879121
 30
0.0
 11
358.2388895207544
 21
259.9144337971278
 31
0.0
  0
LINE
  5
254
330
70
100
AcDbEntity
  8
HONTAI
 62
     2
420
 16776960
370
    25
100
AcDbLine
 10
358.2388895207544
 20
259.9144337971278
 30
0.0
 11
354.769933899666
 21
257.1035514656803
 31
0.0
  0
LINE
  5
255
330
70
100
AcDbEntity
  8
HONTAI
 62
     2
420
 16776960
370
    25
100
AcDbLine
 10
354.769933899666
 20
257.1035514656803
 30
0.0
 11
352.0350236793494
 21
259.9063641214609
 31
0.0
  0
LINE
  5
256
330
70
100
AcDbEntity
  8
HONTAI
 62
     2
420
 16776960
370
    25
100
AcDbLine
 10
363.0204695625271
 20
248.5775481961347
 30
0.0
 11
363.0204695625271
 21
252.3289681735237
 31
0.0
  0
LINE
  5
257
330
70
100
AcDbEntity
  8
HONTAI
 62
     2
420
 16776960
370
    25
100
AcDbLine
 10
363.0204695625271
 20
252.3289681735237
 30
0.0
 11
366.3332014399407
 21
256.1409266550315
 31
0.0
  0
LINE
  5
258
330
70
100
AcDbEntity
  8
HONTAI
 62
     2
420
 16776960
370
    25
100
AcDbLine
 10
366.3332014399407
 20
256.1409266550315
 30
0.0
 11
364.4060312514964
 21
259.1828747097282
 31
0.0
  0
LINE
  5
259
330
70
100
AcDbEntity
  8
HONTAI
 62
     2
420
 16776960
370
    25
100
AcDbLine
 10
364.4060312514964
 20
259.1828747097282
 30
0.0
 11
361.3957229694116
 21
257.2757493167474
 31
0.0
  0
LINE
  5
25A
330
70
100
AcDbEntity
  8
HONTAI
 62
     2
420
 16776960
370
    25
100
AcDbLine
 10
361.3957229694116
 20
257.2757493167474
 30
0.0
 11
358.2388895207544
 21
259.9144337971278
 31
0.0
  0
LINE
  5
25B
330
70
100
AcDbEntity
  8
HONTAI
 62
     2
420
 16776960
370
    25
100
AcDbLine
 10
359.5492962541895
 20
257.1806329879121
 30
0.0
 11
363.0204695625271
 21
252.3289681735237
 31
0.0
  0
LINE
  5
25C
330
70
100
AcDbEntity
  8
HONTAI
 62
     2
420
 16776960
370
    25
100
AcDbLine
 10
366.3332014399407
 20
256.1409266550315
 30
0.0
 11
369.7314374798933
 21
250.7452200990721
 31
0.0
  0
LINE
  5
25D
330
70
100
AcDbEntity
  8
HONTAI
 62
     2
420
 16776960
370
    25
100
AcDbLine
 10
369.7314374798933
 20
250.7452200990721
 30
0.0
 11
369.0614495317678
 21
247.2843312884104
 31
0.0
  0
LINE
  5
25E
330
70
100
AcDbEntity
  8
HONTAI
 62
     2
420
 16776960
370
    25
100
AcDbLine
 10
369.7314374798933
 20
250.7452200990721
 30
0.0
 11
373.7136644860719
 21
254.7621331617045
 31
0.0
  0
LINE
  5
25F
330
70
100
AcDbEntity
  8
HONTAI
 62
     2
420
 16776960
370
    25
100
AcDbLine
 10
373.7136644860719
 20
254.7621331617045
 30
0.0
 11
371.0847194994396
 21
258.0066214111351
 31
0.0
  0
LINE
  5
260
330
70
100
AcDbEntity
  8
HONTAI
 62
     2
420
 16776960
370
    25
100
AcDbLine
 10
371.0847194994396
 20
258.0066214111351
 30
0.0
 11
368.412814287416
 21
255.8416291929796
 31
0.0
  0
LINE
  5
261
330
70
100
AcDbEntity
  8
HONTAI
 62
     2
420
 16776960
370
    25
100
AcDbLine
 10
368.412814287416
 20
255.8416291929796
 30
0.0
 11
364.4060312514964
 21
259.1828747097282
 31
0.0
  0
LINE
  5
262
330
70
100
AcDbEntity
  8
HONTAI
 62
     2
420
 16776960
370
    25
100
AcDbLine
 10
373.7136644860719
 20
254.7621331617045
 30
0.0
 11
376.6907863651905
 21
249.2389112337188
 31
0.0
  0
LINE
  5
263
330
70
100
AcDbEntity
  8
HONTAI
 62
     2
420
 16776960
370
    25
100
AcDbLine
 10
376.6907863651905
 20
249.2389112337188
 30
0.0
 11
375.6297462384354
 21
246.0869744640103
 31
0.0
  0
LINE
  5
264
330
70
100
AcDbEntity
  8
HONTAI
 62
     2
420
 16776960
370
    25
100
AcDbLine
 10
376.6907863651905
 20
249.2389112337188
 30
0.0
 11
380.1318976913225
 21
252.8309817069152
 31
0.0
  0
LINE
  5
265
330
70
100
AcDbEntity
  8
HONTAI
 62
     2
420
 16776960
370
    25
100
AcDbLine
 10
380.1318976913225
 20
252.8309817069152
 30
0.0
 11
377.2321484549526
 21
256.2299012659509
 31
0.0
  0
LINE
  5
266
330
70
100
AcDbEntity
  8
HONTAI
 62
     2
420
 16776960
370
    25
100
AcDbLine
 10
377.2321484549526
 20
256.2299012659509
 30
0.0
 11
374.641643380032
 21
254.91665389305
 31
0.0
  0
LINE
  5
267
330
70
100
AcDbEntity
  8
HONTAI
 62
     2
420
 16776960
370
    25
100
AcDbLine
 10
374.641643380032
 20
254.91665389305
 30
0.0
 11
371.0847194994396
 21
258.0066214111351
 31
0.0
  0
LINE
  5
268
330
70
100
AcDbEntity
  8
HONTAI
 62
     2
420
 16776960
370
    25
100
AcDbLine
 10
380.1318976913225
 20
252.8309817069152
 30
0.0
 11
382.8771480517716
 21
247.2304099915356
 31
0.0
  0
LINE
  5
269
330
70
100
AcDbEntity
  8
HONTAI
 62
     2
420
 16776960
370
    25
100
AcDbLine
 10
382.8771480517716
 20
247.2304099915356
 30
0.0
 11
380.9995062111196
 21
243.5006300702701
 31
0.0
  0
LINE
  5
26A
330
70
100
AcDbEntity
  8
HONTAI
 62
     2
420
 16776960
370
    25
100
AcDbLine
 10
382.8771480517716
 20
247.2304099915356
 30
0.0
 11
386.4340719323651
 21
250.5520691848985
 31
0.0
  0
LINE
  5
26B
330
70
100
AcDbEntity
  8
HONTAI
 62
     2
420
 16776960
370
    25
100
AcDbLine
 10
386.4340719323651
 20
250.5520691848985
 30
0.0
 11
383.2250785346117
 21
254.5304414864395
 31
0.0
  0
LINE
  5
26C
330
70
100
AcDbEntity
  8
HONTAI
 62
     2
420
 16776960
370
    25
100
AcDbLine
 10
383.2250785346117
 20
254.5304414864395
 30
0.0
 11
380.7506324238308
 21
253.3330846620253
 31
0.0
  0
LINE
  5
26D
330
70
100
AcDbEntity
  8
HONTAI
 62
     2
420
 16776960
370
    25
100
AcDbLine
 10
380.7506324238308
 20
253.3330846620253
 30
0.0
 11
377.2321484549526
 21
256.2299012659509
 31
0.0
  0
LINE
  5
26E
330
70
100
AcDbEntity
  8
HONTAI
 62
     2
420
 16776960
370
    25
100
AcDbLine
 10
386.6629865347442
 20
251.0823399816562
 30
0.0
 11
388.7451484183951
 21
251.6261134580805
 31
0.0
  0
LINE
  5
26F
330
70
100
AcDbEntity
  8
HONTAI
 62
     2
420
 16776960
370
    25
100
AcDbLine
 10
388.7451484183951
 20
251.6261134580805
 30
0.0
 11
392.50708516138
 21
247.7128401683523
 31
0.0
  0
LINE
  5
270
330
70
100
AcDbEntity
  8
HONTAI
 62
     2
420
 16776960
370
    25
100
AcDbLine
 10
392.50708516138
 20
247.7128401683523
 30
0.0
 11
389.4001617699513
 21
244.7260696571935
 31
0.0
  0
LINE
  5
271
330
70
100
AcDbEntity
  8
HONTAI
 62
     2
420
 16776960
370
    25
100
AcDbLine
 10
389.4001617699513
 20
244.7260696571935
 30
0.0
 11
386.4340719323651
 21
250.5520691848985
 31
0.0
  0
LINE
  5
272
330
70
100
AcDbEntity
  8
HONTAI
 62
     2
420
 16776960
370
    25
100
AcDbLine
 10
389.4001617699513
 20
244.7260696571935
 30
0.0
 11
386.7137469309316
 21
241.48908848962
 31
0.0
  0
LINE
  5
273
330
70
100
AcDbEntity
  8
HONTAI
 62
     2
420
 16776960
370
    25
100
AcDbLine
 10
392.8653648511956
 20
248.0580974274395
 30
0.0
 11
394.8341782772842
 21
248.7201758387746
 31
0.0
  0
LINE
  5
274
330
70
100
AcDbEntity
  8
HONTAI
 62
     2
420
 16776960
370
    25
100
AcDbLine
 10
394.8341782772842
 20
248.7201758387746
 30
0.0
 11
398.4798096464177
 21
244.7682723662197
 31
0.0
  0
LINE
  5
275
330
70
100
AcDbEntity
  8
HONTAI
 62
     2
420
 16776960
370
    25
100
AcDbLine
 10
398.4798096464177
 20
244.7682723662197
 30
0.0
 11
395.2440595055864
 21
241.7832925209353
 31
0.0
  0
LINE
  5
276
330
70
100
AcDbEntity
  8
HONTAI
 62
     2
420
 16776960
370
    25
100
AcDbLine
 10
395.2440595055864
 20
241.7832925209353
 30
0.0
 11
392.5070851613839
 21
247.7128401683459
 31
0.0
  0
LINE
  5
277
330
70
100
AcDbEntity
  8
HONTAI
 62
     2
420
 16776960
370
    25
100
AcDbLine
 10
386.6629865347442
 20
251.0823399816562
 30
0.0
 11
383.2250785346117
 21
254.5304414864395
 31
0.0
  0
LINE
  5
278
330
70
100
AcDbEntity
  8
HONTAI
 62
     2
420
 16776960
370
    25
100
AcDbLine
 10
392.8653648511956
 20
248.0580974274395
 30
0.0
 11
388.7451484183951
 21
251.6261134580805
 31
0.0
  0
LINE
  5
279
330
70
100
AcDbEntity
  8
HONTAI
 62
     2
420
 16776960
370
    25
100
AcDbLine
 10
395.2440595055864
 20
241.7832925209353
 30
0.0
 11
393.1861902680512
 21
238.9871581991244
 31
0.0
  0
LINE
  5
27A
330
70
100
AcDbEntity
  8
HONTAI
 62
     2
420
 16776960
370
    25
100
AcDbLine
 10
399.1313168677773
 20
235.7781703723531
 30
0.0
 11
401.3689632660657
 21
238.7853333781468
 31
0.0
  0
LINE
  5
27B
330
70
100
AcDbEntity
  8
HONTAI
 62
     2
420
 16776960
370
    25
100
AcDbLine
 10
401.3689632660657
 20
238.7853333781468
 30
0.0
 11
404.6565613550631
 21
241.4805040045549
 31
0.0
  0
LINE
  5
27C
330
70
100
AcDbEntity
  8
HONTAI
 62
     2
420
 16776960
370
    25
100
AcDbLine
 10
404.6565613550631
 20
241.4805040045549
 30
0.0
 11
406.070213748771
 21
234.8900338540516
 31
0.0
  0
LINE
  5
27D
330
70
100
AcDbEntity
  8
HONTAI
 62
     2
420
 16776960
370
    25
100
AcDbLine
 10
406.070213748771
 20
234.8900338540516
 30
0.0
 11
404.2613202117145
 21
232.3775518006558
 31
0.0
  0
LINE
  5
27E
330
70
100
AcDbEntity
  8
HONTAI
 62
     2
420
 16776960
370
    25
100
AcDbLine
 10
401.3689632660657
 20
238.7853333781468
 30
0.0
 11
398.4798096464177
 21
244.7682723662197
 31
0.0
  0
LINE
  5
27F
330
70
100
AcDbEntity
  8
HONTAI
 62
     2
420
 16776960
370
    25
100
AcDbLine
 10
398.4798096464177
 20
244.7682723662197
 30
0.0
 11
400.5725671467595
 21
245.2856664353778
 31
0.0
  0
LINE
  5
280
330
70
100
AcDbEntity
  8
HONTAI
 62
     2
420
 16776960
370
    25
100
AcDbLine
 10
400.5725671467595
 20
245.2856664353778
 30
0.0
 11
404.6565613550631
 21
241.4805040045549
 31
0.0
  0
LINE
  5
281
330
70
100
AcDbEntity
  8
HONTAI
 62
     2
420
 16776960
370
    25
100
AcDbLine
 10
406.070213748771
 20
234.8900338540516
 30
0.0
 11
409.7606916815162
 21
237.8446168887899
 31
0.0
  0
LINE
  5
282
330
70
100
AcDbEntity
  8
HONTAI
 62
     2
420
 16776960
370
    25
100
AcDbLine
 10
409.7606916815162
 20
237.8446168887899
 30
0.0
 11
410.9836229748398
 21
230.9475196620454
 31
0.0
  0
LINE
  5
283
330
70
100
AcDbEntity
  8
HONTAI
 62
     2
420
 16776960
370
    25
100
AcDbLine
 10
410.9836229748398
 20
230.9475196620454
 30
0.0
 11
408.5367747494038
 21
228.4333385959688
 31
0.0
  0
LINE
  5
284
330
70
100
AcDbEntity
  8
HONTAI
 62
     2
420
 16776960
370
    25
100
AcDbLine
 10
409.7606916815162
 20
237.8446168887899
 30
0.0
 11
406.0522258413629
 21
241.6281392634764
 31
0.0
  0
LINE
  5
285
330
70
100
AcDbEntity
  8
HONTAI
 62
     2
420
 16776960
370
    25
100
AcDbLine
 10
406.0522258413629
 20
241.6281392634764
 30
0.0
 11
404.6565613550631
 21
241.4805040045549
 31
0.0
  0
LINE
  5
286
330
70
100
AcDbEntity
  8
HONTAI
 62
     2
420
 16776960
370
    25
100
AcDbLine
 10
410.9836229748398
 20
230.9475196620454
 30
0.0
 11
413.9415248981206
 21
233.1341489695149
 31
0.0
  0
LINE
  5
287
330
70
100
AcDbEntity
  8
HONTAI
 62
     2
420
 16776960
370
    25
100
AcDbLine
 10
413.9415248981206
 20
233.1341489695149
 30
0.0
 11
409.7606916815162
 21
237.8446168887899
 31
0.0
  0
LINE
  5
288
330
70
100
AcDbEntity
  8
HONTAI
 62
     2
420
 16776960
370
    25
100
AcDbLine
 10
413.9415248981206
 20
233.1341489695149
 30
0.0
 11
415.3288114549454
 21
226.7195713413199
 31
0.0
  0
LINE
  5
289
330
70
100
AcDbEntity
  8
HONTAI
 62
     2
420
 16776960
370
    25
100
AcDbLine
 10
415.3288114549454
 20
226.7195713413199
 30
0.0
 11
417.4297004750801
 21
228.2242706157314
 31
0.0
  0
LINE
  5
28A
330
70
100
AcDbEntity
  8
HONTAI
 62
     2
420
 16776960
370
    25
100
AcDbLine
 10
417.4297004750801
 20
228.2242706157314
 30
0.0
 11
413.9415248981206
 21
233.1341489695149
 31
0.0
  0
LINE
  5
28B
330
70
100
AcDbEntity
  8
HONTAI
 62
     2
420
 16776960
370
    25
100
AcDbLine
 10
415.3288114549454
 20
226.7195713413199
 30
0.0
 11
412.2765346202631
 21
224.5059366745569
 31
0.0
  0
LINE
  5
28C
330
70
100
AcDbEntity
  8
HONTAI
 62
     2
420
 16776960
370
    25
100
AcDbLine
 10
417.4297004750801
 20
228.2242706157314
 30
0.0
 11
418.3014979596321
 21
221.7700791657861
 31
0.0
  0
LINE
  5
28D
330
70
100
AcDbEntity
  8
HONTAI
 62
     2
420
 16776960
370
    25
100
AcDbLine
 10
418.3014979596321
 20
221.7700791657861
 30
0.0
 11
415.8721448222464
 21
219.9080507001794
 31
0.0
  0
LINE
  5
28E
330
70
100
AcDbEntity
  8
HONTAI
 62
     2
420
 16776960
370
    25
100
AcDbLine
 10
418.3014979596321
 20
221.7700791657861
 30
0.0
 11
421.3535283846374
 21
223.829103679503
 31
0.0
  0
LINE
  5
28F
330
70
100
AcDbEntity
  8
HONTAI
 62
     2
420
 16776960
370
    25
100
AcDbLine
 10
421.3535283846374
 20
223.829103679503
 30
0.0
 11
417.4297004750801
 21
228.2242706157314
 31
0.0
  0
LINE
  5
290
330
70
100
AcDbEntity
  8
HONTAI
 62
     2
420
 16776960
370
    25
100
AcDbLine
 10
421.3535283846374
 20
223.829103679503
 30
0.0
 11
421.3535283846374
 21
217.8897130688456
 31
0.0
  0
LINE
  5
291
330
70
100
AcDbEntity
  8
HONTAI
 62
     2
420
 16776960
370
    25
100
AcDbLine
 10
421.3535283846374
 20
217.8897130688456
 30
0.0
 11
423.8109722267605
 21
219.3151846997427
 31
0.0
  0
LINE
  5
292
330
70
100
AcDbEntity
  8
HONTAI
 62
     2
420
 16776960
370
    25
100
AcDbLine
 10
423.8109722267605
 20
219.3151846997427
 30
0.0
 11
421.3535283846374
 21
223.829103679503
 31
0.0
  0
LINE
  5
293
330
70
100
AcDbEntity
  8
HONTAI
 62
     2
420
 16776960
370
    25
100
AcDbLine
 10
421.3535283846374
 20
217.8897130688456
 30
0.0
 11
417.9819045912435
 21
215.5974767106174
 31
0.0
  0
LINE
  5
294
330
70
100
AcDbEntity
  8
HONTAI
 62
     2
420
 16776960
370
    25
100
AcDbLine
 10
423.8109722267605
 20
219.3151846997427
 30
0.0
 11
423.8109722267605
 21
212.9893134173191
 31
0.0
  0
LINE
  5
295
330
70
100
AcDbEntity
  8
HONTAI
 62
     2
420
 16776960
370
    25
100
AcDbLine
 10
423.8109722267605
 20
212.9893134173191
 30
0.0
 11
420.8631731008116
 21
211.2654415083781
 31
0.0
  0
LINE
  5
296
330
70
100
AcDbEntity
  8
HONTAI
 62
     2
420
 16776960
370
    25
100
AcDbLine
 10
423.8109722267605
 20
212.9893134173191
 30
0.0
 11
425.8327637362897
 21
214.4680803930612
 31
0.0
  0
LINE
  5
297
330
70
100
AcDbEntity
  8
HONTAI
 62
     2
420
 16776960
370
    25
100
AcDbLine
 10
425.8327637362897
 20
214.4680803930612
 30
0.0
 11
423.8109722267605
 21
217.4716223255101
 31
0.0
  0
LINE
  5
298
330
70
100
AcDbEntity
  8
HONTAI
 62
     2
420
 16776960
370
    25
100
AcDbLine
 10
425.8327637362897
 20
214.4680803930612
 30
0.0
 11
425.3687742893096
 21
208.6946564938416
 31
0.0
  0
LINE
  5
299
330
70
100
AcDbEntity
  8
HONTAI
 62
     2
420
 16776960
370
    25
100
AcDbLine
 10
425.3687742893096
 20
208.6946564938416
 30
0.0
 11
422.9729328698087
 21
207.1943388836959
 31
0.0
  0
LINE
  5
29A
330
70
100
AcDbEntity
  8
HONTAI
 62
     2
420
 16776960
370
    25
100
AcDbLine
 10
425.3687742893096
 20
208.6946564938416
 30
0.0
 11
427.1717539938237
 21
209.6153425180411
 31
0.0
  0
LINE
  5
29B
330
70
100
AcDbEntity
  8
HONTAI
 62
     2
420
 16776960
370
    25
100
AcDbLine
 10
427.1717539938237
 20
209.6153425180411
 30
0.0
 11
425.7242257747832
 21
213.1175417870274
 31
0.0
  0
LINE
  5
29C
330
70
100
AcDbEntity
  8
HONTAI
 62
     2
420
 16776960
370
    25
100
AcDbLine
 10
427.1717539938237
 20
209.6153425180411
 30
0.0
 11
426.6126504063331
 21
204.4770810925817
 31
0.0
  0
LINE
  5
29D
330
70
100
AcDbEntity
  8
HONTAI
 62
     2
420
 16776960
370
    25
100
AcDbLine
 10
426.6126504063331
 20
204.4770810925817
 30
0.0
 11
423.8836630854339
 21
202.7183347130177
 31
0.0
  0
LINE
  5
29E
330
70
100
AcDbEntity
  8
HONTAI
 62
     2
420
 16776960
370
    25
100
AcDbLine
 10
426.6126504063331
 20
204.4770810925817
 30
0.0
 11
427.9452340118951
 21
205.1225270640814
 31
0.0
  0
LINE
  5
29F
330
70
100
AcDbEntity
  8
HONTAI
 62
     2
420
 16776960
370
    25
100
AcDbLine
 10
427.9452340118951
 20
205.1225270640814
 30
0.0
 11
427.073929346738
 21
208.0818494499469
 31
0.0
  0
LINE
  5
2A0
330
70
100
AcDbEntity
  8
HONTAI
 62
     2
420
 16776960
370
    25
100
AcDbLine
 10
427.9452340118951
 20
205.1225270640814
 30
0.0
 11
427.226210535371
 21
199.410714729611
 31
0.0
  0
LINE
  5
2A1
330
70
100
AcDbEntity
  8
HONTAI
 62
     2
420
 16776960
370
    25
100
AcDbLine
 10
427.226210535371
 20
199.410714729611
 30
0.0
 11
424.746589821121
 21
197.9767480353699
 31
0.0
  0
LINE
  5
2A2
330
70
100
AcDbEntity
  8
HONTAI
 62
     2
420
 16776960
370
    25
100
AcDbLine
 10
427.5857222736356
 20
202.2666208968468
 30
0.0
 11
428.277394274511
 21
199.9327587281983
 31
0.0
  0
LINE
  5
2A3
330
70
100
AcDbEntity
  8
HONTAI
 62
     2
420
 16776960
370
    25
100
AcDbLine
 10
428.277394274511
 20
199.9327587281983
 30
0.0
 11
427.226210535371
 21
199.410714729611
 31
0.0
  0
LINE
  5
2A4
330
70
100
AcDbEntity
  8
HONTAI
 62
     2
420
 16776960
370
    25
100
AcDbLine
 10
428.277394274511
 20
199.9327587281983
 30
0.0
 11
428.1147638788679
 21
195.759894186699
 31
0.0
  0
LINE
  5
2A5
330
70
100
AcDbEntity
  8
HONTAI
 62
     2
420
 16776960
370
    25
100
AcDbLine
 10
428.1147638788679
 20
195.759894186699
 30
0.0
 11
424.1712231941138
 21
194.097186733899
 31
0.0
  0
LINE
  5
2A6
330
70
100
AcDbEntity
  8
HONTAI
 62
     2
420
 16776960
370
    25
100
AcDbLine
 10
428.277394274511
 20
199.9327587281983
 30
0.0
 11
427.2501122753561
 21
195.3953327988033
 31
0.0
  0
LINE
  5
2A7
330
70
100
AcDbEntity
  8
HONTAI
 62
     2
420
 16776960
370
    25
100
AcDbLine
 10
428.1147638788679
 20
195.759894186699
 30
0.0
 11
426.8812369688534
 21
190.3680327646826
 31
0.0
  0
LINE
  5
2A8
330
70
100
AcDbEntity
  8
HONTAI
 62
     2
420
 16776960
370
    25
100
AcDbLine
 10
426.8812369688534
 20
190.3680327646826
 30
0.0
 11
424.26732297334
 21
190.5529568806448
 31
0.0
  0
LINE
  5
2A9
330
70
100
AcDbEntity
  8
HONTAI
 62
     2
420
 16776960
370
    25
100
AcDbLine
 10
426.8812369688534
 20
190.3680327646826
 30
0.0
 11
425.6753079441503
 21
185.7979569450708
 31
0.0
  0
LINE
  5
2AA
330
70
100
AcDbEntity
  8
HONTAI
 62
     2
420
 16776960
370
    25
100
AcDbLine
 10
425.6753079441503
 20
185.7979569450708
 30
0.0
 11
424.0275663445956
 21
186.1466122294798
 31
0.0
  0
LINE
  5
2AB
330
70
100
AcDbEntity
  8
HONTAI
 62
     2
420
 16776960
370
    25
100
AcDbLine
 10
425.6753079441503
 20
185.7979569450708
 30
0.0
 11
424.5107757474468
 21
182.3080954972727
 31
0.0
  0
LINE
  5
2AC
330
70
100
AcDbEntity
  8
HONTAI
 62
     2
420
 16776960
370
    25
100
AcDbLine
 10
424.5107757474468
 20
182.3080954972727
 30
0.0
 11
422.2553878514299
 21
182.3370681344091
 31
0.0
  0
LINE
  5
2AD
330
70
100
AcDbEntity
  8
HONTAI
 62
     2
420
 16776960
370
    25
100
AcDbLine
 10
424.5107757474468
 20
182.3080954972727
 30
0.0
 11
423.6034952674724
 21
178.3775638156945
 31
0.0
  0
LINE
  5
2AE
330
70
100
AcDbEntity
  8
HONTAI
 62
     2
420
 16776960
370
    25
100
AcDbLine
 10
423.6034952674724
 20
178.3775638156945
 30
0.0
 11
421.6156276270096
 21
178.836421205248
 31
0.0
  0
LINE
  5
2AF
330
70
100
AcDbEntity
  8
HONTAI
 62
     2
420
 16776960
370
    25
100
AcDbLine
 10
421.6156276270096
 20
178.836421205248
 30
0.0
 11
421.6428133611408
 21
175.1684865672085
 31
0.0
  0
LINE
  5
2B0
330
70
100
AcDbEntity
  8
HONTAI
 62
     2
420
 16776960
370
    25
100
AcDbLine
 10
421.6428133611408
 20
175.1684865672085
 30
0.0
 11
419.9928540744036
 21
174.8519336800969
 31
0.0
  0
LINE
  5
2B1
330
70
100
AcDbEntity
  8
HONTAI
 62
     2
420
 16776960
370
    25
100
AcDbLine
 10
419.9928540744036
 20
174.8519336800969
 30
0.0
 11
419.7237746924894
 21
170.8343052436942
 31
0.0
  0
LINE
  5
2B2
330
70
100
AcDbEntity
  8
HONTAI
 62
     2
420
 16776960
370
    25
100
AcDbLine
 10
419.7237746924894
 20
170.8343052436942
 30
0.0
 11
417.9311441950201
 21
170.7808310554135
 31
0.0
  0
LINE
  5
2B3
330
70
100
AcDbEntity
  8
HONTAI
 62
     2
420
 16776960
370
    25
100
AcDbLine
 10
417.9311441950201
 20
170.7808310554135
 30
0.0
 11
417.0539256972848
 21
167.2085227822341
 31
0.0
  0
LINE
  5
2B4
330
70
100
AcDbEntity
  8
HONTAI
 62
     2
420
 16776960
370
    25
100
AcDbLine
 10
417.0539256972848
 20
167.2085227822341
 30
0.0
 11
415.1504108391114
 21
167.1407411188364
 31
0.0
  0
LINE
  5
2B5
330
70
100
AcDbEntity
  8
HONTAI
 62
     2
420
 16776960
370
    25
100
AcDbLine
 10
415.1504108391114
 20
167.1407411188364
 30
0.0
 11
414.3734810853572
 21
163.7778585127751
 31
0.0
  0
LINE
  5
2B6
330
70
100
AcDbEntity
  8
HONTAI
 62
     2
420
 16776960
370
    25
100
AcDbLine
 10
414.3734810853572
 20
163.7778585127751
 30
0.0
 11
412.2257742240397
 21
164.2740451354874
 31
0.0
  0
LINE
  5
2B7
330
70
100
AcDbEntity
  8
HONTAI
 62
     2
420
 16776960
370
    25
100
AcDbLine
 10
412.2257742240397
 20
164.2740451354874
 30
0.0
 11
410.8894944731153
 21
160.4650520696316
 31
0.0
  0
LINE
  5
2B8
330
70
100
AcDbEntity
  8
HONTAI
 62
     2
420
 16776960
370
    25
100
AcDbLine
 10
410.8894944731153
 20
160.4650520696316
 30
0.0
 11
409.0616273899352
 21
161.0580969135041
 31
0.0
  0
LINE
  5
2B9
330
70
100
AcDbEntity
  8
HONTAI
 62
     2
420
 16776960
370
    25
100
AcDbLine
 10
409.0616273899352
 20
161.0580969135041
 30
0.0
 11
408.0182508391042
 21
157.8422293912827
 31
0.0
  0
LINE
  5
2BA
330
70
100
AcDbEntity
  8
HONTAI
 62
     2
420
 16776960
370
    25
100
AcDbLine
 10
408.0182508391042
 20
157.8422293912827
 30
0.0
 11
406.0779513549131
 21
158.4717525197703
 31
0.0
  0
LINE
  5
2BB
330
70
100
AcDbEntity
  8
HONTAI
 62
     2
420
 16776960
370
    25
100
AcDbLine
 10
406.0779513549131
 20
158.4717525197703
 30
0.0
 11
404.3830465987506
 21
154.8038524284147
 31
0.0
  0
LINE
  5
2BC
330
70
100
AcDbEntity
  8
HONTAI
 62
     2
420
 16776960
370
    25
100
AcDbLine
 10
404.3830465987506
 20
154.8038524284147
 30
0.0
 11
402.3393246267766
 21
155.1888129309603
 31
0.0
  0
LINE
  5
2BD
330
70
100
AcDbEntity
  8
HONTAI
 62
     2
420
 16776960
370
    25
100
AcDbLine
 10
402.3393246267766
 20
155.1888129309603
 30
0.0
 11
400.2273471705623
 21
152.0361607874957
 31
0.0
  0
LINE
  5
2BE
330
70
100
AcDbEntity
  8
HONTAI
 62
     2
420
 16776960
370
    25
100
AcDbLine
 10
400.2273471705623
 20
152.0361607874957
 30
0.0
 11
398.120297908139
 21
152.5066978756247
 31
0.0
  0
LINE
  5
2BF
330
70
100
AcDbEntity
  8
HONTAI
 62
     2
420
 16776960
370
    25
100
AcDbLine
 10
398.120297908139
 20
152.5066978756247
 30
0.0
 11
396.1468026979377
 21
149.6785571522875
 31
0.0
  0
LINE
  5
2C0
330
70
100
AcDbEntity
  8
HONTAI
 62
     2
420
 16776960
370
    25
100
AcDbLine
 10
396.1468026979377
 20
149.6785571522875
 30
0.0
 11
393.3737080424283
 21
150.0640541851483
 31
0.0
  0
LINE
  5
2C1
330
70
100
AcDbEntity
  8
HONTAI
 62
     2
420
 16776960
370
    25
100
AcDbLine
 10
393.3737080424283
 20
150.0640541851483
 30
0.0
 11
391.907077565317
 21
148.0431233239623
 31
0.0
  0
LINE
  5
2C2
330
70
100
AcDbEntity
  8
HONTAI
 62
     2
420
 16776960
370
    25
100
AcDbLine
 10
391.907077565317
 20
148.0431233239623
 30
0.0
 11
389.3944379525375
 21
148.0431233239623
 31
0.0
  0
LINE
  5
2C3
330
70
100
AcDbEntity
  8
HONTAI
 62
     2
420
 16776960
370
    25
100
AcDbLine
 10
389.3944379525375
 20
148.0431233239623
 30
0.0
 11
387.541437080908
 21
145.4431868288484
 31
0.0
  0
LINE
  5
2C4
330
70
100
AcDbEntity
  8
HONTAI
 62
     2
420
 16776960
370
    25
100
AcDbLine
 10
387.541437080908
 20
145.4431868288484
 30
0.0
 11
385.8466312305243
 21
145.7056395756441
 31
0.0
  0
LINE
  5
2C5
330
70
100
AcDbEntity
  8
HONTAI
 62
     2
420
 16776960
370
    25
100
AcDbLine
 10
385.8466312305243
 20
145.7056395756441
 30
0.0
 11
382.9658555403154
 21
143.2206994118583
 31
0.0
  0
LINE
  5
2C6
330
70
100
AcDbEntity
  8
HONTAI
 62
     2
420
 16776960
370
    25
100
AcDbLine
 10
382.9658555403154
 20
143.2206994118583
 30
0.0
 11
380.3283637077563
 21
143.7868176769607
 31
0.0
  0
LINE
  5
2C7
330
70
100
AcDbEntity
  8
HONTAI
 62
     2
420
 16776960
370
    25
100
AcDbLine
 10
380.3283637077563
 20
143.7868176769607
 30
0.0
 11
377.8393019320571
 21
141.2271315968284
 31
0.0
  0
LINE
  5
2C8
330
70
100
AcDbEntity
  8
HONTAI
 62
     2
420
 16776960
370
    25
100
AcDbLine
 10
377.8393019320571
 20
141.2271315968284
 30
0.0
 11
374.8668035422432
 21
142.5545354578673
 31
0.0
  0
LINE
  5
2C9
330
70
100
AcDbEntity
  8
HONTAI
 62
     2
420
 16776960
370
    25
100
AcDbLine
 10
374.8668035422432
 20
142.5545354578673
 30
0.0
 11
373.0976402601386
 21
140.2138046712062
 31
0.0
  0
LINE
  5
2CA
330
70
100
AcDbEntity
  8
HONTAI
 62
     2
420
 16776960
370
    25
100
AcDbLine
 10
373.0976402601386
 20
140.2138046712062
 30
0.0
 11
371.2880074940114
 21
140.8999375250954
 31
0.0
  0
LINE
  5
2CB
330
70
100
AcDbEntity
  8
HONTAI
 62
     2
420
 16776960
370
    25
100
AcDbLine
 10
371.2880074940114
 20
140.8999375250954
 30
0.0
 11
367.4004018089498
 21
138.6704752139679
 31
0.0
  0
LINE
  5
2CC
330
70
100
AcDbEntity
  8
HONTAI
 62
     2
420
 16776960
370
    25
100
AcDbLine
 10
367.4004018089498
 20
138.6704752139679
 30
0.0
 11
366.7814206667285
 21
139.463109335822
 31
0.0
  0
LINE
  5
2CD
330
70
100
AcDbEntity
  8
HONTAI
 62
     2
420
 16776960
370
    25
100
AcDbLine
 10
366.7814206667285
 20
139.463109335822
 30
0.0
 11
362.0348308010165
 21
137.595179036721
 31
0.0
  0
LINE
  5
2CE
330
70
100
AcDbEntity
  8
HONTAI
 62
     2
420
 16776960
370
    25
100
AcDbLine
 10
358.9505703090642
 20
139.1663446015637
 30
0.0
 11
357.0006808266285
 21
136.8288349004133
 31
0.0
  0
LINE
  5
2CF
330
70
100
AcDbEntity
  8
HONTAI
 62
     2
420
 16776960
370
    25
100
AcDbLine
 10
362.0348308010165
 20
137.595179036721
 30
0.0
 11
358.9505703090642
 21
139.1663446015637
 31
0.0
  0
LINE
  5
2D0
330
70
100
AcDbEntity
  8
HONTAI
 62
     2
420
 16776960
370
    25
100
AcDbLine
 10
357.0006808266285
 20
136.8288349004133
 30
0.0
 11
353.4711084216669
 21
138.2629804381145
 31
0.0
  0
LINE
  5
2D1
330
70
100
AcDbEntity
  8
HONTAI
 62
     2
420
 16776960
370
    25
100
AcDbLine
 10
353.4711084216669
 20
138.2629804381145
 30
0.0
 11
351.65512623747
 21
136.0122178427724
 31
0.0
  0
LINE
  5
2D2
330
70
100
AcDbEntity
  8
HONTAI
 62
     2
420
 16776960
370
    25
100
AcDbLine
 10
392.5630201611085
 20
234.6286541679004
 30
0.0
 11
389.9232147217127
 21
233.899138478795
 31
0.0
  0
LINE
  5
2D3
330
70
100
AcDbEntity
  8
HONTAI
 62
     2
420
 16776960
370
    25
100
AcDbLine
 10
389.9232147217114
 20
233.8991384787886
 30
0.0
 11
390.3631618982876
 21
238.3604305524527
 31
0.0
  0
LINE
  5
2D4
330
70
100
AcDbEntity
  8
HONTAI
 62
     2
420
 16776960
370
    25
100
AcDbLine
 10
386.7137469309316
 20
237.5502405881106
 30
0.0
 11
384.2728125380702
 21
237.5879765537454
 31
0.0
  0
LINE
  5
2D5
330
70
100
AcDbEntity
  8
HONTAI
 62
     2
420
 16776960
370
    25
100
AcDbLine
 10
384.2728125380702
 20
237.5879765537454
 30
0.0
 11
384.9249699717761
 21
241.0882108768462
 31
0.0
  0
LINE
  5
2D6
330
70
100
AcDbEntity
  8
HONTAI
 62
     2
420
 16776960
370
    25
100
AcDbLine
 10
380.0885295857854
 20
240.004330258678
 30
0.0
 11
379.0751473731938
 21
239.3563120198446
 31
0.0
  0
LINE
  5
2D7
330
70
100
AcDbEntity
  8
HONTAI
 62
     2
420
 16776960
370
    25
100
AcDbLine
 10
378.9944688570016
 20
243.1394383804209
 30
0.0
 11
379.0751473731977
 21
239.3563120198446
 31
0.0
  0
LINE
  5
2D8
330
70
100
AcDbEntity
  8
HONTAI
 62
     2
420
 16776960
370
    25
100
AcDbLine
 10
375.150479390657
 20
242.4469739491403
 30
0.0
 11
373.8945339142176
 21
241.6339812704554
 31
0.0
  0
LINE
  5
2D9
330
70
100
AcDbEntity
  8
HONTAI
 62
     2
420
 16776960
370
    25
100
AcDbLine
 10
373.8945339142176
 20
241.633981270449
 30
0.0
 11
373.9307992527519
 21
245.5790461567322
 31
0.0
  0
LINE
  5
2DA
330
70
100
AcDbEntity
  8
HONTAI
 62
     2
420
 16776960
370
    25
100
AcDbLine
 10
369.0614495317678
 20
244.1232735033076
 30
0.0
 11
367.7360429685402
 21
242.9993897344445
 31
0.0
  0
LINE
  5
2DB
330
70
100
AcDbEntity
  8
HONTAI
 62
     2
420
 16776960
370
    25
100
AcDbLine
 10
367.736042968544
 20
242.9993897344445
 30
0.0
 11
367.7175287710746
 21
246.7835544201717
 31
0.0
  0
LINE
  5
2DC
330
70
100
AcDbEntity
  8
HONTAI
 62
     2
420
 16776960
370
    25
100
AcDbLine
 10
363.0204695625271
 20
245.033318342887
 30
0.0
 11
361.8987325570063
 21
243.8399136403426
 31
0.0
  0
LINE
  5
2DD
330
70
100
AcDbEntity
  8
HONTAI
 62
     2
420
 16776960
370
    25
100
AcDbLine
 10
361.8987325570089
 20
243.839913640349
 30
0.0
 11
361.621423636939
 21
248.0778489326116
 31
0.0
  0
LINE
  5
2DE
330
70
100
AcDbEntity
  8
HONTAI
 62
     2
420
 16776960
370
    25
100
AcDbLine
 10
397.1176568780064
 20
231.8507684509412
 30
0.0
 11
395.6198678624785
 21
231.0611565325206
 31
0.0
  0
LINE
  5
2DF
330
70
100
AcDbEntity
  8
HONTAI
 62
     2
420
 16776960
370
    25
100
AcDbLine
 10
395.7291382727327
 20
231.1187622549335
 30
0.0
 11
395.9963892970417
 21
235.2295273674307
 31
0.0
  0
LINE
  5
2E0
330
70
100
AcDbEntity
  8
HONTAI
 62
     2
420
 16776960
370
    25
100
AcDbLine
 10
401.776771303639
 20
228.4333385959688
 30
0.0
 11
400.38949700544
 21
227.7937010594882
 31
0.0
  0
LINE
  5
2E1
330
70
100
AcDbEntity
  8
HONTAI
 62
     2
420
 16776960
370
    25
100
AcDbLine
 10
400.3894970054451
 20
227.7937010594882
 30
0.0
 11
400.712862653766
 21
232.1158837640483
 31
0.0
  0
LINE
  5
2E2
330
70
100
AcDbEntity
  8
HONTAI
 62
     2
420
 16776960
370
    25
100
AcDbLine
 10
405.2017677379127
 20
228.4333385959688
 30
0.0
 11
403.3675922647164
 21
226.1679287536072
 31
0.0
  0
LINE
  5
2E3
330
70
100
AcDbEntity
  8
HONTAI
 62
     2
420
 16776960
370
    25
100
AcDbLine
 10
403.3675922647164
 20
226.1679287536072
 30
0.0
 11
405.4204313952361
 21
224.9848794043241
 31
0.0
  0
LINE
  5
2E4
330
70
100
AcDbEntity
  8
HONTAI
 62
     2
420
 16776960
370
    25
100
AcDbLine
 10
408.8484830077496
 20
224.7454080394444
 30
0.0
 11
406.9124420704763
 21
222.3726027119272
 31
0.0
  0
LINE
  5
2E5
330
70
100
AcDbEntity
  8
HONTAI
 62
     2
420
 16776960
370
    25
100
AcDbLine
 10
406.9124420704763
 20
222.3726027119272
 30
0.0
 11
409.4477513747393
 21
220.9137767796419
 31
0.0
  0
LINE
  5
2E6
330
70
100
AcDbEntity
  8
HONTAI
 62
     2
420
 16776960
370
    25
100
AcDbLine
 10
412.4652400818943
 20
220.4413948945577
 30
0.0
 11
410.2096501373747
 21
218.0600614445364
 31
0.0
  0
LINE
  5
2E7
330
70
100
AcDbEntity
  8
HONTAI
 62
     2
420
 16776960
370
    25
100
AcDbLine
 10
410.2096501373747
 20
218.0600614445364
 30
0.0
 11
413.0914114663364
 21
216.0284893987097
 31
0.0
  0
LINE
  5
2E8
330
70
100
AcDbEntity
  8
HONTAI
 62
     2
420
 16776960
370
    25
100
AcDbLine
 10
413.0914114663364
 20
216.0284893987097
 30
0.0
 11
412.4150168662429
 21
214.2725150924519
 31
0.0
  0
LINE
  5
2E9
330
70
100
AcDbEntity
  8
HONTAI
 62
     2
420
 16776960
370
    25
100
AcDbLine
 10
412.4150168662429
 20
214.2725150924519
 30
0.0
 11
414.4868295429208
 21
212.6064990360498
 31
0.0
  0
LINE
  5
2EA
330
70
100
AcDbEntity
  8
HONTAI
 62
     2
420
 16776960
370
    25
100
AcDbLine
 10
414.4868295429208
 20
212.6064990360498
 30
0.0
 11
414.4819013491312
 21
210.2902082352738
 31
0.0
  0
LINE
  5
2EB
330
70
100
AcDbEntity
  8
HONTAI
 62
     2
420
 16776960
370
    25
100
AcDbLine
 10
414.4819013491312
 20
210.2902082352738
 30
0.0
 11
416.9474435714039
 21
208.5797647214234
 31
0.0
  0
LINE
  5
2EC
330
70
100
AcDbEntity
  8
HONTAI
 62
     2
420
 16776960
370
    25
100
AcDbLine
 10
416.9474435714039
 20
208.5797647214234
 30
0.0
 11
415.8568674214121
 21
205.845054557827
 31
0.0
  0
LINE
  5
2ED
330
70
100
AcDbEntity
  8
HONTAI
 62
     2
420
 16776960
370
    25
100
AcDbLine
 10
415.8568674214121
 20
205.845054557827
 30
0.0
 11
418.0824397449041
 21
204.2727524634728
 31
0.0
  0
LINE
  5
2EE
330
70
100
AcDbEntity
  8
HONTAI
 62
     2
420
 16776960
370
    25
100
AcDbLine
 10
418.0824397449041
 20
204.2727524634728
 30
0.0
 11
416.840781315098
 21
201.9447474174438
 31
0.0
  0
LINE
  5
2EF
330
70
100
AcDbEntity
  8
HONTAI
 62
     2
420
 16776960
370
    25
100
AcDbLine
 10
416.840781315098
 20
201.9447474174438
 30
0.0
 11
419.518347599234
 21
200.1393691661623
 31
0.0
  0
LINE
  5
2F0
330
70
100
AcDbEntity
  8
HONTAI
 62
     2
420
 16776960
370
    25
100
AcDbLine
 10
419.518347599234
 20
200.1393691661623
 30
0.0
 11
417.4341358495119
 21
197.7954902098969
 31
0.0
  0
LINE
  5
2F1
330
70
100
AcDbEntity
  8
HONTAI
 62
     2
420
 16776960
370
    25
100
AcDbLine
 10
417.4341358495119
 20
197.7954902098969
 30
0.0
 11
419.8085396259926
 21
196.3003590594815
 31
0.0
  0
LINE
  5
2F2
330
70
100
AcDbEntity
  8
HONTAI
 62
     2
420
 16776960
370
    25
100
AcDbLine
 10
419.8085396259926
 20
196.3003590594815
 30
0.0
 11
417.2747087798375
 21
193.7498727752888
 31
0.0
  0
LINE
  5
2F3
330
70
100
AcDbEntity
  8
HONTAI
 62
     2
420
 16776960
370
    25
100
AcDbLine
 10
417.2747087798375
 20
193.7498727752888
 30
0.0
 11
420.47926680319
 21
191.9515125739683
 31
0.0
  0
LINE
  5
2F4
330
70
100
AcDbEntity
  8
HONTAI
 62
     2
420
 16776960
370
    25
100
AcDbLine
 10
420.47926680319
 20
191.9515125739683
 30
0.0
 11
417.2288765774385
 21
190.2031391138701
 31
0.0
  0
LINE
  5
2F5
330
70
100
AcDbEntity
  8
HONTAI
 62
     2
420
 16776960
370
    25
100
AcDbLine
 10
417.2288765774385
 20
190.2031391138701
 30
0.0
 11
419.3290263684986
 21
188.9724279881063
 31
0.0
  0
LINE
  5
2F6
330
70
100
AcDbEntity
  8
HONTAI
 62
     2
420
 16776960
370
    25
100
AcDbLine
 10
419.3290263684986
 20
188.9724279881063
 30
0.0
 11
416.2264819569855
 21
186.4632545383125
 31
0.0
  0
LINE
  5
2F7
330
70
100
AcDbEntity
  8
HONTAI
 62
     2
420
 16776960
370
    25
100
AcDbLine
 10
416.2264819569855
 20
186.4632545383125
 30
0.0
 11
417.9883112431784
 21
184.7797118248662
 31
0.0
  0
LINE
  5
2F8
330
70
100
AcDbEntity
  8
HONTAI
 62
     2
420
 16776960
370
    25
100
AcDbLine
 10
417.9883112431784
 20
184.7797118248662
 30
0.0
 11
415.6710745148906
 21
182.4872966232035
 31
0.0
  0
LINE
  5
2F9
330
70
100
AcDbEntity
  8
HONTAI
 62
     2
420
 16776960
370
    25
100
AcDbLine
 10
415.6710745148906
 20
182.4872966232035
 30
0.0
 11
417.6048977649491
 21
181.0439406483995
 31
0.0
  0
LINE
  5
2FA
330
70
100
AcDbEntity
  8
HONTAI
 62
     2
420
 16776960
370
    25
100
AcDbLine
 10
417.6048977649491
 20
181.0439406483995
 30
0.0
 11
414.4897864592087
 21
178.9416360224293
 31
0.0
  0
LINE
  5
2FB
330
70
100
AcDbEntity
  8
HONTAI
 62
     2
420
 16776960
370
    25
100
AcDbLine
 10
414.4897864592087
 20
178.9416360224293
 30
0.0
 11
415.7829445143102
 21
177.3080800502001
 31
0.0
  0
LINE
  5
2FC
330
70
100
AcDbEntity
  8
HONTAI
 62
     2
420
 16776960
370
    25
100
AcDbLine
 10
415.7829445143102
 20
177.3080800502001
 30
0.0
 11
412.4741551919374
 21
175.5481711882911
 31
0.0
  0
LINE
  5
2FD
330
70
100
AcDbEntity
  8
HONTAI
 62
     2
420
 16776960
370
    25
100
AcDbLine
 10
412.4741551919374
 20
175.5481711882911
 30
0.0
 11
414.0477274746761
 21
174.0376595021271
 31
0.0
  0
LINE
  5
2FE
330
70
100
AcDbEntity
  8
HONTAI
 62
     2
420
 16776960
370
    25
100
AcDbLine
 10
414.0477274746761
 20
174.0376595021271
 30
0.0
 11
410.9868263008443
 21
172.038100431896
 31
0.0
  0
LINE
  5
2FF
330
70
100
AcDbEntity
  8
HONTAI
 62
     2
420
 16776960
370
    25
100
AcDbLine
 10
410.9868263008443
 20
172.038100431896
 30
0.0
 11
412.3218740033019
 21
170.3497289456013
 31
0.0
  0
LINE
  5
300
330
70
100
AcDbEntity
  8
HONTAI
 62
     2
420
 16776960
370
    25
100
AcDbLine
 10
412.3218740033019
 20
170.3497289456013
 30
0.0
 11
408.4512705868633
 21
168.6341732565774
 31
0.0
  0
LINE
  5
301
330
70
100
AcDbEntity
  8
HONTAI
 62
     2
420
 16776960
370
    25
100
AcDbLine
 10
408.4512705868633
 20
168.6341732565774
 30
0.0
 11
410.3571429803643
 21
166.2880370775587
 31
0.0
  0
LINE
  5
302
330
70
100
AcDbEntity
  8
HONTAI
 62
     2
420
 16776960
370
    25
100
AcDbLine
 10
410.3571429803643
 20
166.2880370775587
 30
0.0
 11
405.6079491696132
 21
166.3942486042643
 31
0.0
  0
LINE
  5
303
330
70
100
AcDbEntity
  8
HONTAI
 62
     2
420
 16776960
370
    25
100
AcDbLine
 10
405.6079491696132
 20
166.3942486042643
 30
0.0
 11
407.201855387555
 21
163.3531125021889
 31
0.0
  0
LINE
  5
304
330
70
100
AcDbEntity
  8
HONTAI
 62
     2
420
 16776960
370
    25
100
AcDbLine
 10
407.201855387555
 20
163.3531125021889
 30
0.0
 11
402.715592223963
 21
163.5460774157697
 31
0.0
  0
LINE
  5
305
330
70
100
AcDbEntity
  8
HONTAI
 62
     2
420
 16776960
370
    25
100
AcDbLine
 10
402.715592223963
 20
163.5460774157697
 30
0.0
 11
404.1676962179793
 21
160.5301320761413
 31
0.0
  0
LINE
  5
306
330
70
100
AcDbEntity
  8
HONTAI
 62
     2
420
 16776960
370
    25
100
AcDbLine
 10
404.1676962179793
 20
160.5301320761413
 30
0.0
 11
399.5632730549793
 21
160.8474193423057
 31
0.0
  0
LINE
  5
307
330
70
100
AcDbEntity
  8
HONTAI
 62
     2
420
 16776960
370
    25
100
AcDbLine
 10
399.5632730549793
 20
160.8474193423057
 30
0.0
 11
400.6492424734018
 21
158.0972505736822
 31
0.0
  0
LINE
  5
308
330
70
100
AcDbEntity
  8
HONTAI
 62
     2
420
 16776960
370
    25
100
AcDbLine
 10
400.6492424734018
 20
158.0972505736822
 30
0.0
 11
395.97160540807
 21
158.0972505736822
 31
0.0
  0
LINE
  5
309
330
70
100
AcDbEntity
  8
HONTAI
 62
     2
420
 16776960
370
    25
100
AcDbLine
 10
395.97160540807
 20
158.0972505736822
 30
0.0
 11
397.0176145437049
 21
155.907316447322
 31
0.0
  0
LINE
  5
30A
330
70
100
AcDbEntity
  8
HONTAI
 62
     2
420
 16776960
370
    25
100
AcDbLine
 10
397.0176145437049
 20
155.907316447322
 30
0.0
 11
392.691646019473
 21
155.6971754064401
 31
0.0
  0
LINE
  5
30B
330
70
100
AcDbEntity
  8
HONTAI
 62
     2
420
 16776960
370
    25
100
AcDbLine
 10
392.691646019473
 20
155.6971754064401
 30
0.0
 11
393.3737080424283
 21
152.592288494776
 31
0.0
  0
LINE
  5
30C
330
70
100
AcDbEntity
  8
HONTAI
 62
     2
420
 16776960
370
    25
100
AcDbLine
 10
393.3737080424283
 20
152.592288494776
 30
0.0
 11
388.6786178020142
 21
153.1833520272376
 31
0.0
  0
LINE
  5
30D
330
70
100
AcDbEntity
  8
HONTAI
 62
     2
420
 16776960
370
    25
100
AcDbLine
 10
388.6786178020142
 20
153.1833520272376
 30
0.0
 11
389.3944379525375
 21
150.3356427579512
 31
0.0
  0
LINE
  5
30E
330
70
100
AcDbEntity
  8
HONTAI
 62
     2
420
 16776960
370
    25
100
AcDbLine
 10
389.3944379525375
 20
150.3356427579512
 30
0.0
 11
385.2712646034837
 21
149.7288121586655
 31
0.0
  0
LINE
  5
30F
330
70
100
AcDbEntity
  8
HONTAI
 62
     2
420
 16776960
370
    25
100
AcDbLine
 10
385.624794721476
 20
147.2568010771509
 30
0.0
 11
381.2439446239792
 21
148.0524231827771
 31
0.0
  0
LINE
  5
310
330
70
100
AcDbEntity
  8
HONTAI
 62
     2
420
 16776960
370
    25
100
AcDbLine
 10
351.65512623747
 20
136.0122178427724
 30
0.0
 11
352.4366805414719
 21
141.9021761575022
 31
0.0
  0
LINE
  5
311
330
70
100
AcDbEntity
  8
HONTAI
 62
     2
420
 16776960
370
    25
100
AcDbLine
 10
352.4366805414719
 20
141.9021761575022
 30
0.0
 11
357.0006808266285
 21
136.8288349004133
 31
0.0
  0
LINE
  5
312
330
70
100
AcDbEntity
  8
HONTAI
 62
     2
420
 16776960
370
    25
100
AcDbLine
 10
357.0006808266285
 20
136.8288349004133
 30
0.0
 11
357.0475378055901
 21
141.8332320117529
 31
0.0
  0
LINE
  5
313
330
70
100
AcDbEntity
  8
HONTAI
 62
     2
420
 16776960
370
    25
100
AcDbLine
 10
357.0475378055901
 20
141.8332320117529
 30
0.0
 11
362.0348308010165
 21
137.595179036721
 31
0.0
  0
LINE
  5
314
330
70
100
AcDbEntity
  8
HONTAI
 62
     2
420
 16776960
370
    25
100
AcDbLine
 10
362.0348308010165
 20
137.595179036721
 30
0.0
 11
362.720835379015
 21
142.8846525899059
 31
0.0
  0
LINE
  5
315
330
70
100
AcDbEntity
  8
HONTAI
 62
     2
420
 16776960
370
    25
100
AcDbLine
 10
362.720835379015
 20
142.8846525899059
 30
0.0
 11
366.7814206667285
 21
139.463109335822
 31
0.0
  0
LINE
  5
316
330
70
100
AcDbEntity
  8
HONTAI
 62
     2
420
 16776960
370
    25
100
AcDbLine
 10
331.2947110111198
 20
136.0122178427724
 30
0.0
 11
335.7042696542887
 21
140.2601251219073
 31
0.0
  0
LINE
  5
317
330
70
100
AcDbEntity
  8
HONTAI
 62
     2
420
 16776960
370
    25
100
AcDbLine
 10
335.7042696542887
 20
140.2601251219073
 30
0.0
 11
337.64745647257
 21
135.1046053045967
 31
0.0
  0
LINE
  5
318
330
70
100
AcDbEntity
  8
HONTAI
 62
     2
420
 16776960
370
    25
100
AcDbLine
 10
337.64745647257
 20
135.1046053045967
 30
0.0
 11
341.8260720019919
 21
140.1157090448872
 31
0.0
  0
LINE
  5
319
330
70
100
AcDbEntity
  8
HONTAI
 62
     2
420
 16776960
370
    25
100
AcDbLine
 10
341.8260720019919
 20
140.1157090448872
 30
0.0
 11
345.3023807760211
 21
135.1046053045967
 31
0.0
  0
LINE
  5
31A
330
70
100
AcDbEntity
  8
HONTAI
 62
     2
420
 16776960
370
    25
100
AcDbLine
 10
345.3023807760211
 20
135.1046053045967
 30
0.0
 11
347.5139468849233
 21
140.2601251219073
 31
0.0
  0
LINE
  5
31B
330
70
100
AcDbEntity
  8
HONTAI
 62
     2
420
 16776960
370
    25
100
AcDbLine
 10
347.5139468849233
 20
140.2601251219073
 30
0.0
 11
351.65512623747
 21
136.0122178427724
 31
0.0
  0
LINE
  5
31C
330
70
100
AcDbEntity
  8
HONTAI
 62
     2
420
 16776960
370
    25
100
AcDbLine
 10
341.8260720019919
 20
140.1157090448872
 30
0.0
 11
341.4749186242949
 21
148.0995777916982
 31
0.0
  0
LINE
  5
31D
330
70
100
AcDbEntity
  8
HONTAI
 62
     2
420
 16776960
370
    25
100
AcDbLine
 10
347.5139468849233
 20
140.2601251219073
 30
0.0
 11
346.5917125105968
 21
148.8035170629926
 31
0.0
  0
LINE
  5
31E
330
70
100
AcDbEntity
  8
HONTAI
 62
     2
420
 16776960
370
    25
100
AcDbLine
 10
335.7042696542887
 20
140.2601251219073
 30
0.0
 11
336.3948195887481
 21
148.7233401455045
 31
0.0
  0
LINE
  5
31F
330
70
100
AcDbEntity
  8
HONTAI
 62
     2
420
 16776960
370
    25
100
AcDbLine
 10
345.3023807760211
 20
135.1046053045967
 30
0.0
 11
344.1063585762711
 21
148.4897130798271
 31
0.0
  0
ENDSEC
  0
SECTION
  2
OBJECTS
  0
DICTIONARY
  5
C
330
0
100
AcDbDictionary
281
     1
  3
ACAD_COLOR
350
63
  3
ACAD_DETAILVIEWSTYLE
350
6A
  3
ACAD_GROUP
350
D
  3
ACAD_LAYOUT
350
62
  3
ACAD_MATERIAL
350
10
  3
ACAD_MLEADERSTYLE
350
66
  3
ACAD_MLINESTYLE
350
5F
  3
ACAD_PLOTSETTINGS
350
61
  3
ACAD_PLOTSTYLENAME
350
E
  3
ACAD_SCALELIST
350
42
  3
ACAD_SECTIONVIEWSTYLE
350
68
  3
ACAD_TABLESTYLE
350
64
  3
ACAD_VISUALSTYLE
350
29
  3
ACDB_RECOMPOSE_DATA
350
328
  3
AcDbVariableDictionary
350
320
  0
DICTIONARY
  5
63
102
{ACAD_REACTORS
330
C
102
}
330
C
100
AcDbDictionary
281
     1
  0
DICTIONARY
  5
6A
102
{ACAD_REACTORS
330
C
102
}
330
C
100
AcDbDictionary
281
     1
  3
Imperial24
350
6B
  0
DICTIONARY
  5
D
102
{ACAD_REACTORS
330
C
102
}
330
C
100
AcDbDictionary
281
     1
  0
DICTIONARY
  5
62
102
{ACAD_REACTORS
330
C
102
}
330
C
100
AcDbDictionary
281
     1
  3
Layout1
350
6F
  3
Layout2
350
77
  3
Model
350
73
  0
DICTIONARY
  5
10
102
{ACAD_REACTORS
330
C
102
}
330
C
100
AcDbDictionary
281
     1
  3
ByBlock
350
19
  3
ByLayer
350
11
  3
Global
350
21
  0
DICTIONARY
  5
66
102
{ACAD_REACTORS
330
C
102
}
330
C
100
AcDbDictionary
281
     1
  3
Standard
350
67
  0
DICTIONARY
  5
5F
102
{ACAD_REACTORS
330
C
102
}
330
C
100
AcDbDictionary
281
     1
  3
Standard
350
60
  0
DICTIONARY
  5
61
102
{ACAD_REACTORS
330
C
102
}
330
C
100
AcDbDictionary
281
     1
  0
ACDBDICTIONARYWDFLT
  5
E
102
{ACAD_REACTORS
330
C
102
}
330
C
100
AcDbDictionary
281
     1
  3
Normal
350
F
100
AcDbDictionaryWithDefault
340
F
  0
DICTIONARY
  5
42
102
{ACAD_REACTORS
330
C
102
}
330
C
100
AcDbDictionary
281
     1
  3
A0
350
43
  3
A1
350
44
  3
A2
350
45
  3
A3
350
46
  3
A4
350
47
  3
A5
350
48
  3
A6
350
49
  3
A7
350
4A
  3
A8
350
4B
  3
A9
350
4C
  3
B0
350
4D
  3
B1
350
4E
  3
B2
350
4F
  3
B3
350
50
  3
B4
350
51
  3
B5
350
52
  3
B6
350
53
  0
DICTIONARY
  5
68
102
{ACAD_REACTORS
330
C
102
}
330
C
100
AcDbDictionary
281
     1
  3
Imperial24
350
69
  0
DICTIONARY
  5
64
102
{ACAD_REACTORS
330
C
102
}
330
C
100
AcDbDictionary
281
     1
  3
Standard
350
65
  0
DICTIONARY
  5
29
102
{ACAD_REACTORS
330
C
102
}
330
C
100
AcDbDictionary
281
     1
  3
2dWireframe
350
2F
  3
Basic
350
2E
  3
Brighten
350
35
  3
ColorChange
350
39
  3
Conceptual
350
32
  3
Dim
350
34
  3
EdgeColorOff
350
41
  3
Facepattern
350
38
  3
Flat
350
2A
  3
FlatWithEdges
350
2B
  3
Gouraud
350
2C
  3
GouraudWithEdges
350
2D
  3
Hidden
350
31
  3
JitterOff
350
3F
  3
Linepattern
350
37
  3
OverhangOff
350
40
  3
Realistic
350
33
  3
Shaded
350
3E
  3
Shaded with edges
350
3D
  3
Shades of Gray
350
3A
  3
Sketchy
350
3B
  3
Thicken
350
36
  3
Wireframe
350
30
  3
X-Ray
350
3C
  0
XRECORD
  5
328
102
{ACAD_REACTORS
330
C
102
}
330
C
100
AcDbXrecord
280
     1
 90
        1
330
65
  0
DICTIONARY
  5
320
102
{ACAD_REACTORS
330
C
102
}
330
C
100
AcDbDictionary
281
     1
  3
CANNOSCALE
350
325
  3
CMLEADERSTYLE
350
322
  3
CTABLESTYLE
350
321
  3
CVIEWDETAILSTYLE
350
323
  3
CVIEWSECTIONSTYLE
350
324
  0
ACDBDETAILVIEWSTYLE
  5
6B
102
{ACAD_REACTORS
330
6A
102
}
330
6A
100
AcDbModelDocViewStyle
 70
     0
  3
Imperial24
290
     1
300
Imperial24
 90
        0
100
AcDbDetailViewStyle
 70
     0
 71
     0
 90
        3
 71
     1
340
55
 62
   256
 40
0.24
340
0
 62
   256
 40
0.24
300

 40
0.36
280
     3
 71
     2
340
5D
 90
       25
 62
   256
 71
     3
340
55
 62
   256
 40
0.24
 90
        1
 40
0.75
 90
        1
300
%<\AcVar ViewType \f "%tc1">% %<\AcVar ViewDetailId>%\PSCALE %<\AcVar ViewScale \f "%sn">%
 71
     4
340
5D
 90
       25
 62
   256
340
5D
 90
       25
 62
   256
280
     0
  0
LAYOUT
  5
6F
102
{ACAD_REACTORS
330
62
102
}
330
62
100
AcDbPlotSettings
  1

  2

  4

  6

 40
0.0
 41
0.0
 42
0.0
 43
0.0
 44
0.0
 45
0.0
 46
0.0
 47
0.0
 48
0.0
 49
0.0
140
0.0
141
0.0
142
1.0
143
1.0
 70
   688
 72
     0
 73
     0
 74
     5
  7

 75
    16
147
1.0
 76
     0
 77
     2
 78
   300
148
0.0
149
0.0
100
AcDbLayout
  1
Layout1
 70
     1
 71
     1
 10
0.0
 20
0.0
 11
12.0
 21
9.0
 12
0.0
 22
0.0
 32
0.0
 14
0.0
 24
0.0
 34
0.0
 15
0.0
 25
0.0
 35
0.0
146
0.0
 13
0.0
 23
0.0
 33
0.0
 16
1.0
 26
0.0
 36
0.0
 17
0.0
 27
1.0
 37
0.0
 76
     0
330
6C
  0
LAYOUT
  5
77
102
{ACAD_REACTORS
330
62
102
}
330
62
100
AcDbPlotSettings
  1

  2

  4

  6

 40
0.0
 41
0.0
 42
0.0
 43
0.0
 44
0.0
 45
0.0
 46
0.0
 47
0.0
 48
0.0
 49
0.0
140
0.0
141
0.0
142
1.0
143
1.0
 70
   688
 72
     0
 73
     0
 74
     5
  7

 75
    16
147
1.0
 76
     0
 77
     2
 78
   300
148
0.0
149
0.0
100
AcDbLayout
  1
Layout2
 70
     1
 71
     2
 10
0.0
 20
0.0
 11
12.0
 21
9.0
 12
0.0
 22
0.0
 32
0.0
 14
0.0
 24
0.0
 34
0.0
 15
0.0
 25
0.0
 35
0.0
146
0.0
 13
0.0
 23
0.0
 33
0.0
 16
1.0
 26
0.0
 36
0.0
 17
0.0
 27
1.0
 37
0.0
 76
     0
330
74
  0
LAYOUT
  5
73
102
{ACAD_REACTORS
330
62
102
}
330
62
100
AcDbPlotSettings
  1

  2

  4

  6

 40
0.0
 41
0.0
 42
0.0
 43
0.0
 44
0.0
 45
0.0
 46
0.0
 47
0.0
 48
0.0
 49
0.0
140
0.0
141
0.0
142
1.0
143
1.0
 70
  1712
 72
     0
 73
     0
 74
     0
  7

 75
     0
147
1.0
 76
     0
 77
     2
 78
   300
148
0.0
149
0.0
100
AcDbLayout
  1
Model
 70
     1
 71
     0
 10
0.0
 20
0.0
 11
12.0
 21
9.0
 12
0.0
 22
0.0
 32
0.0
 14
0.0
 24
0.0
 34
0.0
 15
0.0
 25
0.0
 35
0.0
146
0.0
 13
0.0
 23
0.0
 33
0.0
 16
1.0
 26
0.0
 36
0.0
 17
0.0
 27
1.0
 37
0.0
 76
     0
330
70
  0
MATERIAL
  5
19
102
{ACAD_XDICTIONARY
360
1A
102
}
102
{ACAD_REACTORS
330
10
102
}
330
10
100
AcDbMaterial
  1
ByBlock
 72
     0
 43
0.0208333333333333
 43
0.0
 43
0.0
 43
0.0
 43
0.0
 43
0.0208333333333333
 43
0.0
 43
0.0
 43
0.0
 43
0.0
 43
1.0
 43
0.0
 43
0.0
 43
0.0
 43
0.0
 43
1.0
 77
     0
 47
0.0208333333333333
 47
0.0
 47
0.0
 47
0.0
 47
0.0
 47
0.0208333333333333
 47
0.0
 47
0.0
 47
0.0
 47
0.0
 47
1.0
 47
0.0
 47
0.0
 47
0.0
 47
0.0
 47
1.0
171
     0
 49
0.0208333333333333
 49
0.0
 49
0.0
 49
0.0
 49
0.0
 49
0.0208333333333333
 49
0.0
 49
0.0
 49
0.0
 49
0.0
 49
1.0
 49
0.0
 49
0.0
 49
0.0
 49
0.0
 49
1.0
175
     0
142
0.0208333333333333
142
0.0
142
0.0
142
0.0
142
0.0
142
0.0208333333333333
142
0.0
142
0.0
142
0.0
142
0.0
142
1.0
142
0.0
142
0.0
142
0.0
142
0.0
142
1.0
179
     0
144
0.0208333333333333
144
0.0
144
0.0
144
0.0
144
0.0
144
0.0208333333333333
144
0.0
144
0.0
144
0.0
144
0.0
144
1.0
144
0.0
144
0.0
144
0.0
144
0.0
144
1.0
147
0.0208333333333333
147
0.0
147
0.0
147
0.0
147
0.0
147
0.0208333333333333
147
0.0
147
0.0
147
0.0
147
0.0
147
1.0
147
0.0
147
0.0
147
0.0
147
0.0
147
1.0
  0
MATERIAL
  5
11
102
{ACAD_XDICTIONARY
360
12
102
}
102
{ACAD_REACTORS
330
10
102
}
330
10
100
AcDbMaterial
  1
ByLayer
 72
     0
 43
0.0208333333333333
 43
0.0
 43
0.0
 43
0.0
 43
0.0
 43
0.0208333333333333
 43
0.0
 43
0.0
 43
0.0
 43
0.0
 43
1.0
 43
0.0
 43
0.0
 43
0.0
 43
0.0
 43
1.0
 77
     0
 47
0.0208333333333333
 47
0.0
 47
0.0
 47
0.0
 47
0.0
 47
0.0208333333333333
 47
0.0
 47
0.0
 47
0.0
 47
0.0
 47
1.0
 47
0.0
 47
0.0
 47
0.0
 47
0.0
 47
1.0
171
     0
 49
0.0208333333333333
 49
0.0
 49
0.0
 49
0.0
 49
0.0
 49
0.0208333333333333
 49
0.0
 49
0.0
 49
0.0
 49
0.0
 49
1.0
 49
0.0
 49
0.0
 49
0.0
 49
0.0
 49
1.0
175
     0
142
0.0208333333333333
142
0.0
142
0.0
142
0.0
142
0.0
142
0.0208333333333333
142
0.0
142
0.0
142
0.0
142
0.0
142
1.0
142
0.0
142
0.0
142
0.0
142
0.0
142
1.0
179
     0
144
0.0208333333333333
144
0.0
144
0.0
144
0.0
144
0.0
144
0.0208333333333333
144
0.0
144
0.0
144
0.0
144
0.0
144
1.0
144
0.0
144
0.0
144
0.0
144
0.0
144
1.0
147
0.0208333333333333
147
0.0
147
0.0
147
0.0
147
0.0
147
0.0208333333333333
147
0.0
147
0.0
147
0.0
147
0.0
147
1.0
147
0.0
147
0.0
147
0.0
147
0.0
147
1.0
  0
MATERIAL
  5
21
102
{ACAD_XDICTIONARY
360
22
102
}
102
{ACAD_REACTORS
330
10
102
}
330
10
100
AcDbMaterial
  1
Global
 72
     0
 43
0.0208333333333333
 43
0.0
 43
0.0
 43
0.0
 43
0.0
 43
0.0208333333333333
 43
0.0
 43
0.0
 43
0.0
 43
0.0
 43
1.0
 43
0.0
 43
0.0
 43
0.0
 43
0.0
 43
1.0
 77
     0
 47
0.0208333333333333
 47
0.0
 47
0.0
 47
0.0
 47
0.0
 47
0.0208333333333333
 47
0.0
 47
0.0
 47
0.0
 47
0.0
 47
1.0
 47
0.0
 47
0.0
 47
0.0
 47
0.0
 47
1.0
171
     0
 49
0.0208333333333333
 49
0.0
 49
0.0
 49
0.0
 49
0.0
 49
0.0208333333333333
 49
0.0
 49
0.0
 49
0.0
 49
0.0
 49
1.0
 49
0.0
 49
0.0
 49
0.0
 49
0.0
 49
1.0
175
     0
142
0.0208333333333333
142
0.0
142
0.0
142
0.0
142
0.0
142
0.0208333333333333
142
0.0
142
0.0
142
0.0
142
0.0
142
1.0
142
0.0
142
0.0
142
0.0
142
0.0
142
1.0
179
     0
144
0.0208333333333333
144
0.0
144
0.0
144
0.0
144
0.0
144
0.0208333333333333
144
0.0
144
0.0
144
0.0
144
0.0
144
1.0
144
0.0
144
0.0
144
0.0
144
0.0
144
1.0
147
0.0208333333333333
147
0.0
147
0.0
147
0.0
147
0.0
147
0.0208333333333333
147
0.0
147
0.0
147
0.0
147
0.0
147
1.0
147
0.0
147
0.0
147
0.0
147
0.0
147
1.0
  0
MLEADERSTYLE
  5
67
102
{ACAD_REACTORS
330
66
102
}
330
66
100
AcDbMLeaderStyle
179
     2
170
     2
171
     1
172
     0
 90
        2
 40
0.0
 41
0.0
173
     1
 91
-1056964608
340
5B
 92
       -2
290
     1
 42
0.09
291
     1
 43
0.36
  3
Standard
 44
0.18
300

342
55
174
     1
178
     6
175
     1
176
     0
 93
-1056964608
 45
0.18
292
     0
297
     0
 46
0.18
 94
-1056964608
 47
1.0
 49
1.0
140
1.0
293
     1
141
0.0
294
     1
177
     0
142
1.0
295
     1
296
     0
143
0.125
271
     0
272
     9
273
     9
298
     1
  0
MLINESTYLE
  5
60
102
{ACAD_REACTORS
330
5F
102
}
330
5F
100
AcDbMlineStyle
  2
STANDARD
 70
     0
  3

 62
   256
 51
90.0
 52
90.0
 71
     2
 49
0.5
 62
   256
  6
BYLAYER
 49
-0.5
 62
   256
  6
BYLAYER
  0
ACDBPLACEHOLDER
  5
F
102
{ACAD_REACTORS
330
E
102
}
330
E
  0
SCALE
  5
43
102
{ACAD_REACTORS
330
42
102
}
330
42
100
AcDbScale
 70
     0
300
1:1
140
1.0
141
1.0
290
     1
  0
SCALE
  5
44
102
{ACAD_REACTORS
330
42
102
}
330
42
100
AcDbScale
 70
     0
300
1/128" = 1'-0"
140
0.0078125
141
12.0
290
     0
  0
SCALE
  5
45
102
{ACAD_REACTORS
330
42
102
}
330
42
100
AcDbScale
 70
     0
300
1/64" = 1'-0"
140
0.015625
141
12.0
290
     0
  0
SCALE
  5
46
102
{ACAD_REACTORS
330
42
102
}
330
42
100
AcDbScale
 70
     0
300
1/32" = 1'-0"
140
0.03125
141
12.0
290
     0
  0
SCALE
  5
47
102
{ACAD_REACTORS
330
42
102
}
330
42
100
AcDbScale
 70
     0
300
1/16" = 1'-0"
140
0.0625
141
12.0
290
     0
  0
SCALE
  5
48
102
{ACAD_REACTORS
330
42
102
}
330
42
100
AcDbScale
 70
     0
300
3/32" = 1'-0"
140
0.09375
141
12.0
290
     0
  0
SCALE
  5
49
102
{ACAD_REACTORS
330
42
102
}
330
42
100
AcDbScale
 70
     0
300
1/8" = 1'-0"
140
0.125
141
12.0
290
     0
  0
SCALE
  5
4A
102
{ACAD_REACTORS
330
42
102
}
330
42
100
AcDbScale
 70
     0
300
3/16" = 1'-0"
140
0.1875
141
12.0
290
     0
  0
SCALE
  5
4B
102
{ACAD_REACTORS
330
42
102
}
330
42
100
AcDbScale
 70
     0
300
1/4" = 1'-0"
140
0.25
141
12.0
290
     0
  0
SCALE
  5
4C
102
{ACAD_REACTORS
330
42
102
}
330
42
100
AcDbScale
 70
     0
300
3/8" = 1'-0"
140
0.375
141
12.0
290
     0
  0
SCALE
  5
4D
102
{ACAD_REACTORS
330
42
102
}
330
42
100
AcDbScale
 70
     0
300
1/2" = 1'-0"
140
0.5
141
12.0
290
     0
  0
SCALE
  5
4E
102
{ACAD_REACTORS
330
42
102
}
330
42
100
AcDbScale
 70
     0
300
3/4" = 1'-0"
140
0.75
141
12.0
290
     0
  0
SCALE
  5
4F
102
{ACAD_REACTORS
330
42
102
}
330
42
100
AcDbScale
 70
     0
300
1" = 1'-0"
140
1.0
141
12.0
290
     0
  0
SCALE
  5
50
102
{ACAD_REACTORS
330
42
102
}
330
42
100
AcDbScale
 70
     0
300
1-1/2" = 1'-0"
140
1.5
141
12.0
290
     0
  0
SCALE
  5
51
102
{ACAD_REACTORS
330
42
102
}
330
42
100
AcDbScale
 70
     0
300
3" = 1'-0"
140
3.0
141
12.0
290
     0
  0
SCALE
  5
52
102
{ACAD_REACTORS
330
42
102
}
330
42
100
AcDbScale
 70
     0
300
6" = 1'-0"
140
6.0
141
12.0
290
     0
  0
SCALE
  5
53
102
{ACAD_REACTORS
330
42
102
}
330
42
100
AcDbScale
 70
     0
300
1'-0" = 1'-0"
140
12.0
141
12.0
290
     0
  0
ACDBSECTIONVIEWSTYLE
  5
69
102
{ACAD_REACTORS
330
68
102
}
330
68
100
AcDbModelDocViewStyle
 70
     0
  3
Imperial24
290
     1
300
Imperial24
 90
        0
100
AcDbSectionViewStyle
 70
     0
 71
     0
 90
       78
 71
     1
340
55
 62
   256
 40
0.24
340
0
340
0
 62
   256
 40
0.24
300
I, O, Q, S, X, Z
 40
0.48
 90
        3
 40
0.18
 90
        1
 71
     2
340
5D
 90
       25
 62
   256
340
5D
 90
       50
 62
   256
 40
0.24
 40
0.0
 40
0.24
 71
     3
340
55
 62
   256
 40
0.24
 90
        1
 40
0.75
 90
        1
300
%<\AcVar ViewType \f "%tc1">% %<\AcVar ViewSectionStartId>%-%<\AcVar ViewSectionEndId>%\PSCALE %<\AcVar ViewScale \f "%sn">%
 71
     4
 62
   256
 62
   257
300
ANSI31
 40
1.0
 90
        0
290
     0
290
     0
 90
        6
 40
0.0
 40
1.570796326794896
 40
0.2617993877991494
 40
1.308996938995747
 40
-0.2617993877991494
 40
1.832595714594046
  0
TABLESTYLE
  5
65
102
{ACAD_XDICTIONARY
360
326
102
}
102
{ACAD_REACTORS
330
64
102
}
330
64
100
AcDbTableStyle
280
     0
  3
Standard
 70
     0
 71
     0
 40
0.06
 41
0.06
280
     0
281
     0
  7
Standard
140
0.18
170
     2
 62
     0
 63
     7
283
     0
 90
      512
 91
        0
  1

274
    -2
284
     1
 64
     0
275
    -2
285
     1
 65
     0
276
    -2
286
     1
 66
     0
277
    -2
287
     1
 67
     0
278
    -2
288
     1
 68
     0
279
    -2
289
     1
 69
     0
  7
Standard
140
0.25
170
     5
 62
     0
 63
     7
283
     0
 90
      512
 91
        0
  1

274
    -2
284
     1
 64
     0
275
    -2
285
     1
 65
     0
276
    -2
286
     1
 66
     0
277
    -2
287
     1
 67
     0
278
    -2
288
     1
 68
     0
279
    -2
289
     1
 69
     0
  7
Standard
140
0.18
170
     5
 62
     0
 63
     7
283
     0
 90
      512
 91
        0
  1

274
    -2
284
     1
 64
     0
275
    -2
285
     1
 65
     0
276
    -2
286
     1
 66
     0
277
    -2
287
     1
 67
     0
278
    -2
288
     1
 68
     0
279
    -2
289
     1
 69
     0
  0
VISUALSTYLE
  5
2F
102
{ACAD_REACTORS
330
29
102
}
330
29
100
AcDbVisualStyle
  2
2dWireframe
 70
     4
177
     3
291
     0
 70
    58
 90
        0
176
     1
 90
        2
176
     1
 90
        0
176
     1
 90
        0
176
     1
 40
0.6
176
     1
 40
30.0
176
     1
 62
     7
420
 16777215
176
     1
 90
        1
176
     1
 90
        4
176
     1
 62
     7
176
     1
 62
   257
176
     1
 90
        1
176
     1
 90
        1
176
     1
 40
1.0
176
     1
 90
        0
176
     1
 62
   257
176
     1
 40
1.0
176
     1
 90
        1
176
     1
 90
        6
176
     1
 90
        2
176
     1
 62
     7
176
     1
 90
        5
176
     1
 90
        0
176
     1
 90
        0
176
     1
290
     0
176
     1
 90
        1
176
     1
 40
0.0
176
     1
 90
        0
176
     1
290
     1
176
     1
290
     1
176
     1
290
     0
176
     1
290
     0
176
     1
290
     0
176
     1
290
     0
176
     1
290
     0
176
     1
290
     0
176
     1
290
     0
176
     1
 90
       50
176
     1
 40
0.0
176
     1
 40
1.0
176
     1
 90
        0
176
     1
 62
    18
420
        0
176
     1
 90
       50
176
     1
 90
        3
176
     1
 62
     5
420
      255
176
     1
290
     0
176
     1
 90
       50
176
     1
 90
       50
176
     1
 90
       50
176
     1
290
     0
176
     1
 90
       50
176
     1
 62
   256
176
     0
 40
1.0
176
     0
 90
        2
176
     1
  1
strokes_ogs.tif
176
     1
290
     0
176
     1
 40
1.0
176
     1
 40
1.0
176
     1
  0
VISUALSTYLE
  5
2E
102
{ACAD_REACTORS
330
29
102
}
330
29
100
AcDbVisualStyle
  2
Basic
 70
     7
177
     3
291
     1
 70
    58
 90
        1
176
     1
 90
        0
176
     1
 90
        1
176
     1
 90
        0
176
     1
 40
0.6
176
     1
 40
30.0
176
     1
 62
     7
420
 16777215
176
     1
 90
        0
176
     1
 90
        4
176
     1
 62
     7
176
     1
 62
   257
176
     1
 90
        1
176
     1
 90
        1
176
     1
 40
1.0
176
     1
 90
        8
176
     1
 62
     7
176
     1
 40
1.0
176
     1
 90
        1
176
     1
 90
        6
176
     1
 90
        2
176
     1
 62
     7
176
     1
 90
        5
176
     1
 90
        0
176
     1
 90
        0
176
     1
290
     0
176
     1
 90
        1
176
     1
 40
0.0
176
     1
 90
        0
176
     1
290
     0
176
     1
290
     1
176
     1
290
     1
176
     1
290
     0
176
     1
290
     0
176
     1
290
     0
176
     1
290
     0
176
     1
290
     0
176
     1
290
     0
176
     1
 90
       50
176
     1
 40
0.0
176
     1
 40
1.0
176
     1
 90
        0
176
     1
 62
    18
420
        0
176
     1
 90
       50
176
     1
 90
        3
176
     1
 62
     5
420
      255
176
     1
290
     0
176
     1
 90
       50
176
     1
 90
       50
176
     1
 90
       50
176
     1
290
     0
176
     1
 90
       50
176
     1
 62
   256
176
     0
 40
1.0
176
     0
 90
        2
176
     1
  1
strokes_ogs.tif
176
     1
290
     0
176
     1
 40
1.0
176
     1
 40
1.0
176
     1
  0
VISUALSTYLE
  5
35
102
{ACAD_REACTORS
330
29
102
}
330
29
100
AcDbVisualStyle
  2
Brighten
 70
    12
177
     3
291
     1
 70
    58
 90
        2
176
     1
 90
        2
176
     1
 90
        0
176
     1
 90
        0
176
     1
 40
0.6
176
     1
 40
30.0
176
     1
 62
     7
420
 16777215
176
     1
 90
        1
176
     1
 90
        4
176
     1
 62
     7
176
     1
 62
   257
176
     1
 90
        1
176
     1
 90
        1
176
     1
 40
1.0
176
     1
 90
        8
176
     1
 62
     7
176
     1
 40
1.0
176
     1
 90
        1
176
     1
 90
        6
176
     1
 90
        2
176
     1
 62
     7
176
     1
 90
        5
176
     1
 90
        0
176
     1
 90
        0
176
     1
290
     0
176
     1
 90
        1
176
     1
 40
50.0
176
     1
 90
        0
176
     1
290
     0
176
     1
290
     1
176
     1
290
     1
176
     1
290
     0
176
     1
290
     0
176
     1
290
     0
176
     1
290
     0
176
     1
290
     0
176
     1
290
     0
176
     1
 90
       50
176
     1
 40
0.0
176
     1
 40
1.0
176
     1
 90
        0
176
     1
 62
    18
420
        0
176
     1
 90
       50
176
     1
 90
        3
176
     1
 62
     5
420
      255
176
     1
290
     0
176
     1
 90
       50
176
     1
 90
       50
176
     1
 90
       50
176
     1
290
     0
176
     1
 90
       50
176
     1
 62
   256
176
     0
 40
1.0
176
     0
 90
        2
176
     1
  1
strokes_ogs.tif
176
     1
290
     0
176
     1
 40
1.0
176
     1
 40
1.0
176
     1
  0
VISUALSTYLE
  5
39
102
{ACAD_REACTORS
330
29
102
}
330
29
100
AcDbVisualStyle
  2
ColorChange
 70
    16
177
     3
291
     1
 70
    58
 90
        2
176
     1
 90
        2
176
     1
 90
        3
176
     1
 90
        0
176
     1
 40
0.6
176
     1
 40
30.0
176
     1
 62
     8
420
  8421504
176
     1
 90
        1
176
     1
 90
        4
176
     1
 62
     7
176
     1
 62
   257
176
     1
 90
        1
176
     1
 90
        1
176
     1
 40
1.0
176
     1
 90
        8
176
     1
 62
     8
420
  8421504
176
     1
 40
1.0
176
     1
 90
        1
176
     1
 90
        6
176
     1
 90
        2
176
     1
 62
     7
176
     1
 90
        5
176
     1
 90
        0
176
     1
 90
        0
176
     1
290
     0
176
     1
 90
        1
176
     1
 40
0.0
176
     1
 90
        0
176
     1
290
     0
176
     1
290
     1
176
     1
290
     1
176
     1
290
     0
176
     1
290
     0
176
     1
290
     0
176
     1
290
     0
176
     1
290
     0
176
     1
290
     0
176
     1
 90
       50
176
     1
 40
0.0
176
     1
 40
1.0
176
     1
 90
        0
176
     1
 62
    18
420
        0
176
     1
 90
       50
176
     1
 90
        3
176
     1
 62
     5
420
      255
176
     1
290
     0
176
     1
 90
       50
176
     1
 90
       50
176
     1
 90
       50
176
     1
290
     0
176
     1
 90
       50
176
     1
 62
   256
176
     0
 40
1.0
176
     0
 90
        2
176
     1
  1
strokes_ogs.tif
176
     1
290
     0
176
     1
 40
1.0
176
     1
 40
1.0
176
     1
  0
VISUALSTYLE
  5
32
102
{ACAD_REACTORS
330
29
102
}
330
29
100
AcDbVisualStyle
  2
Conceptual
 70
     9
177
     3
291
     0
 70
    58
 90
        3
176
     1
 90
        2
176
     1
 90
        0
176
     1
 90
        0
176
     1
 40
0.6
176
     1
 40
30.0
176
     1
 62
     7
420
 16777215
176
     1
 90
        2
176
     1
 90
        2
176
     1
 62
     7
176
     1
 62
   257
176
     1
 90
        1
176
     1
 90
        1
176
     1
 40
179.0
176
     1
 90
        8
176
     1
 62
     7
176
     1
 40
1.0
176
     1
 90
        1
176
     1
 90
        6
176
     1
 90
        2
176
     1
 62
     7
176
     1
 90
        3
176
     1
 90
        0
176
     1
 90
        0
176
     1
290
     0
176
     1
 90
        1
176
     1
 40
0.0
176
     1
 90
        0
176
     1
290
     0
176
     1
290
     1
176
     1
290
     1
176
     1
290
     0
176
     1
290
     0
176
     1
290
     0
176
     1
290
     0
176
     1
290
     0
176
     1
290
     0
176
     1
 90
       50
176
     1
 40
0.0
176
     1
 40
1.0
176
     1
 90
        0
176
     1
 62
    18
420
        0
176
     1
 90
       50
176
     1
 90
        3
176
     1
 62
     5
420
      255
176
     1
290
     0
176
     1
 90
       50
176
     1
 90
       50
176
     1
 90
       50
176
     1
290
     0
176
     1
 90
       50
176
     1
 62
   256
176
     0
 40
1.0
176
     0
 90
        2
176
     1
  1
strokes_ogs.tif
176
     1
290
     0
176
     1
 40
1.0
176
     1
 40
1.0
176
     1
  0
VISUALSTYLE
  5
34
102
{ACAD_REACTORS
330
29
102
}
330
29
100
AcDbVisualStyle
  2
Dim
 70
    11
177
     3
291
     1
 70
    58
 90
        2
176
     1
 90
        2
176
     1
 90
        0
176
     1
 90
        0
176
     1
 40
0.6
176
     1
 40
30.0
176
     1
 62
     7
420
 16777215
176
     1
 90
        1
176
     1
 90
        4
176
     1
 62
     7
176
     1
 62
   257
176
     1
 90
        1
176
     1
 90
        1
176
     1
 40
1.0
176
     1
 90
        8
176
     1
 62
     7
176
     1
 40
1.0
176
     1
 90
        1
176
     1
 90
        6
176
     1
 90
        2
176
     1
 62
     7
176
     1
 90
        5
176
     1
 90
        0
176
     1
 90
        0
176
     1
290
     0
176
     1
 90
        1
176
     1
 40
-50.0
176
     1
 90
        0
176
     1
290
     0
176
     1
290
     1
176
     1
290
     1
176
     1
290
     0
176
     1
290
     0
176
     1
290
     0
176
     1
290
     0
176
     1
290
     0
176
     1
290
     0
176
     1
 90
       50
176
     1
 40
0.0
176
     1
 40
1.0
176
     1
 90
        0
176
     1
 62
    18
420
        0
176
     1
 90
       50
176
     1
 90
        3
176
     1
 62
     5
420
      255
176
     1
290
     0
176
     1
 90
       50
176
     1
 90
       50
176
     1
 90
       50
176
     1
290
     0
176
     1
 90
       50
176
     1
 62
   256
176
     0
 40
1.0
176
     0
 90
        2
176
     1
  1
strokes_ogs.tif
176
     1
290
     0
176
     1
 40
1.0
176
     1
 40
1.0
176
     1
  0
VISUALSTYLE
  5
41
102
{ACAD_REACTORS
330
29
102
}
330
29
100
AcDbVisualStyle
  2
EdgeColorOff
 70
    22
177
     3
291
     1
 70
    58
 90
        2
176
     0
 90
        2
176
     0
 90
        0
176
     0
 90
        0
176
     0
 40
0.6
176
     0
 40
30.0
176
     0
 62
     7
420
 16777215
176
     0
 90
        1
176
     0
 90
        4
176
     0
 62
     7
176
     0
 62
   257
176
     0
 90
        1
176
     0
 90
        1
176
     0
 40
1.0
176
     0
 90
        8
176
     2
 62
     7
176
     0
 40
1.0
176
     0
 90
        1
176
     0
 90
        6
176
     0
 90
        2
176
     0
 62
     7
176
     0
 90
        5
176
     0
 90
        0
176
     0
 90
        0
176
     0
290
     0
176
     0
 90
        1
176
     0
 40
0.0
176
     0
 90
        0
176
     0
290
     0
176
     0
290
     1
176
     0
290
     1
176
     0
290
     0
176
     0
290
     0
176
     0
290
     0
176
     0
290
     0
176
     0
290
     0
176
     0
290
     0
176
     0
 90
       50
176
     0
 40
0.0
176
     0
 40
1.0
176
     0
 90
        0
176
     0
 62
    18
420
        0
176
     0
 90
       50
176
     0
 90
        3
176
     0
 62
     5
420
      255
176
     0
290
     0
176
     0
 90
       50
176
     0
 90
       50
176
     0
 90
       50
176
     0
290
     0
176
     0
 90
       50
176
     0
 62
   256
176
     0
 40
1.0
176
     0
 90
        2
176
     0
  1
strokes_ogs.tif
176
     0
290
     0
176
     0
 40
1.0
176
     0
 40
1.0
176
     0
  0
VISUALSTYLE
  5
38
102
{ACAD_REACTORS
330
29
102
}
330
29
100
AcDbVisualStyle
  2
Facepattern
 70
    15
177
     3
291
     1
 70
    58
 90
        2
176
     1
 90
        2
176
     1
 90
        0
176
     1
 90
        0
176
     1
 40
0.6
176
     1
 40
30.0
176
     1
 62
     7
420
 16777215
176
     1
 90
        1
176
     1
 90
        4
176
     1
 62
     7
176
     1
 62
   257
176
     1
 90
        1
176
     1
 90
        1
176
     1
 40
1.0
176
     1
 90
        8
176
     1
 62
     7
176
     1
 40
1.0
176
     1
 90
        1
176
     1
 90
        6
176
     1
 90
        2
176
     1
 62
     7
176
     1
 90
        5
176
     1
 90
        0
176
     1
 90
        0
176
     1
290
     0
176
     1
 90
        1
176
     1
 40
0.0
176
     1
 90
        0
176
     1
290
     0
176
     1
290
     1
176
     1
290
     1
176
     1
290
     0
176
     1
290
     0
176
     1
290
     0
176
     1
290
     0
176
     1
290
     0
176
     1
290
     0
176
     1
 90
       50
176
     1
 40
0.0
176
     1
 40
1.0
176
     1
 90
        0
176
     1
 62
    18
420
        0
176
     1
 90
       50
176
     1
 90
        3
176
     1
 62
     5
420
      255
176
     1
290
     0
176
     1
 90
       50
176
     1
 90
       50
176
     1
 90
       50
176
     1
290
     0
176
     1
 90
       50
176
     1
 62
   256
176
     0
 40
1.0
176
     0
 90
        2
176
     1
  1
strokes_ogs.tif
176
     1
290
     0
176
     1
 40
1.0
176
     1
 40
1.0
176
     1
  0
VISUALSTYLE
  5
2A
102
{ACAD_REACTORS
330
29
102
}
330
29
100
AcDbVisualStyle
  2
Flat
 70
     0
177
     3
291
     1
 70
    58
 90
        2
176
     1
 90
        1
176
     1
 90
        1
176
     1
 90
        2
176
     1
 40
0.6
176
     1
 40
30.0
176
     1
 62
     7
420
 16777215
176
     1
 90
        0
176
     1
 90
        0
176
     1
 62
     7
176
     1
 62
   257
176
     1
 90
        1
176
     1
 90
        1
176
     1
 40
1.0
176
     1
 90
        8
176
     1
 62
     7
176
     1
 40
1.0
176
     1
 90
        1
176
     1
 90
        6
176
     1
 90
        2
176
     1
 62
     7
176
     1
 90
        5
176
     1
 90
        0
176
     1
 90
        0
176
     1
290
     0
176
     1
 90
       13
176
     1
 40
0.0
176
     1
 90
        0
176
     1
290
     0
176
     1
290
     1
176
     1
290
     1
176
     1
290
     0
176
     1
290
     0
176
     1
290
     0
176
     1
290
     0
176
     1
290
     0
176
     1
290
     0
176
     1
 90
       50
176
     1
 40
0.0
176
     1
 40
1.0
176
     1
 90
        0
176
     1
 62
    18
420
        0
176
     1
 90
       50
176
     1
 90
        3
176
     1
 62
     5
420
      255
176
     1
290
     0
176
     1
 90
       50
176
     1
 90
       50
176
     1
 90
       50
176
     1
290
     0
176
     1
 90
       50
176
     1
 62
   256
176
     0
 40
1.0
176
     0
 90
        2
176
     1
  1
strokes_ogs.tif
176
     1
290
     0
176
     1
 40
1.0
176
     1
 40
1.0
176
     1
  0
VISUALSTYLE
  5
2B
102
{ACAD_REACTORS
330
29
102
}
330
29
100
AcDbVisualStyle
  2
FlatWithEdges
 70
     1
177
     3
291
     1
 70
    58
 90
        2
176
     1
 90
        1
176
     1
 90
        1
176
     1
 90
        2
176
     1
 40
0.6
176
     1
 40
30.0
176
     1
 62
     7
420
 16777215
176
     1
 90
        1
176
     1
 90
        0
176
     1
 62
     7
176
     1
 62
   257
176
     1
 90
        1
176
     1
 90
        1
176
     1
 40
1.0
176
     1
 90
        0
176
     1
 62
   257
176
     1
 40
1.0
176
     1
 90
        1
176
     1
 90
        6
176
     1
 90
        2
176
     1
 62
     7
176
     1
 90
        5
176
     1
 90
        0
176
     1
 90
        0
176
     1
290
     0
176
     1
 90
       13
176
     1
 40
0.0
176
     1
 90
        0
176
     1
290
     0
176
     1
290
     1
176
     1
290
     1
176
     1
290
     0
176
     1
290
     0
176
     1
290
     0
176
     1
290
     0
176
     1
290
     0
176
     1
290
     0
176
     1
 90
       50
176
     1
 40
0.0
176
     1
 40
1.0
176
     1
 90
        0
176
     1
 62
    18
420
        0
176
     1
 90
       50
176
     1
 90
        3
176
     1
 62
     5
420
      255
176
     1
290
     0
176
     1
 90
       50
176
     1
 90
       50
176
     1
 90
       50
176
     1
290
     0
176
     1
 90
       50
176
     1
 62
   256
176
     0
 40
1.0
176
     0
 90
        2
176
     1
  1
strokes_ogs.tif
176
     1
290
     0
176
     1
 40
1.0
176
     1
 40
1.0
176
     1
  0
VISUALSTYLE
  5
2C
102
{ACAD_REACTORS
330
29
102
}
330
29
100
AcDbVisualStyle
  2
Gouraud
 70
     2
177
     3
291
     1
 70
    58
 90
        2
176
     1
 90
        2
176
     1
 90
        1
176
     1
 90
        2
176
     1
 40
0.6
176
     1
 40
30.0
176
     1
 62
     7
420
 16777215
176
     1
 90
        0
176
     1
 90
        0
176
     1
 62
     7
176
     1
 62
   257
176
     1
 90
        1
176
     1
 90
        1
176
     1
 40
1.0
176
     1
 90
        0
176
     1
 62
     7
176
     1
 40
1.0
176
     1
 90
        1
176
     1
 90
        6
176
     1
 90
        2
176
     1
 62
     7
176
     1
 90
        5
176
     1
 90
        0
176
     1
 90
        0
176
     1
290
     0
176
     1
 90
       13
176
     1
 40
0.0
176
     1
 90
        0
176
     1
290
     0
176
     1
290
     1
176
     1
290
     1
176
     1
290
     0
176
     1
290
     0
176
     1
290
     0
176
     1
290
     0
176
     1
290
     0
176
     1
290
     0
176
     1
 90
       50
176
     1
 40
0.0
176
     1
 40
1.0
176
     1
 90
        0
176
     1
 62
    18
420
        0
176
     1
 90
       50
176
     1
 90
        3
176
     1
 62
     5
420
      255
176
     1
290
     0
176
     1
 90
       50
176
     1
 90
       50
176
     1
 90
       50
176
     1
290
     0
176
     1
 90
       50
176
     1
 62
   256
176
     0
 40
1.0
176
     0
 90
        2
176
     1
  1
strokes_ogs.tif
176
     1
290
     0
176
     1
 40
1.0
176
     1
 40
1.0
176
     1
  0
VISUALSTYLE
  5
2D
102
{ACAD_REACTORS
330
29
102
}
330
29
100
AcDbVisualStyle
  2
GouraudWithEdges
 70
     3
177
     3
291
     1
 70
    58
 90
        2
176
     1
 90
        2
176
     1
 90
        1
176
     1
 90
        2
176
     1
 40
0.6
176
     1
 40
30.0
176
     1
 62
     7
420
 16777215
176
     1
 90
        1
176
     1
 90
        0
176
     1
 62
     7
176
     1
 62
   257
176
     1
 90
        1
176
     1
 90
        1
176
     1
 40
1.0
176
     1
 90
        0
176
     1
 62
   257
176
     1
 40
1.0
176
     1
 90
        1
176
     1
 90
        6
176
     1
 90
        2
176
     1
 62
     7
176
     1
 90
        5
176
     1
 90
        0
176
     1
 90
        0
176
     1
290
     0
176
     1
 90
       13
176
     1
 40
0.0
176
     1
 90
        0
176
     1
290
     0
176
     1
290
     1
176
     1
290
     1
176
     1
290
     0
176
     1
290
     0
176
     1
290
     0
176
     1
290
     0
176
     1
290
     0
176
     1
290
     0
176
     1
 90
       50
176
     1
 40
0.0
176
     1
 40
1.0
176
     1
 90
        0
176
     1
 62
    18
420
        0
176
     1
 90
       50
176
     1
 90
        3
176
     1
 62
     5
420
      255
176
     1
290
     0
176
     1
 90
       50
176
     1
 90
       50
176
     1
 90
       50
176
     1
290
     0
176
     1
 90
       50
176
     1
 62
   256
176
     0
 40
1.0
176
     0
 90
        2
176
     1
  1
strokes_ogs.tif
176
     1
290
     0
176
     1
 40
1.0
176
     1
 40
1.0
176
     1
  0
VISUALSTYLE
  5
31
102
{ACAD_REACTORS
330
29
102
}
330
29
100
AcDbVisualStyle
  2
Hidden
 70
     6
177
     3
291
     0
 70
    58
 90
        1
176
     1
 90
        2
176
     1
 90
        2
176
     1
 90
        0
176
     1
 40
0.6
176
     1
 40
30.0
176
     1
 62
     7
420
 16777215
176
     1
 90
        2
176
     1
 90
        2
176
     1
 62
     7
176
     1
 62
   257
176
     1
 90
        2
176
     1
 90
        1
176
     1
 40
40.0
176
     1
 90
        0
176
     1
 62
   257
176
     1
 40
1.0
176
     1
 90
        1
176
     1
 90
        6
176
     1
 90
        2
176
     1
 62
     7
176
     1
 90
        3
176
     1
 90
        0
176
     1
 90
        0
176
     1
290
     0
176
     1
 90
        1
176
     1
 40
0.0
176
     1
 90
        0
176
     1
290
     0
176
     1
290
     1
176
     1
290
     1
176
     1
290
     0
176
     1
290
     0
176
     1
290
     0
176
     1
290
     0
176
     1
290
     0
176
     1
290
     0
176
     1
 90
       50
176
     1
 40
0.0
176
     1
 40
1.0
176
     1
 90
        0
176
     1
 62
    18
420
        0
176
     1
 90
       50
176
     1
 90
        3
176
     1
 62
     5
420
      255
176
     1
290
     0
176
     1
 90
       50
176
     1
 90
       50
176
     1
 90
       50
176
     1
290
     0
176
     1
 90
       50
176
     1
 62
   256
176
     0
 40
1.0
176
     0
 90
        2
176
     1
  1
strokes_ogs.tif
176
     1
290
     0
176
     1
 40
1.0
176
     1
 40
1.0
176
     1
  0
VISUALSTYLE
  5
3F
102
{ACAD_REACTORS
330
29
102
}
330
29
100
AcDbVisualStyle
  2
JitterOff
 70
    20
177
     3
291
     1
 70
    58
 90
        2
176
     0
 90
        2
176
     0
 90
        0
176
     0
 90
        0
176
     0
 40
0.6
176
     0
 40
30.0
176
     0
 62
     7
420
 16777215
176
     0
 90
        1
176
     0
 90
        4
176
     0
 62
     7
176
     0
 62
   257
176
     0
 90
        1
176
     0
 90
        1
176
     0
 40
1.0
176
     0
 90
       10
176
     2
 62
     7
176
     0
 40
1.0
176
     0
 90
        1
176
     0
 90
        6
176
     0
 90
        2
176
     0
 62
     7
176
     0
 90
        5
176
     0
 90
        0
176
     0
 90
        0
176
     0
290
     0
176
     0
 90
        1
176
     0
 40
0.0
176
     0
 90
        0
176
     0
290
     0
176
     0
290
     1
176
     0
290
     1
176
     0
290
     0
176
     0
290
     0
176
     0
290
     0
176
     0
290
     0
176
     0
290
     0
176
     0
290
     0
176
     0
 90
       50
176
     0
 40
0.0
176
     0
 40
1.0
176
     0
 90
        0
176
     0
 62
    18
420
        0
176
     0
 90
       50
176
     0
 90
        3
176
     0
 62
     5
420
      255
176
     0
290
     0
176
     0
 90
       50
176
     0
 90
       50
176
     0
 90
       50
176
     0
290
     0
176
     0
 90
       50
176
     0
 62
   256
176
     0
 40
1.0
176
     0
 90
        2
176
     0
  1
strokes_ogs.tif
176
     0
290
     0
176
     0
 40
1.0
176
     0
 40
1.0
176
     0
  0
VISUALSTYLE
  5
37
102
{ACAD_REACTORS
330
29
102
}
330
29
100
AcDbVisualStyle
  2
Linepattern
 70
    14
177
     3
291
     1
 70
    58
 90
        2
176
     1
 90
        2
176
     1
 90
        0
176
     1
 90
        0
176
     1
 40
0.6
176
     1
 40
30.0
176
     1
 62
     7
420
 16777215
176
     1
 90
        1
176
     1
 90
        4
176
     1
 62
     7
176
     1
 62
   257
176
     1
 90
        7
176
     1
 90
        7
176
     1
 40
1.0
176
     1
 90
        8
176
     1
 62
     7
176
     1
 40
1.0
176
     1
 90
        1
176
     1
 90
        6
176
     1
 90
        2
176
     1
 62
     7
176
     1
 90
        5
176
     1
 90
        0
176
     1
 90
        0
176
     1
290
     0
176
     1
 90
        1
176
     1
 40
0.0
176
     1
 90
        0
176
     1
290
     0
176
     1
290
     1
176
     1
290
     1
176
     1
290
     0
176
     1
290
     0
176
     1
290
     0
176
     1
290
     0
176
     1
290
     0
176
     1
290
     0
176
     1
 90
       50
176
     1
 40
0.0
176
     1
 40
1.0
176
     1
 90
        0
176
     1
 62
    18
420
        0
176
     1
 90
       50
176
     1
 90
        3
176
     1
 62
     5
420
      255
176
     1
290
     0
176
     1
 90
       50
176
     1
 90
       50
176
     1
 90
       50
176
     1
290
     0
176
     1
 90
       50
176
     1
 62
   256
176
     0
 40
1.0
176
     0
 90
        2
176
     1
  1
strokes_ogs.tif
176
     1
290
     0
176
     1
 40
1.0
176
     1
 40
1.0
176
     1
  0
VISUALSTYLE
  5
40
102
{ACAD_REACTORS
330
29
102
}
330
29
100
AcDbVisualStyle
  2
OverhangOff
 70
    21
177
     3
291
     1
 70
    58
 90
        2
176
     0
 90
        2
176
     0
 90
        0
176
     0
 90
        0
176
     0
 40
0.6
176
     0
 40
30.0
176
     0
 62
     7
420
 16777215
176
     0
 90
        1
176
     0
 90
        4
176
     0
 62
     7
176
     0
 62
   257
176
     0
 90
        1
176
     0
 90
        1
176
     0
 40
1.0
176
     0
 90
        9
176
     2
 62
     7
176
     0
 40
1.0
176
     0
 90
        1
176
     0
 90
        6
176
     0
 90
        2
176
     0
 62
     7
176
     0
 90
        5
176
     0
 90
        0
176
     0
 90
        0
176
     0
290
     0
176
     0
 90
        1
176
     0
 40
0.0
176
     0
 90
        0
176
     0
290
     0
176
     0
290
     1
176
     0
290
     1
176
     0
290
     0
176
     0
290
     0
176
     0
290
     0
176
     0
290
     0
176
     0
290
     0
176
     0
290
     0
176
     0
 90
       50
176
     0
 40
0.0
176
     0
 40
1.0
176
     0
 90
        0
176
     0
 62
    18
420
        0
176
     0
 90
       50
176
     0
 90
        3
176
     0
 62
     5
420
      255
176
     0
290
     0
176
     0
 90
       50
176
     0
 90
       50
176
     0
 90
       50
176
     0
290
     0
176
     0
 90
       50
176
     0
 62
   256
176
     0
 40
1.0
176
     0
 90
        2
176
     0
  1
strokes_ogs.tif
176
     0
290
     0
176
     0
 40
1.0
176
     0
 40
1.0
176
     0
  0
VISUALSTYLE
  5
33
102
{ACAD_REACTORS
330
29
102
}
330
29
100
AcDbVisualStyle
  2
Realistic
 70
     8
177
     3
291
     0
 70
    58
 90
        2
176
     1
 90
        3
176
     1
 90
        0
176
     1
 90
        2
176
     1
 40
0.6
176
     1
 40
30.0
176
     1
 62
     7
420
 16777215
176
     1
 90
        0
176
     1
 90
        0
176
     1
 62
     7
176
     1
 62
   257
176
     1
 90
        1
176
     1
 90
        1
176
     1
 40
1.0
176
     1
 90
        8
176
     1
 62
   257
176
     1
 40
1.0
176
     1
 90
        1
176
     1
 90
        6
176
     1
 90
        2
176
     1
 62
     7
176
     1
 90
        3
176
     1
 90
        0
176
     1
 90
        0
176
     1
290
     0
176
     1
 90
       13
176
     1
 40
0.0
176
     1
 90
        0
176
     1
290
     0
176
     1
290
     1
176
     1
290
     1
176
     1
290
     0
176
     1
290
     0
176
     1
290
     0
176
     1
290
     0
176
     1
290
     0
176
     1
290
     0
176
     1
 90
       50
176
     1
 40
0.0
176
     1
 40
1.0
176
     1
 90
        0
176
     1
 62
    18
420
        0
176
     1
 90
       50
176
     1
 90
        3
176
     1
 62
     5
420
      255
176
     1
290
     0
176
     1
 90
       50
176
     1
 90
       50
176
     1
 90
       50
176
     1
290
     0
176
     1
 90
       50
176
     1
 62
   256
176
     0
 40
1.0
176
     0
 90
        2
176
     1
  1
strokes_ogs.tif
176
     1
290
     0
176
     1
 40
1.0
176
     1
 40
1.0
176
     1
  0
VISUALSTYLE
  5
3E
102
{ACAD_REACTORS
330
29
102
}
330
29
100
AcDbVisualStyle
  2
Shaded
 70
    27
177
     3
291
     0
 70
    58
 90
        2
176
     1
 90
        2
176
     1
 90
        1
176
     1
 90
        2
176
     1
 40
0.6
176
     1
 40
30.0
176
     1
 62
     7
420
 16777215
176
     1
 90
        0
176
     1
 90
        4
176
     1
 62
     7
176
     1
 62
   257
176
     1
 90
        1
176
     1
 90
        1
176
     1
 40
1.0
176
     1
 90
        8
176
     1
 62
   257
176
     1
 40
1.0
176
     1
 90
        1
176
     1
 90
        6
176
     1
 90
        2
176
     1
 62
     8
420
  7895160
176
     1
 90
        3
176
     1
 90
        0
176
     1
 90
        0
176
     1
290
     0
176
     1
 90
        5
176
     1
 40
0.0
176
     1
 90
        0
176
     1
290
     0
176
     1
290
     1
176
     1
290
     1
176
     1
290
     0
176
     1
290
     0
176
     1
290
     0
176
     1
290
     0
176
     1
290
     0
176
     1
290
     0
176
     1
 90
       50
176
     1
 40
0.0
176
     1
 40
1.0
176
     1
 90
        0
176
     1
 62
    18
420
        0
176
     1
 90
       50
176
     1
 90
        3
176
     1
 62
     5
420
      255
176
     1
290
     0
176
     1
 90
       50
176
     1
 90
       50
176
     1
 90
       50
176
     1
290
     0
176
     1
 90
       50
176
     1
 62
   256
176
     0
 40
1.0
176
     0
 90
        2
176
     1
  1
strokes_ogs.tif
176
     1
290
     0
176
     1
 40
1.0
176
     1
 40
1.0
176
     1
  0
VISUALSTYLE
  5
3D
102
{ACAD_REACTORS
330
29
102
}
330
29
100
AcDbVisualStyle
  2
Shaded with edges
 70
    26
177
     3
291
     0
 70
    58
 90
        2
176
     1
 90
        2
176
     1
 90
        1
176
     1
 90
        2
176
     1
 40
0.6
176
     1
 40
30.0
176
     1
 62
     7
420
 16777215
176
     1
 90
        1
176
     1
 90
        2
176
     1
 62
     7
176
     1
 62
   257
176
     1
 90
        2
176
     1
 90
        1
176
     1
 40
1.0
176
     1
 90
        8
176
     1
 62
   257
176
     1
 40
1.0
176
     1
 90
        1
176
     1
 90
        6
176
     1
 90
        2
176
     1
 62
     7
176
     1
 90
        3
176
     1
 90
        0
176
     1
 90
        0
176
     1
290
     0
176
     1
 90
        5
176
     1
 40
0.0
176
     1
 90
        0
176
     1
290
     0
176
     1
290
     1
176
     1
290
     1
176
     1
290
     0
176
     1
290
     0
176
     1
290
     0
176
     1
290
     0
176
     1
290
     0
176
     1
290
     0
176
     1
 90
       50
176
     1
 40
0.0
176
     1
 40
1.0
176
     1
 90
        0
176
     1
 62
    18
420
        0
176
     1
 90
       50
176
     1
 90
        3
176
     1
 62
     5
420
      255
176
     1
290
     0
176
     1
 90
       50
176
     1
 90
       50
176
     1
 90
       50
176
     1
290
     0
176
     1
 90
       50
176
     1
 62
   256
176
     0
 40
1.0
176
     0
 90
        2
176
     1
  1
strokes_ogs.tif
176
     1
290
     0
176
     1
 40
1.0
176
     1
 40
1.0
176
     1
  0
VISUALSTYLE
  5
3A
102
{ACAD_REACTORS
330
29
102
}
330
29
100
AcDbVisualStyle
  2
Shades of Gray
 70
    23
177
     3
291
     0
 70
    58
 90
        2
176
     1
 90
        2
176
     1
 90
        3
176
     1
 90
        0
176
     1
 40
0.6
176
     1
 40
30.0
176
     1
 62
     7
420
 16777215
176
     1
 90
        2
176
     1
 90
        2
176
     1
 62
     7
176
     1
 62
     7
176
     1
 90
        1
176
     1
 90
        1
176
     1
 40
40.0
176
     1
 90
        8
176
     1
 62
     7
176
     1
 40
1.0
176
     1
 90
        1
176
     1
 90
        6
176
     1
 90
        2
176
     1
 62
     7
176
     1
 90
        3
176
     1
 90
        0
176
     1
 90
        0
176
     1
290
     0
176
     1
 90
        1
176
     1
 40
0.0
176
     1
 90
        0
176
     1
290
     0
176
     1
290
     1
176
     1
290
     1
176
     1
290
     0
176
     1
290
     0
176
     1
290
     0
176
     1
290
     0
176
     1
290
     0
176
     1
290
     0
176
     1
 90
       50
176
     1
 40
0.0
176
     1
 40
1.0
176
     1
 90
        0
176
     1
 62
    18
420
        0
176
     1
 90
       50
176
     1
 90
        3
176
     1
 62
     5
420
      255
176
     1
290
     0
176
     1
 90
       50
176
     1
 90
       50
176
     1
 90
       50
176
     1
290
     0
176
     1
 90
       50
176
     1
 62
   256
176
     0
 40
1.0
176
     0
 90
        2
176
     1
  1
strokes_ogs.tif
176
     1
290
     0
176
     1
 40
1.0
176
     1
 40
1.0
176
     1
  0
VISUALSTYLE
  5
3B
102
{ACAD_REACTORS
330
29
102
}
330
29
100
AcDbVisualStyle
  2
Sketchy
 70
    24
177
     3
291
     0
 70
    58
 90
        1
176
     1
 90
        2
176
     1
 90
        2
176
     1
 90
        0
176
     1
 40
0.6
176
     1
 40
30.0
176
     1
 62
     7
420
 16777215
176
     1
 90
        2
176
     1
 90
        2
176
     1
 62
     7
176
     1
 62
     7
176
     1
 90
        1
176
     1
 90
        1
176
     1
 40
40.0
176
     1
 90
       11
176
     1
 62
     7
176
     1
 40
1.0
176
     1
 90
        1
176
     1
 90
        6
176
     1
 90
        2
176
     1
 62
     7
176
     1
 90
        6
176
     1
 90
        0
176
     1
 90
        0
176
     1
290
     0
176
     1
 90
        1
176
     1
 40
0.0
176
     1
 90
        0
176
     1
290
     0
176
     1
290
     1
176
     1
290
     1
176
     1
290
     0
176
     1
290
     0
176
     1
290
     0
176
     1
290
     0
176
     1
290
     0
176
     1
290
     0
176
     1
 90
       50
176
     1
 40
0.0
176
     1
 40
1.0
176
     1
 90
        0
176
     1
 62
    18
420
        0
176
     1
 90
       50
176
     1
 90
        3
176
     1
 62
     5
420
      255
176
     1
290
     0
176
     1
 90
       50
176
     1
 90
       50
176
     1
 90
       50
176
     1
290
     0
176
     1
 90
       50
176
     1
 62
   256
176
     0
 40
1.0
176
     0
 90
        2
176
     1
  1
strokes_ogs.tif
176
     1
290
     0
176
     1
 40
1.0
176
     1
 40
1.0
176
     1
  0
VISUALSTYLE
  5
36
102
{ACAD_REACTORS
330
29
102
}
330
29
100
AcDbVisualStyle
  2
Thicken
 70
    13
177
     3
291
     1
 70
    58
 90
        2
176
     1
 90
        2
176
     1
 90
        0
176
     1
 90
        0
176
     1
 40
0.6
176
     1
 40
30.0
176
     1
 62
     7
420
 16777215
176
     1
 90
        1
176
     1
 90
        4
176
     1
 62
     7
176
     1
 62
   257
176
     1
 90
        1
176
     1
 90
        1
176
     1
 40
1.0
176
     1
 90
       12
176
     1
 62
     7
176
     1
 40
1.0
176
     1
 90
        1
176
     1
 90
        6
176
     1
 90
        2
176
     1
 62
     7
176
     1
 90
        5
176
     1
 90
        0
176
     1
 90
        0
176
     1
290
     0
176
     1
 90
        1
176
     1
 40
0.0
176
     1
 90
        0
176
     1
290
     0
176
     1
290
     1
176
     1
290
     1
176
     1
290
     0
176
     1
290
     0
176
     1
290
     0
176
     1
290
     0
176
     1
290
     0
176
     1
290
     0
176
     1
 90
       50
176
     1
 40
0.0
176
     1
 40
1.0
176
     1
 90
        0
176
     1
 62
    18
420
        0
176
     1
 90
       50
176
     1
 90
        3
176
     1
 62
     5
420
      255
176
     1
290
     0
176
     1
 90
       50
176
     1
 90
       50
176
     1
 90
       50
176
     1
290
     0
176
     1
 90
       50
176
     1
 62
   256
176
     0
 40
1.0
176
     0
 90
        2
176
     1
  1
strokes_ogs.tif
176
     1
290
     0
176
     1
 40
1.0
176
     1
 40
1.0
176
     1
  0
VISUALSTYLE
  5
30
102
{ACAD_REACTORS
330
29
102
}
330
29
100
AcDbVisualStyle
  2
Wireframe
 70
     5
177
     3
291
     0
 70
    58
 90
        0
176
     1
 90
        2
176
     1
 90
        0
176
     1
 90
        0
176
     1
 40
0.6
176
     1
 40
30.0
176
     1
 62
     7
420
 16777215
176
     1
 90
        1
176
     1
 90
        4
176
     1
 62
     7
176
     1
 62
   257
176
     1
 90
        1
176
     1
 90
        1
176
     1
 40
1.0
176
     1
 90
        0
176
     1
 62
   257
176
     1
 40
1.0
176
     1
 90
        1
176
     1
 90
        6
176
     1
 90
        2
176
     1
 62
     7
176
     1
 90
        3
176
     1
 90
        0
176
     1
 90
        0
176
     1
290
     0
176
     1
 90
        1
176
     1
 40
0.0
176
     1
 90
        0
176
     1
290
     0
176
     1
290
     1
176
     1
290
     1
176
     1
290
     0
176
     1
290
     0
176
     1
290
     0
176
     1
290
     0
176
     1
290
     0
176
     1
290
     0
176
     1
 90
       50
176
     1
 40
0.0
176
     1
 40
1.0
176
     1
 90
        0
176
     1
 62
    18
420
        0
176
     1
 90
       50
176
     1
 90
        3
176
     1
 62
     5
420
      255
176
     1
290
     0
176
     1
 90
       50
176
     1
 90
       50
176
     1
 90
       50
176
     1
290
     0
176
     1
 90
       50
176
     1
 62
   256
176
     0
 40
1.0
176
     0
 90
        2
176
     1
  1
strokes_ogs.tif
176
     1
290
     0
176
     1
 40
1.0
176
     1
 40
1.0
176
     1
  0
VISUALSTYLE
  5
3C
102
{ACAD_REACTORS
330
29
102
}
330
29
100
AcDbVisualStyle
  2
X-Ray
 70
    25
177
     3
291
     0
 70
    58
 90
        2
176
     1
 90
        2
176
     1
 90
        1
176
     1
 90
        1
176
     1
 40
0.5
176
     1
 40
30.0
176
     1
 62
     7
420
 16777215
176
     1
 90
        1
176
     1
 90
        0
176
     1
 62
     7
176
     1
 62
   257
176
     1
 90
        1
176
     1
 90
        1
176
     1
 40
1.0
176
     1
 90
        8
176
     1
 62
     7
176
     1
 40
1.0
176
     1
 90
        1
176
     1
 90
        6
176
     1
 90
        2
176
     1
 62
     7
176
     1
 90
        3
176
     1
 90
        0
176
     1
 90
        0
176
     1
290
     0
176
     1
 90
       13
176
     1
 40
0.0
176
     1
 90
        0
176
     1
290
     0
176
     1
290
     1
176
     1
290
     1
176
     1
290
     0
176
     1
290
     0
176
     1
290
     0
176
     1
290
     0
176
     1
290
     0
176
     1
290
     0
176
     1
 90
       50
176
     1
 40
0.0
176
     1
 40
1.0
176
     1
 90
        0
176
     1
 62
    18
420
        0
176
     1
 90
       50
176
     1
 90
        3
176
     1
 62
     5
420
      255
176
     1
290
     0
176
     1
 90
       50
176
     1
 90
       50
176
     1
 90
       50
176
     1
290
     0
176
     1
 90
       50
176
     1
 62
   256
176
     0
 40
1.0
176
     0
 90
        2
176
     1
  1
strokes_ogs.tif
176
     1
290
     0
176
     1
 40
1.0
176
     1
 40
1.0
176
     1
  0
DICTIONARYVAR
  5
325
102
{ACAD_REACTORS
330
320
102
}
330
320
100
DictionaryVariables
280
     0
  1
1:1
  0
DICTIONARYVAR
  5
322
102
{ACAD_REACTORS
330
320
102
}
330
320
100
DictionaryVariables
280
     0
  1
STANDARD
  0
DICTIONARYVAR
  5
321
102
{ACAD_REACTORS
330
320
102
}
330
320
100
DictionaryVariables
280
     0
  1
STANDARD
  0
DICTIONARYVAR
  5
323
102
{ACAD_REACTORS
330
320
102
}
330
320
100
DictionaryVariables
280
     0
  1
Imperial24
  0
DICTIONARYVAR
  5
324
102
{ACAD_REACTORS
330
320
102
}
330
320
100
DictionaryVariables
280
     0
  1
Imperial24
  0
DICTIONARY
  5
1A
330
19
100
AcDbDictionary
280
     1
281
     1
  3
BUMPTILE
360
1C
  3
DIFFUSETILE
360
1B
  3
OPACITYTILE
360
1F
  3
REFLECTIONTILE
360
1E
  3
REFRACTIONTILE
360
20
  3
SPECULARTILE
360
1D
  0
DICTIONARY
  5
12
330
11
100
AcDbDictionary
280
     1
281
     1
  3
BUMPTILE
360
14
  3
DIFFUSETILE
360
13
  3
OPACITYTILE
360
17
  3
REFLECTIONTILE
360
16
  3
REFRACTIONTILE
360
18
  3
SPECULARTILE
360
15
  0
DICTIONARY
  5
22
330
21
100
AcDbDictionary
280
     1
281
     1
  3
BUMPTILE
360
24
  3
DIFFUSETILE
360
23
  3
OPACITYTILE
360
27
  3
REFLECTIONTILE
360
26
  3
REFRACTIONTILE
360
28
  3
SPECULARTILE
360
25
  0
DICTIONARY
  5
326
330
65
100
AcDbDictionary
280
     1
281
     1
  3
ACAD_ROUNDTRIP_2008_TABLESTYLE_CELLSTYLEMAP
360
327
  0
XRECORD
  5
1C
102
{ACAD_REACTORS
330
1A
102
}
330
1A
100
AcDbXrecord
280
     1
270
     1
271
     1
  0
XRECORD
  5
1B
102
{ACAD_REACTORS
330
1A
102
}
330
1A
100
AcDbXrecord
280
     1
270
     1
271
     1
  0
XRECORD
  5
1F
102
{ACAD_REACTORS
330
1A
102
}
330
1A
100
AcDbXrecord
280
     1
270
     1
271
     1
  0
XRECORD
  5
1E
102
{ACAD_REACTORS
330
1A
102
}
330
1A
100
AcDbXrecord
280
     1
270
     1
271
     1
  0
XRECORD
  5
20
102
{ACAD_REACTORS
330
1A
102
}
330
1A
100
AcDbXrecord
280
     1
270
     1
271
     1
  0
XRECORD
  5
1D
102
{ACAD_REACTORS
330
1A
102
}
330
1A
100
AcDbXrecord
280
     1
270
     1
271
     1
  0
XRECORD
  5
14
102
{ACAD_REACTORS
330
12
102
}
330
12
100
AcDbXrecord
280
     1
270
     1
271
     1
  0
XRECORD
  5
13
102
{ACAD_REACTORS
330
12
102
}
330
12
100
AcDbXrecord
280
     1
270
     1
271
     1
  0
XRECORD
  5
17
102
{ACAD_REACTORS
330
12
102
}
330
12
100
AcDbXrecord
280
     1
270
     1
271
     1
  0
XRECORD
  5
16
102
{ACAD_REACTORS
330
12
102
}
330
12
100
AcDbXrecord
280
     1
270
     1
271
     1
  0
XRECORD
  5
18
102
{ACAD_REACTORS
330
12
102
}
330
12
100
AcDbXrecord
280
     1
270
     1
271
     1
  0
XRECORD
  5
15
102
{ACAD_REACTORS
330
12
102
}
330
12
100
AcDbXrecord
280
     1
270
     1
271
     1
  0
XRECORD
  5
24
102
{ACAD_REACTORS
330
22
102
}
330
22
100
AcDbXrecord
280
     1
270
     1
271
     1
  0
XRECORD
  5
23
102
{ACAD_REACTORS
330
22
102
}
330
22
100
AcDbXrecord
280
     1
270
     1
271
     1
  0
XRECORD
  5
27
102
{ACAD_REACTORS
330
22
102
}
330
22
100
AcDbXrecord
280
     1
270
     1
271
     1
  0
XRECORD
  5
26
102
{ACAD_REACTORS
330
22
102
}
330
22
100
AcDbXrecord
280
     1
270
     1
271
     1
  0
XRECORD
  5
28
102
{ACAD_REACTORS
330
22
102
}
330
22
100
AcDbXrecord
280
     1
270
     1
271
     1
  0
XRECORD
  5
25
102
{ACAD_REACTORS
330
22
102
}
330
22
100
AcDbXrecord
280
     1
270
     1
271
     1
  0
CELLSTYLEMAP
  5
327
102
{ACAD_REACTORS
330
326
102
}
330
326
100
AcDbCellStyleMap
 90
        3
300
CELLSTYLE
  1
TABLEFORMAT_BEGIN
 90
        5
170
     1
 91
        0
 92
    32768
 62
   257
 93
        1
300
CONTENTFORMAT
  1
CONTENTFORMAT_BEGIN
 90
        0
 91
        0
 92
      512
 93
        0
300

 40
0.0
140
1.0
 94
        5
 62
     0
340
55
144
0.25
309
CONTENTFORMAT_END
171
     0
 94
        0
309
TABLEFORMAT_END
  1
CELLSTYLE_BEGIN
 90
        1
 91
        1
300
_TITLE
309
CELLSTYLE_END
300
CELLSTYLE
  1
TABLEFORMAT_BEGIN
 90
        5
170
     1
 91
        0
 92
        0
 62
   257
 93
        1
300
CONTENTFORMAT
  1
CONTENTFORMAT_BEGIN
 90
        0
 91
        0
 92
      512
 93
        0
300

 40
0.0
140
1.0
 94
        5
 62
     0
340
55
144
0.18
309
CONTENTFORMAT_END
171
     0
 94
        0
309
TABLEFORMAT_END
  1
CELLSTYLE_BEGIN
 90
        2
 91
        1
300
_HEADER
309
CELLSTYLE_END
300
CELLSTYLE
  1
TABLEFORMAT_BEGIN
 90
        5
170
     1
 91
        0
 92
        0
 62
   257
 93
        1
300
CONTENTFORMAT
  1
CONTENTFORMAT_BEGIN
 90
        0
 91
        0
 92
      512
 93
        0
300

 40
0.0
140
1.0
 94
        2
 62
     0
340
55
144
0.18
309
CONTENTFORMAT_END
171
     0
 94
        0
309
TABLEFORMAT_END
  1
CELLSTYLE_BEGIN
 90
        3
 91
        2
300
_DATA
309
CELLSTYLE_END
  0
ENDSEC
  0
EOF
