  0
SECTION
  2
HEADER
  9
$ACADVER
  1
AC1032
  9
$ACADMAINTVER
 90
      197
  9
$DWGCODEPAGE
  3
ANSI_932
  9
$REQUIREDVERSIONS
160
                 0
  9
$INSBASE
 10
0.0
 20
0.0
 30
0.0
  9
$EXTMIN
 10
1.000000000000000E+20
 20
1.000000000000000E+20
 30
1.000000000000000E+20
  9
$EXTMAX
 10
-1.000000000000000E+20
 20
-1.000000000000000E+20
 30
-1.000000000000000E+20
  9
$LIMMIN
 10
0.0
 20
0.0
  9
$LIMMAX
 10
12.0
 20
9.0
  9
$ORTHOMODE
 70
     0
  9
$REGENMODE
 70
     1
  9
$FILLMODE
 70
     1
  9
$QTEXTMODE
 70
     0
  9
$MIRRTEXT
 70
     0
  9
$LTSCALE
 40
1.0
  9
$ATTMODE
 70
     1
  9
$TEXTSIZE
 40
0.2
  9
$TRACEWID
 40
0.05
  9
$TEXTSTYLE
  7
Standard
  9
$CLAYER
  8
0
  9
$CELTYPE
  6
ByLayer
  9
$CECOLOR
 62
   256
  9
$CELTSCALE
 40
1.0
  9
$DISPSILH
 70
     0
  9
$DIMSCALE
 40
1.0
  9
$DIMASZ
 40
0.18
  9
$DIMEXO
 40
0.0625
  9
$DIMDLI
 40
0.38
  9
$DIMRND
 40
0.0
  9
$DIMDLE
 40
0.0
  9
$DIMEXE
 40
0.18
  9
$DIMTP
 40
0.0
  9
$DIMTM
 40
0.0
  9
$DIMTXT
 40
0.18
  9
$DIMCEN
 40
0.09
  9
$DIMTSZ
 40
0.0
  9
$DIMTOL
 70
     0
  9
$DIMLIM
 70
     0
  9
$DIMTIH
 70
     1
  9
$DIMTOH
 70
     1
  9
$DIMSE1
 70
     0
  9
$DIMSE2
 70
     0
  9
$DIMTAD
 70
     0
  9
$DIMZIN
 70
     0
  9
$DIMBLK
  1

  9
$DIMASO
 70
     1
  9
$DIMSHO
 70
     1
  9
$DIMPOST
  1

  9
$DIMAPOST
  1

  9
$DIMALT
 70
     0
  9
$DIMALTD
 70
     2
  9
$DIMALTF
 40
25.4
  9
$DIMLFAC
 40
1.0
  9
$DIMTOFL
 70
     0
  9
$DIMTVP
 40
0.0
  9
$DIMTIX
 70
     0
  9
$DIMSOXD
 70
     0
  9
$DIMSAH
 70
     0
  9
$DIMBLK1
  1

  9
$DIMBLK2
  1

  9
$DIMSTYLE
  2
Standard
  9
$DIMCLRD
 70
     0
  9
$DIMCLRE
 70
     0
  9
$DIMCLRT
 70
     0
  9
$DIMTFAC
 40
1.0
  9
$DIMGAP
 40
0.09
  9
$DIMJUST
 70
     0
  9
$DIMSD1
 70
     0
  9
$DIMSD2
 70
     0
  9
$DIMTOLJ
 70
     1
  9
$DIMTZIN
 70
     0
  9
$DIMALTZ
 70
     0
  9
$DIMALTTZ
 70
     0
  9
$DIMUPT
 70
     0
  9
$DIMDEC
 70
     4
  9
$DIMTDEC
 70
     4
  9
$DIMALTU
 70
     2
  9
$DIMALTTD
 70
     2
  9
$DIMTXSTY
  7
Standard
  9
$DIMAUNIT
 70
     0
  9
$DIMADEC
 70
     0
  9
$DIMALTRND
 40
0.0
  9
$DIMAZIN
 70
     0
  9
$DIMDSEP
 70
    46
  9
$DIMATFIT
 70
     3
  9
$DIMFRAC
 70
     0
  9
$DIMLDRBLK
  1

  9
$DIMLUNIT
 70
     2
  9
$DIMLWD
 70
    -2
  9
$DIMLWE
 70
    -2
  9
$DIMTMOVE
 70
     0
  9
$DIMFXL
 40
1.0
  9
$DIMFXLON
 70
     0
  9
$DIMJOGANG
 40
0.7853981633974483
  9
$DIMTFILL
 70
     0
  9
$DIMTFILLCLR
 70
     0
  9
$DIMARCSYM
 70
     0
  9
$DIMLTYPE
  6

  9
$DIMLTEX1
  6

  9
$DIMLTEX2
  6

  9
$DIMTXTDIRECTION
 70
     0
  9
$LUNITS
 70
     2
  9
$LUPREC
 70
     4
  9
$SKETCHINC
 40
0.1
  9
$FILLETRAD
 40
0.0
  9
$AUNITS
 70
     0
  9
$AUPREC
 70
     0
  9
$MENU
  1
.
  9
$ELEVATION
 40
0.0
  9
$PELEVATION
 40
0.0
  9
$THICKNESS
 40
0.0
  9
$LIMCHECK
 70
     0
  9
$CHAMFERA
 40
0.0
  9
$CHAMFERB
 40
0.0
  9
$CHAMFERC
 40
0.0
  9
$CHAMFERD
 40
0.0
  9
$SKPOLY
 70
     0
  9
$TDCREATE
 40
2459604.672060185
  9
$TDUCREATE
 40
2459604.297060185
  9
$TDUPDATE
 40
2459604.672060185
  9
$TDUUPDATE
 40
2459604.297060185
  9
$TDINDWG
 40
0.0000000000
  9
$TDUSRTIMER
 40
0.0000000000
  9
$USRTIMER
 70
     1
  9
$ANGBASE
 50
0.0
  9
$ANGDIR
 70
     0
  9
$PDMODE
 70
     0
  9
$PDSIZE
 40
0.0
  9
$PLINEWID
 40
0.0
  9
$SPLFRAME
 70
     0
  9
$SPLINETYPE
 70
     6
  9
$SPLINESEGS
 70
     8
  9
$HANDSEED
  5
1AF
  9
$SURFTAB1
 70
     6
  9
$SURFTAB2
 70
     6
  9
$SURFTYPE
 70
     6
  9
$SURFU
 70
     6
  9
$SURFV
 70
     6
  9
$UCSBASE
  2

  9
$UCSNAME
  2

  9
$UCSORG
 10
0.0
 20
0.0
 30
0.0
  9
$UCSXDIR
 10
1.0
 20
0.0
 30
0.0
  9
$UCSYDIR
 10
0.0
 20
1.0
 30
0.0
  9
$UCSORTHOREF
  2

  9
$UCSORTHOVIEW
 70
     0
  9
$UCSORGTOP
 10
0.0
 20
0.0
 30
0.0
  9
$UCSORGBOTTOM
 10
0.0
 20
0.0
 30
0.0
  9
$UCSORGLEFT
 10
0.0
 20
0.0
 30
0.0
  9
$UCSORGRIGHT
 10
0.0
 20
0.0
 30
0.0
  9
$UCSORGFRONT
 10
0.0
 20
0.0
 30
0.0
  9
$UCSORGBACK
 10
0.0
 20
0.0
 30
0.0
  9
$PUCSBASE
  2

  9
$PUCSNAME
  2

  9
$PUCSORG
 10
0.0
 20
0.0
 30
0.0
  9
$PUCSXDIR
 10
1.0
 20
0.0
 30
0.0
  9
$PUCSYDIR
 10
0.0
 20
1.0
 30
0.0
  9
$PUCSORTHOREF
  2

  9
$PUCSORTHOVIEW
 70
     0
  9
$PUCSORGTOP
 10
0.0
 20
0.0
 30
0.0
  9
$PUCSORGBOTTOM
 10
0.0
 20
0.0
 30
0.0
  9
$PUCSORGLEFT
 10
0.0
 20
0.0
 30
0.0
  9
$PUCSORGRIGHT
 10
0.0
 20
0.0
 30
0.0
  9
$PUCSORGFRONT
 10
0.0
 20
0.0
 30
0.0
  9
$PUCSORGBACK
 10
0.0
 20
0.0
 30
0.0
  9
$USERI1
 70
     0
  9
$USERI2
 70
     0
  9
$USERI3
 70
     0
  9
$USERI4
 70
     0
  9
$USERI5
 70
     0
  9
$USERR1
 40
0.0
  9
$USERR2
 40
0.0
  9
$USERR3
 40
0.0
  9
$USERR4
 40
0.0
  9
$USERR5
 40
0.0
  9
$WORLDVIEW
 70
     1
  9
$SHADEDGE
 70
     3
  9
$SHADEDIF
 70
    70
  9
$TILEMODE
 70
     1
  9
$MAXACTVP
 70
    64
  9
$PINSBASE
 10
0.0
 20
0.0
 30
0.0
  9
$PLIMCHECK
 70
     0
  9
$PEXTMIN
 10
1.000000000000000E+20
 20
1.000000000000000E+20
 30
1.000000000000000E+20
  9
$PEXTMAX
 10
-1.000000000000000E+20
 20
-1.000000000000000E+20
 30
-1.000000000000000E+20
  9
$PLIMMIN
 10
0.0
 20
0.0
  9
$PLIMMAX
 10
12.0
 20
9.0
  9
$UNITMODE
 70
     0
  9
$VISRETAIN
 70
     1
  9
$PLINEGEN
 70
     0
  9
$PSLTSCALE
 70
     1
  9
$TREEDEPTH
 70
  3020
  9
$CMLSTYLE
  2
Standard
  9
$CMLJUST
 70
     0
  9
$CMLSCALE
 40
1.0
  9
$PROXYGRAPHICS
 70
     1
  9
$MEASUREMENT
 70
     0
  9
$CELWEIGHT
370
    -1
  9
$ENDCAPS
280
     0
  9
$JOINSTYLE
280
     0
  9
$LWDISPLAY
290
     1
  9
$INSUNITS
 70
     4
  9
$HYPERLINKBASE
  1

  9
$STYLESHEET
  1

  9
$XEDIT
290
     1
  9
$CEPSNTYPE
380
     0
  9
$PSTYLEMODE
290
     1
  9
$FINGERPRINTGUID
  2
{20789507-9EBD-5A4A-848A-470CDA12D4C8}
  9
$VERSIONGUID
  2
{12277E81-85DB-BE4C-8B80-AD5DB5A64A5E}
  9
$EXTNAMES
290
     1
  9
$PSVPSCALE
 40
0.0
  9
$OLESTARTUP
290
     0
  9
$SORTENTS
280
   127
  9
$INDEXCTL
280
     0
  9
$HIDETEXT
280
     1
  9
$XCLIPFRAME
280
     2
  9
$HALOGAP
280
     0
  9
$OBSCOLOR
 70
   257
  9
$OBSLTYPE
280
     0
  9
$INTERSECTIONDISPLAY
280
     0
  9
$INTERSECTIONCOLOR
 70
   257
  9
$DIMASSOC
280
     2
  9
$PROJECTNAME
  1

  9
$CAMERADISPLAY
290
     0
  9
$LENSLENGTH
 40
50.0
  9
$CAMERAHEIGHT
 40
0.0
  9
$STEPSPERSEC
 40
2.0
  9
$STEPSIZE
 40
6.0
  9
$3DDWFPREC
 40
2.0
  9
$PSOLWIDTH
 40
0.25
  9
$PSOLHEIGHT
 40
4.0
  9
$LOFTANG1
 40
1.570796326794896
  9
$LOFTANG2
 40
1.570796326794896
  9
$LOFTMAG1
 40
0.0
  9
$LOFTMAG2
 40
0.0
  9
$LOFTPARAM
 70
     7
  9
$LOFTNORMALS
280
     1
  9
$LATITUDE
 40
37.795
  9
$LONGITUDE
 40
-122.394
  9
$NORTHDIRECTION
 40
0.0
  9
$TIMEZONE
 70
 -8000
  9
$LIGHTGLYPHDISPLAY
280
     1
  9
$TILEMODELIGHTSYNCH
280
     1
  9
$CMATERIAL
347
11
  9
$SOLIDHIST
280
     0
  9
$SHOWHIST
280
     1
  9
$DWFFRAME
280
     2
  9
$DGNFRAME
280
     0
  9
$REALWORLDSCALE
290
     1
  9
$INTERFERECOLOR
 62
     1
  9
$INTERFEREOBJVS
345
33
  9
$INTERFEREVPVS
346
30
  9
$CSHADOW
280
     0
  9
$SHADOWPLANELOCATION
 40
0.0
  0
ENDSEC
  0
SECTION
  2
CLASSES
  0
CLASS
  1
ACDBDICTIONARYWDFLT
  2
AcDbDictionaryWithDefault
  3
ObjectDBX Classes
 90
        0
 91
        1
280
     0
281
     0
  0
CLASS
  1
MATERIAL
  2
AcDbMaterial
  3
ObjectDBX Classes
 90
     1153
 91
        3
280
     0
281
     0
  0
CLASS
  1
VISUALSTYLE
  2
AcDbVisualStyle
  3
ObjectDBX Classes
 90
     4095
 91
       24
280
     0
281
     0
  0
CLASS
  1
SCALE
  2
AcDbScale
  3
ObjectDBX Classes
 90
     1153
 91
       17
280
     0
281
     0
  0
CLASS
  1
TABLESTYLE
  2
AcDbTableStyle
  3
ObjectDBX Classes
 90
     4095
 91
        1
280
     0
281
     0
  0
CLASS
  1
MLEADERSTYLE
  2
AcDbMLeaderStyle
  3
ACDB_MLEADERSTYLE_CLASS
 90
     4095
 91
        1
280
     0
281
     0
  0
CLASS
  1
ACDBSECTIONVIEWSTYLE
  2
AcDbSectionViewStyle
  3
ObjectDBX Classes
 90
     1025
 91
        1
280
     0
281
     0
  0
CLASS
  1
ACDBDETAILVIEWSTYLE
  2
AcDbDetailViewStyle
  3
ObjectDBX Classes
 90
     1025
 91
        1
280
     0
281
     0
  0
CLASS
  1
DICTIONARYVAR
  2
AcDbDictionaryVar
  3
ObjectDBX Classes
 90
        0
 91
        5
280
     0
281
     0
  0
CLASS
  1
CELLSTYLEMAP
  2
AcDbCellStyleMap
  3
ObjectDBX Classes
 90
     1152
 91
        1
280
     0
281
     0
  0
ENDSEC
  0
SECTION
  2
TABLES
  0
TABLE
  2
VPORT
  5
8
330
0
100
AcDbSymbolTable
 70
     1
  0
VPORT
  5
57
330
8
100
AcDbSymbolTableRecord
100
AcDbViewportTableRecord
  2
*Active
 70
     0
 10
0.0
 20
0.0
 11
1.0
 21
1.0
 12
0.0
 22
0.0
 13
0.0
 23
0.0
 14
1.0
 24
1.0
 15
0.0
 25
0.0
 16
0.0
 26
0.0
 36
1.0
 17
105.0078345989922
 27
148.5053410476718
 37
0.0
 40
302.9508957372506
 41
0.7070980333648977
 42
50.0
 43
0.0
 44
0.0
 50
0.0
 51
0.0
 71
     0
 72
   100
 73
     1
 74
     1
 75
     0
 76
     0
 77
     0
 78
     0
281
     0
 65
     1
110
0.0
120
0.0
130
0.0
111
1.0
121
0.0
131
0.0
112
0.0
122
1.0
132
0.0
 79
     0
146
0.0
 60
     3
 61
     5
292
     1
282
     1
141
0.0
142
0.0
 63
   250
421
  3355443
  0
ENDTAB
  0
TABLE
  2
LTYPE
  5
5
330
0
100
AcDbSymbolTable
 70
     1
  0
LTYPE
  5
5B
330
5
100
AcDbSymbolTableRecord
100
AcDbLinetypeTableRecord
  2
ByBlock
 70
     0
  3

 72
    65
 73
     0
 40
0.0
  0
LTYPE
  5
5C
330
5
100
AcDbSymbolTableRecord
100
AcDbLinetypeTableRecord
  2
ByLayer
 70
     0
  3

 72
    65
 73
     0
 40
0.0
  0
LTYPE
  5
5D
330
5
100
AcDbSymbolTableRecord
100
AcDbLinetypeTableRecord
  2
Continuous
 70
     0
  3
Solid line
 72
    65
 73
     0
 40
0.0
  0
ENDTAB
  0
TABLE
  2
LAYER
  5
2
330
0
100
AcDbSymbolTable
 70
     2
  0
LAYER
  5
54
330
2
100
AcDbSymbolTableRecord
100
AcDbLayerTableRecord
  2
0
 70
     0
 62
     7
  6
Continuous
370
    -3
390
F
347
21
348
0
  0
LAYER
  5
78
330
2
100
AcDbSymbolTableRecord
100
AcDbLayerTableRecord
  2
レイヤー 1
 70
     0
 62
     7
  6
Continuous
370
     0
390
F
347
21
348
0
  0
ENDTAB
  0
TABLE
  2
STYLE
  5
3
330
0
100
AcDbSymbolTable
 70
     2
  0
STYLE
  5
55
330
3
100
AcDbSymbolTableRecord
100
AcDbTextStyleTableRecord
  2
Standard
 70
     0
 40
0.0
 41
1.0
 50
0.0
 71
     0
 42
0.2
  3
txt
  4

  0
STYLE
  5
5A
330
3
100
AcDbSymbolTableRecord
100
AcDbTextStyleTableRecord
  2
Annotative
 70
     0
 40
0.0
 41
1.0
 50
0.0
 71
     0
 42
0.2
  3
txt
  4

1001
AcadAnnotative
1000
AnnotativeData
1002
{
1070
     1
1070
     1
1002
}
  0
ENDTAB
  0
TABLE
  2
VIEW
  5
6
330
0
100
AcDbSymbolTable
 70
     0
  0
ENDTAB
  0
TABLE
  2
UCS
  5
7
330
0
100
AcDbSymbolTable
 70
     0
  0
ENDTAB
  0
TABLE
  2
APPID
  5
9
330
0
100
AcDbSymbolTable
 70
     2
  0
APPID
  5
56
330
9
100
AcDbSymbolTableRecord
100
AcDbRegAppTableRecord
  2
ACAD
 70
     0
  0
APPID
  5
5E
330
9
100
AcDbSymbolTableRecord
100
AcDbRegAppTableRecord
  2
AcadAnnotative
 70
     0
  0
ENDTAB
  0
TABLE
  2
DIMSTYLE
  5
A
330
0
100
AcDbSymbolTable
 70
     2
100
AcDbDimStyleTable
 71
     0
  0
DIMSTYLE
105
58
330
A
100
AcDbSymbolTableRecord
100
AcDbDimStyleTableRecord
  2
Standard
 70
     0
340
55
  0
DIMSTYLE
105
59
330
A
100
AcDbSymbolTableRecord
100
AcDbDimStyleTableRecord
  2
Annotative
 70
     0
340
55
1001
AcadAnnotative
1000
AnnotativeData
1002
{
1070
     1
1070
     1
1002
}
  0
ENDTAB
  0
TABLE
  2
BLOCK_RECORD
  5
1
330
0
100
AcDbSymbolTable
 70
     1
  0
BLOCK_RECORD
  5
70
330
1
100
AcDbSymbolTableRecord
100
AcDbBlockTableRecord
  2
*Model_Space
340
73
 70
     0
280
     1
281
     0
  0
BLOCK_RECORD
  5
6C
330
1
100
AcDbSymbolTableRecord
100
AcDbBlockTableRecord
  2
*Paper_Space
340
6F
 70
     0
280
     1
281
     0
  0
BLOCK_RECORD
  5
74
330
1
100
AcDbSymbolTableRecord
100
AcDbBlockTableRecord
  2
*Paper_Space0
340
77
 70
     0
280
     1
281
     0
  0
ENDTAB
  0
ENDSEC
  0
SECTION
  2
BLOCKS
  0
BLOCK
  5
71
330
70
100
AcDbEntity
  8
0
100
AcDbBlockBegin
  2
*Model_Space
 70
     0
 10
0.0
 20
0.0
 30
0.0
  3
*Model_Space
  1

  0
ENDBLK
  5
72
330
70
100
AcDbEntity
  8
0
100
AcDbBlockEnd
  0
BLOCK
  5
6D
330
6C
100
AcDbEntity
 67
     1
  8
0
100
AcDbBlockBegin
  2
*Paper_Space
 70
     0
 10
0.0
 20
0.0
 30
0.0
  3
*Paper_Space
  1

  0
ENDBLK
  5
6E
330
6C
100
AcDbEntity
 67
     1
  8
0
100
AcDbBlockEnd
  0
BLOCK
  5
75
330
74
100
AcDbEntity
 67
     1
  8
0
100
AcDbBlockBegin
  2
*Paper_Space0
 70
     0
 10
0.0
 20
0.0
 30
0.0
  3
*Paper_Space0
  1

  0
ENDBLK
  5
76
330
74
100
AcDbEntity
 67
     1
  8
0
100
AcDbBlockEnd
  0
ENDSEC
  0
SECTION
  2
ENTITIES
  0
LINE
  5
79
330
70
100
AcDbEntity
  8
レイヤー 1
 62
    18
420
        0
370
    25
100
AcDbLine
 10
194.944991338525
 20
253.5343306861282
 30
0.0
 11
194.944991338525
 21
43.60334624154057
 31
0.0
  0
LWPOLYLINE
  5
7A
330
70
100
AcDbEntity
  8
レイヤー 1
 62
    18
420
        0
370
    25
100
AcDbPolyline
 90
        3
 70
     0
 43
0.0
 10
15.02833279128008
 20
253.5343306861282
 10
15.02833279128008
 20
43.60334624154057
 10
194.944991338525
 20
43.60334624154057
  0
SPLINE
  5
7B
330
70
100
AcDbEntity
  8
レイヤー 1
 62
    18
420
        0
370
    25
100
AcDbSpline
210
0.0
220
0.0
230
1.0
 70
    24
 71
     3
 72
     8
 73
     4
 74
     0
 42
0.0000000001
 43
0.0000000001
 40
0.0
 40
0.0
 40
0.0
 40
0.0
 40
1.0
 40
1.0
 40
1.0
 40
1.0
 10
194.944991338525
 20
53.59401548953119
 30
0.0
 10
194.944991338525
 20
53.59401548953119
 30
0.0
 10
15.02832471683754
 20
53.59401548953119
 30
0.0
 10
15.02832471683754
 20
53.59401548953119
 30
0.0
  0
SPLINE
  5
7C
330
70
100
AcDbEntity
  8
レイヤー 1
 62
    18
420
        0
370
    25
100
AcDbSpline
210
0.0
220
0.0
230
1.0
 70
    24
 71
     3
 72
     8
 73
     4
 74
     0
 42
0.0000000001
 43
0.0000000001
 40
0.0
 40
0.0
 40
0.0
 40
0.0
 40
1.0
 40
1.0
 40
1.0
 40
1.0
 10
194.944991338525
 20
63.5846793545601
 30
0.0
 10
194.944991338525
 20
63.5846793545601
 30
0.0
 10
15.02832471683754
 20
63.5846793545601
 30
0.0
 10
15.02832471683754
 20
63.5846793545601
 30
0.0
  0
SPLINE
  5
7D
330
70
100
AcDbEntity
  8
レイヤー 1
 62
    18
420
        0
370
    25
100
AcDbSpline
210
0.0
220
0.0
230
1.0
 70
    24
 71
     3
 72
     8
 73
     4
 74
     0
 42
0.0000000001
 43
0.0000000001
 40
0.0
 40
0.0
 40
0.0
 40
0.0
 40
1.0
 40
1.0
 40
1.0
 40
1.0
 10
194.944991338525
 20
73.57534321958903
 30
0.0
 10
194.944991338525
 20
73.57534321958903
 30
0.0
 10
15.02832471683754
 20
73.57534321958903
 30
0.0
 10
15.02832471683754
 20
73.57534321958903
 30
0.0
  0
SPLINE
  5
7E
330
70
100
AcDbEntity
  8
レイヤー 1
 62
    18
420
        0
370
    25
100
AcDbSpline
210
0.0
220
0.0
230
1.0
 70
    24
 71
     3
 72
     8
 73
     4
 74
     0
 42
0.0000000001
 43
0.0000000001
 40
0.0
 40
0.0
 40
0.0
 40
0.0
 40
1.0
 40
1.0
 40
1.0
 40
1.0
 10
194.944991338525
 20
253.5343306861282
 30
0.0
 10
194.944991338525
 20
253.5343306861282
 30
0.0
 10
15.02832471683754
 20
253.5343306861282
 30
0.0
 10
15.02832471683754
 20
253.5343306861282
 30
0.0
  0
LWPOLYLINE
  5
7F
330
70
100
AcDbEntity
  8
レイヤー 1
 62
    18
420
        0
370
    13
100
AcDbPolyline
 90
        3
 70
     0
 43
0.0
 10
20.99733348957285
 20
55.58368732334366
 10
20.99733348957285
 20
60.57901118141558
 10
24.08766623000782
 20
60.57901118141558
  0
SPLINE
  5
80
330
70
100
AcDbEntity
  8
レイヤー 1
 62
    18
420
        0
370
    13
100
AcDbSpline
210
0.0
220
0.0
230
1.0
 70
    24
 71
     3
 72
     8
 73
     4
 74
     0
 42
0.0000000001
 43
0.0000000001
 40
0.0
 40
0.0
 40
0.0
 40
0.0
 40
1.0
 40
1.0
 40
1.0
 40
1.0
 10
20.99733348957285
 20
58.20833331878125
 30
0.0
 10
20.99733348957285
 20
58.20833331878125
 30
0.0
 10
22.90233268165235
 20
58.20833331878125
 30
0.0
 10
22.90233268165235
 20
58.20833331878125
 30
0.0
  0
SPLINE
  5
81
330
70
100
AcDbEntity
  8
レイヤー 1
 62
    18
420
        0
370
    13
100
AcDbSpline
210
0.0
220
0.0
230
1.0
 70
    24
 71
     3
 72
     8
 73
     4
 74
     0
 42
0.0000000001
 43
0.0000000001
 40
0.0
 40
0.0
 40
0.0
 40
0.0
 40
1.0
 40
1.0
 40
1.0
 40
1.0
 10
20.99733348957285
 20
55.58368732334366
 30
0.0
 10
20.99733348957285
 20
55.58368732334366
 30
0.0
 10
24.08766623000782
 20
55.58368732334366
 30
0.0
 10
24.08766623000782
 20
55.58368732334366
 30
0.0
  0
LWPOLYLINE
  5
82
330
70
100
AcDbEntity
  8
レイヤー 1
 62
    18
420
        0
370
    13
100
AcDbPolyline
 90
        4
 70
     0
 43
0.0
 10
25.52700020893672
 20
59.64767268067185
 10
25.99266407634689
 20
59.85933073454688
 10
26.71233106581134
 20
60.57901118141558
 10
26.71233106581134
 20
55.58368732334366
  0
LWPOLYLINE
  5
83
330
70
100
AcDbEntity
  8
レイヤー 1
 62
    18
420
        0
370
    13
100
AcDbPolyline
 90
        3
 70
     0
 43
0.0
 10
29.33699859309571
 20
60.57901118141558
 10
32.68133041836369
 20
60.57901118141558
 10
30.26833171087774
 20
55.58368732334366
  0
LWPOLYLINE
  5
84
330
70
100
AcDbEntity
  8
レイヤー 1
 62
    18
420
        0
370
    13
100
AcDbPolyline
 90
        3
 70
     0
 43
0.0
 10
41.44433181574298
 20
55.58368732334366
 10
41.78299815934727
 20
55.92234020954372
 10
41.78299815934727
 20
56.26101462759056
  0
LWPOLYLINE
  5
85
330
70
100
AcDbEntity
  8
レイヤー 1
 62
    18
420
        0
370
    13
100
AcDbPolyline
 90
        3
 70
     0
 43
0.0
 10
39.41233375411719
 20
55.92234020954372
 10
39.75100009772149
 20
55.58368732334366
 10
41.44433181574298
 20
55.58368732334366
  0
LINE
  5
86
330
70
100
AcDbEntity
  8
レイヤー 1
 62
    18
420
        0
370
    13
100
AcDbLine
 10
41.78299815934727
 20
59.56300945912183
 30
0.0
 11
41.78299815934727
 21
58.92799223380316
 31
0.0
  0
LWPOLYLINE
  5
87
330
70
100
AcDbEntity
  8
レイヤー 1
 62
    18
420
        0
370
    13
100
AcDbPolyline
 90
        4
 70
     1
 43
0.0
 10
41.10566547213868
 20
57.57333762530936
 10
41.10566547213868
 20
56.26101462759056
 10
37.7613336468707
 20
56.26101462759056
 10
37.7613336468707
 20
57.57333762530936
  0
SPLINE
  5
88
330
70
100
AcDbEntity
  8
レイヤー 1
 62
    18
420
        0
370
    13
100
AcDbSpline
210
0.0
220
0.0
230
1.0
 70
    24
 71
     3
 72
     8
 73
     4
 74
     0
 42
0.0000000001
 43
0.0000000001
 40
0.0
 40
0.0
 40
0.0
 40
0.0
 40
1.0
 40
1.0
 40
1.0
 40
1.0
 10
39.41233375411719
 20
57.57333762530936
 30
0.0
 10
39.41233375411719
 20
57.57333762530936
 30
0.0
 10
39.41233375411719
 20
55.92233482658203
 30
0.0
 10
39.41233375411719
 20
55.92233482658203
 30
0.0
  0
SPLINE
  5
89
330
70
100
AcDbEntity
  8
レイヤー 1
 62
    18
420
        0
370
    13
100
AcDbSpline
210
0.0
220
0.0
230
1.0
 70
    24
 71
     3
 72
     8
 73
     4
 74
     0
 42
0.0000000001
 43
0.0000000001
 40
0.0
 40
0.0
 40
0.0
 40
0.0
 40
1.0
 40
1.0
 40
1.0
 40
1.0
 10
39.41233375411719
 20
60.24033676336873
 30
0.0
 10
39.41233375411719
 20
60.24033676336873
 30
0.0
 10
39.41233375411719
 20
58.25067031251795
 30
0.0
 10
39.41233375411719
 20
58.25067031251795
 30
0.0
  0
SPLINE
  5
8A
330
70
100
AcDbEntity
  8
レイヤー 1
 62
    18
420
        0
370
    13
100
AcDbSpline
210
0.0
220
0.0
230
1.0
 70
    24
 71
     3
 72
     8
 73
     4
 74
     0
 42
0.0000000001
 43
0.0000000001
 40
0.0
 40
0.0
 40
0.0
 40
0.0
 40
1.0
 40
1.0
 40
1.0
 40
1.0
 10
37.08399826818126
 20
59.56300407616014
 30
0.0
 10
37.08399826818126
 20
59.56300407616014
 30
0.0
 10
37.08399826818126
 20
58.92800299972655
 30
0.0
 10
37.08399826818126
 20
58.92800299972655
 30
0.0
  0
SPLINE
  5
8B
330
70
100
AcDbEntity
  8
レイヤー 1
 62
    18
420
        0
370
    13
100
AcDbSpline
210
0.0
220
0.0
230
1.0
 70
    24
 71
     3
 72
     8
 73
     4
 74
     0
 42
0.0000000001
 43
0.0000000001
 40
0.0
 40
0.0
 40
0.0
 40
0.0
 40
1.0
 40
1.0
 40
1.0
 40
1.0
 10
37.7613336468707
 20
56.89599955513907
 30
0.0
 10
37.7613336468707
 20
56.89599955513907
 30
0.0
 10
41.10566547213868
 20
56.89599955513907
 30
0.0
 10
41.10566547213868
 20
56.89599955513907
 30
0.0
  0
SPLINE
  5
8C
330
70
100
AcDbEntity
  8
レイヤー 1
 62
    18
420
        0
370
    13
100
AcDbSpline
210
0.0
220
0.0
230
1.0
 70
    24
 71
     3
 72
     8
 73
     4
 74
     0
 42
0.0000000001
 43
0.0000000001
 40
0.0
 40
0.0
 40
0.0
 40
0.0
 40
1.0
 40
1.0
 40
1.0
 40
1.0
 10
40.08966644132578
 20
58.25067031251795
 30
0.0
 10
40.08966644132578
 20
58.25067031251795
 30
0.0
 10
41.10566547213868
 20
58.25067031251795
 30
0.0
 10
41.10566547213868
 20
58.25067031251795
 30
0.0
  0
SPLINE
  5
8D
330
70
100
AcDbEntity
  8
レイヤー 1
 62
    18
420
        0
370
    13
100
AcDbSpline
210
0.0
220
0.0
230
1.0
 70
    24
 71
     3
 72
     8
 73
     4
 74
     0
 42
0.0000000001
 43
0.0000000001
 40
0.0
 40
0.0
 40
0.0
 40
0.0
 40
1.0
 40
1.0
 40
1.0
 40
1.0
 10
37.7613336468707
 20
58.25067031251795
 30
0.0
 10
37.7613336468707
 20
58.25067031251795
 30
0.0
 10
38.77733267768359
 20
58.25067031251795
 30
0.0
 10
38.77733267768359
 20
58.25067031251795
 30
0.0
  0
SPLINE
  5
8E
330
70
100
AcDbEntity
  8
レイヤー 1
 62
    18
420
        0
370
    13
100
AcDbSpline
210
0.0
220
0.0
230
1.0
 70
    24
 71
     3
 72
     8
 73
     4
 74
     0
 42
0.0000000001
 43
0.0000000001
 40
0.0
 40
0.0
 40
0.0
 40
0.0
 40
1.0
 40
1.0
 40
1.0
 40
1.0
 10
40.08966644132578
 20
58.92800299972655
 30
0.0
 10
40.08966644132578
 20
58.92800299972655
 30
0.0
 10
41.10566547213868
 20
58.92800299972655
 30
0.0
 10
41.10566547213868
 20
58.92800299972655
 30
0.0
  0
SPLINE
  5
8F
330
70
100
AcDbEntity
  8
レイヤー 1
 62
    18
420
        0
370
    13
100
AcDbSpline
210
0.0
220
0.0
230
1.0
 70
    24
 71
     3
 72
     8
 73
     4
 74
     0
 42
0.0000000001
 43
0.0000000001
 40
0.0
 40
0.0
 40
0.0
 40
0.0
 40
1.0
 40
1.0
 40
1.0
 40
1.0
 10
37.7613336468707
 20
58.92800299972655
 30
0.0
 10
37.7613336468707
 20
58.92800299972655
 30
0.0
 10
38.77733267768359
 20
58.92800299972655
 30
0.0
 10
38.77733267768359
 20
58.92800299972655
 30
0.0
  0
SPLINE
  5
90
330
70
100
AcDbEntity
  8
レイヤー 1
 62
    18
420
        0
370
    13
100
AcDbSpline
210
0.0
220
0.0
230
1.0
 70
    24
 71
     3
 72
     8
 73
     4
 74
     0
 42
0.0000000001
 43
0.0000000001
 40
0.0
 40
0.0
 40
0.0
 40
0.0
 40
1.0
 40
1.0
 40
1.0
 40
1.0
 10
37.08399826818126
 20
59.56300407616014
 30
0.0
 10
37.08399826818126
 20
59.56300407616014
 30
0.0
 10
41.78299815934727
 20
59.56300407616014
 30
0.0
 10
41.78299815934727
 20
59.56300407616014
 30
0.0
  0
SPLINE
  5
91
330
70
100
AcDbEntity
  8
レイヤー 1
 62
    18
420
        0
370
    13
100
AcDbSpline
210
0.0
220
0.0
230
1.0
 70
    24
 71
     3
 72
     8
 73
     4
 74
     0
 42
0.0000000001
 43
0.0000000001
 40
0.0
 40
0.0
 40
0.0
 40
0.0
 40
1.0
 40
1.0
 40
1.0
 40
1.0
 10
37.42266461178556
 20
60.24033676336873
 30
0.0
 10
37.42266461178556
 20
60.24033676336873
 30
0.0
 10
41.44433181574298
 20
60.24033676336873
 30
0.0
 10
41.44433181574298
 20
60.24033676336873
 30
0.0
  0
SPLINE
  5
92
330
70
100
AcDbEntity
  8
レイヤー 1
 62
    18
420
        0
370
    13
100
AcDbSpline
210
0.0
220
0.0
230
1.0
 70
    24
 71
     3
 72
     8
 73
     4
 74
     0
 42
0.0000000001
 43
0.0000000001
 40
0.0
 40
0.0
 40
0.0
 40
0.0
 40
1.0
 40
1.0
 40
1.0
 40
1.0
 10
46.77833009186173
 20
60.24033676336873
 30
0.0
 10
46.77833009186173
 20
60.24033676336873
 30
0.0
 10
47.41333116829532
 20
59.90166772828359
 30
0.0
 10
47.41333116829532
 20
59.90166772828359
 30
0.0
  0
LWPOLYLINE
  5
93
330
70
100
AcDbEntity
  8
レイヤー 1
 62
    18
420
        0
370
    13
100
AcDbPolyline
 90
        4
 70
     0
 43
0.0
 10
47.75199482041877
 20
56.26101462759056
 10
47.07466213321017
 20
56.89601032106246
 10
46.77833009186173
 20
57.57333762530936
 10
46.10099740465313
 20
58.5893393476031
  0
SPLINE
  5
94
330
70
100
AcDbEntity
  8
レイヤー 1
 62
    18
420
        0
370
    13
100
AcDbSpline
210
0.0
220
0.0
230
1.0
 70
    24
 71
     3
 72
     8
 73
     4
 74
     0
 42
0.0000000001
 43
0.0000000001
 40
0.0
 40
0.0
 40
0.0
 40
0.0
 40
1.0
 40
1.0
 40
1.0
 40
1.0
 10
47.41333116829532
 20
58.5893393476031
 30
0.0
 10
47.41333116829532
 20
58.5893393476031
 30
0.0
 10
46.77833009186173
 20
57.9120120433562
 30
0.0
 10
46.77833009186173
 20
57.9120120433562
 30
0.0
  0
SPLINE
  5
95
330
70
100
AcDbEntity
  8
レイヤー 1
 62
    18
420
        0
370
    13
100
AcDbSpline
210
0.0
220
0.0
230
1.0
 70
    24
 71
     3
 72
     8
 73
     4
 74
     0
 42
0.0000000001
 43
0.0000000001
 40
0.0
 40
0.0
 40
0.0
 40
0.0
 40
1.0
 40
1.0
 40
1.0
 40
1.0
 10
44.74633203023595
 20
56.59966751379062
 30
0.0
 10
44.74633203023595
 20
56.59966751379062
 30
0.0
 10
45.76233375252968
 20
57.57333762530936
 30
0.0
 10
45.76233375252968
 20
57.57333762530936
 30
0.0
  0
SPLINE
  5
96
330
70
100
AcDbEntity
  8
レイヤー 1
 62
    18
420
        0
370
    13
100
AcDbSpline
210
0.0
220
0.0
230
1.0
 70
    24
 71
     3
 72
     8
 73
     4
 74
     0
 42
0.0000000001
 43
0.0000000001
 40
0.0
 40
0.0
 40
0.0
 40
0.0
 40
1.0
 40
1.0
 40
1.0
 40
1.0
 10
45.08499837384024
 20
58.5893393476031
 30
0.0
 10
45.08499837384024
 20
58.5893393476031
 30
0.0
 10
45.42366471744454
 20
58.25066492955626
 30
0.0
 10
45.42366471744454
 20
58.25066492955626
 30
0.0
  0
LWPOLYLINE
  5
97
330
70
100
AcDbEntity
  8
レイヤー 1
 62
    18
420
        0
370
    13
100
AcDbPolyline
 90
        3
 70
     0
 43
0.0
 10
44.4499999888875
 20
57.2346847391093
 10
43.77266730167891
 20
56.59966751379062
 10
43.0953346144703
 20
56.59966751379062
  0
LINE
  5
98
330
70
100
AcDbEntity
  8
レイヤー 1
 62
    18
420
        0
370
    13
100
AcDbLine
 10
43.77266730167891
 20
56.59966751379062
 30
0.0
 11
43.77266730167891
 21
59.90168387716868
 31
0.0
  0
LWPOLYLINE
  5
99
330
70
100
AcDbEntity
  8
レイヤー 1
 62
    18
420
        0
370
    13
100
AcDbPolyline
 90
        3
 70
     0
 43
0.0
 10
46.10099740465313
 20
60.57901118141558
 10
46.10099740465313
 20
55.58368732334366
 10
45.42366471744454
 20
55.58368732334366
  0
SPLINE
  5
9A
330
70
100
AcDbEntity
  8
レイヤー 1
 62
    18
420
        0
370
    13
100
AcDbSpline
210
0.0
220
0.0
230
1.0
 70
    24
 71
     3
 72
     8
 73
     4
 74
     0
 42
0.0000000001
 43
0.0000000001
 40
0.0
 40
0.0
 40
0.0
 40
0.0
 40
1.0
 40
1.0
 40
1.0
 40
1.0
 10
43.0953346144703
 20
58.25066492955626
 30
0.0
 10
43.0953346144703
 20
58.25066492955626
 30
0.0
 10
44.4499999888875
 20
58.25066492955626
 30
0.0
 10
44.4499999888875
 20
58.25066492955626
 30
0.0
  0
SPLINE
  5
9B
330
70
100
AcDbEntity
  8
レイヤー 1
 62
    18
420
        0
370
    13
100
AcDbSpline
210
0.0
220
0.0
230
1.0
 70
    24
 71
     3
 72
     8
 73
     4
 74
     0
 42
0.0000000001
 43
0.0000000001
 40
0.0
 40
0.0
 40
0.0
 40
0.0
 40
1.0
 40
1.0
 40
1.0
 40
1.0
 10
44.74633203023595
 20
59.26666665185
 30
0.0
 10
44.74633203023595
 20
59.26666665185
 30
0.0
 10
47.75199482041877
 20
59.26666665185
 30
0.0
 10
47.75199482041877
 20
59.26666665185
 30
0.0
  0
SPLINE
  5
9C
330
70
100
AcDbEntity
  8
レイヤー 1
 62
    18
420
        0
370
    13
100
AcDbSpline
210
0.0
220
0.0
230
1.0
 70
    24
 71
     3
 72
     8
 73
     4
 74
     0
 42
0.0000000001
 43
0.0000000001
 40
0.0
 40
0.0
 40
0.0
 40
0.0
 40
1.0
 40
1.0
 40
1.0
 40
1.0
 10
43.0953346144703
 20
59.90168387716868
 30
0.0
 10
43.0953346144703
 20
59.90168387716868
 30
0.0
 10
44.4499999888875
 20
59.90168387716868
 30
0.0
 10
44.4499999888875
 20
59.90168387716868
 30
0.0
  0
LWPOLYLINE
  5
9D
330
70
100
AcDbEntity
  8
レイヤー 1
 62
    18
420
        0
370
    13
100
AcDbPolyline
 90
        3
 70
     0
 43
0.0
 10
49.74166665423125
 20
58.25066492955626
 10
49.44533461288281
 20
57.9120120433562
 10
49.10666557779766
 20
57.9120120433562
  0
LINE
  5
9E
330
70
100
AcDbEntity
  8
レイヤー 1
 62
    18
420
        0
370
    13
100
AcDbLine
 10
50.0803303063547
 20
58.92799223380316
 30
0.0
 11
49.74166665423125
 21
58.25066492955626
 31
0.0
  0
LWPOLYLINE
  5
9F
330
70
100
AcDbEntity
  8
レイヤー 1
 62
    18
420
        0
370
    13
100
AcDbPolyline
 90
        3
 70
     0
 43
0.0
 10
53.76333116670782
 20
60.57901118141558
 10
53.76333116670782
 20
57.9120120433562
 10
53.08599847949922
 20
57.9120120433562
  0
SPLINE
  5
A0
330
70
100
AcDbEntity
  8
レイヤー 1
 62
    18
420
        0
370
    13
100
AcDbSpline
210
0.0
220
0.0
230
1.0
 70
    24
 71
     3
 72
     8
 73
     4
 74
     0
 42
0.0000000001
 43
0.0000000001
 40
0.0
 40
0.0
 40
0.0
 40
0.0
 40
1.0
 40
1.0
 40
1.0
 40
1.0
 10
52.74733482737578
 20
60.24033676336873
 30
0.0
 10
52.74733482737578
 20
60.24033676336873
 30
0.0
 10
52.74733482737578
 20
58.58933396464141
 30
0.0
 10
52.74733482737578
 20
58.58933396464141
 30
0.0
  0
SPLINE
  5
A1
330
70
100
AcDbEntity
  8
レイヤー 1
 62
    18
420
        0
370
    13
100
AcDbSpline
210
0.0
220
0.0
230
1.0
 70
    24
 71
     3
 72
     8
 73
     4
 74
     0
 42
0.0000000001
 43
0.0000000001
 40
0.0
 40
0.0
 40
0.0
 40
0.0
 40
1.0
 40
1.0
 40
1.0
 40
1.0
 10
51.43500106373359
 20
57.57333224234766
 30
0.0
 10
51.43500106373359
 20
57.57333224234766
 30
0.0
 10
51.43500106373359
 20
55.58366579149688
 30
0.0
 10
51.43500106373359
 20
55.58366579149688
 30
0.0
  0
SPLINE
  5
A2
330
70
100
AcDbEntity
  8
レイヤー 1
 62
    18
420
        0
370
    13
100
AcDbSpline
210
0.0
220
0.0
230
1.0
 70
    24
 71
     3
 72
     8
 73
     4
 74
     0
 42
0.0000000001
 43
0.0000000001
 40
0.0
 40
0.0
 40
0.0
 40
0.0
 40
1.0
 40
1.0
 40
1.0
 40
1.0
 10
51.09633202864845
 20
60.24033676336873
 30
0.0
 10
51.09633202864845
 20
60.24033676336873
 30
0.0
 10
51.09633202864845
 20
57.9120012774328
 30
0.0
 10
51.09633202864845
 20
57.9120012774328
 30
0.0
  0
SPLINE
  5
A3
330
70
100
AcDbEntity
  8
レイヤー 1
 62
    18
420
        0
370
    13
100
AcDbSpline
210
0.0
220
0.0
230
1.0
 70
    24
 71
     3
 72
     8
 73
     4
 74
     0
 42
0.0000000001
 43
0.0000000001
 40
0.0
 40
0.0
 40
0.0
 40
0.0
 40
1.0
 40
1.0
 40
1.0
 40
1.0
 10
50.0803303063547
 20
60.24033676336873
 30
0.0
 10
50.0803303063547
 20
60.24033676336873
 30
0.0
 10
50.0803303063547
 20
58.92800299972655
 30
0.0
 10
50.0803303063547
 20
58.92800299972655
 30
0.0
  0
SPLINE
  5
A4
330
70
100
AcDbEntity
  8
レイヤー 1
 62
    18
420
        0
370
    13
100
AcDbSpline
210
0.0
220
0.0
230
1.0
 70
    24
 71
     3
 72
     8
 73
     4
 74
     0
 42
0.0000000001
 43
0.0000000001
 40
0.0
 40
0.0
 40
0.0
 40
0.0
 40
1.0
 40
1.0
 40
1.0
 40
1.0
 10
49.10666557779766
 20
55.58366579149688
 30
0.0
 10
49.10666557779766
 20
55.58366579149688
 30
0.0
 10
53.76333116670782
 20
55.58366579149688
 30
0.0
 10
53.76333116670782
 20
55.58366579149688
 30
0.0
  0
SPLINE
  5
A5
330
70
100
AcDbEntity
  8
レイヤー 1
 62
    18
420
        0
370
    13
100
AcDbSpline
210
0.0
220
0.0
230
1.0
 70
    24
 71
     3
 72
     8
 73
     4
 74
     0
 42
0.0000000001
 43
0.0000000001
 40
0.0
 40
0.0
 40
0.0
 40
0.0
 40
1.0
 40
1.0
 40
1.0
 40
1.0
 10
49.74166665423125
 20
56.89599955513907
 30
0.0
 10
49.74166665423125
 20
56.89599955513907
 30
0.0
 10
53.08599847949922
 20
56.89599955513907
 30
0.0
 10
53.08599847949922
 20
56.89599955513907
 30
0.0
  0
SPLINE
  5
A6
330
70
100
AcDbEntity
  8
レイヤー 1
 62
    18
420
        0
370
    13
100
AcDbSpline
210
0.0
220
0.0
230
1.0
 70
    24
 71
     3
 72
     8
 73
     4
 74
     0
 42
0.0000000001
 43
0.0000000001
 40
0.0
 40
0.0
 40
0.0
 40
0.0
 40
1.0
 40
1.0
 40
1.0
 40
1.0
 10
49.10666557779766
 20
59.26666665185
 30
0.0
 10
49.10666557779766
 20
59.26666665185
 30
0.0
 10
52.11233375094219
 20
59.26666665185
 30
0.0
 10
52.11233375094219
 20
59.26666665185
 30
0.0
  0
SPLINE
  5
A7
330
70
100
AcDbEntity
  8
レイヤー 1
 62
    18
420
        0
370
    13
100
AcDbSpline
210
0.0
220
0.0
230
1.0
 70
    24
 71
     3
 72
     8
 73
     4
 74
     0
 42
0.0000000001
 43
0.0000000001
 40
0.0
 40
0.0
 40
0.0
 40
0.0
 40
1.0
 40
1.0
 40
1.0
 40
1.0
 10
49.44533461288281
 20
60.24033676336873
 30
0.0
 10
49.44533461288281
 20
60.24033676336873
 30
0.0
 10
51.77366471585704
 20
60.24033676336873
 30
0.0
 10
51.77366471585704
 20
60.24033676336873
 30
0.0
  0
LWPOLYLINE
  5
A8
330
70
100
AcDbEntity
  8
レイヤー 1
 62
    18
420
        0
370
    13
100
AcDbPolyline
 90
        3
 70
     0
 43
0.0
 10
55.07566493035001
 20
60.57901118141558
 10
55.07566493035001
 20
55.58368732334366
 10
57.95432750524612
 20
55.58368732334366
  0
LWPOLYLINE
  5
A9
330
70
100
AcDbEntity
  8
レイヤー 1
 62
    18
420
        0
370
    13
100
AcDbPolyline
 90
        3
 70
     0
 43
0.0
 10
59.13966643656328
 20
55.58368732334366
 10
59.13966643656328
 20
60.57901118141558
 10
62.22999783125782
 20
60.57901118141558
  0
SPLINE
  5
AA
330
70
100
AcDbEntity
  8
レイヤー 1
 62
    18
420
        0
370
    13
100
AcDbSpline
210
0.0
220
0.0
230
1.0
 70
    24
 71
     3
 72
     8
 73
     4
 74
     0
 42
0.0000000001
 43
0.0000000001
 40
0.0
 40
0.0
 40
0.0
 40
0.0
 40
1.0
 40
1.0
 40
1.0
 40
1.0
 10
59.13966643656328
 20
58.20833331878125
 30
0.0
 10
59.13966643656328
 20
58.20833331878125
 30
0.0
 10
61.04466428290235
 20
58.20833331878125
 30
0.0
 10
61.04466428290235
 20
58.20833331878125
 30
0.0
  0
SPLINE
  5
AB
330
70
100
AcDbEntity
  8
レイヤー 1
 62
    18
420
        0
370
    13
100
AcDbSpline
210
0.0
220
0.0
230
1.0
 70
    24
 71
     3
 72
     8
 73
     4
 74
     0
 42
0.0000000001
 43
0.0000000001
 40
0.0
 40
0.0
 40
0.0
 40
0.0
 40
1.0
 40
1.0
 40
1.0
 40
1.0
 10
59.13966643656328
 20
55.58368732334366
 30
0.0
 10
59.13966643656328
 20
55.58368732334366
 30
0.0
 10
62.22999783125782
 20
55.58368732334366
 30
0.0
 10
62.22999783125782
 20
55.58368732334366
 30
0.0
  0
LWPOLYLINE
  5
AC
330
70
100
AcDbEntity
  8
レイヤー 1
 62
    18
420
        0
370
    13
100
AcDbPolyline
 90
       12
 70
     1
 43
0.0
 10
63.66933181018673
 20
55.58368732334366
 10
63.66933181018673
 20
60.57901656437728
 10
65.32032922595236
 20
60.57901656437728
 10
66.03999352393596
 20
60.32501613380384
 10
66.50566277430783
 20
59.85935226639367
 10
66.75966320488126
 20
59.39368301602181
 10
67.01366363545471
 20
58.67401871803821
 10
67.01366363545471
 20
57.48868516968274
 10
66.75966320488126
 20
56.76901548873743
 10
66.50566277430783
 20
56.30335162132727
 10
66.03999352393596
 20
55.8376823709554
 10
65.32032922595236
 20
55.58368732334366
  0
LWPOLYLINE
  5
AD
330
70
100
AcDbEntity
  8
レイヤー 1
 62
    18
420
        0
370
    13
100
AcDbPolyline
 90
        3
 70
     0
 43
0.0
 10
71.33166557224142
 20
56.26101462759056
 10
70.65433288503282
 20
55.92234020954372
 10
69.97700019782422
 20
55.92234020954372
  0
LWPOLYLINE
  5
AE
330
70
100
AcDbEntity
  8
レイヤー 1
 62
    18
420
        0
370
    13
100
AcDbPolyline
 90
        6
 70
     0
 43
0.0
 10
71.33166557224142
 20
56.26101462759056
 10
72.00899825945
 20
56.59966751379062
 10
72.64399933588361
 20
57.2346847391093
 10
72.98266298800704
 20
57.9120120433562
 10
72.98266298800704
 20
58.5893393476031
 10
69.00333008630548
 20
58.5893393476031
  0
LINE
  5
AF
330
70
100
AcDbEntity
  8
レイヤー 1
 62
    18
420
        0
370
    13
100
AcDbLine
 10
69.34199373842893
 20
59.90168387716868
 30
0.0
 11
72.64399933588361
 21
59.90168387716868
 31
0.0
  0
LWPOLYLINE
  5
B0
330
70
100
AcDbEntity
  8
レイヤー 1
 62
    18
420
        0
370
    13
100
AcDbPolyline
 90
        3
 70
     0
 43
0.0
 10
78.65533029921095
 20
57.57333762530936
 10
78.9939993342961
 20
58.25066492955626
 10
78.9939993342961
 20
58.92799223380316
  0
LWPOLYLINE
  5
B1
330
70
100
AcDbEntity
  8
レイヤー 1
 62
    18
420
        0
370
    13
100
AcDbPolyline
 90
        3
 70
     0
 43
0.0
 10
78.65533029921095
 20
57.57333762530936
 10
77.63933395987891
 20
56.59966751379062
 10
76.32700019623673
 20
55.92234020954372
  0
SPLINE
  5
B2
330
70
100
AcDbEntity
  8
レイヤー 1
 62
    18
420
        0
370
    13
100
AcDbSpline
210
0.0
220
0.0
230
1.0
 70
    24
 71
     3
 72
     8
 73
     4
 74
     0
 42
0.0000000001
 43
0.0000000001
 40
0.0
 40
0.0
 40
0.0
 40
0.0
 40
1.0
 40
1.0
 40
1.0
 40
1.0
 10
75.31100385690468
 20
59.90168387716868
 30
0.0
 10
75.31100385690468
 20
59.90168387716868
 30
0.0
 10
76.66566923132187
 20
59.26666665185
 30
0.0
 10
76.66566923132187
 20
59.26666665185
 30
0.0
  0
SPLINE
  5
B3
330
70
100
AcDbEntity
  8
レイヤー 1
 62
    18
420
        0
370
    13
100
AcDbSpline
210
0.0
220
0.0
230
1.0
 70
    24
 71
     3
 72
     8
 73
     4
 74
     0
 42
0.0000000001
 43
0.0000000001
 40
0.0
 40
0.0
 40
0.0
 40
0.0
 40
1.0
 40
1.0
 40
1.0
 40
1.0
 10
75.64966750902812
 20
55.92234020954372
 30
0.0
 10
75.64966750902812
 20
55.92234020954372
 30
0.0
 10
76.32700019623673
 20
55.92234020954372
 30
0.0
 10
76.32700019623673
 20
55.92234020954372
 30
0.0
  0
LWPOLYLINE
  5
B4
330
70
100
AcDbEntity
  8
レイヤー 1
 62
    18
420
        0
370
    13
100
AcDbPolyline
 90
        9
 70
     0
 43
0.0
 10
81.32232943727032
 20
55.92234020954372
 10
81.99966212447893
 20
55.92234020954372
 10
83.31199588812111
 20
56.59967289675232
 10
83.98932857532971
 20
57.23466859022421
 10
84.32799222745316
 20
57.91200666039451
 10
84.66666126253832
 20
58.5893393476031
 10
84.66666126253832
 20
59.26667203481169
 10
83.98932857532971
 20
59.56300407616014
 10
80.98366040218518
 20
59.56300407616014
  0
LWPOLYLINE
  5
B5
330
70
100
AcDbEntity
  8
レイヤー 1
 62
    18
420
        0
370
    13
100
AcDbPolyline
 90
        8
 70
     1
 43
0.0
 10
84.6666666455
 20
60.57903271326236
 10
85.00533029762346
 20
60.57903271326236
 10
85.3439993327086
 20
60.24036367817721
 10
85.3439993327086
 20
59.90169464309207
 10
85.00533029762346
 20
59.56303099096862
 10
84.6666666455
 20
59.56303099096862
 10
84.32799761041485
 20
59.90169464309207
 10
84.32799761041485
 20
60.24036367817721
  0
LWPOLYLINE
  5
B6
330
70
100
AcDbEntity
  8
レイヤー 1
 62
    18
420
        0
370
    13
100
AcDbPolyline
 90
        3
 70
     0
 43
0.0
 10
89.6620012694953
 20
60.57901118141558
 10
89.6620012694953
 20
55.58368732334366
 10
92.49832685065472
 20
55.58368732334366
  0
LWPOLYLINE
  5
B7
330
70
100
AcDbEntity
  8
レイヤー 1
 62
    18
420
        0
370
    13
100
AcDbPolyline
 90
       12
 70
     1
 43
0.0
 10
93.68366578197187
 20
55.58368732334366
 10
93.68366578197187
 20
60.57901656437728
 10
95.37699480851252
 20
60.57901656437728
 10
96.09666448945782
 20
60.32501613380384
 10
96.5623229739063
 20
59.85935226639367
 10
96.81632340447974
 20
59.39368301602181
 10
97.02799222427817
 20
58.67401871803821
 10
97.02799222427817
 20
57.48868516968274
 10
96.81632340447974
 20
56.76901548873743
 10
96.5623229739063
 20
56.30335162132727
 10
96.09666448945782
 20
55.8376823709554
 10
95.37699480851252
 20
55.58368732334366
  0
LWPOLYLINE
  5
B8
330
70
100
AcDbEntity
  8
レイヤー 1
 62
    18
420
        0
370
    13
100
AcDbPolyline
 90
        3
 70
     0
 43
0.0
 10
98.7213320167422
 20
55.58368732334366
 10
100.6263298630812
 20
60.57901118141558
 10
102.5313277094203
 20
55.58368732334366
  0
LINE
  5
B9
330
70
100
AcDbEntity
  8
レイヤー 1
 62
    18
420
        0
370
    13
100
AcDbLine
 10
99.39865932098911
 20
57.2346847391093
 30
0.0
 11
101.811658028475
 21
57.2346847391093
 31
0.0
  0
LWPOLYLINE
  5
BA
330
70
100
AcDbEntity
  8
レイヤー 1
 62
    18
420
        0
370
    13
100
AcDbPolyline
 90
       28
 70
     1
 43
0.0
 10
105.1136636259297
 20
60.57903271326236
 10
104.4363255557594
 20
60.32503228268893
 10
104.182325125186
 20
59.85936303231707
 10
104.182325125186
 20
59.39369916490689
 10
104.4363255557594
 20
58.92802991453503
 10
104.9019948061312
 20
58.6740294839616
 10
105.8333225409516
 20
58.42002905338816
 10
106.5529922218969
 20
58.20836561655142
 10
107.0186614722687
 20
57.74269636617956
 10
107.2726619028422
 20
57.23469550503269
 10
107.2726619028422
 20
56.51503120704909
 10
107.0186614722687
 20
56.04936195667722
 10
106.8069926524703
 20
55.83769851984049
 10
106.087322971525
 20
55.58369808926705
 10
105.1136636259297
 20
55.58369808926705
 10
104.4363255557594
 20
55.83769851984049
 10
104.182325125186
 20
56.04936195667722
 10
103.9283246946125
 20
56.51503120704909
 10
103.9283246946125
 20
57.23469550503269
 10
104.182325125186
 20
57.74269636617956
 10
104.6479943755578
 20
58.20836561655142
 10
105.3676532905797
 20
58.42002905338816
 10
106.2989917913234
 20
58.6740294839616
 10
106.8069926524703
 20
58.92802991453503
 10
107.0186614722687
 20
59.39369916490689
 10
107.0186614722687
 20
59.85936303231707
 10
106.8069926524703
 20
60.32503228268893
 10
106.087322971525
 20
60.57903271326236
  0
LWPOLYLINE
  5
BB
330
70
100
AcDbEntity
  8
レイヤー 1
 62
    18
420
        0
370
    13
100
AcDbPolyline
 90
        3
 70
     0
 43
0.0
 10
108.7120012647328
 20
60.57901118141558
 10
108.7120012647328
 20
55.58368732334366
 10
111.5483268458922
 20
55.58368732334366
  0
SPLINE
  5
BC
330
70
100
AcDbEntity
  8
レイヤー 1
 62
    18
420
        0
370
    13
100
AcDbSpline
210
0.0
220
0.0
230
1.0
 70
    24
 71
     3
 72
     8
 73
     4
 74
     0
 42
0.0000000001
 43
0.0000000001
 40
0.0
 40
0.0
 40
0.0
 40
0.0
 40
1.0
 40
1.0
 40
1.0
 40
1.0
 10
116.7553302896859
 20
56.26101462759056
 30
0.0
 10
116.7553302896859
 20
56.26101462759056
 30
0.0
 10
113.4110038473796
 20
59.90168387716868
 30
0.0
 10
113.4110038473796
 20
59.90168387716868
 30
0.0
  0
SPLINE
  5
BD
330
70
100
AcDbEntity
  8
レイヤー 1
 62
    18
420
        0
370
    13
100
AcDbSpline
210
0.0
220
0.0
230
1.0
 70
    24
 71
     3
 72
     8
 73
     4
 74
     0
 42
0.0000000001
 43
0.0000000001
 40
0.0
 40
0.0
 40
0.0
 40
0.0
 40
1.0
 40
1.0
 40
1.0
 40
1.0
 10
116.7553302896859
 20
59.90168387716868
 30
0.0
 10
116.7553302896859
 20
59.90168387716868
 30
0.0
 10
113.4110038473796
 20
56.26101462759056
 30
0.0
 10
113.4110038473796
 20
56.26101462759056
 30
0.0
  0
LWPOLYLINE
  5
BE
330
70
100
AcDbEntity
  8
レイヤー 1
 62
    18
420
        0
370
    13
100
AcDbPolyline
 90
       14
 70
     0
 43
0.0
 10
118.9990025540718
 20
59.39368301602181
 10
118.9990025540718
 20
59.64767806363354
 10
119.2106606079469
 20
60.11334731400541
 10
119.4646610385203
 20
60.32501613380384
 10
119.9303302888922
 20
60.57901118141558
 10
120.9040004004109
 20
60.57901118141558
 10
121.3696588848594
 20
60.32501613380384
 10
121.5813277046578
 20
60.11334731400541
 10
121.8353281352313
 20
59.64767806363354
 10
121.8353281352313
 20
59.13968258544837
 10
121.5813277046578
 20
58.6740133350765
 10
121.1156692202093
 20
57.9543490370929
 10
118.7450021234984
 20
55.58368194038197
 10
122.0893285658047
 20
55.58368194038197
  0
LINE
  5
BF
330
70
100
AcDbEntity
  8
レイヤー 1
 62
    18
420
        0
370
    13
100
AcDbLine
 10
125.1796653434609
 20
60.24033676336873
 30
0.0
 11
128.1853281336437
 21
60.24033676336873
 31
0.0
  0
LWPOLYLINE
  5
C0
330
70
100
AcDbEntity
  8
レイヤー 1
 62
    18
420
        0
370
    13
100
AcDbPolyline
 90
        3
 70
     0
 43
0.0
 10
126.1533246890563
 20
55.58368732334366
 10
126.8306627592266
 20
55.58368732334366
 10
126.8306627592266
 20
60.24033676336873
  0
LINE
  5
C1
330
70
100
AcDbEntity
  8
レイヤー 1
 62
    18
420
        0
370
    13
100
AcDbLine
 10
123.4863255509969
 20
59.26666665185
 30
0.0
 11
123.4863255509969
 21
58.25066492955626
 31
0.0
  0
LWPOLYLINE
  5
C2
330
70
100
AcDbEntity
  8
レイヤー 1
 62
    18
420
        0
370
    13
100
AcDbPolyline
 90
        4
 70
     0
 43
0.0
 10
124.1636636211672
 20
60.57901118141558
 10
124.1636636211672
 20
57.57333762530936
 10
123.8249999690437
 20
56.26101462759056
 10
123.4863255509969
 20
55.92234020954372
  0
LWPOLYLINE
  5
C3
330
70
100
AcDbEntity
  8
レイヤー 1
 62
    18
420
        0
370
    13
100
AcDbPolyline
 90
        3
 70
     0
 43
0.0
 10
125.1796653434609
 20
59.56300945912183
 10
125.1796653434609
 20
59.26666665185
 10
124.8409909254141
 20
58.92799223380316
  0
LWPOLYLINE
  5
C4
330
70
100
AcDbEntity
  8
レイヤー 1
 62
    18
420
        0
370
    13
100
AcDbPolyline
 90
        3
 70
     0
 43
0.0
 10
124.1636636211672
 20
57.57333762530936
 10
124.8409909254141
 20
56.89601032106246
 10
124.8409909254141
 20
56.59966751379062
  0
SPLINE
  5
C5
330
70
100
AcDbEntity
  8
レイヤー 1
 62
    18
420
        0
370
    13
100
AcDbSpline
210
0.0
220
0.0
230
1.0
 70
    24
 71
     3
 72
     8
 73
     4
 74
     0
 42
0.0000000001
 43
0.0000000001
 40
0.0
 40
0.0
 40
0.0
 40
0.0
 40
1.0
 40
1.0
 40
1.0
 40
1.0
 10
21.03966510034786
 20
66.33632556528441
 30
0.0
 10
21.03966510034786
 20
66.33632556528441
 30
0.0
 10
21.03966510034786
 20
71.33167095520311
 30
0.0
 10
21.03966510034786
 20
71.33167095520311
 30
0.0
  0
SPLINE
  5
C6
330
70
100
AcDbEntity
  8
レイヤー 1
 62
    18
420
        0
370
    13
100
AcDbSpline
210
0.0
220
0.0
230
1.0
 70
    24
 71
     3
 72
     8
 73
     4
 74
     0
 42
0.0000000001
 43
0.0000000001
 40
0.0
 40
0.0
 40
0.0
 40
0.0
 40
1.0
 40
1.0
 40
1.0
 40
1.0
 10
24.38400096283711
 20
71.33167095520311
 30
0.0
 10
24.38400096283711
 20
71.33167095520311
 30
0.0
 10
21.03966510034786
 20
68.02967612367183
 30
0.0
 10
21.03966510034786
 20
68.02967612367183
 30
0.0
  0
SPLINE
  5
C7
330
70
100
AcDbEntity
  8
レイヤー 1
 62
    18
420
        0
370
    13
100
AcDbSpline
210
0.0
220
0.0
230
1.0
 70
    24
 71
     3
 72
     8
 73
     4
 74
     0
 42
0.0000000001
 43
0.0000000001
 40
0.0
 40
0.0
 40
0.0
 40
0.0
 40
1.0
 40
1.0
 40
1.0
 40
1.0
 10
22.22499999444375
 20
69.2150042890656
 30
0.0
 10
22.22499999444375
 20
69.2150042890656
 30
0.0
 10
24.38400096283711
 20
66.33632556528441
 30
0.0
 10
24.38400096283711
 20
66.33632556528441
 30
0.0
  0
LWPOLYLINE
  5
C8
330
70
100
AcDbEntity
  8
レイヤー 1
 62
    18
420
        0
370
    13
100
AcDbPolyline
 90
       18
 70
     0
 43
0.0
 10
29.59099902366915
 20
70.14634278980934
 10
29.37933020387072
 20
70.61200665721951
 10
28.8713320342047
 20
71.12000751836638
 10
28.40566547531368
 20
71.33167095520311
 10
27.47433235753165
 20
71.33167095520311
 10
27.00866310715979
 20
71.12000751836638
 10
26.50066493749376
 20
70.61200665721951
 10
26.28899880917618
 20
70.14634278980934
 10
26.03499837860275
 20
69.42667310886403
 10
26.03499837860275
 20
68.24133956050856
 10
26.28899880917618
 20
67.52167526252496
 10
26.50066493749376
 20
67.0560060121531
 10
27.00866310715979
 20
66.59034214474293
 10
27.47433235753165
 20
66.33634171416949
 10
28.40566547531368
 20
66.33634171416949
 10
28.8713320342047
 20
66.59034214474293
 10
29.37933020387072
 20
67.0560060121531
 10
29.59099902366915
 20
67.52167526252496
  0
LWPOLYLINE
  5
C9
330
70
100
AcDbEntity
  8
レイヤー 1
 62
    18
420
        0
370
    13
100
AcDbPolyline
 90
       14
 70
     0
 43
0.0
 10
31.28433343317149
 20
70.14634278980934
 10
31.28433343317149
 20
70.40033783742107
 10
31.49599956148906
 20
70.86600708779293
 10
31.7499999920625
 20
71.12000751836638
 10
32.21566655095351
 20
71.33167095520311
 10
33.18933127951055
 20
71.33167095520311
 10
33.65499783840157
 20
71.12000751836638
 10
33.90899826897501
 20
70.86600708779293
 10
34.12066439729259
 20
70.40033783742107
 10
34.12066439729259
 20
69.9346739700109
 10
33.90899826897501
 20
69.42667310886403
 10
33.40100009930899
 20
68.70700881088044
 10
31.03033300259805
 20
66.33634171416949
 10
34.37466482786603
 20
66.33634171416949
  0
LWPOLYLINE
  5
CA
330
70
100
AcDbEntity
  8
レイヤー 1
 62
    18
420
        0
370
    13
100
AcDbPolyline
 90
       23
 70
     0
 43
0.0
 10
38.65033246239688
 20
70.6120120401812
 10
38.39633203182345
 20
71.12000751836638
 10
37.718996653134
 20
71.33167633816481
 10
37.21099848346798
 20
71.33167633816481
 10
36.49133149400352
 20
71.12000751836638
 10
36.02566493511251
 20
70.40034322038278
 10
35.81399880679493
 20
69.21500967202731
 10
35.81399880679493
 20
68.02967612367183
 10
36.02566493511251
 20
67.05601139511479
 10
36.49133149400352
 20
66.59034214474293
 10
37.21099848346798
 20
66.33634171416949
 10
37.46499891404141
 20
66.33634171416949
 10
38.18466321202502
 20
66.59034214474293
 10
38.65033246239688
 20
67.05601139511479
 10
38.90433020148947
 20
67.77567569309841
 10
38.90433020148947
 20
68.02967612367183
 10
38.65033246239688
 20
68.70700881088044
 10
38.18466321202502
 20
69.21500967202731
 10
37.46499891404141
 20
69.42667849182574
 10
37.21099848346798
 20
69.42667849182574
 10
36.49133149400352
 20
69.21500967202731
 10
36.02566493511251
 20
68.70700881088044
 10
35.81399880679493
 20
68.02967612367183
  0
LWPOLYLINE
  5
CB
330
70
100
AcDbEntity
  8
レイヤー 1
 62
    18
420
        0
370
    13
100
AcDbPolyline
 90
       23
 70
     0
 43
0.0
 10
43.39166665581875
 20
70.6120120401812
 10
43.17999783602032
 20
71.12000751836638
 10
42.46033084655587
 20
71.33167633816481
 10
41.99466428766485
 20
71.33167633816481
 10
41.27499998968125
 20
71.12000751836638
 10
40.80933073930938
 20
70.40034322038278
 10
40.55533300021679
 20
69.21500967202731
 10
40.55533300021679
 20
68.02967612367183
 10
40.80933073930938
 20
67.05601139511479
 10
41.27499998968125
 20
66.59034214474293
 10
41.99466428766485
 20
66.33634171416949
 10
42.20633310746328
 20
66.33634171416949
 10
42.92599740544688
 20
66.59034214474293
 10
43.39166665581875
 20
67.05601139511479
 10
43.64566439491134
 20
67.77567569309841
 10
43.64566439491134
 20
68.02967612367183
 10
43.39166665581875
 20
68.70700881088044
 10
42.92599740544688
 20
69.21500967202731
 10
42.20633310746328
 20
69.42667849182574
 10
41.99466428766485
 20
69.42667849182574
 10
41.27499998968125
 20
69.21500967202731
 10
40.80933073930938
 20
68.70700881088044
 10
40.55533300021679
 20
68.02967612367183
  0
LWPOLYLINE
  5
CC
330
70
100
AcDbEntity
  8
レイヤー 1
 62
    18
420
        0
370
    13
100
AcDbPolyline
 90
       17
 70
     0
 43
0.0
 10
48.17533246001563
 20
71.33167095520311
 10
45.80466536330469
 20
71.33167095520311
 10
45.55066493273126
 20
69.2150042890656
 10
45.80466536330469
 20
69.42666772590235
 10
46.5243296612883
 20
69.68066815647578
 10
47.20166234849689
 20
69.68066815647578
 10
47.9213320294422
 20
69.42666772590235
 10
48.42932750762737
 20
68.96100385849218
 10
48.64099632742579
 20
68.24133417754687
 10
48.64099632742579
 20
67.77567031013671
 10
48.42932750762737
 20
67.0560006291914
 10
47.9213320294422
 20
66.59033676178125
 10
47.20166234849689
 20
66.3363363312078
 10
46.5243296612883
 20
66.3363363312078
 10
45.80466536330469
 20
66.59033676178125
 10
45.55066493273126
 20
66.84433719235467
 10
45.29666450215782
 20
67.31000105976484
  0
LWPOLYLINE
  5
CD
330
70
100
AcDbEntity
  8
レイヤー 1
 62
    18
420
        0
370
    25
100
AcDbPolyline
 90
       47
 70
     1
 43
0.0
 10
97.02800299020156
 20
130.4290219298765
 10
97.11266621175157
 20
129.5823466506827
 10
97.36666664232501
 20
128.6933505266374
 10
97.78999351599848
 20
127.8890176241421
 10
98.38266836461876
 20
127.1270163324218
 10
99.10232727964066
 20
126.4073466514765
 10
99.94900255883436
 20
125.7723509580046
 10
100.9226619044297
 20
125.2220184860827
 10
101.9809952374984
 20
124.7563492357109
 10
103.1240025580406
 20
124.3753539728124
 10
104.3516623342094
 20
124.163685153014
 10
105.5793328763015
 20
123.9943479439905
 10
106.8493350291687
 20
123.9943479439905
 10
108.1193264161125
 20
124.0790219314639
 10
109.3469969582047
 20
124.290679985339
 10
110.5323358895218
 20
124.6293544033858
 10
111.6330008333656
 20
125.0526812770593
 10
112.6490025556593
 20
125.5606821382062
 10
113.5379986797047
 20
126.1533462209031
 10
114.3423315822
 20
126.8730159018484
 10
114.9773272756719
 20
127.5926855827937
 10
115.4429965260437
 20
128.397018485289
 10
115.7816601781672
 20
129.2436829985593
 10
115.9509973871906
 20
130.1326791226046
 10
115.9509973871906
 20
130.9793544017983
 10
115.7816601781672
 20
131.8683505258437
 10
115.4429965260437
 20
132.6726834283389
 10
114.9349956648969
 20
133.4770163308343
 10
114.25766836065
 20
134.2390176225546
 10
113.4956670689297
 20
134.9163449268015
 10
112.5643285681859
 20
135.5090197754218
 10
111.5483268458922
 20
136.0170206365687
 10
110.4476619020484
 20
136.4403475102421
 10
109.2623337366547
 20
136.7366795515906
 10
108.0346631945625
 20
136.906016760614
 10
106.7646610416953
 20
136.990679982164
 10
105.4946696547515
 20
136.948348371389
 10
104.2669991126593
 20
136.8213535390639
 10
103.0393285705672
 20
136.5673531084905
 10
101.8963320159484
 20
136.1863470796687
 10
100.8379986828797
 20
135.7206885952202
 10
99.90666018213596
 20
135.1280137465999
 10
99.05999566886565
 20
134.493018053128
 10
98.34032598792035
 20
133.7733483721827
 10
97.74766190522347
 20
132.9690154696874
 10
97.36666664232501
 20
132.1646825671921
 10
97.11266621175157
 20
131.3180180539218
  0
LWPOLYLINE
  5
CE
330
70
100
AcDbEntity
  8
レイヤー 1
 62
    18
420
        0
370
    25
100
AcDbPolyline
 90
        3
 70
     0
 43
0.0
 10
108.6273272772594
 20
191.2196803992437
 10
106.7646610416953
 20
192.9976726473343
 10
106.4683290003469
 20
136.990679982164
  0
LWPOLYLINE
  5
CF
330
70
100
AcDbEntity
  8
レイヤー 1
 62
    18
420
        0
370
    25
100
AcDbPolyline
 90
        5
 70
     0
 43
0.0
 10
106.7646610416953
 20
192.9976726473343
 10
106.8493242632453
 20
195.7070033961687
 10
108.8813277078328
 20
198.3316709234531
 10
109.0083333060812
 20
200.2790111464906
 10
106.6799978201453
 20
197.5696803976562
  0
LINE
  5
D0
330
70
100
AcDbEntity
  8
レイヤー 1
 62
    18
420
        0
370
    25
100
AcDbLine
 10
108.8813277078328
 20
198.3316709234531
 30
0.0
 11
111.5906692225906
 21
195.6223401746187
 31
0.0
  0
LWPOLYLINE
  5
D1
330
70
100
AcDbEntity
  8
レイヤー 1
 62
    18
420
        0
370
    25
100
AcDbPolyline
 90
        4
 70
     0
 43
0.0
 10
106.6799978201453
 20
117.2210103059812
 10
103.9283246946125
 20
115.1466752506187
 10
102.4889960986453
 20
117.5173423473296
 10
99.65267051748593
 20
115.7816709440906
  0
LWPOLYLINE
  5
D2
330
70
100
AcDbEntity
  8
レイヤー 1
 62
    18
420
        0
370
    25
100
AcDbPolyline
 90
       76
 70
     0
 43
0.0
 10
89.36566922814687
 20
118.1100171959499
 10
89.36566922814687
 20
120.9463427771093
 10
86.31766406126564
 20
119.0836765415453
 10
86.31766406126564
 20
121.9623444994031
 10
83.9470023475164
 20
120.142009874614
 10
82.97333223599766
 20
122.2586765407515
 10
80.17933288265156
 20
121.0310167645827
 10
79.58666879995468
 20
123.9520163332155
 10
76.45400041152344
 20
122.3433505282249
 10
76.83500105738359
 20
125.0950128878343
 10
74.0410017040375
 20
123.7826791241921
 10
74.0410017040375
 20
126.3650150407015
 10
71.33166557224142
 20
125.3066817076327
 10
71.33166557224142
 20
127.8466752474437
 10
68.11433396226016
 20
126.9576791233984
 10
68.87633525398046
 20
129.2860146093343
 10
65.27799761517735
 20
128.7780137481874
 10
66.54799976804453
 20
131.02167524665
 10
62.99199912297813
 20
131.02167524665
 10
64.55833331719375
 20
133.1383419127874
 10
60.70600063077891
 20
132.757346649889
 10
62.35699804654454
 20
134.8316817052515
 10
58.5469969709047
 20
134.8316817052515
 10
60.32499998491875
 20
136.906016760614
 10
56.55733590301561
 20
136.906016760614
 10
58.50466536012969
 20
139.0650150375265
 10
54.69466966745155
 20
139.3613470788749
 10
57.31933181177423
 20
141.5626769665624
 10
53.29766729929765
 20
142.1130094384843
 10
56.13399826341876
 20
143.8063492309483
 10
52.19700235545389
 20
144.8223401873187
 10
54.90633310428829
 20
146.3463427707593
 10
51.77366471585704
 20
147.1930072840297
 10
54.65233267371485
 20
148.8440154657187
 10
50.54599955672657
 20
149.775343200539
 10
53.72099955593281
 20
151.7226834235765
 10
50.37666773066484
 20
152.7810059907218
 10
53.6363363343828
 20
154.3473509508608
 10
50.46133633517655
 20
155.1940154641312
 10
53.42466751458437
 20
156.6756756708734
 10
50.0803356893164
 20
157.8186829914155
 10
53.5939993406461
 20
159.2580115873827
 10
50.63066816123828
 20
161.0360146013968
 10
54.56766406920314
 20
162.0943479344655
 10
51.26566923767186
 20
164.0840090023546
 10
55.37200235466015
 20
165.0153475030984
 10
52.70500321660077
 20
166.8356821278874
 10
57.02299977042578
 20
167.7246782519327
 10
54.65233267371485
 20
169.7566816965202
 10
57.95433288820781
 20
170.0530137378687
 10
56.09166665264375
 20
172.6776812651531
 10
60.45200020020547
 20
173.3550085694
 10
58.50466536012969
 20
175.8103496535843
 10
63.16133094903985
 20
176.1490133057078
 10
61.04466428290235
 20
178.4773487916437
 10
65.65899826103751
 20
178.4773487916437
 10
63.96566923449686
 20
181.144347929703
 10
68.79166664946875
 20
180.8056735116562
 10
67.43700127505156
 20
183.4726726497156
 10
71.88199804416329
 20
182.6683505131437
 10
71.45866578752813
 20
185.6316709266281
 10
75.86133094586486
 20
184.6580008151093
 10
75.86133094586486
 20
187.3249999531688
 10
80.34866470871328
 20
186.3090197627218
 10
79.7560006260164
 20
188.6796760935093
 10
83.69300191694296
 20
187.9600171784874
 10
83.39666449263281
 20
190.4576683416
 10
87.84166664470625
 20
189.1030137331062
 10
87.84166664470625
 20
191.2620120100187
 10
91.94799437873284
 20
189.7380094265781
 10
91.94799437873284
 20
192.1509973681406
 10
96.35066492003126
 20
190.5423530949968
 10
97.19732943330159
 20
192.9130094257843
 10
100.4146610432828
 20
191.0926640350719
 10
101.9809952374984
 20
193.0823358688843
 10
104.3516623342094
 20
191.2196803992437
  0
SPLINE
  5
D3
330
70
100
AcDbEntity
  8
レイヤー 1
 62
    18
420
        0
370
    25
100
AcDbSpline
210
0.0
220
0.0
230
1.0
 70
    24
 71
     3
 72
     8
 73
     4
 74
     0
 42
0.0000000001
 43
0.0000000001
 40
0.0
 40
0.0
 40
0.0
 40
0.0
 40
1.0
 40
1.0
 40
1.0
 40
1.0
 10
101.9810060034218
 20
193.0823574007311
 30
0.0
 10
101.9810060034218
 20
193.0823574007311
 30
0.0
 10
105.9603389051234
 20
136.9906907480874
 30
0.0
 10
105.9603389051234
 20
136.9906907480874
 30
0.0
  0
SPLINE
  5
D4
330
70
100
AcDbEntity
  8
レイヤー 1
 62
    18
420
        0
370
    25
100
AcDbSpline
210
0.0
220
0.0
230
1.0
 70
    24
 71
     3
 72
     8
 73
     4
 74
     0
 42
0.0000000001
 43
0.0000000001
 40
0.0
 40
0.0
 40
0.0
 40
0.0
 40
1.0
 40
1.0
 40
1.0
 40
1.0
 10
97.19732943330159
 20
192.9130094257843
 30
0.0
 10
97.19732943330159
 20
192.9130094257843
 30
0.0
 10
105.4523380439765
 20
136.9906907480874
 30
0.0
 10
105.4523380439765
 20
136.9906907480874
 30
0.0
  0
SPLINE
  5
D5
330
70
100
AcDbEntity
  8
レイヤー 1
 62
    18
420
        0
370
    25
100
AcDbSpline
210
0.0
220
0.0
230
1.0
 70
    24
 71
     3
 72
     8
 73
     4
 74
     0
 42
0.0000000001
 43
0.0000000001
 40
0.0
 40
0.0
 40
0.0
 40
0.0
 40
1.0
 40
1.0
 40
1.0
 40
1.0
 10
92.70999567045315
 20
188.9336872900061
 30
0.0
 10
92.70999567045315
 20
188.9336872900061
 30
0.0
 10
104.9866687936046
 20
136.948348371389
 30
0.0
 10
104.9866687936046
 20
136.948348371389
 30
0.0
  0
SPLINE
  5
D6
330
70
100
AcDbEntity
  8
レイヤー 1
 62
    18
420
        0
370
    25
100
AcDbSpline
210
0.0
220
0.0
230
1.0
 70
    24
 71
     3
 72
     8
 73
     4
 74
     0
 42
0.0000000001
 43
0.0000000001
 40
0.0
 40
0.0
 40
0.0
 40
0.0
 40
1.0
 40
1.0
 40
1.0
 40
1.0
 10
88.73066815171327
 20
188.3410232073093
 30
0.0
 10
88.73066815171327
 20
188.3410232073093
 30
0.0
 10
104.6480051414812
 20
136.906016760614
 30
0.0
 10
104.6480051414812
 20
136.906016760614
 30
0.0
  0
SPLINE
  5
D7
330
70
100
AcDbEntity
  8
レイヤー 1
 62
    18
420
        0
370
    25
100
AcDbSpline
210
0.0
220
0.0
230
1.0
 70
    24
 71
     3
 72
     8
 73
     4
 74
     0
 42
0.0000000001
 43
0.0000000001
 40
0.0
 40
0.0
 40
0.0
 40
0.0
 40
1.0
 40
1.0
 40
1.0
 40
1.0
 10
84.53967181317498
 20
187.4096847065655
 30
0.0
 10
84.53967181317498
 20
187.4096847065655
 30
0.0
 10
104.2669991126593
 20
136.8213535390639
 30
0.0
 10
104.2669991126593
 20
136.8213535390639
 30
0.0
  0
SPLINE
  5
D8
330
70
100
AcDbEntity
  8
レイヤー 1
 62
    18
420
        0
370
    25
100
AcDbSpline
210
0.0
220
0.0
230
1.0
 70
    24
 71
     3
 72
     8
 73
     4
 74
     0
 42
0.0000000001
 43
0.0000000001
 40
0.0
 40
0.0
 40
0.0
 40
0.0
 40
1.0
 40
1.0
 40
1.0
 40
1.0
 10
81.02600277888358
 20
185.8856821231249
 30
0.0
 10
81.02600277888358
 20
185.8856821231249
 30
0.0
 10
103.8436722389859
 20
136.7366795515906
 30
0.0
 10
103.8436722389859
 20
136.7366795515906
 30
0.0
  0
SPLINE
  5
D9
330
70
100
AcDbEntity
  8
レイヤー 1
 62
    18
420
        0
370
    25
100
AcDbSpline
210
0.0
220
0.0
230
1.0
 70
    24
 71
     3
 72
     8
 73
     4
 74
     0
 42
0.0000000001
 43
0.0000000001
 40
0.0
 40
0.0
 40
0.0
 40
0.0
 40
1.0
 40
1.0
 40
1.0
 40
1.0
 10
77.30067030775545
 20
184.6580223469561
 30
0.0
 10
77.30067030775545
 20
184.6580223469561
 30
0.0
 10
103.378002988614
 20
136.6520163300405
 30
0.0
 10
103.378002988614
 20
136.6520163300405
 30
0.0
  0
SPLINE
  5
DA
330
70
100
AcDbEntity
  8
レイヤー 1
 62
    18
420
        0
370
    25
100
AcDbSpline
210
0.0
220
0.0
230
1.0
 70
    24
 71
     3
 72
     8
 73
     4
 74
     0
 42
0.0000000001
 43
0.0000000001
 40
0.0
 40
0.0
 40
0.0
 40
0.0
 40
1.0
 40
1.0
 40
1.0
 40
1.0
 10
73.70233805191404
 20
182.1603496519968
 30
0.0
 10
73.70233805191404
 20
182.1603496519968
 30
0.0
 10
102.9546653490172
 20
136.5250214977155
 30
0.0
 10
102.9546653490172
 20
136.5250214977155
 30
0.0
  0
SPLINE
  5
DB
330
70
100
AcDbEntity
  8
レイヤー 1
 62
    18
420
        0
370
    25
100
AcDbSpline
210
0.0
220
0.0
230
1.0
 70
    24
 71
     3
 72
     8
 73
     4
 74
     0
 42
0.0000000001
 43
0.0000000001
 40
0.0
 40
0.0
 40
0.0
 40
0.0
 40
1.0
 40
1.0
 40
1.0
 40
1.0
 10
69.72300515021249
 20
180.3400150272077
 30
0.0
 10
69.72300515021249
 20
180.3400150272077
 30
0.0
 10
102.4466644878703
 20
136.3980158994671
 30
0.0
 10
102.4466644878703
 20
136.3980158994671
 30
0.0
  0
SPLINE
  5
DC
330
70
100
AcDbEntity
  8
レイヤー 1
 62
    18
420
        0
370
    25
100
AcDbSpline
210
0.0
220
0.0
230
1.0
 70
    24
 71
     3
 72
     8
 73
     4
 74
     0
 42
0.0000000001
 43
0.0000000001
 40
0.0
 40
0.0
 40
0.0
 40
0.0
 40
1.0
 40
1.0
 40
1.0
 40
1.0
 10
66.59033676178125
 20
178.0540219179702
 30
0.0
 10
66.59033676178125
 20
178.0540219179702
 30
0.0
 10
101.8963320159484
 20
136.186357845592
 30
0.0
 10
101.8963320159484
 20
136.186357845592
 30
0.0
  0
SPLINE
  5
DD
330
70
100
AcDbEntity
  8
レイヤー 1
 62
    18
420
        0
370
    25
100
AcDbSpline
210
0.0
220
0.0
230
1.0
 70
    24
 71
     3
 72
     8
 73
     4
 74
     0
 42
0.0000000001
 43
0.0000000001
 40
0.0
 40
0.0
 40
0.0
 40
0.0
 40
1.0
 40
1.0
 40
1.0
 40
1.0
 10
61.04466966586405
 20
178.4773487916437
 30
0.0
 10
61.04466966586405
 20
178.4773487916437
 30
0.0
 10
101.2190047117015
 20
135.9323574150186
 30
0.0
 10
101.2190047117015
 20
135.9323574150186
 30
0.0
  0
SPLINE
  5
DE
330
70
100
AcDbEntity
  8
レイヤー 1
 62
    18
420
        0
370
    25
100
AcDbSpline
210
0.0
220
0.0
230
1.0
 70
    24
 71
     3
 72
     8
 73
     4
 74
     0
 42
0.0000000001
 43
0.0000000001
 40
0.0
 40
0.0
 40
0.0
 40
0.0
 40
1.0
 40
1.0
 40
1.0
 40
1.0
 10
60.45200020020547
 20
173.3550193353233
 30
0.0
 10
60.45200020020547
 20
173.3550193353233
 30
0.0
 10
100.6263298630812
 20
135.6360253736702
 30
0.0
 10
100.6263298630812
 20
135.6360253736702
 30
0.0
  0
SPLINE
  5
DF
330
70
100
AcDbEntity
  8
レイヤー 1
 62
    18
420
        0
370
    25
100
AcDbSpline
210
0.0
220
0.0
230
1.0
 70
    24
 71
     3
 72
     8
 73
     4
 74
     0
 42
0.0000000001
 43
0.0000000001
 40
0.0
 40
0.0
 40
0.0
 40
0.0
 40
1.0
 40
1.0
 40
1.0
 40
1.0
 10
57.95433827116951
 20
170.0530137378687
 30
0.0
 10
57.95433827116951
 20
170.0530137378687
 30
0.0
 10
100.1606713786328
 20
135.3820141771733
 30
0.0
 10
100.1606713786328
 20
135.3820141771733
 30
0.0
  0
SPLINE
  5
E0
330
70
100
AcDbEntity
  8
レイヤー 1
 62
    18
420
        0
370
    25
100
AcDbSpline
210
0.0
220
0.0
230
1.0
 70
    24
 71
     3
 72
     8
 73
     4
 74
     0
 42
0.0000000001
 43
0.0000000001
 40
0.0
 40
0.0
 40
0.0
 40
0.0
 40
1.0
 40
1.0
 40
1.0
 40
1.0
 10
57.02300515338748
 20
167.7246890178561
 30
0.0
 10
57.02300515338748
 20
167.7246890178561
 30
0.0
 10
99.69500212826094
 20
135.0433505250499
 30
0.0
 10
99.69500212826094
 20
135.0433505250499
 30
0.0
  0
SPLINE
  5
E1
330
70
100
AcDbEntity
  8
レイヤー 1
 62
    18
420
        0
370
    25
100
AcDbSpline
210
0.0
220
0.0
230
1.0
 70
    24
 71
     3
 72
     8
 73
     4
 74
     0
 42
0.0000000001
 43
0.0000000001
 40
0.0
 40
0.0
 40
0.0
 40
0.0
 40
1.0
 40
1.0
 40
1.0
 40
1.0
 10
55.37200235466015
 20
165.0153475030984
 30
0.0
 10
55.37200235466015
 20
165.0153475030984
 30
0.0
 10
99.35633847613749
 20
134.7893500944765
 30
0.0
 10
99.35633847613749
 20
134.7893500944765
 30
0.0
  0
SPLINE
  5
E2
330
70
100
AcDbEntity
  8
レイヤー 1
 62
    18
420
        0
370
    25
100
AcDbSpline
210
0.0
220
0.0
230
1.0
 70
    24
 71
     3
 72
     8
 73
     4
 74
     0
 42
0.0000000001
 43
0.0000000001
 40
0.0
 40
0.0
 40
0.0
 40
0.0
 40
1.0
 40
1.0
 40
1.0
 40
1.0
 10
54.56766945216483
 20
162.0943479344655
 30
0.0
 10
54.56766945216483
 20
162.0943479344655
 30
0.0
 10
98.97533244731564
 20
134.450686442353
 30
0.0
 10
98.97533244731564
 20
134.450686442353
 30
0.0
  0
SPLINE
  5
E3
330
70
100
AcDbEntity
  8
レイヤー 1
 62
    18
420
        0
370
    25
100
AcDbSpline
210
0.0
220
0.0
230
1.0
 70
    24
 71
     3
 72
     8
 73
     4
 74
     0
 42
0.0000000001
 43
0.0000000001
 40
0.0
 40
0.0
 40
0.0
 40
0.0
 40
1.0
 40
1.0
 40
1.0
 40
1.0
 10
53.59400472360779
 20
159.2580223533061
 30
0.0
 10
53.59400472360779
 20
159.2580223533061
 30
0.0
 10
98.59433718441717
 20
134.1120227902296
 30
0.0
 10
98.59433718441717
 20
134.1120227902296
 30
0.0
  0
SPLINE
  5
E4
330
70
100
AcDbEntity
  8
レイヤー 1
 62
    18
420
        0
370
    25
100
AcDbSpline
210
0.0
220
0.0
230
1.0
 70
    24
 71
     3
 72
     8
 73
     4
 74
     0
 42
0.0000000001
 43
0.0000000001
 40
0.0
 40
0.0
 40
0.0
 40
0.0
 40
1.0
 40
1.0
 40
1.0
 40
1.0
 10
54.48300084765312
 20
155.617353103728
 30
0.0
 10
54.48300084765312
 20
155.617353103728
 30
0.0
 10
98.29800514306874
 20
133.7733483721827
 30
0.0
 10
98.29800514306874
 20
133.7733483721827
 30
0.0
  0
SPLINE
  5
E5
330
70
100
AcDbEntity
  8
レイヤー 1
 62
    18
420
        0
370
    25
100
AcDbSpline
210
0.0
220
0.0
230
1.0
 70
    24
 71
     3
 72
     8
 73
     4
 74
     0
 42
0.0000000001
 43
0.0000000001
 40
0.0
 40
0.0
 40
0.0
 40
0.0
 40
1.0
 40
1.0
 40
1.0
 40
1.0
 10
53.25533568852264
 20
153.881681700489
 30
0.0
 10
53.25533568852264
 20
153.881681700489
 30
0.0
 10
98.00166233579689
 20
133.3923531092843
 30
0.0
 10
98.00166233579689
 20
133.3923531092843
 30
0.0
  0
SPLINE
  5
E6
330
70
100
AcDbEntity
  8
レイヤー 1
 62
    18
420
        0
370
    25
100
AcDbSpline
210
0.0
220
0.0
230
1.0
 70
    24
 71
     3
 72
     8
 73
     4
 74
     0
 42
0.0000000001
 43
0.0000000001
 40
0.0
 40
0.0
 40
0.0
 40
0.0
 40
1.0
 40
1.0
 40
1.0
 40
1.0
 10
54.61000644590153
 20
151.0030245085546
 30
0.0
 10
54.61000644590153
 20
151.0030245085546
 30
0.0
 10
97.62066707289845
 20
132.7996890265874
 30
0.0
 10
97.62066707289845
 20
132.7996890265874
 30
0.0
  0
SPLINE
  5
E7
330
70
100
AcDbEntity
  8
レイヤー 1
 62
    18
420
        0
370
    25
100
AcDbSpline
210
0.0
220
0.0
230
1.0
 70
    24
 71
     3
 72
     8
 73
     4
 74
     0
 42
0.0000000001
 43
0.0000000001
 40
0.0
 40
0.0
 40
0.0
 40
0.0
 40
1.0
 40
1.0
 40
1.0
 40
1.0
 10
55.66833977897029
 20
147.8703561201233
 30
0.0
 10
55.66833977897029
 20
147.8703561201233
 30
0.0
 10
97.36666664232501
 20
132.2070141779671
 30
0.0
 10
97.36666664232501
 20
132.2070141779671
 30
0.0
  0
SPLINE
  5
E8
330
70
100
AcDbEntity
  8
レイヤー 1
 62
    18
420
        0
370
    25
100
AcDbSpline
210
0.0
220
0.0
230
1.0
 70
    24
 71
     3
 72
     8
 73
     4
 74
     0
 42
0.0000000001
 43
0.0000000001
 40
0.0
 40
0.0
 40
0.0
 40
0.0
 40
1.0
 40
1.0
 40
1.0
 40
1.0
 10
57.02300515338748
 20
144.9070141747921
 30
0.0
 10
57.02300515338748
 20
144.9070141747921
 30
0.0
 10
97.19732943330159
 20
131.6566817060452
 30
0.0
 10
97.19732943330159
 20
131.6566817060452
 30
0.0
  0
SPLINE
  5
E9
330
70
100
AcDbEntity
  8
レイヤー 1
 62
    18
420
        0
370
    25
100
AcDbSpline
210
0.0
220
0.0
230
1.0
 70
    24
 71
     3
 72
     8
 73
     4
 74
     0
 42
0.0000000001
 43
0.0000000001
 40
0.0
 40
0.0
 40
0.0
 40
0.0
 40
1.0
 40
1.0
 40
1.0
 40
1.0
 10
58.37767052780467
 20
142.5786894547796
 30
0.0
 10
58.37767052780467
 20
142.5786894547796
 30
0.0
 10
97.07033460097656
 20
131.0640176233484
 30
0.0
 10
97.07033460097656
 20
131.0640176233484
 30
0.0
  0
SPLINE
  5
EA
330
70
100
AcDbEntity
  8
レイヤー 1
 62
    18
420
        0
370
    25
100
AcDbSpline
210
0.0
220
0.0
230
1.0
 70
    24
 71
     3
 72
     8
 73
     4
 74
     0
 42
0.0000000001
 43
0.0000000001
 40
0.0
 40
0.0
 40
0.0
 40
0.0
 40
1.0
 40
1.0
 40
1.0
 40
1.0
 10
59.39366686713672
 20
140.2080223580686
 30
0.0
 10
59.39366686713672
 20
140.2080223580686
 30
0.0
 10
97.02800299020156
 20
130.6406907496749
 30
0.0
 10
97.02800299020156
 20
130.6406907496749
 30
0.0
  0
SPLINE
  5
EB
330
70
100
AcDbEntity
  8
レイヤー 1
 62
    18
420
        0
370
    25
100
AcDbSpline
210
0.0
220
0.0
230
1.0
 70
    24
 71
     3
 72
     8
 73
     4
 74
     0
 42
0.0000000001
 43
0.0000000001
 40
0.0
 40
0.0
 40
0.0
 40
0.0
 40
1.0
 40
1.0
 40
1.0
 40
1.0
 10
61.12933827037576
 20
137.9220184829077
 30
0.0
 10
61.12933827037576
 20
137.9220184829077
 30
0.0
 10
97.02800299020156
 20
130.217353110078
 30
0.0
 10
97.02800299020156
 20
130.217353110078
 30
0.0
  0
SPLINE
  5
EC
330
70
100
AcDbEntity
  8
レイヤー 1
 62
    18
420
        0
370
    25
100
AcDbSpline
210
0.0
220
0.0
230
1.0
 70
    24
 71
     3
 72
     8
 73
     4
 74
     0
 42
0.0000000001
 43
0.0000000001
 40
0.0
 40
0.0
 40
0.0
 40
0.0
 40
1.0
 40
1.0
 40
1.0
 40
1.0
 10
63.03433611671483
 20
136.3980158994671
 30
0.0
 10
63.03433611671483
 20
136.3980158994671
 30
0.0
 10
97.11266621175157
 20
129.6670206381562
 30
0.0
 10
97.11266621175157
 20
129.6670206381562
 30
0.0
  0
SPLINE
  5
ED
330
70
100
AcDbEntity
  8
レイヤー 1
 62
    18
420
        0
370
    25
100
AcDbSpline
210
0.0
220
0.0
230
1.0
 70
    24
 71
     3
 72
     8
 73
     4
 74
     0
 42
0.0000000001
 43
0.0000000001
 40
0.0
 40
0.0
 40
0.0
 40
0.0
 40
1.0
 40
1.0
 40
1.0
 40
1.0
 10
65.0240079505273
 20
134.450686442353
 30
0.0
 10
65.0240079505273
 20
134.450686442353
 30
0.0
 10
97.19732943330159
 20
129.2436829985593
 30
0.0
 10
97.19732943330159
 20
129.2436829985593
 30
0.0
  0
SPLINE
  5
EE
330
70
100
AcDbEntity
  8
レイヤー 1
 62
    18
420
        0
370
    25
100
AcDbSpline
210
0.0
220
0.0
230
1.0
 70
    24
 71
     3
 72
     8
 73
     4
 74
     0
 42
0.0000000001
 43
0.0000000001
 40
0.0
 40
0.0
 40
0.0
 40
0.0
 40
1.0
 40
1.0
 40
1.0
 40
1.0
 10
67.14067461666481
 20
132.630351817564
 30
0.0
 10
67.14067461666481
 20
132.630351817564
 30
0.0
 10
97.36666664232501
 20
128.8203561248858
 30
0.0
 10
97.36666664232501
 20
128.8203561248858
 30
0.0
  0
SPLINE
  5
EF
330
70
100
AcDbEntity
  8
レイヤー 1
 62
    18
420
        0
370
    25
100
AcDbSpline
210
0.0
220
0.0
230
1.0
 70
    24
 71
     3
 72
     8
 73
     4
 74
     0
 42
0.0000000001
 43
0.0000000001
 40
0.0
 40
0.0
 40
0.0
 40
0.0
 40
1.0
 40
1.0
 40
1.0
 40
1.0
 10
97.83233589269688
 20
127.9313492349171
 30
0.0
 10
97.83233589269688
 20
127.9313492349171
 30
0.0
 10
71.79733482261328
 20
129.1166881662343
 30
0.0
 10
71.79733482261328
 20
129.1166881662343
 30
0.0
  0
SPLINE
  5
F0
330
70
100
AcDbEntity
  8
レイヤー 1
 62
    18
420
        0
370
    25
100
AcDbSpline
210
0.0
220
0.0
230
1.0
 70
    24
 71
     3
 72
     8
 73
     4
 74
     0
 42
0.0000000001
 43
0.0000000001
 40
0.0
 40
0.0
 40
0.0
 40
0.0
 40
1.0
 40
1.0
 40
1.0
 40
1.0
 10
69.59600493492576
 20
130.7676855819999
 30
0.0
 10
69.59600493492576
 20
130.7676855819999
 30
0.0
 10
97.53600385134843
 20
128.439350096064
 30
0.0
 10
97.53600385134843
 20
128.439350096064
 30
0.0
  0
SPLINE
  5
F1
330
70
100
AcDbEntity
  8
レイヤー 1
 62
    18
420
        0
370
    25
100
AcDbSpline
210
0.0
220
0.0
230
1.0
 70
    24
 71
     3
 72
     8
 73
     4
 74
     0
 42
0.0000000001
 43
0.0000000001
 40
0.0
 40
0.0
 40
0.0
 40
0.0
 40
1.0
 40
1.0
 40
1.0
 40
1.0
 10
68.11433934522185
 20
126.9576898893218
 30
0.0
 10
68.11433934522185
 20
126.9576898893218
 30
0.0
 10
98.0863363232703
 20
127.5080223612436
 30
0.0
 10
98.0863363232703
 20
127.5080223612436
 30
0.0
  0
SPLINE
  5
F2
330
70
100
AcDbEntity
  8
レイヤー 1
 62
    18
420
        0
370
    25
100
AcDbSpline
210
0.0
220
0.0
230
1.0
 70
    24
 71
     3
 72
     8
 73
     4
 74
     0
 42
0.0000000001
 43
0.0000000001
 40
0.0
 40
0.0
 40
0.0
 40
0.0
 40
1.0
 40
1.0
 40
1.0
 40
1.0
 10
71.33167095520311
 20
125.3066817076327
 30
0.0
 10
71.33167095520311
 20
125.3066817076327
 30
0.0
 10
98.38266836461876
 20
127.1693587091202
 30
0.0
 10
98.38266836461876
 20
127.1693587091202
 30
0.0
  0
SPLINE
  5
F3
330
70
100
AcDbEntity
  8
レイヤー 1
 62
    18
420
        0
370
    25
100
AcDbSpline
210
0.0
220
0.0
230
1.0
 70
    24
 71
     3
 72
     8
 73
     4
 74
     0
 42
0.0000000001
 43
0.0000000001
 40
0.0
 40
0.0
 40
0.0
 40
0.0
 40
1.0
 40
1.0
 40
1.0
 40
1.0
 10
76.83500105738359
 20
125.0950236537577
 30
0.0
 10
76.83500105738359
 20
125.0950236537577
 30
0.0
 10
98.67900040596719
 20
126.8306842910734
 30
0.0
 10
98.67900040596719
 20
126.8306842910734
 30
0.0
  0
SPLINE
  5
F4
330
70
100
AcDbEntity
  8
レイヤー 1
 62
    18
420
        0
370
    25
100
AcDbSpline
210
0.0
220
0.0
230
1.0
 70
    24
 71
     3
 72
     8
 73
     4
 74
     0
 42
0.0000000001
 43
0.0000000001
 40
0.0
 40
0.0
 40
0.0
 40
0.0
 40
1.0
 40
1.0
 40
1.0
 40
1.0
 10
79.58666879995468
 20
123.9520163332155
 30
0.0
 10
79.58666879995468
 20
123.9520163332155
 30
0.0
 10
99.05999566886565
 20
126.4920206389499
 30
0.0
 10
99.05999566886565
 20
126.4920206389499
 30
0.0
  0
SPLINE
  5
F5
330
70
100
AcDbEntity
  8
レイヤー 1
 62
    18
420
        0
370
    25
100
AcDbSpline
210
0.0
220
0.0
230
1.0
 70
    24
 71
     3
 72
     8
 73
     4
 74
     0
 42
0.0000000001
 43
0.0000000001
 40
0.0
 40
0.0
 40
0.0
 40
0.0
 40
1.0
 40
1.0
 40
1.0
 40
1.0
 10
82.97333761895936
 20
122.2586873066749
 30
0.0
 10
82.97333761895936
 20
122.2586873066749
 30
0.0
 10
99.39867008691249
 20
126.2380202083765
 30
0.0
 10
99.39867008691249
 20
126.2380202083765
 30
0.0
  0
SPLINE
  5
F6
330
70
100
AcDbEntity
  8
レイヤー 1
 62
    18
420
        0
370
    25
100
AcDbSpline
210
0.0
220
0.0
230
1.0
 70
    24
 71
     3
 72
     8
 73
     4
 74
     0
 42
0.0000000001
 43
0.0000000001
 40
0.0
 40
0.0
 40
0.0
 40
0.0
 40
1.0
 40
1.0
 40
1.0
 40
1.0
 10
86.31766944422734
 20
121.9623552653265
 30
0.0
 10
86.31766944422734
 20
121.9623552653265
 30
0.0
 10
99.77966534981094
 20
125.941688167028
 30
0.0
 10
99.77966534981094
 20
125.941688167028
 30
0.0
  0
SPLINE
  5
F7
330
70
100
AcDbEntity
  8
レイヤー 1
 62
    18
420
        0
370
    25
100
AcDbSpline
210
0.0
220
0.0
230
1.0
 70
    24
 71
     3
 72
     8
 73
     4
 74
     0
 42
0.0000000001
 43
0.0000000001
 40
0.0
 40
0.0
 40
0.0
 40
0.0
 40
1.0
 40
1.0
 40
1.0
 40
1.0
 10
89.36566922814687
 20
120.9463535430327
 30
0.0
 10
89.36566922814687
 20
120.9463535430327
 30
0.0
 10
100.3299978217328
 20
125.5606821382062
 30
0.0
 10
100.3299978217328
 20
125.5606821382062
 30
0.0
  0
SPLINE
  5
F8
330
70
100
AcDbEntity
  8
レイヤー 1
 62
    18
420
        0
370
    25
100
AcDbSpline
210
0.0
220
0.0
230
1.0
 70
    24
 71
     3
 72
     8
 73
     4
 74
     0
 42
0.0000000001
 43
0.0000000001
 40
0.0
 40
0.0
 40
0.0
 40
0.0
 40
1.0
 40
1.0
 40
1.0
 40
1.0
 10
92.11733158775627
 20
120.4383526818858
 30
0.0
 10
92.11733158775627
 20
120.4383526818858
 30
0.0
 10
100.8379986828797
 20
125.3066817076327
 30
0.0
 10
100.8379986828797
 20
125.3066817076327
 30
0.0
  0
SPLINE
  5
F9
330
70
100
AcDbEntity
  8
レイヤー 1
 62
    18
420
        0
370
    25
100
AcDbSpline
210
0.0
220
0.0
230
1.0
 70
    24
 71
     3
 72
     8
 73
     4
 74
     0
 42
0.0000000001
 43
0.0000000001
 40
0.0
 40
0.0
 40
0.0
 40
0.0
 40
1.0
 40
1.0
 40
1.0
 40
1.0
 10
92.58300083812812
 20
116.8400150430827
 30
0.0
 10
92.58300083812812
 20
116.8400150430827
 30
0.0
 10
101.3036679332515
 20
125.0526920429827
 30
0.0
 10
101.3036679332515
 20
125.0526920429827
 30
0.0
  0
SPLINE
  5
FA
330
70
100
AcDbEntity
  8
レイヤー 1
 62
    18
420
        0
370
    25
100
AcDbSpline
210
0.0
220
0.0
230
1.0
 70
    24
 71
     3
 72
     8
 73
     4
 74
     0
 42
0.0000000001
 43
0.0000000001
 40
0.0
 40
0.0
 40
0.0
 40
0.0
 40
1.0
 40
1.0
 40
1.0
 40
1.0
 10
96.0120012679078
 20
116.3320249478593
 30
0.0
 10
96.0120012679078
 20
116.3320249478593
 30
0.0
 10
101.642331585375
 20
124.9256864447343
 30
0.0
 10
101.642331585375
 20
124.9256864447343
 30
0.0
  0
SPLINE
  5
FB
330
70
100
AcDbEntity
  8
レイヤー 1
 62
    18
420
        0
370
    25
100
AcDbSpline
210
0.0
220
0.0
230
1.0
 70
    24
 71
     3
 72
     8
 73
     4
 74
     0
 42
0.0000000001
 43
0.0000000001
 40
0.0
 40
0.0
 40
0.0
 40
0.0
 40
1.0
 40
1.0
 40
1.0
 40
1.0
 10
99.65267051748593
 20
115.781681710014
 30
0.0
 10
99.65267051748593
 20
115.781681710014
 30
0.0
 10
102.0233376141968
 20
124.7140176249358
 30
0.0
 10
102.0233376141968
 20
124.7140176249358
 30
0.0
  0
SPLINE
  5
FC
330
70
100
AcDbEntity
  8
レイヤー 1
 62
    18
420
        0
370
    25
100
AcDbSpline
210
0.0
220
0.0
230
1.0
 70
    24
 71
     3
 72
     8
 73
     4
 74
     0
 42
0.0000000001
 43
0.0000000001
 40
0.0
 40
0.0
 40
0.0
 40
0.0
 40
1.0
 40
1.0
 40
1.0
 40
1.0
 10
103.9283354605359
 20
115.1466860165421
 30
0.0
 10
103.9283354605359
 20
115.1466860165421
 30
0.0
 10
104.7326683630312
 20
124.0790219314639
 30
0.0
 10
104.7326683630312
 20
124.0790219314639
 30
0.0
  0
LWPOLYLINE
  5
FD
330
70
100
AcDbEntity
  8
レイヤー 1
 62
    18
420
        0
370
    25
100
AcDbPolyline
 90
        4
 70
     0
 43
0.0
 10
104.0129986820859
 20
200.2790111464906
 10
104.0976619036359
 20
198.3316709234531
 10
101.3883311548015
 20
195.6223401746187
 10
101.9809952374984
 20
193.0823358688843
  0
LWPOLYLINE
  5
FE
330
70
100
AcDbEntity
  8
レイヤー 1
 62
    18
420
        0
370
    25
100
AcDbPolyline
 90
        5
 70
     0
 43
0.0
 10
104.0129986820859
 20
200.2790111464906
 10
101.9386636267234
 20
197.7390068407562
 10
99.39865932098911
 20
199.8133418961187
 10
99.14465889041567
 20
198.2893393126781
 10
101.3883311548015
 20
195.6223401746187
  0
LWPOLYLINE
  5
FF
330
70
100
AcDbEntity
  8
レイヤー 1
 62
    18
420
        0
370
    25
100
AcDbPolyline
 90
        3
 70
     0
 43
0.0
 10
97.19732943330159
 20
192.9130094257843
 10
96.73166018292972
 20
195.4530137315187
 10
99.14465889041567
 20
198.2893393126781
  0
LWPOLYLINE
  5
100
330
70
100
AcDbEntity
  8
レイヤー 1
 62
    18
420
        0
370
    25
100
AcDbPolyline
 90
        5
 70
     0
 43
0.0
 10
96.73166018292972
 20
195.4530137315187
 10
94.27632986466877
 20
197.9506648946312
 10
95.1653259887141
 20
199.8133418961187
 10
97.53600385134843
 20
197.9083332838562
 10
99.39865932098911
 20
199.8133418961187
  0
LWPOLYLINE
  5
101
330
70
100
AcDbEntity
  8
レイヤー 1
 62
    18
420
        0
370
    25
100
AcDbPolyline
 90
        6
 70
     0
 43
0.0
 10
91.94799437873284
 20
192.1509973681406
 10
91.94799437873284
 20
194.691001673875
 10
89.6620012694953
 20
197.2733375903843
 10
90.97432426721409
 20
199.3476726457468
 10
93.0486593225766
 20
198.035349648028
 10
95.1653259887141
 20
199.8133418961187
  0
LINE
  5
102
330
70
100
AcDbEntity
  8
レイヤー 1
 62
    18
420
        0
370
    25
100
AcDbLine
 10
94.27632986466877
 20
197.9506648946312
 30
0.0
 11
91.94799437873284
 21
194.691001673875
 31
0.0
  0
LWPOLYLINE
  5
103
330
70
100
AcDbEntity
  8
レイヤー 1
 62
    18
420
        0
370
    25
100
AcDbPolyline
 90
        3
 70
     0
 43
0.0
 10
89.6620012694953
 20
197.2733375903843
 10
87.3759973943344
 20
193.5903367300312
 10
87.84166664470625
 20
191.2620120100187
  0
LWPOLYLINE
  5
104
330
70
100
AcDbEntity
  8
レイヤー 1
 62
    18
420
        0
370
    25
100
AcDbPolyline
 90
        5
 70
     0
 43
0.0
 10
87.3759973943344
 20
193.5903367300312
 10
84.6666666455
 20
196.3419990896406
 10
86.44466427655236
 20
198.5433289773281
 10
88.26499890134142
 20
197.0616795365093
 10
90.97432426721409
 20
199.3476726457468
  0
LWPOLYLINE
  5
105
330
70
100
AcDbEntity
  8
レイヤー 1
 62
    18
420
        0
370
    25
100
AcDbPolyline
 90
        3
 70
     0
 43
0.0
 10
84.6666666455
 20
196.3419990896406
 10
82.67700019464923
 20
192.5743350077375
 10
83.39666987559452
 20
190.4576683416
  0
LWPOLYLINE
  5
106
330
70
100
AcDbEntity
  8
レイヤー 1
 62
    18
420
        0
370
    25
100
AcDbPolyline
 90
        5
 70
     0
 43
0.0
 10
82.67700019464923
 20
192.5743350077375
 10
80.30632771497659
 20
195.0296760919218
 10
82.29599954878906
 20
197.3156692011594
 10
84.03166556906642
 20
196.4266623111906
 10
86.44466427655236
 20
198.5433289773281
  0
LWPOLYLINE
  5
107
330
70
100
AcDbEntity
  8
レイヤー 1
 62
    18
420
        0
370
    25
100
AcDbPolyline
 90
        3
 70
     0
 43
0.0
 10
80.30632771497659
 20
195.0296760919218
 10
78.44366686237421
 20
191.2196803992437
 10
79.7560006260164
 20
188.6796760935093
  0
LWPOLYLINE
  5
108
330
70
100
AcDbEntity
  8
レイヤー 1
 62
    18
420
        0
370
    25
100
AcDbPolyline
 90
        5
 70
     0
 43
0.0
 10
78.44366686237421
 20
191.2196803992437
 10
76.03066277192659
 20
193.4633418977062
 10
78.2319980425758
 20
196.1726726465406
 10
79.92532706911643
 20
195.3683289781219
 10
82.29599954878906
 20
197.3156692011594
  0
LWPOLYLINE
  5
109
330
70
100
AcDbEntity
  8
レイヤー 1
 62
    18
420
        0
370
    25
100
AcDbPolyline
 90
        5
 70
     0
 43
0.0
 10
75.90366793960156
 20
193.8443263946813
 10
74.46433396067266
 20
194.1830008127281
 10
71.9243296549383
 20
191.5583332854437
 10
74.0409963210758
 20
189.526351372703
 10
76.03066277192659
 20
193.4633418977062
  0
LINE
  5
10A
330
70
100
AcDbEntity
  8
レイヤー 1
 62
    18
420
        0
370
    25
100
AcDbLine
 10
74.0409963210758
 20
189.526351372703
 30
0.0
 11
75.86133094586486
 21
187.3249999531688
 31
0.0
  0
LWPOLYLINE
  5
10B
330
70
100
AcDbEntity
  8
レイヤー 1
 62
    18
420
        0
370
    25
100
AcDbPolyline
 90
        5
 70
     0
 43
0.0
 10
71.67033460732657
 20
191.7700128711656
 10
70.35800084368438
 20
192.2356821215374
 10
67.86033353168672
 20
189.568682983478
 10
70.06166341937424
 20
187.5366795388906
 10
71.9243296549383
 20
191.5583332854437
  0
SPLINE
  5
10C
330
70
100
AcDbEntity
  8
レイヤー 1
 62
    18
420
        0
370
    25
100
AcDbSpline
210
0.0
220
0.0
230
1.0
 70
    24
 71
     3
 72
     8
 73
     4
 74
     0
 42
0.0000000001
 43
0.0000000001
 40
0.0
 40
0.0
 40
0.0
 40
0.0
 40
1.0
 40
1.0
 40
1.0
 40
1.0
 10
75.90366793960156
 20
193.8443263946813
 30
0.0
 10
75.90366793960156
 20
193.8443263946813
 30
0.0
 10
78.2319980425758
 20
196.1726726465406
 30
0.0
 10
78.2319980425758
 20
196.1726726465406
 30
0.0
  0
SPLINE
  5
10D
330
70
100
AcDbEntity
  8
レイヤー 1
 62
    18
420
        0
370
    25
100
AcDbSpline
210
0.0
220
0.0
230
1.0
 70
    24
 71
     3
 72
     8
 73
     4
 74
     0
 42
0.0000000001
 43
0.0000000001
 40
0.0
 40
0.0
 40
0.0
 40
0.0
 40
1.0
 40
1.0
 40
1.0
 40
1.0
 10
71.67033460732657
 20
191.7700128711656
 30
0.0
 10
71.67033460732657
 20
191.7700128711656
 30
0.0
 10
74.46433396067266
 20
194.1830008127281
 30
0.0
 10
74.46433396067266
 20
194.1830008127281
 30
0.0
  0
SPLINE
  5
10E
330
70
100
AcDbEntity
  8
レイヤー 1
 62
    18
420
        0
370
    25
100
AcDbSpline
210
0.0
220
0.0
230
1.0
 70
    24
 71
     3
 72
     8
 73
     4
 74
     0
 42
0.0000000001
 43
0.0000000001
 40
0.0
 40
0.0
 40
0.0
 40
0.0
 40
1.0
 40
1.0
 40
1.0
 40
1.0
 10
70.06166341937424
 20
187.5366795388906
 30
0.0
 10
70.06166341937424
 20
187.5366795388906
 30
0.0
 10
71.45866040456643
 20
185.6316709266281
 30
0.0
 10
71.45866040456643
 20
185.6316709266281
 30
0.0
  0
LWPOLYLINE
  5
10F
330
70
100
AcDbEntity
  8
レイヤー 1
 62
    18
420
        0
370
    25
100
AcDbPolyline
 90
        5
 70
     0
 43
0.0
 10
67.43700127505156
 20
183.4726726497156
 10
65.91299869161095
 20
185.5046760943031
 10
63.71166342096174
 20
187.3249999531688
 10
62.7379986924047
 20
182.8376769562437
 10
63.96566385153517
 20
181.1443263978562
  0
LWPOLYLINE
  5
110
330
70
100
AcDbEntity
  8
レイヤー 1
 62
    18
420
        0
370
    25
100
AcDbPolyline
 90
        4
 70
     0
 43
0.0
 10
65.91299869161095
 20
185.5046760943031
 10
67.86033353168672
 20
189.568682983478
 10
66.46333116353282
 20
189.9073358696781
 10
63.71166342096174
 20
187.3249999531688
  0
LWPOLYLINE
  5
111
330
70
100
AcDbEntity
  8
レイヤー 1
 62
    18
420
        0
370
    25
100
AcDbPolyline
 90
        4
 70
     0
 43
0.0
 10
62.7379986924047
 20
182.8376769562437
 10
60.24033138040704
 20
184.8696804008312
 10
59.39366148417502
 20
180.1706778181843
 10
61.04466428290235
 20
178.4773487916437
  0
LWPOLYLINE
  5
112
330
70
100
AcDbEntity
  8
レイヤー 1
 62
    18
420
        0
370
    25
100
AcDbPolyline
 90
        3
 70
     0
 43
0.0
 10
60.24033138040704
 20
184.8696804008312
 10
62.7379986924047
 20
187.4096847065655
 10
63.71166342096174
 20
187.3249999531688
  0
LWPOLYLINE
  5
113
330
70
100
AcDbEntity
  8
レイヤー 1
 62
    18
420
        0
370
    25
100
AcDbPolyline
 90
        3
 70
     0
 43
0.0
 10
59.39366148417502
 20
180.1706778181843
 10
57.40400041628594
 20
181.6523487908499
 10
60.24033138040704
 20
184.8696804008312
  0
LWPOLYLINE
  5
114
330
70
100
AcDbEntity
  8
レイヤー 1
 62
    18
420
        0
370
    25
100
AcDbPolyline
 90
        3
 70
     1
 43
0.0
 10
57.40400041628594
 20
181.6523487908499
 10
56.4726672985039
 20
177.2920098603265
 10
55.033333319575
 20
178.3080115826203
  0
LINE
  5
115
330
70
100
AcDbEntity
  8
レイヤー 1
 62
    18
420
        0
370
    25
100
AcDbLine
 10
56.4726672985039
 20
177.2920098603265
 30
0.0
 11
58.50466536012969
 21
175.8103496535843
 31
0.0
  0
LWPOLYLINE
  5
116
330
70
100
AcDbEntity
  8
レイヤー 1
 62
    18
420
        0
370
    25
100
AcDbPolyline
 90
        3
 70
     0
 43
0.0
 10
55.033333319575
 20
178.3080115826203
 10
54.44066385391642
 20
173.9476834180202
 10
56.09166665264375
 20
172.6776704992297
  0
LWPOLYLINE
  5
117
330
70
100
AcDbEntity
  8
レイヤー 1
 62
    18
420
        0
370
    25
100
AcDbPolyline
 90
        3
 70
     0
 43
0.0
 10
54.44066385391642
 20
173.9476834180202
 10
52.36632879855393
 20
175.3446804032124
 10
55.033333319575
 20
178.3080115826203
  0
LWPOLYLINE
  5
118
330
70
100
AcDbEntity
  8
レイヤー 1
 62
    18
420
        0
370
    25
100
AcDbPolyline
 90
        3
 70
     1
 43
0.0
 10
52.36632879855393
 20
175.3446804032124
 10
52.36632879855393
 20
171.3230051248125
 10
50.71533138278829
 20
172.2966860022546
  0
LINE
  5
119
330
70
100
AcDbEntity
  8
レイヤー 1
 62
    18
420
        0
370
    25
100
AcDbLine
 10
52.36632879855393
 20
171.3230051248125
 30
0.0
 11
54.65233267371485
 21
169.7566816965202
 31
0.0
  0
LWPOLYLINE
  5
11A
330
70
100
AcDbEntity
  8
レイヤー 1
 62
    18
420
        0
370
    25
100
AcDbPolyline
 90
        3
 70
     0
 43
0.0
 10
50.71533138278829
 20
172.2966860022546
 10
50.71533138278829
 20
167.9786786825062
 10
52.70499783363908
 20
166.8356821278874
  0
LWPOLYLINE
  5
11B
330
70
100
AcDbEntity
  8
レイヤー 1
 62
    18
420
        0
370
    25
100
AcDbPolyline
 90
        3
 70
     0
 43
0.0
 10
50.71533138278829
 20
167.9786786825062
 10
49.31832901463439
 20
168.9946804047999
 10
50.71533138278829
 20
171.026673083464
  0
LWPOLYLINE
  5
11C
330
70
100
AcDbEntity
  8
レイヤー 1
 62
    18
420
        0
370
    25
100
AcDbPolyline
 90
        3
 70
     0
 43
0.0
 10
49.31832901463439
 20
168.9946804047999
 10
49.65699804971954
 20
165.1000107246484
 10
51.26566385471017
 20
164.0840090023546
  0
LWPOLYLINE
  5
11D
330
70
100
AcDbEntity
  8
レイヤー 1
 62
    18
420
        0
370
    25
100
AcDbPolyline
 90
        3
 70
     0
 43
0.0
 10
49.65699804971954
 20
165.1000107246484
 10
48.42932750762737
 20
165.6926748073453
 10
49.4029976191461
 20
168.0633526699796
  0
LWPOLYLINE
  5
11E
330
70
100
AcDbEntity
  8
レイヤー 1
 62
    18
420
        0
370
    25
100
AcDbPolyline
 90
        3
 70
     0
 43
0.0
 10
48.42932750762737
 20
165.6926748073453
 10
48.81032815348753
 20
162.2213427667906
 10
50.63066277827658
 20
161.0360146013968
  0
LWPOLYLINE
  5
11F
330
70
100
AcDbEntity
  8
レイヤー 1
 62
    18
420
        0
370
    25
100
AcDbPolyline
 90
        3
 70
     0
 43
0.0
 10
48.81032815348753
 20
162.2213427667906
 10
47.87900041866719
 20
162.6446804063874
 10
48.47166450136407
 20
164.6766730850515
  0
LWPOLYLINE
  5
120
330
70
100
AcDbEntity
  8
レイヤー 1
 62
    18
420
        0
370
    25
100
AcDbPolyline
 90
        3
 70
     0
 43
0.0
 10
47.87900041866719
 20
162.6446804063874
 10
48.38700127981406
 20
158.7923423370109
 10
50.0803303063547
 20
157.8186722254922
  0
LWPOLYLINE
  5
121
330
70
100
AcDbEntity
  8
レイヤー 1
 62
    18
420
        0
370
    25
100
AcDbPolyline
 90
        3
 70
     0
 43
0.0
 10
48.13299546627892
 20
160.7396825600484
 10
47.66733159886875
 20
159.1310167550577
 10
48.38700127981406
 20
158.7923423370109
  0
LWPOLYLINE
  5
122
330
70
100
AcDbEntity
  8
レイヤー 1
 62
    18
420
        0
370
    25
100
AcDbPolyline
 90
        3
 70
     0
 43
0.0
 10
47.66733159886875
 20
159.1310167550577
 10
47.79433181415547
 20
156.2946696420515
 10
50.46133095221486
 20
155.1940154641312
  0
LINE
  5
123
330
70
100
AcDbEntity
  8
レイヤー 1
 62
    18
420
        0
370
    25
100
AcDbLine
 10
47.66733159886875
 20
159.1310167550577
 30
0.0
 11
48.38700127981406
 21
156.0406799774015
 31
0.0
  0
LWPOLYLINE
  5
124
330
70
100
AcDbEntity
  8
レイヤー 1
 62
    18
420
        0
370
    25
100
AcDbPolyline
 90
        3
 70
     0
 43
0.0
 10
47.79433181415547
 20
156.2946696420515
 10
48.59866471665079
 20
152.6540219243202
 10
50.37666234770314
 20
152.7810167566452
  0
LWPOLYLINE
  5
125
330
70
100
AcDbEntity
  8
レイヤー 1
 62
    18
420
        0
370
    25
100
AcDbPolyline
 90
        3
 70
     0
 43
0.0
 10
48.59866471665079
 20
152.6540219243202
 10
49.44533461288281
 20
149.5636743807406
 10
50.54599417376486
 20
149.7753539664624
  0
LWPOLYLINE
  5
126
330
70
100
AcDbEntity
  8
レイヤー 1
 62
    18
420
        0
370
    25
100
AcDbPolyline
 90
        3
 70
     0
 43
0.0
 10
49.44533461288281
 20
149.5636743807406
 10
50.20733052164143
 20
147.193018049953
 10
51.77366471585704
 20
147.193018049953
  0
LWPOLYLINE
  5
127
330
70
100
AcDbEntity
  8
レイヤー 1
 62
    18
420
        0
370
    25
100
AcDbPolyline
 90
       34
 70
     0
 43
0.0
 10
50.20733052164143
 20
147.193018049953
 10
50.84232621511332
 20
144.5260081459703
 10
52.1969969724922
 20
144.8223509532421
 10
52.1546599787555
 20
142.3246782582827
 10
53.29766191633596
 20
142.1130094384843
 10
53.46699374239769
 20
139.4036786896499
 10
54.69465890152815
 20
139.3613470788749
 10
55.28732836718674
 20
136.948348371389
 10
56.55733052005392
 20
136.906016760614
 10
57.1076629919758
 20
134.620012885453
 10
58.5469969709047
 20
134.9586765375765
 10
59.47833008868673
 20
132.3763513869905
 10
60.70599524781721
 20
132.757346649889
 10
61.42565954580081
 20
130.5983483729765
 10
62.73799330944299
 20
131.02167524665
 10
63.88099524702346
 20
128.524013317614
 10
65.27799223221567
 20
128.7780137481874
 10
66.67499460036956
 20
126.6613470820499
 10
68.11432857929846
 20
126.9576791233984
 10
69.46899395371565
 20
125.0526812770593
 10
71.33166018927972
 20
125.3066817076327
 10
72.34766191157347
 20
123.9520163332155
 10
74.0409963210758
 20
123.9520163332155
 10
75.31099309098128
 20
122.1740133192015
 10
76.45399502856175
 20
122.3433505282249
 10
78.40132986863752
 20
120.6500107357609
 10
80.17932749968988
 20
121.0733483753577
 10
81.87266190919222
 20
119.3376769721187
 10
83.904659970818
 20
120.2266838620874
 10
85.08999351917347
 20
118.6180180570968
 10
86.31765867830393
 20
119.0836765415453
 10
88.94232620558831
 20
117.602016334803
 10
89.36566384518517
 20
118.1100171959499
 10
92.58299007220474
 20
116.8400150430827
  0
LWPOLYLINE
  5
128
330
70
100
AcDbEntity
  8
レイヤー 1
 62
    18
420
        0
370
    25
100
AcDbPolyline
 90
        3
 70
     0
 43
0.0
 10
96.0120012679078
 20
116.3320034160125
 10
94.69966750426562
 20
117.9406799869265
 10
92.58300083812812
 20
116.8400042771593
  0
LWPOLYLINE
  5
129
330
70
100
AcDbEntity
  8
レイヤー 1
 62
    18
420
        0
370
    25
100
AcDbPolyline
 90
        3
 70
     0
 43
0.0
 10
96.0120012679078
 20
116.3320034160125
 10
98.42499997539377
 20
117.3056735275312
 10
99.65267051748593
 20
115.7816709440906
  0
LWPOLYLINE
  5
12A
330
70
100
AcDbEntity
  8
レイヤー 1
 62
    18
420
        0
370
    25
100
AcDbPolyline
 90
        3
 70
     0
 43
0.0
 10
71.88199804416329
 20
182.6683289812969
 10
73.70233266895235
 20
182.1603496519968
 10
73.4060006276039
 20
185.2083332870312
  0
LWPOLYLINE
  5
12B
330
70
100
AcDbEntity
  8
レイヤー 1
 62
    18
420
        0
370
    25
100
AcDbPolyline
 90
        3
 70
     0
 43
0.0
 10
75.86133094586486
 20
184.6580008151093
 10
77.51232836163049
 20
184.7003324258844
 10
77.08899610499533
 20
187.0710102885187
  0
LWPOLYLINE
  5
12C
330
70
100
AcDbEntity
  8
レイヤー 1
 62
    18
420
        0
370
    25
100
AcDbPolyline
 90
        3
 70
     0
 43
0.0
 10
80.34866470871328
 20
186.308998230875
 10
81.02599739592189
 20
185.8856821231249
 10
81.11066600043359
 20
188.4256648970125
  0
LWPOLYLINE
  5
12D
330
70
100
AcDbEntity
  8
レイヤー 1
 62
    18
420
        0
370
    25
100
AcDbPolyline
 90
        3
 70
     0
 43
0.0
 10
83.69300191694296
 20
187.9599956466407
 10
84.53966104725159
 20
187.4096847065655
 10
84.53966104725159
 20
190.1190154553999
  0
LWPOLYLINE
  5
12E
330
70
100
AcDbEntity
  8
レイヤー 1
 62
    18
420
        0
370
    25
100
AcDbPolyline
 90
        3
 70
     0
 43
0.0
 10
87.84166664470625
 20
189.1030137331062
 10
88.73066276875158
 20
188.3410016754625
 10
88.73066276875158
 20
190.9233375919718
  0
LWPOLYLINE
  5
12F
330
70
100
AcDbEntity
  8
レイヤー 1
 62
    18
420
        0
370
    25
100
AcDbPolyline
 90
        3
 70
     0
 43
0.0
 10
91.94799437873284
 20
189.7380094265781
 10
92.70999567045315
 20
188.9336657581593
 10
92.87933287947657
 20
191.8123444819405
  0
SPLINE
  5
130
330
70
100
AcDbEntity
  8
レイヤー 1
 62
    18
420
        0
370
    25
100
AcDbSpline
210
0.0
220
0.0
230
1.0
 70
    24
 71
     3
 72
     8
 73
     4
 74
     0
 42
0.0000000001
 43
0.0000000001
 40
0.0
 40
0.0
 40
0.0
 40
0.0
 40
1.0
 40
1.0
 40
1.0
 40
1.0
 10
68.79166664946875
 20
180.8056735116562
 30
0.0
 10
68.79166664946875
 20
180.8056735116562
 30
0.0
 10
69.8076629888008
 20
180.2553410397344
 30
0.0
 10
69.8076629888008
 20
180.2553410397344
 30
0.0
  0
SPLINE
  5
131
330
70
100
AcDbEntity
  8
レイヤー 1
 62
    18
420
        0
370
    25
100
AcDbSpline
210
0.0
220
0.0
230
1.0
 70
    24
 71
     3
 72
     8
 73
     4
 74
     0
 42
0.0000000001
 43
0.0000000001
 40
0.0
 40
0.0
 40
0.0
 40
0.0
 40
1.0
 40
1.0
 40
1.0
 40
1.0
 10
69.76533137802579
 20
180.2976834164327
 30
0.0
 10
69.76533137802579
 20
180.2976834164327
 30
0.0
 10
69.55366794118906
 20
183.0916666208937
 30
0.0
 10
69.55366794118906
 20
183.0916666208937
 30
0.0
  0
LWPOLYLINE
  5
132
330
70
100
AcDbEntity
  8
レイヤー 1
 62
    18
420
        0
370
    25
100
AcDbPolyline
 90
        3
 70
     0
 43
0.0
 10
65.65899826103751
 20
178.4773487916437
 10
66.59033137881954
 20
178.0540111520468
 10
66.37866794198281
 20
180.9749999547562
  0
LWPOLYLINE
  5
133
330
70
100
AcDbEntity
  8
レイヤー 1
 62
    18
420
        0
370
    25
100
AcDbPolyline
 90
        3
 70
     0
 43
0.0
 10
63.33066277510158
 20
178.4773487916437
 10
64.55833331719375
 20
176.953346208203
 10
63.16133094903985
 20
176.1490133057078
  0
LWPOLYLINE
  5
134
330
70
100
AcDbEntity
  8
レイヤー 1
 62
    18
420
        0
370
    25
100
AcDbPolyline
 90
        3
 70
     0
 43
0.0
 10
60.83299546310392
 20
175.9796760966843
 10
62.1453346097078
 20
174.3710102916937
 10
60.45199481724377
 20
173.3550193353233
  0
LWPOLYLINE
  5
135
330
70
100
AcDbEntity
  8
レイヤー 1
 62
    18
420
        0
370
    25
100
AcDbPolyline
 90
       42
 70
     0
 43
0.0
 10
58.37766514484298
 20
173.0586765280515
 10
59.9439939560969
 20
171.4499999571375
 10
57.95432750524612
 20
170.0530029719453
 10
58.41999675561798
 20
168.8676748065515
 10
57.02299438746408
 20
167.7246674860093
 10
57.02299438746408
 20
166.1583332917937
 10
55.37199697169845
 20
165.015336737175
 10
56.09166126968205
 20
163.1526705016109
 10
54.56766406920314
 20
162.0943371685422
 10
55.41432858247346
 20
160.4856713635515
 10
53.5939939576844
 20
159.2580008214594
 10
55.0333279366133
 20
157.6916666272437
 10
53.42466213162268
 20
156.6756756708734
 10
55.11799654112501
 20
154.9400042676343
 10
52.95899826421251
 20
153.7123337255422
 10
55.16032815190002
 20
152.5270055601484
 10
53.72099417297111
 20
151.7226726576531
 10
55.83766083910862
 20
149.987001254414
 10
54.65232729075315
 20
148.8440046997953
 10
56.21866148496877
 20
147.3200021163547
 10
54.90632772132659
 20
146.3463427707593
 10
57.02299438746408
 20
144.9070034088687
 10
56.13399826341876
 20
143.806338465025
 10
58.37766514484298
 20
142.5786679229328
 10
57.31933181177423
 20
141.562666200639
 10
59.39366148417502
 20
140.2080008262219
 10
58.50465997716799
 20
139.0650042716031
 10
61.12932750445237
 20
137.9220077169843
 10
59.81699374081018
 20
136.3133419119937
 10
63.03433073375313
 20
136.3980051335437
 10
61.97599740068439
 20
134.3236700781812
 10
65.02399718460392
 20
134.4506756764296
 10
64.00799546231017
 20
132.4186722318422
 10
67.14066385074142
 20
132.6303410516405
 10
66.42099416979611
 20
130.7676748160765
 10
69.59599416900236
 20
130.7676748160765
 10
68.87632987101877
 20
129.2860038434109
 10
71.79732943965158
 20
129.1166666343875
 10
71.33166018927972
 20
127.0423423449484
 10
74.50666018848597
 20
127.4233376078468
 10
74.0409963210758
 20
125.4760081507328
 10
76.83499567442189
 20
125.0950021219109
  0
LINE
  5
136
330
70
100
AcDbEntity
  8
レイヤー 1
 62
    18
420
        0
370
    25
100
AcDbLine
 10
76.58100062681015
 20
123.4016838612937
 30
0.0
 11
79.58666341699299
 21
123.9520055672922
 31
0.0
  0
LWPOLYLINE
  5
137
330
70
100
AcDbEntity
  8
レイヤー 1
 62
    18
420
        0
370
    25
100
AcDbPolyline
 90
        7
 70
     0
 43
0.0
 10
99.65267051748593
 20
115.7816709440906
 10
99.10232727964066
 20
119.7610146117155
 10
96.0120012679078
 20
116.3320034160125
 10
95.67332684986096
 20
120.311336317714
 10
92.58300083812812
 20
116.8400042771593
 10
92.11733158775627
 20
120.4383526818858
 10
89.36566922814687
 20
118.1100171959499
  0
SPLINE
  5
138
330
70
100
AcDbEntity
  8
レイヤー 1
 62
    18
420
        0
370
    25
100
AcDbSpline
210
0.0
220
0.0
230
1.0
 70
    24
 71
     3
 72
     8
 73
     4
 74
     0
 42
0.0000000001
 43
0.0000000001
 40
0.0
 40
0.0
 40
0.0
 40
0.0
 40
1.0
 40
1.0
 40
1.0
 40
1.0
 10
104.3516623342094
 20
191.2196803992437
 30
0.0
 10
104.3516623342094
 20
191.2196803992437
 30
0.0
 10
106.7646610416953
 20
192.9976726473343
 30
0.0
 10
106.7646610416953
 20
192.9976726473343
 30
0.0
  0
SPLINE
  5
139
330
70
100
AcDbEntity
  8
レイヤー 1
 62
    18
420
        0
370
    25
100
AcDbSpline
210
0.0
220
0.0
230
1.0
 70
    24
 71
     3
 72
     8
 73
     4
 74
     0
 42
0.0000000001
 43
0.0000000001
 40
0.0
 40
0.0
 40
0.0
 40
0.0
 40
1.0
 40
1.0
 40
1.0
 40
1.0
 10
106.8493242632453
 20
195.7070033961687
 30
0.0
 10
106.8493242632453
 20
195.7070033961687
 30
0.0
 10
104.0976619036359
 20
198.3316709234531
 30
0.0
 10
104.0976619036359
 20
198.3316709234531
 30
0.0
  0
SPLINE
  5
13A
330
70
100
AcDbEntity
  8
レイヤー 1
 62
    18
420
        0
370
    25
100
AcDbSpline
210
0.0
220
0.0
230
1.0
 70
    24
 71
     3
 72
     8
 73
     4
 74
     0
 42
0.0000000001
 43
0.0000000001
 40
0.0
 40
0.0
 40
0.0
 40
0.0
 40
1.0
 40
1.0
 40
1.0
 40
1.0
 10
103.8860038497609
 20
200.1096847033906
 30
0.0
 10
103.8860038497609
 20
200.1096847033906
 30
0.0
 10
106.6799978201453
 20
197.5696803976562
 30
0.0
 10
106.6799978201453
 20
197.5696803976562
 30
0.0
  0
LWPOLYLINE
  5
13B
330
70
100
AcDbEntity
  8
レイヤー 1
 62
    18
420
        0
370
    25
100
AcDbPolyline
 90
        4
 70
     0
 43
0.0
 10
106.6799978201453
 20
117.2210103059812
 10
109.1353281384062
 20
115.1466752506187
 10
110.6169883451485
 20
117.5173423473296
 10
113.4533246922313
 20
115.7816709440906
  0
LWPOLYLINE
  5
13C
330
70
100
AcDbEntity
  8
レイヤー 1
 62
    18
420
        0
370
    25
100
AcDbPolyline
 90
       76
 70
     0
 43
0.0
 10
123.6979943707953
 20
118.1100171959499
 10
123.6979943707953
 20
120.9463427771093
 10
126.7459887717532
 20
119.0836765415453
 10
126.7459887717532
 20
121.9623444994031
 10
129.1589874792391
 20
120.142009874614
 10
130.0903259799828
 20
122.2586765407515
 10
132.8843199503672
 20
121.0310167645827
 10
133.5193264097625
 20
123.9520163332155
 10
136.6519840322704
 20
122.3433505282249
 10
136.2286571585969
 20
125.0950128878343
 10
139.0226511289813
 20
123.7826791241921
 10
139.0226511289813
 20
126.3650150407015
 10
141.7319926437391
 20
125.3066817076327
 10
141.7319926437391
 20
127.8466752474437
 10
144.9493242537203
 20
126.9576791233984
 10
144.229654572775
 20
129.2860146093343
 10
147.8279922115781
 20
128.7780137481874
 10
146.5156584479359
 20
131.02167524665
 10
150.0716537100407
 20
131.02167524665
 10
148.5476511266
 20
133.1383419127874
 10
152.3999891959766
 20
132.757346649889
 10
150.7066601694359
 20
134.8316817052515
 10
154.5166558621141
 20
134.8316817052515
 10
152.7809844588751
 20
136.906016760614
 10
156.5063276959266
 20
136.906016760614
 10
154.6013190836641
 20
139.0650150375265
 10
158.4113255422656
 20
139.3613470788749
 10
155.7443264042063
 20
141.5626769665624
 10
159.8083225274578
 20
142.1130094384843
 10
156.9296545696
 20
143.8063492309483
 10
160.9089874713016
 20
144.8223401873187
 10
158.1573251116922
 20
146.3463427707593
 10
161.3323251108985
 20
147.1930072840297
 10
158.4536571530406
 20
148.8440154657187
 10
162.5176532762922
 20
149.775343200539
 10
159.342653277086
 20
151.7226834235765
 10
162.6869904853156
 20
152.7810059907218
 10
159.427316498636
 20
154.3473509508608
 10
162.6446588745406
 20
155.1940154641312
 10
159.6813276951328
 20
156.6756756708734
 10
163.0256541374391
 20
157.8186829914155
 10
159.4696588753344
 20
159.2580115873827
 10
162.4329900547422
 20
161.0360146013968
 10
158.4959887638157
 20
162.0943479344655
 10
161.7979943612703
 20
164.0840090023546
 10
157.7339874720953
 20
165.0153475030984
 10
160.4009866101547
 20
166.8356821278874
 10
156.0406584455547
 20
167.7246782519327
 10
158.4113255422656
 20
169.7566816965202
 10
155.109319944811
 20
170.0530137378687
 10
157.01431779115
 20
172.6776812651531
 10
152.65398962655
 20
173.3550085694
 10
154.5589874728891
 20
175.8103496535843
 10
149.9023272669406
 20
176.1490133057078
 10
152.0189939330781
 20
178.4773487916437
 10
147.4469861827563
 20
178.4773487916437
 10
149.1403259752203
 20
181.144347929703
 10
144.2719861835501
 20
180.8056735116562
 10
145.6266515579672
 20
183.4726726497156
 10
141.1816601718172
 20
182.6683505131437
 10
141.6049870454906
 20
185.6316709266281
 10
137.2446588808906
 20
184.6580008151093
 10
137.2446588808906
 20
187.3249999531688
 10
132.7149935072672
 20
186.3090197627218
 10
133.3499892007391
 20
188.6796760935093
 10
129.3706562990375
 20
187.9600171784874
 10
129.709319951161
 20
190.4576683416
 10
125.2643177990875
 20
189.1030137331062
 10
125.2643177990875
 20
191.2620120100187
 10
121.157990065061
 20
189.7380094265781
 10
121.157990065061
 20
192.1509973681406
 10
116.7129879129875
 20
190.5423530949968
 10
115.8663233997172
 20
192.9130094257843
 10
112.6489917897359
 20
191.0926640350719
 10
111.0826575955203
 20
193.0823358688843
 10
108.7119904988094
 20
191.2196803992437
  0
SPLINE
  5
13D
330
70
100
AcDbEntity
  8
レイヤー 1
 62
    18
420
        0
370
    25
100
AcDbSpline
210
0.0
220
0.0
230
1.0
 70
    24
 71
     3
 72
     8
 73
     4
 74
     0
 42
0.0000000001
 43
0.0000000001
 40
0.0
 40
0.0
 40
0.0
 40
0.0
 40
1.0
 40
1.0
 40
1.0
 40
1.0
 10
111.0826683614437
 20
193.0823574007311
 30
0.0
 10
111.0826683614437
 20
193.0823574007311
 30
0.0
 10
107.1456670705172
 20
136.9906907480874
 30
0.0
 10
107.1456670705172
 20
136.9906907480874
 30
0.0
  0
SPLINE
  5
13E
330
70
100
AcDbEntity
  8
レイヤー 1
 62
    18
420
        0
370
    25
100
AcDbSpline
210
0.0
220
0.0
230
1.0
 70
    24
 71
     3
 72
     8
 73
     4
 74
     0
 42
0.0000000001
 43
0.0000000001
 40
0.0
 40
0.0
 40
0.0
 40
0.0
 40
1.0
 40
1.0
 40
1.0
 40
1.0
 10
115.8663341656406
 20
192.9130094257843
 30
0.0
 10
115.8663341656406
 20
192.9130094257843
 30
0.0
 10
107.653667931664
 20
136.9906907480874
 30
0.0
 10
107.653667931664
 20
136.9906907480874
 30
0.0
  0
SPLINE
  5
13F
330
70
100
AcDbEntity
  8
レイヤー 1
 62
    18
420
        0
370
    25
100
AcDbSpline
210
0.0
220
0.0
230
1.0
 70
    24
 71
     3
 72
     8
 73
     4
 74
     0
 42
0.0000000001
 43
0.0000000001
 40
0.0
 40
0.0
 40
0.0
 40
0.0
 40
1.0
 40
1.0
 40
1.0
 40
1.0
 10
120.395999539264
 20
188.9336872900061
 30
0.0
 10
120.395999539264
 20
188.9336872900061
 30
0.0
 10
108.0769948053375
 20
136.948348371389
 30
0.0
 10
108.0769948053375
 20
136.948348371389
 30
0.0
  0
SPLINE
  5
140
330
70
100
AcDbEntity
  8
レイヤー 1
 62
    18
420
        0
370
    25
100
AcDbSpline
210
0.0
220
0.0
230
1.0
 70
    24
 71
     3
 72
     8
 73
     4
 74
     0
 42
0.0000000001
 43
0.0000000001
 40
0.0
 40
0.0
 40
0.0
 40
0.0
 40
1.0
 40
1.0
 40
1.0
 40
1.0
 10
124.3330008301906
 20
188.3410232073093
 30
0.0
 10
124.3330008301906
 20
188.3410232073093
 30
0.0
 10
108.4156584574609
 20
136.906016760614
 30
0.0
 10
108.4156584574609
 20
136.906016760614
 30
0.0
  0
SPLINE
  5
141
330
70
100
AcDbEntity
  8
レイヤー 1
 62
    18
420
        0
370
    25
100
AcDbSpline
210
0.0
220
0.0
230
1.0
 70
    24
 71
     3
 72
     8
 73
     4
 74
     0
 42
0.0000000001
 43
0.0000000001
 40
0.0
 40
0.0
 40
0.0
 40
0.0
 40
1.0
 40
1.0
 40
1.0
 40
1.0
 10
128.5239917857672
 20
187.4096847065655
 30
0.0
 10
128.5239917857672
 20
187.4096847065655
 30
0.0
 10
108.7966644862828
 20
136.8213535390639
 30
0.0
 10
108.7966644862828
 20
136.8213535390639
 30
0.0
  0
SPLINE
  5
142
330
70
100
AcDbEntity
  8
レイヤー 1
 62
    18
420
        0
370
    25
100
AcDbSpline
210
0.0
220
0.0
230
1.0
 70
    24
 71
     3
 72
     8
 73
     4
 74
     0
 42
0.0000000001
 43
0.0000000001
 40
0.0
 40
0.0
 40
0.0
 40
0.0
 40
1.0
 40
1.0
 40
1.0
 40
1.0
 10
132.0376662030203
 20
185.8856821231249
 30
0.0
 10
132.0376662030203
 20
185.8856821231249
 30
0.0
 10
109.2199913599563
 20
136.7366795515906
 30
0.0
 10
109.2199913599563
 20
136.7366795515906
 30
0.0
  0
SPLINE
  5
143
330
70
100
AcDbEntity
  8
レイヤー 1
 62
    18
420
        0
370
    25
100
AcDbSpline
210
0.0
220
0.0
230
1.0
 70
    24
 71
     3
 72
     8
 73
     4
 74
     0
 42
0.0000000001
 43
0.0000000001
 40
0.0
 40
0.0
 40
0.0
 40
0.0
 40
1.0
 40
1.0
 40
1.0
 40
1.0
 10
135.8053302849234
 20
184.6580223469561
 30
0.0
 10
135.8053302849234
 20
184.6580223469561
 30
0.0
 10
109.6856606103281
 20
136.6520163300405
 30
0.0
 10
109.6856606103281
 20
136.6520163300405
 30
0.0
  0
SPLINE
  5
144
330
70
100
AcDbEntity
  8
レイヤー 1
 62
    18
420
        0
370
    25
100
AcDbSpline
210
0.0
220
0.0
230
1.0
 70
    24
 71
     3
 72
     8
 73
     4
 74
     0
 42
0.0000000001
 43
0.0000000001
 40
0.0
 40
0.0
 40
0.0
 40
0.0
 40
1.0
 40
1.0
 40
1.0
 40
1.0
 10
139.4036679237266
 20
182.1603496519968
 30
0.0
 10
139.4036679237266
 20
182.1603496519968
 30
0.0
 10
110.1513298607
 20
136.5250214977155
 30
0.0
 10
110.1513298607
 20
136.5250214977155
 30
0.0
  0
SPLINE
  5
145
330
70
100
AcDbEntity
  8
レイヤー 1
 62
    18
420
        0
370
    25
100
AcDbSpline
210
0.0
220
0.0
230
1.0
 70
    24
 71
     3
 72
     8
 73
     4
 74
     0
 42
0.0000000001
 43
0.0000000001
 40
0.0
 40
0.0
 40
0.0
 40
0.0
 40
1.0
 40
1.0
 40
1.0
 40
1.0
 10
143.3406584487297
 20
180.3400150272077
 30
0.0
 10
143.3406584487297
 20
180.3400150272077
 30
0.0
 10
110.6169991110719
 20
136.3980158994671
 30
0.0
 10
110.6169991110719
 20
136.3980158994671
 30
0.0
  0
SPLINE
  5
146
330
70
100
AcDbEntity
  8
レイヤー 1
 62
    18
420
        0
370
    25
100
AcDbSpline
210
0.0
220
0.0
230
1.0
 70
    24
 71
     3
 72
     8
 73
     4
 74
     0
 42
0.0000000001
 43
0.0000000001
 40
0.0
 40
0.0
 40
0.0
 40
0.0
 40
1.0
 40
1.0
 40
1.0
 40
1.0
 10
146.5156584479359
 20
178.0540219179702
 30
0.0
 10
146.5156584479359
 20
178.0540219179702
 30
0.0
 10
111.1673315829937
 20
136.186357845592
 30
0.0
 10
111.1673315829937
 20
136.186357845592
 30
0.0
  0
SPLINE
  5
147
330
70
100
AcDbEntity
  8
レイヤー 1
 62
    18
420
        0
370
    25
100
AcDbSpline
210
0.0
220
0.0
230
1.0
 70
    24
 71
     3
 72
     8
 73
     4
 74
     0
 42
0.0000000001
 43
0.0000000001
 40
0.0
 40
0.0
 40
0.0
 40
0.0
 40
1.0
 40
1.0
 40
1.0
 40
1.0
 10
152.0189939330781
 20
178.4773487916437
 30
0.0
 10
152.0189939330781
 20
178.4773487916437
 30
0.0
 10
111.8446588872406
 20
135.9323574150186
 30
0.0
 10
111.8446588872406
 20
135.9323574150186
 30
0.0
  0
SPLINE
  5
148
330
70
100
AcDbEntity
  8
レイヤー 1
 62
    18
420
        0
370
    25
100
AcDbSpline
210
0.0
220
0.0
230
1.0
 70
    24
 71
     3
 72
     8
 73
     4
 74
     0
 42
0.0000000001
 43
0.0000000001
 40
0.0
 40
0.0
 40
0.0
 40
0.0
 40
1.0
 40
1.0
 40
1.0
 40
1.0
 10
152.6540003924734
 20
173.3550193353233
 30
0.0
 10
152.6540003924734
 20
173.3550193353233
 30
0.0
 10
112.4373337358609
 20
135.6360253736702
 30
0.0
 10
112.4373337358609
 20
135.6360253736702
 30
0.0
  0
SPLINE
  5
149
330
70
100
AcDbEntity
  8
レイヤー 1
 62
    18
420
        0
370
    25
100
AcDbSpline
210
0.0
220
0.0
230
1.0
 70
    24
 71
     3
 72
     8
 73
     4
 74
     0
 42
0.0000000001
 43
0.0000000001
 40
0.0
 40
0.0
 40
0.0
 40
0.0
 40
1.0
 40
1.0
 40
1.0
 40
1.0
 10
155.1093307107344
 20
170.0530137378687
 30
0.0
 10
155.1093307107344
 20
170.0530137378687
 30
0.0
 10
112.9029922203094
 20
135.3820141771733
 30
0.0
 10
112.9029922203094
 20
135.3820141771733
 30
0.0
  0
SPLINE
  5
14A
330
70
100
AcDbEntity
  8
レイヤー 1
 62
    18
420
        0
370
    25
100
AcDbSpline
210
0.0
220
0.0
230
1.0
 70
    24
 71
     3
 72
     8
 73
     4
 74
     0
 42
0.0000000001
 43
0.0000000001
 40
0.0
 40
0.0
 40
0.0
 40
0.0
 40
1.0
 40
1.0
 40
1.0
 40
1.0
 10
156.0406584455547
 20
167.7246890178561
 30
0.0
 10
156.0406584455547
 20
167.7246890178561
 30
0.0
 10
113.4109930814563
 20
135.0433505250499
 30
0.0
 10
113.4109930814563
 20
135.0433505250499
 30
0.0
  0
SPLINE
  5
14B
330
70
100
AcDbEntity
  8
レイヤー 1
 62
    18
420
        0
370
    25
100
AcDbSpline
210
0.0
220
0.0
230
1.0
 70
    24
 71
     3
 72
     8
 73
     4
 74
     0
 42
0.0000000001
 43
0.0000000001
 40
0.0
 40
0.0
 40
0.0
 40
0.0
 40
1.0
 40
1.0
 40
1.0
 40
1.0
 10
157.7339982380187
 20
165.0153475030984
 30
0.0
 10
157.7339982380187
 20
165.0153475030984
 30
0.0
 10
113.7073251228047
 20
134.7893500944765
 30
0.0
 10
113.7073251228047
 20
134.7893500944765
 30
0.0
  0
SPLINE
  5
14C
330
70
100
AcDbEntity
  8
レイヤー 1
 62
    18
420
        0
370
    25
100
AcDbSpline
210
0.0
220
0.0
230
1.0
 70
    24
 71
     3
 72
     8
 73
     4
 74
     0
 42
0.0000000001
 43
0.0000000001
 40
0.0
 40
0.0
 40
0.0
 40
0.0
 40
1.0
 40
1.0
 40
1.0
 40
1.0
 10
158.495999529739
 20
162.0943479344655
 30
0.0
 10
158.495999529739
 20
162.0943479344655
 30
0.0
 10
114.1306627624016
 20
134.450686442353
 30
0.0
 10
114.1306627624016
 20
134.450686442353
 30
0.0
  0
SPLINE
  5
14D
330
70
100
AcDbEntity
  8
レイヤー 1
 62
    18
420
        0
370
    25
100
AcDbSpline
210
0.0
220
0.0
230
1.0
 70
    24
 71
     3
 72
     8
 73
     4
 74
     0
 42
0.0000000001
 43
0.0000000001
 40
0.0
 40
0.0
 40
0.0
 40
0.0
 40
1.0
 40
1.0
 40
1.0
 40
1.0
 10
159.4696696412578
 20
159.2580223533061
 30
0.0
 10
159.4696696412578
 20
159.2580223533061
 30
0.0
 10
114.469326414525
 20
134.1120227902296
 30
0.0
 10
114.469326414525
 20
134.1120227902296
 30
0.0
  0
SPLINE
  5
14E
330
70
100
AcDbEntity
  8
レイヤー 1
 62
    18
420
        0
370
    25
100
AcDbSpline
210
0.0
220
0.0
230
1.0
 70
    24
 71
     3
 72
     8
 73
     4
 74
     0
 42
0.0000000001
 43
0.0000000001
 40
0.0
 40
0.0
 40
0.0
 40
0.0
 40
1.0
 40
1.0
 40
1.0
 40
1.0
 10
158.6229943620641
 20
155.617353103728
 30
0.0
 10
158.6229943620641
 20
155.617353103728
 30
0.0
 10
114.8080008325718
 20
133.7733483721827
 30
0.0
 10
114.8080008325718
 20
133.7733483721827
 30
0.0
  0
SPLINE
  5
14F
330
70
100
AcDbEntity
  8
レイヤー 1
 62
    18
420
        0
370
    25
100
AcDbSpline
210
0.0
220
0.0
230
1.0
 70
    24
 71
     3
 72
     8
 73
     4
 74
     0
 42
0.0000000001
 43
0.0000000001
 40
0.0
 40
0.0
 40
0.0
 40
0.0
 40
1.0
 40
1.0
 40
1.0
 40
1.0
 10
159.8083332933812
 20
153.881681700489
 30
0.0
 10
159.8083332933812
 20
153.881681700489
 30
0.0
 10
115.1043328739203
 20
133.3923531092843
 30
0.0
 10
115.1043328739203
 20
133.3923531092843
 30
0.0
  0
SPLINE
  5
150
330
70
100
AcDbEntity
  8
レイヤー 1
 62
    18
420
        0
370
    25
100
AcDbSpline
210
0.0
220
0.0
230
1.0
 70
    24
 71
     3
 72
     8
 73
     4
 74
     0
 42
0.0000000001
 43
0.0000000001
 40
0.0
 40
0.0
 40
0.0
 40
0.0
 40
1.0
 40
1.0
 40
1.0
 40
1.0
 10
158.4536571530406
 20
151.0030245085546
 30
0.0
 10
158.4536571530406
 20
151.0030245085546
 30
0.0
 10
115.4429965260437
 20
132.7996890265874
 30
0.0
 10
115.4429965260437
 20
132.7996890265874
 30
0.0
  0
SPLINE
  5
151
330
70
100
AcDbEntity
  8
レイヤー 1
 62
    18
420
        0
370
    25
100
AcDbSpline
210
0.0
220
0.0
230
1.0
 70
    24
 71
     3
 72
     8
 73
     4
 74
     0
 42
0.0000000001
 43
0.0000000001
 40
0.0
 40
0.0
 40
0.0
 40
0.0
 40
1.0
 40
1.0
 40
1.0
 40
1.0
 10
157.4376661966703
 20
147.8703561201233
 30
0.0
 10
157.4376661966703
 20
147.8703561201233
 30
0.0
 10
115.7393285673922
 20
132.2070141779671
 30
0.0
 10
115.7393285673922
 20
132.2070141779671
 30
0.0
  0
SPLINE
  5
152
330
70
100
AcDbEntity
  8
レイヤー 1
 62
    18
420
        0
370
    25
100
AcDbSpline
210
0.0
220
0.0
230
1.0
 70
    24
 71
     3
 72
     8
 73
     4
 74
     0
 42
0.0000000001
 43
0.0000000001
 40
0.0
 40
0.0
 40
0.0
 40
0.0
 40
1.0
 40
1.0
 40
1.0
 40
1.0
 10
156.0830008222531
 20
144.9070141747921
 30
0.0
 10
156.0830008222531
 20
144.9070141747921
 30
0.0
 10
115.9086657764156
 20
131.6566817060452
 30
0.0
 10
115.9086657764156
 20
131.6566817060452
 30
0.0
  0
SPLINE
  5
153
330
70
100
AcDbEntity
  8
レイヤー 1
 62
    18
420
        0
370
    25
100
AcDbSpline
210
0.0
220
0.0
230
1.0
 70
    24
 71
     3
 72
     8
 73
     4
 74
     0
 42
0.0000000001
 43
0.0000000001
 40
0.0
 40
0.0
 40
0.0
 40
0.0
 40
1.0
 40
1.0
 40
1.0
 40
1.0
 10
154.6859930711375
 20
142.5786894547796
 30
0.0
 10
154.6859930711375
 20
142.5786894547796
 30
0.0
 10
116.0356606087406
 20
131.0640176233484
 30
0.0
 10
116.0356606087406
 20
131.0640176233484
 30
0.0
  0
SPLINE
  5
154
330
70
100
AcDbEntity
  8
レイヤー 1
 62
    18
420
        0
370
    25
100
AcDbSpline
210
0.0
220
0.0
230
1.0
 70
    24
 71
     3
 72
     8
 73
     4
 74
     0
 42
0.0000000001
 43
0.0000000001
 40
0.0
 40
0.0
 40
0.0
 40
0.0
 40
1.0
 40
1.0
 40
1.0
 40
1.0
 10
153.6700021147671
 20
140.2080223580686
 30
0.0
 10
153.6700021147671
 20
140.2080223580686
 30
0.0
 10
116.0356606087406
 20
130.6406907496749
 30
0.0
 10
116.0356606087406
 20
130.6406907496749
 30
0.0
  0
SPLINE
  5
155
330
70
100
AcDbEntity
  8
レイヤー 1
 62
    18
420
        0
370
    25
100
AcDbSpline
210
0.0
220
0.0
230
1.0
 70
    24
 71
     3
 72
     8
 73
     4
 74
     0
 42
0.0000000001
 43
0.0000000001
 40
0.0
 40
0.0
 40
0.0
 40
0.0
 40
1.0
 40
1.0
 40
1.0
 40
1.0
 10
151.9766623223031
 20
137.9220184829077
 30
0.0
 10
151.9766623223031
 20
137.9220184829077
 30
0.0
 10
116.0356606087406
 20
130.217353110078
 30
0.0
 10
116.0356606087406
 20
130.217353110078
 30
0.0
  0
SPLINE
  5
156
330
70
100
AcDbEntity
  8
レイヤー 1
 62
    18
420
        0
370
    25
100
AcDbSpline
210
0.0
220
0.0
230
1.0
 70
    24
 71
     3
 72
     8
 73
     4
 74
     0
 42
0.0000000001
 43
0.0000000001
 40
0.0
 40
0.0
 40
0.0
 40
0.0
 40
1.0
 40
1.0
 40
1.0
 40
1.0
 10
150.029332865189
 20
136.3980158994671
 30
0.0
 10
150.029332865189
 20
136.3980158994671
 30
0.0
 10
115.9509973871906
 20
129.6670206381562
 30
0.0
 10
115.9509973871906
 20
129.6670206381562
 30
0.0
  0
SPLINE
  5
157
330
70
100
AcDbEntity
  8
レイヤー 1
 62
    18
420
        0
370
    25
100
AcDbSpline
210
0.0
220
0.0
230
1.0
 70
    24
 71
     3
 72
     8
 73
     4
 74
     0
 42
0.0000000001
 43
0.0000000001
 40
0.0
 40
0.0
 40
0.0
 40
0.0
 40
1.0
 40
1.0
 40
1.0
 40
1.0
 10
148.0819926421516
 20
134.450686442353
 30
0.0
 10
148.0819926421516
 20
134.450686442353
 30
0.0
 10
115.8663341656406
 20
129.2436829985593
 30
0.0
 10
115.8663341656406
 20
129.2436829985593
 30
0.0
  0
SPLINE
  5
158
330
70
100
AcDbEntity
  8
レイヤー 1
 62
    18
420
        0
370
    25
100
AcDbSpline
210
0.0
220
0.0
230
1.0
 70
    24
 71
     3
 72
     8
 73
     4
 74
     0
 42
0.0000000001
 43
0.0000000001
 40
0.0
 40
0.0
 40
0.0
 40
0.0
 40
1.0
 40
1.0
 40
1.0
 40
1.0
 10
145.9229943652391
 20
132.630351817564
 30
0.0
 10
145.9229943652391
 20
132.630351817564
 30
0.0
 10
115.7393285673922
 20
128.8203561248858
 30
0.0
 10
115.7393285673922
 20
128.8203561248858
 30
0.0
  0
SPLINE
  5
159
330
70
100
AcDbEntity
  8
レイヤー 1
 62
    18
420
        0
370
    25
100
AcDbSpline
210
0.0
220
0.0
230
1.0
 70
    24
 71
     3
 72
     8
 73
     4
 74
     0
 42
0.0000000001
 43
0.0000000001
 40
0.0
 40
0.0
 40
0.0
 40
0.0
 40
1.0
 40
1.0
 40
1.0
 40
1.0
 10
115.2736593170203
 20
127.9313492349171
 30
0.0
 10
115.2736593170203
 20
127.9313492349171
 30
0.0
 10
141.2663341592906
 20
129.1166881662343
 30
0.0
 10
141.2663341592906
 20
129.1166881662343
 30
0.0
  0
SPLINE
  5
15A
330
70
100
AcDbEntity
  8
レイヤー 1
 62
    18
420
        0
370
    25
100
AcDbSpline
210
0.0
220
0.0
230
1.0
 70
    24
 71
     3
 72
     8
 73
     4
 74
     0
 42
0.0000000001
 43
0.0000000001
 40
0.0
 40
0.0
 40
0.0
 40
0.0
 40
1.0
 40
1.0
 40
1.0
 40
1.0
 10
143.5099956577531
 20
130.7676855819999
 30
0.0
 10
143.5099956577531
 20
130.7676855819999
 30
0.0
 10
115.5699913583688
 20
128.439350096064
 30
0.0
 10
115.5699913583688
 20
128.439350096064
 30
0.0
  0
SPLINE
  5
15B
330
70
100
AcDbEntity
  8
レイヤー 1
 62
    18
420
        0
370
    25
100
AcDbSpline
210
0.0
220
0.0
230
1.0
 70
    24
 71
     3
 72
     8
 73
     4
 74
     0
 42
0.0000000001
 43
0.0000000001
 40
0.0
 40
0.0
 40
0.0
 40
0.0
 40
1.0
 40
1.0
 40
1.0
 40
1.0
 10
144.9493350196437
 20
126.9576898893218
 30
0.0
 10
144.9493350196437
 20
126.9576898893218
 30
0.0
 10
114.9773272756719
 20
127.5080223612436
 30
0.0
 10
114.9773272756719
 20
127.5080223612436
 30
0.0
  0
SPLINE
  5
15C
330
70
100
AcDbEntity
  8
レイヤー 1
 62
    18
420
        0
370
    25
100
AcDbSpline
210
0.0
220
0.0
230
1.0
 70
    24
 71
     3
 72
     8
 73
     4
 74
     0
 42
0.0000000001
 43
0.0000000001
 40
0.0
 40
0.0
 40
0.0
 40
0.0
 40
1.0
 40
1.0
 40
1.0
 40
1.0
 10
141.7319926437391
 20
125.3066817076327
 30
0.0
 10
141.7319926437391
 20
125.3066817076327
 30
0.0
 10
114.6809952343234
 20
127.1693587091202
 30
0.0
 10
114.6809952343234
 20
127.1693587091202
 30
0.0
  0
SPLINE
  5
15D
330
70
100
AcDbEntity
  8
レイヤー 1
 62
    18
420
        0
370
    25
100
AcDbSpline
210
0.0
220
0.0
230
1.0
 70
    24
 71
     3
 72
     8
 73
     4
 74
     0
 42
0.0000000001
 43
0.0000000001
 40
0.0
 40
0.0
 40
0.0
 40
0.0
 40
1.0
 40
1.0
 40
1.0
 40
1.0
 10
136.2286679245203
 20
125.0950236537577
 30
0.0
 10
136.2286679245203
 20
125.0950236537577
 30
0.0
 10
114.384663192975
 20
126.8306842910734
 30
0.0
 10
114.384663192975
 20
126.8306842910734
 30
0.0
  0
SPLINE
  5
15E
330
70
100
AcDbEntity
  8
レイヤー 1
 62
    18
420
        0
370
    25
100
AcDbSpline
210
0.0
220
0.0
230
1.0
 70
    24
 71
     3
 72
     8
 73
     4
 74
     0
 42
0.0000000001
 43
0.0000000001
 40
0.0
 40
0.0
 40
0.0
 40
0.0
 40
1.0
 40
1.0
 40
1.0
 40
1.0
 10
133.5193264097625
 20
123.9520163332155
 30
0.0
 10
133.5193264097625
 20
123.9520163332155
 30
0.0
 10
114.0036679300765
 20
126.4920206389499
 30
0.0
 10
114.0036679300765
 20
126.4920206389499
 30
0.0
  0
SPLINE
  5
15F
330
70
100
AcDbEntity
  8
レイヤー 1
 62
    18
420
        0
370
    25
100
AcDbSpline
210
0.0
220
0.0
230
1.0
 70
    24
 71
     3
 72
     8
 73
     4
 74
     0
 42
0.0000000001
 43
0.0000000001
 40
0.0
 40
0.0
 40
0.0
 40
0.0
 40
1.0
 40
1.0
 40
1.0
 40
1.0
 10
130.0903259799828
 20
122.2586873066749
 30
0.0
 10
130.0903259799828
 20
122.2586873066749
 30
0.0
 10
113.7073251228047
 20
126.2380202083765
 30
0.0
 10
113.7073251228047
 20
126.2380202083765
 30
0.0
  0
SPLINE
  5
160
330
70
100
AcDbEntity
  8
レイヤー 1
 62
    18
420
        0
370
    25
100
AcDbSpline
210
0.0
220
0.0
230
1.0
 70
    24
 71
     3
 72
     8
 73
     4
 74
     0
 42
0.0000000001
 43
0.0000000001
 40
0.0
 40
0.0
 40
0.0
 40
0.0
 40
1.0
 40
1.0
 40
1.0
 40
1.0
 10
126.7459995376766
 20
121.9623552653265
 30
0.0
 10
126.7459995376766
 20
121.9623552653265
 30
0.0
 10
113.3263298599062
 20
125.941688167028
 30
0.0
 10
113.3263298599062
 20
125.941688167028
 30
0.0
  0
SPLINE
  5
161
330
70
100
AcDbEntity
  8
レイヤー 1
 62
    18
420
        0
370
    25
100
AcDbSpline
210
0.0
220
0.0
230
1.0
 70
    24
 71
     3
 72
     8
 73
     4
 74
     0
 42
0.0000000001
 43
0.0000000001
 40
0.0
 40
0.0
 40
0.0
 40
0.0
 40
1.0
 40
1.0
 40
1.0
 40
1.0
 10
123.6979943707953
 20
120.9463535430327
 30
0.0
 10
123.6979943707953
 20
120.9463535430327
 30
0.0
 10
112.7336657772094
 20
125.5606821382062
 30
0.0
 10
112.7336657772094
 20
125.5606821382062
 30
0.0
  0
SPLINE
  5
162
330
70
100
AcDbEntity
  8
レイヤー 1
 62
    18
420
        0
370
    25
100
AcDbSpline
210
0.0
220
0.0
230
1.0
 70
    24
 71
     3
 72
     8
 73
     4
 74
     0
 42
0.0000000001
 43
0.0000000001
 40
0.0
 40
0.0
 40
0.0
 40
0.0
 40
1.0
 40
1.0
 40
1.0
 40
1.0
 10
120.9463320111859
 20
120.4383526818858
 30
0.0
 10
120.9463320111859
 20
120.4383526818858
 30
0.0
 10
112.2679965268375
 20
125.3066817076327
 30
0.0
 10
112.2679965268375
 20
125.3066817076327
 30
0.0
  0
SPLINE
  5
163
330
70
100
AcDbEntity
  8
レイヤー 1
 62
    18
420
        0
370
    25
100
AcDbSpline
210
0.0
220
0.0
230
1.0
 70
    24
 71
     3
 72
     8
 73
     4
 74
     0
 42
0.0000000001
 43
0.0000000001
 40
0.0
 40
0.0
 40
0.0
 40
0.0
 40
1.0
 40
1.0
 40
1.0
 40
1.0
 10
120.4806627608141
 20
116.8400150430827
 30
0.0
 10
120.4806627608141
 20
116.8400150430827
 30
0.0
 10
111.8023272764656
 20
125.0526920429827
 30
0.0
 10
111.8023272764656
 20
125.0526920429827
 30
0.0
  0
SPLINE
  5
164
330
70
100
AcDbEntity
  8
レイヤー 1
 62
    18
420
        0
370
    25
100
AcDbSpline
210
0.0
220
0.0
230
1.0
 70
    24
 71
     3
 72
     8
 73
     4
 74
     0
 42
0.0000000001
 43
0.0000000001
 40
0.0
 40
0.0
 40
0.0
 40
0.0
 40
1.0
 40
1.0
 40
1.0
 40
1.0
 10
117.0516623310344
 20
116.3320249478593
 30
0.0
 10
117.0516623310344
 20
116.3320249478593
 30
0.0
 10
111.4213320135672
 20
124.9256864447343
 30
0.0
 10
111.4213320135672
 20
124.9256864447343
 30
0.0
  0
SPLINE
  5
165
330
70
100
AcDbEntity
  8
レイヤー 1
 62
    18
420
        0
370
    25
100
AcDbSpline
210
0.0
220
0.0
230
1.0
 70
    24
 71
     3
 72
     8
 73
     4
 74
     0
 42
0.0000000001
 43
0.0000000001
 40
0.0
 40
0.0
 40
0.0
 40
0.0
 40
1.0
 40
1.0
 40
1.0
 40
1.0
 10
113.4533246922313
 20
115.781681710014
 30
0.0
 10
113.4533246922313
 20
115.781681710014
 30
0.0
 10
111.0403259847453
 20
124.7140176249358
 30
0.0
 10
111.0403259847453
 20
124.7140176249358
 30
0.0
  0
SPLINE
  5
166
330
70
100
AcDbEntity
  8
レイヤー 1
 62
    18
420
        0
370
    25
100
AcDbSpline
210
0.0
220
0.0
230
1.0
 70
    24
 71
     3
 72
     8
 73
     4
 74
     0
 42
0.0000000001
 43
0.0000000001
 40
0.0
 40
0.0
 40
0.0
 40
0.0
 40
1.0
 40
1.0
 40
1.0
 40
1.0
 10
111.6753324441406
 20
195.6223401746187
 30
0.0
 10
111.6753324441406
 20
195.6223401746187
 30
0.0
 10
111.0826683614437
 20
193.0823574007311
 30
0.0
 10
111.0826683614437
 20
193.0823574007311
 30
0.0
  0
LWPOLYLINE
  5
167
330
70
100
AcDbEntity
  8
レイヤー 1
 62
    18
420
        0
370
    25
100
AcDbPolyline
 90
        5
 70
     0
 43
0.0
 10
109.0083333060812
 20
200.2790111464906
 10
111.1249999722187
 20
197.7390068407562
 10
113.7073358887281
 20
199.8133418961187
 10
113.9189939426031
 20
198.2893393126781
 10
111.6753216782172
 20
195.6223401746187
  0
LWPOLYLINE
  5
168
330
70
100
AcDbEntity
  8
レイヤー 1
 62
    18
420
        0
370
    25
100
AcDbPolyline
 90
        3
 70
     0
 43
0.0
 10
115.8663341656406
 20
192.9130094257843
 10
116.3319926500891
 20
195.4530137315187
 10
113.9189939426031
 20
198.2893393126781
  0
LWPOLYLINE
  5
169
330
70
100
AcDbEntity
  8
レイヤー 1
 62
    18
420
        0
370
    25
100
AcDbPolyline
 90
        5
 70
     0
 43
0.0
 10
116.3319926500891
 20
195.4530137315187
 10
118.78732296835
 20
197.9506648946312
 10
117.8983268443047
 20
199.8133418961187
 10
115.5699913583688
 20
197.9083332838562
 10
113.7073358887281
 20
199.8133418961187
  0
LWPOLYLINE
  5
16A
330
70
100
AcDbEntity
  8
レイヤー 1
 62
    18
420
        0
370
    25
100
AcDbPolyline
 90
        6
 70
     0
 43
0.0
 10
121.1580008309844
 20
192.1509973681406
 10
121.1580008309844
 20
194.691001673875
 10
123.4016623294469
 20
197.2733375903843
 10
122.0893285658047
 20
199.3476726457468
 10
120.0573358871406
 20
198.035349648028
 10
117.8983268443047
 20
199.8133418961187
  0
LINE
  5
16B
330
70
100
AcDbEntity
  8
レイヤー 1
 62
    18
420
        0
370
    25
100
AcDbLine
 10
118.78732296835
 20
197.9506648946312
 30
0.0
 11
121.1580008309844
 21
194.691001673875
 31
0.0
  0
LWPOLYLINE
  5
16C
330
70
100
AcDbEntity
  8
レイヤー 1
 62
    18
420
        0
370
    25
100
AcDbPolyline
 90
        3
 70
     0
 43
0.0
 10
123.4016623294469
 20
197.2733375903843
 10
125.6876662046078
 20
193.5903367300312
 10
125.2643285650109
 20
191.2620120100187
  0
LWPOLYLINE
  5
16D
330
70
100
AcDbEntity
  8
レイヤー 1
 62
    18
420
        0
370
    25
100
AcDbPolyline
 90
        5
 70
     0
 43
0.0
 10
125.6876662046078
 20
193.5903367300312
 10
128.3969969534422
 20
196.3419990896406
 10
126.6189939394281
 20
198.5433289773281
 10
124.7986593146391
 20
197.0616795365093
 10
122.0893285658047
 20
199.3476726457468
  0
LWPOLYLINE
  5
16E
330
70
100
AcDbEntity
  8
レイヤー 1
 62
    18
420
        0
370
    25
100
AcDbPolyline
 90
        3
 70
     0
 43
0.0
 10
128.3969969534422
 20
196.3419990896406
 10
130.4289896321063
 20
192.5743350077375
 10
129.7093307170844
 20
190.4576683416
  0
LWPOLYLINE
  5
16F
330
70
100
AcDbEntity
  8
レイヤー 1
 62
    18
420
        0
370
    25
100
AcDbPolyline
 90
        5
 70
     0
 43
0.0
 10
130.4289896321063
 20
192.5743350077375
 10
132.7573358839656
 20
195.0296760919218
 10
130.8099956609281
 20
197.3156692011594
 10
129.0319926469141
 20
196.4266623111906
 10
126.6189939394281
 20
198.5433289773281
  0
LWPOLYLINE
  5
170
330
70
100
AcDbEntity
  8
レイヤー 1
 62
    18
420
        0
370
    25
100
AcDbPolyline
 90
        3
 70
     0
 43
0.0
 10
132.7573358839656
 20
195.0296760919218
 10
134.6199913536063
 20
191.2196803992437
 10
133.3499999666625
 20
188.6796760935093
  0
LWPOLYLINE
  5
171
330
70
100
AcDbEntity
  8
レイヤー 1
 62
    18
420
        0
370
    25
100
AcDbPolyline
 90
        5
 70
     0
 43
0.0
 10
134.6199913536063
 20
191.2196803992437
 10
137.0329900610922
 20
193.4633418977062
 10
134.8740025501031
 20
196.1726726465406
 10
133.1806627576391
 20
195.3683289781219
 10
130.8099956609281
 20
197.3156692011594
  0
LWPOLYLINE
  5
172
330
70
100
AcDbEntity
  8
レイヤー 1
 62
    18
420
        0
370
    25
100
AcDbPolyline
 90
        5
 70
     0
 43
0.0
 10
137.2023272701156
 20
193.8443263946813
 10
138.5993350212312
 20
194.1830008127281
 10
141.1393285610422
 20
191.5583332854437
 10
139.0649935056797
 20
189.526351372703
 10
137.0329900610922
 20
193.4633418977062
  0
LINE
  5
173
330
70
100
AcDbEntity
  8
レイヤー 1
 62
    18
420
        0
370
    25
100
AcDbLine
 10
139.0649935056797
 20
189.526351372703
 30
0.0
 11
137.2446588808906
 21
187.3249999531688
 31
0.0
  0
LWPOLYLINE
  5
174
330
70
100
AcDbEntity
  8
レイヤー 1
 62
    18
420
        0
370
    25
100
AcDbPolyline
 90
        5
 70
     0
 43
0.0
 10
141.393339757539
 20
191.7700128711656
 10
142.7480051319562
 20
192.2356821215374
 10
145.2033246842938
 20
189.568682983478
 10
143.0019947966063
 20
187.5366795388906
 10
141.1393285610422
 20
191.5583332854437
  0
SPLINE
  5
175
330
70
100
AcDbEntity
  8
レイヤー 1
 62
    18
420
        0
370
    25
100
AcDbSpline
210
0.0
220
0.0
230
1.0
 70
    24
 71
     3
 72
     8
 73
     4
 74
     0
 42
0.0000000001
 43
0.0000000001
 40
0.0
 40
0.0
 40
0.0
 40
0.0
 40
1.0
 40
1.0
 40
1.0
 40
1.0
 10
137.2023272701156
 20
193.8443263946813
 30
0.0
 10
137.2023272701156
 20
193.8443263946813
 30
0.0
 10
134.8740025501031
 20
196.1726726465406
 30
0.0
 10
134.8740025501031
 20
196.1726726465406
 30
0.0
  0
SPLINE
  5
176
330
70
100
AcDbEntity
  8
レイヤー 1
 62
    18
420
        0
370
    25
100
AcDbSpline
210
0.0
220
0.0
230
1.0
 70
    24
 71
     3
 72
     8
 73
     4
 74
     0
 42
0.0000000001
 43
0.0000000001
 40
0.0
 40
0.0
 40
0.0
 40
0.0
 40
1.0
 40
1.0
 40
1.0
 40
1.0
 10
141.393339757539
 20
191.7700128711656
 30
0.0
 10
141.393339757539
 20
191.7700128711656
 30
0.0
 10
138.5993350212312
 20
194.1830008127281
 30
0.0
 10
138.5993350212312
 20
194.1830008127281
 30
0.0
  0
SPLINE
  5
177
330
70
100
AcDbEntity
  8
レイヤー 1
 62
    18
420
        0
370
    25
100
AcDbSpline
210
0.0
220
0.0
230
1.0
 70
    24
 71
     3
 72
     8
 73
     4
 74
     0
 42
0.0000000001
 43
0.0000000001
 40
0.0
 40
0.0
 40
0.0
 40
0.0
 40
1.0
 40
1.0
 40
1.0
 40
1.0
 10
143.0019947966063
 20
187.5366795388906
 30
0.0
 10
143.0019947966063
 20
187.5366795388906
 30
0.0
 10
141.6049978114141
 20
185.6316709266281
 30
0.0
 10
141.6049978114141
 20
185.6316709266281
 30
0.0
  0
LWPOLYLINE
  5
178
330
70
100
AcDbEntity
  8
レイヤー 1
 62
    18
420
        0
370
    25
100
AcDbPolyline
 90
        5
 70
     0
 43
0.0
 10
145.626673089814
 20
183.4726726497156
 10
147.1506541414078
 20
185.5046760943031
 10
149.3943371717172
 20
187.3249999531688
 10
150.3679965173125
 20
182.8376769562437
 10
149.1403259752203
 20
181.1443263978562
  0
LWPOLYLINE
  5
179
330
70
100
AcDbEntity
  8
レイヤー 1
 62
    18
420
        0
370
    25
100
AcDbPolyline
 90
        4
 70
     0
 43
0.0
 10
147.1506541414078
 20
185.5046760943031
 10
145.2033246842938
 20
189.568682983478
 10
146.6426640461844
 20
189.9073358696781
 10
149.3943371717172
 20
187.3249999531688
  0
LWPOLYLINE
  5
17A
330
70
100
AcDbEntity
  8
レイヤー 1
 62
    18
420
        0
370
    25
100
AcDbPolyline
 90
        4
 70
     0
 43
0.0
 10
150.3679965173125
 20
182.8376769562437
 10
152.8656692122719
 20
184.8696804008312
 10
153.6699913488438
 20
180.1706778181843
 10
152.0189939330781
 20
178.4773487916437
  0
LWPOLYLINE
  5
17B
330
70
100
AcDbEntity
  8
レイヤー 1
 62
    18
420
        0
370
    25
100
AcDbPolyline
 90
        3
 70
     0
 43
0.0
 10
152.8656692122719
 20
184.8696804008312
 10
150.3256541406141
 20
187.4096847065655
 10
149.3943371717172
 20
187.3249999531688
  0
LWPOLYLINE
  5
17C
330
70
100
AcDbEntity
  8
レイヤー 1
 62
    18
420
        0
370
    25
100
AcDbPolyline
 90
        3
 70
     0
 43
0.0
 10
153.6699913488438
 20
180.1706778181843
 10
155.7019947934312
 20
181.6523487908499
 10
152.8656692122719
 20
184.8696804008312
  0
LWPOLYLINE
  5
17D
330
70
100
AcDbEntity
  8
レイヤー 1
 62
    18
420
        0
370
    25
100
AcDbPolyline
 90
        3
 70
     1
 43
0.0
 10
155.7019947934312
 20
181.6523487908499
 10
156.633333294175
 20
177.2920098603265
 10
158.0726618901422
 20
178.3080115826203
  0
LINE
  5
17E
330
70
100
AcDbEntity
  8
レイヤー 1
 62
    18
420
        0
370
    25
100
AcDbLine
 10
156.633333294175
 20
177.2920098603265
 30
0.0
 11
154.5589874728891
 21
175.8103496535843
 31
0.0
  0
LWPOLYLINE
  5
17F
330
70
100
AcDbEntity
  8
レイヤー 1
 62
    18
420
        0
370
    25
100
AcDbPolyline
 90
        3
 70
     0
 43
0.0
 10
158.0726618901422
 20
178.3080115826203
 10
158.6653259728391
 20
173.9476834180202
 10
157.0143285570734
 20
172.6776704992297
  0
LWPOLYLINE
  5
180
330
70
100
AcDbEntity
  8
レイヤー 1
 62
    18
420
        0
370
    25
100
AcDbPolyline
 90
        3
 70
     0
 43
0.0
 10
158.6653259728391
 20
173.9476834180202
 10
160.6973294174266
 20
175.3446804032124
 10
158.0726618901422
 20
178.3080115826203
  0
LWPOLYLINE
  5
181
330
70
100
AcDbEntity
  8
レイヤー 1
 62
    18
420
        0
370
    25
100
AcDbPolyline
 90
        3
 70
     1
 43
0.0
 10
160.6973294174266
 20
175.3446804032124
 10
160.6973294174266
 20
171.3230051248125
 10
162.3906692098906
 20
172.2966860022546
  0
LINE
  5
182
330
70
100
AcDbEntity
  8
レイヤー 1
 62
    18
420
        0
370
    25
100
AcDbLine
 10
160.6973294174266
 20
171.3230051248125
 30
0.0
 11
158.4113255422656
 21
169.7566816965202
 31
0.0
  0
LWPOLYLINE
  5
183
330
70
100
AcDbEntity
  8
レイヤー 1
 62
    18
420
        0
370
    25
100
AcDbPolyline
 90
        3
 70
     0
 43
0.0
 10
162.3906692098906
 20
172.2966860022546
 10
162.3906692098906
 20
167.9786786825062
 10
160.4009973760781
 20
166.8356821278874
  0
LWPOLYLINE
  5
184
330
70
100
AcDbEntity
  8
レイヤー 1
 62
    18
420
        0
370
    25
100
AcDbPolyline
 90
        3
 70
     0
 43
0.0
 10
162.3906692098906
 20
167.9786786825062
 10
163.7453345843078
 20
168.9946804047999
 10
162.3906692098906
 20
171.026673083464
  0
LWPOLYLINE
  5
185
330
70
100
AcDbEntity
  8
レイヤー 1
 62
    18
420
        0
370
    25
100
AcDbPolyline
 90
        3
 70
     0
 43
0.0
 10
163.7453345843078
 20
168.9946804047999
 10
163.4490025429593
 20
165.1000107246484
 10
161.7980051271937
 20
164.0840090023546
  0
LWPOLYLINE
  5
186
330
70
100
AcDbEntity
  8
レイヤー 1
 62
    18
420
        0
370
    25
100
AcDbPolyline
 90
        3
 70
     0
 43
0.0
 10
163.4490025429593
 20
165.1000107246484
 10
164.6766730850515
 20
165.6926748073453
 10
163.7029922076094
 20
168.0633526699796
  0
LWPOLYLINE
  5
187
330
70
100
AcDbEntity
  8
レイヤー 1
 62
    18
420
        0
370
    25
100
AcDbPolyline
 90
        3
 70
     0
 43
0.0
 10
164.6766730850515
 20
165.6926748073453
 10
164.2956670562297
 20
162.2213427667906
 10
162.4329900547422
 20
161.0360146013968
  0
LWPOLYLINE
  5
188
330
70
100
AcDbEntity
  8
レイヤー 1
 62
    18
420
        0
370
    25
100
AcDbPolyline
 90
        3
 70
     0
 43
0.0
 10
164.2956670562297
 20
162.2213427667906
 10
165.184663180275
 20
162.6446804063874
 10
164.5919990975781
 20
164.6766730850515
  0
LWPOLYLINE
  5
189
330
70
100
AcDbEntity
  8
レイヤー 1
 62
    18
420
        0
370
    25
100
AcDbPolyline
 90
        3
 70
     0
 43
0.0
 10
165.184663180275
 20
162.6446804063874
 10
164.7189939299031
 20
158.7923423370109
 10
163.0256541374391
 20
157.8186722254922
  0
LWPOLYLINE
  5
18A
330
70
100
AcDbEntity
  8
レイヤー 1
 62
    18
420
        0
370
    25
100
AcDbPolyline
 90
        3
 70
     0
 43
0.0
 10
164.9306627497016
 20
160.7396825600484
 10
165.3963320000734
 20
159.1310167550577
 10
164.7189939299031
 20
158.7923423370109
  0
LWPOLYLINE
  5
18B
330
70
100
AcDbEntity
  8
レイヤー 1
 62
    18
420
        0
370
    25
100
AcDbPolyline
 90
        3
 70
     0
 43
0.0
 10
165.3963320000734
 20
159.1310167550577
 10
165.3116580126
 20
156.2946696420515
 10
162.6446588745406
 20
155.1940154641312
  0
LINE
  5
18C
330
70
100
AcDbEntity
  8
レイヤー 1
 62
    18
420
        0
370
    25
100
AcDbLine
 10
165.3963320000734
 20
159.1310167550577
 30
0.0
 11
164.7189939299031
 21
156.0406799774015
 31
0.0
  0
LWPOLYLINE
  5
18D
330
70
100
AcDbEntity
  8
レイヤー 1
 62
    18
420
        0
370
    25
100
AcDbPolyline
 90
        3
 70
     0
 43
0.0
 10
165.3116580126
 20
156.2946696420515
 10
164.4649934993297
 20
152.6540219243202
 10
162.687001251239
 20
152.7810167566452
  0
LWPOLYLINE
  5
18E
330
70
100
AcDbEntity
  8
レイヤー 1
 62
    18
420
        0
370
    25
100
AcDbPolyline
 90
        3
 70
     0
 43
0.0
 10
164.4649934993297
 20
152.6540219243202
 10
163.6606605968344
 20
149.5636743807406
 10
162.5176640422156
 20
149.7753539664624
  0
LWPOLYLINE
  5
18F
330
70
100
AcDbEntity
  8
レイヤー 1
 62
    18
420
        0
370
    25
100
AcDbPolyline
 90
        3
 70
     0
 43
0.0
 10
163.6606605968344
 20
149.5636743807406
 10
162.8563384602625
 20
147.193018049953
 10
161.3323358768218
 20
147.193018049953
  0
LWPOLYLINE
  5
190
330
70
100
AcDbEntity
  8
レイヤー 1
 62
    18
420
        0
370
    25
100
AcDbPolyline
 90
       34
 70
     0
 43
0.0
 10
162.8563384602625
 20
147.193018049953
 10
162.2636636116422
 20
144.5260081459703
 10
160.908998237225
 20
144.8223509532421
 10
160.908998237225
 20
142.3246782582827
 10
159.8083332933812
 20
142.1130094384843
 10
159.5966644735828
 20
139.4036786896499
 10
158.411336308189
 20
139.3613470788749
 10
157.8186614595687
 20
136.948348371389
 10
156.50633846185
 20
136.906016760614
 10
155.9983376007031
 20
134.620012885453
 10
154.5166666280375
 20
134.9586765375765
 10
153.6276705039921
 20
132.3763513869905
 10
152.3999999619
 20
132.757346649889
 10
151.6803302809547
 20
130.5983483729765
 10
150.3679965173125
 20
131.02167524665
 10
149.2249999626937
 20
128.524013317614
 10
147.8280029775016
 20
128.7780137481874
 10
146.3886636156109
 20
126.6613470820499
 10
144.9493350196437
 20
126.9576791233984
 10
143.6370012560015
 20
125.0526812770593
 10
141.7320034096625
 20
125.3066817076327
 10
140.7583332981437
 20
123.9520163332155
 10
139.0226618949047
 20
123.9520163332155
 10
137.7950021187359
 20
122.1740133192015
 10
136.6519947981938
 20
122.3433505282249
 10
134.6623337303046
 20
120.6500107357609
 10
132.8843307162906
 20
121.0733483753577
 10
131.19100168975
 20
119.3376769721187
 10
129.2013298559375
 20
120.2266838620874
 10
127.9736700797687
 20
118.6180180570968
 10
126.7459995376766
 20
119.0836765415453
 10
124.1213320103922
 20
117.602016334803
 10
123.6980051367187
 20
118.1100171959499
 10
120.4806627608141
 20
116.8400150430827
  0
LWPOLYLINE
  5
191
330
70
100
AcDbEntity
  8
レイヤー 1
 62
    18
420
        0
370
    25
100
AcDbPolyline
 90
        3
 70
     0
 43
0.0
 10
117.0516623310344
 20
116.3320034160125
 10
118.4063277054516
 20
117.9406799869265
 10
120.4806627608141
 20
116.8400042771593
  0
LWPOLYLINE
  5
192
330
70
100
AcDbEntity
  8
レイヤー 1
 62
    18
420
        0
370
    25
100
AcDbPolyline
 90
        3
 70
     0
 43
0.0
 10
117.0516623310344
 20
116.3320034160125
 10
114.6809952343234
 20
117.3056735275312
 10
113.4533246922313
 20
115.7816709440906
  0
LWPOLYLINE
  5
193
330
70
100
AcDbEntity
  8
レイヤー 1
 62
    18
420
        0
370
    25
100
AcDbPolyline
 90
        3
 70
     0
 43
0.0
 10
141.1816601718172
 20
182.6683289812969
 10
139.4036679237266
 20
182.1603496519968
 10
139.699999965075
 20
185.2083332870312
  0
LWPOLYLINE
  5
194
330
70
100
AcDbEntity
  8
レイヤー 1
 62
    18
420
        0
370
    25
100
AcDbPolyline
 90
        3
 70
     0
 43
0.0
 10
137.2446588808906
 20
184.6580008151093
 10
135.55132985435
 20
184.7003324258844
 10
136.0169991047219
 20
187.0710102885187
  0
LWPOLYLINE
  5
195
330
70
100
AcDbEntity
  8
レイヤー 1
 62
    18
420
        0
370
    25
100
AcDbPolyline
 90
        3
 70
     0
 43
0.0
 10
132.7149935072672
 20
186.308998230875
 10
132.0376662030203
 20
185.8856821231249
 10
131.9953345922453
 20
188.4256648970125
  0
LWPOLYLINE
  5
196
330
70
100
AcDbEntity
  8
レイヤー 1
 62
    18
420
        0
370
    25
100
AcDbPolyline
 90
        3
 70
     0
 43
0.0
 10
129.3706562990375
 20
187.9599956466407
 10
128.5240025516906
 20
187.4096847065655
 10
128.5663341624656
 20
190.1190154553999
  0
LWPOLYLINE
  5
197
330
70
100
AcDbEntity
  8
レイヤー 1
 62
    18
420
        0
370
    25
100
AcDbPolyline
 90
        3
 70
     0
 43
0.0
 10
125.2643285650109
 20
189.1030137331062
 10
124.3330008301906
 20
188.3410016754625
 10
124.3330008301906
 20
190.9233375919718
  0
LWPOLYLINE
  5
198
330
70
100
AcDbEntity
  8
レイヤー 1
 62
    18
420
        0
370
    25
100
AcDbPolyline
 90
        3
 70
     0
 43
0.0
 10
121.1580008309844
 20
189.7380094265781
 10
120.395999539264
 20
188.9336657581593
 10
120.2266623302406
 20
191.8123444819405
  0
SPLINE
  5
199
330
70
100
AcDbEntity
  8
レイヤー 1
 62
    18
420
        0
370
    25
100
AcDbSpline
210
0.0
220
0.0
230
1.0
 70
    24
 71
     3
 72
     8
 73
     4
 74
     0
 42
0.0000000001
 43
0.0000000001
 40
0.0
 40
0.0
 40
0.0
 40
0.0
 40
1.0
 40
1.0
 40
1.0
 40
1.0
 10
144.2720077153968
 20
180.8056735116562
 30
0.0
 10
144.2720077153968
 20
180.8056735116562
 30
0.0
 10
143.2559952271797
 20
180.2553410397344
 30
0.0
 10
143.2559952271797
 20
180.2553410397344
 30
0.0
  0
SPLINE
  5
19A
330
70
100
AcDbEntity
  8
レイヤー 1
 62
    18
420
        0
370
    25
100
AcDbSpline
210
0.0
220
0.0
230
1.0
 70
    24
 71
     3
 72
     8
 73
     4
 74
     0
 42
0.0000000001
 43
0.0000000001
 40
0.0
 40
0.0
 40
0.0
 40
0.0
 40
1.0
 40
1.0
 40
1.0
 40
1.0
 10
143.3406692146531
 20
180.2976834164327
 30
0.0
 10
143.3406692146531
 20
180.2976834164327
 30
0.0
 10
143.5100064236765
 20
183.0916666208937
 30
0.0
 10
143.5100064236765
 20
183.0916666208937
 30
0.0
  0
LWPOLYLINE
  5
19B
330
70
100
AcDbEntity
  8
レイヤー 1
 62
    18
420
        0
370
    25
100
AcDbPolyline
 90
        3
 70
     0
 43
0.0
 10
147.4470077146031
 20
178.4773487916437
 10
146.5156692138594
 20
178.0540111520468
 10
146.7273272677344
 20
180.9749999547562
  0
LWPOLYLINE
  5
19C
330
70
100
AcDbEntity
  8
レイヤー 1
 62
    18
420
        0
370
    25
100
AcDbPolyline
 90
        3
 70
     0
 43
0.0
 10
149.7753324346156
 20
178.4773487916437
 10
148.5053410476718
 20
176.953346208203
 10
149.9023272669406
 20
176.1490133057078
  0
LWPOLYLINE
  5
19D
330
70
100
AcDbEntity
  8
レイヤー 1
 62
    18
420
        0
370
    25
100
AcDbPolyline
 90
        3
 70
     0
 43
0.0
 10
152.2306627528766
 20
175.9796760966843
 10
150.9183397551578
 20
174.3710102916937
 10
152.6540003924734
 20
173.3550193353233
  0
LWPOLYLINE
  5
19E
330
70
100
AcDbEntity
  8
レイヤー 1
 62
    18
420
        0
370
    25
100
AcDbPolyline
 90
       42
 70
     0
 43
0.0
 10
154.6860038370609
 20
173.0586765280515
 10
153.1620012536203
 20
171.4499999571375
 10
155.1093307107344
 20
170.0530029719453
 10
154.6436614603625
 20
168.8676748065515
 10
156.0406692114781
 20
167.7246674860093
 10
156.0406692114781
 20
166.1583332917937
 10
157.7339982380187
 20
165.015336737175
 10
156.9719969462984
 20
163.1526705016109
 10
158.495999529739
 20
162.0943371685422
 10
157.6493350164687
 20
160.4856713635515
 10
159.4696696412578
 20
159.2580008214594
 10
158.0726618901422
 20
157.6916666272437
 10
159.6813276951328
 20
156.6756756708734
 10
157.9456670578172
 20
154.9400042676343
 10
160.1046653347297
 20
153.7123337255422
 10
157.9033354470422
 20
152.5270055601484
 10
159.3426640430094
 20
151.7226726576531
 10
157.2259973768719
 20
149.987001254414
 10
158.453667918964
 20
148.8440046997953
 10
156.8450021139734
 20
147.3200021163547
 10
158.1573358776156
 20
146.3463427707593
 10
156.0830008222531
 20
144.9070034088687
 10
156.9296653355234
 20
143.806338465025
 10
154.6860038370609
 20
142.5786679229328
 10
155.7443371701296
 20
141.562666200639
 10
153.6700021147671
 20
140.2080008262219
 10
154.6013298495875
 20
139.0650042716031
 10
151.9766623223031
 20
137.9220077169843
 10
153.2466644751703
 20
136.3133419119937
 10
150.029332865189
 20
136.3980051335437
 10
151.1299978090328
 20
134.3236700781812
 10
148.082003408075
 20
134.4506756764296
 10
149.0556627536703
 20
132.4186722318422
 10
145.9229943652391
 20
132.6303410516405
 10
146.6849956569594
 20
130.7676748160765
 10
143.5099956577531
 20
130.7676748160765
 10
144.2296653386984
 20
129.2860038434109
 10
141.2663341592906
 20
129.1166666343875
 10
141.7320034096625
 20
127.0423423449484
 10
138.5570034104562
 20
127.4233376078468
 10
139.0226618949047
 20
125.4760081507328
 10
136.2286679245203
 20
125.0950021219109
  0
LINE
  5
19F
330
70
100
AcDbEntity
  8
レイヤー 1
 62
    18
420
        0
370
    25
100
AcDbLine
 10
136.4826683550937
 20
123.4016838612937
 30
0.0
 11
133.5193371756859
 21
123.9520055672922
 31
0.0
  0
LWPOLYLINE
  5
1A0
330
70
100
AcDbEntity
  8
レイヤー 1
 62
    18
420
        0
370
    25
100
AcDbPolyline
 90
        7
 70
     0
 43
0.0
 10
113.4533246922313
 20
115.7816709440906
 10
113.9613255533781
 20
119.7610146117155
 10
117.0516623310344
 20
116.3320034160125
 10
117.0939939418094
 20
119.7186722350171
 10
120.4806627608141
 20
116.8400042771593
 10
120.9463320111859
 20
120.4383526818858
 10
123.6979943707953
 20
118.1100171959499
  0
LWPOLYLINE
  5
1A1
330
70
100
AcDbEntity
  8
レイヤー 1
 62
    18
420
        0
370
    25
100
AcDbPolyline
 90
        7
 70
     0
 43
0.0
 10
99.65267051748593
 20
115.7816709440906
 10
102.6159909309703
 20
118.6603389019484
 10
103.9283246946125
 20
115.1466752506187
 10
106.7646610416953
 20
118.5756756803984
 10
109.1353281384062
 20
115.1466752506187
 10
110.6169883451485
 20
118.6603389019484
 10
113.4533246922313
 20
115.7816709440906
  0
SPLINE
  5
1A2
330
70
100
AcDbEntity
  8
レイヤー 1
 62
    18
420
        0
370
    25
100
AcDbSpline
210
0.0
220
0.0
230
1.0
 70
    24
 71
     3
 72
     8
 73
     4
 74
     0
 42
0.0000000001
 43
0.0000000001
 40
0.0
 40
0.0
 40
0.0
 40
0.0
 40
1.0
 40
1.0
 40
1.0
 40
1.0
 10
106.7646610416953
 20
118.5756756803984
 30
0.0
 10
106.7646610416953
 20
118.5756756803984
 30
0.0
 10
106.5529922218969
 20
123.9943371780672
 30
0.0
 10
106.5529922218969
 20
123.9943371780672
 30
0.0
  0
SPLINE
  5
1A3
330
70
100
AcDbEntity
  8
レイヤー 1
 62
    18
420
        0
370
    25
100
AcDbSpline
210
0.0
220
0.0
230
1.0
 70
    24
 71
     3
 72
     8
 73
     4
 74
     0
 42
0.0000000001
 43
0.0000000001
 40
0.0
 40
0.0
 40
0.0
 40
0.0
 40
1.0
 40
1.0
 40
1.0
 40
1.0
 10
110.6169883451485
 20
118.6603389019484
 30
0.0
 10
110.6169883451485
 20
118.6603389019484
 30
0.0
 10
110.0243242624516
 20
124.460006428439
 30
0.0
 10
110.0243242624516
 20
124.460006428439
 30
0.0
  0
SPLINE
  5
1A4
330
70
100
AcDbEntity
  8
レイヤー 1
 62
    18
420
        0
370
    25
100
AcDbSpline
210
0.0
220
0.0
230
1.0
 70
    24
 71
     3
 72
     8
 73
     4
 74
     0
 42
0.0000000001
 43
0.0000000001
 40
0.0
 40
0.0
 40
0.0
 40
0.0
 40
1.0
 40
1.0
 40
1.0
 40
1.0
 10
102.6159909309703
 20
118.6603389019484
 30
0.0
 10
102.6159909309703
 20
118.6603389019484
 30
0.0
 10
103.0816601813422
 20
124.417674817664
 30
0.0
 10
103.0816601813422
 20
124.417674817664
 30
0.0
  0
SPLINE
  5
1A5
330
70
100
AcDbEntity
  8
レイヤー 1
 62
    18
420
        0
370
    25
100
AcDbSpline
210
0.0
220
0.0
230
1.0
 70
    24
 71
     3
 72
     8
 73
     4
 74
     0
 42
0.0000000001
 43
0.0000000001
 40
0.0
 40
0.0
 40
0.0
 40
0.0
 40
1.0
 40
1.0
 40
1.0
 40
1.0
 10
109.1353173724829
 20
115.1466752506187
 30
0.0
 10
109.1353173724829
 20
115.1466752506187
 30
0.0
 10
108.3309844699875
 20
124.2483376086406
 30
0.0
 10
108.3309844699875
 20
124.2483376086406
 30
0.0
  0
ENDSEC
  0
SECTION
  2
OBJECTS
  0
DICTIONARY
  5
C
330
0
100
AcDbDictionary
281
     1
  3
ACAD_COLOR
350
63
  3
ACAD_DETAILVIEWSTYLE
350
6A
  3
ACAD_GROUP
350
D
  3
ACAD_LAYOUT
350
62
  3
ACAD_MATERIAL
350
10
  3
ACAD_MLEADERSTYLE
350
66
  3
ACAD_MLINESTYLE
350
5F
  3
ACAD_PLOTSETTINGS
350
61
  3
ACAD_PLOTSTYLENAME
350
E
  3
ACAD_SCALELIST
350
42
  3
ACAD_SECTIONVIEWSTYLE
350
68
  3
ACAD_TABLESTYLE
350
64
  3
ACAD_VISUALSTYLE
350
29
  3
ACDB_RECOMPOSE_DATA
350
1AE
  3
AcDbVariableDictionary
350
1A6
  0
DICTIONARY
  5
63
102
{ACAD_REACTORS
330
C
102
}
330
C
100
AcDbDictionary
281
     1
  0
DICTIONARY
  5
6A
102
{ACAD_REACTORS
330
C
102
}
330
C
100
AcDbDictionary
281
     1
  3
Imperial24
350
6B
  0
DICTIONARY
  5
D
102
{ACAD_REACTORS
330
C
102
}
330
C
100
AcDbDictionary
281
     1
  0
DICTIONARY
  5
62
102
{ACAD_REACTORS
330
C
102
}
330
C
100
AcDbDictionary
281
     1
  3
Layout1
350
6F
  3
Layout2
350
77
  3
Model
350
73
  0
DICTIONARY
  5
10
102
{ACAD_REACTORS
330
C
102
}
330
C
100
AcDbDictionary
281
     1
  3
ByBlock
350
19
  3
ByLayer
350
11
  3
Global
350
21
  0
DICTIONARY
  5
66
102
{ACAD_REACTORS
330
C
102
}
330
C
100
AcDbDictionary
281
     1
  3
Standard
350
67
  0
DICTIONARY
  5
5F
102
{ACAD_REACTORS
330
C
102
}
330
C
100
AcDbDictionary
281
     1
  3
Standard
350
60
  0
DICTIONARY
  5
61
102
{ACAD_REACTORS
330
C
102
}
330
C
100
AcDbDictionary
281
     1
  0
ACDBDICTIONARYWDFLT
  5
E
102
{ACAD_REACTORS
330
C
102
}
330
C
100
AcDbDictionary
281
     1
  3
Normal
350
F
100
AcDbDictionaryWithDefault
340
F
  0
DICTIONARY
  5
42
102
{ACAD_REACTORS
330
C
102
}
330
C
100
AcDbDictionary
281
     1
  3
A0
350
43
  3
A1
350
44
  3
A2
350
45
  3
A3
350
46
  3
A4
350
47
  3
A5
350
48
  3
A6
350
49
  3
A7
350
4A
  3
A8
350
4B
  3
A9
350
4C
  3
B0
350
4D
  3
B1
350
4E
  3
B2
350
4F
  3
B3
350
50
  3
B4
350
51
  3
B5
350
52
  3
B6
350
53
  0
DICTIONARY
  5
68
102
{ACAD_REACTORS
330
C
102
}
330
C
100
AcDbDictionary
281
     1
  3
Imperial24
350
69
  0
DICTIONARY
  5
64
102
{ACAD_REACTORS
330
C
102
}
330
C
100
AcDbDictionary
281
     1
  3
Standard
350
65
  0
DICTIONARY
  5
29
102
{ACAD_REACTORS
330
C
102
}
330
C
100
AcDbDictionary
281
     1
  3
2dWireframe
350
2F
  3
Basic
350
2E
  3
Brighten
350
35
  3
ColorChange
350
39
  3
Conceptual
350
32
  3
Dim
350
34
  3
EdgeColorOff
350
41
  3
Facepattern
350
38
  3
Flat
350
2A
  3
FlatWithEdges
350
2B
  3
Gouraud
350
2C
  3
GouraudWithEdges
350
2D
  3
Hidden
350
31
  3
JitterOff
350
3F
  3
Linepattern
350
37
  3
OverhangOff
350
40
  3
Realistic
350
33
  3
Shaded
350
3E
  3
Shaded with edges
350
3D
  3
Shades of Gray
350
3A
  3
Sketchy
350
3B
  3
Thicken
350
36
  3
Wireframe
350
30
  3
X-Ray
350
3C
  0
XRECORD
  5
1AE
102
{ACAD_REACTORS
330
C
102
}
330
C
100
AcDbXrecord
280
     1
 90
        1
330
65
  0
DICTIONARY
  5
1A6
102
{ACAD_REACTORS
330
C
102
}
330
C
100
AcDbDictionary
281
     1
  3
CANNOSCALE
350
1AB
  3
CMLEADERSTYLE
350
1A8
  3
CTABLESTYLE
350
1A7
  3
CVIEWDETAILSTYLE
350
1A9
  3
CVIEWSECTIONSTYLE
350
1AA
  0
ACDBDETAILVIEWSTYLE
  5
6B
102
{ACAD_REACTORS
330
6A
102
}
330
6A
100
AcDbModelDocViewStyle
 70
     0
  3
Imperial24
290
     1
300
Imperial24
 90
        0
100
AcDbDetailViewStyle
 70
     0
 71
     0
 90
        3
 71
     1
340
55
 62
   256
 40
0.24
340
0
 62
   256
 40
0.24
300

 40
0.36
280
     3
 71
     2
340
5D
 90
       25
 62
   256
 71
     3
340
55
 62
   256
 40
0.24
 90
        1
 40
0.75
 90
        1
300
%<\AcVar ViewType \f "%tc1">% %<\AcVar ViewDetailId>%\PSCALE %<\AcVar ViewScale \f "%sn">%
 71
     4
340
5D
 90
       25
 62
   256
340
5D
 90
       25
 62
   256
280
     0
  0
LAYOUT
  5
6F
102
{ACAD_REACTORS
330
62
102
}
330
62
100
AcDbPlotSettings
  1

  2

  4

  6

 40
0.0
 41
0.0
 42
0.0
 43
0.0
 44
0.0
 45
0.0
 46
0.0
 47
0.0
 48
0.0
 49
0.0
140
0.0
141
0.0
142
1.0
143
1.0
 70
   688
 72
     0
 73
     0
 74
     5
  7

 75
    16
147
1.0
 76
     0
 77
     2
 78
   300
148
0.0
149
0.0
100
AcDbLayout
  1
Layout1
 70
     1
 71
     1
 10
0.0
 20
0.0
 11
12.0
 21
9.0
 12
0.0
 22
0.0
 32
0.0
 14
0.0
 24
0.0
 34
0.0
 15
0.0
 25
0.0
 35
0.0
146
0.0
 13
0.0
 23
0.0
 33
0.0
 16
1.0
 26
0.0
 36
0.0
 17
0.0
 27
1.0
 37
0.0
 76
     0
330
6C
  0
LAYOUT
  5
77
102
{ACAD_REACTORS
330
62
102
}
330
62
100
AcDbPlotSettings
  1

  2

  4

  6

 40
0.0
 41
0.0
 42
0.0
 43
0.0
 44
0.0
 45
0.0
 46
0.0
 47
0.0
 48
0.0
 49
0.0
140
0.0
141
0.0
142
1.0
143
1.0
 70
   688
 72
     0
 73
     0
 74
     5
  7

 75
    16
147
1.0
 76
     0
 77
     2
 78
   300
148
0.0
149
0.0
100
AcDbLayout
  1
Layout2
 70
     1
 71
     2
 10
0.0
 20
0.0
 11
12.0
 21
9.0
 12
0.0
 22
0.0
 32
0.0
 14
0.0
 24
0.0
 34
0.0
 15
0.0
 25
0.0
 35
0.0
146
0.0
 13
0.0
 23
0.0
 33
0.0
 16
1.0
 26
0.0
 36
0.0
 17
0.0
 27
1.0
 37
0.0
 76
     0
330
74
  0
LAYOUT
  5
73
102
{ACAD_REACTORS
330
62
102
}
330
62
100
AcDbPlotSettings
  1

  2

  4

  6

 40
0.0
 41
0.0
 42
0.0
 43
0.0
 44
0.0
 45
0.0
 46
0.0
 47
0.0
 48
0.0
 49
0.0
140
0.0
141
0.0
142
1.0
143
1.0
 70
  1712
 72
     0
 73
     0
 74
     0
  7

 75
     0
147
1.0
 76
     0
 77
     2
 78
   300
148
0.0
149
0.0
100
AcDbLayout
  1
Model
 70
     1
 71
     0
 10
0.0
 20
0.0
 11
12.0
 21
9.0
 12
0.0
 22
0.0
 32
0.0
 14
0.0
 24
0.0
 34
0.0
 15
0.0
 25
0.0
 35
0.0
146
0.0
 13
0.0
 23
0.0
 33
0.0
 16
1.0
 26
0.0
 36
0.0
 17
0.0
 27
1.0
 37
0.0
 76
     0
330
70
  0
MATERIAL
  5
19
102
{ACAD_XDICTIONARY
360
1A
102
}
102
{ACAD_REACTORS
330
10
102
}
330
10
100
AcDbMaterial
  1
ByBlock
 72
     0
 43
0.0208333333333333
 43
0.0
 43
0.0
 43
0.0
 43
0.0
 43
0.0208333333333333
 43
0.0
 43
0.0
 43
0.0
 43
0.0
 43
1.0
 43
0.0
 43
0.0
 43
0.0
 43
0.0
 43
1.0
 77
     0
 47
0.0208333333333333
 47
0.0
 47
0.0
 47
0.0
 47
0.0
 47
0.0208333333333333
 47
0.0
 47
0.0
 47
0.0
 47
0.0
 47
1.0
 47
0.0
 47
0.0
 47
0.0
 47
0.0
 47
1.0
171
     0
 49
0.0208333333333333
 49
0.0
 49
0.0
 49
0.0
 49
0.0
 49
0.0208333333333333
 49
0.0
 49
0.0
 49
0.0
 49
0.0
 49
1.0
 49
0.0
 49
0.0
 49
0.0
 49
0.0
 49
1.0
175
     0
142
0.0208333333333333
142
0.0
142
0.0
142
0.0
142
0.0
142
0.0208333333333333
142
0.0
142
0.0
142
0.0
142
0.0
142
1.0
142
0.0
142
0.0
142
0.0
142
0.0
142
1.0
179
     0
144
0.0208333333333333
144
0.0
144
0.0
144
0.0
144
0.0
144
0.0208333333333333
144
0.0
144
0.0
144
0.0
144
0.0
144
1.0
144
0.0
144
0.0
144
0.0
144
0.0
144
1.0
147
0.0208333333333333
147
0.0
147
0.0
147
0.0
147
0.0
147
0.0208333333333333
147
0.0
147
0.0
147
0.0
147
0.0
147
1.0
147
0.0
147
0.0
147
0.0
147
0.0
147
1.0
  0
MATERIAL
  5
11
102
{ACAD_XDICTIONARY
360
12
102
}
102
{ACAD_REACTORS
330
10
102
}
330
10
100
AcDbMaterial
  1
ByLayer
 72
     0
 43
0.0208333333333333
 43
0.0
 43
0.0
 43
0.0
 43
0.0
 43
0.0208333333333333
 43
0.0
 43
0.0
 43
0.0
 43
0.0
 43
1.0
 43
0.0
 43
0.0
 43
0.0
 43
0.0
 43
1.0
 77
     0
 47
0.0208333333333333
 47
0.0
 47
0.0
 47
0.0
 47
0.0
 47
0.0208333333333333
 47
0.0
 47
0.0
 47
0.0
 47
0.0
 47
1.0
 47
0.0
 47
0.0
 47
0.0
 47
0.0
 47
1.0
171
     0
 49
0.0208333333333333
 49
0.0
 49
0.0
 49
0.0
 49
0.0
 49
0.0208333333333333
 49
0.0
 49
0.0
 49
0.0
 49
0.0
 49
1.0
 49
0.0
 49
0.0
 49
0.0
 49
0.0
 49
1.0
175
     0
142
0.0208333333333333
142
0.0
142
0.0
142
0.0
142
0.0
142
0.0208333333333333
142
0.0
142
0.0
142
0.0
142
0.0
142
1.0
142
0.0
142
0.0
142
0.0
142
0.0
142
1.0
179
     0
144
0.0208333333333333
144
0.0
144
0.0
144
0.0
144
0.0
144
0.0208333333333333
144
0.0
144
0.0
144
0.0
144
0.0
144
1.0
144
0.0
144
0.0
144
0.0
144
0.0
144
1.0
147
0.0208333333333333
147
0.0
147
0.0
147
0.0
147
0.0
147
0.0208333333333333
147
0.0
147
0.0
147
0.0
147
0.0
147
1.0
147
0.0
147
0.0
147
0.0
147
0.0
147
1.0
  0
MATERIAL
  5
21
102
{ACAD_XDICTIONARY
360
22
102
}
102
{ACAD_REACTORS
330
10
102
}
330
10
100
AcDbMaterial
  1
Global
 72
     0
 43
0.0208333333333333
 43
0.0
 43
0.0
 43
0.0
 43
0.0
 43
0.0208333333333333
 43
0.0
 43
0.0
 43
0.0
 43
0.0
 43
1.0
 43
0.0
 43
0.0
 43
0.0
 43
0.0
 43
1.0
 77
     0
 47
0.0208333333333333
 47
0.0
 47
0.0
 47
0.0
 47
0.0
 47
0.0208333333333333
 47
0.0
 47
0.0
 47
0.0
 47
0.0
 47
1.0
 47
0.0
 47
0.0
 47
0.0
 47
0.0
 47
1.0
171
     0
 49
0.0208333333333333
 49
0.0
 49
0.0
 49
0.0
 49
0.0
 49
0.0208333333333333
 49
0.0
 49
0.0
 49
0.0
 49
0.0
 49
1.0
 49
0.0
 49
0.0
 49
0.0
 49
0.0
 49
1.0
175
     0
142
0.0208333333333333
142
0.0
142
0.0
142
0.0
142
0.0
142
0.0208333333333333
142
0.0
142
0.0
142
0.0
142
0.0
142
1.0
142
0.0
142
0.0
142
0.0
142
0.0
142
1.0
179
     0
144
0.0208333333333333
144
0.0
144
0.0
144
0.0
144
0.0
144
0.0208333333333333
144
0.0
144
0.0
144
0.0
144
0.0
144
1.0
144
0.0
144
0.0
144
0.0
144
0.0
144
1.0
147
0.0208333333333333
147
0.0
147
0.0
147
0.0
147
0.0
147
0.0208333333333333
147
0.0
147
0.0
147
0.0
147
0.0
147
1.0
147
0.0
147
0.0
147
0.0
147
0.0
147
1.0
  0
MLEADERSTYLE
  5
67
102
{ACAD_REACTORS
330
66
102
}
330
66
100
AcDbMLeaderStyle
179
     2
170
     2
171
     1
172
     0
 90
        2
 40
0.0
 41
0.0
173
     1
 91
-1056964608
340
5B
 92
       -2
290
     1
 42
0.09
291
     1
 43
0.36
  3
Standard
 44
0.18
300

342
55
174
     1
178
     6
175
     1
176
     0
 93
-1056964608
 45
0.18
292
     0
297
     0
 46
0.18
 94
-1056964608
 47
1.0
 49
1.0
140
1.0
293
     1
141
0.0
294
     1
177
     0
142
1.0
295
     1
296
     0
143
0.125
271
     0
272
     9
273
     9
298
     1
  0
MLINESTYLE
  5
60
102
{ACAD_REACTORS
330
5F
102
}
330
5F
100
AcDbMlineStyle
  2
STANDARD
 70
     0
  3

 62
   256
 51
90.0
 52
90.0
 71
     2
 49
0.5
 62
   256
  6
BYLAYER
 49
-0.5
 62
   256
  6
BYLAYER
  0
ACDBPLACEHOLDER
  5
F
102
{ACAD_REACTORS
330
E
102
}
330
E
  0
SCALE
  5
43
102
{ACAD_REACTORS
330
42
102
}
330
42
100
AcDbScale
 70
     0
300
1:1
140
1.0
141
1.0
290
     1
  0
SCALE
  5
44
102
{ACAD_REACTORS
330
42
102
}
330
42
100
AcDbScale
 70
     0
300
1/128" = 1'-0"
140
0.0078125
141
12.0
290
     0
  0
SCALE
  5
45
102
{ACAD_REACTORS
330
42
102
}
330
42
100
AcDbScale
 70
     0
300
1/64" = 1'-0"
140
0.015625
141
12.0
290
     0
  0
SCALE
  5
46
102
{ACAD_REACTORS
330
42
102
}
330
42
100
AcDbScale
 70
     0
300
1/32" = 1'-0"
140
0.03125
141
12.0
290
     0
  0
SCALE
  5
47
102
{ACAD_REACTORS
330
42
102
}
330
42
100
AcDbScale
 70
     0
300
1/16" = 1'-0"
140
0.0625
141
12.0
290
     0
  0
SCALE
  5
48
102
{ACAD_REACTORS
330
42
102
}
330
42
100
AcDbScale
 70
     0
300
3/32" = 1'-0"
140
0.09375
141
12.0
290
     0
  0
SCALE
  5
49
102
{ACAD_REACTORS
330
42
102
}
330
42
100
AcDbScale
 70
     0
300
1/8" = 1'-0"
140
0.125
141
12.0
290
     0
  0
SCALE
  5
4A
102
{ACAD_REACTORS
330
42
102
}
330
42
100
AcDbScale
 70
     0
300
3/16" = 1'-0"
140
0.1875
141
12.0
290
     0
  0
SCALE
  5
4B
102
{ACAD_REACTORS
330
42
102
}
330
42
100
AcDbScale
 70
     0
300
1/4" = 1'-0"
140
0.25
141
12.0
290
     0
  0
SCALE
  5
4C
102
{ACAD_REACTORS
330
42
102
}
330
42
100
AcDbScale
 70
     0
300
3/8" = 1'-0"
140
0.375
141
12.0
290
     0
  0
SCALE
  5
4D
102
{ACAD_REACTORS
330
42
102
}
330
42
100
AcDbScale
 70
     0
300
1/2" = 1'-0"
140
0.5
141
12.0
290
     0
  0
SCALE
  5
4E
102
{ACAD_REACTORS
330
42
102
}
330
42
100
AcDbScale
 70
     0
300
3/4" = 1'-0"
140
0.75
141
12.0
290
     0
  0
SCALE
  5
4F
102
{ACAD_REACTORS
330
42
102
}
330
42
100
AcDbScale
 70
     0
300
1" = 1'-0"
140
1.0
141
12.0
290
     0
  0
SCALE
  5
50
102
{ACAD_REACTORS
330
42
102
}
330
42
100
AcDbScale
 70
     0
300
1-1/2" = 1'-0"
140
1.5
141
12.0
290
     0
  0
SCALE
  5
51
102
{ACAD_REACTORS
330
42
102
}
330
42
100
AcDbScale
 70
     0
300
3" = 1'-0"
140
3.0
141
12.0
290
     0
  0
SCALE
  5
52
102
{ACAD_REACTORS
330
42
102
}
330
42
100
AcDbScale
 70
     0
300
6" = 1'-0"
140
6.0
141
12.0
290
     0
  0
SCALE
  5
53
102
{ACAD_REACTORS
330
42
102
}
330
42
100
AcDbScale
 70
     0
300
1'-0" = 1'-0"
140
12.0
141
12.0
290
     0
  0
ACDBSECTIONVIEWSTYLE
  5
69
102
{ACAD_REACTORS
330
68
102
}
330
68
100
AcDbModelDocViewStyle
 70
     0
  3
Imperial24
290
     1
300
Imperial24
 90
        0
100
AcDbSectionViewStyle
 70
     0
 71
     0
 90
       78
 71
     1
340
55
 62
   256
 40
0.24
340
0
340
0
 62
   256
 40
0.24
300
I, O, Q, S, X, Z
 40
0.48
 90
        3
 40
0.18
 90
        1
 71
     2
340
5D
 90
       25
 62
   256
340
5D
 90
       50
 62
   256
 40
0.24
 40
0.0
 40
0.24
 71
     3
340
55
 62
   256
 40
0.24
 90
        1
 40
0.75
 90
        1
300
%<\AcVar ViewType \f "%tc1">% %<\AcVar ViewSectionStartId>%-%<\AcVar ViewSectionEndId>%\PSCALE %<\AcVar ViewScale \f "%sn">%
 71
     4
 62
   256
 62
   257
300
ANSI31
 40
1.0
 90
        0
290
     0
290
     0
 90
        6
 40
0.0
 40
1.570796326794896
 40
0.2617993877991494
 40
1.308996938995747
 40
-0.2617993877991494
 40
1.832595714594046
  0
TABLESTYLE
  5
65
102
{ACAD_XDICTIONARY
360
1AC
102
}
102
{ACAD_REACTORS
330
64
102
}
330
64
100
AcDbTableStyle
280
     0
  3
Standard
 70
     0
 71
     0
 40
0.06
 41
0.06
280
     0
281
     0
  7
Standard
140
0.18
170
     2
 62
     0
 63
     7
283
     0
 90
      512
 91
        0
  1

274
    -2
284
     1
 64
     0
275
    -2
285
     1
 65
     0
276
    -2
286
     1
 66
     0
277
    -2
287
     1
 67
     0
278
    -2
288
     1
 68
     0
279
    -2
289
     1
 69
     0
  7
Standard
140
0.25
170
     5
 62
     0
 63
     7
283
     0
 90
      512
 91
        0
  1

274
    -2
284
     1
 64
     0
275
    -2
285
     1
 65
     0
276
    -2
286
     1
 66
     0
277
    -2
287
     1
 67
     0
278
    -2
288
     1
 68
     0
279
    -2
289
     1
 69
     0
  7
Standard
140
0.18
170
     5
 62
     0
 63
     7
283
     0
 90
      512
 91
        0
  1

274
    -2
284
     1
 64
     0
275
    -2
285
     1
 65
     0
276
    -2
286
     1
 66
     0
277
    -2
287
     1
 67
     0
278
    -2
288
     1
 68
     0
279
    -2
289
     1
 69
     0
  0
VISUALSTYLE
  5
2F
102
{ACAD_REACTORS
330
29
102
}
330
29
100
AcDbVisualStyle
  2
2dWireframe
 70
     4
177
     3
291
     0
 70
    58
 90
        0
176
     1
 90
        2
176
     1
 90
        0
176
     1
 90
        0
176
     1
 40
0.6
176
     1
 40
30.0
176
     1
 62
     7
420
 16777215
176
     1
 90
        1
176
     1
 90
        4
176
     1
 62
     7
176
     1
 62
   257
176
     1
 90
        1
176
     1
 90
        1
176
     1
 40
1.0
176
     1
 90
        0
176
     1
 62
   257
176
     1
 40
1.0
176
     1
 90
        1
176
     1
 90
        6
176
     1
 90
        2
176
     1
 62
     7
176
     1
 90
        5
176
     1
 90
        0
176
     1
 90
        0
176
     1
290
     0
176
     1
 90
        1
176
     1
 40
0.0
176
     1
 90
        0
176
     1
290
     1
176
     1
290
     1
176
     1
290
     0
176
     1
290
     0
176
     1
290
     0
176
     1
290
     0
176
     1
290
     0
176
     1
290
     0
176
     1
290
     0
176
     1
 90
       50
176
     1
 40
0.0
176
     1
 40
1.0
176
     1
 90
        0
176
     1
 62
    18
420
        0
176
     1
 90
       50
176
     1
 90
        3
176
     1
 62
     5
420
      255
176
     1
290
     0
176
     1
 90
       50
176
     1
 90
       50
176
     1
 90
       50
176
     1
290
     0
176
     1
 90
       50
176
     1
 62
   256
176
     0
 40
1.0
176
     0
 90
        2
176
     1
  1
strokes_ogs.tif
176
     1
290
     0
176
     1
 40
1.0
176
     1
 40
1.0
176
     1
  0
VISUALSTYLE
  5
2E
102
{ACAD_REACTORS
330
29
102
}
330
29
100
AcDbVisualStyle
  2
Basic
 70
     7
177
     3
291
     1
 70
    58
 90
        1
176
     1
 90
        0
176
     1
 90
        1
176
     1
 90
        0
176
     1
 40
0.6
176
     1
 40
30.0
176
     1
 62
     7
420
 16777215
176
     1
 90
        0
176
     1
 90
        4
176
     1
 62
     7
176
     1
 62
   257
176
     1
 90
        1
176
     1
 90
        1
176
     1
 40
1.0
176
     1
 90
        8
176
     1
 62
     7
176
     1
 40
1.0
176
     1
 90
        1
176
     1
 90
        6
176
     1
 90
        2
176
     1
 62
     7
176
     1
 90
        5
176
     1
 90
        0
176
     1
 90
        0
176
     1
290
     0
176
     1
 90
        1
176
     1
 40
0.0
176
     1
 90
        0
176
     1
290
     0
176
     1
290
     1
176
     1
290
     1
176
     1
290
     0
176
     1
290
     0
176
     1
290
     0
176
     1
290
     0
176
     1
290
     0
176
     1
290
     0
176
     1
 90
       50
176
     1
 40
0.0
176
     1
 40
1.0
176
     1
 90
        0
176
     1
 62
    18
420
        0
176
     1
 90
       50
176
     1
 90
        3
176
     1
 62
     5
420
      255
176
     1
290
     0
176
     1
 90
       50
176
     1
 90
       50
176
     1
 90
       50
176
     1
290
     0
176
     1
 90
       50
176
     1
 62
   256
176
     0
 40
1.0
176
     0
 90
        2
176
     1
  1
strokes_ogs.tif
176
     1
290
     0
176
     1
 40
1.0
176
     1
 40
1.0
176
     1
  0
VISUALSTYLE
  5
35
102
{ACAD_REACTORS
330
29
102
}
330
29
100
AcDbVisualStyle
  2
Brighten
 70
    12
177
     3
291
     1
 70
    58
 90
        2
176
     1
 90
        2
176
     1
 90
        0
176
     1
 90
        0
176
     1
 40
0.6
176
     1
 40
30.0
176
     1
 62
     7
420
 16777215
176
     1
 90
        1
176
     1
 90
        4
176
     1
 62
     7
176
     1
 62
   257
176
     1
 90
        1
176
     1
 90
        1
176
     1
 40
1.0
176
     1
 90
        8
176
     1
 62
     7
176
     1
 40
1.0
176
     1
 90
        1
176
     1
 90
        6
176
     1
 90
        2
176
     1
 62
     7
176
     1
 90
        5
176
     1
 90
        0
176
     1
 90
        0
176
     1
290
     0
176
     1
 90
        1
176
     1
 40
50.0
176
     1
 90
        0
176
     1
290
     0
176
     1
290
     1
176
     1
290
     1
176
     1
290
     0
176
     1
290
     0
176
     1
290
     0
176
     1
290
     0
176
     1
290
     0
176
     1
290
     0
176
     1
 90
       50
176
     1
 40
0.0
176
     1
 40
1.0
176
     1
 90
        0
176
     1
 62
    18
420
        0
176
     1
 90
       50
176
     1
 90
        3
176
     1
 62
     5
420
      255
176
     1
290
     0
176
     1
 90
       50
176
     1
 90
       50
176
     1
 90
       50
176
     1
290
     0
176
     1
 90
       50
176
     1
 62
   256
176
     0
 40
1.0
176
     0
 90
        2
176
     1
  1
strokes_ogs.tif
176
     1
290
     0
176
     1
 40
1.0
176
     1
 40
1.0
176
     1
  0
VISUALSTYLE
  5
39
102
{ACAD_REACTORS
330
29
102
}
330
29
100
AcDbVisualStyle
  2
ColorChange
 70
    16
177
     3
291
     1
 70
    58
 90
        2
176
     1
 90
        2
176
     1
 90
        3
176
     1
 90
        0
176
     1
 40
0.6
176
     1
 40
30.0
176
     1
 62
     8
420
  8421504
176
     1
 90
        1
176
     1
 90
        4
176
     1
 62
     7
176
     1
 62
   257
176
     1
 90
        1
176
     1
 90
        1
176
     1
 40
1.0
176
     1
 90
        8
176
     1
 62
     8
420
  8421504
176
     1
 40
1.0
176
     1
 90
        1
176
     1
 90
        6
176
     1
 90
        2
176
     1
 62
     7
176
     1
 90
        5
176
     1
 90
        0
176
     1
 90
        0
176
     1
290
     0
176
     1
 90
        1
176
     1
 40
0.0
176
     1
 90
        0
176
     1
290
     0
176
     1
290
     1
176
     1
290
     1
176
     1
290
     0
176
     1
290
     0
176
     1
290
     0
176
     1
290
     0
176
     1
290
     0
176
     1
290
     0
176
     1
 90
       50
176
     1
 40
0.0
176
     1
 40
1.0
176
     1
 90
        0
176
     1
 62
    18
420
        0
176
     1
 90
       50
176
     1
 90
        3
176
     1
 62
     5
420
      255
176
     1
290
     0
176
     1
 90
       50
176
     1
 90
       50
176
     1
 90
       50
176
     1
290
     0
176
     1
 90
       50
176
     1
 62
   256
176
     0
 40
1.0
176
     0
 90
        2
176
     1
  1
strokes_ogs.tif
176
     1
290
     0
176
     1
 40
1.0
176
     1
 40
1.0
176
     1
  0
VISUALSTYLE
  5
32
102
{ACAD_REACTORS
330
29
102
}
330
29
100
AcDbVisualStyle
  2
Conceptual
 70
     9
177
     3
291
     0
 70
    58
 90
        3
176
     1
 90
        2
176
     1
 90
        0
176
     1
 90
        0
176
     1
 40
0.6
176
     1
 40
30.0
176
     1
 62
     7
420
 16777215
176
     1
 90
        2
176
     1
 90
        2
176
     1
 62
     7
176
     1
 62
   257
176
     1
 90
        1
176
     1
 90
        1
176
     1
 40
179.0
176
     1
 90
        8
176
     1
 62
     7
176
     1
 40
1.0
176
     1
 90
        1
176
     1
 90
        6
176
     1
 90
        2
176
     1
 62
     7
176
     1
 90
        3
176
     1
 90
        0
176
     1
 90
        0
176
     1
290
     0
176
     1
 90
        1
176
     1
 40
0.0
176
     1
 90
        0
176
     1
290
     0
176
     1
290
     1
176
     1
290
     1
176
     1
290
     0
176
     1
290
     0
176
     1
290
     0
176
     1
290
     0
176
     1
290
     0
176
     1
290
     0
176
     1
 90
       50
176
     1
 40
0.0
176
     1
 40
1.0
176
     1
 90
        0
176
     1
 62
    18
420
        0
176
     1
 90
       50
176
     1
 90
        3
176
     1
 62
     5
420
      255
176
     1
290
     0
176
     1
 90
       50
176
     1
 90
       50
176
     1
 90
       50
176
     1
290
     0
176
     1
 90
       50
176
     1
 62
   256
176
     0
 40
1.0
176
     0
 90
        2
176
     1
  1
strokes_ogs.tif
176
     1
290
     0
176
     1
 40
1.0
176
     1
 40
1.0
176
     1
  0
VISUALSTYLE
  5
34
102
{ACAD_REACTORS
330
29
102
}
330
29
100
AcDbVisualStyle
  2
Dim
 70
    11
177
     3
291
     1
 70
    58
 90
        2
176
     1
 90
        2
176
     1
 90
        0
176
     1
 90
        0
176
     1
 40
0.6
176
     1
 40
30.0
176
     1
 62
     7
420
 16777215
176
     1
 90
        1
176
     1
 90
        4
176
     1
 62
     7
176
     1
 62
   257
176
     1
 90
        1
176
     1
 90
        1
176
     1
 40
1.0
176
     1
 90
        8
176
     1
 62
     7
176
     1
 40
1.0
176
     1
 90
        1
176
     1
 90
        6
176
     1
 90
        2
176
     1
 62
     7
176
     1
 90
        5
176
     1
 90
        0
176
     1
 90
        0
176
     1
290
     0
176
     1
 90
        1
176
     1
 40
-50.0
176
     1
 90
        0
176
     1
290
     0
176
     1
290
     1
176
     1
290
     1
176
     1
290
     0
176
     1
290
     0
176
     1
290
     0
176
     1
290
     0
176
     1
290
     0
176
     1
290
     0
176
     1
 90
       50
176
     1
 40
0.0
176
     1
 40
1.0
176
     1
 90
        0
176
     1
 62
    18
420
        0
176
     1
 90
       50
176
     1
 90
        3
176
     1
 62
     5
420
      255
176
     1
290
     0
176
     1
 90
       50
176
     1
 90
       50
176
     1
 90
       50
176
     1
290
     0
176
     1
 90
       50
176
     1
 62
   256
176
     0
 40
1.0
176
     0
 90
        2
176
     1
  1
strokes_ogs.tif
176
     1
290
     0
176
     1
 40
1.0
176
     1
 40
1.0
176
     1
  0
VISUALSTYLE
  5
41
102
{ACAD_REACTORS
330
29
102
}
330
29
100
AcDbVisualStyle
  2
EdgeColorOff
 70
    22
177
     3
291
     1
 70
    58
 90
        2
176
     0
 90
        2
176
     0
 90
        0
176
     0
 90
        0
176
     0
 40
0.6
176
     0
 40
30.0
176
     0
 62
     7
420
 16777215
176
     0
 90
        1
176
     0
 90
        4
176
     0
 62
     7
176
     0
 62
   257
176
     0
 90
        1
176
     0
 90
        1
176
     0
 40
1.0
176
     0
 90
        8
176
     2
 62
     7
176
     0
 40
1.0
176
     0
 90
        1
176
     0
 90
        6
176
     0
 90
        2
176
     0
 62
     7
176
     0
 90
        5
176
     0
 90
        0
176
     0
 90
        0
176
     0
290
     0
176
     0
 90
        1
176
     0
 40
0.0
176
     0
 90
        0
176
     0
290
     0
176
     0
290
     1
176
     0
290
     1
176
     0
290
     0
176
     0
290
     0
176
     0
290
     0
176
     0
290
     0
176
     0
290
     0
176
     0
290
     0
176
     0
 90
       50
176
     0
 40
0.0
176
     0
 40
1.0
176
     0
 90
        0
176
     0
 62
    18
420
        0
176
     0
 90
       50
176
     0
 90
        3
176
     0
 62
     5
420
      255
176
     0
290
     0
176
     0
 90
       50
176
     0
 90
       50
176
     0
 90
       50
176
     0
290
     0
176
     0
 90
       50
176
     0
 62
   256
176
     0
 40
1.0
176
     0
 90
        2
176
     0
  1
strokes_ogs.tif
176
     0
290
     0
176
     0
 40
1.0
176
     0
 40
1.0
176
     0
  0
VISUALSTYLE
  5
38
102
{ACAD_REACTORS
330
29
102
}
330
29
100
AcDbVisualStyle
  2
Facepattern
 70
    15
177
     3
291
     1
 70
    58
 90
        2
176
     1
 90
        2
176
     1
 90
        0
176
     1
 90
        0
176
     1
 40
0.6
176
     1
 40
30.0
176
     1
 62
     7
420
 16777215
176
     1
 90
        1
176
     1
 90
        4
176
     1
 62
     7
176
     1
 62
   257
176
     1
 90
        1
176
     1
 90
        1
176
     1
 40
1.0
176
     1
 90
        8
176
     1
 62
     7
176
     1
 40
1.0
176
     1
 90
        1
176
     1
 90
        6
176
     1
 90
        2
176
     1
 62
     7
176
     1
 90
        5
176
     1
 90
        0
176
     1
 90
        0
176
     1
290
     0
176
     1
 90
        1
176
     1
 40
0.0
176
     1
 90
        0
176
     1
290
     0
176
     1
290
     1
176
     1
290
     1
176
     1
290
     0
176
     1
290
     0
176
     1
290
     0
176
     1
290
     0
176
     1
290
     0
176
     1
290
     0
176
     1
 90
       50
176
     1
 40
0.0
176
     1
 40
1.0
176
     1
 90
        0
176
     1
 62
    18
420
        0
176
     1
 90
       50
176
     1
 90
        3
176
     1
 62
     5
420
      255
176
     1
290
     0
176
     1
 90
       50
176
     1
 90
       50
176
     1
 90
       50
176
     1
290
     0
176
     1
 90
       50
176
     1
 62
   256
176
     0
 40
1.0
176
     0
 90
        2
176
     1
  1
strokes_ogs.tif
176
     1
290
     0
176
     1
 40
1.0
176
     1
 40
1.0
176
     1
  0
VISUALSTYLE
  5
2A
102
{ACAD_REACTORS
330
29
102
}
330
29
100
AcDbVisualStyle
  2
Flat
 70
     0
177
     3
291
     1
 70
    58
 90
        2
176
     1
 90
        1
176
     1
 90
        1
176
     1
 90
        2
176
     1
 40
0.6
176
     1
 40
30.0
176
     1
 62
     7
420
 16777215
176
     1
 90
        0
176
     1
 90
        0
176
     1
 62
     7
176
     1
 62
   257
176
     1
 90
        1
176
     1
 90
        1
176
     1
 40
1.0
176
     1
 90
        8
176
     1
 62
     7
176
     1
 40
1.0
176
     1
 90
        1
176
     1
 90
        6
176
     1
 90
        2
176
     1
 62
     7
176
     1
 90
        5
176
     1
 90
        0
176
     1
 90
        0
176
     1
290
     0
176
     1
 90
       13
176
     1
 40
0.0
176
     1
 90
        0
176
     1
290
     0
176
     1
290
     1
176
     1
290
     1
176
     1
290
     0
176
     1
290
     0
176
     1
290
     0
176
     1
290
     0
176
     1
290
     0
176
     1
290
     0
176
     1
 90
       50
176
     1
 40
0.0
176
     1
 40
1.0
176
     1
 90
        0
176
     1
 62
    18
420
        0
176
     1
 90
       50
176
     1
 90
        3
176
     1
 62
     5
420
      255
176
     1
290
     0
176
     1
 90
       50
176
     1
 90
       50
176
     1
 90
       50
176
     1
290
     0
176
     1
 90
       50
176
     1
 62
   256
176
     0
 40
1.0
176
     0
 90
        2
176
     1
  1
strokes_ogs.tif
176
     1
290
     0
176
     1
 40
1.0
176
     1
 40
1.0
176
     1
  0
VISUALSTYLE
  5
2B
102
{ACAD_REACTORS
330
29
102
}
330
29
100
AcDbVisualStyle
  2
FlatWithEdges
 70
     1
177
     3
291
     1
 70
    58
 90
        2
176
     1
 90
        1
176
     1
 90
        1
176
     1
 90
        2
176
     1
 40
0.6
176
     1
 40
30.0
176
     1
 62
     7
420
 16777215
176
     1
 90
        1
176
     1
 90
        0
176
     1
 62
     7
176
     1
 62
   257
176
     1
 90
        1
176
     1
 90
        1
176
     1
 40
1.0
176
     1
 90
        0
176
     1
 62
   257
176
     1
 40
1.0
176
     1
 90
        1
176
     1
 90
        6
176
     1
 90
        2
176
     1
 62
     7
176
     1
 90
        5
176
     1
 90
        0
176
     1
 90
        0
176
     1
290
     0
176
     1
 90
       13
176
     1
 40
0.0
176
     1
 90
        0
176
     1
290
     0
176
     1
290
     1
176
     1
290
     1
176
     1
290
     0
176
     1
290
     0
176
     1
290
     0
176
     1
290
     0
176
     1
290
     0
176
     1
290
     0
176
     1
 90
       50
176
     1
 40
0.0
176
     1
 40
1.0
176
     1
 90
        0
176
     1
 62
    18
420
        0
176
     1
 90
       50
176
     1
 90
        3
176
     1
 62
     5
420
      255
176
     1
290
     0
176
     1
 90
       50
176
     1
 90
       50
176
     1
 90
       50
176
     1
290
     0
176
     1
 90
       50
176
     1
 62
   256
176
     0
 40
1.0
176
     0
 90
        2
176
     1
  1
strokes_ogs.tif
176
     1
290
     0
176
     1
 40
1.0
176
     1
 40
1.0
176
     1
  0
VISUALSTYLE
  5
2C
102
{ACAD_REACTORS
330
29
102
}
330
29
100
AcDbVisualStyle
  2
Gouraud
 70
     2
177
     3
291
     1
 70
    58
 90
        2
176
     1
 90
        2
176
     1
 90
        1
176
     1
 90
        2
176
     1
 40
0.6
176
     1
 40
30.0
176
     1
 62
     7
420
 16777215
176
     1
 90
        0
176
     1
 90
        0
176
     1
 62
     7
176
     1
 62
   257
176
     1
 90
        1
176
     1
 90
        1
176
     1
 40
1.0
176
     1
 90
        0
176
     1
 62
     7
176
     1
 40
1.0
176
     1
 90
        1
176
     1
 90
        6
176
     1
 90
        2
176
     1
 62
     7
176
     1
 90
        5
176
     1
 90
        0
176
     1
 90
        0
176
     1
290
     0
176
     1
 90
       13
176
     1
 40
0.0
176
     1
 90
        0
176
     1
290
     0
176
     1
290
     1
176
     1
290
     1
176
     1
290
     0
176
     1
290
     0
176
     1
290
     0
176
     1
290
     0
176
     1
290
     0
176
     1
290
     0
176
     1
 90
       50
176
     1
 40
0.0
176
     1
 40
1.0
176
     1
 90
        0
176
     1
 62
    18
420
        0
176
     1
 90
       50
176
     1
 90
        3
176
     1
 62
     5
420
      255
176
     1
290
     0
176
     1
 90
       50
176
     1
 90
       50
176
     1
 90
       50
176
     1
290
     0
176
     1
 90
       50
176
     1
 62
   256
176
     0
 40
1.0
176
     0
 90
        2
176
     1
  1
strokes_ogs.tif
176
     1
290
     0
176
     1
 40
1.0
176
     1
 40
1.0
176
     1
  0
VISUALSTYLE
  5
2D
102
{ACAD_REACTORS
330
29
102
}
330
29
100
AcDbVisualStyle
  2
GouraudWithEdges
 70
     3
177
     3
291
     1
 70
    58
 90
        2
176
     1
 90
        2
176
     1
 90
        1
176
     1
 90
        2
176
     1
 40
0.6
176
     1
 40
30.0
176
     1
 62
     7
420
 16777215
176
     1
 90
        1
176
     1
 90
        0
176
     1
 62
     7
176
     1
 62
   257
176
     1
 90
        1
176
     1
 90
        1
176
     1
 40
1.0
176
     1
 90
        0
176
     1
 62
   257
176
     1
 40
1.0
176
     1
 90
        1
176
     1
 90
        6
176
     1
 90
        2
176
     1
 62
     7
176
     1
 90
        5
176
     1
 90
        0
176
     1
 90
        0
176
     1
290
     0
176
     1
 90
       13
176
     1
 40
0.0
176
     1
 90
        0
176
     1
290
     0
176
     1
290
     1
176
     1
290
     1
176
     1
290
     0
176
     1
290
     0
176
     1
290
     0
176
     1
290
     0
176
     1
290
     0
176
     1
290
     0
176
     1
 90
       50
176
     1
 40
0.0
176
     1
 40
1.0
176
     1
 90
        0
176
     1
 62
    18
420
        0
176
     1
 90
       50
176
     1
 90
        3
176
     1
 62
     5
420
      255
176
     1
290
     0
176
     1
 90
       50
176
     1
 90
       50
176
     1
 90
       50
176
     1
290
     0
176
     1
 90
       50
176
     1
 62
   256
176
     0
 40
1.0
176
     0
 90
        2
176
     1
  1
strokes_ogs.tif
176
     1
290
     0
176
     1
 40
1.0
176
     1
 40
1.0
176
     1
  0
VISUALSTYLE
  5
31
102
{ACAD_REACTORS
330
29
102
}
330
29
100
AcDbVisualStyle
  2
Hidden
 70
     6
177
     3
291
     0
 70
    58
 90
        1
176
     1
 90
        2
176
     1
 90
        2
176
     1
 90
        0
176
     1
 40
0.6
176
     1
 40
30.0
176
     1
 62
     7
420
 16777215
176
     1
 90
        2
176
     1
 90
        2
176
     1
 62
     7
176
     1
 62
   257
176
     1
 90
        2
176
     1
 90
        1
176
     1
 40
40.0
176
     1
 90
        0
176
     1
 62
   257
176
     1
 40
1.0
176
     1
 90
        1
176
     1
 90
        6
176
     1
 90
        2
176
     1
 62
     7
176
     1
 90
        3
176
     1
 90
        0
176
     1
 90
        0
176
     1
290
     0
176
     1
 90
        1
176
     1
 40
0.0
176
     1
 90
        0
176
     1
290
     0
176
     1
290
     1
176
     1
290
     1
176
     1
290
     0
176
     1
290
     0
176
     1
290
     0
176
     1
290
     0
176
     1
290
     0
176
     1
290
     0
176
     1
 90
       50
176
     1
 40
0.0
176
     1
 40
1.0
176
     1
 90
        0
176
     1
 62
    18
420
        0
176
     1
 90
       50
176
     1
 90
        3
176
     1
 62
     5
420
      255
176
     1
290
     0
176
     1
 90
       50
176
     1
 90
       50
176
     1
 90
       50
176
     1
290
     0
176
     1
 90
       50
176
     1
 62
   256
176
     0
 40
1.0
176
     0
 90
        2
176
     1
  1
strokes_ogs.tif
176
     1
290
     0
176
     1
 40
1.0
176
     1
 40
1.0
176
     1
  0
VISUALSTYLE
  5
3F
102
{ACAD_REACTORS
330
29
102
}
330
29
100
AcDbVisualStyle
  2
JitterOff
 70
    20
177
     3
291
     1
 70
    58
 90
        2
176
     0
 90
        2
176
     0
 90
        0
176
     0
 90
        0
176
     0
 40
0.6
176
     0
 40
30.0
176
     0
 62
     7
420
 16777215
176
     0
 90
        1
176
     0
 90
        4
176
     0
 62
     7
176
     0
 62
   257
176
     0
 90
        1
176
     0
 90
        1
176
     0
 40
1.0
176
     0
 90
       10
176
     2
 62
     7
176
     0
 40
1.0
176
     0
 90
        1
176
     0
 90
        6
176
     0
 90
        2
176
     0
 62
     7
176
     0
 90
        5
176
     0
 90
        0
176
     0
 90
        0
176
     0
290
     0
176
     0
 90
        1
176
     0
 40
0.0
176
     0
 90
        0
176
     0
290
     0
176
     0
290
     1
176
     0
290
     1
176
     0
290
     0
176
     0
290
     0
176
     0
290
     0
176
     0
290
     0
176
     0
290
     0
176
     0
290
     0
176
     0
 90
       50
176
     0
 40
0.0
176
     0
 40
1.0
176
     0
 90
        0
176
     0
 62
    18
420
        0
176
     0
 90
       50
176
     0
 90
        3
176
     0
 62
     5
420
      255
176
     0
290
     0
176
     0
 90
       50
176
     0
 90
       50
176
     0
 90
       50
176
     0
290
     0
176
     0
 90
       50
176
     0
 62
   256
176
     0
 40
1.0
176
     0
 90
        2
176
     0
  1
strokes_ogs.tif
176
     0
290
     0
176
     0
 40
1.0
176
     0
 40
1.0
176
     0
  0
VISUALSTYLE
  5
37
102
{ACAD_REACTORS
330
29
102
}
330
29
100
AcDbVisualStyle
  2
Linepattern
 70
    14
177
     3
291
     1
 70
    58
 90
        2
176
     1
 90
        2
176
     1
 90
        0
176
     1
 90
        0
176
     1
 40
0.6
176
     1
 40
30.0
176
     1
 62
     7
420
 16777215
176
     1
 90
        1
176
     1
 90
        4
176
     1
 62
     7
176
     1
 62
   257
176
     1
 90
        7
176
     1
 90
        7
176
     1
 40
1.0
176
     1
 90
        8
176
     1
 62
     7
176
     1
 40
1.0
176
     1
 90
        1
176
     1
 90
        6
176
     1
 90
        2
176
     1
 62
     7
176
     1
 90
        5
176
     1
 90
        0
176
     1
 90
        0
176
     1
290
     0
176
     1
 90
        1
176
     1
 40
0.0
176
     1
 90
        0
176
     1
290
     0
176
     1
290
     1
176
     1
290
     1
176
     1
290
     0
176
     1
290
     0
176
     1
290
     0
176
     1
290
     0
176
     1
290
     0
176
     1
290
     0
176
     1
 90
       50
176
     1
 40
0.0
176
     1
 40
1.0
176
     1
 90
        0
176
     1
 62
    18
420
        0
176
     1
 90
       50
176
     1
 90
        3
176
     1
 62
     5
420
      255
176
     1
290
     0
176
     1
 90
       50
176
     1
 90
       50
176
     1
 90
       50
176
     1
290
     0
176
     1
 90
       50
176
     1
 62
   256
176
     0
 40
1.0
176
     0
 90
        2
176
     1
  1
strokes_ogs.tif
176
     1
290
     0
176
     1
 40
1.0
176
     1
 40
1.0
176
     1
  0
VISUALSTYLE
  5
40
102
{ACAD_REACTORS
330
29
102
}
330
29
100
AcDbVisualStyle
  2
OverhangOff
 70
    21
177
     3
291
     1
 70
    58
 90
        2
176
     0
 90
        2
176
     0
 90
        0
176
     0
 90
        0
176
     0
 40
0.6
176
     0
 40
30.0
176
     0
 62
     7
420
 16777215
176
     0
 90
        1
176
     0
 90
        4
176
     0
 62
     7
176
     0
 62
   257
176
     0
 90
        1
176
     0
 90
        1
176
     0
 40
1.0
176
     0
 90
        9
176
     2
 62
     7
176
     0
 40
1.0
176
     0
 90
        1
176
     0
 90
        6
176
     0
 90
        2
176
     0
 62
     7
176
     0
 90
        5
176
     0
 90
        0
176
     0
 90
        0
176
     0
290
     0
176
     0
 90
        1
176
     0
 40
0.0
176
     0
 90
        0
176
     0
290
     0
176
     0
290
     1
176
     0
290
     1
176
     0
290
     0
176
     0
290
     0
176
     0
290
     0
176
     0
290
     0
176
     0
290
     0
176
     0
290
     0
176
     0
 90
       50
176
     0
 40
0.0
176
     0
 40
1.0
176
     0
 90
        0
176
     0
 62
    18
420
        0
176
     0
 90
       50
176
     0
 90
        3
176
     0
 62
     5
420
      255
176
     0
290
     0
176
     0
 90
       50
176
     0
 90
       50
176
     0
 90
       50
176
     0
290
     0
176
     0
 90
       50
176
     0
 62
   256
176
     0
 40
1.0
176
     0
 90
        2
176
     0
  1
strokes_ogs.tif
176
     0
290
     0
176
     0
 40
1.0
176
     0
 40
1.0
176
     0
  0
VISUALSTYLE
  5
33
102
{ACAD_REACTORS
330
29
102
}
330
29
100
AcDbVisualStyle
  2
Realistic
 70
     8
177
     3
291
     0
 70
    58
 90
        2
176
     1
 90
        3
176
     1
 90
        0
176
     1
 90
        2
176
     1
 40
0.6
176
     1
 40
30.0
176
     1
 62
     7
420
 16777215
176
     1
 90
        0
176
     1
 90
        0
176
     1
 62
     7
176
     1
 62
   257
176
     1
 90
        1
176
     1
 90
        1
176
     1
 40
1.0
176
     1
 90
        8
176
     1
 62
   257
176
     1
 40
1.0
176
     1
 90
        1
176
     1
 90
        6
176
     1
 90
        2
176
     1
 62
     7
176
     1
 90
        3
176
     1
 90
        0
176
     1
 90
        0
176
     1
290
     0
176
     1
 90
       13
176
     1
 40
0.0
176
     1
 90
        0
176
     1
290
     0
176
     1
290
     1
176
     1
290
     1
176
     1
290
     0
176
     1
290
     0
176
     1
290
     0
176
     1
290
     0
176
     1
290
     0
176
     1
290
     0
176
     1
 90
       50
176
     1
 40
0.0
176
     1
 40
1.0
176
     1
 90
        0
176
     1
 62
    18
420
        0
176
     1
 90
       50
176
     1
 90
        3
176
     1
 62
     5
420
      255
176
     1
290
     0
176
     1
 90
       50
176
     1
 90
       50
176
     1
 90
       50
176
     1
290
     0
176
     1
 90
       50
176
     1
 62
   256
176
     0
 40
1.0
176
     0
 90
        2
176
     1
  1
strokes_ogs.tif
176
     1
290
     0
176
     1
 40
1.0
176
     1
 40
1.0
176
     1
  0
VISUALSTYLE
  5
3E
102
{ACAD_REACTORS
330
29
102
}
330
29
100
AcDbVisualStyle
  2
Shaded
 70
    27
177
     3
291
     0
 70
    58
 90
        2
176
     1
 90
        2
176
     1
 90
        1
176
     1
 90
        2
176
     1
 40
0.6
176
     1
 40
30.0
176
     1
 62
     7
420
 16777215
176
     1
 90
        0
176
     1
 90
        4
176
     1
 62
     7
176
     1
 62
   257
176
     1
 90
        1
176
     1
 90
        1
176
     1
 40
1.0
176
     1
 90
        8
176
     1
 62
   257
176
     1
 40
1.0
176
     1
 90
        1
176
     1
 90
        6
176
     1
 90
        2
176
     1
 62
     8
420
  7895160
176
     1
 90
        3
176
     1
 90
        0
176
     1
 90
        0
176
     1
290
     0
176
     1
 90
        5
176
     1
 40
0.0
176
     1
 90
        0
176
     1
290
     0
176
     1
290
     1
176
     1
290
     1
176
     1
290
     0
176
     1
290
     0
176
     1
290
     0
176
     1
290
     0
176
     1
290
     0
176
     1
290
     0
176
     1
 90
       50
176
     1
 40
0.0
176
     1
 40
1.0
176
     1
 90
        0
176
     1
 62
    18
420
        0
176
     1
 90
       50
176
     1
 90
        3
176
     1
 62
     5
420
      255
176
     1
290
     0
176
     1
 90
       50
176
     1
 90
       50
176
     1
 90
       50
176
     1
290
     0
176
     1
 90
       50
176
     1
 62
   256
176
     0
 40
1.0
176
     0
 90
        2
176
     1
  1
strokes_ogs.tif
176
     1
290
     0
176
     1
 40
1.0
176
     1
 40
1.0
176
     1
  0
VISUALSTYLE
  5
3D
102
{ACAD_REACTORS
330
29
102
}
330
29
100
AcDbVisualStyle
  2
Shaded with edges
 70
    26
177
     3
291
     0
 70
    58
 90
        2
176
     1
 90
        2
176
     1
 90
        1
176
     1
 90
        2
176
     1
 40
0.6
176
     1
 40
30.0
176
     1
 62
     7
420
 16777215
176
     1
 90
        1
176
     1
 90
        2
176
     1
 62
     7
176
     1
 62
   257
176
     1
 90
        2
176
     1
 90
        1
176
     1
 40
1.0
176
     1
 90
        8
176
     1
 62
   257
176
     1
 40
1.0
176
     1
 90
        1
176
     1
 90
        6
176
     1
 90
        2
176
     1
 62
     7
176
     1
 90
        3
176
     1
 90
        0
176
     1
 90
        0
176
     1
290
     0
176
     1
 90
        5
176
     1
 40
0.0
176
     1
 90
        0
176
     1
290
     0
176
     1
290
     1
176
     1
290
     1
176
     1
290
     0
176
     1
290
     0
176
     1
290
     0
176
     1
290
     0
176
     1
290
     0
176
     1
290
     0
176
     1
 90
       50
176
     1
 40
0.0
176
     1
 40
1.0
176
     1
 90
        0
176
     1
 62
    18
420
        0
176
     1
 90
       50
176
     1
 90
        3
176
     1
 62
     5
420
      255
176
     1
290
     0
176
     1
 90
       50
176
     1
 90
       50
176
     1
 90
       50
176
     1
290
     0
176
     1
 90
       50
176
     1
 62
   256
176
     0
 40
1.0
176
     0
 90
        2
176
     1
  1
strokes_ogs.tif
176
     1
290
     0
176
     1
 40
1.0
176
     1
 40
1.0
176
     1
  0
VISUALSTYLE
  5
3A
102
{ACAD_REACTORS
330
29
102
}
330
29
100
AcDbVisualStyle
  2
Shades of Gray
 70
    23
177
     3
291
     0
 70
    58
 90
        2
176
     1
 90
        2
176
     1
 90
        3
176
     1
 90
        0
176
     1
 40
0.6
176
     1
 40
30.0
176
     1
 62
     7
420
 16777215
176
     1
 90
        2
176
     1
 90
        2
176
     1
 62
     7
176
     1
 62
     7
176
     1
 90
        1
176
     1
 90
        1
176
     1
 40
40.0
176
     1
 90
        8
176
     1
 62
     7
176
     1
 40
1.0
176
     1
 90
        1
176
     1
 90
        6
176
     1
 90
        2
176
     1
 62
     7
176
     1
 90
        3
176
     1
 90
        0
176
     1
 90
        0
176
     1
290
     0
176
     1
 90
        1
176
     1
 40
0.0
176
     1
 90
        0
176
     1
290
     0
176
     1
290
     1
176
     1
290
     1
176
     1
290
     0
176
     1
290
     0
176
     1
290
     0
176
     1
290
     0
176
     1
290
     0
176
     1
290
     0
176
     1
 90
       50
176
     1
 40
0.0
176
     1
 40
1.0
176
     1
 90
        0
176
     1
 62
    18
420
        0
176
     1
 90
       50
176
     1
 90
        3
176
     1
 62
     5
420
      255
176
     1
290
     0
176
     1
 90
       50
176
     1
 90
       50
176
     1
 90
       50
176
     1
290
     0
176
     1
 90
       50
176
     1
 62
   256
176
     0
 40
1.0
176
     0
 90
        2
176
     1
  1
strokes_ogs.tif
176
     1
290
     0
176
     1
 40
1.0
176
     1
 40
1.0
176
     1
  0
VISUALSTYLE
  5
3B
102
{ACAD_REACTORS
330
29
102
}
330
29
100
AcDbVisualStyle
  2
Sketchy
 70
    24
177
     3
291
     0
 70
    58
 90
        1
176
     1
 90
        2
176
     1
 90
        2
176
     1
 90
        0
176
     1
 40
0.6
176
     1
 40
30.0
176
     1
 62
     7
420
 16777215
176
     1
 90
        2
176
     1
 90
        2
176
     1
 62
     7
176
     1
 62
     7
176
     1
 90
        1
176
     1
 90
        1
176
     1
 40
40.0
176
     1
 90
       11
176
     1
 62
     7
176
     1
 40
1.0
176
     1
 90
        1
176
     1
 90
        6
176
     1
 90
        2
176
     1
 62
     7
176
     1
 90
        6
176
     1
 90
        0
176
     1
 90
        0
176
     1
290
     0
176
     1
 90
        1
176
     1
 40
0.0
176
     1
 90
        0
176
     1
290
     0
176
     1
290
     1
176
     1
290
     1
176
     1
290
     0
176
     1
290
     0
176
     1
290
     0
176
     1
290
     0
176
     1
290
     0
176
     1
290
     0
176
     1
 90
       50
176
     1
 40
0.0
176
     1
 40
1.0
176
     1
 90
        0
176
     1
 62
    18
420
        0
176
     1
 90
       50
176
     1
 90
        3
176
     1
 62
     5
420
      255
176
     1
290
     0
176
     1
 90
       50
176
     1
 90
       50
176
     1
 90
       50
176
     1
290
     0
176
     1
 90
       50
176
     1
 62
   256
176
     0
 40
1.0
176
     0
 90
        2
176
     1
  1
strokes_ogs.tif
176
     1
290
     0
176
     1
 40
1.0
176
     1
 40
1.0
176
     1
  0
VISUALSTYLE
  5
36
102
{ACAD_REACTORS
330
29
102
}
330
29
100
AcDbVisualStyle
  2
Thicken
 70
    13
177
     3
291
     1
 70
    58
 90
        2
176
     1
 90
        2
176
     1
 90
        0
176
     1
 90
        0
176
     1
 40
0.6
176
     1
 40
30.0
176
     1
 62
     7
420
 16777215
176
     1
 90
        1
176
     1
 90
        4
176
     1
 62
     7
176
     1
 62
   257
176
     1
 90
        1
176
     1
 90
        1
176
     1
 40
1.0
176
     1
 90
       12
176
     1
 62
     7
176
     1
 40
1.0
176
     1
 90
        1
176
     1
 90
        6
176
     1
 90
        2
176
     1
 62
     7
176
     1
 90
        5
176
     1
 90
        0
176
     1
 90
        0
176
     1
290
     0
176
     1
 90
        1
176
     1
 40
0.0
176
     1
 90
        0
176
     1
290
     0
176
     1
290
     1
176
     1
290
     1
176
     1
290
     0
176
     1
290
     0
176
     1
290
     0
176
     1
290
     0
176
     1
290
     0
176
     1
290
     0
176
     1
 90
       50
176
     1
 40
0.0
176
     1
 40
1.0
176
     1
 90
        0
176
     1
 62
    18
420
        0
176
     1
 90
       50
176
     1
 90
        3
176
     1
 62
     5
420
      255
176
     1
290
     0
176
     1
 90
       50
176
     1
 90
       50
176
     1
 90
       50
176
     1
290
     0
176
     1
 90
       50
176
     1
 62
   256
176
     0
 40
1.0
176
     0
 90
        2
176
     1
  1
strokes_ogs.tif
176
     1
290
     0
176
     1
 40
1.0
176
     1
 40
1.0
176
     1
  0
VISUALSTYLE
  5
30
102
{ACAD_REACTORS
330
29
102
}
330
29
100
AcDbVisualStyle
  2
Wireframe
 70
     5
177
     3
291
     0
 70
    58
 90
        0
176
     1
 90
        2
176
     1
 90
        0
176
     1
 90
        0
176
     1
 40
0.6
176
     1
 40
30.0
176
     1
 62
     7
420
 16777215
176
     1
 90
        1
176
     1
 90
        4
176
     1
 62
     7
176
     1
 62
   257
176
     1
 90
        1
176
     1
 90
        1
176
     1
 40
1.0
176
     1
 90
        0
176
     1
 62
   257
176
     1
 40
1.0
176
     1
 90
        1
176
     1
 90
        6
176
     1
 90
        2
176
     1
 62
     7
176
     1
 90
        3
176
     1
 90
        0
176
     1
 90
        0
176
     1
290
     0
176
     1
 90
        1
176
     1
 40
0.0
176
     1
 90
        0
176
     1
290
     0
176
     1
290
     1
176
     1
290
     1
176
     1
290
     0
176
     1
290
     0
176
     1
290
     0
176
     1
290
     0
176
     1
290
     0
176
     1
290
     0
176
     1
 90
       50
176
     1
 40
0.0
176
     1
 40
1.0
176
     1
 90
        0
176
     1
 62
    18
420
        0
176
     1
 90
       50
176
     1
 90
        3
176
     1
 62
     5
420
      255
176
     1
290
     0
176
     1
 90
       50
176
     1
 90
       50
176
     1
 90
       50
176
     1
290
     0
176
     1
 90
       50
176
     1
 62
   256
176
     0
 40
1.0
176
     0
 90
        2
176
     1
  1
strokes_ogs.tif
176
     1
290
     0
176
     1
 40
1.0
176
     1
 40
1.0
176
     1
  0
VISUALSTYLE
  5
3C
102
{ACAD_REACTORS
330
29
102
}
330
29
100
AcDbVisualStyle
  2
X-Ray
 70
    25
177
     3
291
     0
 70
    58
 90
        2
176
     1
 90
        2
176
     1
 90
        1
176
     1
 90
        1
176
     1
 40
0.5
176
     1
 40
30.0
176
     1
 62
     7
420
 16777215
176
     1
 90
        1
176
     1
 90
        0
176
     1
 62
     7
176
     1
 62
   257
176
     1
 90
        1
176
     1
 90
        1
176
     1
 40
1.0
176
     1
 90
        8
176
     1
 62
     7
176
     1
 40
1.0
176
     1
 90
        1
176
     1
 90
        6
176
     1
 90
        2
176
     1
 62
     7
176
     1
 90
        3
176
     1
 90
        0
176
     1
 90
        0
176
     1
290
     0
176
     1
 90
       13
176
     1
 40
0.0
176
     1
 90
        0
176
     1
290
     0
176
     1
290
     1
176
     1
290
     1
176
     1
290
     0
176
     1
290
     0
176
     1
290
     0
176
     1
290
     0
176
     1
290
     0
176
     1
290
     0
176
     1
 90
       50
176
     1
 40
0.0
176
     1
 40
1.0
176
     1
 90
        0
176
     1
 62
    18
420
        0
176
     1
 90
       50
176
     1
 90
        3
176
     1
 62
     5
420
      255
176
     1
290
     0
176
     1
 90
       50
176
     1
 90
       50
176
     1
 90
       50
176
     1
290
     0
176
     1
 90
       50
176
     1
 62
   256
176
     0
 40
1.0
176
     0
 90
        2
176
     1
  1
strokes_ogs.tif
176
     1
290
     0
176
     1
 40
1.0
176
     1
 40
1.0
176
     1
  0
DICTIONARYVAR
  5
1AB
102
{ACAD_REACTORS
330
1A6
102
}
330
1A6
100
DictionaryVariables
280
     0
  1
1:1
  0
DICTIONARYVAR
  5
1A8
102
{ACAD_REACTORS
330
1A6
102
}
330
1A6
100
DictionaryVariables
280
     0
  1
STANDARD
  0
DICTIONARYVAR
  5
1A7
102
{ACAD_REACTORS
330
1A6
102
}
330
1A6
100
DictionaryVariables
280
     0
  1
STANDARD
  0
DICTIONARYVAR
  5
1A9
102
{ACAD_REACTORS
330
1A6
102
}
330
1A6
100
DictionaryVariables
280
     0
  1
Imperial24
  0
DICTIONARYVAR
  5
1AA
102
{ACAD_REACTORS
330
1A6
102
}
330
1A6
100
DictionaryVariables
280
     0
  1
Imperial24
  0
DICTIONARY
  5
1A
330
19
100
AcDbDictionary
280
     1
281
     1
  3
BUMPTILE
360
1C
  3
DIFFUSETILE
360
1B
  3
OPACITYTILE
360
1F
  3
REFLECTIONTILE
360
1E
  3
REFRACTIONTILE
360
20
  3
SPECULARTILE
360
1D
  0
DICTIONARY
  5
12
330
11
100
AcDbDictionary
280
     1
281
     1
  3
BUMPTILE
360
14
  3
DIFFUSETILE
360
13
  3
OPACITYTILE
360
17
  3
REFLECTIONTILE
360
16
  3
REFRACTIONTILE
360
18
  3
SPECULARTILE
360
15
  0
DICTIONARY
  5
22
330
21
100
AcDbDictionary
280
     1
281
     1
  3
BUMPTILE
360
24
  3
DIFFUSETILE
360
23
  3
OPACITYTILE
360
27
  3
REFLECTIONTILE
360
26
  3
REFRACTIONTILE
360
28
  3
SPECULARTILE
360
25
  0
DICTIONARY
  5
1AC
330
65
100
AcDbDictionary
280
     1
281
     1
  3
ACAD_ROUNDTRIP_2008_TABLESTYLE_CELLSTYLEMAP
360
1AD
  0
XRECORD
  5
1C
102
{ACAD_REACTORS
330
1A
102
}
330
1A
100
AcDbXrecord
280
     1
270
     1
271
     1
  0
XRECORD
  5
1B
102
{ACAD_REACTORS
330
1A
102
}
330
1A
100
AcDbXrecord
280
     1
270
     1
271
     1
  0
XRECORD
  5
1F
102
{ACAD_REACTORS
330
1A
102
}
330
1A
100
AcDbXrecord
280
     1
270
     1
271
     1
  0
XRECORD
  5
1E
102
{ACAD_REACTORS
330
1A
102
}
330
1A
100
AcDbXrecord
280
     1
270
     1
271
     1
  0
XRECORD
  5
20
102
{ACAD_REACTORS
330
1A
102
}
330
1A
100
AcDbXrecord
280
     1
270
     1
271
     1
  0
XRECORD
  5
1D
102
{ACAD_REACTORS
330
1A
102
}
330
1A
100
AcDbXrecord
280
     1
270
     1
271
     1
  0
XRECORD
  5
14
102
{ACAD_REACTORS
330
12
102
}
330
12
100
AcDbXrecord
280
     1
270
     1
271
     1
  0
XRECORD
  5
13
102
{ACAD_REACTORS
330
12
102
}
330
12
100
AcDbXrecord
280
     1
270
     1
271
     1
  0
XRECORD
  5
17
102
{ACAD_REACTORS
330
12
102
}
330
12
100
AcDbXrecord
280
     1
270
     1
271
     1
  0
XRECORD
  5
16
102
{ACAD_REACTORS
330
12
102
}
330
12
100
AcDbXrecord
280
     1
270
     1
271
     1
  0
XRECORD
  5
18
102
{ACAD_REACTORS
330
12
102
}
330
12
100
AcDbXrecord
280
     1
270
     1
271
     1
  0
XRECORD
  5
15
102
{ACAD_REACTORS
330
12
102
}
330
12
100
AcDbXrecord
280
     1
270
     1
271
     1
  0
XRECORD
  5
24
102
{ACAD_REACTORS
330
22
102
}
330
22
100
AcDbXrecord
280
     1
270
     1
271
     1
  0
XRECORD
  5
23
102
{ACAD_REACTORS
330
22
102
}
330
22
100
AcDbXrecord
280
     1
270
     1
271
     1
  0
XRECORD
  5
27
102
{ACAD_REACTORS
330
22
102
}
330
22
100
AcDbXrecord
280
     1
270
     1
271
     1
  0
XRECORD
  5
26
102
{ACAD_REACTORS
330
22
102
}
330
22
100
AcDbXrecord
280
     1
270
     1
271
     1
  0
XRECORD
  5
28
102
{ACAD_REACTORS
330
22
102
}
330
22
100
AcDbXrecord
280
     1
270
     1
271
     1
  0
XRECORD
  5
25
102
{ACAD_REACTORS
330
22
102
}
330
22
100
AcDbXrecord
280
     1
270
     1
271
     1
  0
CELLSTYLEMAP
  5
1AD
102
{ACAD_REACTORS
330
1AC
102
}
330
1AC
100
AcDbCellStyleMap
 90
        3
300
CELLSTYLE
  1
TABLEFORMAT_BEGIN
 90
        5
170
     1
 91
        0
 92
    32768
 62
   257
 93
        1
300
CONTENTFORMAT
  1
CONTENTFORMAT_BEGIN
 90
        0
 91
        0
 92
      512
 93
        0
300

 40
0.0
140
1.0
 94
        5
 62
     0
340
55
144
0.25
309
CONTENTFORMAT_END
171
     0
 94
        0
309
TABLEFORMAT_END
  1
CELLSTYLE_BEGIN
 90
        1
 91
        1
300
_TITLE
309
CELLSTYLE_END
300
CELLSTYLE
  1
TABLEFORMAT_BEGIN
 90
        5
170
     1
 91
        0
 92
        0
 62
   257
 93
        1
300
CONTENTFORMAT
  1
CONTENTFORMAT_BEGIN
 90
        0
 91
        0
 92
      512
 93
        0
300

 40
0.0
140
1.0
 94
        5
 62
     0
340
55
144
0.18
309
CONTENTFORMAT_END
171
     0
 94
        0
309
TABLEFORMAT_END
  1
CELLSTYLE_BEGIN
 90
        2
 91
        1
300
_HEADER
309
CELLSTYLE_END
300
CELLSTYLE
  1
TABLEFORMAT_BEGIN
 90
        5
170
     1
 91
        0
 92
        0
 62
   257
 93
        1
300
CONTENTFORMAT
  1
CONTENTFORMAT_BEGIN
 90
        0
 91
        0
 92
      512
 93
        0
300

 40
0.0
140
1.0
 94
        2
 62
     0
340
55
144
0.18
309
CONTENTFORMAT_END
171
     0
 94
        0
309
TABLEFORMAT_END
  1
CELLSTYLE_BEGIN
 90
        3
 91
        2
300
_DATA
309
CELLSTYLE_END
  0
ENDSEC
  0
EOF
