  0
SECTION
  2
HEADER
  9
$ACADVER
  1
AC1032
  9
$ACADMAINTVER
 90
      228
  9
$DWGCODEPAGE
  3
ANSI_932
  9
$REQUIREDVERSIONS
160
                 0
  9
$INSBASE
 10
0.0
 20
0.0
 30
0.0
  9
$EXTMIN
 10
1.000000000000000E+20
 20
1.000000000000000E+20
 30
1.000000000000000E+20
  9
$EXTMAX
 10
-1.000000000000000E+20
 20
-1.000000000000000E+20
 30
-1.000000000000000E+20
  9
$LIMMIN
 10
0.0
 20
0.0
  9
$LIMMAX
 10
12.0
 20
9.0
  9
$ORTHOMODE
 70
     0
  9
$REGENMODE
 70
     1
  9
$FILLMODE
 70
     1
  9
$QTEXTMODE
 70
     0
  9
$MIRRTEXT
 70
     0
  9
$LTSCALE
 40
1.0
  9
$ATTMODE
 70
     1
  9
$TEXTSIZE
 40
0.2
  9
$TRACEWID
 40
0.05
  9
$TEXTSTYLE
  7
Standard
  9
$CLAYER
  8
0
  9
$CELTYPE
  6
ByLayer
  9
$CECOLOR
 62
   256
  9
$CELTSCALE
 40
1.0
  9
$DISPSILH
 70
     0
  9
$DIMSCALE
 40
1.0
  9
$DIMASZ
 40
0.18
  9
$DIMEXO
 40
0.0625
  9
$DIMDLI
 40
0.38
  9
$DIMRND
 40
0.0
  9
$DIMDLE
 40
0.0
  9
$DIMEXE
 40
0.18
  9
$DIMTP
 40
0.0
  9
$DIMTM
 40
0.0
  9
$DIMTXT
 40
0.18
  9
$DIMCEN
 40
0.09
  9
$DIMTSZ
 40
0.0
  9
$DIMTOL
 70
     0
  9
$DIMLIM
 70
     0
  9
$DIMTIH
 70
     1
  9
$DIMTOH
 70
     1
  9
$DIMSE1
 70
     0
  9
$DIMSE2
 70
     0
  9
$DIMTAD
 70
     0
  9
$DIMZIN
 70
     0
  9
$DIMBLK
  1

  9
$DIMASO
 70
     1
  9
$DIMSHO
 70
     1
  9
$DIMPOST
  1

  9
$DIMAPOST
  1

  9
$DIMALT
 70
     0
  9
$DIMALTD
 70
     2
  9
$DIMALTF
 40
25.4
  9
$DIMLFAC
 40
1.0
  9
$DIMTOFL
 70
     0
  9
$DIMTVP
 40
0.0
  9
$DIMTIX
 70
     0
  9
$DIMSOXD
 70
     0
  9
$DIMSAH
 70
     0
  9
$DIMBLK1
  1

  9
$DIMBLK2
  1

  9
$DIMSTYLE
  2
Standard
  9
$DIMCLRD
 70
     0
  9
$DIMCLRE
 70
     0
  9
$DIMCLRT
 70
     0
  9
$DIMTFAC
 40
1.0
  9
$DIMGAP
 40
0.09
  9
$DIMJUST
 70
     0
  9
$DIMSD1
 70
     0
  9
$DIMSD2
 70
     0
  9
$DIMTOLJ
 70
     1
  9
$DIMTZIN
 70
     0
  9
$DIMALTZ
 70
     0
  9
$DIMALTTZ
 70
     0
  9
$DIMUPT
 70
     0
  9
$DIMDEC
 70
     4
  9
$DIMTDEC
 70
     4
  9
$DIMALTU
 70
     2
  9
$DIMALTTD
 70
     2
  9
$DIMTXSTY
  7
Standard
  9
$DIMAUNIT
 70
     0
  9
$DIMADEC
 70
     0
  9
$DIMALTRND
 40
0.0
  9
$DIMAZIN
 70
     0
  9
$DIMDSEP
 70
    46
  9
$DIMATFIT
 70
     3
  9
$DIMFRAC
 70
     0
  9
$DIMLDRBLK
  1

  9
$DIMLUNIT
 70
     2
  9
$DIMLWD
 70
    -2
  9
$DIMLWE
 70
    -2
  9
$DIMTMOVE
 70
     0
  9
$DIMFXL
 40
1.0
  9
$DIMFXLON
 70
     0
  9
$DIMJOGANG
 40
0.7853981633974483
  9
$DIMTFILL
 70
     0
  9
$DIMTFILLCLR
 70
     0
  9
$DIMARCSYM
 70
     0
  9
$DIMLTYPE
  6

  9
$DIMLTEX1
  6

  9
$DIMLTEX2
  6

  9
$DIMTXTDIRECTION
 70
     0
  9
$LUNITS
 70
     2
  9
$LUPREC
 70
     4
  9
$SKETCHINC
 40
0.1
  9
$FILLETRAD
 40
0.0
  9
$AUNITS
 70
     0
  9
$AUPREC
 70
     0
  9
$MENU
  1
.
  9
$ELEVATION
 40
0.0
  9
$PELEVATION
 40
0.0
  9
$THICKNESS
 40
0.0
  9
$LIMCHECK
 70
     0
  9
$CHAMFERA
 40
0.0
  9
$CHAMFERB
 40
0.0
  9
$CHAMFERC
 40
0.0
  9
$CHAMFERD
 40
0.0
  9
$SKPOLY
 70
     0
  9
$TDCREATE
 40
2460062.648032407
  9
$TDUCREATE
 40
2460062.273032407
  9
$TDUPDATE
 40
2460062.648032407
  9
$TDUUPDATE
 40
2460062.273032407
  9
$TDINDWG
 40
0.0000000000
  9
$TDUSRTIMER
 40
0.0000000000
  9
$USRTIMER
 70
     1
  9
$ANGBASE
 50
0.0
  9
$ANGDIR
 70
     0
  9
$PDMODE
 70
     0
  9
$PDSIZE
 40
0.0
  9
$PLINEWID
 40
0.0
  9
$SPLFRAME
 70
     0
  9
$SPLINETYPE
 70
     6
  9
$SPLINESEGS
 70
     8
  9
$HANDSEED
  5
329
  9
$SURFTAB1
 70
     6
  9
$SURFTAB2
 70
     6
  9
$SURFTYPE
 70
     6
  9
$SURFU
 70
     6
  9
$SURFV
 70
     6
  9
$UCSBASE
  2

  9
$UCSNAME
  2

  9
$UCSORG
 10
0.0
 20
0.0
 30
0.0
  9
$UCSXDIR
 10
1.0
 20
0.0
 30
0.0
  9
$UCSYDIR
 10
0.0
 20
1.0
 30
0.0
  9
$UCSORTHOREF
  2

  9
$UCSORTHOVIEW
 70
     0
  9
$UCSORGTOP
 10
0.0
 20
0.0
 30
0.0
  9
$UCSORGBOTTOM
 10
0.0
 20
0.0
 30
0.0
  9
$UCSORGLEFT
 10
0.0
 20
0.0
 30
0.0
  9
$UCSORGRIGHT
 10
0.0
 20
0.0
 30
0.0
  9
$UCSORGFRONT
 10
0.0
 20
0.0
 30
0.0
  9
$UCSORGBACK
 10
0.0
 20
0.0
 30
0.0
  9
$PUCSBASE
  2

  9
$PUCSNAME
  2

  9
$PUCSORG
 10
0.0
 20
0.0
 30
0.0
  9
$PUCSXDIR
 10
1.0
 20
0.0
 30
0.0
  9
$PUCSYDIR
 10
0.0
 20
1.0
 30
0.0
  9
$PUCSORTHOREF
  2

  9
$PUCSORTHOVIEW
 70
     0
  9
$PUCSORGTOP
 10
0.0
 20
0.0
 30
0.0
  9
$PUCSORGBOTTOM
 10
0.0
 20
0.0
 30
0.0
  9
$PUCSORGLEFT
 10
0.0
 20
0.0
 30
0.0
  9
$PUCSORGRIGHT
 10
0.0
 20
0.0
 30
0.0
  9
$PUCSORGFRONT
 10
0.0
 20
0.0
 30
0.0
  9
$PUCSORGBACK
 10
0.0
 20
0.0
 30
0.0
  9
$USERI1
 70
     0
  9
$USERI2
 70
     0
  9
$USERI3
 70
     0
  9
$USERI4
 70
     0
  9
$USERI5
 70
     0
  9
$USERR1
 40
0.0
  9
$USERR2
 40
0.0
  9
$USERR3
 40
0.0
  9
$USERR4
 40
0.0
  9
$USERR5
 40
0.0
  9
$WORLDVIEW
 70
     1
  9
$SHADEDGE
 70
     3
  9
$SHADEDIF
 70
    70
  9
$TILEMODE
 70
     1
  9
$MAXACTVP
 70
    64
  9
$PINSBASE
 10
0.0
 20
0.0
 30
0.0
  9
$PLIMCHECK
 70
     0
  9
$PEXTMIN
 10
1.000000000000000E+20
 20
1.000000000000000E+20
 30
1.000000000000000E+20
  9
$PEXTMAX
 10
-1.000000000000000E+20
 20
-1.000000000000000E+20
 30
-1.000000000000000E+20
  9
$PLIMMIN
 10
0.0
 20
0.0
  9
$PLIMMAX
 10
12.0
 20
9.0
  9
$UNITMODE
 70
     0
  9
$VISRETAIN
 70
     1
  9
$PLINEGEN
 70
     0
  9
$PSLTSCALE
 70
     1
  9
$TREEDEPTH
 70
  3020
  9
$CMLSTYLE
  2
Standard
  9
$CMLJUST
 70
     0
  9
$CMLSCALE
 40
1.0
  9
$PROXYGRAPHICS
 70
     1
  9
$MEASUREMENT
 70
     0
  9
$CELWEIGHT
370
    -1
  9
$ENDCAPS
280
     0
  9
$JOINSTYLE
280
     0
  9
$LWDISPLAY
290
     1
  9
$INSUNITS
 70
     4
  9
$HYPERLINKBASE
  1

  9
$STYLESHEET
  1

  9
$XEDIT
290
     1
  9
$CEPSNTYPE
380
     0
  9
$PSTYLEMODE
290
     1
  9
$FINGERPRINTGUID
  2
{14C6EDDC-3449-8D40-B3D3-4073FA2A2556}
  9
$VERSIONGUID
  2
{F784F5B4-DF0F-484F-9A06-86BC289154AE}
  9
$EXTNAMES
290
     1
  9
$PSVPSCALE
 40
0.0
  9
$OLESTARTUP
290
     0
  9
$SORTENTS
280
   127
  9
$INDEXCTL
280
     0
  9
$HIDETEXT
280
     1
  9
$XCLIPFRAME
280
     2
  9
$HALOGAP
280
     0
  9
$OBSCOLOR
 70
   257
  9
$OBSLTYPE
280
     0
  9
$INTERSECTIONDISPLAY
280
     0
  9
$INTERSECTIONCOLOR
 70
   257
  9
$DIMASSOC
280
     2
  9
$PROJECTNAME
  1

  9
$CAMERADISPLAY
290
     0
  9
$LENSLENGTH
 40
50.0
  9
$CAMERAHEIGHT
 40
0.0
  9
$STEPSPERSEC
 40
2.0
  9
$STEPSIZE
 40
6.0
  9
$3DDWFPREC
 40
2.0
  9
$PSOLWIDTH
 40
0.25
  9
$PSOLHEIGHT
 40
4.0
  9
$LOFTANG1
 40
1.570796326794896
  9
$LOFTANG2
 40
1.570796326794896
  9
$LOFTMAG1
 40
0.0
  9
$LOFTMAG2
 40
0.0
  9
$LOFTPARAM
 70
     7
  9
$LOFTNORMALS
280
     1
  9
$LATITUDE
 40
37.795
  9
$LONGITUDE
 40
-122.394
  9
$NORTHDIRECTION
 40
0.0
  9
$TIMEZONE
 70
 -8000
  9
$LIGHTGLYPHDISPLAY
280
     1
  9
$TILEMODELIGHTSYNCH
280
     1
  9
$CMATERIAL
347
11
  9
$SOLIDHIST
280
     0
  9
$SHOWHIST
280
     1
  9
$DWFFRAME
280
     2
  9
$DGNFRAME
280
     0
  9
$REALWORLDSCALE
290
     1
  9
$INTERFERECOLOR
 62
     1
  9
$INTERFEREOBJVS
345
33
  9
$INTERFEREVPVS
346
30
  9
$CSHADOW
280
     0
  9
$SHADOWPLANELOCATION
 40
0.0
  0
ENDSEC
  0
SECTION
  2
CLASSES
  0
CLASS
  1
ACDBDICTIONARYWDFLT
  2
AcDbDictionaryWithDefault
  3
ObjectDBX Classes
 90
        0
 91
        1
280
     0
281
     0
  0
CLASS
  1
MATERIAL
  2
AcDbMaterial
  3
ObjectDBX Classes
 90
     1153
 91
        3
280
     0
281
     0
  0
CLASS
  1
VISUALSTYLE
  2
AcDbVisualStyle
  3
ObjectDBX Classes
 90
     4095
 91
       24
280
     0
281
     0
  0
CLASS
  1
SCALE
  2
AcDbScale
  3
ObjectDBX Classes
 90
     1153
 91
       17
280
     0
281
     0
  0
CLASS
  1
TABLESTYLE
  2
AcDbTableStyle
  3
ObjectDBX Classes
 90
     4095
 91
        1
280
     0
281
     0
  0
CLASS
  1
MLEADERSTYLE
  2
AcDbMLeaderStyle
  3
ACDB_MLEADERSTYLE_CLASS
 90
     4095
 91
        1
280
     0
281
     0
  0
CLASS
  1
ACDBSECTIONVIEWSTYLE
  2
AcDbSectionViewStyle
  3
ObjectDBX Classes
 90
     1025
 91
        1
280
     0
281
     0
  0
CLASS
  1
ACDBDETAILVIEWSTYLE
  2
AcDbDetailViewStyle
  3
ObjectDBX Classes
 90
     1025
 91
        1
280
     0
281
     0
  0
CLASS
  1
DICTIONARYVAR
  2
AcDbDictionaryVar
  3
ObjectDBX Classes
 90
        0
 91
        5
280
     0
281
     0
  0
CLASS
  1
CELLSTYLEMAP
  2
AcDbCellStyleMap
  3
ObjectDBX Classes
 90
     1152
 91
        1
280
     0
281
     0
  0
ENDSEC
  0
SECTION
  2
TABLES
  0
TABLE
  2
VPORT
  5
8
330
0
100
AcDbSymbolTable
 70
     1
  0
VPORT
  5
57
330
8
100
AcDbSymbolTableRecord
100
AcDbViewportTableRecord
  2
*Active
 70
     0
 10
0.0
 20
0.0
 11
1.0
 21
1.0
 12
0.0
 22
0.0
 13
0.0
 23
0.0
 14
1.0
 24
1.0
 15
0.0
 25
0.0
 16
0.0
 26
0.0
 36
1.0
 17
338.666666582
 27
190.4999999523745
 37
0.0
 40
388.8749999028462
 41
1.776612021857627
 42
50.0
 43
0.0
 44
0.0
 50
0.0
 51
0.0
 71
     0
 72
   100
 73
     1
 74
     1
 75
     0
 76
     0
 77
     0
 78
     0
281
     0
 65
     1
110
0.0
120
0.0
130
0.0
111
1.0
121
0.0
131
0.0
112
0.0
122
1.0
132
0.0
 79
     0
146
0.0
 60
     3
 61
     5
292
     1
282
     1
141
0.0
142
0.0
 63
   250
421
  3355443
  0
ENDTAB
  0
TABLE
  2
LTYPE
  5
5
330
0
100
AcDbSymbolTable
 70
     1
  0
LTYPE
  5
5B
330
5
100
AcDbSymbolTableRecord
100
AcDbLinetypeTableRecord
  2
ByBlock
 70
     0
  3

 72
    65
 73
     0
 40
0.0
  0
LTYPE
  5
5C
330
5
100
AcDbSymbolTableRecord
100
AcDbLinetypeTableRecord
  2
ByLayer
 70
     0
  3

 72
    65
 73
     0
 40
0.0
  0
LTYPE
  5
5D
330
5
100
AcDbSymbolTableRecord
100
AcDbLinetypeTableRecord
  2
Continuous
 70
     0
  3
Solid line
 72
    65
 73
     0
 40
0.0
  0
ENDTAB
  0
TABLE
  2
LAYER
  5
2
330
0
100
AcDbSymbolTable
 70
     4
  0
LAYER
  5
54
330
2
100
AcDbSymbolTableRecord
100
AcDbLayerTableRecord
  2
0
 70
     0
 62
     7
  6
Continuous
370
    -3
390
F
347
21
348
0
  0
LAYER
  5
78
330
2
100
AcDbSymbolTableRecord
100
AcDbLayerTableRecord
  2
FLAME
 70
     0
 62
     7
  6
Continuous
370
     0
390
F
347
21
348
0
  0
LAYER
  5
80
330
2
100
AcDbSymbolTableRecord
100
AcDbLayerTableRecord
  2
SPEC
 70
     0
 62
     7
  6
Continuous
370
     0
390
F
347
21
348
0
  0
LAYER
  5
83
330
2
100
AcDbSymbolTableRecord
100
AcDbLayerTableRecord
  2
HONTAI
 70
     0
 62
     7
  6
Continuous
370
     0
390
F
347
21
348
0
  0
ENDTAB
  0
TABLE
  2
STYLE
  5
3
330
0
100
AcDbSymbolTable
 70
     2
  0
STYLE
  5
55
330
3
100
AcDbSymbolTableRecord
100
AcDbTextStyleTableRecord
  2
Standard
 70
     0
 40
0.0
 41
1.0
 50
0.0
 71
     0
 42
0.2
  3
txt
  4

  0
STYLE
  5
5A
330
3
100
AcDbSymbolTableRecord
100
AcDbTextStyleTableRecord
  2
Annotative
 70
     0
 40
0.0
 41
1.0
 50
0.0
 71
     0
 42
0.2
  3
txt
  4

1001
AcadAnnotative
1000
AnnotativeData
1002
{
1070
     1
1070
     1
1002
}
  0
ENDTAB
  0
TABLE
  2
VIEW
  5
6
330
0
100
AcDbSymbolTable
 70
     0
  0
ENDTAB
  0
TABLE
  2
UCS
  5
7
330
0
100
AcDbSymbolTable
 70
     0
  0
ENDTAB
  0
TABLE
  2
APPID
  5
9
330
0
100
AcDbSymbolTable
 70
     2
  0
APPID
  5
56
330
9
100
AcDbSymbolTableRecord
100
AcDbRegAppTableRecord
  2
ACAD
 70
     0
  0
APPID
  5
5E
330
9
100
AcDbSymbolTableRecord
100
AcDbRegAppTableRecord
  2
AcadAnnotative
 70
     0
  0
ENDTAB
  0
TABLE
  2
DIMSTYLE
  5
A
330
0
100
AcDbSymbolTable
 70
     2
100
AcDbDimStyleTable
 71
     0
  0
DIMSTYLE
105
58
330
A
100
AcDbSymbolTableRecord
100
AcDbDimStyleTableRecord
  2
Standard
 70
     0
340
55
  0
DIMSTYLE
105
59
330
A
100
AcDbSymbolTableRecord
100
AcDbDimStyleTableRecord
  2
Annotative
 70
     0
340
55
1001
AcadAnnotative
1000
AnnotativeData
1002
{
1070
     1
1070
     1
1002
}
  0
ENDTAB
  0
TABLE
  2
BLOCK_RECORD
  5
1
330
0
100
AcDbSymbolTable
 70
     1
  0
BLOCK_RECORD
  5
70
330
1
100
AcDbSymbolTableRecord
100
AcDbBlockTableRecord
  2
*Model_Space
340
73
 70
     0
280
     1
281
     0
  0
BLOCK_RECORD
  5
6C
330
1
100
AcDbSymbolTableRecord
100
AcDbBlockTableRecord
  2
*Paper_Space
340
6F
 70
     0
280
     1
281
     0
  0
BLOCK_RECORD
  5
74
330
1
100
AcDbSymbolTableRecord
100
AcDbBlockTableRecord
  2
*Paper_Space0
340
77
 70
     0
280
     1
281
     0
  0
ENDTAB
  0
ENDSEC
  0
SECTION
  2
BLOCKS
  0
BLOCK
  5
71
330
70
100
AcDbEntity
  8
0
100
AcDbBlockBegin
  2
*Model_Space
 70
     0
 10
0.0
 20
0.0
 30
0.0
  3
*Model_Space
  1

  0
ENDBLK
  5
72
330
70
100
AcDbEntity
  8
0
100
AcDbBlockEnd
  0
BLOCK
  5
6D
330
6C
100
AcDbEntity
 67
     1
  8
0
100
AcDbBlockBegin
  2
*Paper_Space
 70
     0
 10
0.0
 20
0.0
 30
0.0
  3
*Paper_Space
  1

  0
ENDBLK
  5
6E
330
6C
100
AcDbEntity
 67
     1
  8
0
100
AcDbBlockEnd
  0
BLOCK
  5
75
330
74
100
AcDbEntity
 67
     1
  8
0
100
AcDbBlockBegin
  2
*Paper_Space0
 70
     0
 10
0.0
 20
0.0
 30
0.0
  3
*Paper_Space0
  1

  0
ENDBLK
  5
76
330
74
100
AcDbEntity
 67
     1
  8
0
100
AcDbBlockEnd
  0
ENDSEC
  0
SECTION
  2
ENTITIES
  0
LINE
  5
79
330
70
100
AcDbEntity
  8
FLAME
 62
     2
420
 16776960
370
    25
100
AcDbLine
 10
501.9523808268923
 20
380.9999999047501
 30
0.0
 11
501.9523808268923
 21
-0.0000000000012834
 31
0.0
  0
LINE
  5
7A
330
70
100
AcDbEntity
  8
FLAME
 62
     2
420
 16776960
370
    25
100
AcDbLine
 10
175.3809523371064
 20
-0.0000000000012834
 30
0.0
 11
175.3809523371064
 21
380.9999999047501
 31
0.0
  0
LINE
  5
7B
330
70
100
AcDbEntity
  8
FLAME
 62
     2
420
 16776960
370
    25
100
AcDbLine
 10
501.9523808268923
 20
-0.0000000000012834
 30
0.0
 11
175.3809523371064
 21
-0.0000000000012834
 31
0.0
  0
LINE
  5
7C
330
70
100
AcDbEntity
  8
FLAME
 62
     2
420
 16776960
370
    25
100
AcDbLine
 10
501.9523808268923
 20
18.14285713832051
 30
0.0
 11
175.3809523371064
 21
18.14285713832051
 31
0.0
  0
LINE
  5
7D
330
70
100
AcDbEntity
  8
FLAME
 62
     2
420
 16776960
370
    25
100
AcDbLine
 10
501.9523808268923
 20
36.28571427664231
 30
0.0
 11
175.3809523371064
 21
36.28571427664231
 31
0.0
  0
LINE
  5
7E
330
70
100
AcDbEntity
  8
FLAME
 62
     2
420
 16776960
370
    25
100
AcDbLine
 10
501.9523808268923
 20
54.42857141496411
 30
0.0
 11
175.3809523371064
 21
54.42857141496411
 31
0.0
  0
LINE
  5
7F
330
70
100
AcDbEntity
  8
FLAME
 62
     2
420
 16776960
370
    25
100
AcDbLine
 10
501.9523808268923
 20
380.9999999047501
 30
0.0
 11
175.3809523371064
 21
380.9999999047501
 31
0.0
  0
MTEXT
  5
81
330
70
100
AcDbEntity
  8
SPEC
100
AcDbMText
 10
186.2666666201
 20
21.77142895048298
 30
0.0
 40
0.2
 41
0.0
 46
0.0
 71
     7
 72
     1
  1
\C9;\c12632256;\FKozuka Gothic Pr6N R|b0|i0|c128;\H7.992533;\W1.000000;E17 LED電球（60W相当 電球色 全方向/広配光タイプ）ｘ2灯
 73
     1
 44
1.0
  0
MTEXT
  5
82
330
70
100
AcDbEntity
  8
SPEC
100
AcDbMText
 10
186.3231661860581
 20
41.30775531159961
 30
0.0
 40
0.2
 41
0.0
 46
0.0
 71
     7
 72
     1
  1
\C9;\c12632256;\FKozuka Gothic Pr6N R|b0|i0|c128;\H9.071429;\W1.000000;KC2665
 73
     1
 44
1.0
  0
ELLIPSE
  5
84
330
70
100
AcDbEntity
  8
HONTAI
 62
     2
420
 16776960
370
    25
100
AcDbEllipse
 10
341.4109948785361
 20
157.7018315146778
 30
0.0
 11
17.17695415182801
 21
0.1143497434819103
 31
0.0
210
0.0
220
0.0
230
1.0
 40
0.6880241004214917
 41
0.0
 42
6.283185307179586
  0
LINE
  5
85
330
70
100
AcDbEntity
  8
HONTAI
 62
     2
420
 16776960
370
    25
100
AcDbLine
 10
345.2849793905638
 20
267.8801772822874
 30
0.0
 11
341.9221623039303
 21
271.1247807864085
 31
0.0
  0
LINE
  5
86
330
70
100
AcDbEntity
  8
HONTAI
 62
     2
420
 16776960
370
    25
100
AcDbLine
 10
341.9221623039303
 20
271.1247807864085
 30
0.0
 11
341.3596815754337
 21
169.520157101867
 31
0.0
  0
LINE
  5
87
330
70
100
AcDbEntity
  8
HONTAI
 62
     2
420
 16776960
370
    25
100
AcDbLine
 10
341.9221623039303
 20
271.1247807864085
 30
0.0
 11
342.0146607107822
 21
276.0367571113254
 31
0.0
  0
LINE
  5
88
330
70
100
AcDbEntity
  8
HONTAI
 62
     2
420
 16776960
370
    25
100
AcDbLine
 10
342.0146607107822
 20
276.0367571113254
 30
0.0
 11
345.762210918736
 21
280.7908009223548
 31
0.0
  0
LINE
  5
89
330
70
100
AcDbEntity
  8
HONTAI
 62
     2
420
 16776960
370
    25
100
AcDbLine
 10
345.762210918736
 20
280.7908009223548
 30
0.0
 11
345.9459946385893
 21
284.3014150876809
 31
0.0
  0
LINE
  5
8A
330
70
100
AcDbEntity
  8
HONTAI
 62
     2
420
 16776960
370
    25
100
AcDbLine
 10
345.9459946385893
 20
284.3014150876809
 30
0.0
 11
341.7702222979072
 21
279.4200347480341
 31
0.0
  0
LINE
  5
8B
330
70
100
AcDbEntity
  8
HONTAI
 62
     2
420
 16776960
370
    25
100
AcDbLine
 10
345.762210918736
 20
280.7908009223548
 30
0.0
 11
350.6779705142215
 21
275.860114822305
 31
0.0
  0
LINE
  5
8C
330
70
100
AcDbEntity
  8
HONTAI
 62
     2
420
 16776960
370
    25
100
AcDbLine
 10
341.7311000209491
 20
133.6036411066185
 30
0.0
 11
336.7789476096523
 21
129.8898607945747
 31
0.0
  0
LINE
  5
8D
330
70
100
AcDbEntity
  8
HONTAI
 62
     2
420
 16776960
370
    25
100
AcDbLine
 10
336.7789476096523
 20
129.8898607945747
 30
0.0
 11
334.1234851494261
 21
134.1931090817216
 31
0.0
  0
LINE
  5
8E
330
70
100
AcDbEntity
  8
HONTAI
 62
     2
420
 16776960
370
    25
100
AcDbLine
 10
334.1234851494261
 20
134.1931090817216
 30
0.0
 11
328.9601839647902
 21
131.0069223800164
 31
0.0
  0
LINE
  5
8F
330
70
100
AcDbEntity
  8
HONTAI
 62
     2
420
 16776960
370
    25
100
AcDbLine
 10
310.343206205704
 20
135.2541734483846
 30
0.0
 11
310.343206205704
 21
140.3826328776623
 31
0.0
  0
LINE
  5
90
330
70
100
AcDbEntity
  8
HONTAI
 62
     2
420
 16776960
370
    25
100
AcDbLine
 10
310.343206205704
 20
140.3826328776623
 30
0.0
 11
304.7966378028933
 21
137.0225773736452
 31
0.0
  0
LINE
  5
91
330
70
100
AcDbEntity
  8
HONTAI
 62
     2
420
 16776960
370
    25
100
AcDbLine
 10
304.7966378028933
 20
137.0225773736452
 30
0.0
 11
304.7966378028933
 21
142.2298379736113
 31
0.0
  0
LINE
  5
92
330
70
100
AcDbEntity
  8
HONTAI
 62
     2
420
 16776960
370
    25
100
AcDbLine
 10
304.7966378028933
 20
142.2298379736113
 30
0.0
 11
300.4501225014021
 21
138.9287732900996
 31
0.0
  0
LINE
  5
93
330
70
100
AcDbEntity
  8
HONTAI
 62
     2
420
 16776960
370
    25
100
AcDbLine
 10
300.4501225014021
 20
138.9287732900996
 30
0.0
 11
298.7390536114146
 21
142.7604251856854
 31
0.0
  0
LINE
  5
94
330
70
100
AcDbEntity
  8
HONTAI
 62
     2
420
 16776960
370
    25
100
AcDbLine
 10
298.7390536114146
 20
142.7604251856854
 30
0.0
 11
293.6854917618811
 21
140.5036981394834
 31
0.0
  0
LINE
  5
95
330
70
100
AcDbEntity
  8
HONTAI
 62
     2
420
 16776960
370
    25
100
AcDbLine
 10
293.6854917618811
 20
140.5036981394834
 30
0.0
 11
292.5431767198564
 21
145.825636644638
 31
0.0
  0
LINE
  5
96
330
70
100
AcDbEntity
  8
HONTAI
 62
     2
420
 16776960
370
    25
100
AcDbLine
 10
292.5431767198564
 20
145.825636644638
 30
0.0
 11
286.8783316656464
 21
142.9372875897058
 31
0.0
  0
LINE
  5
97
330
70
100
AcDbEntity
  8
HONTAI
 62
     2
420
 16776960
370
    25
100
AcDbLine
 10
286.8783316656464
 20
142.9372875897058
 30
0.0
 11
287.5864752066207
 21
147.8888846149631
 31
0.0
  0
LINE
  5
98
330
70
100
AcDbEntity
  8
HONTAI
 62
     2
420
 16776960
370
    25
100
AcDbLine
 10
287.5864752066207
 20
147.8888846149631
 30
0.0
 11
282.5118003154764
 21
145.5309026570973
 31
0.0
  0
LINE
  5
99
330
70
100
AcDbEntity
  8
HONTAI
 62
     2
420
 16776960
370
    25
100
AcDbLine
 10
282.5118003154764
 20
145.5309026570973
 30
0.0
 11
282.5118003154764
 21
150.1878757523171
 31
0.0
  0
LINE
  5
9A
330
70
100
AcDbEntity
  8
HONTAI
 62
     2
420
 16776960
370
    25
100
AcDbLine
 10
282.5118003154764
 20
150.1878757523171
 30
0.0
 11
277.6142371279186
 21
148.3014901860189
 31
0.0
  0
LINE
  5
9B
330
70
100
AcDbEntity
  8
HONTAI
 62
     2
420
 16776960
370
    25
100
AcDbLine
 10
277.6142371279186
 20
148.3014901860189
 30
0.0
 11
277.6142371279186
 21
152.8994724607257
 31
0.0
  0
LINE
  5
9C
330
70
100
AcDbEntity
  8
HONTAI
 62
     2
420
 16776960
370
    25
100
AcDbLine
 10
277.6142371279186
 20
152.8994724607257
 30
0.0
 11
271.7722803701221
 21
151.3078208819886
 31
0.0
  0
LINE
  5
9D
330
70
100
AcDbEntity
  8
HONTAI
 62
     2
420
 16776960
370
    25
100
AcDbLine
 10
271.7722803701221
 20
151.3078208819886
 30
0.0
 11
273.1294291263479
 21
155.4931975856204
 31
0.0
  0
LINE
  5
9E
330
70
100
AcDbEntity
  8
HONTAI
 62
     2
420
 16776960
370
    25
100
AcDbLine
 10
273.1294291263479
 20
155.4931975856204
 30
0.0
 11
266.5796321010295
 21
154.6088855654746
 31
0.0
  0
LINE
  5
9F
330
70
100
AcDbEntity
  8
HONTAI
 62
     2
420
 16776960
370
    25
100
AcDbLine
 10
266.5796321010295
 20
154.6088855654746
 30
0.0
 11
268.9275752676659
 21
158.6494265978697
 31
0.0
  0
LINE
  5
A0
330
70
100
AcDbEntity
  8
HONTAI
 62
     2
420
 16776960
370
    25
100
AcDbLine
 10
268.9275752676659
 20
158.6494265978697
 30
0.0
 11
262.495751620297
 21
158.6494265978697
 31
0.0
  0
LINE
  5
A1
330
70
100
AcDbEntity
  8
HONTAI
 62
     2
420
 16776960
370
    25
100
AcDbLine
 10
262.495751620297
 20
158.6494265978697
 30
0.0
 11
265.2688841849768
 21
162.480968435951
 31
0.0
  0
LINE
  5
A2
330
70
100
AcDbEntity
  8
HONTAI
 62
     2
420
 16776960
370
    25
100
AcDbLine
 10
265.2688841849768
 20
162.480968435951
 30
0.0
 11
258.3060287002175
 21
161.8326196978394
 31
0.0
  0
LINE
  5
A3
330
70
100
AcDbEntity
  8
HONTAI
 62
     2
420
 16776960
370
    25
100
AcDbLine
 10
258.3060287002175
 20
161.8326196978394
 30
0.0
 11
261.3154112942027
 21
165.5462899524068
 31
0.0
  0
LINE
  5
A4
330
70
100
AcDbEntity
  8
HONTAI
 62
     2
420
 16776960
370
    25
100
AcDbLine
 10
261.3154112942027
 20
165.5462899524068
 30
0.0
 11
254.4116941351663
 21
165.5462899524068
 31
0.0
  0
LINE
  5
A5
330
70
100
AcDbEntity
  8
HONTAI
 62
     2
420
 16776960
370
    25
100
AcDbLine
 10
254.4116941351663
 20
165.5462899524068
 30
0.0
 11
257.5978851592869
 21
169.3189510274809
 31
0.0
  0
LINE
  5
A6
330
70
100
AcDbEntity
  8
HONTAI
 62
     2
420
 16776960
370
    25
100
AcDbLine
 10
257.5978851592869
 20
169.3189510274809
 30
0.0
 11
250.8121413781564
 21
169.3189510274809
 31
0.0
  0
LINE
  5
A7
330
70
100
AcDbEntity
  8
HONTAI
 62
     2
420
 16776960
370
    25
100
AcDbLine
 10
250.8121413781564
 20
169.3189510274809
 30
0.0
 11
254.2934174837669
 21
173.2684745065805
 31
0.0
  0
LINE
  5
A8
330
70
100
AcDbEntity
  8
HONTAI
 62
     2
420
 16776960
370
    25
100
AcDbLine
 10
254.2934174837669
 20
173.2684745065805
 30
0.0
 11
247.3897003247291
 21
173.7990617186533
 31
0.0
  0
LINE
  5
A9
330
70
100
AcDbEntity
  8
HONTAI
 62
     2
420
 16776960
370
    25
100
AcDbLine
 10
247.3897003247291
 20
173.7990617186533
 30
0.0
 11
252.1692901343822
 21
177.8074659607551
 31
0.0
  0
LINE
  5
AA
330
70
100
AcDbEntity
  8
HONTAI
 62
     2
420
 16776960
370
    25
100
AcDbLine
 10
252.1692901343822
 20
177.8074659607551
 30
0.0
 11
244.8522112424103
 21
178.8096495644159
 31
0.0
  0
LINE
  5
AB
330
70
100
AcDbEntity
  8
HONTAI
 62
     2
420
 16776960
370
    25
100
AcDbLine
 10
244.8522112424103
 20
178.8096495644159
 30
0.0
 11
250.0336383932946
 21
181.8325989430087
 31
0.0
  0
LINE
  5
AC
330
70
100
AcDbEntity
  8
HONTAI
 62
     2
420
 16776960
370
    25
100
AcDbLine
 10
250.0336383932946
 20
181.8325989430087
 30
0.0
 11
242.8345328792735
 21
183.7189845093069
 31
0.0
  0
LINE
  5
AD
330
70
100
AcDbEntity
  8
HONTAI
 62
     2
420
 16776960
370
    25
100
AcDbLine
 10
242.8345328792735
 20
183.7189845093069
 30
0.0
 11
247.7912343925092
 21
186.4305812177168
 31
0.0
  0
LINE
  5
AE
330
70
100
AcDbEntity
  8
HONTAI
 62
     2
420
 16776960
370
    25
100
AcDbLine
 10
247.7912343925092
 20
186.4305812177168
 30
0.0
 11
242.067554286071
 21
188.0221227389506
 31
0.0
  0
LINE
  5
AF
330
70
100
AcDbEntity
  8
HONTAI
 62
     2
420
 16776960
370
    25
100
AcDbLine
 10
242.067554286071
 20
188.0221227389506
 30
0.0
 11
247.3193408808429
 21
191.0284534349011
 31
0.0
  0
LINE
  5
B0
330
70
100
AcDbEntity
  8
HONTAI
 62
     2
420
 16776960
370
    25
100
AcDbLine
 10
247.3193408808429
 20
191.0284534349011
 30
0.0
 11
239.8864115252518
 21
192.7107923944304
 31
0.0
  0
LINE
  5
B1
330
70
100
AcDbEntity
  8
HONTAI
 62
     2
420
 16776960
370
    25
100
AcDbLine
 10
239.8864115252518
 20
192.7107923944304
 30
0.0
 11
245.6692299573691
 21
196.1887194819625
 31
0.0
  0
LINE
  5
B2
330
70
100
AcDbEntity
  8
HONTAI
 62
     2
420
 16776960
370
    25
100
AcDbLine
 10
245.6692299573691
 20
196.1887194819625
 30
0.0
 11
239.5913264437183
 21
198.1339858112488
 31
0.0
  0
LINE
  5
B3
330
70
100
AcDbEntity
  8
HONTAI
 62
     2
420
 16776960
370
    25
100
AcDbLine
 10
239.5913264437183
 20
198.1339858112488
 30
0.0
 11
245.4921182537416
 21
200.9634541031737
 31
0.0
  0
LINE
  5
B4
330
70
100
AcDbEntity
  8
HONTAI
 62
     2
420
 16776960
370
    25
100
AcDbLine
 10
245.4921182537416
 20
200.9634541031737
 30
0.0
 11
239.7096030950753
 21
202.4961148614042
 31
0.0
  0
LINE
  5
B5
330
70
100
AcDbEntity
  8
HONTAI
 62
     2
420
 16776960
370
    25
100
AcDbLine
 10
239.7096030950753
 20
202.4961148614042
 30
0.0
 11
245.0790597943008
 21
205.207711569814
 31
0.0
  0
LINE
  5
B6
330
70
100
AcDbEntity
  8
HONTAI
 62
     2
420
 16776960
370
    25
100
AcDbLine
 10
245.0790597943008
 20
205.207711569814
 30
0.0
 11
239.0014595541447
 21
207.2709595401314
 31
0.0
  0
LINE
  5
B7
330
70
100
AcDbEntity
  8
HONTAI
 62
     2
420
 16776960
370
    25
100
AcDbLine
 10
239.0014595541447
 20
207.2709595401314
 30
0.0
 11
245.4362192118486
 21
209.9326470857309
 31
0.0
  0
LINE
  5
B8
330
70
100
AcDbEntity
  8
HONTAI
 62
     2
420
 16776960
370
    25
100
AcDbLine
 10
245.4362192118486
 20
209.9326470857309
 30
0.0
 11
240.063523228837
 21
213.1067585280069
 31
0.0
  0
LINE
  5
B9
330
70
100
AcDbEntity
  8
HONTAI
 62
     2
420
 16776960
370
    25
100
AcDbLine
 10
240.063523228837
 20
213.1067585280069
 30
0.0
 11
247.2034904171802
 21
215.019888067028
 31
0.0
  0
LINE
  5
BA
330
70
100
AcDbEntity
  8
HONTAI
 62
     2
420
 16776960
370
    25
100
AcDbLine
 10
247.2034904171802
 20
215.019888067028
 30
0.0
 11
241.1844219557574
 21
218.6156867380804
 31
0.0
  0
LINE
  5
BB
330
70
100
AcDbEntity
  8
HONTAI
 62
     2
420
 16776960
370
    25
100
AcDbLine
 10
241.1844219557574
 20
218.6156867380804
 30
0.0
 11
248.6194742256341
 21
220.3252099003325
 31
0.0
  0
LINE
  5
BC
330
70
100
AcDbEntity
  8
HONTAI
 62
     2
420
 16776960
370
    25
100
AcDbLine
 10
248.6194742256341
 20
220.3252099003325
 30
0.0
 11
243.7810493637541
 21
223.6262745838442
 31
0.0
  0
LINE
  5
BD
330
70
100
AcDbEntity
  8
HONTAI
 62
     2
420
 16776960
370
    25
100
AcDbLine
 10
243.7810493637541
 20
223.6262745838442
 30
0.0
 11
251.6288568196206
 21
225.2768069255898
 31
0.0
  0
LINE
  5
BE
330
70
100
AcDbEntity
  8
HONTAI
 62
     2
420
 16776960
370
    25
100
AcDbLine
 10
251.6288568196206
 20
225.2768069255898
 30
0.0
 11
247.3272259909165
 21
228.9580102173684
 31
0.0
  0
LINE
  5
BF
330
70
100
AcDbEntity
  8
HONTAI
 62
     2
420
 16776960
370
    25
100
AcDbLine
 10
247.3272259909165
 20
228.9580102173684
 30
0.0
 11
253.3462944523392
 21
229.4884873719392
 31
0.0
  0
LINE
  5
C0
330
70
100
AcDbEntity
  8
HONTAI
 62
     2
420
 16776960
370
    25
100
AcDbLine
 10
253.3462944523392
 20
229.4884873719392
 30
0.0
 11
249.9238533989132
 21
234.2633320506729
 31
0.0
  0
LINE
  5
C1
330
70
100
AcDbEntity
  8
HONTAI
 62
     2
420
 16776960
370
    25
100
AcDbLine
 10
249.9238533989132
 20
234.2633320506729
 30
0.0
 11
257.8307991804588
 21
235.5011487638595
 31
0.0
  0
LINE
  5
C2
330
70
100
AcDbEntity
  8
HONTAI
 62
     2
420
 16776960
370
    25
100
AcDbLine
 10
257.8307991804588
 20
235.5011487638595
 30
0.0
 11
254.3492198013537
 21
239.9222686345215
 31
0.0
  0
LINE
  5
C3
330
70
100
AcDbEntity
  8
HONTAI
 62
     2
420
 16776960
370
    25
100
AcDbLine
 10
254.3492198013537
 20
239.9222686345215
 30
0.0
 11
262.7875006936946
 21
240.5117366096234
 31
0.0
  0
LINE
  5
C4
330
70
100
AcDbEntity
  8
HONTAI
 62
     2
420
 16776960
370
    25
100
AcDbLine
 10
262.7875006936946
 20
240.5117366096234
 30
0.0
 11
258.9520011808714
 21
244.7559940762637
 31
0.0
  0
LINE
  5
C5
330
70
100
AcDbEntity
  8
HONTAI
 62
     2
420
 16776960
370
    25
100
AcDbLine
 10
258.9520011808714
 20
244.7559940762637
 30
0.0
 11
267.2720054218129
 21
244.7559940762637
 31
0.0
  0
LINE
  5
C6
330
70
100
AcDbEntity
  8
HONTAI
 62
     2
420
 16776960
370
    25
100
AcDbLine
 10
267.2720054218129
 20
244.7559940762637
 30
0.0
 11
264.2140990734124
 21
249.6104103281825
 31
0.0
  0
LINE
  5
C7
330
70
100
AcDbEntity
  8
HONTAI
 62
     2
420
 16776960
370
    25
100
AcDbLine
 10
264.2140990734124
 20
249.6104103281825
 30
0.0
 11
273.006300099515
 21
248.9620615900709
 31
0.0
  0
LINE
  5
C8
330
70
100
AcDbEntity
  8
HONTAI
 62
     2
420
 16776960
370
    25
100
AcDbLine
 10
273.006300099515
 20
248.9620615900709
 30
0.0
 11
270.527949342874
 21
253.7957870318143
 31
0.0
  0
LINE
  5
C9
330
70
100
AcDbEntity
  8
HONTAI
 62
     2
420
 16776960
370
    25
100
AcDbLine
 10
270.527949342874
 20
253.7957870318143
 30
0.0
 11
278.6120068280048
 21
252.3809978570964
 31
0.0
  0
LINE
  5
CA
330
70
100
AcDbEntity
  8
HONTAI
 62
     2
420
 16776960
370
    25
100
AcDbLine
 10
278.6120068280048
 20
252.3809978570964
 30
0.0
 11
277.845028234846
 21
257.7453105109062
 31
0.0
  0
LINE
  5
CB
330
70
100
AcDbEntity
  8
HONTAI
 62
     2
420
 16776960
370
    25
100
AcDbLine
 10
277.845028234846
 20
257.7453105109062
 30
0.0
 11
285.8111123420682
 21
255.9767965281295
 31
0.0
  0
LINE
  5
CC
330
70
100
AcDbEntity
  8
HONTAI
 62
     2
420
 16776960
370
    25
100
AcDbLine
 10
285.8111123420682
 20
255.9767965281295
 30
0.0
 11
285.8111123420682
 21
260.8246093299783
 31
0.0
  0
LINE
  5
CD
330
70
100
AcDbEntity
  8
HONTAI
 62
     2
420
 16776960
370
    25
100
AcDbLine
 10
285.8111123420682
 20
260.8246093299783
 30
0.0
 11
293.9652259976341
 21
258.9972145842123
 31
0.0
  0
LINE
  5
CE
330
70
100
AcDbEntity
  8
HONTAI
 62
     2
420
 16776960
370
    25
100
AcDbLine
 10
293.9652259976341
 20
258.9972145842123
 30
0.0
 11
292.8440239972203
 21
263.3003528138547
 31
0.0
  0
LINE
  5
CF
330
70
100
AcDbEntity
  8
HONTAI
 62
     2
420
 16776960
370
    25
100
AcDbLine
 10
292.8440239972203
 20
263.3003528138547
 30
0.0
 11
300.0428262377903
 21
262.0035452801628
 31
0.0
  0
LINE
  5
D0
330
70
100
AcDbEntity
  8
HONTAI
 62
     2
420
 16776960
370
    25
100
AcDbLine
 10
300.0428262377903
 20
262.0035452801628
 30
0.0
 11
299.452959348218
 21
266.4835459138526
 31
0.0
  0
LINE
  5
D1
330
70
100
AcDbEntity
  8
HONTAI
 62
     2
420
 16776960
370
    25
100
AcDbLine
 10
299.452959348218
 20
266.4835459138526
 30
0.0
 11
307.5370168333462
 21
264.0666831929847
 31
0.0
  0
LINE
  5
D2
330
70
100
AcDbEntity
  8
HONTAI
 62
     2
420
 16776960
370
    25
100
AcDbLine
 10
307.5370168333462
 20
264.0666831929847
 30
0.0
 11
307.5370168333462
 21
267.9572158515713
 31
0.0
  0
LINE
  5
D3
330
70
100
AcDbEntity
  8
HONTAI
 62
     2
420
 16776960
370
    25
100
AcDbLine
 10
307.5370168333462
 20
267.9572158515713
 30
0.0
 11
314.9720691031818
 21
265.186738380153
 31
0.0
  0
LINE
  5
D4
330
70
100
AcDbEntity
  8
HONTAI
 62
     2
420
 16776960
370
    25
100
AcDbLine
 10
314.9720691031818
 20
265.186738380153
 30
0.0
 11
314.9720691031818
 21
269.5488674303084
 31
0.0
  0
LINE
  5
D5
330
70
100
AcDbEntity
  8
HONTAI
 62
     2
420
 16776960
370
    25
100
AcDbLine
 10
314.9720691031818
 20
269.5488674303084
 30
0.0
 11
323.0239796010301
 21
266.6729548729872
 31
0.0
  0
LINE
  5
D6
330
70
100
AcDbEntity
  8
HONTAI
 62
     2
420
 16776960
370
    25
100
AcDbLine
 10
323.0239796010301
 20
266.6729548729872
 30
0.0
 11
324.5633720764416
 21
270.9829087349378
 31
0.0
  0
LINE
  5
D7
330
70
100
AcDbEntity
  8
HONTAI
 62
     2
420
 16776960
370
    25
100
AcDbLine
 10
324.5633720764416
 20
270.9829087349378
 30
0.0
 11
330.3998935451865
 21
267.6751384766224
 31
0.0
  0
LINE
  5
D8
330
70
100
AcDbEntity
  8
HONTAI
 62
     2
420
 16776960
370
    25
100
AcDbLine
 10
330.3998935451865
 20
267.6751384766224
 30
0.0
 11
333.2321644355866
 21
271.2709371476684
 31
0.0
  0
LINE
  5
D9
330
70
100
AcDbEntity
  8
HONTAI
 62
     2
420
 16776960
370
    25
100
AcDbLine
 10
333.2321644355866
 20
271.2709371476684
 30
0.0
 11
337.5370103665084
 21
267.8801772822874
 31
0.0
  0
LINE
  5
DA
330
70
100
AcDbEntity
  8
HONTAI
 62
     2
420
 16776960
370
    25
100
AcDbLine
 10
333.2321644355866
 20
271.2709371476684
 30
0.0
 11
340.4117659391472
 21
169.5038788985375
 31
0.0
  0
LINE
  5
DB
330
70
100
AcDbEntity
  8
HONTAI
 62
     2
420
 16776960
370
    25
100
AcDbLine
 10
324.5633720764416
 20
270.9829087349378
 30
0.0
 11
339.5069009847553
 21
169.454228307064
 31
0.0
  0
LINE
  5
DC
330
70
100
AcDbEntity
  8
HONTAI
 62
     2
420
 16776960
370
    25
100
AcDbLine
 10
316.3526684945896
 20
263.7179325924074
 30
0.0
 11
338.6890624638299
 21
169.3806045024439
 31
0.0
  0
LINE
  5
DD
330
70
100
AcDbEntity
  8
HONTAI
 62
     2
420
 16776960
370
    25
100
AcDbLine
 10
309.1682864496254
 20
262.6834416313024
 30
0.0
 11
338.0521592234659
 21
169.3040136716099
 31
0.0
  0
LINE
  5
DE
330
70
100
AcDbEntity
  8
HONTAI
 62
     2
420
 16776960
370
    25
100
AcDbLine
 10
301.5886052857179
 20
261.0029389063994
 30
0.0
 11
337.3612018229338
 21
169.2014189004899
 31
0.0
  0
LINE
  5
DF
330
70
100
AcDbEntity
  8
HONTAI
 62
     2
420
 16776960
370
    25
100
AcDbLine
 10
295.2124656438921
 20
258.1996536748765
 30
0.0
 11
336.6012000398474
 21
169.064469705563
 31
0.0
  0
LINE
  5
E0
330
70
100
AcDbEntity
  8
HONTAI
 62
     2
420
 16776960
370
    25
100
AcDbLine
 10
288.4238653567404
 20
256.0171887477155
 30
0.0
 11
335.777915183291
 21
168.8865520163991
 31
0.0
  0
LINE
  5
E1
330
70
100
AcDbEntity
  8
HONTAI
 62
     2
420
 16776960
370
    25
100
AcDbLine
 10
281.8609981380354
 20
251.4831323935613
 30
0.0
 11
334.9638008111943
 21
168.6789239743098
 31
0.0
  0
LINE
  5
E2
330
70
100
AcDbEntity
  8
HONTAI
 62
     2
420
 16776960
370
    25
100
AcDbLine
 10
274.7074274997774
 20
248.1813935778068
 30
0.0
 11
334.085482380181
 21
168.4174254179958
 31
0.0
  0
LINE
  5
E3
330
70
100
AcDbEntity
  8
HONTAI
 62
     2
420
 16776960
370
    25
100
AcDbLine
 10
268.9794199426651
 20
243.9687478775105
 30
0.0
 11
333.0886966408585
 21
168.0697876583429
 31
0.0
  0
LINE
  5
E4
330
70
100
AcDbEntity
  8
HONTAI
 62
     2
420
 16776960
370
    25
100
AcDbLine
 10
258.9520011808714
 20
244.7559940762637
 30
0.0
 11
331.8673898600327
 21
167.5618308167812
 31
0.0
  0
LINE
  5
E5
330
70
100
AcDbEntity
  8
HONTAI
 62
     2
420
 16776960
370
    25
100
AcDbLine
 10
257.8307991804588
 20
235.5011487638595
 30
0.0
 11
330.7916982984892
 21
167.0284808394958
 31
0.0
  0
LINE
  5
E6
330
70
100
AcDbEntity
  8
HONTAI
 62
     2
420
 16776960
370
    25
100
AcDbLine
 10
253.3462944523392
 20
229.4884873719392
 30
0.0
 11
329.9425253862418
 21
166.5405655812139
 31
0.0
  0
LINE
  5
E7
330
70
100
AcDbEntity
  8
HONTAI
 62
     2
420
 16776960
370
    25
100
AcDbLine
 10
251.6288568196206
 20
225.2768069255898
 30
0.0
 11
329.0576695864619
 21
165.9570445594152
 31
0.0
  0
LINE
  5
E8
330
70
100
AcDbEntity
  8
HONTAI
 62
     2
420
 16776960
370
    25
100
AcDbLine
 10
248.6194742256341
 20
220.3252099003325
 30
0.0
 11
328.4849160767281
 21
165.5305335761874
 31
0.0
  0
LINE
  5
E9
330
70
100
AcDbEntity
  8
HONTAI
 62
     2
420
 16776960
370
    25
100
AcDbLine
 10
247.2034904171802
 20
215.019888067028
 30
0.0
 11
327.7313182333726
 21
164.8974761370397
 31
0.0
  0
LINE
  5
EA
330
70
100
AcDbEntity
  8
HONTAI
 62
     2
420
 16776960
370
    25
100
AcDbLine
 10
245.4362192118499
 20
209.9326470857232
 30
0.0
 11
327.0709647473405
 21
164.2582678102264
 31
0.0
  0
LINE
  5
EB
330
70
100
AcDbEntity
  8
HONTAI
 62
     2
420
 16776960
370
    25
100
AcDbLine
 10
246.983127333307
 20
203.2911281681189
 30
0.0
 11
326.5123921982647
 21
163.636124720328
 31
0.0
  0
LINE
  5
EC
330
70
100
AcDbEntity
  8
HONTAI
 62
     2
420
 16776960
370
    25
100
AcDbLine
 10
244.799663411955
 20
200.1617578618588
 30
0.0
 11
325.9713450112419
 21
162.9355421964206
 31
0.0
  0
LINE
  5
ED
330
70
100
AcDbEntity
  8
HONTAI
 62
     2
420
 16776960
370
    25
100
AcDbLine
 10
247.2829229298148
 20
194.8836501499648
 30
0.0
 11
325.3254826418079
 21
161.9042140358262
 31
0.0
  0
LINE
  5
EE
330
70
100
AcDbEntity
  8
HONTAI
 62
     2
420
 16776960
370
    25
100
AcDbLine
 10
249.131609911058
 20
189.2355968727523
 30
0.0
 11
324.8077780260111
 21
160.7895355166965
 31
0.0
  0
LINE
  5
EF
330
70
100
AcDbEntity
  8
HONTAI
 62
     2
420
 16776960
370
    25
100
AcDbLine
 10
251.6252175380348
 20
183.8431293703695
 30
0.0
 11
324.493415255275
 21
159.8079229708147
 31
0.0
  0
LINE
  5
F0
330
70
100
AcDbEntity
  8
HONTAI
 62
     2
420
 16776960
370
    25
100
AcDbLine
 10
254.1059944823701
 20
179.666557266808
 30
0.0
 11
324.2969512751872
 21
158.7738457528967
 31
0.0
  0
LINE
  5
F1
330
70
100
AcDbEntity
  8
HONTAI
 62
     2
420
 16776960
370
    25
100
AcDbLine
 10
255.9365531175624
 20
175.3464701820214
 30
0.0
 11
324.2363587703591
 21
157.9636010296304
 31
0.0
  0
LINE
  5
F2
330
70
100
AcDbEntity
  8
HONTAI
 62
     2
420
 16776960
370
    25
100
AcDbLine
 10
259.0572370732291
 20
171.15702135085
 30
0.0
 11
324.2524766176456
 21
157.2118990280927
 31
0.0
  0
LINE
  5
F3
330
70
100
AcDbEntity
  8
HONTAI
 62
     2
420
 16776960
370
    25
100
AcDbLine
 10
262.5567095867672
 20
168.4001910095499
 30
0.0
 11
324.3783573438364
 21
156.2318022379128
 31
0.0
  0
LINE
  5
F4
330
70
100
AcDbEntity
  8
HONTAI
 62
     2
420
 16776960
370
    25
100
AcDbLine
 10
266.1165335198745
 20
164.8947495467878
 30
0.0
 11
324.5625409976852
 21
155.4599670802488
 31
0.0
  0
LINE
  5
F5
330
70
100
AcDbEntity
  8
HONTAI
 62
     2
420
 16776960
370
    25
100
AcDbLine
 10
269.9963109586264
 20
161.5733242255962
 30
0.0
 11
324.8371887478566
 21
154.6551356139816
 31
0.0
  0
LINE
  5
F6
330
70
100
AcDbEntity
  8
HONTAI
 62
     2
420
 16776960
370
    25
100
AcDbLine
 10
325.6619999451074
 20
153.0389185684631
 30
0.0
 11
278.4536980792493
 21
155.2345624583761
 31
0.0
  0
LINE
  5
F7
330
70
100
AcDbEntity
  8
HONTAI
 62
     2
420
 16776960
370
    25
100
AcDbLine
 10
274.4168249855909
 20
158.188501125753
 30
0.0
 11
325.1430204988817
 21
153.9648373351171
 31
0.0
  0
LINE
  5
F8
330
70
100
AcDbEntity
  8
HONTAI
 62
     2
420
 16776960
370
    25
100
AcDbLine
 10
271.7722803701221
 20
151.3078208819886
 30
0.0
 11
326.1815742239757
 21
152.2889305376237
 31
0.0
  0
LINE
  5
F9
330
70
100
AcDbEntity
  8
HONTAI
 62
     2
420
 16776960
370
    25
100
AcDbLine
 10
277.6142371279186
 20
148.3014901860189
 30
0.0
 11
326.7002159708328
 21
151.651650048891
 31
0.0
  0
LINE
  5
FA
330
70
100
AcDbEntity
  8
HONTAI
 62
     2
420
 16776960
370
    25
100
AcDbLine
 10
287.5864752066207
 20
147.8888846149631
 30
0.0
 11
327.2562698413674
 21
151.055946667123
 31
0.0
  0
LINE
  5
FB
330
70
100
AcDbEntity
  8
HONTAI
 62
     2
420
 16776960
370
    25
100
AcDbLine
 10
292.5431767198564
 20
145.825636644638
 30
0.0
 11
327.9210675806051
 21
150.4327036311858
 31
0.0
  0
LINE
  5
FC
330
70
100
AcDbEntity
  8
HONTAI
 62
     2
420
 16776960
370
    25
100
AcDbLine
 10
298.7390536114146
 20
142.7604251856854
 30
0.0
 11
328.4903830337402
 21
149.9594452568646
 31
0.0
  0
LINE
  5
FD
330
70
100
AcDbEntity
  8
HONTAI
 62
     2
420
 16776960
370
    25
100
AcDbLine
 10
304.7966378028933
 20
142.2298379736113
 30
0.0
 11
329.1898370089959
 21
149.4396791799929
 31
0.0
  0
LINE
  5
FE
330
70
100
AcDbEntity
  8
HONTAI
 62
     2
420
 16776960
370
    25
100
AcDbLine
 10
310.343206205704
 20
140.3826328776623
 30
0.0
 11
330.2351026011069
 21
148.7660192548545
 31
0.0
  0
LINE
  5
FF
330
70
100
AcDbEntity
  8
HONTAI
 62
     2
420
 16776960
370
    25
100
AcDbLine
 10
315.3408496367362
 20
139.4653036072577
 30
0.0
 11
331.1008225256267
 21
148.2851385765571
 31
0.0
  0
LINE
  5
100
330
70
100
AcDbEntity
  8
HONTAI
 62
     2
420
 16776960
370
    25
100
AcDbLine
 10
316.1851629635018
 20
132.9551823110305
 30
0.0
 11
331.9648961662261
 21
147.8639046008638
 31
0.0
  0
LINE
  5
101
330
70
100
AcDbEntity
  8
HONTAI
 62
     2
420
 16776960
370
    25
100
AcDbLine
 10
322.3810398550573
 20
132.0119895278814
 30
0.0
 11
332.6257201048071
 21
147.5768012819592
 31
0.0
  0
LINE
  5
102
330
70
100
AcDbEntity
  8
HONTAI
 62
     2
420
 16776960
370
    25
100
AcDbLine
 10
328.9601839647902
 20
131.0069223800164
 30
0.0
 11
333.3071626694148
 21
147.252807577046
 31
0.0
  0
LINE
  5
103
330
70
100
AcDbEntity
  8
HONTAI
 62
     2
420
 16776960
370
    25
100
AcDbLine
 10
336.7789476096523
 20
129.8898607945747
 30
0.0
 11
338.2213245585942
 21
146.0776413234149
 31
0.0
  0
LINE
  5
104
330
70
100
AcDbEntity
  8
HONTAI
 62
     2
420
 16776960
370
    25
100
AcDbLine
 10
337.0597788383361
 20
280.7908009223548
 30
0.0
 11
336.8759951184828
 21
284.3014150876809
 31
0.0
  0
LINE
  5
105
330
70
100
AcDbEntity
  8
HONTAI
 62
     2
420
 16776960
370
    25
100
AcDbLine
 10
337.0597788383361
 20
280.7908009223548
 30
0.0
 11
332.1440192428521
 21
275.860114822305
 31
0.0
  0
LINE
  5
106
330
70
100
AcDbEntity
  8
HONTAI
 62
     2
420
 16776960
370
    25
100
AcDbLine
 10
332.1440192428521
 20
275.860114822305
 30
0.0
 11
333.2321644355866
 21
271.2709371476684
 31
0.0
  0
LINE
  5
107
330
70
100
AcDbEntity
  8
HONTAI
 62
     2
420
 16776960
370
    25
100
AcDbLine
 10
336.8759951184828
 20
284.3014150876809
 30
0.0
 11
333.1439118572238
 21
279.7106966080429
 31
0.0
  0
LINE
  5
108
330
70
100
AcDbEntity
  8
HONTAI
 62
     2
420
 16776960
370
    25
100
AcDbLine
 10
333.1439118572238
 20
279.7106966080429
 30
0.0
 11
328.4926178824782
 21
283.4920254922555
 31
0.0
  0
LINE
  5
109
330
70
100
AcDbEntity
  8
HONTAI
 62
     2
420
 16776960
370
    25
100
AcDbLine
 10
328.4926178824782
 20
283.4920254922555
 30
0.0
 11
328.0677205987396
 21
280.753271314532
 31
0.0
  0
LINE
  5
10A
330
70
100
AcDbEntity
  8
HONTAI
 62
     2
420
 16776960
370
    25
100
AcDbLine
 10
328.0677205987396
 20
280.753271314532
 30
0.0
 11
332.1440192428521
 21
275.860114822305
 31
0.0
  0
LINE
  5
10B
330
70
100
AcDbEntity
  8
HONTAI
 62
     2
420
 16776960
370
    25
100
AcDbLine
 10
324.5633720764416
 20
270.9829087349378
 30
0.0
 11
323.703615436264
 21
275.5877225074508
 31
0.0
  0
LINE
  5
10C
330
70
100
AcDbEntity
  8
HONTAI
 62
     2
420
 16776960
370
    25
100
AcDbLine
 10
323.703615436264
 20
275.5877225074508
 30
0.0
 11
328.0677205987396
 21
280.753271314532
 31
0.0
  0
LINE
  5
10D
330
70
100
AcDbEntity
  8
HONTAI
 62
     2
420
 16776960
370
    25
100
AcDbLine
 10
323.703615436264
 20
275.5877225074508
 30
0.0
 11
319.2442824057514
 21
280.1372794817329
 31
0.0
  0
LINE
  5
10E
330
70
100
AcDbEntity
  8
HONTAI
 62
     2
420
 16776960
370
    25
100
AcDbLine
 10
319.2442824057514
 20
280.1372794817329
 30
0.0
 11
320.8570906930579
 21
283.5019574007658
 31
0.0
  0
LINE
  5
10F
330
70
100
AcDbEntity
  8
HONTAI
 62
     2
420
 16776960
370
    25
100
AcDbLine
 10
320.8570906930579
 20
283.5019574007658
 30
0.0
 11
325.1265745343961
 21
280.0424099159044
 31
0.0
  0
LINE
  5
110
330
70
100
AcDbEntity
  8
HONTAI
 62
     2
420
 16776960
370
    25
100
AcDbLine
 10
325.1265745343961
 20
280.0424099159044
 30
0.0
 11
328.4926178824782
 21
283.4920254922555
 31
0.0
  0
LINE
  5
111
330
70
100
AcDbEntity
  8
HONTAI
 62
     2
420
 16776960
370
    25
100
AcDbLine
 10
314.9720691031818
 20
269.5488674303084
 30
0.0
 11
314.9720691031818
 21
274.1659997101686
 31
0.0
  0
LINE
  5
112
330
70
100
AcDbEntity
  8
HONTAI
 62
     2
420
 16776960
370
    25
100
AcDbLine
 10
314.9720691031818
 20
274.1659997101686
 30
0.0
 11
310.894860638674
 21
278.8576409181776
 31
0.0
  0
LINE
  5
113
330
70
100
AcDbEntity
  8
HONTAI
 62
     2
420
 16776960
370
    25
100
AcDbLine
 10
310.894860638674
 20
278.8576409181776
 30
0.0
 11
313.2667624090657
 21
282.6015769855055
 31
0.0
  0
LINE
  5
114
330
70
100
AcDbEntity
  8
HONTAI
 62
     2
420
 16776960
370
    25
100
AcDbLine
 10
313.2667624090657
 20
282.6015769855055
 30
0.0
 11
316.9717572177857
 21
280.2543457325955
 31
0.0
  0
LINE
  5
115
330
70
100
AcDbEntity
  8
HONTAI
 62
     2
420
 16776960
370
    25
100
AcDbLine
 10
316.9717572177857
 20
280.2543457325955
 30
0.0
 11
320.8570906930579
 21
283.5019574007658
 31
0.0
  0
LINE
  5
116
330
70
100
AcDbEntity
  8
HONTAI
 62
     2
420
 16776960
370
    25
100
AcDbLine
 10
319.2442824057514
 20
280.1372794817329
 30
0.0
 11
314.9720691031818
 21
274.1659997101686
 31
0.0
  0
LINE
  5
117
330
70
100
AcDbEntity
  8
HONTAI
 62
     2
420
 16776960
370
    25
100
AcDbLine
 10
310.894860638674
 20
278.8576409181776
 30
0.0
 11
306.7124162818083
 21
272.2167713108511
 31
0.0
  0
LINE
  5
118
330
70
100
AcDbEntity
  8
HONTAI
 62
     2
420
 16776960
370
    25
100
AcDbLine
 10
306.7124162818083
 20
272.2167713108511
 30
0.0
 11
307.5370168333462
 21
267.9572158515713
 31
0.0
  0
LINE
  5
119
330
70
100
AcDbEntity
  8
HONTAI
 62
     2
420
 16776960
370
    25
100
AcDbLine
 10
306.7124162818083
 20
272.2167713108511
 30
0.0
 11
301.8112138126647
 21
277.1606643110152
 31
0.0
  0
LINE
  5
11A
330
70
100
AcDbEntity
  8
HONTAI
 62
     2
420
 16776960
370
    25
100
AcDbLine
 10
301.8112138126647
 20
277.1606643110152
 30
0.0
 11
305.0468384115974
 21
281.1538806180012
 31
0.0
  0
LINE
  5
11B
330
70
100
AcDbEntity
  8
HONTAI
 62
     2
420
 16776960
370
    25
100
AcDbLine
 10
305.0468384115974
 20
281.1538806180012
 30
0.0
 11
308.3353371340854
 21
278.4892748110411
 31
0.0
  0
LINE
  5
11C
330
70
100
AcDbEntity
  8
HONTAI
 62
     2
420
 16776960
370
    25
100
AcDbLine
 10
308.3353371340854
 20
278.4892748110411
 30
0.0
 11
313.2667624090657
 21
282.6015769855055
 31
0.0
  0
LINE
  5
11D
330
70
100
AcDbEntity
  8
HONTAI
 62
     2
420
 16776960
370
    25
100
AcDbLine
 10
301.8112138126647
 20
277.1606643110152
 30
0.0
 11
298.1470638075964
 21
270.3628527073418
 31
0.0
  0
LINE
  5
11E
330
70
100
AcDbEntity
  8
HONTAI
 62
     2
420
 16776960
370
    25
100
AcDbLine
 10
298.1470638075964
 20
270.3628527073418
 30
0.0
 11
299.452959348218
 21
266.4835459138526
 31
0.0
  0
LINE
  5
11F
330
70
100
AcDbEntity
  8
HONTAI
 62
     2
420
 16776960
370
    25
100
AcDbLine
 10
298.1470638075964
 20
270.3628527073418
 30
0.0
 11
293.9118498677417
 21
274.7838625204993
 31
0.0
  0
LINE
  5
120
330
70
100
AcDbEntity
  8
HONTAI
 62
     2
420
 16776960
370
    25
100
AcDbLine
 10
293.9118498677417
 20
274.7838625204993
 30
0.0
 11
297.4807720048128
 21
278.9671481316263
 31
0.0
  0
LINE
  5
121
330
70
100
AcDbEntity
  8
HONTAI
 62
     2
420
 16776960
370
    25
100
AcDbLine
 10
297.4807720048128
 20
278.9671481316263
 30
0.0
 11
300.6690859431767
 21
277.3508436726711
 31
0.0
  0
LINE
  5
122
330
70
100
AcDbEntity
  8
HONTAI
 62
     2
420
 16776960
370
    25
100
AcDbLine
 10
300.6690859431767
 20
277.3508436726711
 30
0.0
 11
305.0468384115974
 21
281.1538806180012
 31
0.0
  0
LINE
  5
123
330
70
100
AcDbEntity
  8
HONTAI
 62
     2
420
 16776960
370
    25
100
AcDbLine
 10
293.9118498677417
 20
274.7838625204993
 30
0.0
 11
290.5330801933423
 21
267.8908511784953
 31
0.0
  0
LINE
  5
124
330
70
100
AcDbEntity
  8
HONTAI
 62
     2
420
 16776960
370
    25
100
AcDbLine
 10
290.5330801933423
 20
267.8908511784953
 30
0.0
 11
292.8440239972203
 21
263.3003528138547
 31
0.0
  0
LINE
  5
125
330
70
100
AcDbEntity
  8
HONTAI
 62
     2
420
 16776960
370
    25
100
AcDbLine
 10
290.5330801933423
 20
267.8908511784953
 30
0.0
 11
286.1553277249216
 21
271.9790471087938
 31
0.0
  0
LINE
  5
126
330
70
100
AcDbEntity
  8
HONTAI
 62
     2
420
 16776960
370
    25
100
AcDbLine
 10
286.1553277249216
 20
271.9790471087938
 30
0.0
 11
290.1048580606153
 21
276.8755053260725
 31
0.0
  0
LINE
  5
127
330
70
100
AcDbEntity
  8
HONTAI
 62
     2
420
 16776960
370
    25
100
AcDbLine
 10
290.1048580606153
 20
276.8755053260725
 30
0.0
 11
293.1503301969621
 21
275.4018353883331
 31
0.0
  0
LINE
  5
128
330
70
100
AcDbEntity
  8
HONTAI
 62
     2
420
 16776960
370
    25
100
AcDbLine
 10
293.1503301969621
 20
275.4018353883331
 30
0.0
 11
297.4807720048128
 21
278.9671481316263
 31
0.0
  0
LINE
  5
129
330
70
100
AcDbEntity
  8
HONTAI
 62
     2
420
 16776960
370
    25
100
AcDbLine
 10
285.8735866758397
 20
272.6316880894181
 30
0.0
 11
283.3109258959601
 21
273.3009477527026
 31
0.0
  0
LINE
  5
12A
330
70
100
AcDbEntity
  8
HONTAI
 62
     2
420
 16776960
370
    25
100
AcDbLine
 10
283.3109258959601
 20
273.3009477527026
 30
0.0
 11
278.6808499045922
 21
268.4846113961098
 31
0.0
  0
LINE
  5
12B
330
70
100
AcDbEntity
  8
HONTAI
 62
     2
420
 16776960
370
    25
100
AcDbLine
 10
278.6808499045922
 20
268.4846113961098
 30
0.0
 11
282.5047556171224
 21
264.808586151613
 31
0.0
  0
LINE
  5
12C
330
70
100
AcDbEntity
  8
HONTAI
 62
     2
420
 16776960
370
    25
100
AcDbLine
 10
282.5047556171224
 20
264.808586151613
 30
0.0
 11
286.1553277249216
 21
271.9790471087938
 31
0.0
  0
LINE
  5
12D
330
70
100
AcDbEntity
  8
HONTAI
 62
     2
420
 16776960
370
    25
100
AcDbLine
 10
282.5047556171224
 20
264.808586151613
 30
0.0
 11
285.8111123420682
 21
260.8246093299783
 31
0.0
  0
LINE
  5
12E
330
70
100
AcDbEntity
  8
HONTAI
 62
     2
420
 16776960
370
    25
100
AcDbLine
 10
278.2398902863592
 20
268.9095434072939
 30
0.0
 11
275.8167353004043
 21
269.7244091443312
 31
0.0
  0
LINE
  5
12F
330
70
100
AcDbEntity
  8
HONTAI
 62
     2
420
 16776960
370
    25
100
AcDbLine
 10
275.8167353004043
 20
269.7244091443312
 30
0.0
 11
271.3298043845467
 21
264.8605279473306
 31
0.0
  0
LINE
  5
130
330
70
100
AcDbEntity
  8
HONTAI
 62
     2
420
 16776960
370
    25
100
AcDbLine
 10
271.3298043845467
 20
264.8605279473306
 30
0.0
 11
275.312266096338
 21
261.1867065992931
 31
0.0
  0
LINE
  5
131
330
70
100
AcDbEntity
  8
HONTAI
 62
     2
420
 16776960
370
    25
100
AcDbLine
 10
275.312266096338
 20
261.1867065992931
 30
0.0
 11
278.6808499045871
 21
268.4846113961098
 31
0.0
  0
LINE
  5
132
330
70
100
AcDbEntity
  8
HONTAI
 62
     2
420
 16776960
370
    25
100
AcDbLine
 10
285.8735866758397
 20
272.6316880894181
 30
0.0
 11
290.1048580606153
 21
276.8755053260725
 31
0.0
  0
LINE
  5
133
330
70
100
AcDbEntity
  8
HONTAI
 62
     2
420
 16776960
370
    25
100
AcDbLine
 10
278.2398902863592
 20
268.9095434072939
 30
0.0
 11
283.3109258959601
 21
273.3009477527026
 31
0.0
  0
LINE
  5
134
330
70
100
AcDbEntity
  8
HONTAI
 62
     2
420
 16776960
370
    25
100
AcDbLine
 10
275.312266096338
 20
261.1867065992931
 30
0.0
 11
277.845028234846
 21
257.7453105109062
 31
0.0
  0
LINE
  5
135
330
70
100
AcDbEntity
  8
HONTAI
 62
     2
420
 16776960
370
    25
100
AcDbLine
 10
270.527949342874
 20
253.7957870318143
 30
0.0
 11
267.7739230065198
 21
257.4969107312457
 31
0.0
  0
LINE
  5
136
330
70
100
AcDbEntity
  8
HONTAI
 62
     2
420
 16776960
370
    25
100
AcDbLine
 10
267.7739230065198
 20
257.4969107312457
 30
0.0
 11
263.7276484354454
 21
260.8140438098977
 31
0.0
  0
LINE
  5
137
330
70
100
AcDbEntity
  8
HONTAI
 62
     2
420
 16776960
370
    25
100
AcDbLine
 10
263.7276484354454
 20
260.8140438098977
 30
0.0
 11
261.9877685662677
 21
252.7026959323612
 31
0.0
  0
LINE
  5
138
330
70
100
AcDbEntity
  8
HONTAI
 62
     2
420
 16776960
370
    25
100
AcDbLine
 10
261.9877685662677
 20
252.7026959323612
 30
0.0
 11
264.2140990734124
 21
249.6104103281825
 31
0.0
  0
LINE
  5
139
330
70
100
AcDbEntity
  8
HONTAI
 62
     2
420
 16776960
370
    25
100
AcDbLine
 10
267.7739230065198
 20
257.4969107312457
 30
0.0
 11
271.3298043845467
 21
264.8605279473306
 31
0.0
  0
LINE
  5
13A
330
70
100
AcDbEntity
  8
HONTAI
 62
     2
420
 16776960
370
    25
100
AcDbLine
 10
271.3298043845467
 20
264.8605279473306
 30
0.0
 11
268.7541028456652
 21
265.4973206478352
 31
0.0
  0
LINE
  5
13B
330
70
100
AcDbEntity
  8
HONTAI
 62
     2
420
 16776960
370
    25
100
AcDbLine
 10
268.7541028456652
 20
265.4973206478352
 30
0.0
 11
263.7276484354454
 21
260.8140438098977
 31
0.0
  0
LINE
  5
13C
330
70
100
AcDbEntity
  8
HONTAI
 62
     2
420
 16776960
370
    25
100
AcDbLine
 10
261.9877685662677
 20
252.7026959323612
 30
0.0
 11
257.4456418798114
 21
256.3391058212687
 31
0.0
  0
LINE
  5
13D
330
70
100
AcDbEntity
  8
HONTAI
 62
     2
420
 16776960
370
    25
100
AcDbLine
 10
257.4456418798114
 20
256.3391058212687
 30
0.0
 11
255.9404956726416
 21
247.850370772974
 31
0.0
  0
LINE
  5
13E
330
70
100
AcDbEntity
  8
HONTAI
 62
     2
420
 16776960
370
    25
100
AcDbLine
 10
255.9404956726416
 20
247.850370772974
 30
0.0
 11
258.9520011808714
 21
244.7559940762637
 31
0.0
  0
LINE
  5
13F
330
70
100
AcDbEntity
  8
HONTAI
 62
     2
420
 16776960
370
    25
100
AcDbLine
 10
257.4456418798114
 20
256.3391058212687
 30
0.0
 11
262.0099075292308
 21
260.9957487439661
 31
0.0
  0
LINE
  5
140
330
70
100
AcDbEntity
  8
HONTAI
 62
     2
420
 16776960
370
    25
100
AcDbLine
 10
262.0099075292308
 20
260.9957487439661
 30
0.0
 11
263.7276484354454
 21
260.8140438098977
 31
0.0
  0
LINE
  5
141
330
70
100
AcDbEntity
  8
HONTAI
 62
     2
420
 16776960
370
    25
100
AcDbLine
 10
255.9404956726416
 20
247.850370772974
 30
0.0
 11
252.3000009978364
 21
250.541606843704
 31
0.0
  0
LINE
  5
142
330
70
100
AcDbEntity
  8
HONTAI
 62
     2
420
 16776960
370
    25
100
AcDbLine
 10
252.3000009978364
 20
250.541606843704
 30
0.0
 11
257.4456418798114
 21
256.3391058212687
 31
0.0
  0
LINE
  5
143
330
70
100
AcDbEntity
  8
HONTAI
 62
     2
420
 16776960
370
    25
100
AcDbLine
 10
252.3000009978364
 20
250.541606843704
 30
0.0
 11
250.5925713894348
 21
242.6467420705411
 31
0.0
  0
LINE
  5
144
330
70
100
AcDbEntity
  8
HONTAI
 62
     2
420
 16776960
370
    25
100
AcDbLine
 10
250.5925713894348
 20
242.6467420705411
 30
0.0
 11
248.006861826194
 21
244.498679639049
 31
0.0
  0
LINE
  5
145
330
70
100
AcDbEntity
  8
HONTAI
 62
     2
420
 16776960
370
    25
100
AcDbLine
 10
248.006861826194
 20
244.498679639049
 30
0.0
 11
252.3000009978364
 21
250.541606843704
 31
0.0
  0
LINE
  5
146
330
70
100
AcDbEntity
  8
HONTAI
 62
     2
420
 16776960
370
    25
100
AcDbLine
 10
250.5925713894348
 20
242.6467420705411
 30
0.0
 11
254.3492198013537
 21
239.9222686345215
 31
0.0
  0
LINE
  5
147
330
70
100
AcDbEntity
  8
HONTAI
 62
     2
420
 16776960
370
    25
100
AcDbLine
 10
248.006861826194
 20
244.498679639049
 30
0.0
 11
246.9338803067457
 21
236.5550593929582
 31
0.0
  0
LINE
  5
148
330
70
100
AcDbEntity
  8
HONTAI
 62
     2
420
 16776960
370
    25
100
AcDbLine
 10
246.9338803067457
 20
236.5550593929582
 30
0.0
 11
249.9238533989132
 21
234.2633320506729
 31
0.0
  0
LINE
  5
149
330
70
100
AcDbEntity
  8
HONTAI
 62
     2
420
 16776960
370
    25
100
AcDbLine
 10
246.9338803067457
 20
236.5550593929582
 30
0.0
 11
243.1775351682778
 21
239.0892434098392
 31
0.0
  0
LINE
  5
14A
330
70
100
AcDbEntity
  8
HONTAI
 62
     2
420
 16776960
370
    25
100
AcDbLine
 10
243.1775351682778
 20
239.0892434098392
 30
0.0
 11
248.006861826194
 21
244.498679639049
 31
0.0
  0
LINE
  5
14B
330
70
100
AcDbEntity
  8
HONTAI
 62
     2
420
 16776960
370
    25
100
AcDbLine
 10
243.1775351682778
 20
239.0892434098392
 30
0.0
 11
243.1775351682778
 21
231.7792241967238
 31
0.0
  0
LINE
  5
14C
330
70
100
AcDbEntity
  8
HONTAI
 62
     2
420
 16776960
370
    25
100
AcDbLine
 10
243.1775351682778
 20
231.7792241967238
 30
0.0
 11
240.1529889010475
 21
233.5336508193682
 31
0.0
  0
LINE
  5
14D
330
70
100
AcDbEntity
  8
HONTAI
 62
     2
420
 16776960
370
    25
100
AcDbLine
 10
240.1529889010475
 20
233.5336508193682
 30
0.0
 11
243.1775351682778
 21
239.0892434098392
 31
0.0
  0
LINE
  5
14E
330
70
100
AcDbEntity
  8
HONTAI
 62
     2
420
 16776960
370
    25
100
AcDbLine
 10
243.1775351682778
 20
231.7792241967238
 30
0.0
 11
247.3272259909165
 21
228.9580102173684
 31
0.0
  0
LINE
  5
14F
330
70
100
AcDbEntity
  8
HONTAI
 62
     2
420
 16776960
370
    25
100
AcDbLine
 10
240.1529889010475
 20
233.5336508193682
 30
0.0
 11
240.1529889010475
 21
225.7479630871521
 31
0.0
  0
LINE
  5
150
330
70
100
AcDbEntity
  8
HONTAI
 62
     2
420
 16776960
370
    25
100
AcDbLine
 10
240.1529889010475
 20
225.7479630871521
 30
0.0
 11
243.7810493637541
 21
223.6262745838442
 31
0.0
  0
LINE
  5
151
330
70
100
AcDbEntity
  8
HONTAI
 62
     2
420
 16776960
370
    25
100
AcDbLine
 10
240.1529889010475
 20
225.7479630871521
 30
0.0
 11
237.6646301200909
 21
227.5679839803731
 31
0.0
  0
LINE
  5
152
330
70
100
AcDbEntity
  8
HONTAI
 62
     2
420
 16776960
370
    25
100
AcDbLine
 10
237.6646301200909
 20
227.5679839803731
 30
0.0
 11
240.1529889010475
 21
231.2646509741557
 31
0.0
  0
LINE
  5
153
330
70
100
AcDbEntity
  8
HONTAI
 62
     2
420
 16776960
370
    25
100
AcDbLine
 10
237.6646301200909
 20
227.5679839803731
 30
0.0
 11
238.2356940548337
 21
220.4622314890254
 31
0.0
  0
LINE
  5
154
330
70
100
AcDbEntity
  8
HONTAI
 62
     2
420
 16776960
370
    25
100
AcDbLine
 10
238.2356940548337
 20
220.4622314890254
 30
0.0
 11
241.1844219557574
 21
218.6156867380804
 31
0.0
  0
LINE
  5
155
330
70
100
AcDbEntity
  8
HONTAI
 62
     2
420
 16776960
370
    25
100
AcDbLine
 10
238.2356940548337
 20
220.4622314890254
 30
0.0
 11
236.0166421108168
 21
221.5953835188048
 31
0.0
  0
LINE
  5
156
330
70
100
AcDbEntity
  8
HONTAI
 62
     2
420
 16776960
370
    25
100
AcDbLine
 10
236.0166421108168
 20
221.5953835188048
 30
0.0
 11
237.7982153034821
 21
225.9057826190996
 31
0.0
  0
LINE
  5
157
330
70
100
AcDbEntity
  8
HONTAI
 62
     2
420
 16776960
370
    25
100
AcDbLine
 10
236.0166421108168
 20
221.5953835188048
 30
0.0
 11
236.7047696031137
 21
215.2713694567003
 31
0.0
  0
LINE
  5
158
330
70
100
AcDbEntity
  8
HONTAI
 62
     2
420
 16776960
370
    25
100
AcDbLine
 10
236.7047696031137
 20
215.2713694567003
 30
0.0
 11
240.063523228837
 21
213.1067585280069
 31
0.0
  0
LINE
  5
159
330
70
100
AcDbEntity
  8
HONTAI
 62
     2
420
 16776960
370
    25
100
AcDbLine
 10
236.7047696031137
 20
215.2713694567003
 30
0.0
 11
235.0646667039582
 21
216.0657644985559
 31
0.0
  0
LINE
  5
15A
330
70
100
AcDbEntity
  8
HONTAI
 62
     2
420
 16776960
370
    25
100
AcDbLine
 10
235.0646667039582
 20
216.0657644985559
 30
0.0
 11
236.1370416764621
 21
219.7080074350058
 31
0.0
  0
LINE
  5
15B
330
70
100
AcDbEntity
  8
HONTAI
 62
     2
420
 16776960
370
    25
100
AcDbLine
 10
235.0646667039582
 20
216.0657644985559
 30
0.0
 11
235.9496186750666
 21
209.0358416253609
 31
0.0
  0
LINE
  5
15C
330
70
100
AcDbEntity
  8
HONTAI
 62
     2
420
 16776960
370
    25
100
AcDbLine
 10
235.9496186750666
 20
209.0358416253609
 30
0.0
 11
239.0014595541447
 21
207.2709595401314
 31
0.0
  0
LINE
  5
15D
330
70
100
AcDbEntity
  8
HONTAI
 62
     2
420
 16776960
370
    25
100
AcDbLine
 10
235.5071426895118
 20
212.5508030619584
 30
0.0
 11
234.6558540730489
 21
209.6783573159303
 31
0.0
  0
LINE
  5
15E
330
70
100
AcDbEntity
  8
HONTAI
 62
     2
420
 16776960
370
    25
100
AcDbLine
 10
234.6558540730489
 20
209.6783573159303
 30
0.0
 11
235.9496186750666
 21
209.0358416253609
 31
0.0
  0
LINE
  5
15F
330
70
100
AcDbEntity
  8
HONTAI
 62
     2
420
 16776960
370
    25
100
AcDbLine
 10
234.6558540730489
 20
209.6783573159303
 30
0.0
 11
234.8560145599939
 21
204.5425240340819
 31
0.0
  0
LINE
  5
160
330
70
100
AcDbEntity
  8
HONTAI
 62
     2
420
 16776960
370
    25
100
AcDbLine
 10
234.8560145599939
 20
204.5425240340819
 30
0.0
 11
239.7096030950753
 21
202.4961148614042
 31
0.0
  0
LINE
  5
161
330
70
100
AcDbEntity
  8
HONTAI
 62
     2
420
 16776960
370
    25
100
AcDbLine
 10
234.6558540730489
 20
209.6783573159303
 30
0.0
 11
235.9202011489307
 21
204.0938330951362
 31
0.0
  0
LINE
  5
162
330
70
100
AcDbEntity
  8
HONTAI
 62
     2
420
 16776960
370
    25
100
AcDbLine
 10
234.8560145599939
 20
204.5425240340819
 30
0.0
 11
236.3742015261642
 21
197.9063868992861
 31
0.0
  0
LINE
  5
163
330
70
100
AcDbEntity
  8
HONTAI
 62
     2
420
 16776960
370
    25
100
AcDbLine
 10
236.3742015261642
 20
197.9063868992861
 30
0.0
 11
239.5913264437183
 21
198.1339858112488
 31
0.0
  0
LINE
  5
164
330
70
100
AcDbEntity
  8
HONTAI
 62
     2
420
 16776960
370
    25
100
AcDbLine
 10
236.3742015261642
 20
197.9063868992861
 30
0.0
 11
237.8584218642612
 21
192.2816781982292
 31
0.0
  0
LINE
  5
165
330
70
100
AcDbEntity
  8
HONTAI
 62
     2
420
 16776960
370
    25
100
AcDbLine
 10
237.8584218642612
 20
192.2816781982292
 30
0.0
 11
239.8864115252518
 21
192.7107923944304
 31
0.0
  0
LINE
  5
166
330
70
100
AcDbEntity
  8
HONTAI
 62
     2
420
 16776960
370
    25
100
AcDbLine
 10
237.8584218642612
 20
192.2816781982292
 30
0.0
 11
239.2916922602035
 21
187.9864641086325
 31
0.0
  0
LINE
  5
167
330
70
100
AcDbEntity
  8
HONTAI
 62
     2
420
 16776960
370
    25
100
AcDbLine
 10
239.2916922602035
 20
187.9864641086325
 30
0.0
 11
242.067554286071
 21
188.0221227389506
 31
0.0
  0
LINE
  5
168
330
70
100
AcDbEntity
  8
HONTAI
 62
     2
420
 16776960
370
    25
100
AcDbLine
 10
239.2916922602035
 20
187.9864641086325
 30
0.0
 11
240.4083451586349
 21
183.1488866543829
 31
0.0
  0
LINE
  5
169
330
70
100
AcDbEntity
  8
HONTAI
 62
     2
420
 16776960
370
    25
100
AcDbLine
 10
240.4083451586349
 20
183.1488866543829
 30
0.0
 11
242.8549514853584
 21
183.7136342107584
 31
0.0
  0
LINE
  5
16A
330
70
100
AcDbEntity
  8
HONTAI
 62
     2
420
 16776960
370
    25
100
AcDbLine
 10
242.8549514853584
 20
183.7136342107584
 30
0.0
 11
242.8214921202729
 21
179.1992531177801
 31
0.0
  0
LINE
  5
16B
330
70
100
AcDbEntity
  8
HONTAI
 62
     2
420
 16776960
370
    25
100
AcDbLine
 10
242.8214921202729
 20
179.1992531177801
 30
0.0
 11
244.8522112424103
 21
178.8096495644159
 31
0.0
  0
LINE
  5
16C
330
70
100
AcDbEntity
  8
HONTAI
 62
     2
420
 16776960
370
    25
100
AcDbLine
 10
244.8522112424103
 20
178.8096495644159
 30
0.0
 11
245.1833858663042
 21
173.8648761042287
 31
0.0
  0
LINE
  5
16D
330
70
100
AcDbEntity
  8
HONTAI
 62
     2
420
 16776960
370
    25
100
AcDbLine
 10
245.1833858663042
 20
173.8648761042287
 30
0.0
 11
247.3897003247291
 21
173.7990617186533
 31
0.0
  0
LINE
  5
16E
330
70
100
AcDbEntity
  8
HONTAI
 62
     2
420
 16776960
370
    25
100
AcDbLine
 10
247.3897003247291
 20
173.7990617186533
 30
0.0
 11
248.4693538604032
 21
169.4023746132043
 31
0.0
  0
LINE
  5
16F
330
70
100
AcDbEntity
  8
HONTAI
 62
     2
420
 16776960
370
    25
100
AcDbLine
 10
248.4693538604032
 20
169.4023746132043
 30
0.0
 11
250.8121413781564
 21
169.3189510274809
 31
0.0
  0
LINE
  5
170
330
70
100
AcDbEntity
  8
HONTAI
 62
     2
420
 16776960
370
    25
100
AcDbLine
 10
250.8121413781564
 20
169.3189510274809
 30
0.0
 11
251.7683626135452
 21
165.1800185892517
 31
0.0
  0
LINE
  5
171
330
70
100
AcDbEntity
  8
HONTAI
 62
     2
420
 16776960
370
    25
100
AcDbLine
 10
251.7683626135452
 20
165.1800185892517
 30
0.0
 11
254.4116941351663
 21
165.7907098172059
 31
0.0
  0
LINE
  5
172
330
70
100
AcDbEntity
  8
HONTAI
 62
     2
420
 16776960
370
    25
100
AcDbLine
 10
254.4116941351663
 20
165.7907098172059
 30
0.0
 11
256.0563461363043
 21
161.1027183515359
 31
0.0
  0
LINE
  5
173
330
70
100
AcDbEntity
  8
HONTAI
 62
     2
420
 16776960
370
    25
100
AcDbLine
 10
256.0563461363043
 20
161.1027183515359
 30
0.0
 11
258.3060287002175
 21
161.8326196978394
 31
0.0
  0
LINE
  5
174
330
70
100
AcDbEntity
  8
HONTAI
 62
     2
420
 16776960
370
    25
100
AcDbLine
 10
258.3060287002175
 20
161.8326196978394
 30
0.0
 11
259.5901844550876
 21
157.874628901261
 31
0.0
  0
LINE
  5
175
330
70
100
AcDbEntity
  8
HONTAI
 62
     2
420
 16776960
370
    25
100
AcDbLine
 10
259.5901844550876
 20
157.874628901261
 30
0.0
 11
261.9782453587056
 21
158.649426597862
 31
0.0
  0
LINE
  5
176
330
70
100
AcDbEntity
  8
HONTAI
 62
     2
420
 16776960
370
    25
100
AcDbLine
 10
261.9782453587056
 20
158.649426597862
 30
0.0
 11
264.0642819816749
 21
154.1350880238851
 31
0.0
  0
LINE
  5
177
330
70
100
AcDbEntity
  8
HONTAI
 62
     2
420
 16776960
370
    25
100
AcDbLine
 10
264.0642819816749
 20
154.1350880238851
 30
0.0
 11
266.5796321010295
 21
154.6088855654746
 31
0.0
  0
LINE
  5
178
330
70
100
AcDbEntity
  8
HONTAI
 62
     2
420
 16776960
370
    25
100
AcDbLine
 10
266.5796321010295
 20
154.6088855654746
 30
0.0
 11
269.1789889702164
 21
150.7286983119879
 31
0.0
  0
LINE
  5
179
330
70
100
AcDbEntity
  8
HONTAI
 62
     2
420
 16776960
370
    25
100
AcDbLine
 10
269.1789889702164
 20
150.7286983119879
 30
0.0
 11
271.7722803701221
 21
151.3078208819886
 31
0.0
  0
LINE
  5
17A
330
70
100
AcDbEntity
  8
HONTAI
 62
     2
420
 16776960
370
    25
100
AcDbLine
 10
271.7722803701221
 20
151.3078208819886
 30
0.0
 11
274.2011975519074
 21
147.8270322994241
 31
0.0
  0
LINE
  5
17B
330
70
100
AcDbEntity
  8
HONTAI
 62
     2
420
 16776960
370
    25
100
AcDbLine
 10
274.2011975519074
 20
147.8270322994241
 30
0.0
 11
277.6142371279186
 21
148.3014901860189
 31
0.0
  0
LINE
  5
17C
330
70
100
AcDbEntity
  8
HONTAI
 62
     2
420
 16776960
370
    25
100
AcDbLine
 10
277.6142371279186
 20
148.3014901860189
 30
0.0
 11
279.4193207920555
 21
145.8141906645534
 31
0.0
  0
LINE
  5
17D
330
70
100
AcDbEntity
  8
HONTAI
 62
     2
420
 16776960
370
    25
100
AcDbLine
 10
279.4193207920555
 20
145.8141906645534
 30
0.0
 11
282.5118003154764
 21
145.8141906645534
 31
0.0
  0
LINE
  5
17E
330
70
100
AcDbEntity
  8
HONTAI
 62
     2
420
 16776960
370
    25
100
AcDbLine
 10
282.5118003154764
 20
145.8141906645534
 30
0.0
 11
284.7924167728667
 21
142.6142688244177
 31
0.0
  0
LINE
  5
17F
330
70
100
AcDbEntity
  8
HONTAI
 62
     2
420
 16776960
370
    25
100
AcDbLine
 10
284.7924167728667
 20
142.6142688244177
 30
0.0
 11
286.8783316656464
 21
142.9372875897058
 31
0.0
  0
LINE
  5
180
330
70
100
AcDbEntity
  8
HONTAI
 62
     2
420
 16776960
370
    25
100
AcDbLine
 10
286.8783316656464
 20
142.9372875897058
 30
0.0
 11
290.4239017459041
 21
139.8788996958155
 31
0.0
  0
LINE
  5
181
330
70
100
AcDbEntity
  8
HONTAI
 62
     2
420
 16776960
370
    25
100
AcDbLine
 10
290.4239017459041
 20
139.8788996958155
 30
0.0
 11
293.6700455398218
 21
140.5756606374824
 31
0.0
  0
LINE
  5
182
330
70
100
AcDbEntity
  8
HONTAI
 62
     2
420
 16776960
370
    25
100
AcDbLine
 10
293.6700455398218
 20
140.5756606374824
 30
0.0
 11
296.733506186838
 21
137.4252777696256
 31
0.0
  0
LINE
  5
183
330
70
100
AcDbEntity
  8
HONTAI
 62
     2
420
 16776960
370
    25
100
AcDbLine
 10
296.733506186838
 20
137.4252777696256
 30
0.0
 11
300.3919657435306
 21
139.0590055985984
 31
0.0
  0
LINE
  5
184
330
70
100
AcDbEntity
  8
HONTAI
 62
     2
420
 16776960
370
    25
100
AcDbLine
 10
300.3919657435306
 20
139.0590055985984
 30
0.0
 11
302.5693974753532
 21
136.1781061688591
 31
0.0
  0
LINE
  5
185
330
70
100
AcDbEntity
  8
HONTAI
 62
     2
420
 16776960
370
    25
100
AcDbLine
 10
302.5693974753532
 20
136.1781061688591
 30
0.0
 11
304.7966378028933
 21
137.0225773736452
 31
0.0
  0
LINE
  5
186
330
70
100
AcDbEntity
  8
HONTAI
 62
     2
420
 16776960
370
    25
100
AcDbLine
 10
304.7966378028933
 20
137.0225773736452
 30
0.0
 11
309.5813832614311
 21
134.2786237599498
 31
0.0
  0
LINE
  5
187
330
70
100
AcDbEntity
  8
HONTAI
 62
     2
420
 16776960
370
    25
100
AcDbLine
 10
309.5813832614311
 20
134.2786237599498
 30
0.0
 11
310.343206205704
 21
135.2541734483846
 31
0.0
  0
LINE
  5
188
330
70
100
AcDbEntity
  8
HONTAI
 62
     2
420
 16776960
370
    25
100
AcDbLine
 10
310.343206205704
 20
135.2541734483846
 30
0.0
 11
316.1851629635018
 21
132.9551823110305
 31
0.0
  0
LINE
  5
189
330
70
100
AcDbEntity
  8
HONTAI
 62
     2
420
 16776960
370
    25
100
AcDbLine
 10
319.9811758766752
 20
134.8889245446847
 30
0.0
 11
322.3810398550573
 21
132.0119895278814
 31
0.0
  0
LINE
  5
18A
330
70
100
AcDbEntity
  8
HONTAI
 62
     2
420
 16776960
370
    25
100
AcDbLine
 10
316.1851629635018
 20
132.9551823110305
 30
0.0
 11
319.9811758766752
 21
134.8889245446847
 31
0.0
  0
LINE
  5
18B
330
70
100
AcDbEntity
  8
HONTAI
 62
     2
420
 16776960
370
    25
100
AcDbLine
 10
322.3810398550573
 20
132.0119895278814
 30
0.0
 11
326.7251289688556
 21
133.7770917281302
 31
0.0
  0
LINE
  5
18C
330
70
100
AcDbEntity
  8
HONTAI
 62
     2
420
 16776960
370
    25
100
AcDbLine
 10
326.7251289688556
 20
133.7770917281302
 30
0.0
 11
328.9601839647902
 21
131.0069223800164
 31
0.0
  0
LINE
  5
18D
330
70
100
AcDbEntity
  8
HONTAI
 62
     2
420
 16776960
370
    25
100
AcDbLine
 10
278.6120068280048
 20
252.3809978570964
 30
0.0
 11
281.860998138029
 21
251.4831323935818
 31
0.0
  0
LINE
  5
18E
330
70
100
AcDbEntity
  8
HONTAI
 62
     2
420
 16776960
370
    25
100
AcDbLine
 10
281.8609981380316
 20
251.4831323935741
 30
0.0
 11
281.3195246899383
 21
256.973953407313
 31
0.0
  0
LINE
  5
18F
330
70
100
AcDbEntity
  8
HONTAI
 62
     2
420
 16776960
370
    25
100
AcDbLine
 10
285.8111123420682
 20
255.9767965281295
 30
0.0
 11
288.815339287129
 21
256.023240793527
 31
0.0
  0
LINE
  5
190
330
70
100
AcDbEntity
  8
HONTAI
 62
     2
420
 16776960
370
    25
100
AcDbLine
 10
288.815339287129
 20
256.023240793527
 30
0.0
 11
288.0126839841063
 21
260.3312214988847
 31
0.0
  0
LINE
  5
191
330
70
100
AcDbEntity
  8
HONTAI
 62
     2
420
 16776960
370
    25
100
AcDbLine
 10
293.9652259976341
 20
258.9972145842123
 30
0.0
 11
295.2124656438986
 21
258.1996536748765
 31
0.0
  0
LINE
  5
192
330
70
100
AcDbEntity
  8
HONTAI
 62
     2
420
 16776960
370
    25
100
AcDbLine
 10
295.3117622792129
 20
262.8558091955818
 30
0.0
 11
295.2124656438947
 21
258.1996536748765
 31
0.0
  0
LINE
  5
193
330
70
100
AcDbEntity
  8
HONTAI
 62
     2
420
 16776960
370
    25
100
AcDbLine
 10
300.0428262377903
 20
262.0035452801628
 30
0.0
 11
301.5886052857179
 21
261.0029389063994
 31
0.0
  0
LINE
  5
194
330
70
100
AcDbEntity
  8
HONTAI
 62
     2
420
 16776960
370
    25
100
AcDbLine
 10
301.5886052857179
 20
261.0029389063853
 30
0.0
 11
301.543971022906
 21
265.8584033818167
 31
0.0
  0
LINE
  5
195
330
70
100
AcDbEntity
  8
HONTAI
 62
     2
420
 16776960
370
    25
100
AcDbLine
 10
307.5370168333462
 20
264.0666831929847
 30
0.0
 11
309.1682864496279
 21
262.6834416313024
 31
0.0
  0
LINE
  5
196
330
70
100
AcDbEntity
  8
HONTAI
 62
     2
420
 16776960
370
    25
100
AcDbLine
 10
309.1682864496254
 20
262.6834416313088
 30
0.0
 11
309.1910731541984
 21
267.3408750906651
 31
0.0
  0
LINE
  5
197
330
70
100
AcDbEntity
  8
HONTAI
 62
     2
420
 16776960
370
    25
100
AcDbLine
 10
314.9720691031818
 20
265.186738380153
 30
0.0
 11
316.3526684945909
 21
263.7179325924138
 31
0.0
  0
LINE
  5
198
330
70
100
AcDbEntity
  8
HONTAI
 62
     2
420
 16776960
370
    25
100
AcDbLine
 10
316.3526684945896
 20
263.7179325924202
 30
0.0
 11
316.69397178083
 21
268.9338529521316
 31
0.0
  0
LINE
  5
199
330
70
100
AcDbEntity
  8
HONTAI
 62
     2
420
 16776960
370
    25
100
AcDbLine
 10
273.006300099515
 20
248.9620615900709
 30
0.0
 11
274.8497327340104
 21
247.9902315366305
 31
0.0
  0
LINE
  5
19A
330
70
100
AcDbEntity
  8
HONTAI
 62
     2
420
 16776960
370
    25
100
AcDbLine
 10
274.7152460752374
 20
248.0611308872957
 30
0.0
 11
274.3863217376265
 21
253.120534102675
 31
0.0
  0
LINE
  5
19B
330
70
100
AcDbEntity
  8
HONTAI
 62
     2
420
 16776960
370
    25
100
AcDbLine
 10
267.2720054218129
 20
244.7559940762637
 30
0.0
 11
268.979419942674
 21
243.9687478775105
 31
0.0
  0
LINE
  5
19C
330
70
100
AcDbEntity
  8
HONTAI
 62
     2
420
 16776960
370
    25
100
AcDbLine
 10
268.9794199426676
 20
243.9687478775169
 30
0.0
 11
268.5814314524275
 21
249.2883573600498
 31
0.0
  0
LINE
  5
19D
330
70
100
AcDbEntity
  8
HONTAI
 62
     2
420
 16776960
370
    25
100
AcDbLine
 10
263.0566251950171
 20
244.7559940762637
 30
0.0
 11
265.3140719312574
 21
241.9677973471927
 31
0.0
  0
LINE
  5
19E
330
70
100
AcDbEntity
  8
HONTAI
 62
     2
420
 16776960
370
    25
100
AcDbLine
 10
265.3140719312574
 20
241.9677973471927
 30
0.0
 11
262.7875006936946
 21
240.5117366096234
 31
0.0
  0
LINE
  5
19F
330
70
100
AcDbEntity
  8
HONTAI
 62
     2
420
 16776960
370
    25
100
AcDbLine
 10
258.5683602475241
 20
240.217002622075
 30
0.0
 11
260.9511798626308
 21
237.2966268343655
 31
0.0
  0
LINE
  5
1A0
330
70
100
AcDbEntity
  8
HONTAI
 62
     2
420
 16776960
370
    25
100
AcDbLine
 10
260.9511798626308
 20
237.2966268343655
 30
0.0
 11
257.8307991804588
 21
235.5011487638595
 31
0.0
  0
LINE
  5
1A1
330
70
100
AcDbEntity
  8
HONTAI
 62
     2
420
 16776960
370
    25
100
AcDbLine
 10
254.1169669254998
 20
234.9197556745291
 30
0.0
 11
256.893077626446
 21
231.9888837360338
 31
0.0
  0
LINE
  5
1A2
330
70
100
AcDbEntity
  8
HONTAI
 62
     2
420
 16776960
370
    25
100
AcDbLine
 10
256.893077626446
 20
231.9888837360338
 30
0.0
 11
253.3462944523392
 21
229.4884873719392
 31
0.0
  0
LINE
  5
1A3
330
70
100
AcDbEntity
  8
HONTAI
 62
     2
420
 16776960
370
    25
100
AcDbLine
 10
253.3462944523392
 20
229.4884873719392
 30
0.0
 11
254.1787801139943
 21
227.3272882257801
 31
0.0
  0
LINE
  5
1A4
330
70
100
AcDbEntity
  8
HONTAI
 62
     2
420
 16776960
370
    25
100
AcDbLine
 10
254.1787801139943
 20
227.3272882257801
 30
0.0
 11
251.6288568196206
 21
225.2768069255898
 31
0.0
  0
LINE
  5
1A5
330
70
100
AcDbEntity
  8
HONTAI
 62
     2
420
 16776960
370
    25
100
AcDbLine
 10
251.6288568196206
 20
225.2768069255898
 30
0.0
 11
251.6349222889007
 21
222.4259874784791
 31
0.0
  0
LINE
  5
1A6
330
70
100
AcDbEntity
  8
HONTAI
 62
     2
420
 16776960
370
    25
100
AcDbLine
 10
251.6349222889007
 20
222.4259874784791
 30
0.0
 11
248.6004087845658
 21
220.3208262306673
 31
0.0
  0
LINE
  5
1A7
330
70
100
AcDbEntity
  8
HONTAI
 62
     2
420
 16776960
370
    25
100
AcDbLine
 10
248.6004087845658
 20
220.3208262306673
 30
0.0
 11
249.9426563537852
 21
216.9550291062336
 31
0.0
  0
LINE
  5
1A8
330
70
100
AcDbEntity
  8
HONTAI
 62
     2
420
 16776960
370
    25
100
AcDbLine
 10
249.9426563537852
 20
216.9550291062336
 30
0.0
 11
247.2034904171802
 21
215.019888067028
 31
0.0
  0
LINE
  5
1A9
330
70
100
AcDbEntity
  8
HONTAI
 62
     2
420
 16776960
370
    25
100
AcDbLine
 10
247.2034904171802
 20
215.019888067028
 30
0.0
 11
248.7316854077111
 21
212.15465108731
 31
0.0
  0
LINE
  5
1AA
330
70
100
AcDbEntity
  8
HONTAI
 62
     2
420
 16776960
370
    25
100
AcDbLine
 10
248.7316854077111
 20
212.15465108731
 30
0.0
 11
245.4362192118499
 21
209.9326470857309
 31
0.0
  0
LINE
  5
1AB
330
70
100
AcDbEntity
  8
HONTAI
 62
     2
420
 16776960
370
    25
100
AcDbLine
 10
245.4362192118499
 20
209.9326470857309
 30
0.0
 11
248.001402903816
 21
207.0478729857148
 31
0.0
  0
LINE
  5
1AC
330
70
100
AcDbEntity
  8
HONTAI
 62
     2
420
 16776960
370
    25
100
AcDbLine
 10
248.001402903816
 20
207.0478729857148
 30
0.0
 11
245.0790597943008
 21
205.207711569814
 31
0.0
  0
LINE
  5
1AD
330
70
100
AcDbEntity
  8
HONTAI
 62
     2
420
 16776960
370
    25
100
AcDbLine
 10
245.0790597943008
 20
205.207711569814
 30
0.0
 11
248.1976208357242
 21
202.0686515277295
 31
0.0
  0
LINE
  5
1AE
330
70
100
AcDbEntity
  8
HONTAI
 62
     2
420
 16776960
370
    25
100
AcDbLine
 10
248.1976208357242
 20
202.0686515277295
 30
0.0
 11
244.2535494223662
 21
199.855285126108
 31
0.0
  0
LINE
  5
1AF
330
70
100
AcDbEntity
  8
HONTAI
 62
     2
420
 16776960
370
    25
100
AcDbLine
 10
244.2535494223662
 20
199.855285126108
 30
0.0
 11
248.2540297002131
 21
197.7034408675224
 31
0.0
  0
LINE
  5
1B0
330
70
100
AcDbEntity
  8
HONTAI
 62
     2
420
 16776960
370
    25
100
AcDbLine
 10
248.2540297002131
 20
197.7034408675224
 30
0.0
 11
245.6692299573691
 21
196.1887194819625
 31
0.0
  0
LINE
  5
1B1
330
70
100
AcDbEntity
  8
HONTAI
 62
     2
420
 16776960
370
    25
100
AcDbLine
 10
245.6692299573691
 20
196.1887194819625
 30
0.0
 11
249.4877461561562
 21
193.1005060052964
 31
0.0
  0
LINE
  5
1B2
330
70
100
AcDbEntity
  8
HONTAI
 62
     2
420
 16776960
370
    25
100
AcDbLine
 10
249.4877461561562
 20
193.1005060052964
 30
0.0
 11
247.3193408808429
 21
191.0284534349011
 31
0.0
  0
LINE
  5
1B3
330
70
100
AcDbEntity
  8
HONTAI
 62
     2
420
 16776960
370
    25
100
AcDbLine
 10
247.3193408808429
 20
191.0284534349011
 30
0.0
 11
250.1713245464269
 21
188.2070193405469
 31
0.0
  0
LINE
  5
1B4
330
70
100
AcDbEntity
  8
HONTAI
 62
     2
420
 16776960
370
    25
100
AcDbLine
 10
250.1713245464269
 20
188.2070193405469
 30
0.0
 11
247.7912343925092
 21
186.4305812177168
 31
0.0
  0
LINE
  5
1B5
330
70
100
AcDbEntity
  8
HONTAI
 62
     2
420
 16776960
370
    25
100
AcDbLine
 10
247.7912343925092
 20
186.4305812177168
 30
0.0
 11
251.6252175380348
 21
183.8431293703695
 31
0.0
  0
LINE
  5
1B6
330
70
100
AcDbEntity
  8
HONTAI
 62
     2
420
 16776960
370
    25
100
AcDbLine
 10
251.6252175380348
 20
183.8431293703695
 30
0.0
 11
250.0336383932946
 21
181.8325989430087
 31
0.0
  0
LINE
  5
1B7
330
70
100
AcDbEntity
  8
HONTAI
 62
     2
420
 16776960
370
    25
100
AcDbLine
 10
250.0336383932946
 20
181.8325989430087
 30
0.0
 11
254.1059944823701
 21
179.666557266808
 31
0.0
  0
LINE
  5
1B8
330
70
100
AcDbEntity
  8
HONTAI
 62
     2
420
 16776960
370
    25
100
AcDbLine
 10
254.1059944823701
 20
179.666557266808
 30
0.0
 11
252.1692901343822
 21
177.8074659607551
 31
0.0
  0
LINE
  5
1B9
330
70
100
AcDbEntity
  8
HONTAI
 62
     2
420
 16776960
370
    25
100
AcDbLine
 10
252.1692901343822
 20
177.8074659607551
 30
0.0
 11
255.9365531175624
 21
175.3464701820214
 31
0.0
  0
LINE
  5
1BA
330
70
100
AcDbEntity
  8
HONTAI
 62
     2
420
 16776960
370
    25
100
AcDbLine
 10
255.9365531175624
 20
175.3464701820214
 30
0.0
 11
254.2934174837669
 21
173.2684745065805
 31
0.0
  0
LINE
  5
1BB
330
70
100
AcDbEntity
  8
HONTAI
 62
     2
420
 16776960
370
    25
100
AcDbLine
 10
254.2934174837669
 20
173.2684745065805
 30
0.0
 11
259.0572370732291
 21
171.15702135085
 31
0.0
  0
LINE
  5
1BC
330
70
100
AcDbEntity
  8
HONTAI
 62
     2
420
 16776960
370
    25
100
AcDbLine
 10
259.0572370732291
 20
171.15702135085
 30
0.0
 11
256.7115479735354
 21
168.2694691305205
 31
0.0
  0
LINE
  5
1BD
330
70
100
AcDbEntity
  8
HONTAI
 62
     2
420
 16776960
370
    25
100
AcDbLine
 10
256.7115479735354
 20
168.2694691305205
 30
0.0
 11
262.5567095867672
 21
168.4001910095499
 31
0.0
  0
LINE
  5
1BE
330
70
100
AcDbEntity
  8
HONTAI
 62
     2
420
 16776960
370
    25
100
AcDbLine
 10
262.5567095867672
 20
168.4001910095499
 30
0.0
 11
260.5949788569948
 21
164.6572542685333
 31
0.0
  0
LINE
  5
1BF
330
70
100
AcDbEntity
  8
HONTAI
 62
     2
420
 16776960
370
    25
100
AcDbLine
 10
260.5949788569948
 20
164.6572542685333
 30
0.0
 11
266.1165335198745
 21
164.8947495467878
 31
0.0
  0
LINE
  5
1C0
330
70
100
AcDbEntity
  8
HONTAI
 62
     2
420
 16776960
370
    25
100
AcDbLine
 10
266.1165335198745
 20
164.8947495467878
 30
0.0
 11
264.3293286041662
 21
161.1828168210841
 31
0.0
  0
LINE
  5
1C1
330
70
100
AcDbEntity
  8
HONTAI
 62
     2
420
 16776960
370
    25
100
AcDbLine
 10
264.3293286041662
 20
161.1828168210841
 30
0.0
 11
269.9963109586264
 21
161.5733242255962
 31
0.0
  0
LINE
  5
1C2
330
70
100
AcDbEntity
  8
HONTAI
 62
     2
420
 16776960
370
    25
100
AcDbLine
 10
269.9963109586264
 20
161.5733242255962
 30
0.0
 11
268.6597332128762
 21
158.188501125753
 31
0.0
  0
LINE
  5
1C3
330
70
100
AcDbEntity
  8
HONTAI
 62
     2
420
 16776960
370
    25
100
AcDbLine
 10
268.6597332128762
 20
158.188501125753
 30
0.0
 11
274.4168249855909
 21
158.188501125753
 31
0.0
  0
LINE
  5
1C4
330
70
100
AcDbEntity
  8
HONTAI
 62
     2
420
 16776960
370
    25
100
AcDbLine
 10
274.4168249855909
 20
158.188501125753
 30
0.0
 11
273.1294291263479
 21
155.4931975856204
 31
0.0
  0
LINE
  5
1C5
330
70
100
AcDbEntity
  8
HONTAI
 62
     2
420
 16776960
370
    25
100
AcDbLine
 10
273.1294291263479
 20
155.4931975856204
 30
0.0
 11
278.4536980792493
 21
155.2345624583761
 31
0.0
  0
LINE
  5
1C6
330
70
100
AcDbEntity
  8
HONTAI
 62
     2
420
 16776960
370
    25
100
AcDbLine
 10
278.4536980792493
 20
155.2345624583761
 30
0.0
 11
277.6142371279186
 21
151.4131631824828
 31
0.0
  0
LINE
  5
1C7
330
70
100
AcDbEntity
  8
HONTAI
 62
     2
420
 16776960
370
    25
100
AcDbLine
 10
277.6142371279186
 20
151.4131631824828
 30
0.0
 11
283.3928097315044
 21
152.1406259916722
 31
0.0
  0
LINE
  5
1C8
330
70
100
AcDbEntity
  8
HONTAI
 62
     2
420
 16776960
370
    25
100
AcDbLine
 10
283.3928097315044
 20
152.1406259916722
 30
0.0
 11
282.5118003154764
 21
148.6357530448538
 31
0.0
  0
LINE
  5
1C9
330
70
100
AcDbEntity
  8
HONTAI
 62
     2
420
 16776960
370
    25
100
AcDbLine
 10
282.5118003154764
 20
148.6357530448538
 30
0.0
 11
287.5864752066207
 21
147.8888846149631
 31
0.0
  0
LINE
  5
1CA
330
70
100
AcDbEntity
  8
HONTAI
 62
     2
420
 16776960
370
    25
100
AcDbLine
 10
287.1513612152463
 20
144.846409437716
 30
0.0
 11
292.5431767198564
 21
145.825636644638
 31
0.0
  0
LINE
  5
1CB
330
70
100
AcDbEntity
  8
HONTAI
 62
     2
420
 16776960
370
    25
100
AcDbLine
 10
328.9601839647902
 20
131.0069223800164
 30
0.0
 11
327.9982709752502
 21
138.2561018443
 31
0.0
  0
LINE
  5
1CC
330
70
100
AcDbEntity
  8
HONTAI
 62
     2
420
 16776960
370
    25
100
AcDbLine
 10
327.9982709752502
 20
138.2561018443
 30
0.0
 11
322.3810398550573
 21
132.0119895278814
 31
0.0
  0
LINE
  5
1CD
330
70
100
AcDbEntity
  8
HONTAI
 62
     2
420
 16776960
370
    25
100
AcDbLine
 10
322.3810398550573
 20
132.0119895278814
 30
0.0
 11
321.7417393906717
 21
139.2554239529208
 31
0.0
  0
LINE
  5
1CE
330
70
100
AcDbEntity
  8
HONTAI
 62
     2
420
 16776960
370
    25
100
AcDbLine
 10
321.7417393906717
 20
139.2554239529208
 30
0.0
 11
316.1851629635018
 21
132.9551823110305
 31
0.0
  0
LINE
  5
1CF
330
70
100
AcDbEntity
  8
HONTAI
 62
     2
420
 16776960
370
    25
100
AcDbLine
 10
316.1851629635018
 20
132.9551823110305
 30
0.0
 11
315.3408496367362
 21
139.4653036072577
 31
0.0
  0
LINE
  5
1D0
330
70
100
AcDbEntity
  8
HONTAI
 62
     2
420
 16776960
370
    25
100
AcDbLine
 10
315.3408496367362
 20
139.4653036072577
 30
0.0
 11
310.343206205704
 21
135.2541734483846
 31
0.0
  0
LINE
  5
1D1
330
70
100
AcDbEntity
  8
HONTAI
 62
     2
420
 16776960
370
    25
100
AcDbLine
 10
337.5370103665084
 20
267.8801772822874
 30
0.0
 11
341.9221623039291
 21
271.124780786402
 31
0.0
  0
LINE
  5
1D2
330
70
100
AcDbEntity
  8
HONTAI
 62
     2
420
 16776960
370
    25
100
AcDbLine
 10
342.0146607107796
 20
276.0367571113254
 30
0.0
 11
337.0597788383361
 21
280.7908009223548
 31
0.0
  0
LINE
  5
1D3
330
70
100
AcDbEntity
  8
HONTAI
 62
     2
420
 16776960
370
    25
100
AcDbLine
 10
336.6736944312764
 20
284.0525713620209
 30
0.0
 11
341.7702222979072
 21
279.4200347480341
 31
0.0
  0
LINE
  5
1D4
330
70
100
AcDbEntity
  8
HONTAI
 62
     2
420
 16776960
370
    25
100
AcDbLine
 10
341.7311000209491
 20
133.6036411066185
 30
0.0
 11
346.2003929062078
 21
129.8898607945747
 31
0.0
  0
LINE
  5
1D5
330
70
100
AcDbEntity
  8
HONTAI
 62
     2
420
 16776960
370
    25
100
AcDbLine
 10
346.2003929062078
 20
129.8898607945747
 30
0.0
 11
348.8558553664326
 21
134.1931090817216
 31
0.0
  0
LINE
  5
1D6
330
70
100
AcDbEntity
  8
HONTAI
 62
     2
420
 16776960
370
    25
100
AcDbLine
 10
348.8558553664326
 20
134.1931090817216
 30
0.0
 11
354.0191565510685
 21
131.0069223800164
 31
0.0
  0
LINE
  5
1D7
330
70
100
AcDbEntity
  8
HONTAI
 62
     2
420
 16776960
370
    25
100
AcDbLine
 10
372.6361343101534
 20
135.2541734483846
 30
0.0
 11
372.6361343101534
 21
140.3826328776623
 31
0.0
  0
LINE
  5
1D8
330
70
100
AcDbEntity
  8
HONTAI
 62
     2
420
 16776960
370
    25
100
AcDbLine
 10
372.6361343101534
 20
140.3826328776623
 30
0.0
 11
378.1827027129641
 21
137.0225773736452
 31
0.0
  0
LINE
  5
1D9
330
70
100
AcDbEntity
  8
HONTAI
 62
     2
420
 16776960
370
    25
100
AcDbLine
 10
378.1827027129641
 20
137.0225773736452
 30
0.0
 11
378.1827027129641
 21
142.2298379736113
 31
0.0
  0
LINE
  5
1DA
330
70
100
AcDbEntity
  8
HONTAI
 62
     2
420
 16776960
370
    25
100
AcDbLine
 10
378.1827027129641
 20
142.2298379736113
 30
0.0
 11
382.5292180144566
 21
138.9287732900996
 31
0.0
  0
LINE
  5
1DB
330
70
100
AcDbEntity
  8
HONTAI
 62
     2
420
 16776960
370
    25
100
AcDbLine
 10
382.5292180144566
 20
138.9287732900996
 30
0.0
 11
384.2402869044441
 21
142.7604251856854
 31
0.0
  0
LINE
  5
1DC
330
70
100
AcDbEntity
  8
HONTAI
 62
     2
420
 16776960
370
    25
100
AcDbLine
 10
384.2402869044441
 20
142.7604251856854
 30
0.0
 11
389.2938487539763
 21
140.5036981394834
 31
0.0
  0
LINE
  5
1DD
330
70
100
AcDbEntity
  8
HONTAI
 62
     2
420
 16776960
370
    25
100
AcDbLine
 10
389.2938487539763
 20
140.5036981394834
 30
0.0
 11
390.436163796001
 21
145.825636644638
 31
0.0
  0
LINE
  5
1DE
330
70
100
AcDbEntity
  8
HONTAI
 62
     2
420
 16776960
370
    25
100
AcDbLine
 10
390.436163796001
 20
145.825636644638
 30
0.0
 11
396.1010088502123
 21
142.9372875897058
 31
0.0
  0
LINE
  5
1DF
330
70
100
AcDbEntity
  8
HONTAI
 62
     2
420
 16776960
370
    25
100
AcDbLine
 10
396.1010088502123
 20
142.9372875897058
 30
0.0
 11
395.3928653092393
 21
147.8888846149631
 31
0.0
  0
LINE
  5
1E0
330
70
100
AcDbEntity
  8
HONTAI
 62
     2
420
 16776960
370
    25
100
AcDbLine
 10
395.3928653092393
 20
147.8888846149631
 30
0.0
 11
400.4675402003822
 21
145.5309026570973
 31
0.0
  0
LINE
  5
1E1
330
70
100
AcDbEntity
  8
HONTAI
 62
     2
420
 16776960
370
    25
100
AcDbLine
 10
400.4675402003822
 20
145.5309026570973
 30
0.0
 11
400.4675402003822
 21
150.1878757523171
 31
0.0
  0
LINE
  5
1E2
330
70
100
AcDbEntity
  8
HONTAI
 62
     2
420
 16776960
370
    25
100
AcDbLine
 10
400.4675402003822
 20
150.1878757523171
 30
0.0
 11
405.3651033879415
 21
148.3014901860189
 31
0.0
  0
LINE
  5
1E3
330
70
100
AcDbEntity
  8
HONTAI
 62
     2
420
 16776960
370
    25
100
AcDbLine
 10
405.3651033879415
 20
148.3014901860189
 30
0.0
 11
405.3651033879415
 21
152.8994724607257
 31
0.0
  0
LINE
  5
1E4
330
70
100
AcDbEntity
  8
HONTAI
 62
     2
420
 16776960
370
    25
100
AcDbLine
 10
405.3651033879415
 20
152.8994724607257
 30
0.0
 11
411.2070601457366
 21
151.3078208819886
 31
0.0
  0
LINE
  5
1E5
330
70
100
AcDbEntity
  8
HONTAI
 62
     2
420
 16776960
370
    25
100
AcDbLine
 10
411.2070601457366
 20
151.3078208819886
 30
0.0
 11
409.8499113895107
 21
155.4931975856204
 31
0.0
  0
LINE
  5
1E6
330
70
100
AcDbEntity
  8
HONTAI
 62
     2
420
 16776960
370
    25
100
AcDbLine
 10
409.8499113895107
 20
155.4931975856204
 30
0.0
 11
416.399708414828
 21
154.6088855654746
 31
0.0
  0
LINE
  5
1E7
330
70
100
AcDbEntity
  8
HONTAI
 62
     2
420
 16776960
370
    25
100
AcDbLine
 10
416.399708414828
 20
154.6088855654746
 30
0.0
 11
414.0517652481928
 21
158.6494265978697
 31
0.0
  0
LINE
  5
1E8
330
70
100
AcDbEntity
  8
HONTAI
 62
     2
420
 16776960
370
    25
100
AcDbLine
 10
414.0517652481928
 20
158.6494265978697
 30
0.0
 11
420.483588895563
 21
158.6494265978697
 31
0.0
  0
LINE
  5
1E9
330
70
100
AcDbEntity
  8
HONTAI
 62
     2
420
 16776960
370
    25
100
AcDbLine
 10
420.483588895563
 20
158.6494265978697
 30
0.0
 11
417.7104563308831
 21
162.480968435951
 31
0.0
  0
LINE
  5
1EA
330
70
100
AcDbEntity
  8
HONTAI
 62
     2
420
 16776960
370
    25
100
AcDbLine
 10
417.7104563308831
 20
162.480968435951
 30
0.0
 11
424.6733118156411
 21
161.8326196978394
 31
0.0
  0
LINE
  5
1EB
330
70
100
AcDbEntity
  8
HONTAI
 62
     2
420
 16776960
370
    25
100
AcDbLine
 10
424.6733118156411
 20
161.8326196978394
 30
0.0
 11
421.6639292216546
 21
165.5462899524068
 31
0.0
  0
LINE
  5
1EC
330
70
100
AcDbEntity
  8
HONTAI
 62
     2
420
 16776960
370
    25
100
AcDbLine
 10
421.6639292216546
 20
165.5462899524068
 30
0.0
 11
428.5676463806912
 21
165.5462899524068
 31
0.0
  0
LINE
  5
1ED
330
70
100
AcDbEntity
  8
HONTAI
 62
     2
420
 16776960
370
    25
100
AcDbLine
 10
428.5676463806912
 20
165.5462899524068
 30
0.0
 11
425.3814553565731
 21
169.3189510274809
 31
0.0
  0
LINE
  5
1EE
330
70
100
AcDbEntity
  8
HONTAI
 62
     2
420
 16776960
370
    25
100
AcDbLine
 10
425.3814553565731
 20
169.3189510274809
 30
0.0
 11
432.1671991377036
 21
169.3189510274809
 31
0.0
  0
LINE
  5
1EF
330
70
100
AcDbEntity
  8
HONTAI
 62
     2
420
 16776960
370
    25
100
AcDbLine
 10
432.1671991377036
 20
169.3189510274809
 30
0.0
 11
428.6859230320931
 21
173.2684745065805
 31
0.0
  0
LINE
  5
1F0
330
70
100
AcDbEntity
  8
HONTAI
 62
     2
420
 16776960
370
    25
100
AcDbLine
 10
428.6859230320931
 20
173.2684745065805
 30
0.0
 11
435.5896401911296
 21
173.7990617186533
 31
0.0
  0
LINE
  5
1F1
330
70
100
AcDbEntity
  8
HONTAI
 62
     2
420
 16776960
370
    25
100
AcDbLine
 10
435.5896401911296
 20
173.7990617186533
 30
0.0
 11
430.8100503814777
 21
177.8074659607551
 31
0.0
  0
LINE
  5
1F2
330
70
100
AcDbEntity
  8
HONTAI
 62
     2
420
 16776960
370
    25
100
AcDbLine
 10
430.8100503814777
 20
177.8074659607551
 30
0.0
 11
438.1271292734472
 21
178.8096495644159
 31
0.0
  0
LINE
  5
1F3
330
70
100
AcDbEntity
  8
HONTAI
 62
     2
420
 16776960
370
    25
100
AcDbLine
 10
438.1271292734472
 20
178.8096495644159
 30
0.0
 11
432.9457021225628
 21
181.8325989430087
 31
0.0
  0
LINE
  5
1F4
330
70
100
AcDbEntity
  8
HONTAI
 62
     2
420
 16776960
370
    25
100
AcDbLine
 10
432.9457021225628
 20
181.8325989430087
 30
0.0
 11
440.1448076365852
 21
183.7189845093069
 31
0.0
  0
LINE
  5
1F5
330
70
100
AcDbEntity
  8
HONTAI
 62
     2
420
 16776960
370
    25
100
AcDbLine
 10
440.1448076365852
 20
183.7189845093069
 30
0.0
 11
435.1881061233482
 21
186.4305812177168
 31
0.0
  0
LINE
  5
1F6
330
70
100
AcDbEntity
  8
HONTAI
 62
     2
420
 16776960
370
    25
100
AcDbLine
 10
435.1881061233482
 20
186.4305812177168
 30
0.0
 11
440.9117862297864
 21
188.0221227389506
 31
0.0
  0
LINE
  5
1F7
330
70
100
AcDbEntity
  8
HONTAI
 62
     2
420
 16776960
370
    25
100
AcDbLine
 10
440.9117862297864
 20
188.0221227389506
 30
0.0
 11
435.6599996350145
 21
191.0284534349011
 31
0.0
  0
LINE
  5
1F8
330
70
100
AcDbEntity
  8
HONTAI
 62
     2
420
 16776960
370
    25
100
AcDbLine
 10
435.6599996350145
 20
191.0284534349011
 30
0.0
 11
443.0929289906056
 21
192.7107923944304
 31
0.0
  0
LINE
  5
1F9
330
70
100
AcDbEntity
  8
HONTAI
 62
     2
420
 16776960
370
    25
100
AcDbLine
 10
443.0929289906056
 20
192.7107923944304
 30
0.0
 11
437.3101105584896
 21
196.1887194819625
 31
0.0
  0
LINE
  5
1FA
330
70
100
AcDbEntity
  8
HONTAI
 62
     2
420
 16776960
370
    25
100
AcDbLine
 10
437.3101105584896
 20
196.1887194819625
 30
0.0
 11
443.3880140721404
 21
198.1339858112488
 31
0.0
  0
LINE
  5
1FB
330
70
100
AcDbEntity
  8
HONTAI
 62
     2
420
 16776960
370
    25
100
AcDbLine
 10
443.3880140721404
 20
198.1339858112488
 30
0.0
 11
437.4872222621158
 21
200.9634541031737
 31
0.0
  0
LINE
  5
1FC
330
70
100
AcDbEntity
  8
HONTAI
 62
     2
420
 16776960
370
    25
100
AcDbLine
 10
437.4872222621158
 20
200.9634541031737
 30
0.0
 11
443.2697374207821
 21
202.4961148614042
 31
0.0
  0
LINE
  5
1FD
330
70
100
AcDbEntity
  8
HONTAI
 62
     2
420
 16776960
370
    25
100
AcDbLine
 10
443.2697374207821
 20
202.4961148614042
 30
0.0
 11
437.9002807215566
 21
205.207711569814
 31
0.0
  0
LINE
  5
1FE
330
70
100
AcDbEntity
  8
HONTAI
 62
     2
420
 16776960
370
    25
100
AcDbLine
 10
437.9002807215566
 20
205.207711569814
 30
0.0
 11
443.9778809617128
 21
207.2709595401314
 31
0.0
  0
LINE
  5
1FF
330
70
100
AcDbEntity
  8
HONTAI
 62
     2
420
 16776960
370
    25
100
AcDbLine
 10
443.9778809617128
 20
207.2709595401314
 30
0.0
 11
437.54312130401
 21
209.9326470857309
 31
0.0
  0
LINE
  5
200
330
70
100
AcDbEntity
  8
HONTAI
 62
     2
420
 16776960
370
    25
100
AcDbLine
 10
437.54312130401
 20
209.9326470857309
 30
0.0
 11
442.9158172870205
 21
213.1067585280069
 31
0.0
  0
LINE
  5
201
330
70
100
AcDbEntity
  8
HONTAI
 62
     2
420
 16776960
370
    25
100
AcDbLine
 10
442.9158172870205
 20
213.1067585280069
 30
0.0
 11
435.7758500986773
 21
215.019888067028
 31
0.0
  0
LINE
  5
202
330
70
100
AcDbEntity
  8
HONTAI
 62
     2
420
 16776960
370
    25
100
AcDbLine
 10
435.7758500986773
 20
215.019888067028
 30
0.0
 11
441.7949185601013
 21
218.6156867380804
 31
0.0
  0
LINE
  5
203
330
70
100
AcDbEntity
  8
HONTAI
 62
     2
420
 16776960
370
    25
100
AcDbLine
 10
441.7949185601013
 20
218.6156867380804
 30
0.0
 11
434.3598662902233
 21
220.3252099003325
 31
0.0
  0
LINE
  5
204
330
70
100
AcDbEntity
  8
HONTAI
 62
     2
420
 16776960
370
    25
100
AcDbLine
 10
434.3598662902233
 20
220.3252099003325
 30
0.0
 11
439.1982911521033
 21
223.6262745838442
 31
0.0
  0
LINE
  5
205
330
70
100
AcDbEntity
  8
HONTAI
 62
     2
420
 16776960
370
    25
100
AcDbLine
 10
439.1982911521033
 20
223.6262745838442
 30
0.0
 11
431.3504836962381
 21
225.2768069255898
 31
0.0
  0
LINE
  5
206
330
70
100
AcDbEntity
  8
HONTAI
 62
     2
420
 16776960
370
    25
100
AcDbLine
 10
431.3504836962381
 20
225.2768069255898
 30
0.0
 11
435.6521145249409
 21
228.9580102173684
 31
0.0
  0
LINE
  5
207
330
70
100
AcDbEntity
  8
HONTAI
 62
     2
420
 16776960
370
    25
100
AcDbLine
 10
435.6521145249409
 20
228.9580102173684
 30
0.0
 11
429.6330460635182
 21
229.4884873719392
 31
0.0
  0
LINE
  5
208
330
70
100
AcDbEntity
  8
HONTAI
 62
     2
420
 16776960
370
    25
100
AcDbLine
 10
429.6330460635182
 20
229.4884873719392
 30
0.0
 11
433.0554871169442
 21
234.2633320506729
 31
0.0
  0
LINE
  5
209
330
70
100
AcDbEntity
  8
HONTAI
 62
     2
420
 16776960
370
    25
100
AcDbLine
 10
433.0554871169442
 20
234.2633320506729
 30
0.0
 11
425.1485413353998
 21
235.5011487638595
 31
0.0
  0
LINE
  5
20A
330
70
100
AcDbEntity
  8
HONTAI
 62
     2
420
 16776960
370
    25
100
AcDbLine
 10
425.1485413353998
 20
235.5011487638595
 30
0.0
 11
428.6301207145051
 21
239.9222686345215
 31
0.0
  0
LINE
  5
20B
330
70
100
AcDbEntity
  8
HONTAI
 62
     2
420
 16776960
370
    25
100
AcDbLine
 10
428.6301207145051
 20
239.9222686345215
 30
0.0
 11
420.1918398221629
 21
240.5117366096234
 31
0.0
  0
LINE
  5
20C
330
70
100
AcDbEntity
  8
HONTAI
 62
     2
420
 16776960
370
    25
100
AcDbLine
 10
420.1918398221629
 20
240.5117366096234
 30
0.0
 11
424.0273393349861
 21
244.7559940762637
 31
0.0
  0
LINE
  5
20D
330
70
100
AcDbEntity
  8
HONTAI
 62
     2
420
 16776960
370
    25
100
AcDbLine
 10
424.0273393349861
 20
244.7559940762637
 30
0.0
 11
415.7073350940446
 21
244.7559940762637
 31
0.0
  0
LINE
  5
20E
330
70
100
AcDbEntity
  8
HONTAI
 62
     2
420
 16776960
370
    25
100
AcDbLine
 10
415.7073350940446
 20
244.7559940762637
 30
0.0
 11
418.7652414424463
 21
249.6104103281825
 31
0.0
  0
LINE
  5
20F
330
70
100
AcDbEntity
  8
HONTAI
 62
     2
420
 16776960
370
    25
100
AcDbLine
 10
418.7652414424463
 20
249.6104103281825
 30
0.0
 11
409.9730404163424
 21
248.9620615900709
 31
0.0
  0
LINE
  5
210
330
70
100
AcDbEntity
  8
HONTAI
 62
     2
420
 16776960
370
    25
100
AcDbLine
 10
409.9730404163424
 20
248.9620615900709
 30
0.0
 11
412.4513911729834
 21
253.7957870318143
 31
0.0
  0
LINE
  5
211
330
70
100
AcDbEntity
  8
HONTAI
 62
     2
420
 16776960
370
    25
100
AcDbLine
 10
412.4513911729834
 20
253.7957870318143
 30
0.0
 11
404.3673336878526
 21
252.3809978570964
 31
0.0
  0
LINE
  5
212
330
70
100
AcDbEntity
  8
HONTAI
 62
     2
420
 16776960
370
    25
100
AcDbLine
 10
404.3673336878526
 20
252.3809978570964
 30
0.0
 11
405.1343122810115
 21
257.7453105109062
 31
0.0
  0
LINE
  5
213
330
70
100
AcDbEntity
  8
HONTAI
 62
     2
420
 16776960
370
    25
100
AcDbLine
 10
405.1343122810115
 20
257.7453105109062
 30
0.0
 11
397.1682281737892
 21
255.9767965281295
 31
0.0
  0
LINE
  5
214
330
70
100
AcDbEntity
  8
HONTAI
 62
     2
420
 16776960
370
    25
100
AcDbLine
 10
397.1682281737892
 20
255.9767965281295
 30
0.0
 11
397.1682281737892
 21
260.8246093299783
 31
0.0
  0
LINE
  5
215
330
70
100
AcDbEntity
  8
HONTAI
 62
     2
420
 16776960
370
    25
100
AcDbLine
 10
397.1682281737892
 20
260.8246093299783
 30
0.0
 11
389.0141145182246
 21
258.9972145842123
 31
0.0
  0
LINE
  5
216
330
70
100
AcDbEntity
  8
HONTAI
 62
     2
420
 16776960
370
    25
100
AcDbLine
 10
389.0141145182246
 20
258.9972145842123
 30
0.0
 11
390.1353165186384
 21
263.3003528138547
 31
0.0
  0
LINE
  5
217
330
70
100
AcDbEntity
  8
HONTAI
 62
     2
420
 16776960
370
    25
100
AcDbLine
 10
390.1353165186384
 20
263.3003528138547
 30
0.0
 11
382.9365142780671
 21
262.0035452801628
 31
0.0
  0
LINE
  5
218
330
70
100
AcDbEntity
  8
HONTAI
 62
     2
420
 16776960
370
    25
100
AcDbLine
 10
382.9365142780671
 20
262.0035452801628
 30
0.0
 11
383.5263811676421
 21
266.4835459138526
 31
0.0
  0
LINE
  5
219
330
70
100
AcDbEntity
  8
HONTAI
 62
     2
420
 16776960
370
    25
100
AcDbLine
 10
383.5263811676421
 20
266.4835459138526
 30
0.0
 11
375.4423236825113
 21
264.0666831929847
 31
0.0
  0
LINE
  5
21A
330
70
100
AcDbEntity
  8
HONTAI
 62
     2
420
 16776960
370
    25
100
AcDbLine
 10
375.4423236825113
 20
264.0666831929847
 30
0.0
 11
375.4423236825113
 21
267.9572158515713
 31
0.0
  0
LINE
  5
21B
330
70
100
AcDbEntity
  8
HONTAI
 62
     2
420
 16776960
370
    25
100
AcDbLine
 10
375.4423236825113
 20
267.9572158515713
 30
0.0
 11
368.0072714126757
 21
265.186738380153
 31
0.0
  0
LINE
  5
21C
330
70
100
AcDbEntity
  8
HONTAI
 62
     2
420
 16776960
370
    25
100
AcDbLine
 10
368.0072714126757
 20
265.186738380153
 30
0.0
 11
368.0072714126757
 21
269.5488674303084
 31
0.0
  0
LINE
  5
21D
330
70
100
AcDbEntity
  8
HONTAI
 62
     2
420
 16776960
370
    25
100
AcDbLine
 10
368.0072714126757
 20
269.5488674303084
 30
0.0
 11
359.9553609148274
 21
266.6729548729872
 31
0.0
  0
LINE
  5
21E
330
70
100
AcDbEntity
  8
HONTAI
 62
     2
420
 16776960
370
    25
100
AcDbLine
 10
359.9553609148274
 20
266.6729548729872
 30
0.0
 11
358.4159684394172
 21
270.9829087349378
 31
0.0
  0
LINE
  5
21F
330
70
100
AcDbEntity
  8
HONTAI
 62
     2
420
 16776960
370
    25
100
AcDbLine
 10
358.4159684394172
 20
270.9829087349378
 30
0.0
 11
352.5794469706735
 21
267.6751384766224
 31
0.0
  0
LINE
  5
220
330
70
100
AcDbEntity
  8
HONTAI
 62
     2
420
 16776960
370
    25
100
AcDbLine
 10
352.5794469706735
 20
267.6751384766224
 30
0.0
 11
349.7471760802709
 21
271.2709371476684
 31
0.0
  0
LINE
  5
221
330
70
100
AcDbEntity
  8
HONTAI
 62
     2
420
 16776960
370
    25
100
AcDbLine
 10
349.7471760802709
 20
271.2709371476684
 30
0.0
 11
345.4423301493504
 21
267.8801772822874
 31
0.0
  0
LINE
  5
222
330
70
100
AcDbEntity
  8
HONTAI
 62
     2
420
 16776960
370
    25
100
AcDbLine
 10
349.7471760802709
 20
271.2709371476684
 30
0.0
 11
342.5675745767115
 21
169.5038788985375
 31
0.0
  0
LINE
  5
223
330
70
100
AcDbEntity
  8
HONTAI
 62
     2
420
 16776960
370
    25
100
AcDbLine
 10
358.4159684394172
 20
270.9829087349378
 30
0.0
 11
343.4724395311047
 21
169.454228307064
 31
0.0
  0
LINE
  5
224
330
70
100
AcDbEntity
  8
HONTAI
 62
     2
420
 16776960
370
    25
100
AcDbLine
 10
366.6266720212704
 20
263.7179325924074
 30
0.0
 11
344.2902780520288
 21
169.3806045024439
 31
0.0
  0
LINE
  5
225
330
70
100
AcDbEntity
  8
HONTAI
 62
     2
420
 16776960
370
    25
100
AcDbLine
 10
373.8110540662347
 20
262.6834416313024
 30
0.0
 11
344.9271812923915
 21
169.3040136716099
 31
0.0
  0
LINE
  5
226
330
70
100
AcDbEntity
  8
HONTAI
 62
     2
420
 16776960
370
    25
100
AcDbLine
 10
381.3907352301395
 20
261.0029389063994
 30
0.0
 11
345.6181386929249
 21
169.2014189004899
 31
0.0
  0
LINE
  5
227
330
70
100
AcDbEntity
  8
HONTAI
 62
     2
420
 16776960
370
    25
100
AcDbLine
 10
387.7668748719679
 20
258.1996536748765
 30
0.0
 11
346.3781404760101
 21
169.064469705563
 31
0.0
  0
LINE
  5
228
330
70
100
AcDbEntity
  8
HONTAI
 62
     2
420
 16776960
370
    25
100
AcDbLine
 10
394.5554751591197
 20
256.0171887477155
 30
0.0
 11
347.201425332569
 21
168.8865520163991
 31
0.0
  0
LINE
  5
229
330
70
100
AcDbEntity
  8
HONTAI
 62
     2
420
 16776960
370
    25
100
AcDbLine
 10
401.118342377822
 20
251.4831323935613
 30
0.0
 11
348.0155397046632
 21
168.6789239743098
 31
0.0
  0
LINE
  5
22A
330
70
100
AcDbEntity
  8
HONTAI
 62
     2
420
 16776960
370
    25
100
AcDbLine
 10
408.2719130160801
 20
248.1813935778068
 30
0.0
 11
348.893858135679
 21
168.4174254179958
 31
0.0
  0
LINE
  5
22B
330
70
100
AcDbEntity
  8
HONTAI
 62
     2
420
 16776960
370
    25
100
AcDbLine
 10
413.9999205731936
 20
243.9687478775105
 30
0.0
 11
349.8906438749989
 21
168.0697876583429
 31
0.0
  0
LINE
  5
22C
330
70
100
AcDbEntity
  8
HONTAI
 62
     2
420
 16776960
370
    25
100
AcDbLine
 10
424.0273393349861
 20
244.7559940762637
 30
0.0
 11
351.1119506558247
 21
167.5618308167812
 31
0.0
  0
LINE
  5
22D
330
70
100
AcDbEntity
  8
HONTAI
 62
     2
420
 16776960
370
    25
100
AcDbLine
 10
425.1485413353998
 20
235.5011487638595
 30
0.0
 11
352.1876422173709
 21
167.0284808394958
 31
0.0
  0
LINE
  5
22E
330
70
100
AcDbEntity
  8
HONTAI
 62
     2
420
 16776960
370
    25
100
AcDbLine
 10
429.6330460635182
 20
229.4884873719392
 30
0.0
 11
353.0368151296169
 21
166.5405655812139
 31
0.0
  0
LINE
  5
22F
330
70
100
AcDbEntity
  8
HONTAI
 62
     2
420
 16776960
370
    25
100
AcDbLine
 10
431.3504836962381
 20
225.2768069255898
 30
0.0
 11
353.9216709293969
 21
165.9570445594152
 31
0.0
  0
LINE
  5
230
330
70
100
AcDbEntity
  8
HONTAI
 62
     2
420
 16776960
370
    25
100
AcDbLine
 10
434.3598662902233
 20
220.3252099003325
 30
0.0
 11
354.4944244391294
 21
165.5305335761874
 31
0.0
  0
LINE
  5
231
330
70
100
AcDbEntity
  8
HONTAI
 62
     2
420
 16776960
370
    25
100
AcDbLine
 10
435.7758500986773
 20
215.019888067028
 30
0.0
 11
355.2480222824849
 21
164.8974761370397
 31
0.0
  0
LINE
  5
232
330
70
100
AcDbEntity
  8
HONTAI
 62
     2
420
 16776960
370
    25
100
AcDbLine
 10
437.5431213040088
 20
209.9326470857232
 30
0.0
 11
355.9083757685183
 21
164.2582678102264
 31
0.0
  0
LINE
  5
233
330
70
100
AcDbEntity
  8
HONTAI
 62
     2
420
 16776960
370
    25
100
AcDbLine
 10
435.9962131825504
 20
203.2911281681189
 30
0.0
 11
356.4669483175941
 21
163.636124720328
 31
0.0
  0
LINE
  5
234
330
70
100
AcDbEntity
  8
HONTAI
 62
     2
420
 16776960
370
    25
100
AcDbLine
 10
438.1796771039037
 20
200.1617578618588
 30
0.0
 11
357.0079955046156
 21
162.9355421964206
 31
0.0
  0
LINE
  5
235
330
70
100
AcDbEntity
  8
HONTAI
 62
     2
420
 16776960
370
    25
100
AcDbLine
 10
435.6964175860439
 20
194.8836501499648
 30
0.0
 11
357.6538578740496
 21
161.9042140358262
 31
0.0
  0
LINE
  5
236
330
70
100
AcDbEntity
  8
HONTAI
 62
     2
420
 16776960
370
    25
100
AcDbLine
 10
433.8477306048006
 20
189.2355968727523
 30
0.0
 11
358.1715624898476
 21
160.7895355166965
 31
0.0
  0
LINE
  5
237
330
70
100
AcDbEntity
  8
HONTAI
 62
     2
420
 16776960
370
    25
100
AcDbLine
 10
431.3541229778238
 20
183.8431293703695
 30
0.0
 11
358.485925260585
 21
159.8079229708147
 31
0.0
  0
LINE
  5
238
330
70
100
AcDbEntity
  8
HONTAI
 62
     2
420
 16776960
370
    25
100
AcDbLine
 10
428.8733460334886
 20
179.666557266808
 30
0.0
 11
358.6823892406703
 21
158.7738457528967
 31
0.0
  0
LINE
  5
239
330
70
100
AcDbEntity
  8
HONTAI
 62
     2
420
 16776960
370
    25
100
AcDbLine
 10
427.0427873982949
 20
175.3464701820214
 30
0.0
 11
358.7429817454997
 21
157.9636010296304
 31
0.0
  0
LINE
  5
23A
330
70
100
AcDbEntity
  8
HONTAI
 62
     2
420
 16776960
370
    25
100
AcDbLine
 10
423.9221034426296
 20
171.15702135085
 30
0.0
 11
358.7268638982118
 21
157.2118990280927
 31
0.0
  0
LINE
  5
23B
330
70
100
AcDbEntity
  8
HONTAI
 62
     2
420
 16776960
370
    25
100
AcDbLine
 10
420.4226309290915
 20
168.4001910095499
 30
0.0
 11
358.6009831720236
 21
156.2318022379128
 31
0.0
  0
LINE
  5
23C
330
70
100
AcDbEntity
  8
HONTAI
 62
     2
420
 16776960
370
    25
100
AcDbLine
 10
416.8628069959842
 20
164.8947495467878
 30
0.0
 11
358.4167995181736
 21
155.4599670802488
 31
0.0
  0
LINE
  5
23D
330
70
100
AcDbEntity
  8
HONTAI
 62
     2
420
 16776960
370
    25
100
AcDbLine
 10
412.983029557231
 20
161.5733242255962
 30
0.0
 11
358.1421517680009
 21
154.6551356139816
 31
0.0
  0
LINE
  5
23E
330
70
100
AcDbEntity
  8
HONTAI
 62
     2
420
 16776960
370
    25
100
AcDbLine
 10
357.3173405707501
 20
153.0389185684631
 30
0.0
 11
404.5256424366082
 21
155.2345624583761
 31
0.0
  0
LINE
  5
23F
330
70
100
AcDbEntity
  8
HONTAI
 62
     2
420
 16776960
370
    25
100
AcDbLine
 10
408.5625155302678
 20
158.188501125753
 30
0.0
 11
357.8363200169758
 21
153.9648373351171
 31
0.0
  0
LINE
  5
240
330
70
100
AcDbEntity
  8
HONTAI
 62
     2
420
 16776960
370
    25
100
AcDbLine
 10
411.2070601457366
 20
151.3078208819886
 30
0.0
 11
356.7977662918818
 21
152.2889305376237
 31
0.0
  0
LINE
  5
241
330
70
100
AcDbEntity
  8
HONTAI
 62
     2
420
 16776960
370
    25
100
AcDbLine
 10
405.3651033879415
 20
148.3014901860189
 30
0.0
 11
356.2791245450246
 21
151.651650048891
 31
0.0
  0
LINE
  5
242
330
70
100
AcDbEntity
  8
HONTAI
 62
     2
420
 16776960
370
    25
100
AcDbLine
 10
395.3928653092393
 20
147.8888846149631
 30
0.0
 11
355.7230706744914
 21
151.055946667123
 31
0.0
  0
LINE
  5
243
330
70
100
AcDbEntity
  8
HONTAI
 62
     2
420
 16776960
370
    25
100
AcDbLine
 10
390.436163796001
 20
145.825636644638
 30
0.0
 11
355.0582729352524
 21
150.4327036311858
 31
0.0
  0
LINE
  5
244
330
70
100
AcDbEntity
  8
HONTAI
 62
     2
420
 16776960
370
    25
100
AcDbLine
 10
384.2402869044441
 20
142.7604251856854
 30
0.0
 11
354.4889574821185
 21
149.9594452568646
 31
0.0
  0
LINE
  5
245
330
70
100
AcDbEntity
  8
HONTAI
 62
     2
420
 16776960
370
    25
100
AcDbLine
 10
378.1827027129641
 20
142.2298379736113
 30
0.0
 11
353.7895035068629
 21
149.4396791799929
 31
0.0
  0
LINE
  5
246
330
70
100
AcDbEntity
  8
HONTAI
 62
     2
420
 16776960
370
    25
100
AcDbLine
 10
372.6361343101534
 20
140.3826328776623
 30
0.0
 11
352.7442379147506
 21
148.7660192548545
 31
0.0
  0
LINE
  5
247
330
70
100
AcDbEntity
  8
HONTAI
 62
     2
420
 16776960
370
    25
100
AcDbLine
 10
367.6384908791225
 20
139.4653036072577
 30
0.0
 11
351.8785179902321
 21
148.2851385765571
 31
0.0
  0
LINE
  5
248
330
70
100
AcDbEntity
  8
HONTAI
 62
     2
420
 16776960
370
    25
100
AcDbLine
 10
366.7941775523583
 20
132.9551823110305
 30
0.0
 11
351.0144443496326
 21
147.8639046008638
 31
0.0
  0
LINE
  5
249
330
70
100
AcDbEntity
  8
HONTAI
 62
     2
420
 16776960
370
    25
100
AcDbLine
 10
360.5983006608001
 20
132.0119895278814
 30
0.0
 11
350.3536204110529
 21
147.5768012819592
 31
0.0
  0
LINE
  5
24A
330
70
100
AcDbEntity
  8
HONTAI
 62
     2
420
 16776960
370
    25
100
AcDbLine
 10
354.0191565510685
 20
131.0069223800164
 30
0.0
 11
349.6721778464427
 21
147.252807577046
 31
0.0
  0
LINE
  5
24B
330
70
100
AcDbEntity
  8
HONTAI
 62
     2
420
 16776960
370
    25
100
AcDbLine
 10
350.835321273008
 20
275.860114822305
 30
0.0
 11
349.7471760802709
 21
271.2709371476684
 31
0.0
  0
LINE
  5
24C
330
70
100
AcDbEntity
  8
HONTAI
 62
     2
420
 16776960
370
    25
100
AcDbLine
 10
345.9459946385893
 20
284.3014150876809
 30
0.0
 11
349.8354286586336
 21
279.7106966080429
 31
0.0
  0
LINE
  5
24D
330
70
100
AcDbEntity
  8
HONTAI
 62
     2
420
 16776960
370
    25
100
AcDbLine
 10
349.8354286586336
 20
279.7106966080429
 30
0.0
 11
354.4867226333805
 21
283.4920254922555
 31
0.0
  0
LINE
  5
24E
330
70
100
AcDbEntity
  8
HONTAI
 62
     2
420
 16776960
370
    25
100
AcDbLine
 10
354.4867226333805
 20
283.4920254922555
 30
0.0
 11
354.9116199171191
 21
280.753271314532
 31
0.0
  0
LINE
  5
24F
330
70
100
AcDbEntity
  8
HONTAI
 62
     2
420
 16776960
370
    25
100
AcDbLine
 10
354.9116199171191
 20
280.753271314532
 30
0.0
 11
350.835321273008
 21
275.860114822305
 31
0.0
  0
LINE
  5
250
330
70
100
AcDbEntity
  8
HONTAI
 62
     2
420
 16776960
370
    25
100
AcDbLine
 10
358.4159684394172
 20
270.9829087349378
 30
0.0
 11
359.2757250795935
 21
275.5877225074508
 31
0.0
  0
LINE
  5
251
330
70
100
AcDbEntity
  8
HONTAI
 62
     2
420
 16776960
370
    25
100
AcDbLine
 10
359.2757250795935
 20
275.5877225074508
 30
0.0
 11
354.9116199171191
 21
280.753271314532
 31
0.0
  0
LINE
  5
252
330
70
100
AcDbEntity
  8
HONTAI
 62
     2
420
 16776960
370
    25
100
AcDbLine
 10
359.2757250795935
 20
275.5877225074508
 30
0.0
 11
363.7350581101074
 21
280.1372794817329
 31
0.0
  0
LINE
  5
253
330
70
100
AcDbEntity
  8
HONTAI
 62
     2
420
 16776960
370
    25
100
AcDbLine
 10
363.7350581101074
 20
280.1372794817329
 30
0.0
 11
362.1222498227996
 21
283.5019574007658
 31
0.0
  0
LINE
  5
254
330
70
100
AcDbEntity
  8
HONTAI
 62
     2
420
 16776960
370
    25
100
AcDbLine
 10
362.1222498227996
 20
283.5019574007658
 30
0.0
 11
357.8527659814614
 21
280.0424099159044
 31
0.0
  0
LINE
  5
255
330
70
100
AcDbEntity
  8
HONTAI
 62
     2
420
 16776960
370
    25
100
AcDbLine
 10
357.8527659814614
 20
280.0424099159044
 30
0.0
 11
354.4867226333805
 21
283.4920254922555
 31
0.0
  0
LINE
  5
256
330
70
100
AcDbEntity
  8
HONTAI
 62
     2
420
 16776960
370
    25
100
AcDbLine
 10
368.0072714126757
 20
269.5488674303084
 30
0.0
 11
368.0072714126757
 21
274.1659997101686
 31
0.0
  0
LINE
  5
257
330
70
100
AcDbEntity
  8
HONTAI
 62
     2
420
 16776960
370
    25
100
AcDbLine
 10
368.0072714126757
 20
274.1659997101686
 30
0.0
 11
372.0844798771835
 21
278.8576409181776
 31
0.0
  0
LINE
  5
258
330
70
100
AcDbEntity
  8
HONTAI
 62
     2
420
 16776960
370
    25
100
AcDbLine
 10
372.0844798771835
 20
278.8576409181776
 30
0.0
 11
369.7125781067918
 21
282.6015769855055
 31
0.0
  0
LINE
  5
259
330
70
100
AcDbEntity
  8
HONTAI
 62
     2
420
 16776960
370
    25
100
AcDbLine
 10
369.7125781067918
 20
282.6015769855055
 30
0.0
 11
366.007583298073
 21
280.2543457325955
 31
0.0
  0
LINE
  5
25A
330
70
100
AcDbEntity
  8
HONTAI
 62
     2
420
 16776960
370
    25
100
AcDbLine
 10
366.007583298073
 20
280.2543457325955
 30
0.0
 11
362.1222498227996
 21
283.5019574007658
 31
0.0
  0
LINE
  5
25B
330
70
100
AcDbEntity
  8
HONTAI
 62
     2
420
 16776960
370
    25
100
AcDbLine
 10
363.7350581101074
 20
280.1372794817329
 30
0.0
 11
368.0072714126757
 21
274.1659997101686
 31
0.0
  0
LINE
  5
25C
330
70
100
AcDbEntity
  8
HONTAI
 62
     2
420
 16776960
370
    25
100
AcDbLine
 10
372.0844798771835
 20
278.8576409181776
 30
0.0
 11
376.2669242340504
 21
272.2167713108511
 31
0.0
  0
LINE
  5
25D
330
70
100
AcDbEntity
  8
HONTAI
 62
     2
420
 16776960
370
    25
100
AcDbLine
 10
376.2669242340504
 20
272.2167713108511
 30
0.0
 11
375.4423236825113
 21
267.9572158515713
 31
0.0
  0
LINE
  5
25E
330
70
100
AcDbEntity
  8
HONTAI
 62
     2
420
 16776960
370
    25
100
AcDbLine
 10
376.2669242340504
 20
272.2167713108511
 30
0.0
 11
381.168126703194
 21
277.1606643110152
 31
0.0
  0
LINE
  5
25F
330
70
100
AcDbEntity
  8
HONTAI
 62
     2
420
 16776960
370
    25
100
AcDbLine
 10
381.168126703194
 20
277.1606643110152
 30
0.0
 11
377.9325021042627
 21
281.1538806180012
 31
0.0
  0
LINE
  5
260
330
70
100
AcDbEntity
  8
HONTAI
 62
     2
420
 16776960
370
    25
100
AcDbLine
 10
377.9325021042627
 20
281.1538806180012
 30
0.0
 11
374.644003381772
 21
278.4892748110411
 31
0.0
  0
LINE
  5
261
330
70
100
AcDbEntity
  8
HONTAI
 62
     2
420
 16776960
370
    25
100
AcDbLine
 10
374.644003381772
 20
278.4892748110411
 30
0.0
 11
369.7125781067918
 21
282.6015769855055
 31
0.0
  0
LINE
  5
262
330
70
100
AcDbEntity
  8
HONTAI
 62
     2
420
 16776960
370
    25
100
AcDbLine
 10
381.168126703194
 20
277.1606643110152
 30
0.0
 11
384.8322767082624
 21
270.3628527073418
 31
0.0
  0
LINE
  5
263
330
70
100
AcDbEntity
  8
HONTAI
 62
     2
420
 16776960
370
    25
100
AcDbLine
 10
384.8322767082624
 20
270.3628527073418
 30
0.0
 11
383.5263811676421
 21
266.4835459138526
 31
0.0
  0
LINE
  5
264
330
70
100
AcDbEntity
  8
HONTAI
 62
     2
420
 16776960
370
    25
100
AcDbLine
 10
384.8322767082624
 20
270.3628527073418
 30
0.0
 11
389.0674906481158
 21
274.7838625204993
 31
0.0
  0
LINE
  5
265
330
70
100
AcDbEntity
  8
HONTAI
 62
     2
420
 16776960
370
    25
100
AcDbLine
 10
389.0674906481158
 20
274.7838625204993
 30
0.0
 11
385.4985685110447
 21
278.9671481316263
 31
0.0
  0
LINE
  5
266
330
70
100
AcDbEntity
  8
HONTAI
 62
     2
420
 16776960
370
    25
100
AcDbLine
 10
385.4985685110447
 20
278.9671481316263
 30
0.0
 11
382.3102545726808
 21
277.3508436726711
 31
0.0
  0
LINE
  5
267
330
70
100
AcDbEntity
  8
HONTAI
 62
     2
420
 16776960
370
    25
100
AcDbLine
 10
382.3102545726808
 20
277.3508436726711
 30
0.0
 11
377.9325021042627
 21
281.1538806180012
 31
0.0
  0
LINE
  5
268
330
70
100
AcDbEntity
  8
HONTAI
 62
     2
420
 16776960
370
    25
100
AcDbLine
 10
389.0674906481158
 20
274.7838625204993
 30
0.0
 11
392.4462603225165
 21
267.8908511784953
 31
0.0
  0
LINE
  5
269
330
70
100
AcDbEntity
  8
HONTAI
 62
     2
420
 16776960
370
    25
100
AcDbLine
 10
392.4462603225165
 20
267.8908511784953
 30
0.0
 11
390.1353165186384
 21
263.3003528138547
 31
0.0
  0
LINE
  5
26A
330
70
100
AcDbEntity
  8
HONTAI
 62
     2
420
 16776960
370
    25
100
AcDbLine
 10
392.4462603225165
 20
267.8908511784953
 30
0.0
 11
396.8240127909358
 21
271.9790471087938
 31
0.0
  0
LINE
  5
26B
330
70
100
AcDbEntity
  8
HONTAI
 62
     2
420
 16776960
370
    25
100
AcDbLine
 10
396.8240127909358
 20
271.9790471087938
 30
0.0
 11
392.8744824552435
 21
276.8755053260725
 31
0.0
  0
LINE
  5
26C
330
70
100
AcDbEntity
  8
HONTAI
 62
     2
420
 16776960
370
    25
100
AcDbLine
 10
392.8744824552435
 20
276.8755053260725
 30
0.0
 11
389.8290103188966
 21
275.4018353883331
 31
0.0
  0
LINE
  5
26D
330
70
100
AcDbEntity
  8
HONTAI
 62
     2
420
 16776960
370
    25
100
AcDbLine
 10
389.8290103188966
 20
275.4018353883331
 30
0.0
 11
385.4985685110447
 21
278.9671481316263
 31
0.0
  0
LINE
  5
26E
330
70
100
AcDbEntity
  8
HONTAI
 62
     2
420
 16776960
370
    25
100
AcDbLine
 10
397.1057538400177
 20
272.6316880894181
 30
0.0
 11
399.6684146198999
 21
273.3009477527026
 31
0.0
  0
LINE
  5
26F
330
70
100
AcDbEntity
  8
HONTAI
 62
     2
420
 16776960
370
    25
100
AcDbLine
 10
399.6684146198999
 20
273.3009477527026
 30
0.0
 11
404.2984906112665
 21
268.4846113961098
 31
0.0
  0
LINE
  5
270
330
70
100
AcDbEntity
  8
HONTAI
 62
     2
420
 16776960
370
    25
100
AcDbLine
 10
404.2984906112665
 20
268.4846113961098
 30
0.0
 11
400.4745848987376
 21
264.808586151613
 31
0.0
  0
LINE
  5
271
330
70
100
AcDbEntity
  8
HONTAI
 62
     2
420
 16776960
370
    25
100
AcDbLine
 10
400.4745848987376
 20
264.808586151613
 30
0.0
 11
396.8240127909358
 21
271.9790471087938
 31
0.0
  0
LINE
  5
272
330
70
100
AcDbEntity
  8
HONTAI
 62
     2
420
 16776960
370
    25
100
AcDbLine
 10
400.4745848987376
 20
264.808586151613
 30
0.0
 11
397.1682281737892
 21
260.8246093299783
 31
0.0
  0
LINE
  5
273
330
70
100
AcDbEntity
  8
HONTAI
 62
     2
420
 16776960
370
    25
100
AcDbLine
 10
404.7394502295007
 20
268.9095434072939
 30
0.0
 11
407.1626052154557
 21
269.7244091443312
 31
0.0
  0
LINE
  5
274
330
70
100
AcDbEntity
  8
HONTAI
 62
     2
420
 16776960
370
    25
100
AcDbLine
 10
407.1626052154557
 20
269.7244091443312
 30
0.0
 11
411.6495361313107
 21
264.8605279473306
 31
0.0
  0
LINE
  5
275
330
70
100
AcDbEntity
  8
HONTAI
 62
     2
420
 16776960
370
    25
100
AcDbLine
 10
411.6495361313107
 20
264.8605279473306
 30
0.0
 11
407.6670744195194
 21
261.1867065992931
 31
0.0
  0
LINE
  5
276
330
70
100
AcDbEntity
  8
HONTAI
 62
     2
420
 16776960
370
    25
100
AcDbLine
 10
407.6670744195194
 20
261.1867065992931
 30
0.0
 11
404.2984906112704
 21
268.4846113961098
 31
0.0
  0
LINE
  5
277
330
70
100
AcDbEntity
  8
HONTAI
 62
     2
420
 16776960
370
    25
100
AcDbLine
 10
397.1057538400177
 20
272.6316880894181
 30
0.0
 11
392.8744824552435
 21
276.8755053260725
 31
0.0
  0
LINE
  5
278
330
70
100
AcDbEntity
  8
HONTAI
 62
     2
420
 16776960
370
    25
100
AcDbLine
 10
404.7394502295007
 20
268.9095434072939
 30
0.0
 11
399.6684146198999
 21
273.3009477527026
 31
0.0
  0
LINE
  5
279
330
70
100
AcDbEntity
  8
HONTAI
 62
     2
420
 16776960
370
    25
100
AcDbLine
 10
407.6670744195194
 20
261.1867065992931
 30
0.0
 11
405.1343122810115
 21
257.7453105109062
 31
0.0
  0
LINE
  5
27A
330
70
100
AcDbEntity
  8
HONTAI
 62
     2
420
 16776960
370
    25
100
AcDbLine
 10
412.4513911729834
 20
253.7957870318143
 30
0.0
 11
415.2054175093402
 21
257.4969107312457
 31
0.0
  0
LINE
  5
27B
330
70
100
AcDbEntity
  8
HONTAI
 62
     2
420
 16776960
370
    25
100
AcDbLine
 10
415.2054175093402
 20
257.4969107312457
 30
0.0
 11
419.2516920804147
 21
260.8140438098977
 31
0.0
  0
LINE
  5
27C
330
70
100
AcDbEntity
  8
HONTAI
 62
     2
420
 16776960
370
    25
100
AcDbLine
 10
419.2516920804147
 20
260.8140438098977
 30
0.0
 11
420.9915719495897
 21
252.7026959323612
 31
0.0
  0
LINE
  5
27D
330
70
100
AcDbEntity
  8
HONTAI
 62
     2
420
 16776960
370
    25
100
AcDbLine
 10
420.9915719495897
 20
252.7026959323612
 30
0.0
 11
418.7652414424463
 21
249.6104103281825
 31
0.0
  0
LINE
  5
27E
330
70
100
AcDbEntity
  8
HONTAI
 62
     2
420
 16776960
370
    25
100
AcDbLine
 10
415.2054175093402
 20
257.4969107312457
 30
0.0
 11
411.6495361313107
 21
264.8605279473306
 31
0.0
  0
LINE
  5
27F
330
70
100
AcDbEntity
  8
HONTAI
 62
     2
420
 16776960
370
    25
100
AcDbLine
 10
411.6495361313107
 20
264.8605279473306
 30
0.0
 11
414.2252376701923
 21
265.4973206478352
 31
0.0
  0
LINE
  5
280
330
70
100
AcDbEntity
  8
HONTAI
 62
     2
420
 16776960
370
    25
100
AcDbLine
 10
414.2252376701923
 20
265.4973206478352
 30
0.0
 11
419.2516920804147
 21
260.8140438098977
 31
0.0
  0
LINE
  5
281
330
70
100
AcDbEntity
  8
HONTAI
 62
     2
420
 16776960
370
    25
100
AcDbLine
 10
420.9915719495897
 20
252.7026959323612
 30
0.0
 11
425.533698636046
 21
256.3391058212687
 31
0.0
  0
LINE
  5
282
330
70
100
AcDbEntity
  8
HONTAI
 62
     2
420
 16776960
370
    25
100
AcDbLine
 10
425.533698636046
 20
256.3391058212687
 30
0.0
 11
427.0388448432171
 21
247.850370772974
 31
0.0
  0
LINE
  5
283
330
70
100
AcDbEntity
  8
HONTAI
 62
     2
420
 16776960
370
    25
100
AcDbLine
 10
427.0388448432171
 20
247.850370772974
 30
0.0
 11
424.0273393349861
 21
244.7559940762637
 31
0.0
  0
LINE
  5
284
330
70
100
AcDbEntity
  8
HONTAI
 62
     2
420
 16776960
370
    25
100
AcDbLine
 10
425.533698636046
 20
256.3391058212687
 30
0.0
 11
420.9694329866266
 21
260.9957487439661
 31
0.0
  0
LINE
  5
285
330
70
100
AcDbEntity
  8
HONTAI
 62
     2
420
 16776960
370
    25
100
AcDbLine
 10
420.9694329866266
 20
260.9957487439661
 30
0.0
 11
419.2516920804147
 21
260.8140438098977
 31
0.0
  0
LINE
  5
286
330
70
100
AcDbEntity
  8
HONTAI
 62
     2
420
 16776960
370
    25
100
AcDbLine
 10
427.0388448432171
 20
247.850370772974
 30
0.0
 11
430.679339518021
 21
250.541606843704
 31
0.0
  0
LINE
  5
287
330
70
100
AcDbEntity
  8
HONTAI
 62
     2
420
 16776960
370
    25
100
AcDbLine
 10
430.679339518021
 20
250.541606843704
 30
0.0
 11
425.533698636046
 21
256.3391058212687
 31
0.0
  0
LINE
  5
288
330
70
100
AcDbEntity
  8
HONTAI
 62
     2
420
 16776960
370
    25
100
AcDbLine
 10
430.679339518021
 20
250.541606843704
 30
0.0
 11
432.3867691264239
 21
242.6467420705411
 31
0.0
  0
LINE
  5
289
330
70
100
AcDbEntity
  8
HONTAI
 62
     2
420
 16776960
370
    25
100
AcDbLine
 10
432.3867691264239
 20
242.6467420705411
 30
0.0
 11
434.9724786896634
 21
244.498679639049
 31
0.0
  0
LINE
  5
28A
330
70
100
AcDbEntity
  8
HONTAI
 62
     2
420
 16776960
370
    25
100
AcDbLine
 10
434.9724786896634
 20
244.498679639049
 30
0.0
 11
430.679339518021
 21
250.541606843704
 31
0.0
  0
LINE
  5
28B
330
70
100
AcDbEntity
  8
HONTAI
 62
     2
420
 16776960
370
    25
100
AcDbLine
 10
432.3867691264239
 20
242.6467420705411
 30
0.0
 11
428.6301207145051
 21
239.9222686345215
 31
0.0
  0
LINE
  5
28C
330
70
100
AcDbEntity
  8
HONTAI
 62
     2
420
 16776960
370
    25
100
AcDbLine
 10
434.9724786896634
 20
244.498679639049
 30
0.0
 11
436.0454602091142
 21
236.5550593929582
 31
0.0
  0
LINE
  5
28D
330
70
100
AcDbEntity
  8
HONTAI
 62
     2
420
 16776960
370
    25
100
AcDbLine
 10
436.0454602091142
 20
236.5550593929582
 30
0.0
 11
433.0554871169442
 21
234.2633320506729
 31
0.0
  0
LINE
  5
28E
330
70
100
AcDbEntity
  8
HONTAI
 62
     2
420
 16776960
370
    25
100
AcDbLine
 10
436.0454602091142
 20
236.5550593929582
 30
0.0
 11
439.8018053475795
 21
239.0892434098392
 31
0.0
  0
LINE
  5
28F
330
70
100
AcDbEntity
  8
HONTAI
 62
     2
420
 16776960
370
    25
100
AcDbLine
 10
439.8018053475795
 20
239.0892434098392
 30
0.0
 11
434.9724786896634
 21
244.498679639049
 31
0.0
  0
LINE
  5
290
330
70
100
AcDbEntity
  8
HONTAI
 62
     2
420
 16776960
370
    25
100
AcDbLine
 10
439.8018053475795
 20
239.0892434098392
 30
0.0
 11
439.8018053475795
 21
231.7792241967238
 31
0.0
  0
LINE
  5
291
330
70
100
AcDbEntity
  8
HONTAI
 62
     2
420
 16776960
370
    25
100
AcDbLine
 10
439.8018053475795
 20
231.7792241967238
 30
0.0
 11
442.8263516148112
 21
233.5336508193682
 31
0.0
  0
LINE
  5
292
330
70
100
AcDbEntity
  8
HONTAI
 62
     2
420
 16776960
370
    25
100
AcDbLine
 10
442.8263516148112
 20
233.5336508193682
 30
0.0
 11
439.8018053475795
 21
239.0892434098392
 31
0.0
  0
LINE
  5
293
330
70
100
AcDbEntity
  8
HONTAI
 62
     2
420
 16776960
370
    25
100
AcDbLine
 10
439.8018053475795
 20
231.7792241967238
 30
0.0
 11
435.6521145249409
 21
228.9580102173684
 31
0.0
  0
LINE
  5
294
330
70
100
AcDbEntity
  8
HONTAI
 62
     2
420
 16776960
370
    25
100
AcDbLine
 10
442.8263516148112
 20
233.5336508193682
 30
0.0
 11
442.8263516148112
 21
225.7479630871521
 31
0.0
  0
LINE
  5
295
330
70
100
AcDbEntity
  8
HONTAI
 62
     2
420
 16776960
370
    25
100
AcDbLine
 10
442.8263516148112
 20
225.7479630871521
 30
0.0
 11
439.1982911521033
 21
223.6262745838442
 31
0.0
  0
LINE
  5
296
330
70
100
AcDbEntity
  8
HONTAI
 62
     2
420
 16776960
370
    25
100
AcDbLine
 10
442.8263516148112
 20
225.7479630871521
 30
0.0
 11
445.314710395769
 21
227.5679839803731
 31
0.0
  0
LINE
  5
297
330
70
100
AcDbEntity
  8
HONTAI
 62
     2
420
 16776960
370
    25
100
AcDbLine
 10
445.314710395769
 20
227.5679839803731
 30
0.0
 11
442.8263516148112
 21
231.2646509741557
 31
0.0
  0
LINE
  5
298
330
70
100
AcDbEntity
  8
HONTAI
 62
     2
420
 16776960
370
    25
100
AcDbLine
 10
445.314710395769
 20
227.5679839803731
 30
0.0
 11
444.7436464610251
 21
220.4622314890254
 31
0.0
  0
LINE
  5
299
330
70
100
AcDbEntity
  8
HONTAI
 62
     2
420
 16776960
370
    25
100
AcDbLine
 10
444.7436464610251
 20
220.4622314890254
 30
0.0
 11
441.7949185601013
 21
218.6156867380804
 31
0.0
  0
LINE
  5
29A
330
70
100
AcDbEntity
  8
HONTAI
 62
     2
420
 16776960
370
    25
100
AcDbLine
 10
444.7436464610251
 20
220.4622314890254
 30
0.0
 11
446.9626984050406
 21
221.5953835188048
 31
0.0
  0
LINE
  5
29B
330
70
100
AcDbEntity
  8
HONTAI
 62
     2
420
 16776960
370
    25
100
AcDbLine
 10
446.9626984050406
 20
221.5953835188048
 30
0.0
 11
445.1811252123753
 21
225.9057826190996
 31
0.0
  0
LINE
  5
29C
330
70
100
AcDbEntity
  8
HONTAI
 62
     2
420
 16776960
370
    25
100
AcDbLine
 10
446.9626984050406
 20
221.5953835188048
 30
0.0
 11
446.2745709127437
 21
215.2713694567003
 31
0.0
  0
LINE
  5
29D
330
70
100
AcDbEntity
  8
HONTAI
 62
     2
420
 16776960
370
    25
100
AcDbLine
 10
446.2745709127437
 20
215.2713694567003
 30
0.0
 11
442.9158172870205
 21
213.1067585280069
 31
0.0
  0
LINE
  5
29E
330
70
100
AcDbEntity
  8
HONTAI
 62
     2
420
 16776960
370
    25
100
AcDbLine
 10
446.2745709127437
 20
215.2713694567003
 30
0.0
 11
447.9146738119005
 21
216.0657644985559
 31
0.0
  0
LINE
  5
29F
330
70
100
AcDbEntity
  8
HONTAI
 62
     2
420
 16776960
370
    25
100
AcDbLine
 10
447.9146738119005
 20
216.0657644985559
 30
0.0
 11
446.8422988393953
 21
219.7080074350058
 31
0.0
  0
LINE
  5
2A0
330
70
100
AcDbEntity
  8
HONTAI
 62
     2
420
 16776960
370
    25
100
AcDbLine
 10
447.9146738119005
 20
216.0657644985559
 30
0.0
 11
447.0297218407933
 21
209.0358416253609
 31
0.0
  0
LINE
  5
2A1
330
70
100
AcDbEntity
  8
HONTAI
 62
     2
420
 16776960
370
    25
100
AcDbLine
 10
447.0297218407933
 20
209.0358416253609
 30
0.0
 11
443.9778809617128
 21
207.2709595401314
 31
0.0
  0
LINE
  5
2A2
330
70
100
AcDbEntity
  8
HONTAI
 62
     2
420
 16776960
370
    25
100
AcDbLine
 10
447.4721978263456
 20
212.5508030619584
 30
0.0
 11
448.3234864428085
 21
209.6783573159303
 31
0.0
  0
LINE
  5
2A3
330
70
100
AcDbEntity
  8
HONTAI
 62
     2
420
 16776960
370
    25
100
AcDbLine
 10
448.3234864428085
 20
209.6783573159303
 30
0.0
 11
447.0297218407933
 21
209.0358416253609
 31
0.0
  0
LINE
  5
2A4
330
70
100
AcDbEntity
  8
HONTAI
 62
     2
420
 16776960
370
    25
100
AcDbLine
 10
448.3234864428085
 20
209.6783573159303
 30
0.0
 11
448.1233259558636
 21
204.5425240340819
 31
0.0
  0
LINE
  5
2A5
330
70
100
AcDbEntity
  8
HONTAI
 62
     2
420
 16776960
370
    25
100
AcDbLine
 10
448.1233259558636
 20
204.5425240340819
 30
0.0
 11
443.2697374207821
 21
202.4961148614042
 31
0.0
  0
LINE
  5
2A6
330
70
100
AcDbEntity
  8
HONTAI
 62
     2
420
 16776960
370
    25
100
AcDbLine
 10
448.3234864428085
 20
209.6783573159303
 30
0.0
 11
447.0591393669267
 21
204.0938330951362
 31
0.0
  0
LINE
  5
2A7
330
70
100
AcDbEntity
  8
HONTAI
 62
     2
420
 16776960
370
    25
100
AcDbLine
 10
448.1233259558636
 20
204.5425240340819
 30
0.0
 11
446.6051389896931
 21
197.9063868992861
 31
0.0
  0
LINE
  5
2A8
330
70
100
AcDbEntity
  8
HONTAI
 62
     2
420
 16776960
370
    25
100
AcDbLine
 10
446.6051389896931
 20
197.9063868992861
 30
0.0
 11
443.3880140721404
 21
198.1339858112488
 31
0.0
  0
LINE
  5
2A9
330
70
100
AcDbEntity
  8
HONTAI
 62
     2
420
 16776960
370
    25
100
AcDbLine
 10
446.6051389896931
 20
197.9063868992861
 30
0.0
 11
445.1209186515976
 21
192.2816781982292
 31
0.0
  0
LINE
  5
2AA
330
70
100
AcDbEntity
  8
HONTAI
 62
     2
420
 16776960
370
    25
100
AcDbLine
 10
445.1209186515976
 20
192.2816781982292
 30
0.0
 11
443.0929289906056
 21
192.7107923944304
 31
0.0
  0
LINE
  5
2AB
330
70
100
AcDbEntity
  8
HONTAI
 62
     2
420
 16776960
370
    25
100
AcDbLine
 10
445.1209186515976
 20
192.2816781982292
 30
0.0
 11
443.6876482556552
 21
187.9864641086325
 31
0.0
  0
LINE
  5
2AC
330
70
100
AcDbEntity
  8
HONTAI
 62
     2
420
 16776960
370
    25
100
AcDbLine
 10
443.6876482556552
 20
187.9864641086325
 30
0.0
 11
440.9117862297864
 21
188.0221227389506
 31
0.0
  0
LINE
  5
2AD
330
70
100
AcDbEntity
  8
HONTAI
 62
     2
420
 16776960
370
    25
100
AcDbLine
 10
443.6876482556552
 20
187.9864641086325
 30
0.0
 11
442.5709953572225
 21
183.1488866543829
 31
0.0
  0
LINE
  5
2AE
330
70
100
AcDbEntity
  8
HONTAI
 62
     2
420
 16776960
370
    25
100
AcDbLine
 10
442.5709953572225
 20
183.1488866543829
 30
0.0
 11
440.1243890305003
 21
183.7136342107584
 31
0.0
  0
LINE
  5
2AF
330
70
100
AcDbEntity
  8
HONTAI
 62
     2
420
 16776960
370
    25
100
AcDbLine
 10
440.1243890305003
 20
183.7136342107584
 30
0.0
 11
440.1578483955858
 21
179.1992531177801
 31
0.0
  0
LINE
  5
2B0
330
70
100
AcDbEntity
  8
HONTAI
 62
     2
420
 16776960
370
    25
100
AcDbLine
 10
440.1578483955858
 20
179.1992531177801
 30
0.0
 11
438.1271292734472
 21
178.8096495644159
 31
0.0
  0
LINE
  5
2B1
330
70
100
AcDbEntity
  8
HONTAI
 62
     2
420
 16776960
370
    25
100
AcDbLine
 10
438.1271292734472
 20
178.8096495644159
 30
0.0
 11
437.7959546495532
 21
173.8648761042287
 31
0.0
  0
LINE
  5
2B2
330
70
100
AcDbEntity
  8
HONTAI
 62
     2
420
 16776960
370
    25
100
AcDbLine
 10
437.7959546495532
 20
173.8648761042287
 30
0.0
 11
435.5896401911296
 21
173.7990617186533
 31
0.0
  0
LINE
  5
2B3
330
70
100
AcDbEntity
  8
HONTAI
 62
     2
420
 16776960
370
    25
100
AcDbLine
 10
435.5896401911296
 20
173.7990617186533
 30
0.0
 11
434.5099866554542
 21
169.4023746132043
 31
0.0
  0
LINE
  5
2B4
330
70
100
AcDbEntity
  8
HONTAI
 62
     2
420
 16776960
370
    25
100
AcDbLine
 10
434.5099866554542
 20
169.4023746132043
 30
0.0
 11
432.1671991377036
 21
169.3189510274809
 31
0.0
  0
LINE
  5
2B5
330
70
100
AcDbEntity
  8
HONTAI
 62
     2
420
 16776960
370
    25
100
AcDbLine
 10
432.1671991377036
 20
169.3189510274809
 30
0.0
 11
431.2109779023121
 21
165.1800185892517
 31
0.0
  0
LINE
  5
2B6
330
70
100
AcDbEntity
  8
HONTAI
 62
     2
420
 16776960
370
    25
100
AcDbLine
 10
431.2109779023121
 20
165.1800185892517
 30
0.0
 11
428.5676463806912
 21
165.7907098172059
 31
0.0
  0
LINE
  5
2B7
330
70
100
AcDbEntity
  8
HONTAI
 62
     2
420
 16776960
370
    25
100
AcDbLine
 10
428.5676463806912
 20
165.7907098172059
 30
0.0
 11
426.9229943795544
 21
161.1027183515359
 31
0.0
  0
LINE
  5
2B8
330
70
100
AcDbEntity
  8
HONTAI
 62
     2
420
 16776960
370
    25
100
AcDbLine
 10
426.9229943795544
 20
161.1027183515359
 30
0.0
 11
424.6733118156411
 21
161.8326196978394
 31
0.0
  0
LINE
  5
2B9
330
70
100
AcDbEntity
  8
HONTAI
 62
     2
420
 16776960
370
    25
100
AcDbLine
 10
424.6733118156411
 20
161.8326196978394
 30
0.0
 11
423.3891560607697
 21
157.874628901261
 31
0.0
  0
LINE
  5
2BA
330
70
100
AcDbEntity
  8
HONTAI
 62
     2
420
 16776960
370
    25
100
AcDbLine
 10
423.3891560607697
 20
157.874628901261
 30
0.0
 11
421.0010951571518
 21
158.649426597862
 31
0.0
  0
LINE
  5
2BB
330
70
100
AcDbEntity
  8
HONTAI
 62
     2
420
 16776960
370
    25
100
AcDbLine
 10
421.0010951571518
 20
158.649426597862
 30
0.0
 11
418.9150585341837
 21
154.1350880238851
 31
0.0
  0
LINE
  5
2BC
330
70
100
AcDbEntity
  8
HONTAI
 62
     2
420
 16776960
370
    25
100
AcDbLine
 10
418.9150585341837
 20
154.1350880238851
 30
0.0
 11
416.399708414828
 21
154.6088855654746
 31
0.0
  0
LINE
  5
2BD
330
70
100
AcDbEntity
  8
HONTAI
 62
     2
420
 16776960
370
    25
100
AcDbLine
 10
416.399708414828
 20
154.6088855654746
 30
0.0
 11
413.800351545641
 21
150.7286983119879
 31
0.0
  0
LINE
  5
2BE
330
70
100
AcDbEntity
  8
HONTAI
 62
     2
420
 16776960
370
    25
100
AcDbLine
 10
413.800351545641
 20
150.7286983119879
 30
0.0
 11
411.2070601457366
 21
151.3078208819886
 31
0.0
  0
LINE
  5
2BF
330
70
100
AcDbEntity
  8
HONTAI
 62
     2
420
 16776960
370
    25
100
AcDbLine
 10
411.2070601457366
 20
151.3078208819886
 30
0.0
 11
408.7781429639526
 21
147.8270322994241
 31
0.0
  0
LINE
  5
2C0
330
70
100
AcDbEntity
  8
HONTAI
 62
     2
420
 16776960
370
    25
100
AcDbLine
 10
408.7781429639526
 20
147.8270322994241
 30
0.0
 11
405.3651033879415
 21
148.3014901860189
 31
0.0
  0
LINE
  5
2C1
330
70
100
AcDbEntity
  8
HONTAI
 62
     2
420
 16776960
370
    25
100
AcDbLine
 10
405.3651033879415
 20
148.3014901860189
 30
0.0
 11
403.5600197238045
 21
145.8141906645534
 31
0.0
  0
LINE
  5
2C2
330
70
100
AcDbEntity
  8
HONTAI
 62
     2
420
 16776960
370
    25
100
AcDbLine
 10
403.5600197238045
 20
145.8141906645534
 30
0.0
 11
400.4675402003822
 21
145.8141906645534
 31
0.0
  0
LINE
  5
2C3
330
70
100
AcDbEntity
  8
HONTAI
 62
     2
420
 16776960
370
    25
100
AcDbLine
 10
400.4675402003822
 20
145.8141906645534
 30
0.0
 11
398.186923742992
 21
142.6142688244177
 31
0.0
  0
LINE
  5
2C4
330
70
100
AcDbEntity
  8
HONTAI
 62
     2
420
 16776960
370
    25
100
AcDbLine
 10
398.186923742992
 20
142.6142688244177
 30
0.0
 11
396.1010088502123
 21
142.9372875897058
 31
0.0
  0
LINE
  5
2C5
330
70
100
AcDbEntity
  8
HONTAI
 62
     2
420
 16776960
370
    25
100
AcDbLine
 10
396.1010088502123
 20
142.9372875897058
 30
0.0
 11
392.5554387699534
 21
139.8788996958155
 31
0.0
  0
LINE
  5
2C6
330
70
100
AcDbEntity
  8
HONTAI
 62
     2
420
 16776960
370
    25
100
AcDbLine
 10
392.5554387699534
 20
139.8788996958155
 30
0.0
 11
389.3092949760356
 21
140.5756606374824
 31
0.0
  0
LINE
  5
2C7
330
70
100
AcDbEntity
  8
HONTAI
 62
     2
420
 16776960
370
    25
100
AcDbLine
 10
389.3092949760356
 20
140.5756606374824
 30
0.0
 11
386.2458343290194
 21
137.4252777696256
 31
0.0
  0
LINE
  5
2C8
330
70
100
AcDbEntity
  8
HONTAI
 62
     2
420
 16776960
370
    25
100
AcDbLine
 10
386.2458343290194
 20
137.4252777696256
 30
0.0
 11
382.5873747723269
 21
139.0590055985984
 31
0.0
  0
LINE
  5
2C9
330
70
100
AcDbEntity
  8
HONTAI
 62
     2
420
 16776960
370
    25
100
AcDbLine
 10
382.5873747723269
 20
139.0590055985984
 30
0.0
 11
380.4099430405043
 21
136.1781061688591
 31
0.0
  0
LINE
  5
2CA
330
70
100
AcDbEntity
  8
HONTAI
 62
     2
420
 16776960
370
    25
100
AcDbLine
 10
380.4099430405043
 20
136.1781061688591
 30
0.0
 11
378.1827027129641
 21
137.0225773736452
 31
0.0
  0
LINE
  5
2CB
330
70
100
AcDbEntity
  8
HONTAI
 62
     2
420
 16776960
370
    25
100
AcDbLine
 10
378.1827027129641
 20
137.0225773736452
 30
0.0
 11
373.3979572544289
 21
134.2786237599498
 31
0.0
  0
LINE
  5
2CC
330
70
100
AcDbEntity
  8
HONTAI
 62
     2
420
 16776960
370
    25
100
AcDbLine
 10
373.3979572544289
 20
134.2786237599498
 30
0.0
 11
372.6361343101534
 21
135.2541734483846
 31
0.0
  0
LINE
  5
2CD
330
70
100
AcDbEntity
  8
HONTAI
 62
     2
420
 16776960
370
    25
100
AcDbLine
 10
372.6361343101534
 20
135.2541734483846
 30
0.0
 11
366.7941775523583
 21
132.9551823110305
 31
0.0
  0
LINE
  5
2CE
330
70
100
AcDbEntity
  8
HONTAI
 62
     2
420
 16776960
370
    25
100
AcDbLine
 10
362.9981646391849
 20
134.8889245446847
 30
0.0
 11
360.5983006608001
 21
132.0119895278814
 31
0.0
  0
LINE
  5
2CF
330
70
100
AcDbEntity
  8
HONTAI
 62
     2
420
 16776960
370
    25
100
AcDbLine
 10
366.7941775523583
 20
132.9551823110305
 30
0.0
 11
362.9981646391849
 21
134.8889245446847
 31
0.0
  0
LINE
  5
2D0
330
70
100
AcDbEntity
  8
HONTAI
 62
     2
420
 16776960
370
    25
100
AcDbLine
 10
360.5983006608001
 20
132.0119895278814
 30
0.0
 11
356.2542115470045
 21
133.7770917281302
 31
0.0
  0
LINE
  5
2D1
330
70
100
AcDbEntity
  8
HONTAI
 62
     2
420
 16776960
370
    25
100
AcDbLine
 10
356.2542115470045
 20
133.7770917281302
 30
0.0
 11
354.0191565510685
 21
131.0069223800164
 31
0.0
  0
LINE
  5
2D2
330
70
100
AcDbEntity
  8
HONTAI
 62
     2
420
 16776960
370
    25
100
AcDbLine
 10
404.3673336878526
 20
252.3809978570964
 30
0.0
 11
401.1183423778284
 21
251.4831323935818
 31
0.0
  0
LINE
  5
2D3
330
70
100
AcDbEntity
  8
HONTAI
 62
     2
420
 16776960
370
    25
100
AcDbLine
 10
401.1183423778259
 20
251.4831323935741
 30
0.0
 11
401.6598158259191
 21
256.973953407313
 31
0.0
  0
LINE
  5
2D4
330
70
100
AcDbEntity
  8
HONTAI
 62
     2
420
 16776960
370
    25
100
AcDbLine
 10
397.1682281737892
 20
255.9767965281295
 30
0.0
 11
394.1640012287298
 21
256.023240793527
 31
0.0
  0
LINE
  5
2D5
330
70
100
AcDbEntity
  8
HONTAI
 62
     2
420
 16776960
370
    25
100
AcDbLine
 10
394.1640012287298
 20
256.023240793527
 30
0.0
 11
394.9666565317524
 21
260.3312214988847
 31
0.0
  0
LINE
  5
2D6
330
70
100
AcDbEntity
  8
HONTAI
 62
     2
420
 16776960
370
    25
100
AcDbLine
 10
389.0141145182246
 20
258.9972145842123
 30
0.0
 11
387.7668748719589
 21
258.1996536748765
 31
0.0
  0
LINE
  5
2D7
330
70
100
AcDbEntity
  8
HONTAI
 62
     2
420
 16776960
370
    25
100
AcDbLine
 10
387.6675782366458
 20
262.8558091955818
 30
0.0
 11
387.7668748719628
 21
258.1996536748765
 31
0.0
  0
LINE
  5
2D8
330
70
100
AcDbEntity
  8
HONTAI
 62
     2
420
 16776960
370
    25
100
AcDbLine
 10
382.9365142780671
 20
262.0035452801628
 30
0.0
 11
381.3907352301395
 21
261.0029389063994
 31
0.0
  0
LINE
  5
2D9
330
70
100
AcDbEntity
  8
HONTAI
 62
     2
420
 16776960
370
    25
100
AcDbLine
 10
381.3907352301395
 20
261.0029389063853
 30
0.0
 11
381.4353694929515
 21
265.8584033818167
 31
0.0
  0
LINE
  5
2DA
330
70
100
AcDbEntity
  8
HONTAI
 62
     2
420
 16776960
370
    25
100
AcDbLine
 10
375.4423236825113
 20
264.0666831929847
 30
0.0
 11
373.8110540662295
 21
262.6834416313024
 31
0.0
  0
LINE
  5
2DB
330
70
100
AcDbEntity
  8
HONTAI
 62
     2
420
 16776960
370
    25
100
AcDbLine
 10
373.8110540662347
 20
262.6834416313088
 30
0.0
 11
373.788267361659
 21
267.3408750906651
 31
0.0
  0
LINE
  5
2DC
330
70
100
AcDbEntity
  8
HONTAI
 62
     2
420
 16776960
370
    25
100
AcDbLine
 10
368.0072714126757
 20
265.186738380153
 30
0.0
 11
366.6266720212665
 21
263.7179325924138
 31
0.0
  0
LINE
  5
2DD
330
70
100
AcDbEntity
  8
HONTAI
 62
     2
420
 16776960
370
    25
100
AcDbLine
 10
366.6266720212679
 20
263.7179325924202
 30
0.0
 11
366.2853687350301
 21
268.9338529521316
 31
0.0
  0
LINE
  5
2DE
330
70
100
AcDbEntity
  8
HONTAI
 62
     2
420
 16776960
370
    25
100
AcDbLine
 10
409.9730404163424
 20
248.9620615900709
 30
0.0
 11
408.129607781847
 21
247.9902315366305
 31
0.0
  0
LINE
  5
2DF
330
70
100
AcDbEntity
  8
HONTAI
 62
     2
420
 16776960
370
    25
100
AcDbLine
 10
408.2640944406214
 20
248.0611308872957
 30
0.0
 11
408.5930187782323
 21
253.120534102675
 31
0.0
  0
LINE
  5
2E0
330
70
100
AcDbEntity
  8
HONTAI
 62
     2
420
 16776960
370
    25
100
AcDbLine
 10
415.7073350940446
 20
244.7559940762637
 30
0.0
 11
413.9999205731859
 21
243.9687478775105
 31
0.0
  0
LINE
  5
2E1
330
70
100
AcDbEntity
  8
HONTAI
 62
     2
420
 16776960
370
    25
100
AcDbLine
 10
413.9999205731911
 20
243.9687478775169
 30
0.0
 11
414.3979090634324
 21
249.2883573600498
 31
0.0
  0
LINE
  5
2E2
330
70
100
AcDbEntity
  8
HONTAI
 62
     2
420
 16776960
370
    25
100
AcDbLine
 10
419.9227153208428
 20
244.7559940762637
 30
0.0
 11
417.6652685846001
 21
241.9677973471927
 31
0.0
  0
LINE
  5
2E3
330
70
100
AcDbEntity
  8
HONTAI
 62
     2
420
 16776960
370
    25
100
AcDbLine
 10
417.6652685846001
 20
241.9677973471927
 30
0.0
 11
420.1918398221629
 21
240.5117366096234
 31
0.0
  0
LINE
  5
2E4
330
70
100
AcDbEntity
  8
HONTAI
 62
     2
420
 16776960
370
    25
100
AcDbLine
 10
424.4109802683333
 20
240.217002622075
 30
0.0
 11
422.0281606532266
 21
237.2966268343655
 31
0.0
  0
LINE
  5
2E5
330
70
100
AcDbEntity
  8
HONTAI
 62
     2
420
 16776960
370
    25
100
AcDbLine
 10
422.0281606532266
 20
237.2966268343655
 30
0.0
 11
425.1485413353998
 21
235.5011487638595
 31
0.0
  0
LINE
  5
2E6
330
70
100
AcDbEntity
  8
HONTAI
 62
     2
420
 16776960
370
    25
100
AcDbLine
 10
428.8623735903576
 20
234.9197556745291
 30
0.0
 11
426.0862628894114
 21
231.9888837360338
 31
0.0
  0
LINE
  5
2E7
330
70
100
AcDbEntity
  8
HONTAI
 62
     2
420
 16776960
370
    25
100
AcDbLine
 10
426.0862628894114
 20
231.9888837360338
 30
0.0
 11
429.6330460635182
 21
229.4884873719392
 31
0.0
  0
LINE
  5
2E8
330
70
100
AcDbEntity
  8
HONTAI
 62
     2
420
 16776960
370
    25
100
AcDbLine
 10
429.6330460635182
 20
229.4884873719392
 30
0.0
 11
428.8005604018631
 21
227.3272882257801
 31
0.0
  0
LINE
  5
2E9
330
70
100
AcDbEntity
  8
HONTAI
 62
     2
420
 16776960
370
    25
100
AcDbLine
 10
428.8005604018631
 20
227.3272882257801
 30
0.0
 11
431.3504836962381
 21
225.2768069255898
 31
0.0
  0
LINE
  5
2EA
330
70
100
AcDbEntity
  8
HONTAI
 62
     2
420
 16776960
370
    25
100
AcDbLine
 10
431.3504836962381
 20
225.2768069255898
 30
0.0
 11
431.3444182269567
 21
222.4259874784791
 31
0.0
  0
LINE
  5
2EB
330
70
100
AcDbEntity
  8
HONTAI
 62
     2
420
 16776960
370
    25
100
AcDbLine
 10
431.3444182269567
 20
222.4259874784791
 30
0.0
 11
434.3789317312942
 21
220.3208262306673
 31
0.0
  0
LINE
  5
2EC
330
70
100
AcDbEntity
  8
HONTAI
 62
     2
420
 16776960
370
    25
100
AcDbLine
 10
434.3789317312942
 20
220.3208262306673
 30
0.0
 11
433.0366841620723
 21
216.9550291062336
 31
0.0
  0
LINE
  5
2ED
330
70
100
AcDbEntity
  8
HONTAI
 62
     2
420
 16776960
370
    25
100
AcDbLine
 10
433.0366841620723
 20
216.9550291062336
 30
0.0
 11
435.7758500986773
 21
215.019888067028
 31
0.0
  0
LINE
  5
2EE
330
70
100
AcDbEntity
  8
HONTAI
 62
     2
420
 16776960
370
    25
100
AcDbLine
 10
435.7758500986773
 20
215.019888067028
 30
0.0
 11
434.2476551081463
 21
212.15465108731
 31
0.0
  0
LINE
  5
2EF
330
70
100
AcDbEntity
  8
HONTAI
 62
     2
420
 16776960
370
    25
100
AcDbLine
 10
434.2476551081463
 20
212.15465108731
 30
0.0
 11
437.5431213040088
 21
209.9326470857309
 31
0.0
  0
LINE
  5
2F0
330
70
100
AcDbEntity
  8
HONTAI
 62
     2
420
 16776960
370
    25
100
AcDbLine
 10
437.5431213040088
 20
209.9326470857309
 30
0.0
 11
434.977937612044
 21
207.0478729857148
 31
0.0
  0
LINE
  5
2F1
330
70
100
AcDbEntity
  8
HONTAI
 62
     2
420
 16776960
370
    25
100
AcDbLine
 10
434.977937612044
 20
207.0478729857148
 30
0.0
 11
437.9002807215566
 21
205.207711569814
 31
0.0
  0
LINE
  5
2F2
330
70
100
AcDbEntity
  8
HONTAI
 62
     2
420
 16776960
370
    25
100
AcDbLine
 10
437.9002807215566
 20
205.207711569814
 30
0.0
 11
434.7817196801332
 21
202.0686515277295
 31
0.0
  0
LINE
  5
2F3
330
70
100
AcDbEntity
  8
HONTAI
 62
     2
420
 16776960
370
    25
100
AcDbLine
 10
434.7817196801332
 20
202.0686515277295
 30
0.0
 11
438.7257910934912
 21
199.855285126108
 31
0.0
  0
LINE
  5
2F4
330
70
100
AcDbEntity
  8
HONTAI
 62
     2
420
 16776960
370
    25
100
AcDbLine
 10
438.7257910934912
 20
199.855285126108
 30
0.0
 11
434.7253108156444
 21
197.7034408675224
 31
0.0
  0
LINE
  5
2F5
330
70
100
AcDbEntity
  8
HONTAI
 62
     2
420
 16776960
370
    25
100
AcDbLine
 10
434.7253108156444
 20
197.7034408675224
 30
0.0
 11
437.3101105584896
 21
196.1887194819625
 31
0.0
  0
LINE
  5
2F6
330
70
100
AcDbEntity
  8
HONTAI
 62
     2
420
 16776960
370
    25
100
AcDbLine
 10
437.3101105584896
 20
196.1887194819625
 30
0.0
 11
433.4915943597025
 21
193.1005060052964
 31
0.0
  0
LINE
  5
2F7
330
70
100
AcDbEntity
  8
HONTAI
 62
     2
420
 16776960
370
    25
100
AcDbLine
 10
433.4915943597025
 20
193.1005060052964
 30
0.0
 11
435.6599996350145
 21
191.0284534349011
 31
0.0
  0
LINE
  5
2F8
330
70
100
AcDbEntity
  8
HONTAI
 62
     2
420
 16776960
370
    25
100
AcDbLine
 10
435.6599996350145
 20
191.0284534349011
 30
0.0
 11
432.8080159694305
 21
188.2070193405469
 31
0.0
  0
LINE
  5
2F9
330
70
100
AcDbEntity
  8
HONTAI
 62
     2
420
 16776960
370
    25
100
AcDbLine
 10
432.8080159694305
 20
188.2070193405469
 30
0.0
 11
435.1881061233482
 21
186.4305812177168
 31
0.0
  0
LINE
  5
2FA
330
70
100
AcDbEntity
  8
HONTAI
 62
     2
420
 16776960
370
    25
100
AcDbLine
 10
435.1881061233482
 20
186.4305812177168
 30
0.0
 11
431.3541229778238
 21
183.8431293703695
 31
0.0
  0
LINE
  5
2FB
330
70
100
AcDbEntity
  8
HONTAI
 62
     2
420
 16776960
370
    25
100
AcDbLine
 10
431.3541229778238
 20
183.8431293703695
 30
0.0
 11
432.9457021225628
 21
181.8325989430087
 31
0.0
  0
LINE
  5
2FC
330
70
100
AcDbEntity
  8
HONTAI
 62
     2
420
 16776960
370
    25
100
AcDbLine
 10
432.9457021225628
 20
181.8325989430087
 30
0.0
 11
428.8733460334886
 21
179.666557266808
 31
0.0
  0
LINE
  5
2FD
330
70
100
AcDbEntity
  8
HONTAI
 62
     2
420
 16776960
370
    25
100
AcDbLine
 10
428.8733460334886
 20
179.666557266808
 30
0.0
 11
430.8100503814777
 21
177.8074659607551
 31
0.0
  0
LINE
  5
2FE
330
70
100
AcDbEntity
  8
HONTAI
 62
     2
420
 16776960
370
    25
100
AcDbLine
 10
430.8100503814777
 20
177.8074659607551
 30
0.0
 11
427.0427873982949
 21
175.3464701820214
 31
0.0
  0
LINE
  5
2FF
330
70
100
AcDbEntity
  8
HONTAI
 62
     2
420
 16776960
370
    25
100
AcDbLine
 10
427.0427873982949
 20
175.3464701820214
 30
0.0
 11
428.6859230320931
 21
173.2684745065805
 31
0.0
  0
LINE
  5
300
330
70
100
AcDbEntity
  8
HONTAI
 62
     2
420
 16776960
370
    25
100
AcDbLine
 10
428.6859230320931
 20
173.2684745065805
 30
0.0
 11
423.9221034426296
 21
171.15702135085
 31
0.0
  0
LINE
  5
301
330
70
100
AcDbEntity
  8
HONTAI
 62
     2
420
 16776960
370
    25
100
AcDbLine
 10
423.9221034426296
 20
171.15702135085
 30
0.0
 11
426.2677925423233
 21
168.2694691305205
 31
0.0
  0
LINE
  5
302
330
70
100
AcDbEntity
  8
HONTAI
 62
     2
420
 16776960
370
    25
100
AcDbLine
 10
426.2677925423233
 20
168.2694691305205
 30
0.0
 11
420.4226309290915
 21
168.4001910095499
 31
0.0
  0
LINE
  5
303
330
70
100
AcDbEntity
  8
HONTAI
 62
     2
420
 16776960
370
    25
100
AcDbLine
 10
420.4226309290915
 20
168.4001910095499
 30
0.0
 11
422.3843616588639
 21
164.6572542685333
 31
0.0
  0
LINE
  5
304
330
70
100
AcDbEntity
  8
HONTAI
 62
     2
420
 16776960
370
    25
100
AcDbLine
 10
422.3843616588639
 20
164.6572542685333
 30
0.0
 11
416.8628069959842
 21
164.8947495467878
 31
0.0
  0
LINE
  5
305
330
70
100
AcDbEntity
  8
HONTAI
 62
     2
420
 16776960
370
    25
100
AcDbLine
 10
416.8628069959842
 20
164.8947495467878
 30
0.0
 11
418.6500119116926
 21
161.1828168210841
 31
0.0
  0
LINE
  5
306
330
70
100
AcDbEntity
  8
HONTAI
 62
     2
420
 16776960
370
    25
100
AcDbLine
 10
418.6500119116926
 20
161.1828168210841
 30
0.0
 11
412.983029557231
 21
161.5733242255962
 31
0.0
  0
LINE
  5
307
330
70
100
AcDbEntity
  8
HONTAI
 62
     2
420
 16776960
370
    25
100
AcDbLine
 10
412.983029557231
 20
161.5733242255962
 30
0.0
 11
414.3196073029825
 21
158.188501125753
 31
0.0
  0
LINE
  5
308
330
70
100
AcDbEntity
  8
HONTAI
 62
     2
420
 16776960
370
    25
100
AcDbLine
 10
414.3196073029825
 20
158.188501125753
 30
0.0
 11
408.5625155302678
 21
158.188501125753
 31
0.0
  0
LINE
  5
309
330
70
100
AcDbEntity
  8
HONTAI
 62
     2
420
 16776960
370
    25
100
AcDbLine
 10
408.5625155302678
 20
158.188501125753
 30
0.0
 11
409.8499113895107
 21
155.4931975856204
 31
0.0
  0
LINE
  5
30A
330
70
100
AcDbEntity
  8
HONTAI
 62
     2
420
 16776960
370
    25
100
AcDbLine
 10
409.8499113895107
 20
155.4931975856204
 30
0.0
 11
404.5256424366082
 21
155.2345624583761
 31
0.0
  0
LINE
  5
30B
330
70
100
AcDbEntity
  8
HONTAI
 62
     2
420
 16776960
370
    25
100
AcDbLine
 10
404.5256424366082
 20
155.2345624583761
 30
0.0
 11
405.3651033879415
 21
151.4131631824828
 31
0.0
  0
LINE
  5
30C
330
70
100
AcDbEntity
  8
HONTAI
 62
     2
420
 16776960
370
    25
100
AcDbLine
 10
405.3651033879415
 20
151.4131631824828
 30
0.0
 11
399.5865307843543
 21
152.1406259916722
 31
0.0
  0
LINE
  5
30D
330
70
100
AcDbEntity
  8
HONTAI
 62
     2
420
 16776960
370
    25
100
AcDbLine
 10
399.5865307843543
 20
152.1406259916722
 30
0.0
 11
400.4675402003822
 21
148.6357530448538
 31
0.0
  0
LINE
  5
30E
330
70
100
AcDbEntity
  8
HONTAI
 62
     2
420
 16776960
370
    25
100
AcDbLine
 10
400.4675402003822
 20
148.6357530448538
 30
0.0
 11
395.3928653092393
 21
147.8888846149631
 31
0.0
  0
LINE
  5
30F
330
70
100
AcDbEntity
  8
HONTAI
 62
     2
420
 16776960
370
    25
100
AcDbLine
 10
395.8279793006125
 20
144.846409437716
 30
0.0
 11
390.436163796001
 21
145.825636644638
 31
0.0
  0
LINE
  5
310
330
70
100
AcDbEntity
  8
HONTAI
 62
     2
420
 16776960
370
    25
100
AcDbLine
 10
354.0191565510685
 20
131.0069223800164
 30
0.0
 11
354.9810695406098
 21
138.2561018443
 31
0.0
  0
LINE
  5
311
330
70
100
AcDbEntity
  8
HONTAI
 62
     2
420
 16776960
370
    25
100
AcDbLine
 10
354.9810695406098
 20
138.2561018443
 30
0.0
 11
360.5983006608001
 21
132.0119895278814
 31
0.0
  0
LINE
  5
312
330
70
100
AcDbEntity
  8
HONTAI
 62
     2
420
 16776960
370
    25
100
AcDbLine
 10
360.5983006608001
 20
132.0119895278814
 30
0.0
 11
360.6559707887526
 21
138.1712475110693
 31
0.0
  0
LINE
  5
313
330
70
100
AcDbEntity
  8
HONTAI
 62
     2
420
 16776960
370
    25
100
AcDbLine
 10
360.6559707887526
 20
138.1712475110693
 30
0.0
 11
366.7941775523583
 21
132.9551823110305
 31
0.0
  0
LINE
  5
314
330
70
100
AcDbEntity
  8
HONTAI
 62
     2
420
 16776960
370
    25
100
AcDbLine
 10
366.7941775523583
 20
132.9551823110305
 30
0.0
 11
367.6384908791225
 21
139.4653036072577
 31
0.0
  0
LINE
  5
315
330
70
100
AcDbEntity
  8
HONTAI
 62
     2
420
 16776960
370
    25
100
AcDbLine
 10
367.6384908791225
 20
139.4653036072577
 30
0.0
 11
372.6361343101534
 21
135.2541734483846
 31
0.0
  0
LINE
  5
316
330
70
100
AcDbEntity
  8
HONTAI
 62
     2
420
 16776960
370
    25
100
AcDbLine
 10
328.9601839647902
 20
131.0069223800164
 30
0.0
 11
334.3873330640751
 21
136.2351159543424
 31
0.0
  0
LINE
  5
317
330
70
100
AcDbEntity
  8
HONTAI
 62
     2
420
 16776960
370
    25
100
AcDbLine
 10
334.3873330640751
 20
136.2351159543424
 30
0.0
 11
336.7789476096523
 21
129.8898607945747
 31
0.0
  0
LINE
  5
318
330
70
100
AcDbEntity
  8
HONTAI
 62
     2
420
 16776960
370
    25
100
AcDbLine
 10
336.7789476096523
 20
129.8898607945747
 30
0.0
 11
341.9218590304793
 21
136.0573730903116
 31
0.0
  0
LINE
  5
319
330
70
100
AcDbEntity
  8
HONTAI
 62
     2
420
 16776960
370
    25
100
AcDbLine
 10
341.9218590304793
 20
136.0573730903116
 30
0.0
 11
346.2003929062078
 21
129.8898607945747
 31
0.0
  0
LINE
  5
31A
330
70
100
AcDbEntity
  8
HONTAI
 62
     2
420
 16776960
370
    25
100
AcDbLine
 10
346.2003929062078
 20
129.8898607945747
 30
0.0
 11
348.9223204248554
 21
136.2351159543424
 31
0.0
  0
LINE
  5
31B
330
70
100
AcDbEntity
  8
HONTAI
 62
     2
420
 16776960
370
    25
100
AcDbLine
 10
348.9223204248554
 20
136.2351159543424
 30
0.0
 11
354.0191565510685
 21
131.0069223800164
 31
0.0
  0
LINE
  5
31C
330
70
100
AcDbEntity
  8
HONTAI
 62
     2
420
 16776960
370
    25
100
AcDbLine
 10
341.9218590304793
 20
136.0573730903116
 30
0.0
 11
341.4896702579294
 21
145.883673086387
 31
0.0
  0
LINE
  5
31D
330
70
100
AcDbEntity
  8
HONTAI
 62
     2
420
 16776960
370
    25
100
AcDbLine
 10
348.9223204248554
 20
136.2351159543424
 30
0.0
 11
347.7872627333765
 21
146.7500598818334
 31
0.0
  0
LINE
  5
31E
330
70
100
AcDbEntity
  8
HONTAI
 62
     2
420
 16776960
370
    25
100
AcDbLine
 10
334.3873330640751
 20
136.2351159543424
 30
0.0
 11
335.237240675718
 21
146.6513805987679
 31
0.0
  0
LINE
  5
31F
330
70
100
AcDbEntity
  8
HONTAI
 62
     2
420
 16776960
370
    25
100
AcDbLine
 10
346.2003929062078
 20
129.8898607945747
 30
0.0
 11
344.7283655834374
 21
146.3638395948545
 31
0.0
  0
ENDSEC
  0
SECTION
  2
OBJECTS
  0
DICTIONARY
  5
C
330
0
100
AcDbDictionary
281
     1
  3
ACAD_COLOR
350
63
  3
ACAD_DETAILVIEWSTYLE
350
6A
  3
ACAD_GROUP
350
D
  3
ACAD_LAYOUT
350
62
  3
ACAD_MATERIAL
350
10
  3
ACAD_MLEADERSTYLE
350
66
  3
ACAD_MLINESTYLE
350
5F
  3
ACAD_PLOTSETTINGS
350
61
  3
ACAD_PLOTSTYLENAME
350
E
  3
ACAD_SCALELIST
350
42
  3
ACAD_SECTIONVIEWSTYLE
350
68
  3
ACAD_TABLESTYLE
350
64
  3
ACAD_VISUALSTYLE
350
29
  3
ACDB_RECOMPOSE_DATA
350
328
  3
AcDbVariableDictionary
350
320
  0
DICTIONARY
  5
63
102
{ACAD_REACTORS
330
C
102
}
330
C
100
AcDbDictionary
281
     1
  0
DICTIONARY
  5
6A
102
{ACAD_REACTORS
330
C
102
}
330
C
100
AcDbDictionary
281
     1
  3
Imperial24
350
6B
  0
DICTIONARY
  5
D
102
{ACAD_REACTORS
330
C
102
}
330
C
100
AcDbDictionary
281
     1
  0
DICTIONARY
  5
62
102
{ACAD_REACTORS
330
C
102
}
330
C
100
AcDbDictionary
281
     1
  3
Layout1
350
6F
  3
Layout2
350
77
  3
Model
350
73
  0
DICTIONARY
  5
10
102
{ACAD_REACTORS
330
C
102
}
330
C
100
AcDbDictionary
281
     1
  3
ByBlock
350
19
  3
ByLayer
350
11
  3
Global
350
21
  0
DICTIONARY
  5
66
102
{ACAD_REACTORS
330
C
102
}
330
C
100
AcDbDictionary
281
     1
  3
Standard
350
67
  0
DICTIONARY
  5
5F
102
{ACAD_REACTORS
330
C
102
}
330
C
100
AcDbDictionary
281
     1
  3
Standard
350
60
  0
DICTIONARY
  5
61
102
{ACAD_REACTORS
330
C
102
}
330
C
100
AcDbDictionary
281
     1
  0
ACDBDICTIONARYWDFLT
  5
E
102
{ACAD_REACTORS
330
C
102
}
330
C
100
AcDbDictionary
281
     1
  3
Normal
350
F
100
AcDbDictionaryWithDefault
340
F
  0
DICTIONARY
  5
42
102
{ACAD_REACTORS
330
C
102
}
330
C
100
AcDbDictionary
281
     1
  3
A0
350
43
  3
A1
350
44
  3
A2
350
45
  3
A3
350
46
  3
A4
350
47
  3
A5
350
48
  3
A6
350
49
  3
A7
350
4A
  3
A8
350
4B
  3
A9
350
4C
  3
B0
350
4D
  3
B1
350
4E
  3
B2
350
4F
  3
B3
350
50
  3
B4
350
51
  3
B5
350
52
  3
B6
350
53
  0
DICTIONARY
  5
68
102
{ACAD_REACTORS
330
C
102
}
330
C
100
AcDbDictionary
281
     1
  3
Imperial24
350
69
  0
DICTIONARY
  5
64
102
{ACAD_REACTORS
330
C
102
}
330
C
100
AcDbDictionary
281
     1
  3
Standard
350
65
  0
DICTIONARY
  5
29
102
{ACAD_REACTORS
330
C
102
}
330
C
100
AcDbDictionary
281
     1
  3
2dWireframe
350
2F
  3
Basic
350
2E
  3
Brighten
350
35
  3
ColorChange
350
39
  3
Conceptual
350
32
  3
Dim
350
34
  3
EdgeColorOff
350
41
  3
Facepattern
350
38
  3
Flat
350
2A
  3
FlatWithEdges
350
2B
  3
Gouraud
350
2C
  3
GouraudWithEdges
350
2D
  3
Hidden
350
31
  3
JitterOff
350
3F
  3
Linepattern
350
37
  3
OverhangOff
350
40
  3
Realistic
350
33
  3
Shaded
350
3E
  3
Shaded with edges
350
3D
  3
Shades of Gray
350
3A
  3
Sketchy
350
3B
  3
Thicken
350
36
  3
Wireframe
350
30
  3
X-Ray
350
3C
  0
XRECORD
  5
328
102
{ACAD_REACTORS
330
C
102
}
330
C
100
AcDbXrecord
280
     1
 90
        1
330
65
  0
DICTIONARY
  5
320
102
{ACAD_REACTORS
330
C
102
}
330
C
100
AcDbDictionary
281
     1
  3
CANNOSCALE
350
325
  3
CMLEADERSTYLE
350
322
  3
CTABLESTYLE
350
321
  3
CVIEWDETAILSTYLE
350
323
  3
CVIEWSECTIONSTYLE
350
324
  0
ACDBDETAILVIEWSTYLE
  5
6B
102
{ACAD_REACTORS
330
6A
102
}
330
6A
100
AcDbModelDocViewStyle
 70
     0
  3
Imperial24
290
     1
300
Imperial24
 90
        0
100
AcDbDetailViewStyle
 70
     0
 71
     0
 90
        3
 71
     1
340
55
 62
   256
 40
0.24
340
0
 62
   256
 40
0.24
300

 40
0.36
280
     3
 71
     2
340
5D
 90
       25
 62
   256
 71
     3
340
55
 62
   256
 40
0.24
 90
        1
 40
0.75
 90
        1
300
%<\AcVar ViewType \f "%tc1">% %<\AcVar ViewDetailId>%\PSCALE %<\AcVar ViewScale \f "%sn">%
 71
     4
340
5D
 90
       25
 62
   256
340
5D
 90
       25
 62
   256
280
     0
  0
LAYOUT
  5
6F
102
{ACAD_REACTORS
330
62
102
}
330
62
100
AcDbPlotSettings
  1

  2

  4

  6

 40
0.0
 41
0.0
 42
0.0
 43
0.0
 44
0.0
 45
0.0
 46
0.0
 47
0.0
 48
0.0
 49
0.0
140
0.0
141
0.0
142
1.0
143
1.0
 70
   688
 72
     0
 73
     0
 74
     5
  7

 75
    16
147
1.0
 76
     0
 77
     2
 78
   300
148
0.0
149
0.0
100
AcDbLayout
  1
Layout1
 70
     1
 71
     1
 10
0.0
 20
0.0
 11
12.0
 21
9.0
 12
0.0
 22
0.0
 32
0.0
 14
0.0
 24
0.0
 34
0.0
 15
0.0
 25
0.0
 35
0.0
146
0.0
 13
0.0
 23
0.0
 33
0.0
 16
1.0
 26
0.0
 36
0.0
 17
0.0
 27
1.0
 37
0.0
 76
     0
330
6C
  0
LAYOUT
  5
77
102
{ACAD_REACTORS
330
62
102
}
330
62
100
AcDbPlotSettings
  1

  2

  4

  6

 40
0.0
 41
0.0
 42
0.0
 43
0.0
 44
0.0
 45
0.0
 46
0.0
 47
0.0
 48
0.0
 49
0.0
140
0.0
141
0.0
142
1.0
143
1.0
 70
   688
 72
     0
 73
     0
 74
     5
  7

 75
    16
147
1.0
 76
     0
 77
     2
 78
   300
148
0.0
149
0.0
100
AcDbLayout
  1
Layout2
 70
     1
 71
     2
 10
0.0
 20
0.0
 11
12.0
 21
9.0
 12
0.0
 22
0.0
 32
0.0
 14
0.0
 24
0.0
 34
0.0
 15
0.0
 25
0.0
 35
0.0
146
0.0
 13
0.0
 23
0.0
 33
0.0
 16
1.0
 26
0.0
 36
0.0
 17
0.0
 27
1.0
 37
0.0
 76
     0
330
74
  0
LAYOUT
  5
73
102
{ACAD_REACTORS
330
62
102
}
330
62
100
AcDbPlotSettings
  1

  2

  4

  6

 40
0.0
 41
0.0
 42
0.0
 43
0.0
 44
0.0
 45
0.0
 46
0.0
 47
0.0
 48
0.0
 49
0.0
140
0.0
141
0.0
142
1.0
143
1.0
 70
  1712
 72
     0
 73
     0
 74
     0
  7

 75
     0
147
1.0
 76
     0
 77
     2
 78
   300
148
0.0
149
0.0
100
AcDbLayout
  1
Model
 70
     1
 71
     0
 10
0.0
 20
0.0
 11
12.0
 21
9.0
 12
0.0
 22
0.0
 32
0.0
 14
0.0
 24
0.0
 34
0.0
 15
0.0
 25
0.0
 35
0.0
146
0.0
 13
0.0
 23
0.0
 33
0.0
 16
1.0
 26
0.0
 36
0.0
 17
0.0
 27
1.0
 37
0.0
 76
     0
330
70
  0
MATERIAL
  5
19
102
{ACAD_XDICTIONARY
360
1A
102
}
102
{ACAD_REACTORS
330
10
102
}
330
10
100
AcDbMaterial
  1
ByBlock
 72
     0
 43
0.0208333333333333
 43
0.0
 43
0.0
 43
0.0
 43
0.0
 43
0.0208333333333333
 43
0.0
 43
0.0
 43
0.0
 43
0.0
 43
1.0
 43
0.0
 43
0.0
 43
0.0
 43
0.0
 43
1.0
 77
     0
 47
0.0208333333333333
 47
0.0
 47
0.0
 47
0.0
 47
0.0
 47
0.0208333333333333
 47
0.0
 47
0.0
 47
0.0
 47
0.0
 47
1.0
 47
0.0
 47
0.0
 47
0.0
 47
0.0
 47
1.0
171
     0
 49
0.0208333333333333
 49
0.0
 49
0.0
 49
0.0
 49
0.0
 49
0.0208333333333333
 49
0.0
 49
0.0
 49
0.0
 49
0.0
 49
1.0
 49
0.0
 49
0.0
 49
0.0
 49
0.0
 49
1.0
175
     0
142
0.0208333333333333
142
0.0
142
0.0
142
0.0
142
0.0
142
0.0208333333333333
142
0.0
142
0.0
142
0.0
142
0.0
142
1.0
142
0.0
142
0.0
142
0.0
142
0.0
142
1.0
179
     0
144
0.0208333333333333
144
0.0
144
0.0
144
0.0
144
0.0
144
0.0208333333333333
144
0.0
144
0.0
144
0.0
144
0.0
144
1.0
144
0.0
144
0.0
144
0.0
144
0.0
144
1.0
147
0.0208333333333333
147
0.0
147
0.0
147
0.0
147
0.0
147
0.0208333333333333
147
0.0
147
0.0
147
0.0
147
0.0
147
1.0
147
0.0
147
0.0
147
0.0
147
0.0
147
1.0
  0
MATERIAL
  5
11
102
{ACAD_XDICTIONARY
360
12
102
}
102
{ACAD_REACTORS
330
10
102
}
330
10
100
AcDbMaterial
  1
ByLayer
 72
     0
 43
0.0208333333333333
 43
0.0
 43
0.0
 43
0.0
 43
0.0
 43
0.0208333333333333
 43
0.0
 43
0.0
 43
0.0
 43
0.0
 43
1.0
 43
0.0
 43
0.0
 43
0.0
 43
0.0
 43
1.0
 77
     0
 47
0.0208333333333333
 47
0.0
 47
0.0
 47
0.0
 47
0.0
 47
0.0208333333333333
 47
0.0
 47
0.0
 47
0.0
 47
0.0
 47
1.0
 47
0.0
 47
0.0
 47
0.0
 47
0.0
 47
1.0
171
     0
 49
0.0208333333333333
 49
0.0
 49
0.0
 49
0.0
 49
0.0
 49
0.0208333333333333
 49
0.0
 49
0.0
 49
0.0
 49
0.0
 49
1.0
 49
0.0
 49
0.0
 49
0.0
 49
0.0
 49
1.0
175
     0
142
0.0208333333333333
142
0.0
142
0.0
142
0.0
142
0.0
142
0.0208333333333333
142
0.0
142
0.0
142
0.0
142
0.0
142
1.0
142
0.0
142
0.0
142
0.0
142
0.0
142
1.0
179
     0
144
0.0208333333333333
144
0.0
144
0.0
144
0.0
144
0.0
144
0.0208333333333333
144
0.0
144
0.0
144
0.0
144
0.0
144
1.0
144
0.0
144
0.0
144
0.0
144
0.0
144
1.0
147
0.0208333333333333
147
0.0
147
0.0
147
0.0
147
0.0
147
0.0208333333333333
147
0.0
147
0.0
147
0.0
147
0.0
147
1.0
147
0.0
147
0.0
147
0.0
147
0.0
147
1.0
  0
MATERIAL
  5
21
102
{ACAD_XDICTIONARY
360
22
102
}
102
{ACAD_REACTORS
330
10
102
}
330
10
100
AcDbMaterial
  1
Global
 72
     0
 43
0.0208333333333333
 43
0.0
 43
0.0
 43
0.0
 43
0.0
 43
0.0208333333333333
 43
0.0
 43
0.0
 43
0.0
 43
0.0
 43
1.0
 43
0.0
 43
0.0
 43
0.0
 43
0.0
 43
1.0
 77
     0
 47
0.0208333333333333
 47
0.0
 47
0.0
 47
0.0
 47
0.0
 47
0.0208333333333333
 47
0.0
 47
0.0
 47
0.0
 47
0.0
 47
1.0
 47
0.0
 47
0.0
 47
0.0
 47
0.0
 47
1.0
171
     0
 49
0.0208333333333333
 49
0.0
 49
0.0
 49
0.0
 49
0.0
 49
0.0208333333333333
 49
0.0
 49
0.0
 49
0.0
 49
0.0
 49
1.0
 49
0.0
 49
0.0
 49
0.0
 49
0.0
 49
1.0
175
     0
142
0.0208333333333333
142
0.0
142
0.0
142
0.0
142
0.0
142
0.0208333333333333
142
0.0
142
0.0
142
0.0
142
0.0
142
1.0
142
0.0
142
0.0
142
0.0
142
0.0
142
1.0
179
     0
144
0.0208333333333333
144
0.0
144
0.0
144
0.0
144
0.0
144
0.0208333333333333
144
0.0
144
0.0
144
0.0
144
0.0
144
1.0
144
0.0
144
0.0
144
0.0
144
0.0
144
1.0
147
0.0208333333333333
147
0.0
147
0.0
147
0.0
147
0.0
147
0.0208333333333333
147
0.0
147
0.0
147
0.0
147
0.0
147
1.0
147
0.0
147
0.0
147
0.0
147
0.0
147
1.0
  0
MLEADERSTYLE
  5
67
102
{ACAD_REACTORS
330
66
102
}
330
66
100
AcDbMLeaderStyle
179
     2
170
     2
171
     1
172
     0
 90
        2
 40
0.0
 41
0.0
173
     1
 91
-1056964608
340
5B
 92
       -2
290
     1
 42
0.09
291
     1
 43
0.36
  3
Standard
 44
0.18
300

342
55
174
     1
178
     6
175
     1
176
     0
 93
-1056964608
 45
0.18
292
     0
297
     0
 46
0.18
 94
-1056964608
 47
1.0
 49
1.0
140
1.0
293
     1
141
0.0
294
     1
177
     0
142
1.0
295
     1
296
     0
143
0.125
271
     0
272
     9
273
     9
298
     1
  0
MLINESTYLE
  5
60
102
{ACAD_REACTORS
330
5F
102
}
330
5F
100
AcDbMlineStyle
  2
STANDARD
 70
     0
  3

 62
   256
 51
90.0
 52
90.0
 71
     2
 49
0.5
 62
   256
  6
BYLAYER
 49
-0.5
 62
   256
  6
BYLAYER
  0
ACDBPLACEHOLDER
  5
F
102
{ACAD_REACTORS
330
E
102
}
330
E
  0
SCALE
  5
43
102
{ACAD_REACTORS
330
42
102
}
330
42
100
AcDbScale
 70
     0
300
1:1
140
1.0
141
1.0
290
     1
  0
SCALE
  5
44
102
{ACAD_REACTORS
330
42
102
}
330
42
100
AcDbScale
 70
     0
300
1/128" = 1'-0"
140
0.0078125
141
12.0
290
     0
  0
SCALE
  5
45
102
{ACAD_REACTORS
330
42
102
}
330
42
100
AcDbScale
 70
     0
300
1/64" = 1'-0"
140
0.015625
141
12.0
290
     0
  0
SCALE
  5
46
102
{ACAD_REACTORS
330
42
102
}
330
42
100
AcDbScale
 70
     0
300
1/32" = 1'-0"
140
0.03125
141
12.0
290
     0
  0
SCALE
  5
47
102
{ACAD_REACTORS
330
42
102
}
330
42
100
AcDbScale
 70
     0
300
1/16" = 1'-0"
140
0.0625
141
12.0
290
     0
  0
SCALE
  5
48
102
{ACAD_REACTORS
330
42
102
}
330
42
100
AcDbScale
 70
     0
300
3/32" = 1'-0"
140
0.09375
141
12.0
290
     0
  0
SCALE
  5
49
102
{ACAD_REACTORS
330
42
102
}
330
42
100
AcDbScale
 70
     0
300
1/8" = 1'-0"
140
0.125
141
12.0
290
     0
  0
SCALE
  5
4A
102
{ACAD_REACTORS
330
42
102
}
330
42
100
AcDbScale
 70
     0
300
3/16" = 1'-0"
140
0.1875
141
12.0
290
     0
  0
SCALE
  5
4B
102
{ACAD_REACTORS
330
42
102
}
330
42
100
AcDbScale
 70
     0
300
1/4" = 1'-0"
140
0.25
141
12.0
290
     0
  0
SCALE
  5
4C
102
{ACAD_REACTORS
330
42
102
}
330
42
100
AcDbScale
 70
     0
300
3/8" = 1'-0"
140
0.375
141
12.0
290
     0
  0
SCALE
  5
4D
102
{ACAD_REACTORS
330
42
102
}
330
42
100
AcDbScale
 70
     0
300
1/2" = 1'-0"
140
0.5
141
12.0
290
     0
  0
SCALE
  5
4E
102
{ACAD_REACTORS
330
42
102
}
330
42
100
AcDbScale
 70
     0
300
3/4" = 1'-0"
140
0.75
141
12.0
290
     0
  0
SCALE
  5
4F
102
{ACAD_REACTORS
330
42
102
}
330
42
100
AcDbScale
 70
     0
300
1" = 1'-0"
140
1.0
141
12.0
290
     0
  0
SCALE
  5
50
102
{ACAD_REACTORS
330
42
102
}
330
42
100
AcDbScale
 70
     0
300
1-1/2" = 1'-0"
140
1.5
141
12.0
290
     0
  0
SCALE
  5
51
102
{ACAD_REACTORS
330
42
102
}
330
42
100
AcDbScale
 70
     0
300
3" = 1'-0"
140
3.0
141
12.0
290
     0
  0
SCALE
  5
52
102
{ACAD_REACTORS
330
42
102
}
330
42
100
AcDbScale
 70
     0
300
6" = 1'-0"
140
6.0
141
12.0
290
     0
  0
SCALE
  5
53
102
{ACAD_REACTORS
330
42
102
}
330
42
100
AcDbScale
 70
     0
300
1'-0" = 1'-0"
140
12.0
141
12.0
290
     0
  0
ACDBSECTIONVIEWSTYLE
  5
69
102
{ACAD_REACTORS
330
68
102
}
330
68
100
AcDbModelDocViewStyle
 70
     0
  3
Imperial24
290
     1
300
Imperial24
 90
        0
100
AcDbSectionViewStyle
 70
     0
 71
     0
 90
       78
 71
     1
340
55
 62
   256
 40
0.24
340
0
340
0
 62
   256
 40
0.24
300
I, O, Q, S, X, Z
 40
0.48
 90
        3
 40
0.18
 90
        1
 71
     2
340
5D
 90
       25
 62
   256
340
5D
 90
       50
 62
   256
 40
0.24
 40
0.0
 40
0.24
 71
     3
340
55
 62
   256
 40
0.24
 90
        1
 40
0.75
 90
        1
300
%<\AcVar ViewType \f "%tc1">% %<\AcVar ViewSectionStartId>%-%<\AcVar ViewSectionEndId>%\PSCALE %<\AcVar ViewScale \f "%sn">%
 71
     4
 62
   256
 62
   257
300
ANSI31
 40
1.0
 90
        0
290
     0
290
     0
 90
        6
 40
0.0
 40
1.570796326794896
 40
0.2617993877991494
 40
1.308996938995747
 40
-0.2617993877991494
 40
1.832595714594046
  0
TABLESTYLE
  5
65
102
{ACAD_XDICTIONARY
360
326
102
}
102
{ACAD_REACTORS
330
64
102
}
330
64
100
AcDbTableStyle
280
     0
  3
Standard
 70
     0
 71
     0
 40
0.06
 41
0.06
280
     0
281
     0
  7
Standard
140
0.18
170
     2
 62
     0
 63
     7
283
     0
 90
      512
 91
        0
  1

274
    -2
284
     1
 64
     0
275
    -2
285
     1
 65
     0
276
    -2
286
     1
 66
     0
277
    -2
287
     1
 67
     0
278
    -2
288
     1
 68
     0
279
    -2
289
     1
 69
     0
  7
Standard
140
0.25
170
     5
 62
     0
 63
     7
283
     0
 90
      512
 91
        0
  1

274
    -2
284
     1
 64
     0
275
    -2
285
     1
 65
     0
276
    -2
286
     1
 66
     0
277
    -2
287
     1
 67
     0
278
    -2
288
     1
 68
     0
279
    -2
289
     1
 69
     0
  7
Standard
140
0.18
170
     5
 62
     0
 63
     7
283
     0
 90
      512
 91
        0
  1

274
    -2
284
     1
 64
     0
275
    -2
285
     1
 65
     0
276
    -2
286
     1
 66
     0
277
    -2
287
     1
 67
     0
278
    -2
288
     1
 68
     0
279
    -2
289
     1
 69
     0
  0
VISUALSTYLE
  5
2F
102
{ACAD_REACTORS
330
29
102
}
330
29
100
AcDbVisualStyle
  2
2dWireframe
 70
     4
177
     3
291
     0
 70
    58
 90
        0
176
     1
 90
        2
176
     1
 90
        0
176
     1
 90
        0
176
     1
 40
0.6
176
     1
 40
30.0
176
     1
 62
     7
420
 16777215
176
     1
 90
        1
176
     1
 90
        4
176
     1
 62
     7
176
     1
 62
   257
176
     1
 90
        1
176
     1
 90
        1
176
     1
 40
1.0
176
     1
 90
        0
176
     1
 62
   257
176
     1
 40
1.0
176
     1
 90
        1
176
     1
 90
        6
176
     1
 90
        2
176
     1
 62
     7
176
     1
 90
        5
176
     1
 90
        0
176
     1
 90
        0
176
     1
290
     0
176
     1
 90
        1
176
     1
 40
0.0
176
     1
 90
        0
176
     1
290
     1
176
     1
290
     1
176
     1
290
     0
176
     1
290
     0
176
     1
290
     0
176
     1
290
     0
176
     1
290
     0
176
     1
290
     0
176
     1
290
     0
176
     1
 90
       50
176
     1
 40
0.0
176
     1
 40
1.0
176
     1
 90
        0
176
     1
 62
    18
420
        0
176
     1
 90
       50
176
     1
 90
        3
176
     1
 62
     5
420
      255
176
     1
290
     0
176
     1
 90
       50
176
     1
 90
       50
176
     1
 90
       50
176
     1
290
     0
176
     1
 90
       50
176
     1
 62
   256
176
     0
 40
1.0
176
     0
 90
        2
176
     1
  1
strokes_ogs.tif
176
     1
290
     0
176
     1
 40
1.0
176
     1
 40
1.0
176
     1
  0
VISUALSTYLE
  5
2E
102
{ACAD_REACTORS
330
29
102
}
330
29
100
AcDbVisualStyle
  2
Basic
 70
     7
177
     3
291
     1
 70
    58
 90
        1
176
     1
 90
        0
176
     1
 90
        1
176
     1
 90
        0
176
     1
 40
0.6
176
     1
 40
30.0
176
     1
 62
     7
420
 16777215
176
     1
 90
        0
176
     1
 90
        4
176
     1
 62
     7
176
     1
 62
   257
176
     1
 90
        1
176
     1
 90
        1
176
     1
 40
1.0
176
     1
 90
        8
176
     1
 62
     7
176
     1
 40
1.0
176
     1
 90
        1
176
     1
 90
        6
176
     1
 90
        2
176
     1
 62
     7
176
     1
 90
        5
176
     1
 90
        0
176
     1
 90
        0
176
     1
290
     0
176
     1
 90
        1
176
     1
 40
0.0
176
     1
 90
        0
176
     1
290
     0
176
     1
290
     1
176
     1
290
     1
176
     1
290
     0
176
     1
290
     0
176
     1
290
     0
176
     1
290
     0
176
     1
290
     0
176
     1
290
     0
176
     1
 90
       50
176
     1
 40
0.0
176
     1
 40
1.0
176
     1
 90
        0
176
     1
 62
    18
420
        0
176
     1
 90
       50
176
     1
 90
        3
176
     1
 62
     5
420
      255
176
     1
290
     0
176
     1
 90
       50
176
     1
 90
       50
176
     1
 90
       50
176
     1
290
     0
176
     1
 90
       50
176
     1
 62
   256
176
     0
 40
1.0
176
     0
 90
        2
176
     1
  1
strokes_ogs.tif
176
     1
290
     0
176
     1
 40
1.0
176
     1
 40
1.0
176
     1
  0
VISUALSTYLE
  5
35
102
{ACAD_REACTORS
330
29
102
}
330
29
100
AcDbVisualStyle
  2
Brighten
 70
    12
177
     3
291
     1
 70
    58
 90
        2
176
     1
 90
        2
176
     1
 90
        0
176
     1
 90
        0
176
     1
 40
0.6
176
     1
 40
30.0
176
     1
 62
     7
420
 16777215
176
     1
 90
        1
176
     1
 90
        4
176
     1
 62
     7
176
     1
 62
   257
176
     1
 90
        1
176
     1
 90
        1
176
     1
 40
1.0
176
     1
 90
        8
176
     1
 62
     7
176
     1
 40
1.0
176
     1
 90
        1
176
     1
 90
        6
176
     1
 90
        2
176
     1
 62
     7
176
     1
 90
        5
176
     1
 90
        0
176
     1
 90
        0
176
     1
290
     0
176
     1
 90
        1
176
     1
 40
50.0
176
     1
 90
        0
176
     1
290
     0
176
     1
290
     1
176
     1
290
     1
176
     1
290
     0
176
     1
290
     0
176
     1
290
     0
176
     1
290
     0
176
     1
290
     0
176
     1
290
     0
176
     1
 90
       50
176
     1
 40
0.0
176
     1
 40
1.0
176
     1
 90
        0
176
     1
 62
    18
420
        0
176
     1
 90
       50
176
     1
 90
        3
176
     1
 62
     5
420
      255
176
     1
290
     0
176
     1
 90
       50
176
     1
 90
       50
176
     1
 90
       50
176
     1
290
     0
176
     1
 90
       50
176
     1
 62
   256
176
     0
 40
1.0
176
     0
 90
        2
176
     1
  1
strokes_ogs.tif
176
     1
290
     0
176
     1
 40
1.0
176
     1
 40
1.0
176
     1
  0
VISUALSTYLE
  5
39
102
{ACAD_REACTORS
330
29
102
}
330
29
100
AcDbVisualStyle
  2
ColorChange
 70
    16
177
     3
291
     1
 70
    58
 90
        2
176
     1
 90
        2
176
     1
 90
        3
176
     1
 90
        0
176
     1
 40
0.6
176
     1
 40
30.0
176
     1
 62
     8
420
  8421504
176
     1
 90
        1
176
     1
 90
        4
176
     1
 62
     7
176
     1
 62
   257
176
     1
 90
        1
176
     1
 90
        1
176
     1
 40
1.0
176
     1
 90
        8
176
     1
 62
     8
420
  8421504
176
     1
 40
1.0
176
     1
 90
        1
176
     1
 90
        6
176
     1
 90
        2
176
     1
 62
     7
176
     1
 90
        5
176
     1
 90
        0
176
     1
 90
        0
176
     1
290
     0
176
     1
 90
        1
176
     1
 40
0.0
176
     1
 90
        0
176
     1
290
     0
176
     1
290
     1
176
     1
290
     1
176
     1
290
     0
176
     1
290
     0
176
     1
290
     0
176
     1
290
     0
176
     1
290
     0
176
     1
290
     0
176
     1
 90
       50
176
     1
 40
0.0
176
     1
 40
1.0
176
     1
 90
        0
176
     1
 62
    18
420
        0
176
     1
 90
       50
176
     1
 90
        3
176
     1
 62
     5
420
      255
176
     1
290
     0
176
     1
 90
       50
176
     1
 90
       50
176
     1
 90
       50
176
     1
290
     0
176
     1
 90
       50
176
     1
 62
   256
176
     0
 40
1.0
176
     0
 90
        2
176
     1
  1
strokes_ogs.tif
176
     1
290
     0
176
     1
 40
1.0
176
     1
 40
1.0
176
     1
  0
VISUALSTYLE
  5
32
102
{ACAD_REACTORS
330
29
102
}
330
29
100
AcDbVisualStyle
  2
Conceptual
 70
     9
177
     3
291
     0
 70
    58
 90
        3
176
     1
 90
        2
176
     1
 90
        0
176
     1
 90
        0
176
     1
 40
0.6
176
     1
 40
30.0
176
     1
 62
     7
420
 16777215
176
     1
 90
        2
176
     1
 90
        2
176
     1
 62
     7
176
     1
 62
   257
176
     1
 90
        1
176
     1
 90
        1
176
     1
 40
179.0
176
     1
 90
        8
176
     1
 62
     7
176
     1
 40
1.0
176
     1
 90
        1
176
     1
 90
        6
176
     1
 90
        2
176
     1
 62
     7
176
     1
 90
        3
176
     1
 90
        0
176
     1
 90
        0
176
     1
290
     0
176
     1
 90
        1
176
     1
 40
0.0
176
     1
 90
        0
176
     1
290
     0
176
     1
290
     1
176
     1
290
     1
176
     1
290
     0
176
     1
290
     0
176
     1
290
     0
176
     1
290
     0
176
     1
290
     0
176
     1
290
     0
176
     1
 90
       50
176
     1
 40
0.0
176
     1
 40
1.0
176
     1
 90
        0
176
     1
 62
    18
420
        0
176
     1
 90
       50
176
     1
 90
        3
176
     1
 62
     5
420
      255
176
     1
290
     0
176
     1
 90
       50
176
     1
 90
       50
176
     1
 90
       50
176
     1
290
     0
176
     1
 90
       50
176
     1
 62
   256
176
     0
 40
1.0
176
     0
 90
        2
176
     1
  1
strokes_ogs.tif
176
     1
290
     0
176
     1
 40
1.0
176
     1
 40
1.0
176
     1
  0
VISUALSTYLE
  5
34
102
{ACAD_REACTORS
330
29
102
}
330
29
100
AcDbVisualStyle
  2
Dim
 70
    11
177
     3
291
     1
 70
    58
 90
        2
176
     1
 90
        2
176
     1
 90
        0
176
     1
 90
        0
176
     1
 40
0.6
176
     1
 40
30.0
176
     1
 62
     7
420
 16777215
176
     1
 90
        1
176
     1
 90
        4
176
     1
 62
     7
176
     1
 62
   257
176
     1
 90
        1
176
     1
 90
        1
176
     1
 40
1.0
176
     1
 90
        8
176
     1
 62
     7
176
     1
 40
1.0
176
     1
 90
        1
176
     1
 90
        6
176
     1
 90
        2
176
     1
 62
     7
176
     1
 90
        5
176
     1
 90
        0
176
     1
 90
        0
176
     1
290
     0
176
     1
 90
        1
176
     1
 40
-50.0
176
     1
 90
        0
176
     1
290
     0
176
     1
290
     1
176
     1
290
     1
176
     1
290
     0
176
     1
290
     0
176
     1
290
     0
176
     1
290
     0
176
     1
290
     0
176
     1
290
     0
176
     1
 90
       50
176
     1
 40
0.0
176
     1
 40
1.0
176
     1
 90
        0
176
     1
 62
    18
420
        0
176
     1
 90
       50
176
     1
 90
        3
176
     1
 62
     5
420
      255
176
     1
290
     0
176
     1
 90
       50
176
     1
 90
       50
176
     1
 90
       50
176
     1
290
     0
176
     1
 90
       50
176
     1
 62
   256
176
     0
 40
1.0
176
     0
 90
        2
176
     1
  1
strokes_ogs.tif
176
     1
290
     0
176
     1
 40
1.0
176
     1
 40
1.0
176
     1
  0
VISUALSTYLE
  5
41
102
{ACAD_REACTORS
330
29
102
}
330
29
100
AcDbVisualStyle
  2
EdgeColorOff
 70
    22
177
     3
291
     1
 70
    58
 90
        2
176
     0
 90
        2
176
     0
 90
        0
176
     0
 90
        0
176
     0
 40
0.6
176
     0
 40
30.0
176
     0
 62
     7
420
 16777215
176
     0
 90
        1
176
     0
 90
        4
176
     0
 62
     7
176
     0
 62
   257
176
     0
 90
        1
176
     0
 90
        1
176
     0
 40
1.0
176
     0
 90
        8
176
     2
 62
     7
176
     0
 40
1.0
176
     0
 90
        1
176
     0
 90
        6
176
     0
 90
        2
176
     0
 62
     7
176
     0
 90
        5
176
     0
 90
        0
176
     0
 90
        0
176
     0
290
     0
176
     0
 90
        1
176
     0
 40
0.0
176
     0
 90
        0
176
     0
290
     0
176
     0
290
     1
176
     0
290
     1
176
     0
290
     0
176
     0
290
     0
176
     0
290
     0
176
     0
290
     0
176
     0
290
     0
176
     0
290
     0
176
     0
 90
       50
176
     0
 40
0.0
176
     0
 40
1.0
176
     0
 90
        0
176
     0
 62
    18
420
        0
176
     0
 90
       50
176
     0
 90
        3
176
     0
 62
     5
420
      255
176
     0
290
     0
176
     0
 90
       50
176
     0
 90
       50
176
     0
 90
       50
176
     0
290
     0
176
     0
 90
       50
176
     0
 62
   256
176
     0
 40
1.0
176
     0
 90
        2
176
     0
  1
strokes_ogs.tif
176
     0
290
     0
176
     0
 40
1.0
176
     0
 40
1.0
176
     0
  0
VISUALSTYLE
  5
38
102
{ACAD_REACTORS
330
29
102
}
330
29
100
AcDbVisualStyle
  2
Facepattern
 70
    15
177
     3
291
     1
 70
    58
 90
        2
176
     1
 90
        2
176
     1
 90
        0
176
     1
 90
        0
176
     1
 40
0.6
176
     1
 40
30.0
176
     1
 62
     7
420
 16777215
176
     1
 90
        1
176
     1
 90
        4
176
     1
 62
     7
176
     1
 62
   257
176
     1
 90
        1
176
     1
 90
        1
176
     1
 40
1.0
176
     1
 90
        8
176
     1
 62
     7
176
     1
 40
1.0
176
     1
 90
        1
176
     1
 90
        6
176
     1
 90
        2
176
     1
 62
     7
176
     1
 90
        5
176
     1
 90
        0
176
     1
 90
        0
176
     1
290
     0
176
     1
 90
        1
176
     1
 40
0.0
176
     1
 90
        0
176
     1
290
     0
176
     1
290
     1
176
     1
290
     1
176
     1
290
     0
176
     1
290
     0
176
     1
290
     0
176
     1
290
     0
176
     1
290
     0
176
     1
290
     0
176
     1
 90
       50
176
     1
 40
0.0
176
     1
 40
1.0
176
     1
 90
        0
176
     1
 62
    18
420
        0
176
     1
 90
       50
176
     1
 90
        3
176
     1
 62
     5
420
      255
176
     1
290
     0
176
     1
 90
       50
176
     1
 90
       50
176
     1
 90
       50
176
     1
290
     0
176
     1
 90
       50
176
     1
 62
   256
176
     0
 40
1.0
176
     0
 90
        2
176
     1
  1
strokes_ogs.tif
176
     1
290
     0
176
     1
 40
1.0
176
     1
 40
1.0
176
     1
  0
VISUALSTYLE
  5
2A
102
{ACAD_REACTORS
330
29
102
}
330
29
100
AcDbVisualStyle
  2
Flat
 70
     0
177
     3
291
     1
 70
    58
 90
        2
176
     1
 90
        1
176
     1
 90
        1
176
     1
 90
        2
176
     1
 40
0.6
176
     1
 40
30.0
176
     1
 62
     7
420
 16777215
176
     1
 90
        0
176
     1
 90
        0
176
     1
 62
     7
176
     1
 62
   257
176
     1
 90
        1
176
     1
 90
        1
176
     1
 40
1.0
176
     1
 90
        8
176
     1
 62
     7
176
     1
 40
1.0
176
     1
 90
        1
176
     1
 90
        6
176
     1
 90
        2
176
     1
 62
     7
176
     1
 90
        5
176
     1
 90
        0
176
     1
 90
        0
176
     1
290
     0
176
     1
 90
       13
176
     1
 40
0.0
176
     1
 90
        0
176
     1
290
     0
176
     1
290
     1
176
     1
290
     1
176
     1
290
     0
176
     1
290
     0
176
     1
290
     0
176
     1
290
     0
176
     1
290
     0
176
     1
290
     0
176
     1
 90
       50
176
     1
 40
0.0
176
     1
 40
1.0
176
     1
 90
        0
176
     1
 62
    18
420
        0
176
     1
 90
       50
176
     1
 90
        3
176
     1
 62
     5
420
      255
176
     1
290
     0
176
     1
 90
       50
176
     1
 90
       50
176
     1
 90
       50
176
     1
290
     0
176
     1
 90
       50
176
     1
 62
   256
176
     0
 40
1.0
176
     0
 90
        2
176
     1
  1
strokes_ogs.tif
176
     1
290
     0
176
     1
 40
1.0
176
     1
 40
1.0
176
     1
  0
VISUALSTYLE
  5
2B
102
{ACAD_REACTORS
330
29
102
}
330
29
100
AcDbVisualStyle
  2
FlatWithEdges
 70
     1
177
     3
291
     1
 70
    58
 90
        2
176
     1
 90
        1
176
     1
 90
        1
176
     1
 90
        2
176
     1
 40
0.6
176
     1
 40
30.0
176
     1
 62
     7
420
 16777215
176
     1
 90
        1
176
     1
 90
        0
176
     1
 62
     7
176
     1
 62
   257
176
     1
 90
        1
176
     1
 90
        1
176
     1
 40
1.0
176
     1
 90
        0
176
     1
 62
   257
176
     1
 40
1.0
176
     1
 90
        1
176
     1
 90
        6
176
     1
 90
        2
176
     1
 62
     7
176
     1
 90
        5
176
     1
 90
        0
176
     1
 90
        0
176
     1
290
     0
176
     1
 90
       13
176
     1
 40
0.0
176
     1
 90
        0
176
     1
290
     0
176
     1
290
     1
176
     1
290
     1
176
     1
290
     0
176
     1
290
     0
176
     1
290
     0
176
     1
290
     0
176
     1
290
     0
176
     1
290
     0
176
     1
 90
       50
176
     1
 40
0.0
176
     1
 40
1.0
176
     1
 90
        0
176
     1
 62
    18
420
        0
176
     1
 90
       50
176
     1
 90
        3
176
     1
 62
     5
420
      255
176
     1
290
     0
176
     1
 90
       50
176
     1
 90
       50
176
     1
 90
       50
176
     1
290
     0
176
     1
 90
       50
176
     1
 62
   256
176
     0
 40
1.0
176
     0
 90
        2
176
     1
  1
strokes_ogs.tif
176
     1
290
     0
176
     1
 40
1.0
176
     1
 40
1.0
176
     1
  0
VISUALSTYLE
  5
2C
102
{ACAD_REACTORS
330
29
102
}
330
29
100
AcDbVisualStyle
  2
Gouraud
 70
     2
177
     3
291
     1
 70
    58
 90
        2
176
     1
 90
        2
176
     1
 90
        1
176
     1
 90
        2
176
     1
 40
0.6
176
     1
 40
30.0
176
     1
 62
     7
420
 16777215
176
     1
 90
        0
176
     1
 90
        0
176
     1
 62
     7
176
     1
 62
   257
176
     1
 90
        1
176
     1
 90
        1
176
     1
 40
1.0
176
     1
 90
        0
176
     1
 62
     7
176
     1
 40
1.0
176
     1
 90
        1
176
     1
 90
        6
176
     1
 90
        2
176
     1
 62
     7
176
     1
 90
        5
176
     1
 90
        0
176
     1
 90
        0
176
     1
290
     0
176
     1
 90
       13
176
     1
 40
0.0
176
     1
 90
        0
176
     1
290
     0
176
     1
290
     1
176
     1
290
     1
176
     1
290
     0
176
     1
290
     0
176
     1
290
     0
176
     1
290
     0
176
     1
290
     0
176
     1
290
     0
176
     1
 90
       50
176
     1
 40
0.0
176
     1
 40
1.0
176
     1
 90
        0
176
     1
 62
    18
420
        0
176
     1
 90
       50
176
     1
 90
        3
176
     1
 62
     5
420
      255
176
     1
290
     0
176
     1
 90
       50
176
     1
 90
       50
176
     1
 90
       50
176
     1
290
     0
176
     1
 90
       50
176
     1
 62
   256
176
     0
 40
1.0
176
     0
 90
        2
176
     1
  1
strokes_ogs.tif
176
     1
290
     0
176
     1
 40
1.0
176
     1
 40
1.0
176
     1
  0
VISUALSTYLE
  5
2D
102
{ACAD_REACTORS
330
29
102
}
330
29
100
AcDbVisualStyle
  2
GouraudWithEdges
 70
     3
177
     3
291
     1
 70
    58
 90
        2
176
     1
 90
        2
176
     1
 90
        1
176
     1
 90
        2
176
     1
 40
0.6
176
     1
 40
30.0
176
     1
 62
     7
420
 16777215
176
     1
 90
        1
176
     1
 90
        0
176
     1
 62
     7
176
     1
 62
   257
176
     1
 90
        1
176
     1
 90
        1
176
     1
 40
1.0
176
     1
 90
        0
176
     1
 62
   257
176
     1
 40
1.0
176
     1
 90
        1
176
     1
 90
        6
176
     1
 90
        2
176
     1
 62
     7
176
     1
 90
        5
176
     1
 90
        0
176
     1
 90
        0
176
     1
290
     0
176
     1
 90
       13
176
     1
 40
0.0
176
     1
 90
        0
176
     1
290
     0
176
     1
290
     1
176
     1
290
     1
176
     1
290
     0
176
     1
290
     0
176
     1
290
     0
176
     1
290
     0
176
     1
290
     0
176
     1
290
     0
176
     1
 90
       50
176
     1
 40
0.0
176
     1
 40
1.0
176
     1
 90
        0
176
     1
 62
    18
420
        0
176
     1
 90
       50
176
     1
 90
        3
176
     1
 62
     5
420
      255
176
     1
290
     0
176
     1
 90
       50
176
     1
 90
       50
176
     1
 90
       50
176
     1
290
     0
176
     1
 90
       50
176
     1
 62
   256
176
     0
 40
1.0
176
     0
 90
        2
176
     1
  1
strokes_ogs.tif
176
     1
290
     0
176
     1
 40
1.0
176
     1
 40
1.0
176
     1
  0
VISUALSTYLE
  5
31
102
{ACAD_REACTORS
330
29
102
}
330
29
100
AcDbVisualStyle
  2
Hidden
 70
     6
177
     3
291
     0
 70
    58
 90
        1
176
     1
 90
        2
176
     1
 90
        2
176
     1
 90
        0
176
     1
 40
0.6
176
     1
 40
30.0
176
     1
 62
     7
420
 16777215
176
     1
 90
        2
176
     1
 90
        2
176
     1
 62
     7
176
     1
 62
   257
176
     1
 90
        2
176
     1
 90
        1
176
     1
 40
40.0
176
     1
 90
        0
176
     1
 62
   257
176
     1
 40
1.0
176
     1
 90
        1
176
     1
 90
        6
176
     1
 90
        2
176
     1
 62
     7
176
     1
 90
        3
176
     1
 90
        0
176
     1
 90
        0
176
     1
290
     0
176
     1
 90
        1
176
     1
 40
0.0
176
     1
 90
        0
176
     1
290
     0
176
     1
290
     1
176
     1
290
     1
176
     1
290
     0
176
     1
290
     0
176
     1
290
     0
176
     1
290
     0
176
     1
290
     0
176
     1
290
     0
176
     1
 90
       50
176
     1
 40
0.0
176
     1
 40
1.0
176
     1
 90
        0
176
     1
 62
    18
420
        0
176
     1
 90
       50
176
     1
 90
        3
176
     1
 62
     5
420
      255
176
     1
290
     0
176
     1
 90
       50
176
     1
 90
       50
176
     1
 90
       50
176
     1
290
     0
176
     1
 90
       50
176
     1
 62
   256
176
     0
 40
1.0
176
     0
 90
        2
176
     1
  1
strokes_ogs.tif
176
     1
290
     0
176
     1
 40
1.0
176
     1
 40
1.0
176
     1
  0
VISUALSTYLE
  5
3F
102
{ACAD_REACTORS
330
29
102
}
330
29
100
AcDbVisualStyle
  2
JitterOff
 70
    20
177
     3
291
     1
 70
    58
 90
        2
176
     0
 90
        2
176
     0
 90
        0
176
     0
 90
        0
176
     0
 40
0.6
176
     0
 40
30.0
176
     0
 62
     7
420
 16777215
176
     0
 90
        1
176
     0
 90
        4
176
     0
 62
     7
176
     0
 62
   257
176
     0
 90
        1
176
     0
 90
        1
176
     0
 40
1.0
176
     0
 90
       10
176
     2
 62
     7
176
     0
 40
1.0
176
     0
 90
        1
176
     0
 90
        6
176
     0
 90
        2
176
     0
 62
     7
176
     0
 90
        5
176
     0
 90
        0
176
     0
 90
        0
176
     0
290
     0
176
     0
 90
        1
176
     0
 40
0.0
176
     0
 90
        0
176
     0
290
     0
176
     0
290
     1
176
     0
290
     1
176
     0
290
     0
176
     0
290
     0
176
     0
290
     0
176
     0
290
     0
176
     0
290
     0
176
     0
290
     0
176
     0
 90
       50
176
     0
 40
0.0
176
     0
 40
1.0
176
     0
 90
        0
176
     0
 62
    18
420
        0
176
     0
 90
       50
176
     0
 90
        3
176
     0
 62
     5
420
      255
176
     0
290
     0
176
     0
 90
       50
176
     0
 90
       50
176
     0
 90
       50
176
     0
290
     0
176
     0
 90
       50
176
     0
 62
   256
176
     0
 40
1.0
176
     0
 90
        2
176
     0
  1
strokes_ogs.tif
176
     0
290
     0
176
     0
 40
1.0
176
     0
 40
1.0
176
     0
  0
VISUALSTYLE
  5
37
102
{ACAD_REACTORS
330
29
102
}
330
29
100
AcDbVisualStyle
  2
Linepattern
 70
    14
177
     3
291
     1
 70
    58
 90
        2
176
     1
 90
        2
176
     1
 90
        0
176
     1
 90
        0
176
     1
 40
0.6
176
     1
 40
30.0
176
     1
 62
     7
420
 16777215
176
     1
 90
        1
176
     1
 90
        4
176
     1
 62
     7
176
     1
 62
   257
176
     1
 90
        7
176
     1
 90
        7
176
     1
 40
1.0
176
     1
 90
        8
176
     1
 62
     7
176
     1
 40
1.0
176
     1
 90
        1
176
     1
 90
        6
176
     1
 90
        2
176
     1
 62
     7
176
     1
 90
        5
176
     1
 90
        0
176
     1
 90
        0
176
     1
290
     0
176
     1
 90
        1
176
     1
 40
0.0
176
     1
 90
        0
176
     1
290
     0
176
     1
290
     1
176
     1
290
     1
176
     1
290
     0
176
     1
290
     0
176
     1
290
     0
176
     1
290
     0
176
     1
290
     0
176
     1
290
     0
176
     1
 90
       50
176
     1
 40
0.0
176
     1
 40
1.0
176
     1
 90
        0
176
     1
 62
    18
420
        0
176
     1
 90
       50
176
     1
 90
        3
176
     1
 62
     5
420
      255
176
     1
290
     0
176
     1
 90
       50
176
     1
 90
       50
176
     1
 90
       50
176
     1
290
     0
176
     1
 90
       50
176
     1
 62
   256
176
     0
 40
1.0
176
     0
 90
        2
176
     1
  1
strokes_ogs.tif
176
     1
290
     0
176
     1
 40
1.0
176
     1
 40
1.0
176
     1
  0
VISUALSTYLE
  5
40
102
{ACAD_REACTORS
330
29
102
}
330
29
100
AcDbVisualStyle
  2
OverhangOff
 70
    21
177
     3
291
     1
 70
    58
 90
        2
176
     0
 90
        2
176
     0
 90
        0
176
     0
 90
        0
176
     0
 40
0.6
176
     0
 40
30.0
176
     0
 62
     7
420
 16777215
176
     0
 90
        1
176
     0
 90
        4
176
     0
 62
     7
176
     0
 62
   257
176
     0
 90
        1
176
     0
 90
        1
176
     0
 40
1.0
176
     0
 90
        9
176
     2
 62
     7
176
     0
 40
1.0
176
     0
 90
        1
176
     0
 90
        6
176
     0
 90
        2
176
     0
 62
     7
176
     0
 90
        5
176
     0
 90
        0
176
     0
 90
        0
176
     0
290
     0
176
     0
 90
        1
176
     0
 40
0.0
176
     0
 90
        0
176
     0
290
     0
176
     0
290
     1
176
     0
290
     1
176
     0
290
     0
176
     0
290
     0
176
     0
290
     0
176
     0
290
     0
176
     0
290
     0
176
     0
290
     0
176
     0
 90
       50
176
     0
 40
0.0
176
     0
 40
1.0
176
     0
 90
        0
176
     0
 62
    18
420
        0
176
     0
 90
       50
176
     0
 90
        3
176
     0
 62
     5
420
      255
176
     0
290
     0
176
     0
 90
       50
176
     0
 90
       50
176
     0
 90
       50
176
     0
290
     0
176
     0
 90
       50
176
     0
 62
   256
176
     0
 40
1.0
176
     0
 90
        2
176
     0
  1
strokes_ogs.tif
176
     0
290
     0
176
     0
 40
1.0
176
     0
 40
1.0
176
     0
  0
VISUALSTYLE
  5
33
102
{ACAD_REACTORS
330
29
102
}
330
29
100
AcDbVisualStyle
  2
Realistic
 70
     8
177
     3
291
     0
 70
    58
 90
        2
176
     1
 90
        3
176
     1
 90
        0
176
     1
 90
        2
176
     1
 40
0.6
176
     1
 40
30.0
176
     1
 62
     7
420
 16777215
176
     1
 90
        0
176
     1
 90
        0
176
     1
 62
     7
176
     1
 62
   257
176
     1
 90
        1
176
     1
 90
        1
176
     1
 40
1.0
176
     1
 90
        8
176
     1
 62
   257
176
     1
 40
1.0
176
     1
 90
        1
176
     1
 90
        6
176
     1
 90
        2
176
     1
 62
     7
176
     1
 90
        3
176
     1
 90
        0
176
     1
 90
        0
176
     1
290
     0
176
     1
 90
       13
176
     1
 40
0.0
176
     1
 90
        0
176
     1
290
     0
176
     1
290
     1
176
     1
290
     1
176
     1
290
     0
176
     1
290
     0
176
     1
290
     0
176
     1
290
     0
176
     1
290
     0
176
     1
290
     0
176
     1
 90
       50
176
     1
 40
0.0
176
     1
 40
1.0
176
     1
 90
        0
176
     1
 62
    18
420
        0
176
     1
 90
       50
176
     1
 90
        3
176
     1
 62
     5
420
      255
176
     1
290
     0
176
     1
 90
       50
176
     1
 90
       50
176
     1
 90
       50
176
     1
290
     0
176
     1
 90
       50
176
     1
 62
   256
176
     0
 40
1.0
176
     0
 90
        2
176
     1
  1
strokes_ogs.tif
176
     1
290
     0
176
     1
 40
1.0
176
     1
 40
1.0
176
     1
  0
VISUALSTYLE
  5
3E
102
{ACAD_REACTORS
330
29
102
}
330
29
100
AcDbVisualStyle
  2
Shaded
 70
    27
177
     3
291
     0
 70
    58
 90
        2
176
     1
 90
        2
176
     1
 90
        1
176
     1
 90
        2
176
     1
 40
0.6
176
     1
 40
30.0
176
     1
 62
     7
420
 16777215
176
     1
 90
        0
176
     1
 90
        4
176
     1
 62
     7
176
     1
 62
   257
176
     1
 90
        1
176
     1
 90
        1
176
     1
 40
1.0
176
     1
 90
        8
176
     1
 62
   257
176
     1
 40
1.0
176
     1
 90
        1
176
     1
 90
        6
176
     1
 90
        2
176
     1
 62
     8
420
  7895160
176
     1
 90
        3
176
     1
 90
        0
176
     1
 90
        0
176
     1
290
     0
176
     1
 90
        5
176
     1
 40
0.0
176
     1
 90
        0
176
     1
290
     0
176
     1
290
     1
176
     1
290
     1
176
     1
290
     0
176
     1
290
     0
176
     1
290
     0
176
     1
290
     0
176
     1
290
     0
176
     1
290
     0
176
     1
 90
       50
176
     1
 40
0.0
176
     1
 40
1.0
176
     1
 90
        0
176
     1
 62
    18
420
        0
176
     1
 90
       50
176
     1
 90
        3
176
     1
 62
     5
420
      255
176
     1
290
     0
176
     1
 90
       50
176
     1
 90
       50
176
     1
 90
       50
176
     1
290
     0
176
     1
 90
       50
176
     1
 62
   256
176
     0
 40
1.0
176
     0
 90
        2
176
     1
  1
strokes_ogs.tif
176
     1
290
     0
176
     1
 40
1.0
176
     1
 40
1.0
176
     1
  0
VISUALSTYLE
  5
3D
102
{ACAD_REACTORS
330
29
102
}
330
29
100
AcDbVisualStyle
  2
Shaded with edges
 70
    26
177
     3
291
     0
 70
    58
 90
        2
176
     1
 90
        2
176
     1
 90
        1
176
     1
 90
        2
176
     1
 40
0.6
176
     1
 40
30.0
176
     1
 62
     7
420
 16777215
176
     1
 90
        1
176
     1
 90
        2
176
     1
 62
     7
176
     1
 62
   257
176
     1
 90
        2
176
     1
 90
        1
176
     1
 40
1.0
176
     1
 90
        8
176
     1
 62
   257
176
     1
 40
1.0
176
     1
 90
        1
176
     1
 90
        6
176
     1
 90
        2
176
     1
 62
     7
176
     1
 90
        3
176
     1
 90
        0
176
     1
 90
        0
176
     1
290
     0
176
     1
 90
        5
176
     1
 40
0.0
176
     1
 90
        0
176
     1
290
     0
176
     1
290
     1
176
     1
290
     1
176
     1
290
     0
176
     1
290
     0
176
     1
290
     0
176
     1
290
     0
176
     1
290
     0
176
     1
290
     0
176
     1
 90
       50
176
     1
 40
0.0
176
     1
 40
1.0
176
     1
 90
        0
176
     1
 62
    18
420
        0
176
     1
 90
       50
176
     1
 90
        3
176
     1
 62
     5
420
      255
176
     1
290
     0
176
     1
 90
       50
176
     1
 90
       50
176
     1
 90
       50
176
     1
290
     0
176
     1
 90
       50
176
     1
 62
   256
176
     0
 40
1.0
176
     0
 90
        2
176
     1
  1
strokes_ogs.tif
176
     1
290
     0
176
     1
 40
1.0
176
     1
 40
1.0
176
     1
  0
VISUALSTYLE
  5
3A
102
{ACAD_REACTORS
330
29
102
}
330
29
100
AcDbVisualStyle
  2
Shades of Gray
 70
    23
177
     3
291
     0
 70
    58
 90
        2
176
     1
 90
        2
176
     1
 90
        3
176
     1
 90
        0
176
     1
 40
0.6
176
     1
 40
30.0
176
     1
 62
     7
420
 16777215
176
     1
 90
        2
176
     1
 90
        2
176
     1
 62
     7
176
     1
 62
     7
176
     1
 90
        1
176
     1
 90
        1
176
     1
 40
40.0
176
     1
 90
        8
176
     1
 62
     7
176
     1
 40
1.0
176
     1
 90
        1
176
     1
 90
        6
176
     1
 90
        2
176
     1
 62
     7
176
     1
 90
        3
176
     1
 90
        0
176
     1
 90
        0
176
     1
290
     0
176
     1
 90
        1
176
     1
 40
0.0
176
     1
 90
        0
176
     1
290
     0
176
     1
290
     1
176
     1
290
     1
176
     1
290
     0
176
     1
290
     0
176
     1
290
     0
176
     1
290
     0
176
     1
290
     0
176
     1
290
     0
176
     1
 90
       50
176
     1
 40
0.0
176
     1
 40
1.0
176
     1
 90
        0
176
     1
 62
    18
420
        0
176
     1
 90
       50
176
     1
 90
        3
176
     1
 62
     5
420
      255
176
     1
290
     0
176
     1
 90
       50
176
     1
 90
       50
176
     1
 90
       50
176
     1
290
     0
176
     1
 90
       50
176
     1
 62
   256
176
     0
 40
1.0
176
     0
 90
        2
176
     1
  1
strokes_ogs.tif
176
     1
290
     0
176
     1
 40
1.0
176
     1
 40
1.0
176
     1
  0
VISUALSTYLE
  5
3B
102
{ACAD_REACTORS
330
29
102
}
330
29
100
AcDbVisualStyle
  2
Sketchy
 70
    24
177
     3
291
     0
 70
    58
 90
        1
176
     1
 90
        2
176
     1
 90
        2
176
     1
 90
        0
176
     1
 40
0.6
176
     1
 40
30.0
176
     1
 62
     7
420
 16777215
176
     1
 90
        2
176
     1
 90
        2
176
     1
 62
     7
176
     1
 62
     7
176
     1
 90
        1
176
     1
 90
        1
176
     1
 40
40.0
176
     1
 90
       11
176
     1
 62
     7
176
     1
 40
1.0
176
     1
 90
        1
176
     1
 90
        6
176
     1
 90
        2
176
     1
 62
     7
176
     1
 90
        6
176
     1
 90
        0
176
     1
 90
        0
176
     1
290
     0
176
     1
 90
        1
176
     1
 40
0.0
176
     1
 90
        0
176
     1
290
     0
176
     1
290
     1
176
     1
290
     1
176
     1
290
     0
176
     1
290
     0
176
     1
290
     0
176
     1
290
     0
176
     1
290
     0
176
     1
290
     0
176
     1
 90
       50
176
     1
 40
0.0
176
     1
 40
1.0
176
     1
 90
        0
176
     1
 62
    18
420
        0
176
     1
 90
       50
176
     1
 90
        3
176
     1
 62
     5
420
      255
176
     1
290
     0
176
     1
 90
       50
176
     1
 90
       50
176
     1
 90
       50
176
     1
290
     0
176
     1
 90
       50
176
     1
 62
   256
176
     0
 40
1.0
176
     0
 90
        2
176
     1
  1
strokes_ogs.tif
176
     1
290
     0
176
     1
 40
1.0
176
     1
 40
1.0
176
     1
  0
VISUALSTYLE
  5
36
102
{ACAD_REACTORS
330
29
102
}
330
29
100
AcDbVisualStyle
  2
Thicken
 70
    13
177
     3
291
     1
 70
    58
 90
        2
176
     1
 90
        2
176
     1
 90
        0
176
     1
 90
        0
176
     1
 40
0.6
176
     1
 40
30.0
176
     1
 62
     7
420
 16777215
176
     1
 90
        1
176
     1
 90
        4
176
     1
 62
     7
176
     1
 62
   257
176
     1
 90
        1
176
     1
 90
        1
176
     1
 40
1.0
176
     1
 90
       12
176
     1
 62
     7
176
     1
 40
1.0
176
     1
 90
        1
176
     1
 90
        6
176
     1
 90
        2
176
     1
 62
     7
176
     1
 90
        5
176
     1
 90
        0
176
     1
 90
        0
176
     1
290
     0
176
     1
 90
        1
176
     1
 40
0.0
176
     1
 90
        0
176
     1
290
     0
176
     1
290
     1
176
     1
290
     1
176
     1
290
     0
176
     1
290
     0
176
     1
290
     0
176
     1
290
     0
176
     1
290
     0
176
     1
290
     0
176
     1
 90
       50
176
     1
 40
0.0
176
     1
 40
1.0
176
     1
 90
        0
176
     1
 62
    18
420
        0
176
     1
 90
       50
176
     1
 90
        3
176
     1
 62
     5
420
      255
176
     1
290
     0
176
     1
 90
       50
176
     1
 90
       50
176
     1
 90
       50
176
     1
290
     0
176
     1
 90
       50
176
     1
 62
   256
176
     0
 40
1.0
176
     0
 90
        2
176
     1
  1
strokes_ogs.tif
176
     1
290
     0
176
     1
 40
1.0
176
     1
 40
1.0
176
     1
  0
VISUALSTYLE
  5
30
102
{ACAD_REACTORS
330
29
102
}
330
29
100
AcDbVisualStyle
  2
Wireframe
 70
     5
177
     3
291
     0
 70
    58
 90
        0
176
     1
 90
        2
176
     1
 90
        0
176
     1
 90
        0
176
     1
 40
0.6
176
     1
 40
30.0
176
     1
 62
     7
420
 16777215
176
     1
 90
        1
176
     1
 90
        4
176
     1
 62
     7
176
     1
 62
   257
176
     1
 90
        1
176
     1
 90
        1
176
     1
 40
1.0
176
     1
 90
        0
176
     1
 62
   257
176
     1
 40
1.0
176
     1
 90
        1
176
     1
 90
        6
176
     1
 90
        2
176
     1
 62
     7
176
     1
 90
        3
176
     1
 90
        0
176
     1
 90
        0
176
     1
290
     0
176
     1
 90
        1
176
     1
 40
0.0
176
     1
 90
        0
176
     1
290
     0
176
     1
290
     1
176
     1
290
     1
176
     1
290
     0
176
     1
290
     0
176
     1
290
     0
176
     1
290
     0
176
     1
290
     0
176
     1
290
     0
176
     1
 90
       50
176
     1
 40
0.0
176
     1
 40
1.0
176
     1
 90
        0
176
     1
 62
    18
420
        0
176
     1
 90
       50
176
     1
 90
        3
176
     1
 62
     5
420
      255
176
     1
290
     0
176
     1
 90
       50
176
     1
 90
       50
176
     1
 90
       50
176
     1
290
     0
176
     1
 90
       50
176
     1
 62
   256
176
     0
 40
1.0
176
     0
 90
        2
176
     1
  1
strokes_ogs.tif
176
     1
290
     0
176
     1
 40
1.0
176
     1
 40
1.0
176
     1
  0
VISUALSTYLE
  5
3C
102
{ACAD_REACTORS
330
29
102
}
330
29
100
AcDbVisualStyle
  2
X-Ray
 70
    25
177
     3
291
     0
 70
    58
 90
        2
176
     1
 90
        2
176
     1
 90
        1
176
     1
 90
        1
176
     1
 40
0.5
176
     1
 40
30.0
176
     1
 62
     7
420
 16777215
176
     1
 90
        1
176
     1
 90
        0
176
     1
 62
     7
176
     1
 62
   257
176
     1
 90
        1
176
     1
 90
        1
176
     1
 40
1.0
176
     1
 90
        8
176
     1
 62
     7
176
     1
 40
1.0
176
     1
 90
        1
176
     1
 90
        6
176
     1
 90
        2
176
     1
 62
     7
176
     1
 90
        3
176
     1
 90
        0
176
     1
 90
        0
176
     1
290
     0
176
     1
 90
       13
176
     1
 40
0.0
176
     1
 90
        0
176
     1
290
     0
176
     1
290
     1
176
     1
290
     1
176
     1
290
     0
176
     1
290
     0
176
     1
290
     0
176
     1
290
     0
176
     1
290
     0
176
     1
290
     0
176
     1
 90
       50
176
     1
 40
0.0
176
     1
 40
1.0
176
     1
 90
        0
176
     1
 62
    18
420
        0
176
     1
 90
       50
176
     1
 90
        3
176
     1
 62
     5
420
      255
176
     1
290
     0
176
     1
 90
       50
176
     1
 90
       50
176
     1
 90
       50
176
     1
290
     0
176
     1
 90
       50
176
     1
 62
   256
176
     0
 40
1.0
176
     0
 90
        2
176
     1
  1
strokes_ogs.tif
176
     1
290
     0
176
     1
 40
1.0
176
     1
 40
1.0
176
     1
  0
DICTIONARYVAR
  5
325
102
{ACAD_REACTORS
330
320
102
}
330
320
100
DictionaryVariables
280
     0
  1
1:1
  0
DICTIONARYVAR
  5
322
102
{ACAD_REACTORS
330
320
102
}
330
320
100
DictionaryVariables
280
     0
  1
STANDARD
  0
DICTIONARYVAR
  5
321
102
{ACAD_REACTORS
330
320
102
}
330
320
100
DictionaryVariables
280
     0
  1
STANDARD
  0
DICTIONARYVAR
  5
323
102
{ACAD_REACTORS
330
320
102
}
330
320
100
DictionaryVariables
280
     0
  1
Imperial24
  0
DICTIONARYVAR
  5
324
102
{ACAD_REACTORS
330
320
102
}
330
320
100
DictionaryVariables
280
     0
  1
Imperial24
  0
DICTIONARY
  5
1A
330
19
100
AcDbDictionary
280
     1
281
     1
  3
BUMPTILE
360
1C
  3
DIFFUSETILE
360
1B
  3
OPACITYTILE
360
1F
  3
REFLECTIONTILE
360
1E
  3
REFRACTIONTILE
360
20
  3
SPECULARTILE
360
1D
  0
DICTIONARY
  5
12
330
11
100
AcDbDictionary
280
     1
281
     1
  3
BUMPTILE
360
14
  3
DIFFUSETILE
360
13
  3
OPACITYTILE
360
17
  3
REFLECTIONTILE
360
16
  3
REFRACTIONTILE
360
18
  3
SPECULARTILE
360
15
  0
DICTIONARY
  5
22
330
21
100
AcDbDictionary
280
     1
281
     1
  3
BUMPTILE
360
24
  3
DIFFUSETILE
360
23
  3
OPACITYTILE
360
27
  3
REFLECTIONTILE
360
26
  3
REFRACTIONTILE
360
28
  3
SPECULARTILE
360
25
  0
DICTIONARY
  5
326
330
65
100
AcDbDictionary
280
     1
281
     1
  3
ACAD_ROUNDTRIP_2008_TABLESTYLE_CELLSTYLEMAP
360
327
  0
XRECORD
  5
1C
102
{ACAD_REACTORS
330
1A
102
}
330
1A
100
AcDbXrecord
280
     1
270
     1
271
     1
  0
XRECORD
  5
1B
102
{ACAD_REACTORS
330
1A
102
}
330
1A
100
AcDbXrecord
280
     1
270
     1
271
     1
  0
XRECORD
  5
1F
102
{ACAD_REACTORS
330
1A
102
}
330
1A
100
AcDbXrecord
280
     1
270
     1
271
     1
  0
XRECORD
  5
1E
102
{ACAD_REACTORS
330
1A
102
}
330
1A
100
AcDbXrecord
280
     1
270
     1
271
     1
  0
XRECORD
  5
20
102
{ACAD_REACTORS
330
1A
102
}
330
1A
100
AcDbXrecord
280
     1
270
     1
271
     1
  0
XRECORD
  5
1D
102
{ACAD_REACTORS
330
1A
102
}
330
1A
100
AcDbXrecord
280
     1
270
     1
271
     1
  0
XRECORD
  5
14
102
{ACAD_REACTORS
330
12
102
}
330
12
100
AcDbXrecord
280
     1
270
     1
271
     1
  0
XRECORD
  5
13
102
{ACAD_REACTORS
330
12
102
}
330
12
100
AcDbXrecord
280
     1
270
     1
271
     1
  0
XRECORD
  5
17
102
{ACAD_REACTORS
330
12
102
}
330
12
100
AcDbXrecord
280
     1
270
     1
271
     1
  0
XRECORD
  5
16
102
{ACAD_REACTORS
330
12
102
}
330
12
100
AcDbXrecord
280
     1
270
     1
271
     1
  0
XRECORD
  5
18
102
{ACAD_REACTORS
330
12
102
}
330
12
100
AcDbXrecord
280
     1
270
     1
271
     1
  0
XRECORD
  5
15
102
{ACAD_REACTORS
330
12
102
}
330
12
100
AcDbXrecord
280
     1
270
     1
271
     1
  0
XRECORD
  5
24
102
{ACAD_REACTORS
330
22
102
}
330
22
100
AcDbXrecord
280
     1
270
     1
271
     1
  0
XRECORD
  5
23
102
{ACAD_REACTORS
330
22
102
}
330
22
100
AcDbXrecord
280
     1
270
     1
271
     1
  0
XRECORD
  5
27
102
{ACAD_REACTORS
330
22
102
}
330
22
100
AcDbXrecord
280
     1
270
     1
271
     1
  0
XRECORD
  5
26
102
{ACAD_REACTORS
330
22
102
}
330
22
100
AcDbXrecord
280
     1
270
     1
271
     1
  0
XRECORD
  5
28
102
{ACAD_REACTORS
330
22
102
}
330
22
100
AcDbXrecord
280
     1
270
     1
271
     1
  0
XRECORD
  5
25
102
{ACAD_REACTORS
330
22
102
}
330
22
100
AcDbXrecord
280
     1
270
     1
271
     1
  0
CELLSTYLEMAP
  5
327
102
{ACAD_REACTORS
330
326
102
}
330
326
100
AcDbCellStyleMap
 90
        3
300
CELLSTYLE
  1
TABLEFORMAT_BEGIN
 90
        5
170
     1
 91
        0
 92
    32768
 62
   257
 93
        1
300
CONTENTFORMAT
  1
CONTENTFORMAT_BEGIN
 90
        0
 91
        0
 92
      512
 93
        0
300

 40
0.0
140
1.0
 94
        5
 62
     0
340
55
144
0.25
309
CONTENTFORMAT_END
171
     0
 94
        0
309
TABLEFORMAT_END
  1
CELLSTYLE_BEGIN
 90
        1
 91
        1
300
_TITLE
309
CELLSTYLE_END
300
CELLSTYLE
  1
TABLEFORMAT_BEGIN
 90
        5
170
     1
 91
        0
 92
        0
 62
   257
 93
        1
300
CONTENTFORMAT
  1
CONTENTFORMAT_BEGIN
 90
        0
 91
        0
 92
      512
 93
        0
300

 40
0.0
140
1.0
 94
        5
 62
     0
340
55
144
0.18
309
CONTENTFORMAT_END
171
     0
 94
        0
309
TABLEFORMAT_END
  1
CELLSTYLE_BEGIN
 90
        2
 91
        1
300
_HEADER
309
CELLSTYLE_END
300
CELLSTYLE
  1
TABLEFORMAT_BEGIN
 90
        5
170
     1
 91
        0
 92
        0
 62
   257
 93
        1
300
CONTENTFORMAT
  1
CONTENTFORMAT_BEGIN
 90
        0
 91
        0
 92
      512
 93
        0
300

 40
0.0
140
1.0
 94
        2
 62
     0
340
55
144
0.18
309
CONTENTFORMAT_END
171
     0
 94
        0
309
TABLEFORMAT_END
  1
CELLSTYLE_BEGIN
 90
        3
 91
        2
300
_DATA
309
CELLSTYLE_END
  0
ENDSEC
  0
EOF
