  0
SECTION
  2
HEADER
  9
$ACADVER
  1
AC1032
  9
$ACADMAINTVER
 90
      197
  9
$DWGCODEPAGE
  3
ANSI_932
  9
$REQUIREDVERSIONS
160
                 0
  9
$INSBASE
 10
0.0
 20
0.0
 30
0.0
  9
$EXTMIN
 10
1.000000000000000E+20
 20
1.000000000000000E+20
 30
1.000000000000000E+20
  9
$EXTMAX
 10
-1.000000000000000E+20
 20
-1.000000000000000E+20
 30
-1.000000000000000E+20
  9
$LIMMIN
 10
0.0
 20
0.0
  9
$LIMMAX
 10
12.0
 20
9.0
  9
$ORTHOMODE
 70
     0
  9
$REGENMODE
 70
     1
  9
$FILLMODE
 70
     1
  9
$QTEXTMODE
 70
     0
  9
$MIRRTEXT
 70
     0
  9
$LTSCALE
 40
1.0
  9
$ATTMODE
 70
     1
  9
$TEXTSIZE
 40
0.2
  9
$TRACEWID
 40
0.05
  9
$TEXTSTYLE
  7
Standard
  9
$CLAYER
  8
0
  9
$CELTYPE
  6
ByLayer
  9
$CECOLOR
 62
   256
  9
$CELTSCALE
 40
1.0
  9
$DISPSILH
 70
     0
  9
$DIMSCALE
 40
1.0
  9
$DIMASZ
 40
0.18
  9
$DIMEXO
 40
0.0625
  9
$DIMDLI
 40
0.38
  9
$DIMRND
 40
0.0
  9
$DIMDLE
 40
0.0
  9
$DIMEXE
 40
0.18
  9
$DIMTP
 40
0.0
  9
$DIMTM
 40
0.0
  9
$DIMTXT
 40
0.18
  9
$DIMCEN
 40
0.09
  9
$DIMTSZ
 40
0.0
  9
$DIMTOL
 70
     0
  9
$DIMLIM
 70
     0
  9
$DIMTIH
 70
     1
  9
$DIMTOH
 70
     1
  9
$DIMSE1
 70
     0
  9
$DIMSE2
 70
     0
  9
$DIMTAD
 70
     0
  9
$DIMZIN
 70
     0
  9
$DIMBLK
  1

  9
$DIMASO
 70
     1
  9
$DIMSHO
 70
     1
  9
$DIMPOST
  1

  9
$DIMAPOST
  1

  9
$DIMALT
 70
     0
  9
$DIMALTD
 70
     2
  9
$DIMALTF
 40
25.4
  9
$DIMLFAC
 40
1.0
  9
$DIMTOFL
 70
     0
  9
$DIMTVP
 40
0.0
  9
$DIMTIX
 70
     0
  9
$DIMSOXD
 70
     0
  9
$DIMSAH
 70
     0
  9
$DIMBLK1
  1

  9
$DIMBLK2
  1

  9
$DIMSTYLE
  2
Standard
  9
$DIMCLRD
 70
     0
  9
$DIMCLRE
 70
     0
  9
$DIMCLRT
 70
     0
  9
$DIMTFAC
 40
1.0
  9
$DIMGAP
 40
0.09
  9
$DIMJUST
 70
     0
  9
$DIMSD1
 70
     0
  9
$DIMSD2
 70
     0
  9
$DIMTOLJ
 70
     1
  9
$DIMTZIN
 70
     0
  9
$DIMALTZ
 70
     0
  9
$DIMALTTZ
 70
     0
  9
$DIMUPT
 70
     0
  9
$DIMDEC
 70
     4
  9
$DIMTDEC
 70
     4
  9
$DIMALTU
 70
     2
  9
$DIMALTTD
 70
     2
  9
$DIMTXSTY
  7
Standard
  9
$DIMAUNIT
 70
     0
  9
$DIMADEC
 70
     0
  9
$DIMALTRND
 40
0.0
  9
$DIMAZIN
 70
     0
  9
$DIMDSEP
 70
    46
  9
$DIMATFIT
 70
     3
  9
$DIMFRAC
 70
     0
  9
$DIMLDRBLK
  1

  9
$DIMLUNIT
 70
     2
  9
$DIMLWD
 70
    -2
  9
$DIMLWE
 70
    -2
  9
$DIMTMOVE
 70
     0
  9
$DIMFXL
 40
1.0
  9
$DIMFXLON
 70
     0
  9
$DIMJOGANG
 40
0.7853981633974483
  9
$DIMTFILL
 70
     0
  9
$DIMTFILLCLR
 70
     0
  9
$DIMARCSYM
 70
     0
  9
$DIMLTYPE
  6

  9
$DIMLTEX1
  6

  9
$DIMLTEX2
  6

  9
$DIMTXTDIRECTION
 70
     0
  9
$LUNITS
 70
     2
  9
$LUPREC
 70
     4
  9
$SKETCHINC
 40
0.1
  9
$FILLETRAD
 40
0.0
  9
$AUNITS
 70
     0
  9
$AUPREC
 70
     0
  9
$MENU
  1
.
  9
$ELEVATION
 40
0.0
  9
$PELEVATION
 40
0.0
  9
$THICKNESS
 40
0.0
  9
$LIMCHECK
 70
     0
  9
$CHAMFERA
 40
0.0
  9
$CHAMFERB
 40
0.0
  9
$CHAMFERC
 40
0.0
  9
$CHAMFERD
 40
0.0
  9
$SKPOLY
 70
     0
  9
$TDCREATE
 40
2459604.671840278
  9
$TDUCREATE
 40
2459604.296840278
  9
$TDUPDATE
 40
2459604.671840278
  9
$TDUUPDATE
 40
2459604.296840278
  9
$TDINDWG
 40
0.0000000000
  9
$TDUSRTIMER
 40
0.0000000000
  9
$USRTIMER
 70
     1
  9
$ANGBASE
 50
0.0
  9
$ANGDIR
 70
     0
  9
$PDMODE
 70
     0
  9
$PDSIZE
 40
0.0
  9
$PLINEWID
 40
0.0
  9
$SPLFRAME
 70
     0
  9
$SPLINETYPE
 70
     6
  9
$SPLINESEGS
 70
     8
  9
$HANDSEED
  5
1B0
  9
$SURFTAB1
 70
     6
  9
$SURFTAB2
 70
     6
  9
$SURFTYPE
 70
     6
  9
$SURFU
 70
     6
  9
$SURFV
 70
     6
  9
$UCSBASE
  2

  9
$UCSNAME
  2

  9
$UCSORG
 10
0.0
 20
0.0
 30
0.0
  9
$UCSXDIR
 10
1.0
 20
0.0
 30
0.0
  9
$UCSYDIR
 10
0.0
 20
1.0
 30
0.0
  9
$UCSORTHOREF
  2

  9
$UCSORTHOVIEW
 70
     0
  9
$UCSORGTOP
 10
0.0
 20
0.0
 30
0.0
  9
$UCSORGBOTTOM
 10
0.0
 20
0.0
 30
0.0
  9
$UCSORGLEFT
 10
0.0
 20
0.0
 30
0.0
  9
$UCSORGRIGHT
 10
0.0
 20
0.0
 30
0.0
  9
$UCSORGFRONT
 10
0.0
 20
0.0
 30
0.0
  9
$UCSORGBACK
 10
0.0
 20
0.0
 30
0.0
  9
$PUCSBASE
  2

  9
$PUCSNAME
  2

  9
$PUCSORG
 10
0.0
 20
0.0
 30
0.0
  9
$PUCSXDIR
 10
1.0
 20
0.0
 30
0.0
  9
$PUCSYDIR
 10
0.0
 20
1.0
 30
0.0
  9
$PUCSORTHOREF
  2

  9
$PUCSORTHOVIEW
 70
     0
  9
$PUCSORGTOP
 10
0.0
 20
0.0
 30
0.0
  9
$PUCSORGBOTTOM
 10
0.0
 20
0.0
 30
0.0
  9
$PUCSORGLEFT
 10
0.0
 20
0.0
 30
0.0
  9
$PUCSORGRIGHT
 10
0.0
 20
0.0
 30
0.0
  9
$PUCSORGFRONT
 10
0.0
 20
0.0
 30
0.0
  9
$PUCSORGBACK
 10
0.0
 20
0.0
 30
0.0
  9
$USERI1
 70
     0
  9
$USERI2
 70
     0
  9
$USERI3
 70
     0
  9
$USERI4
 70
     0
  9
$USERI5
 70
     0
  9
$USERR1
 40
0.0
  9
$USERR2
 40
0.0
  9
$USERR3
 40
0.0
  9
$USERR4
 40
0.0
  9
$USERR5
 40
0.0
  9
$WORLDVIEW
 70
     1
  9
$SHADEDGE
 70
     3
  9
$SHADEDIF
 70
    70
  9
$TILEMODE
 70
     1
  9
$MAXACTVP
 70
    64
  9
$PINSBASE
 10
0.0
 20
0.0
 30
0.0
  9
$PLIMCHECK
 70
     0
  9
$PEXTMIN
 10
1.000000000000000E+20
 20
1.000000000000000E+20
 30
1.000000000000000E+20
  9
$PEXTMAX
 10
-1.000000000000000E+20
 20
-1.000000000000000E+20
 30
-1.000000000000000E+20
  9
$PLIMMIN
 10
0.0
 20
0.0
  9
$PLIMMAX
 10
12.0
 20
9.0
  9
$UNITMODE
 70
     0
  9
$VISRETAIN
 70
     1
  9
$PLINEGEN
 70
     0
  9
$PSLTSCALE
 70
     1
  9
$TREEDEPTH
 70
  3020
  9
$CMLSTYLE
  2
Standard
  9
$CMLJUST
 70
     0
  9
$CMLSCALE
 40
1.0
  9
$PROXYGRAPHICS
 70
     1
  9
$MEASUREMENT
 70
     0
  9
$CELWEIGHT
370
    -1
  9
$ENDCAPS
280
     0
  9
$JOINSTYLE
280
     0
  9
$LWDISPLAY
290
     1
  9
$INSUNITS
 70
     4
  9
$HYPERLINKBASE
  1

  9
$STYLESHEET
  1

  9
$XEDIT
290
     1
  9
$CEPSNTYPE
380
     0
  9
$PSTYLEMODE
290
     1
  9
$FINGERPRINTGUID
  2
{A262E728-24E3-744B-91BA-128E61EE68AE}
  9
$VERSIONGUID
  2
{11807E76-C27D-984E-85A9-B78CBB60E8CF}
  9
$EXTNAMES
290
     1
  9
$PSVPSCALE
 40
0.0
  9
$OLESTARTUP
290
     0
  9
$SORTENTS
280
   127
  9
$INDEXCTL
280
     0
  9
$HIDETEXT
280
     1
  9
$XCLIPFRAME
280
     2
  9
$HALOGAP
280
     0
  9
$OBSCOLOR
 70
   257
  9
$OBSLTYPE
280
     0
  9
$INTERSECTIONDISPLAY
280
     0
  9
$INTERSECTIONCOLOR
 70
   257
  9
$DIMASSOC
280
     2
  9
$PROJECTNAME
  1

  9
$CAMERADISPLAY
290
     0
  9
$LENSLENGTH
 40
50.0
  9
$CAMERAHEIGHT
 40
0.0
  9
$STEPSPERSEC
 40
2.0
  9
$STEPSIZE
 40
6.0
  9
$3DDWFPREC
 40
2.0
  9
$PSOLWIDTH
 40
0.25
  9
$PSOLHEIGHT
 40
4.0
  9
$LOFTANG1
 40
1.570796326794896
  9
$LOFTANG2
 40
1.570796326794896
  9
$LOFTMAG1
 40
0.0
  9
$LOFTMAG2
 40
0.0
  9
$LOFTPARAM
 70
     7
  9
$LOFTNORMALS
280
     1
  9
$LATITUDE
 40
37.795
  9
$LONGITUDE
 40
-122.394
  9
$NORTHDIRECTION
 40
0.0
  9
$TIMEZONE
 70
 -8000
  9
$LIGHTGLYPHDISPLAY
280
     1
  9
$TILEMODELIGHTSYNCH
280
     1
  9
$CMATERIAL
347
11
  9
$SOLIDHIST
280
     0
  9
$SHOWHIST
280
     1
  9
$DWFFRAME
280
     2
  9
$DGNFRAME
280
     0
  9
$REALWORLDSCALE
290
     1
  9
$INTERFERECOLOR
 62
     1
  9
$INTERFEREOBJVS
345
33
  9
$INTERFEREVPVS
346
30
  9
$CSHADOW
280
     0
  9
$SHADOWPLANELOCATION
 40
0.0
  0
ENDSEC
  0
SECTION
  2
CLASSES
  0
CLASS
  1
ACDBDICTIONARYWDFLT
  2
AcDbDictionaryWithDefault
  3
ObjectDBX Classes
 90
        0
 91
        1
280
     0
281
     0
  0
CLASS
  1
MATERIAL
  2
AcDbMaterial
  3
ObjectDBX Classes
 90
     1153
 91
        3
280
     0
281
     0
  0
CLASS
  1
VISUALSTYLE
  2
AcDbVisualStyle
  3
ObjectDBX Classes
 90
     4095
 91
       24
280
     0
281
     0
  0
CLASS
  1
SCALE
  2
AcDbScale
  3
ObjectDBX Classes
 90
     1153
 91
       17
280
     0
281
     0
  0
CLASS
  1
TABLESTYLE
  2
AcDbTableStyle
  3
ObjectDBX Classes
 90
     4095
 91
        1
280
     0
281
     0
  0
CLASS
  1
MLEADERSTYLE
  2
AcDbMLeaderStyle
  3
ACDB_MLEADERSTYLE_CLASS
 90
     4095
 91
        1
280
     0
281
     0
  0
CLASS
  1
ACDBSECTIONVIEWSTYLE
  2
AcDbSectionViewStyle
  3
ObjectDBX Classes
 90
     1025
 91
        1
280
     0
281
     0
  0
CLASS
  1
ACDBDETAILVIEWSTYLE
  2
AcDbDetailViewStyle
  3
ObjectDBX Classes
 90
     1025
 91
        1
280
     0
281
     0
  0
CLASS
  1
DICTIONARYVAR
  2
AcDbDictionaryVar
  3
ObjectDBX Classes
 90
        0
 91
        5
280
     0
281
     0
  0
CLASS
  1
CELLSTYLEMAP
  2
AcDbCellStyleMap
  3
ObjectDBX Classes
 90
     1152
 91
        1
280
     0
281
     0
  0
ENDSEC
  0
SECTION
  2
TABLES
  0
TABLE
  2
VPORT
  5
8
330
0
100
AcDbSymbolTable
 70
     1
  0
VPORT
  5
57
330
8
100
AcDbSymbolTableRecord
100
AcDbViewportTableRecord
  2
*Active
 70
     0
 10
0.0
 20
0.0
 11
1.0
 21
1.0
 12
0.0
 22
0.0
 13
0.0
 23
0.0
 14
1.0
 24
1.0
 15
0.0
 25
0.0
 16
0.0
 26
0.0
 36
1.0
 17
105.0078345989922
 27
148.5053410476718
 37
0.0
 40
302.9508957372506
 41
0.7070980333648977
 42
50.0
 43
0.0
 44
0.0
 50
0.0
 51
0.0
 71
     0
 72
   100
 73
     1
 74
     1
 75
     0
 76
     0
 77
     0
 78
     0
281
     0
 65
     1
110
0.0
120
0.0
130
0.0
111
1.0
121
0.0
131
0.0
112
0.0
122
1.0
132
0.0
 79
     0
146
0.0
 60
     3
 61
     5
292
     1
282
     1
141
0.0
142
0.0
 63
   250
421
  3355443
  0
ENDTAB
  0
TABLE
  2
LTYPE
  5
5
330
0
100
AcDbSymbolTable
 70
     1
  0
LTYPE
  5
5B
330
5
100
AcDbSymbolTableRecord
100
AcDbLinetypeTableRecord
  2
ByBlock
 70
     0
  3

 72
    65
 73
     0
 40
0.0
  0
LTYPE
  5
5C
330
5
100
AcDbSymbolTableRecord
100
AcDbLinetypeTableRecord
  2
ByLayer
 70
     0
  3

 72
    65
 73
     0
 40
0.0
  0
LTYPE
  5
5D
330
5
100
AcDbSymbolTableRecord
100
AcDbLinetypeTableRecord
  2
Continuous
 70
     0
  3
Solid line
 72
    65
 73
     0
 40
0.0
  0
ENDTAB
  0
TABLE
  2
LAYER
  5
2
330
0
100
AcDbSymbolTable
 70
     2
  0
LAYER
  5
54
330
2
100
AcDbSymbolTableRecord
100
AcDbLayerTableRecord
  2
0
 70
     0
 62
     7
  6
Continuous
370
    -3
390
F
347
21
348
0
  0
LAYER
  5
78
330
2
100
AcDbSymbolTableRecord
100
AcDbLayerTableRecord
  2
レイヤー 1
 70
     0
 62
     7
  6
Continuous
370
     0
390
F
347
21
348
0
  0
ENDTAB
  0
TABLE
  2
STYLE
  5
3
330
0
100
AcDbSymbolTable
 70
     2
  0
STYLE
  5
55
330
3
100
AcDbSymbolTableRecord
100
AcDbTextStyleTableRecord
  2
Standard
 70
     0
 40
0.0
 41
1.0
 50
0.0
 71
     0
 42
0.2
  3
txt
  4

  0
STYLE
  5
5A
330
3
100
AcDbSymbolTableRecord
100
AcDbTextStyleTableRecord
  2
Annotative
 70
     0
 40
0.0
 41
1.0
 50
0.0
 71
     0
 42
0.2
  3
txt
  4

1001
AcadAnnotative
1000
AnnotativeData
1002
{
1070
     1
1070
     1
1002
}
  0
ENDTAB
  0
TABLE
  2
VIEW
  5
6
330
0
100
AcDbSymbolTable
 70
     0
  0
ENDTAB
  0
TABLE
  2
UCS
  5
7
330
0
100
AcDbSymbolTable
 70
     0
  0
ENDTAB
  0
TABLE
  2
APPID
  5
9
330
0
100
AcDbSymbolTable
 70
     2
  0
APPID
  5
56
330
9
100
AcDbSymbolTableRecord
100
AcDbRegAppTableRecord
  2
ACAD
 70
     0
  0
APPID
  5
5E
330
9
100
AcDbSymbolTableRecord
100
AcDbRegAppTableRecord
  2
AcadAnnotative
 70
     0
  0
ENDTAB
  0
TABLE
  2
DIMSTYLE
  5
A
330
0
100
AcDbSymbolTable
 70
     2
100
AcDbDimStyleTable
 71
     0
  0
DIMSTYLE
105
58
330
A
100
AcDbSymbolTableRecord
100
AcDbDimStyleTableRecord
  2
Standard
 70
     0
340
55
  0
DIMSTYLE
105
59
330
A
100
AcDbSymbolTableRecord
100
AcDbDimStyleTableRecord
  2
Annotative
 70
     0
340
55
1001
AcadAnnotative
1000
AnnotativeData
1002
{
1070
     1
1070
     1
1002
}
  0
ENDTAB
  0
TABLE
  2
BLOCK_RECORD
  5
1
330
0
100
AcDbSymbolTable
 70
     1
  0
BLOCK_RECORD
  5
70
330
1
100
AcDbSymbolTableRecord
100
AcDbBlockTableRecord
  2
*Model_Space
340
73
 70
     0
280
     1
281
     0
  0
BLOCK_RECORD
  5
6C
330
1
100
AcDbSymbolTableRecord
100
AcDbBlockTableRecord
  2
*Paper_Space
340
6F
 70
     0
280
     1
281
     0
  0
BLOCK_RECORD
  5
74
330
1
100
AcDbSymbolTableRecord
100
AcDbBlockTableRecord
  2
*Paper_Space0
340
77
 70
     0
280
     1
281
     0
  0
ENDTAB
  0
ENDSEC
  0
SECTION
  2
BLOCKS
  0
BLOCK
  5
71
330
70
100
AcDbEntity
  8
0
100
AcDbBlockBegin
  2
*Model_Space
 70
     0
 10
0.0
 20
0.0
 30
0.0
  3
*Model_Space
  1

  0
ENDBLK
  5
72
330
70
100
AcDbEntity
  8
0
100
AcDbBlockEnd
  0
BLOCK
  5
6D
330
6C
100
AcDbEntity
 67
     1
  8
0
100
AcDbBlockBegin
  2
*Paper_Space
 70
     0
 10
0.0
 20
0.0
 30
0.0
  3
*Paper_Space
  1

  0
ENDBLK
  5
6E
330
6C
100
AcDbEntity
 67
     1
  8
0
100
AcDbBlockEnd
  0
BLOCK
  5
75
330
74
100
AcDbEntity
 67
     1
  8
0
100
AcDbBlockBegin
  2
*Paper_Space0
 70
     0
 10
0.0
 20
0.0
 30
0.0
  3
*Paper_Space0
  1

  0
ENDBLK
  5
76
330
74
100
AcDbEntity
 67
     1
  8
0
100
AcDbBlockEnd
  0
ENDSEC
  0
SECTION
  2
ENTITIES
  0
LINE
  5
79
330
70
100
AcDbEntity
  8
レイヤー 1
 62
    18
420
        0
370
    25
100
AcDbLine
 10
194.944991338525
 20
253.5343306861282
 30
0.0
 11
194.944991338525
 21
43.60334624154057
 31
0.0
  0
LWPOLYLINE
  5
7A
330
70
100
AcDbEntity
  8
レイヤー 1
 62
    18
420
        0
370
    25
100
AcDbPolyline
 90
        3
 70
     0
 43
0.0
 10
15.02833279128008
 20
253.5343306861282
 10
15.02833279128008
 20
43.60334624154057
 10
194.944991338525
 20
43.60334624154057
  0
SPLINE
  5
7B
330
70
100
AcDbEntity
  8
レイヤー 1
 62
    18
420
        0
370
    25
100
AcDbSpline
210
0.0
220
0.0
230
1.0
 70
    24
 71
     3
 72
     8
 73
     4
 74
     0
 42
0.0000000001
 43
0.0000000001
 40
0.0
 40
0.0
 40
0.0
 40
0.0
 40
1.0
 40
1.0
 40
1.0
 40
1.0
 10
194.944991338525
 20
53.59401548953119
 30
0.0
 10
194.944991338525
 20
53.59401548953119
 30
0.0
 10
15.02832471683754
 20
53.59401548953119
 30
0.0
 10
15.02832471683754
 20
53.59401548953119
 30
0.0
  0
SPLINE
  5
7C
330
70
100
AcDbEntity
  8
レイヤー 1
 62
    18
420
        0
370
    25
100
AcDbSpline
210
0.0
220
0.0
230
1.0
 70
    24
 71
     3
 72
     8
 73
     4
 74
     0
 42
0.0000000001
 43
0.0000000001
 40
0.0
 40
0.0
 40
0.0
 40
0.0
 40
1.0
 40
1.0
 40
1.0
 40
1.0
 10
194.944991338525
 20
63.5846793545601
 30
0.0
 10
194.944991338525
 20
63.5846793545601
 30
0.0
 10
15.02832471683754
 20
63.5846793545601
 30
0.0
 10
15.02832471683754
 20
63.5846793545601
 30
0.0
  0
SPLINE
  5
7D
330
70
100
AcDbEntity
  8
レイヤー 1
 62
    18
420
        0
370
    25
100
AcDbSpline
210
0.0
220
0.0
230
1.0
 70
    24
 71
     3
 72
     8
 73
     4
 74
     0
 42
0.0000000001
 43
0.0000000001
 40
0.0
 40
0.0
 40
0.0
 40
0.0
 40
1.0
 40
1.0
 40
1.0
 40
1.0
 10
194.944991338525
 20
73.57534321958903
 30
0.0
 10
194.944991338525
 20
73.57534321958903
 30
0.0
 10
15.02832471683754
 20
73.57534321958903
 30
0.0
 10
15.02832471683754
 20
73.57534321958903
 30
0.0
  0
SPLINE
  5
7E
330
70
100
AcDbEntity
  8
レイヤー 1
 62
    18
420
        0
370
    25
100
AcDbSpline
210
0.0
220
0.0
230
1.0
 70
    24
 71
     3
 72
     8
 73
     4
 74
     0
 42
0.0000000001
 43
0.0000000001
 40
0.0
 40
0.0
 40
0.0
 40
0.0
 40
1.0
 40
1.0
 40
1.0
 40
1.0
 10
194.944991338525
 20
253.5343306861282
 30
0.0
 10
194.944991338525
 20
253.5343306861282
 30
0.0
 10
15.02832471683754
 20
253.5343306861282
 30
0.0
 10
15.02832471683754
 20
253.5343306861282
 30
0.0
  0
LWPOLYLINE
  5
7F
330
70
100
AcDbEntity
  8
レイヤー 1
 62
    18
420
        0
370
    13
100
AcDbPolyline
 90
        3
 70
     0
 43
0.0
 10
20.99733348957285
 20
55.58368732334366
 10
20.99733348957285
 20
60.57901118141558
 10
24.08766623000782
 20
60.57901118141558
  0
SPLINE
  5
80
330
70
100
AcDbEntity
  8
レイヤー 1
 62
    18
420
        0
370
    13
100
AcDbSpline
210
0.0
220
0.0
230
1.0
 70
    24
 71
     3
 72
     8
 73
     4
 74
     0
 42
0.0000000001
 43
0.0000000001
 40
0.0
 40
0.0
 40
0.0
 40
0.0
 40
1.0
 40
1.0
 40
1.0
 40
1.0
 10
20.99733348957285
 20
58.20833331878125
 30
0.0
 10
20.99733348957285
 20
58.20833331878125
 30
0.0
 10
22.90233268165235
 20
58.20833331878125
 30
0.0
 10
22.90233268165235
 20
58.20833331878125
 30
0.0
  0
SPLINE
  5
81
330
70
100
AcDbEntity
  8
レイヤー 1
 62
    18
420
        0
370
    13
100
AcDbSpline
210
0.0
220
0.0
230
1.0
 70
    24
 71
     3
 72
     8
 73
     4
 74
     0
 42
0.0000000001
 43
0.0000000001
 40
0.0
 40
0.0
 40
0.0
 40
0.0
 40
1.0
 40
1.0
 40
1.0
 40
1.0
 10
20.99733348957285
 20
55.58368732334366
 30
0.0
 10
20.99733348957285
 20
55.58368732334366
 30
0.0
 10
24.08766623000782
 20
55.58368732334366
 30
0.0
 10
24.08766623000782
 20
55.58368732334366
 30
0.0
  0
LWPOLYLINE
  5
82
330
70
100
AcDbEntity
  8
レイヤー 1
 62
    18
420
        0
370
    13
100
AcDbPolyline
 90
       14
 70
     0
 43
0.0
 10
25.78100063951016
 20
59.39368301602181
 10
25.78100063951016
 20
59.64767806363354
 10
25.99266676782774
 20
60.11334731400541
 10
26.24666719840117
 20
60.32501613380384
 10
26.71233375729219
 20
60.57901118141558
 10
27.68599848584923
 20
60.57901118141558
 10
28.15166504474024
 20
60.32501613380384
 10
28.40566547531368
 20
60.11334731400541
 10
28.61733160363126
 20
59.64767806363354
 10
28.61733160363126
 20
59.13968258544837
 10
28.40566547531368
 20
58.6740133350765
 10
27.89766730564766
 20
57.9543490370929
 10
25.52700020893672
 20
55.58368194038197
 10
28.8713320342047
 20
55.58368194038197
  0
LWPOLYLINE
  5
83
330
70
100
AcDbEntity
  8
レイヤー 1
 62
    18
420
        0
370
    13
100
AcDbPolyline
 90
       23
 70
     0
 43
0.0
 10
33.14699966873555
 20
59.85935226639367
 10
32.89299923816211
 20
60.32501613380384
 10
32.17333224869766
 20
60.57901656437728
 10
31.70766568980665
 20
60.57901656437728
 10
30.9879987003422
 20
60.32501613380384
 10
30.52233214145118
 20
59.64768344659525
 10
30.26833171087774
 20
58.42001828746477
 10
30.26833171087774
 20
57.2346847391093
 10
30.52233214145118
 20
56.30335162132727
 10
30.9879987003422
 20
55.8376823709554
 10
31.70766568980665
 20
55.58368194038197
 10
31.96166612038008
 20
55.58368194038197
 10
32.68133041836369
 20
55.8376823709554
 10
33.14699966873555
 20
56.30335162132727
 10
33.40099740782814
 20
57.02301591931087
 10
33.40099740782814
 20
57.2346847391093
 10
33.14699966873555
 20
57.9543490370929
 10
32.68133041836369
 20
58.42001828746477
 10
31.96166612038008
 20
58.67401871803821
 10
31.70766568980665
 20
58.67401871803821
 10
30.9879987003422
 20
58.42001828746477
 10
30.52233214145118
 20
57.9543490370929
 10
30.26833171087774
 20
57.2346847391093
  0
LWPOLYLINE
  5
84
330
70
100
AcDbEntity
  8
レイヤー 1
 62
    18
420
        0
370
    13
100
AcDbPolyline
 90
        3
 70
     0
 43
0.0
 10
42.37566762500586
 20
55.58368732334366
 10
42.71433396861016
 20
55.92234020954372
 10
42.71433396861016
 20
56.26101462759056
  0
LWPOLYLINE
  5
85
330
70
100
AcDbEntity
  8
レイヤー 1
 62
    18
420
        0
370
    13
100
AcDbPolyline
 90
        3
 70
     0
 43
0.0
 10
40.38599848267423
 20
55.92234020954372
 10
40.72466482627852
 20
55.58368732334366
 10
42.37566762500586
 20
55.58368732334366
  0
LINE
  5
86
330
70
100
AcDbEntity
  8
レイヤー 1
 62
    18
420
        0
370
    13
100
AcDbLine
 10
42.71433396861016
 20
59.56300945912183
 30
0.0
 11
42.71433396861016
 21
58.92799223380316
 31
0.0
  0
LWPOLYLINE
  5
87
330
70
100
AcDbEntity
  8
レイヤー 1
 62
    18
420
        0
370
    13
100
AcDbPolyline
 90
        4
 70
     1
 43
0.0
 10
42.03700128140155
 20
57.57333762530936
 10
42.03700128140155
 20
56.26101462759056
 10
38.73499837542775
 20
56.26101462759056
 10
38.73499837542775
 20
57.57333762530936
  0
SPLINE
  5
88
330
70
100
AcDbEntity
  8
レイヤー 1
 62
    18
420
        0
370
    13
100
AcDbSpline
210
0.0
220
0.0
230
1.0
 70
    24
 71
     3
 72
     8
 73
     4
 74
     0
 42
0.0000000001
 43
0.0000000001
 40
0.0
 40
0.0
 40
0.0
 40
0.0
 40
1.0
 40
1.0
 40
1.0
 40
1.0
 10
40.38599848267423
 20
57.57333762530936
 30
0.0
 10
40.38599848267423
 20
57.57333762530936
 30
0.0
 10
40.38599848267423
 20
55.92233482658203
 30
0.0
 10
40.38599848267423
 20
55.92233482658203
 30
0.0
  0
SPLINE
  5
89
330
70
100
AcDbEntity
  8
レイヤー 1
 62
    18
420
        0
370
    13
100
AcDbSpline
210
0.0
220
0.0
230
1.0
 70
    24
 71
     3
 72
     8
 73
     4
 74
     0
 42
0.0000000001
 43
0.0000000001
 40
0.0
 40
0.0
 40
0.0
 40
0.0
 40
1.0
 40
1.0
 40
1.0
 40
1.0
 10
40.38599848267423
 20
60.24033676336873
 30
0.0
 10
40.38599848267423
 20
60.24033676336873
 30
0.0
 10
40.38599848267423
 20
58.25067031251795
 30
0.0
 10
40.38599848267423
 20
58.25067031251795
 30
0.0
  0
SPLINE
  5
8A
330
70
100
AcDbEntity
  8
レイヤー 1
 62
    18
420
        0
370
    13
100
AcDbSpline
210
0.0
220
0.0
230
1.0
 70
    24
 71
     3
 72
     8
 73
     4
 74
     0
 42
0.0000000001
 43
0.0000000001
 40
0.0
 40
0.0
 40
0.0
 40
0.0
 40
1.0
 40
1.0
 40
1.0
 40
1.0
 10
38.0576629967383
 20
59.56300407616014
 30
0.0
 10
38.0576629967383
 20
59.56300407616014
 30
0.0
 10
38.0576629967383
 20
58.92800299972655
 30
0.0
 10
38.0576629967383
 20
58.92800299972655
 30
0.0
  0
SPLINE
  5
8B
330
70
100
AcDbEntity
  8
レイヤー 1
 62
    18
420
        0
370
    13
100
AcDbSpline
210
0.0
220
0.0
230
1.0
 70
    24
 71
     3
 72
     8
 73
     4
 74
     0
 42
0.0000000001
 43
0.0000000001
 40
0.0
 40
0.0
 40
0.0
 40
0.0
 40
1.0
 40
1.0
 40
1.0
 40
1.0
 10
38.73499837542775
 20
56.89599955513907
 30
0.0
 10
38.73499837542775
 20
56.89599955513907
 30
0.0
 10
42.03699589843986
 20
56.89599955513907
 30
0.0
 10
42.03699589843986
 20
56.89599955513907
 30
0.0
  0
SPLINE
  5
8C
330
70
100
AcDbEntity
  8
レイヤー 1
 62
    18
420
        0
370
    13
100
AcDbSpline
210
0.0
220
0.0
230
1.0
 70
    24
 71
     3
 72
     8
 73
     4
 74
     0
 42
0.0000000001
 43
0.0000000001
 40
0.0
 40
0.0
 40
0.0
 40
0.0
 40
1.0
 40
1.0
 40
1.0
 40
1.0
 10
41.06333116988282
 20
58.25067031251795
 30
0.0
 10
41.06333116988282
 20
58.25067031251795
 30
0.0
 10
42.03699589843986
 20
58.25067031251795
 30
0.0
 10
42.03699589843986
 20
58.25067031251795
 30
0.0
  0
SPLINE
  5
8D
330
70
100
AcDbEntity
  8
レイヤー 1
 62
    18
420
        0
370
    13
100
AcDbSpline
210
0.0
220
0.0
230
1.0
 70
    24
 71
     3
 72
     8
 73
     4
 74
     0
 42
0.0000000001
 43
0.0000000001
 40
0.0
 40
0.0
 40
0.0
 40
0.0
 40
1.0
 40
1.0
 40
1.0
 40
1.0
 10
38.73499837542775
 20
58.25067031251795
 30
0.0
 10
38.73499837542775
 20
58.25067031251795
 30
0.0
 10
39.70866310398479
 20
58.25067031251795
 30
0.0
 10
39.70866310398479
 20
58.25067031251795
 30
0.0
  0
SPLINE
  5
8E
330
70
100
AcDbEntity
  8
レイヤー 1
 62
    18
420
        0
370
    13
100
AcDbSpline
210
0.0
220
0.0
230
1.0
 70
    24
 71
     3
 72
     8
 73
     4
 74
     0
 42
0.0000000001
 43
0.0000000001
 40
0.0
 40
0.0
 40
0.0
 40
0.0
 40
1.0
 40
1.0
 40
1.0
 40
1.0
 10
41.06333116988282
 20
58.92800299972655
 30
0.0
 10
41.06333116988282
 20
58.92800299972655
 30
0.0
 10
42.03699589843986
 20
58.92800299972655
 30
0.0
 10
42.03699589843986
 20
58.92800299972655
 30
0.0
  0
SPLINE
  5
8F
330
70
100
AcDbEntity
  8
レイヤー 1
 62
    18
420
        0
370
    13
100
AcDbSpline
210
0.0
220
0.0
230
1.0
 70
    24
 71
     3
 72
     8
 73
     4
 74
     0
 42
0.0000000001
 43
0.0000000001
 40
0.0
 40
0.0
 40
0.0
 40
0.0
 40
1.0
 40
1.0
 40
1.0
 40
1.0
 10
38.73499837542775
 20
58.92800299972655
 30
0.0
 10
38.73499837542775
 20
58.92800299972655
 30
0.0
 10
39.70866310398479
 20
58.92800299972655
 30
0.0
 10
39.70866310398479
 20
58.92800299972655
 30
0.0
  0
SPLINE
  5
90
330
70
100
AcDbEntity
  8
レイヤー 1
 62
    18
420
        0
370
    13
100
AcDbSpline
210
0.0
220
0.0
230
1.0
 70
    24
 71
     3
 72
     8
 73
     4
 74
     0
 42
0.0000000001
 43
0.0000000001
 40
0.0
 40
0.0
 40
0.0
 40
0.0
 40
1.0
 40
1.0
 40
1.0
 40
1.0
 10
38.0576629967383
 20
59.56300407616014
 30
0.0
 10
38.0576629967383
 20
59.56300407616014
 30
0.0
 10
42.7143312771293
 20
59.56300407616014
 30
0.0
 10
42.7143312771293
 20
59.56300407616014
 30
0.0
  0
SPLINE
  5
91
330
70
100
AcDbEntity
  8
レイヤー 1
 62
    18
420
        0
370
    13
100
AcDbSpline
210
0.0
220
0.0
230
1.0
 70
    24
 71
     3
 72
     8
 73
     4
 74
     0
 42
0.0000000001
 43
0.0000000001
 40
0.0
 40
0.0
 40
0.0
 40
0.0
 40
1.0
 40
1.0
 40
1.0
 40
1.0
 10
38.3963293403426
 20
60.24033676336873
 30
0.0
 10
38.3963293403426
 20
60.24033676336873
 30
0.0
 10
42.37566493352501
 20
60.24033676336873
 30
0.0
 10
42.37566493352501
 20
60.24033676336873
 30
0.0
  0
SPLINE
  5
92
330
70
100
AcDbEntity
  8
レイヤー 1
 62
    18
420
        0
370
    13
100
AcDbSpline
210
0.0
220
0.0
230
1.0
 70
    24
 71
     3
 72
     8
 73
     4
 74
     0
 42
0.0000000001
 43
0.0000000001
 40
0.0
 40
0.0
 40
0.0
 40
0.0
 40
1.0
 40
1.0
 40
1.0
 40
1.0
 10
47.70966320964376
 20
60.24033676336873
 30
0.0
 10
47.70966320964376
 20
60.24033676336873
 30
0.0
 10
48.38699589685236
 20
59.90166772828359
 30
0.0
 10
48.38699589685236
 20
59.90166772828359
 30
0.0
  0
LWPOLYLINE
  5
93
330
70
100
AcDbEntity
  8
レイヤー 1
 62
    18
420
        0
370
    13
100
AcDbPolyline
 90
        4
 70
     0
 43
0.0
 10
48.72566493193751
 20
56.26101462759056
 10
48.04833224472891
 20
56.89601032106246
 10
47.70966859260545
 20
57.57333762530936
 10
47.03233052243517
 20
58.5893393476031
  0
SPLINE
  5
94
330
70
100
AcDbEntity
  8
レイヤー 1
 62
    18
420
        0
370
    13
100
AcDbSpline
210
0.0
220
0.0
230
1.0
 70
    24
 71
     3
 72
     8
 73
     4
 74
     0
 42
0.0000000001
 43
0.0000000001
 40
0.0
 40
0.0
 40
0.0
 40
0.0
 40
1.0
 40
1.0
 40
1.0
 40
1.0
 10
48.38700127981406
 20
58.5893393476031
 30
0.0
 10
48.38700127981406
 20
58.5893393476031
 30
0.0
 10
47.70966859260545
 20
57.9120120433562
 30
0.0
 10
47.70966859260545
 20
57.9120120433562
 30
0.0
  0
SPLINE
  5
95
330
70
100
AcDbEntity
  8
レイヤー 1
 62
    18
420
        0
370
    13
100
AcDbSpline
210
0.0
220
0.0
230
1.0
 70
    24
 71
     3
 72
     8
 73
     4
 74
     0
 42
0.0000000001
 43
0.0000000001
 40
0.0
 40
0.0
 40
0.0
 40
0.0
 40
1.0
 40
1.0
 40
1.0
 40
1.0
 10
45.71999675879299
 20
56.59966751379062
 30
0.0
 10
45.71999675879299
 20
56.59966751379062
 30
0.0
 10
46.69366148735003
 20
57.57333762530936
 30
0.0
 10
46.69366148735003
 20
57.57333762530936
 30
0.0
  0
SPLINE
  5
96
330
70
100
AcDbEntity
  8
レイヤー 1
 62
    18
420
        0
370
    13
100
AcDbSpline
210
0.0
220
0.0
230
1.0
 70
    24
 71
     3
 72
     8
 73
     4
 74
     0
 42
0.0000000001
 43
0.0000000001
 40
0.0
 40
0.0
 40
0.0
 40
0.0
 40
1.0
 40
1.0
 40
1.0
 40
1.0
 10
46.05866579387813
 20
58.5893393476031
 30
0.0
 10
46.05866579387813
 20
58.5893393476031
 30
0.0
 10
46.39732944600157
 20
58.25066492955626
 30
0.0
 10
46.39732944600157
 20
58.25066492955626
 30
0.0
  0
LWPOLYLINE
  5
97
330
70
100
AcDbEntity
  8
レイヤー 1
 62
    18
420
        0
370
    13
100
AcDbPolyline
 90
        3
 70
     0
 43
0.0
 10
45.38133310666953
 20
57.2346847391093
 10
44.70400041946094
 20
56.59966751379062
 10
44.06899934302734
 20
56.59966751379062
  0
LINE
  5
98
330
70
100
AcDbEntity
  8
レイヤー 1
 62
    18
420
        0
370
    13
100
AcDbLine
 10
44.70400041946094
 20
56.59966751379062
 30
0.0
 11
44.70400041946094
 21
59.90168387716868
 31
0.0
  0
LWPOLYLINE
  5
99
330
70
100
AcDbEntity
  8
レイヤー 1
 62
    18
420
        0
370
    13
100
AcDbPolyline
 90
        3
 70
     0
 43
0.0
 10
47.03233052243517
 20
60.57901118141558
 10
47.03233052243517
 20
55.58368732334366
 10
46.39732944600157
 20
55.58368732334366
  0
SPLINE
  5
9A
330
70
100
AcDbEntity
  8
レイヤー 1
 62
    18
420
        0
370
    13
100
AcDbSpline
210
0.0
220
0.0
230
1.0
 70
    24
 71
     3
 72
     8
 73
     4
 74
     0
 42
0.0000000001
 43
0.0000000001
 40
0.0
 40
0.0
 40
0.0
 40
0.0
 40
1.0
 40
1.0
 40
1.0
 40
1.0
 10
44.06899934302734
 20
58.25066492955626
 30
0.0
 10
44.06899934302734
 20
58.25066492955626
 30
0.0
 10
45.38133310666953
 20
58.25066492955626
 30
0.0
 10
45.38133310666953
 20
58.25066492955626
 30
0.0
  0
SPLINE
  5
9B
330
70
100
AcDbEntity
  8
レイヤー 1
 62
    18
420
        0
370
    13
100
AcDbSpline
210
0.0
220
0.0
230
1.0
 70
    24
 71
     3
 72
     8
 73
     4
 74
     0
 42
0.0000000001
 43
0.0000000001
 40
0.0
 40
0.0
 40
0.0
 40
0.0
 40
1.0
 40
1.0
 40
1.0
 40
1.0
 10
45.71999675879299
 20
59.26666665185
 30
0.0
 10
45.71999675879299
 20
59.26666665185
 30
0.0
 10
48.72566493193751
 20
59.26666665185
 30
0.0
 10
48.72566493193751
 20
59.26666665185
 30
0.0
  0
SPLINE
  5
9C
330
70
100
AcDbEntity
  8
レイヤー 1
 62
    18
420
        0
370
    13
100
AcDbSpline
210
0.0
220
0.0
230
1.0
 70
    24
 71
     3
 72
     8
 73
     4
 74
     0
 42
0.0000000001
 43
0.0000000001
 40
0.0
 40
0.0
 40
0.0
 40
0.0
 40
1.0
 40
1.0
 40
1.0
 40
1.0
 10
44.06899934302734
 20
59.90168387716868
 30
0.0
 10
44.06899934302734
 20
59.90168387716868
 30
0.0
 10
45.38133310666953
 20
59.90168387716868
 30
0.0
 10
45.38133310666953
 20
59.90168387716868
 30
0.0
  0
LWPOLYLINE
  5
9D
330
70
100
AcDbEntity
  8
レイヤー 1
 62
    18
420
        0
370
    13
100
AcDbPolyline
 90
        3
 70
     0
 43
0.0
 10
50.71533138278829
 20
58.25066492955626
 10
50.37666234770314
 20
57.9120120433562
 10
50.03799869557969
 20
57.9120120433562
  0
LINE
  5
9E
330
70
100
AcDbEntity
  8
レイヤー 1
 62
    18
420
        0
370
    13
100
AcDbLine
 10
51.05400041787344
 20
58.92799223380316
 30
0.0
 11
50.71533138278829
 21
58.25066492955626
 31
0.0
  0
LWPOLYLINE
  5
9F
330
70
100
AcDbEntity
  8
レイヤー 1
 62
    18
420
        0
370
    13
100
AcDbPolyline
 90
        3
 70
     0
 43
0.0
 10
54.69466428448985
 20
60.57901118141558
 10
54.69466428448985
 20
57.9120120433562
 10
54.05966859101796
 20
57.9120120433562
  0
SPLINE
  5
A0
330
70
100
AcDbEntity
  8
レイヤー 1
 62
    18
420
        0
370
    13
100
AcDbSpline
210
0.0
220
0.0
230
1.0
 70
    24
 71
     3
 72
     8
 73
     4
 74
     0
 42
0.0000000001
 43
0.0000000001
 40
0.0
 40
0.0
 40
0.0
 40
0.0
 40
1.0
 40
1.0
 40
1.0
 40
1.0
 10
53.72099955593281
 20
60.24033676336873
 30
0.0
 10
53.72099955593281
 20
60.24033676336873
 30
0.0
 10
53.72099955593281
 20
58.58933396464141
 30
0.0
 10
53.72099955593281
 20
58.58933396464141
 30
0.0
  0
SPLINE
  5
A1
330
70
100
AcDbEntity
  8
レイヤー 1
 62
    18
420
        0
370
    13
100
AcDbSpline
210
0.0
220
0.0
230
1.0
 70
    24
 71
     3
 72
     8
 73
     4
 74
     0
 42
0.0000000001
 43
0.0000000001
 40
0.0
 40
0.0
 40
0.0
 40
0.0
 40
1.0
 40
1.0
 40
1.0
 40
1.0
 10
52.36632879855393
 20
57.57333224234766
 30
0.0
 10
52.36632879855393
 20
57.57333224234766
 30
0.0
 10
52.36632879855393
 20
55.58366579149688
 30
0.0
 10
52.36632879855393
 20
55.58366579149688
 30
0.0
  0
SPLINE
  5
A2
330
70
100
AcDbEntity
  8
レイヤー 1
 62
    18
420
        0
370
    13
100
AcDbSpline
210
0.0
220
0.0
230
1.0
 70
    24
 71
     3
 72
     8
 73
     4
 74
     0
 42
0.0000000001
 43
0.0000000001
 40
0.0
 40
0.0
 40
0.0
 40
0.0
 40
1.0
 40
1.0
 40
1.0
 40
1.0
 10
52.02766514643048
 20
60.24033676336873
 30
0.0
 10
52.02766514643048
 20
60.24033676336873
 30
0.0
 10
52.02766514643048
 20
57.9120012774328
 30
0.0
 10
52.02766514643048
 20
57.9120012774328
 30
0.0
  0
SPLINE
  5
A3
330
70
100
AcDbEntity
  8
レイヤー 1
 62
    18
420
        0
370
    13
100
AcDbSpline
210
0.0
220
0.0
230
1.0
 70
    24
 71
     3
 72
     8
 73
     4
 74
     0
 42
0.0000000001
 43
0.0000000001
 40
0.0
 40
0.0
 40
0.0
 40
0.0
 40
1.0
 40
1.0
 40
1.0
 40
1.0
 10
51.05399503491174
 20
60.24033676336873
 30
0.0
 10
51.05399503491174
 20
60.24033676336873
 30
0.0
 10
51.05399503491174
 20
58.92800299972655
 30
0.0
 10
51.05399503491174
 20
58.92800299972655
 30
0.0
  0
SPLINE
  5
A4
330
70
100
AcDbEntity
  8
レイヤー 1
 62
    18
420
        0
370
    13
100
AcDbSpline
210
0.0
220
0.0
230
1.0
 70
    24
 71
     3
 72
     8
 73
     4
 74
     0
 42
0.0000000001
 43
0.0000000001
 40
0.0
 40
0.0
 40
0.0
 40
0.0
 40
1.0
 40
1.0
 40
1.0
 40
1.0
 10
50.03799869557969
 20
55.58366579149688
 30
0.0
 10
50.03799869557969
 20
55.58366579149688
 30
0.0
 10
54.69466428448985
 20
55.58366579149688
 30
0.0
 10
54.69466428448985
 20
55.58366579149688
 30
0.0
  0
SPLINE
  5
A5
330
70
100
AcDbEntity
  8
レイヤー 1
 62
    18
420
        0
370
    13
100
AcDbSpline
210
0.0
220
0.0
230
1.0
 70
    24
 71
     3
 72
     8
 73
     4
 74
     0
 42
0.0000000001
 43
0.0000000001
 40
0.0
 40
0.0
 40
0.0
 40
0.0
 40
1.0
 40
1.0
 40
1.0
 40
1.0
 10
50.71533138278829
 20
56.89599955513907
 30
0.0
 10
50.71533138278829
 20
56.89599955513907
 30
0.0
 10
54.05966320805626
 20
56.89599955513907
 30
0.0
 10
54.05966320805626
 20
56.89599955513907
 30
0.0
  0
SPLINE
  5
A6
330
70
100
AcDbEntity
  8
レイヤー 1
 62
    18
420
        0
370
    13
100
AcDbSpline
210
0.0
220
0.0
230
1.0
 70
    24
 71
     3
 72
     8
 73
     4
 74
     0
 42
0.0000000001
 43
0.0000000001
 40
0.0
 40
0.0
 40
0.0
 40
0.0
 40
1.0
 40
1.0
 40
1.0
 40
1.0
 10
50.03799869557969
 20
59.26666665185
 30
0.0
 10
50.03799869557969
 20
59.26666665185
 30
0.0
 10
53.04366148576253
 20
59.26666665185
 30
0.0
 10
53.04366148576253
 20
59.26666665185
 30
0.0
  0
SPLINE
  5
A7
330
70
100
AcDbEntity
  8
レイヤー 1
 62
    18
420
        0
370
    13
100
AcDbSpline
210
0.0
220
0.0
230
1.0
 70
    24
 71
     3
 72
     8
 73
     4
 74
     0
 42
0.0000000001
 43
0.0000000001
 40
0.0
 40
0.0
 40
0.0
 40
0.0
 40
1.0
 40
1.0
 40
1.0
 40
1.0
 10
50.37666234770314
 20
60.24033676336873
 30
0.0
 10
50.37666234770314
 20
60.24033676336873
 30
0.0
 10
52.70499783363908
 20
60.24033676336873
 30
0.0
 10
52.70499783363908
 20
60.24033676336873
 30
0.0
  0
LWPOLYLINE
  5
A8
330
70
100
AcDbEntity
  8
レイヤー 1
 62
    18
420
        0
370
    13
100
AcDbPolyline
 90
        3
 70
     0
 43
0.0
 10
56.04932965890704
 20
60.57901118141558
 10
56.04932965890704
 20
55.58368732334366
 10
58.88566600598984
 20
55.58368732334366
  0
LWPOLYLINE
  5
A9
330
70
100
AcDbEntity
  8
レイヤー 1
 62
    18
420
        0
370
    13
100
AcDbPolyline
 90
        3
 70
     0
 43
0.0
 10
60.07099417138363
 20
55.58368732334366
 10
60.07099417138363
 20
60.57901118141558
 10
63.20366794277656
 20
60.57901118141558
  0
SPLINE
  5
AA
330
70
100
AcDbEntity
  8
レイヤー 1
 62
    18
420
        0
370
    13
100
AcDbSpline
210
0.0
220
0.0
230
1.0
 70
    24
 71
     3
 72
     8
 73
     4
 74
     0
 42
0.0000000001
 43
0.0000000001
 40
0.0
 40
0.0
 40
0.0
 40
0.0
 40
1.0
 40
1.0
 40
1.0
 40
1.0
 10
60.07099417138363
 20
58.20833331878125
 30
0.0
 10
60.07099417138363
 20
58.20833331878125
 30
0.0
 10
61.97599740068439
 20
58.20833331878125
 30
0.0
 10
61.97599740068439
 20
58.20833331878125
 30
0.0
  0
SPLINE
  5
AB
330
70
100
AcDbEntity
  8
レイヤー 1
 62
    18
420
        0
370
    13
100
AcDbSpline
210
0.0
220
0.0
230
1.0
 70
    24
 71
     3
 72
     8
 73
     4
 74
     0
 42
0.0000000001
 43
0.0000000001
 40
0.0
 40
0.0
 40
0.0
 40
0.0
 40
1.0
 40
1.0
 40
1.0
 40
1.0
 10
60.07099417138363
 20
55.58368732334366
 30
0.0
 10
60.07099417138363
 20
55.58368732334366
 30
0.0
 10
63.20366794277656
 20
55.58368732334366
 30
0.0
 10
63.20366794277656
 20
55.58368732334366
 30
0.0
  0
LWPOLYLINE
  5
AC
330
70
100
AcDbEntity
  8
レイヤー 1
 62
    18
420
        0
370
    13
100
AcDbPolyline
 90
       12
 70
     1
 43
0.0
 10
64.60066492796876
 20
55.58368732334366
 10
64.60066492796876
 20
60.57901656437728
 10
66.2939939545094
 20
60.57901656437728
 10
67.01366363545471
 20
60.32501613380384
 10
67.47932750286487
 20
59.85935226639367
 10
67.69099632266329
 20
59.39368301602181
 10
67.94499675323674
 20
58.67401871803821
 10
67.94499675323674
 20
57.48868516968274
 10
67.69099632266329
 20
56.76901548873743
 10
67.47932750286487
 20
56.30335162132727
 10
67.01366363545471
 20
55.8376823709554
 10
66.2939939545094
 20
55.58368732334366
  0
LWPOLYLINE
  5
AD
330
70
100
AcDbEntity
  8
レイヤー 1
 62
    18
420
        0
370
    13
100
AcDbPolyline
 90
        3
 70
     0
 43
0.0
 10
72.26299869002345
 20
56.26101462759056
 10
71.62799761358986
 20
55.92234020954372
 10
70.95066492638126
 20
55.92234020954372
  0
LWPOLYLINE
  5
AE
330
70
100
AcDbEntity
  8
レイヤー 1
 62
    18
420
        0
370
    13
100
AcDbPolyline
 90
        6
 70
     0
 43
0.0
 10
72.26299869002345
 20
56.26101462759056
 10
72.94033137723204
 20
56.59966751379062
 10
73.61766406444065
 20
57.2346847391093
 10
73.95632771656408
 20
57.9120120433562
 10
73.95632771656408
 20
58.5893393476031
 10
69.93466858704922
 20
58.5893393476031
  0
LINE
  5
AF
330
70
100
AcDbEntity
  8
レイヤー 1
 62
    18
420
        0
370
    13
100
AcDbLine
 10
70.27333223917266
 20
59.90168387716868
 30
0.0
 11
73.61766406444065
 21
59.90168387716868
 31
0.0
  0
LWPOLYLINE
  5
B0
330
70
100
AcDbEntity
  8
レイヤー 1
 62
    18
420
        0
370
    13
100
AcDbPolyline
 90
        3
 70
     0
 43
0.0
 10
79.62899502776799
 20
57.57333762530936
 10
79.92532706911643
 20
58.25066492955626
 10
79.92532706911643
 20
58.92799223380316
  0
LWPOLYLINE
  5
B1
330
70
100
AcDbEntity
  8
レイヤー 1
 62
    18
420
        0
370
    13
100
AcDbPolyline
 90
        3
 70
     0
 43
0.0
 10
79.62899502776799
 20
57.57333762530936
 10
78.61299868843595
 20
56.59966751379062
 10
77.25833331401876
 20
55.92234020954372
  0
SPLINE
  5
B2
330
70
100
AcDbEntity
  8
レイヤー 1
 62
    18
420
        0
370
    13
100
AcDbSpline
210
0.0
220
0.0
230
1.0
 70
    24
 71
     3
 72
     8
 73
     4
 74
     0
 42
0.0000000001
 43
0.0000000001
 40
0.0
 40
0.0
 40
0.0
 40
0.0
 40
1.0
 40
1.0
 40
1.0
 40
1.0
 10
76.28466858546172
 20
59.90168387716868
 30
0.0
 10
76.28466858546172
 20
59.90168387716868
 30
0.0
 10
77.59699696614219
 20
59.26666665185
 30
0.0
 10
77.59699696614219
 20
59.26666665185
 30
0.0
  0
SPLINE
  5
B3
330
70
100
AcDbEntity
  8
レイヤー 1
 62
    18
420
        0
370
    13
100
AcDbSpline
210
0.0
220
0.0
230
1.0
 70
    24
 71
     3
 72
     8
 73
     4
 74
     0
 42
0.0000000001
 43
0.0000000001
 40
0.0
 40
0.0
 40
0.0
 40
0.0
 40
1.0
 40
1.0
 40
1.0
 40
1.0
 10
76.62333223758515
 20
55.92234020954372
 30
0.0
 10
76.62333223758515
 20
55.92234020954372
 30
0.0
 10
77.25833331401876
 20
55.92234020954372
 30
0.0
 10
77.25833331401876
 20
55.92234020954372
 30
0.0
  0
LWPOLYLINE
  5
B4
330
70
100
AcDbEntity
  8
レイヤー 1
 62
    18
420
        0
370
    13
100
AcDbPolyline
 90
        9
 70
     0
 43
0.0
 10
82.29599954878906
 20
55.92234020954372
 10
82.93099524226096
 20
55.92234020954372
 10
84.28566599963984
 20
56.59967289675232
 10
84.96299868684845
 20
57.23466859022421
 10
85.25933072819688
 20
57.91200666039451
 10
85.59799438032035
 20
58.5893393476031
 10
85.59799438032035
 20
59.26667203481169
 10
84.96299868684845
 20
59.56300407616014
 10
81.95733051370392
 20
59.56300407616014
  0
LWPOLYLINE
  5
B5
330
70
100
AcDbEntity
  8
レイヤー 1
 62
    18
420
        0
370
    13
100
AcDbPolyline
 90
        8
 70
     1
 43
0.0
 10
85.59799438032035
 20
60.57903271326236
 10
85.93665803244379
 20
60.57903271326236
 10
86.27532706752893
 20
60.24036367817721
 10
86.27532706752893
 20
59.90169464309207
 10
85.93665803244379
 20
59.56303099096862
 10
85.59799438032035
 20
59.56303099096862
 10
85.25932534523519
 20
59.90169464309207
 10
85.25932534523519
 20
60.24036367817721
  0
LWPOLYLINE
  5
B6
330
70
100
AcDbEntity
  8
レイヤー 1
 62
    18
420
        0
370
    13
100
AcDbPolyline
 90
        3
 70
     0
 43
0.0
 10
90.59332900431565
 20
60.57901118141558
 10
90.59332900431565
 20
55.58368732334366
 10
93.47199696217344
 20
55.58368732334366
  0
LWPOLYLINE
  5
B7
330
70
100
AcDbEntity
  8
レイヤー 1
 62
    18
420
        0
370
    13
100
AcDbPolyline
 90
       12
 70
     1
 43
0.0
 10
94.65733589349062
 20
55.58368732334366
 10
94.65733589349062
 20
60.57901656437728
 10
96.30833330925625
 20
60.57901656437728
 10
97.02799222427817
 20
60.32501613380384
 10
97.49366147465003
 20
59.85935226639367
 10
97.74766190522347
 20
59.39368301602181
 10
98.00166233579689
 20
58.67401871803821
 10
98.00166233579689
 20
57.48868516968274
 10
97.74766190522347
 20
56.76901548873743
 10
97.49366147465003
 20
56.30335162132727
 10
97.02799222427817
 20
55.8376823709554
 10
96.30833330925625
 20
55.58368732334366
  0
LWPOLYLINE
  5
B8
330
70
100
AcDbEntity
  8
レイヤー 1
 62
    18
420
        0
370
    13
100
AcDbPolyline
 90
        3
 70
     0
 43
0.0
 10
99.65267051748593
 20
55.58368732334366
 10
101.5576575979016
 20
60.57901118141558
 10
103.462666210164
 20
55.58368732334366
  0
LINE
  5
B9
330
70
100
AcDbEntity
  8
レイヤー 1
 62
    18
420
        0
370
    13
100
AcDbLine
 10
100.3723294325078
 20
57.2346847391093
 30
0.0
 11
102.7429965292187
 21
57.2346847391093
 31
0.0
  0
LWPOLYLINE
  5
BA
330
70
100
AcDbEntity
  8
レイヤー 1
 62
    18
420
        0
370
    13
100
AcDbPolyline
 90
        4
 70
     0
 43
0.0
 10
104.9019948061312
 20
59.64767268067185
 10
105.3676640565031
 20
59.85933073454688
 10
106.087322971525
 20
60.57901118141558
 10
106.087322971525
 20
55.58368732334366
  0
LWPOLYLINE
  5
BB
330
70
100
AcDbEntity
  8
レイヤー 1
 62
    18
420
        0
370
    13
100
AcDbPolyline
 90
       23
 70
     0
 43
0.0
 10
111.5483376118156
 20
59.85935226639367
 10
111.3366687920172
 20
60.32501613380384
 10
110.6169991110719
 20
60.57901656437728
 10
110.108998249925
 20
60.57901656437728
 10
109.4316709456781
 20
60.32501613380384
 10
108.9236700845312
 20
59.64768344659525
 10
108.7120012647328
 20
58.42001828746477
 10
108.7120012647328
 20
57.2346847391093
 10
108.9236700845312
 20
56.30335162132727
 10
109.4316709456781
 20
55.8376823709554
 10
110.108998249925
 20
55.58368194038197
 10
110.3629986804984
 20
55.58368194038197
 10
111.0826683614437
 20
55.8376823709554
 10
111.5483376118156
 20
56.30335162132727
 10
111.8023272764656
 20
57.02301591931087
 10
111.8023272764656
 20
57.2346847391093
 10
111.5483376118156
 20
57.9543490370929
 10
111.0826683614437
 20
58.42001828746477
 10
110.3629986804984
 20
58.67401871803821
 10
110.108998249925
 20
58.67401871803821
 10
109.4316709456781
 20
58.42001828746477
 10
108.9236700845312
 20
57.9543490370929
 10
108.7120012647328
 20
57.2346847391093
  0
LWPOLYLINE
  5
BC
330
70
100
AcDbEntity
  8
レイヤー 1
 62
    18
420
        0
370
    13
100
AcDbPolyline
 90
        3
 70
     0
 43
0.0
 10
113.4533246922313
 20
60.57901118141558
 10
113.4533246922313
 20
55.58368732334366
 10
116.3319926500891
 20
55.58368732334366
  0
SPLINE
  5
BD
330
70
100
AcDbEntity
  8
レイヤー 1
 62
    18
420
        0
370
    13
100
AcDbSpline
210
0.0
220
0.0
230
1.0
 70
    24
 71
     3
 72
     8
 73
     4
 74
     0
 42
0.0000000001
 43
0.0000000001
 40
0.0
 40
0.0
 40
0.0
 40
0.0
 40
1.0
 40
1.0
 40
1.0
 40
1.0
 10
121.4966644831078
 20
56.26101462759056
 30
0.0
 10
121.4966644831078
 20
56.26101462759056
 30
0.0
 10
118.1946588856531
 20
59.90168387716868
 30
0.0
 10
118.1946588856531
 20
59.90168387716868
 30
0.0
  0
SPLINE
  5
BE
330
70
100
AcDbEntity
  8
レイヤー 1
 62
    18
420
        0
370
    13
100
AcDbSpline
210
0.0
220
0.0
230
1.0
 70
    24
 71
     3
 72
     8
 73
     4
 74
     0
 42
0.0000000001
 43
0.0000000001
 40
0.0
 40
0.0
 40
0.0
 40
0.0
 40
1.0
 40
1.0
 40
1.0
 40
1.0
 10
121.4966644831078
 20
59.90168387716868
 30
0.0
 10
121.4966644831078
 20
59.90168387716868
 30
0.0
 10
118.1946588856531
 20
56.26101462759056
 30
0.0
 10
118.1946588856531
 20
56.26101462759056
 30
0.0
  0
LWPOLYLINE
  5
BF
330
70
100
AcDbEntity
  8
レイヤー 1
 62
    18
420
        0
370
    13
100
AcDbPolyline
 90
       14
 70
     0
 43
0.0
 10
123.7403367474937
 20
59.39368301602181
 10
123.7403367474937
 20
59.64767806363354
 10
123.9943264121438
 20
60.11334731400541
 10
124.2059952319422
 20
60.32501613380384
 10
124.7139960930891
 20
60.57901118141558
 10
125.6453345938328
 20
60.57901118141558
 10
126.1109930782813
 20
60.32501613380384
 10
126.3649935088547
 20
60.11334731400541
 10
126.6189939394281
 20
59.64767806363354
 10
126.6189939394281
 20
59.13968258544837
 10
126.3649935088547
 20
58.6740133350765
 10
125.8993350244062
 20
57.9543490370929
 10
123.4863363169203
 20
55.58368194038197
 10
126.8306627592266
 20
55.58368194038197
  0
LINE
  5
C0
330
70
100
AcDbEntity
  8
レイヤー 1
 62
    18
420
        0
370
    13
100
AcDbLine
 10
129.9209995368828
 20
60.24033676336873
 30
0.0
 11
132.9266623270656
 21
60.24033676336873
 31
0.0
  0
LWPOLYLINE
  5
C1
330
70
100
AcDbEntity
  8
レイヤー 1
 62
    18
420
        0
370
    13
100
AcDbPolyline
 90
        3
 70
     0
 43
0.0
 10
130.9370012591765
 20
55.58368732334366
 10
131.6143285634234
 20
55.58368732334366
 10
131.6143285634234
 20
60.24033676336873
  0
LINE
  5
C2
330
70
100
AcDbEntity
  8
レイヤー 1
 62
    18
420
        0
370
    13
100
AcDbLine
 10
128.2699913551938
 20
59.26666665185
 30
0.0
 11
128.2699913551938
 21
58.25066492955626
 31
0.0
  0
LWPOLYLINE
  5
C3
330
70
100
AcDbEntity
  8
レイヤー 1
 62
    18
420
        0
370
    13
100
AcDbPolyline
 90
        4
 70
     0
 43
0.0
 10
128.9473294253641
 20
60.57901118141558
 10
128.9473294253641
 20
57.57333762530936
 10
128.6086550073172
 20
56.26101462759056
 10
128.2699913551938
 20
55.92234020954372
  0
LWPOLYLINE
  5
C4
330
70
100
AcDbEntity
  8
レイヤー 1
 62
    18
420
        0
370
    13
100
AcDbPolyline
 90
        3
 70
     0
 43
0.0
 10
129.9209995368828
 20
59.56300945912183
 10
129.9209995368828
 20
59.26666665185
 10
129.5823358847594
 20
58.92799223380316
  0
LWPOLYLINE
  5
C5
330
70
100
AcDbEntity
  8
レイヤー 1
 62
    18
420
        0
370
    13
100
AcDbPolyline
 90
        3
 70
     0
 43
0.0
 10
128.9473294253641
 20
57.57333762530936
 10
129.5823358847594
 20
56.89601032106246
 10
129.5823358847594
 20
56.59966751379062
  0
SPLINE
  5
C6
330
70
100
AcDbEntity
  8
レイヤー 1
 62
    18
420
        0
370
    13
100
AcDbSpline
210
0.0
220
0.0
230
1.0
 70
    24
 71
     3
 72
     8
 73
     4
 74
     0
 42
0.0000000001
 43
0.0000000001
 40
0.0
 40
0.0
 40
0.0
 40
0.0
 40
1.0
 40
1.0
 40
1.0
 40
1.0
 10
21.5053330049793
 20
65.74366148258753
 30
0.0
 10
21.5053330049793
 20
65.74366148258753
 30
0.0
 10
21.5053330049793
 20
70.73900687250622
 30
0.0
 10
21.5053330049793
 20
70.73900687250622
 30
0.0
  0
SPLINE
  5
C7
330
70
100
AcDbEntity
  8
レイヤー 1
 62
    18
420
        0
370
    13
100
AcDbSpline
210
0.0
220
0.0
230
1.0
 70
    24
 71
     3
 72
     8
 73
     4
 74
     0
 42
0.0000000001
 43
0.0000000001
 40
0.0
 40
0.0
 40
0.0
 40
0.0
 40
1.0
 40
1.0
 40
1.0
 40
1.0
 10
24.84966483024728
 20
70.73900687250622
 30
0.0
 10
24.84966483024728
 20
70.73900687250622
 30
0.0
 10
21.5053330049793
 20
67.39465889835315
 30
0.0
 10
21.5053330049793
 20
67.39465889835315
 30
0.0
  0
SPLINE
  5
C8
330
70
100
AcDbEntity
  8
レイヤー 1
 62
    18
420
        0
370
    13
100
AcDbSpline
210
0.0
220
0.0
230
1.0
 70
    24
 71
     3
 72
     8
 73
     4
 74
     0
 42
0.0000000001
 43
0.0000000001
 40
0.0
 40
0.0
 40
0.0
 40
0.0
 40
1.0
 40
1.0
 40
1.0
 40
1.0
 10
22.69066655333477
 20
68.58000859559371
 30
0.0
 10
22.69066655333477
 20
68.58000859559371
 30
0.0
 10
24.84966483024728
 20
65.74366148258753
 30
0.0
 10
24.84966483024728
 20
65.74366148258753
 30
0.0
  0
LWPOLYLINE
  5
C9
330
70
100
AcDbEntity
  8
レイヤー 1
 62
    18
420
        0
370
    13
100
AcDbPolyline
 90
       18
 70
     0
 43
0.0
 10
30.05666558256016
 20
69.55367870711246
 10
29.84499676276174
 20
70.01934257452262
 10
29.33699859309571
 20
70.48501182489449
 10
28.8713320342047
 20
70.73900687250622
 10
27.93999891642267
 20
70.73900687250622
 10
27.43199805527579
 20
70.48501182489449
 10
26.96633149638478
 20
70.01934257452262
 10
26.7546653680672
 20
69.55367870711246
 10
26.50066493749376
 20
68.83400902616715
 10
26.50066493749376
 20
67.64867547781168
 10
26.7546653680672
 20
66.92901117982808
 10
26.96633149638478
 20
66.46334192945622
 10
27.43199805527579
 20
65.95534106830935
 10
27.93999891642267
 20
65.74367763147261
 10
28.8713320342047
 20
65.74367763147261
 10
29.33699859309571
 20
65.95534106830935
 10
29.84499676276174
 20
66.46334192945622
 10
30.05666558256016
 20
66.92901117982808
  0
LWPOLYLINE
  5
CA
330
70
100
AcDbEntity
  8
レイヤー 1
 62
    18
420
        0
370
    13
100
AcDbPolyline
 90
       14
 70
     0
 43
0.0
 10
31.7499999920625
 20
69.55367870711246
 10
31.7499999920625
 20
69.76534214394918
 10
31.96166612038008
 20
70.27334300509605
 10
32.21566655095351
 20
70.48501182489449
 10
32.68133310984453
 20
70.73900687250622
 10
33.65499783840157
 20
70.73900687250622
 10
34.12066439729259
 20
70.48501182489449
 10
34.37466482786603
 20
70.27334300509605
 10
34.58633095618361
 20
69.76534214394918
 10
34.58633095618361
 20
69.29967827653901
 10
34.37466482786603
 20
68.83400902616715
 10
33.8666666582
 20
68.11434472818355
 10
31.49599956148906
 20
65.74367763147261
 10
34.84033138675704
 20
65.74367763147261
  0
LWPOLYLINE
  5
CB
330
70
100
AcDbEntity
  8
レイヤー 1
 62
    18
420
        0
370
    13
100
AcDbPolyline
 90
       23
 70
     0
 43
0.0
 10
39.1159990212879
 20
70.01934795748431
 10
38.86199859071446
 20
70.48501182489449
 10
38.18466321202502
 20
70.73901225546791
 10
37.67666504235899
 20
70.73901225546791
 10
36.95699805289454
 20
70.48501182489449
 10
36.49133149400352
 20
69.76534752691089
 10
36.27966536568595
 20
68.58001397855542
 10
36.27966536568595
 20
67.39468043019994
 10
36.49133149400352
 20
66.46334731241791
 10
36.95699805289454
 20
65.95534645127104
 10
37.67666504235899
 20
65.74367763147261
 10
37.93066547293243
 20
65.74367763147261
 10
38.65032977091603
 20
65.95534645127104
 10
39.1159990212879
 20
66.46334731241791
 10
39.36999676038049
 20
67.14067999962651
 10
39.36999676038049
 20
67.39468043019994
 10
39.1159990212879
 20
68.11434472818355
 10
38.65032977091603
 20
68.58001397855542
 10
37.93066547293243
 20
68.83401440912884
 10
37.67666504235899
 20
68.83401440912884
 10
36.95699805289454
 20
68.58001397855542
 10
36.49133149400352
 20
68.11434472818355
 10
36.27966536568595
 20
67.39468043019994
  0
LWPOLYLINE
  5
CC
330
70
100
AcDbEntity
  8
レイヤー 1
 62
    18
420
        0
370
    13
100
AcDbPolyline
 90
        3
 70
     0
 43
0.0
 10
41.02099686762697
 20
70.73900687250622
 10
44.36533138437579
 20
70.73900687250622
 10
41.9946669791457
 20
65.74366148258753
  0
LWPOLYLINE
  5
CD
330
70
100
AcDbEntity
  8
レイヤー 1
 62
    18
420
        0
370
    13
100
AcDbPolyline
 90
       16
 70
     1
 43
0.0
 10
47.20166234849689
 20
70.73900687250622
 10
46.48199266755159
 20
70.48500644193278
 10
46.01632880014142
 20
69.7653367609875
 10
45.76232836956799
 20
68.58000321263202
 10
45.76232836956799
 20
67.86033891464843
 10
46.01632880014142
 20
66.67500536629295
 10
46.48199266755159
 20
65.95533568534765
 10
47.20166234849689
 20
65.74367224851092
 10
47.66732621590706
 20
65.74367224851092
 10
48.38699051389067
 20
65.95533568534765
 10
48.89499137503754
 20
66.67500536629295
 10
49.10666019483596
 20
67.86033891464843
 10
49.10666019483596
 20
68.58000321263202
 10
48.89499137503754
 20
69.7653367609875
 10
48.38699051389067
 20
70.48500644193278
 10
47.66732621590706
 20
70.73900687250622
  0
LWPOLYLINE
  5
CE
330
70
100
AcDbEntity
  8
レイヤー 1
 62
    18
420
        0
370
    25
100
AcDbPolyline
 90
       53
 70
     1
 43
0.0
 10
94.65733589349062
 20
130.4290219298765
 10
94.74199911504063
 20
129.4553518183577
 10
94.99599954561407
 20
128.524013317614
 10
95.41932641928752
 20
127.5926855827937
 10
96.0120012679078
 20
126.7036786928249
 10
96.73166018292972
 20
125.8993457903296
 10
97.57833546212344
 20
125.1373552645327
 10
98.55199480771878
 20
124.4176855835874
 10
99.65265975156254
 20
123.8250215008905
 10
100.8379986828797
 20
123.3170206397436
 10
102.1080008357468
 20
122.9360146109218
 10
103.420334599389
 20
122.6396825695734
 10
104.8173315845812
 20
122.4280137497749
 10
106.2143285697734
 20
122.3433505282249
 10
107.6113255549656
 20
122.3856821389999
 10
109.0083333060812
 20
122.5550193480233
 10
110.3206670697234
 20
122.8090197785968
 10
111.6330008333656
 20
123.1900150414952
 10
112.8606606095344
 20
123.6556842918671
 10
114.0036679300765
 20
124.206016763789
 10
115.0196588864469
 20
124.8833548339593
 10
115.9509973871906
 20
125.6030137489812
 10
116.7129986789109
 20
126.4073466514765
 10
117.3479943723828
 20
127.2963535414452
 10
117.8136636227547
 20
128.1853496654905
 10
118.1523272748781
 20
129.1166881662343
 10
118.3216644839015
 20
130.0903475118296
 10
118.3216644839015
 20
131.0640176233484
 10
118.1523272748781
 20
131.9953453581687
 10
117.8136636227547
 20
132.9266838589124
 10
117.3056627616078
 20
133.8580115937327
 10
116.6706670681359
 20
134.7046868729265
 10
115.8663341656406
 20
135.5090197754218
 10
114.9349956648969
 20
136.2286786904437
 10
113.9189939426031
 20
136.863685149839
 10
112.7759973879844
 20
137.4140176217609
 10
111.5483268458922
 20
137.8796868721327
 10
110.23599308225
 20
138.2183505242561
 10
108.8813277078328
 20
138.4723509548296
 10
107.4843307226406
 20
138.5993457871546
 10
106.0873337374484
 20
138.641688163853
 10
104.6903259863328
 20
138.5146825656046
 10
103.3356606119156
 20
138.3453453565812
 10
101.9809952374984
 20
138.0066817044577
 10
100.7533354613297
 20
137.5833548307843
 10
99.56799653001253
 20
137.0753539696374
 10
98.46733158616878
 20
136.4403475102421
 10
97.49366147465003
 20
135.7630202059952
 10
96.6469969613797
 20
134.9586873034999
 10
95.92732728043442
 20
134.1543544010046
 10
95.37699480851252
 20
133.2653475110359
 10
94.99599954561407
 20
132.3340197762155
 10
94.74199911504063
 20
131.3603496646968
  0
LWPOLYLINE
  5
CF
330
70
100
AcDbEntity
  8
レイヤー 1
 62
    18
420
        0
370
    25
100
AcDbPolyline
 90
        3
 70
     0
 43
0.0
 10
109.1776705151046
 20
206.3749999484063
 10
106.8493242632453
 20
208.6186829787155
 10
106.4683290003469
 20
138.6416773979296
  0
LWPOLYLINE
  5
D0
330
70
100
AcDbEntity
  8
レイヤー 1
 62
    18
420
        0
370
    25
100
AcDbPolyline
 90
        5
 70
     0
 43
0.0
 10
106.8493242632453
 20
208.6186829787155
 10
106.9339982507187
 20
212.0053410317968
 10
109.5163341672281
 20
215.3073358633281
 10
109.6433289995531
 20
217.7203453367375
 10
106.7646610416953
 20
214.3336657518094
  0
LINE
  5
D1
330
70
100
AcDbEntity
  8
レイヤー 1
 62
    18
420
        0
370
    25
100
AcDbLine
 10
109.5163341672281
 20
215.3073358633281
 30
0.0
 11
112.9029922203094
 21
211.8783461994718
 31
0.0
  0
LWPOLYLINE
  5
D2
330
70
100
AcDbEntity
  8
レイヤー 1
 62
    18
420
        0
370
    25
100
AcDbPolyline
 90
        4
 70
     0
 43
0.0
 10
106.7223294309203
 20
113.8766838636749
 10
103.2933290011406
 20
111.3366795579405
 10
101.4729943763516
 20
114.299999971425
 10
97.91698834832349
 20
112.0986700837375
  0
LWPOLYLINE
  5
D3
330
70
100
AcDbEntity
  8
レイヤー 1
 62
    18
420
        0
370
    25
100
AcDbPolyline
 90
       76
 70
     0
 43
0.0
 10
85.09000428509686
 20
115.0196804182937
 10
85.09000428509686
 20
118.5756756803984
 10
81.28000320945702
 20
116.2473401944625
 10
81.28000320945702
 20
119.8456778332656
 10
78.27433503631249
 20
117.5596739581046
 10
77.08900148795703
 20
120.184341485389
 10
73.61766944740233
 20
118.6603389019484
 10
72.85566815568202
 20
122.3010081515265
 10
68.91866686475546
 20
120.3113470836374
 10
69.42666772590235
 20
123.7403367474937
 10
65.91299869161095
 20
122.0893393317281
 10
65.91299869161095
 20
125.3066709417093
 10
62.56866686634297
 20
124.0366795547656
 10
62.56866686634297
 20
127.1693371772734
 10
58.5470023538664
 20
126.0686722334297
 10
59.47833547164843
 20
128.9896718020624
 10
54.94867009802499
 20
128.3546761085906
 10
56.55733590301561
 20
131.148670078975
 10
52.15466536171719
 20
131.148670078975
 10
54.05966859101796
 20
133.7733376062593
 10
49.23366579308439
 20
133.3500107325859
 10
51.30800084844687
 20
135.8900042723968
 10
46.566666655025
 20
135.8900042723968
 10
48.76800192567421
 20
138.5146717996812
 10
44.11133633676405
 20
138.5146717996812
 10
46.48200343347498
 20
141.224013314439
 10
41.74067193153397
 20
141.5626769665624
 10
45.04266945454609
 20
144.3566709369468
 10
40.00500591125661
 20
145.0340090071171
 10
43.56100117336132
 20
147.1083440624796
 10
38.60800623458357
 20
148.4206778261218
 10
41.99466967062654
 20
150.2833440616859
 10
38.0576683797
 20
151.3840090055296
 10
41.69833762927811
 20
153.4583440608921
 10
36.57600278999608
 20
154.6013406155109
 10
40.55533569169765
 20
157.0143393229968
 10
36.36433397019766
 20
158.326673086639
 10
40.42833547641093
 20
160.3163449204515
 10
36.44900257470937
 20
161.3323358768218
 10
40.13200343506248
 20
163.2373444890843
 10
35.94100171356249
 20
164.6343414742765
 10
40.38600117415508
 20
166.4546760990656
 10
36.70300300528281
 20
168.6560059867531
 10
41.61366902476639
 20
169.9683397503953
 10
37.46500429700311
 20
172.4660124453546
 10
42.58733644480428
 20
173.6513406107484
 10
39.24300192805546
 20
175.8950128751343
 10
44.66166880868593
 20
177.0380094297531
 10
41.69833762927811
 20
179.5780137354874
 10
45.84700235704139
 20
179.9590089983859
 10
43.4763379518113
 20
183.2186829850655
 10
48.93733375173593
 20
184.1076683431875
 10
46.52433504424999
 20
187.1133418992937
 10
52.32400257074061
 20
187.5366580070438
 10
49.69933504345624
 20
190.4576683416
 10
55.41433396543515
 20
190.4576683416
 10
53.34000429303436
 20
193.802016315753
 10
59.39366686713672
 20
193.3786786761562
 10
57.65800084685937
 20
196.6806735076875
 10
63.24600493651327
 20
195.7070033961687
 10
62.69566708162969
 20
199.4323358672968
 10
68.19900256677186
 20
198.2046760911281
 10
68.19900256677186
 20
201.5490025334344
 10
73.82933288423906
 20
200.2790111464906
 10
73.02499998174375
 20
203.242331559975
 10
78.02033460573906
 20
202.3533246700063
 10
77.5970023491039
 20
205.4436829795093
 10
83.18500105579609
 20
203.7503324211219
 10
83.18500105579609
 20
206.4596631699563
 10
88.30733589507811
 20
204.5546760895406
 10
88.30733589507811
 20
207.5603496456468
 10
93.85300299099531
 20
205.5706778118343
 10
94.91133632406405
 20
208.5339982253187
 10
98.93300083654063
 20
206.2480051160812
 10
100.8803302936547
 20
208.7456778110406
 10
103.8436614730625
 20
206.3749999484063
  0
SPLINE
  5
D4
330
70
100
AcDbEntity
  8
レイヤー 1
 62
    18
420
        0
370
    25
100
AcDbSpline
210
0.0
220
0.0
230
1.0
 70
    24
 71
     3
 72
     8
 73
     4
 74
     0
 42
0.0000000001
 43
0.0000000001
 40
0.0
 40
0.0
 40
0.0
 40
0.0
 40
1.0
 40
1.0
 40
1.0
 40
1.0
 10
100.8803302936547
 20
208.7456778110406
 30
0.0
 10
100.8803302936547
 20
208.7456778110406
 30
0.0
 10
105.7909909301766
 20
138.6416773979296
 30
0.0
 10
105.7909909301766
 20
138.6416773979296
 30
0.0
  0
SPLINE
  5
D5
330
70
100
AcDbEntity
  8
レイヤー 1
 62
    18
420
        0
370
    25
100
AcDbSpline
210
0.0
220
0.0
230
1.0
 70
    24
 71
     3
 72
     8
 73
     4
 74
     0
 42
0.0000000001
 43
0.0000000001
 40
0.0
 40
0.0
 40
0.0
 40
0.0
 40
1.0
 40
1.0
 40
1.0
 40
1.0
 10
94.91132555814067
 20
208.5339982253187
 30
0.0
 10
94.91132555814067
 20
208.5339982253187
 30
0.0
 10
105.1983268474797
 20
138.5993457871546
 30
0.0
 10
105.1983268474797
 20
138.5993457871546
 30
0.0
  0
SPLINE
  5
D6
330
70
100
AcDbEntity
  8
レイヤー 1
 62
    18
420
        0
370
    25
100
AcDbSpline
210
0.0
220
0.0
230
1.0
 70
    24
 71
     3
 72
     8
 73
     4
 74
     0
 42
0.0000000001
 43
0.0000000001
 40
0.0
 40
0.0
 40
0.0
 40
0.0
 40
1.0
 40
1.0
 40
1.0
 40
1.0
 10
89.23866362989846
 20
203.5386743672468
 30
0.0
 10
89.23866362989846
 20
203.5386743672468
 30
0.0
 10
104.6056627647828
 20
138.5570034104562
 30
0.0
 10
104.6056627647828
 20
138.5570034104562
 30
0.0
  0
SPLINE
  5
D7
330
70
100
AcDbEntity
  8
レイヤー 1
 62
    18
420
        0
370
    25
100
AcDbSpline
210
0.0
220
0.0
230
1.0
 70
    24
 71
     3
 72
     8
 73
     4
 74
     0
 42
0.0000000001
 43
0.0000000001
 40
0.0
 40
0.0
 40
0.0
 40
0.0
 40
1.0
 40
1.0
 40
1.0
 40
1.0
 10
84.28566061667815
 20
202.8189939203782
 30
0.0
 10
84.28566061667815
 20
202.8189939203782
 30
0.0
 10
104.182325125186
 20
138.4723401889062
 30
0.0
 10
104.182325125186
 20
138.4723401889062
 30
0.0
  0
SPLINE
  5
D8
330
70
100
AcDbEntity
  8
レイヤー 1
 62
    18
420
        0
370
    25
100
AcDbSpline
210
0.0
220
0.0
230
1.0
 70
    24
 71
     3
 72
     8
 73
     4
 74
     0
 42
0.0000000001
 43
0.0000000001
 40
0.0
 40
0.0
 40
0.0
 40
0.0
 40
1.0
 40
1.0
 40
1.0
 40
1.0
 10
79.07866255584611
 20
201.6759973657594
 30
0.0
 10
79.07866255584611
 20
201.6759973657594
 30
0.0
 10
103.7166558748141
 20
138.4300085781312
 30
0.0
 10
103.7166558748141
 20
138.4300085781312
 30
0.0
  0
SPLINE
  5
D9
330
70
100
AcDbEntity
  8
レイヤー 1
 62
    18
420
        0
370
    25
100
AcDbSpline
210
0.0
220
0.0
230
1.0
 70
    24
 71
     3
 72
     8
 73
     4
 74
     0
 42
0.0000000001
 43
0.0000000001
 40
0.0
 40
0.0
 40
0.0
 40
0.0
 40
1.0
 40
1.0
 40
1.0
 40
1.0
 10
74.67599201454769
 20
199.7286571427219
 30
0.0
 10
74.67599201454769
 20
199.7286571427219
 30
0.0
 10
103.1663234028922
 20
138.3030137458062
 30
0.0
 10
103.1663234028922
 20
138.3030137458062
 30
0.0
  0
SPLINE
  5
DA
330
70
100
AcDbEntity
  8
レイヤー 1
 62
    18
420
        0
370
    25
100
AcDbSpline
210
0.0
220
0.0
230
1.0
 70
    24
 71
     3
 72
     8
 73
     4
 74
     0
 42
0.0000000001
 43
0.0000000001
 40
0.0
 40
0.0
 40
0.0
 40
0.0
 40
1.0
 40
1.0
 40
1.0
 40
1.0
 10
70.01932642563753
 20
198.2046760911281
 30
0.0
 10
70.01932642563753
 20
198.2046760911281
 30
0.0
 10
102.6159909309703
 20
138.2183397583328
 30
0.0
 10
102.6159909309703
 20
138.2183397583328
 30
0.0
  0
SPLINE
  5
DB
330
70
100
AcDbEntity
  8
レイヤー 1
 62
    18
420
        0
370
    25
100
AcDbSpline
210
0.0
220
0.0
230
1.0
 70
    24
 71
     3
 72
     8
 73
     4
 74
     0
 42
0.0000000001
 43
0.0000000001
 40
0.0
 40
0.0
 40
0.0
 40
0.0
 40
1.0
 40
1.0
 40
1.0
 40
1.0
 10
65.48966105201408
 20
195.1143393134718
 30
0.0
 10
65.48966105201408
 20
195.1143393134718
 30
0.0
 10
102.0656584590484
 20
138.0490025493093
 30
0.0
 10
102.0656584590484
 20
138.0490025493093
 30
0.0
  0
SPLINE
  5
DC
330
70
100
AcDbEntity
  8
レイヤー 1
 62
    18
420
        0
370
    25
100
AcDbSpline
210
0.0
220
0.0
230
1.0
 70
    24
 71
     3
 72
     8
 73
     4
 74
     0
 42
0.0000000001
 43
0.0000000001
 40
0.0
 40
0.0
 40
0.0
 40
0.0
 40
1.0
 40
1.0
 40
1.0
 40
1.0
 10
60.53666342175548
 20
192.8283246723875
 30
0.0
 10
60.53666342175548
 20
192.8283246723875
 30
0.0
 10
101.4729943763516
 20
137.8796761062093
 30
0.0
 10
101.4729943763516
 20
137.8796761062093
 30
0.0
  0
SPLINE
  5
DD
330
70
100
AcDbEntity
  8
レイヤー 1
 62
    18
420
        0
370
    25
100
AcDbSpline
210
0.0
220
0.0
230
1.0
 70
    24
 71
     3
 72
     8
 73
     4
 74
     0
 42
0.0000000001
 43
0.0000000001
 40
0.0
 40
0.0
 40
0.0
 40
0.0
 40
1.0
 40
1.0
 40
1.0
 40
1.0
 10
56.59966213082892
 20
189.9073358696781
 30
0.0
 10
56.59966213082892
 20
189.9073358696781
 30
0.0
 10
100.7533246954063
 20
137.6256756756359
 30
0.0
 10
100.7533246954063
 20
137.6256756756359
 30
0.0
  0
SPLINE
  5
DE
330
70
100
AcDbEntity
  8
レイヤー 1
 62
    18
420
        0
370
    25
100
AcDbSpline
210
0.0
220
0.0
230
1.0
 70
    24
 71
     3
 72
     8
 73
     4
 74
     0
 42
0.0000000001
 43
0.0000000001
 40
0.0
 40
0.0
 40
0.0
 40
0.0
 40
1.0
 40
1.0
 40
1.0
 40
1.0
 10
49.69932966049455
 20
190.4576683416
 30
0.0
 10
49.69932966049455
 20
190.4576683416
 30
0.0
 10
99.90666018213596
 20
137.2870120235124
 30
0.0
 10
99.90666018213596
 20
137.2870120235124
 30
0.0
  0
SPLINE
  5
DF
330
70
100
AcDbEntity
  8
レイヤー 1
 62
    18
420
        0
370
    25
100
AcDbSpline
210
0.0
220
0.0
230
1.0
 70
    24
 71
     3
 72
     8
 73
     4
 74
     0
 42
0.0000000001
 43
0.0000000001
 40
0.0
 40
0.0
 40
0.0
 40
0.0
 40
1.0
 40
1.0
 40
1.0
 40
1.0
 10
48.93732836877424
 20
184.1076683431875
 30
0.0
 10
48.93732836877424
 20
184.1076683431875
 30
0.0
 10
99.18699050119066
 20
136.9060059946906
 30
0.0
 10
99.18699050119066
 20
136.9060059946906
 30
0.0
  0
SPLINE
  5
E0
330
70
100
AcDbEntity
  8
レイヤー 1
 62
    18
420
        0
370
    25
100
AcDbSpline
210
0.0
220
0.0
230
1.0
 70
    24
 71
     3
 72
     8
 73
     4
 74
     0
 42
0.0000000001
 43
0.0000000001
 40
0.0
 40
0.0
 40
0.0
 40
0.0
 40
1.0
 40
1.0
 40
1.0
 40
1.0
 10
45.8469969740797
 20
179.9590089983859
 30
0.0
 10
45.8469969740797
 20
179.9590089983859
 30
0.0
 10
98.59432641849378
 20
136.5673423425671
 30
0.0
 10
98.59432641849378
 20
136.5673423425671
 30
0.0
  0
SPLINE
  5
E1
330
70
100
AcDbEntity
  8
レイヤー 1
 62
    18
420
        0
370
    25
100
AcDbSpline
210
0.0
220
0.0
230
1.0
 70
    24
 71
     3
 72
     8
 73
     4
 74
     0
 42
0.0000000001
 43
0.0000000001
 40
0.0
 40
0.0
 40
0.0
 40
0.0
 40
1.0
 40
1.0
 40
1.0
 40
1.0
 10
44.66166342572424
 20
177.0380094297531
 30
0.0
 10
44.66166342572424
 20
177.0380094297531
 30
0.0
 10
98.00166233579689
 20
136.1863470796687
 30
0.0
 10
98.00166233579689
 20
136.1863470796687
 30
0.0
  0
SPLINE
  5
E2
330
70
100
AcDbEntity
  8
レイヤー 1
 62
    18
420
        0
370
    25
100
AcDbSpline
210
0.0
220
0.0
230
1.0
 70
    24
 71
     3
 72
     8
 73
     4
 74
     0
 42
0.0000000001
 43
0.0000000001
 40
0.0
 40
0.0
 40
0.0
 40
0.0
 40
1.0
 40
1.0
 40
1.0
 40
1.0
 10
42.58732837036173
 20
173.6513406107484
 30
0.0
 10
42.58732837036173
 20
173.6513406107484
 30
0.0
 10
97.57832469620005
 20
135.8900150383202
 30
0.0
 10
97.57832469620005
 20
135.8900150383202
 30
0.0
  0
SPLINE
  5
E3
330
70
100
AcDbEntity
  8
レイヤー 1
 62
    18
420
        0
370
    25
100
AcDbSpline
210
0.0
220
0.0
230
1.0
 70
    24
 71
     3
 72
     8
 73
     4
 74
     0
 42
0.0000000001
 43
0.0000000001
 40
0.0
 40
0.0
 40
0.0
 40
0.0
 40
1.0
 40
1.0
 40
1.0
 40
1.0
 10
41.61366364180469
 20
169.9683397503953
 30
0.0
 10
41.61366364180469
 20
169.9683397503953
 30
0.0
 10
97.07032383505318
 20
135.4666773987234
 30
0.0
 10
97.07032383505318
 20
135.4666773987234
 30
0.0
  0
SPLINE
  5
E4
330
70
100
AcDbEntity
  8
レイヤー 1
 62
    18
420
        0
370
    25
100
AcDbSpline
210
0.0
220
0.0
230
1.0
 70
    24
 71
     3
 72
     8
 73
     4
 74
     0
 42
0.0000000001
 43
0.0000000001
 40
0.0
 40
0.0
 40
0.0
 40
0.0
 40
1.0
 40
1.0
 40
1.0
 40
1.0
 10
40.38599309971252
 20
166.4546760990656
 30
0.0
 10
40.38599309971252
 20
166.4546760990656
 30
0.0
 10
96.60465458468131
 20
135.0010081483515
 30
0.0
 10
96.60465458468131
 20
135.0010081483515
 30
0.0
  0
SPLINE
  5
E5
330
70
100
AcDbEntity
  8
レイヤー 1
 62
    18
420
        0
370
    25
100
AcDbSpline
210
0.0
220
0.0
230
1.0
 70
    24
 71
     3
 72
     8
 73
     4
 74
     0
 42
0.0000000001
 43
0.0000000001
 40
0.0
 40
0.0
 40
0.0
 40
0.0
 40
1.0
 40
1.0
 40
1.0
 40
1.0
 10
41.44432643278128
 20
161.8826791146671
 30
0.0
 10
41.44432643278128
 20
161.8826791146671
 30
0.0
 10
96.22365932178285
 20
134.5776705087546
 30
0.0
 10
96.22365932178285
 20
134.5776705087546
 30
0.0
  0
SPLINE
  5
E6
330
70
100
AcDbEntity
  8
レイヤー 1
 62
    18
420
        0
370
    25
100
AcDbSpline
210
0.0
220
0.0
230
1.0
 70
    24
 71
     3
 72
     8
 73
     4
 74
     0
 42
0.0000000001
 43
0.0000000001
 40
0.0
 40
0.0
 40
0.0
 40
0.0
 40
1.0
 40
1.0
 40
1.0
 40
1.0
 10
39.96266084307737
 20
159.7236700718312
 30
0.0
 10
39.96266084307737
 20
159.7236700718312
 30
0.0
 10
95.84265329296099
 20
134.1120120243062
 30
0.0
 10
95.84265329296099
 20
134.1120120243062
 30
0.0
  0
SPLINE
  5
E7
330
70
100
AcDbEntity
  8
レイヤー 1
 62
    18
420
        0
370
    25
100
AcDbSpline
210
0.0
220
0.0
230
1.0
 70
    24
 71
     3
 72
     8
 73
     4
 74
     0
 42
0.0000000001
 43
0.0000000001
 40
0.0
 40
0.0
 40
0.0
 40
0.0
 40
1.0
 40
1.0
 40
1.0
 40
1.0
 10
41.6559952525797
 20
156.1253431989515
 30
0.0
 10
41.6559952525797
 20
156.1253431989515
 30
0.0
 10
95.41932641928752
 20
133.3923423433609
 30
0.0
 10
95.41932641928752
 20
133.3923423433609
 30
0.0
  0
SPLINE
  5
E8
330
70
100
AcDbEntity
  8
レイヤー 1
 62
    18
420
        0
370
    25
100
AcDbSpline
210
0.0
220
0.0
230
1.0
 70
    24
 71
     3
 72
     8
 73
     4
 74
     0
 42
0.0000000001
 43
0.0000000001
 40
0.0
 40
0.0
 40
0.0
 40
0.0
 40
1.0
 40
1.0
 40
1.0
 40
1.0
 10
42.92599740544688
 20
152.2306735188
 30
0.0
 10
42.92599740544688
 20
152.2306735188
 30
0.0
 10
95.08066276716409
 20
132.6303410516405
 30
0.0
 10
95.08066276716409
 20
132.6303410516405
 30
0.0
  0
SPLINE
  5
E9
330
70
100
AcDbEntity
  8
レイヤー 1
 62
    18
420
        0
370
    25
100
AcDbSpline
210
0.0
220
0.0
230
1.0
 70
    24
 71
     3
 72
     8
 73
     4
 74
     0
 42
0.0000000001
 43
0.0000000001
 40
0.0
 40
0.0
 40
0.0
 40
0.0
 40
1.0
 40
1.0
 40
1.0
 40
1.0
 10
44.66166342572424
 20
148.5053410476718
 30
0.0
 10
44.66166342572424
 20
148.5053410476718
 30
0.0
 10
94.82666233659065
 20
131.9530137473937
 30
0.0
 10
94.82666233659065
 20
131.9530137473937
 30
0.0
  0
SPLINE
  5
EA
330
70
100
AcDbEntity
  8
レイヤー 1
 62
    18
420
        0
370
    25
100
AcDbSpline
210
0.0
220
0.0
230
1.0
 70
    24
 71
     3
 72
     8
 73
     4
 74
     0
 42
0.0000000001
 43
0.0000000001
 40
0.0
 40
0.0
 40
0.0
 40
0.0
 40
1.0
 40
1.0
 40
1.0
 40
1.0
 10
46.35499245226488
 20
145.626673089814
 30
0.0
 10
46.35499245226488
 20
145.626673089814
 30
0.0
 10
94.69965673834222
 20
131.2333440664484
 30
0.0
 10
94.69965673834222
 20
131.2333440664484
 30
0.0
  0
SPLINE
  5
EB
330
70
100
AcDbEntity
  8
レイヤー 1
 62
    18
420
        0
370
    25
100
AcDbSpline
210
0.0
220
0.0
230
1.0
 70
    24
 71
     3
 72
     8
 73
     4
 74
     0
 42
0.0000000001
 43
0.0000000001
 40
0.0
 40
0.0
 40
0.0
 40
0.0
 40
1.0
 40
1.0
 40
1.0
 40
1.0
 10
47.62499460513206
 20
142.6633419104062
 30
0.0
 10
47.62499460513206
 20
142.6633419104062
 30
0.0
 10
94.65732512756723
 20
130.6830008286031
 30
0.0
 10
94.65732512756723
 20
130.6830008286031
 30
0.0
  0
SPLINE
  5
EC
330
70
100
AcDbEntity
  8
レイヤー 1
 62
    18
420
        0
370
    25
100
AcDbSpline
210
0.0
220
0.0
230
1.0
 70
    24
 71
     3
 72
     8
 73
     4
 74
     0
 42
0.0000000001
 43
0.0000000001
 40
0.0
 40
0.0
 40
0.0
 40
0.0
 40
1.0
 40
1.0
 40
1.0
 40
1.0
 10
49.78399826500626
 20
139.7423423417734
 30
0.0
 10
49.78399826500626
 20
139.7423423417734
 30
0.0
 10
94.69965673834222
 20
130.1750107333796
 30
0.0
 10
94.69965673834222
 20
130.1750107333796
 30
0.0
  0
SPLINE
  5
ED
330
70
100
AcDbEntity
  8
レイヤー 1
 62
    18
420
        0
370
    25
100
AcDbSpline
210
0.0
220
0.0
230
1.0
 70
    24
 71
     3
 72
     8
 73
     4
 74
     0
 42
0.0000000001
 43
0.0000000001
 40
0.0
 40
0.0
 40
0.0
 40
0.0
 40
1.0
 40
1.0
 40
1.0
 40
1.0
 10
52.1969969724922
 20
137.8796761062093
 30
0.0
 10
52.1969969724922
 20
137.8796761062093
 30
0.0
 10
94.78431995989224
 20
129.4976726632093
 30
0.0
 10
94.78431995989224
 20
129.4976726632093
 30
0.0
  0
SPLINE
  5
EE
330
70
100
AcDbEntity
  8
レイヤー 1
 62
    18
420
        0
370
    25
100
AcDbSpline
210
0.0
220
0.0
230
1.0
 70
    24
 71
     3
 72
     8
 73
     4
 74
     0
 42
0.0000000001
 43
0.0000000001
 40
0.0
 40
0.0
 40
0.0
 40
0.0
 40
1.0
 40
1.0
 40
1.0
 40
1.0
 10
54.65232729075315
 20
135.4666773987234
 30
0.0
 10
54.65232729075315
 20
135.4666773987234
 30
0.0
 10
94.91132555814067
 20
128.9473401912875
 30
0.0
 10
94.91132555814067
 20
128.9473401912875
 30
0.0
  0
SPLINE
  5
EF
330
70
100
AcDbEntity
  8
レイヤー 1
 62
    18
420
        0
370
    25
100
AcDbSpline
210
0.0
220
0.0
230
1.0
 70
    24
 71
     3
 72
     8
 73
     4
 74
     0
 42
0.0000000001
 43
0.0000000001
 40
0.0
 40
0.0
 40
0.0
 40
0.0
 40
1.0
 40
1.0
 40
1.0
 40
1.0
 10
57.31932642881253
 20
133.1806735235625
 30
0.0
 10
57.31932642881253
 20
133.1806735235625
 30
0.0
 10
95.08066276716409
 20
128.3970077193656
 30
0.0
 10
95.08066276716409
 20
128.3970077193656
 30
0.0
  0
SPLINE
  5
F0
330
70
100
AcDbEntity
  8
レイヤー 1
 62
    18
420
        0
370
    25
100
AcDbSpline
210
0.0
220
0.0
230
1.0
 70
    24
 71
     3
 72
     8
 73
     4
 74
     0
 42
0.0000000001
 43
0.0000000001
 40
0.0
 40
0.0
 40
0.0
 40
0.0
 40
1.0
 40
1.0
 40
1.0
 40
1.0
 10
95.63099523908595
 20
127.2963427755218
 30
0.0
 10
95.63099523908595
 20
127.2963427755218
 30
0.0
 10
63.11899395530315
 20
128.7780137481874
 30
0.0
 10
63.11899395530315
 20
128.7780137481874
 30
0.0
  0
SPLINE
  5
F1
330
70
100
AcDbEntity
  8
レイヤー 1
 62
    18
420
        0
370
    25
100
AcDbSpline
210
0.0
220
0.0
230
1.0
 70
    24
 71
     3
 72
     8
 73
     4
 74
     0
 42
0.0000000001
 43
0.0000000001
 40
0.0
 40
0.0
 40
0.0
 40
0.0
 40
1.0
 40
1.0
 40
1.0
 40
1.0
 10
60.36733159569376
 20
130.8100064268515
 30
0.0
 10
60.36733159569376
 20
130.8100064268515
 30
0.0
 10
95.29232082103913
 20
127.9313384689937
 30
0.0
 10
95.29232082103913
 20
127.9313384689937
 30
0.0
  0
SPLINE
  5
F2
330
70
100
AcDbEntity
  8
レイヤー 1
 62
    18
420
        0
370
    25
100
AcDbSpline
210
0.0
220
0.0
230
1.0
 70
    24
 71
     3
 72
     8
 73
     4
 74
     0
 42
0.0000000001
 43
0.0000000001
 40
0.0
 40
0.0
 40
0.0
 40
0.0
 40
1.0
 40
1.0
 40
1.0
 40
1.0
 10
58.5469969709047
 20
126.0686722334297
 30
0.0
 10
58.5469969709047
 20
126.0686722334297
 30
0.0
 10
96.01199050198442
 20
126.7459995376766
 30
0.0
 10
96.01199050198442
 20
126.7459995376766
 30
0.0
  0
SPLINE
  5
F3
330
70
100
AcDbEntity
  8
レイヤー 1
 62
    18
420
        0
370
    25
100
AcDbSpline
210
0.0
220
0.0
230
1.0
 70
    24
 71
     3
 72
     8
 73
     4
 74
     0
 42
0.0000000001
 43
0.0000000001
 40
0.0
 40
0.0
 40
0.0
 40
0.0
 40
1.0
 40
1.0
 40
1.0
 40
1.0
 10
62.56866148338128
 20
124.0366687888422
 30
0.0
 10
62.56866148338128
 20
124.0366687888422
 30
0.0
 10
96.35065415410787
 20
126.3226726640031
 30
0.0
 10
96.35065415410787
 20
126.3226726640031
 30
0.0
  0
SPLINE
  5
F4
330
70
100
AcDbEntity
  8
レイヤー 1
 62
    18
420
        0
370
    25
100
AcDbSpline
210
0.0
220
0.0
230
1.0
 70
    24
 71
     3
 72
     8
 73
     4
 74
     0
 42
0.0000000001
 43
0.0000000001
 40
0.0
 40
0.0
 40
0.0
 40
0.0
 40
1.0
 40
1.0
 40
1.0
 40
1.0
 10
69.42666234294065
 20
123.7403367474937
 30
0.0
 10
69.42666234294065
 20
123.7403367474937
 30
0.0
 10
96.73166018292972
 20
125.8993457903296
 30
0.0
 10
96.73166018292972
 20
125.8993457903296
 30
0.0
  0
SPLINE
  5
F5
330
70
100
AcDbEntity
  8
レイヤー 1
 62
    18
420
        0
370
    25
100
AcDbSpline
210
0.0
220
0.0
230
1.0
 70
    24
 71
     3
 72
     8
 73
     4
 74
     0
 42
0.0000000001
 43
0.0000000001
 40
0.0
 40
0.0
 40
0.0
 40
0.0
 40
1.0
 40
1.0
 40
1.0
 40
1.0
 10
72.85566277272033
 20
122.3010081515265
 30
0.0
 10
72.85566277272033
 20
122.3010081515265
 30
0.0
 10
97.19732943330159
 20
125.4760081507328
 30
0.0
 10
97.19732943330159
 20
125.4760081507328
 30
0.0
  0
SPLINE
  5
F6
330
70
100
AcDbEntity
  8
レイヤー 1
 62
    18
420
        0
370
    25
100
AcDbSpline
210
0.0
220
0.0
230
1.0
 70
    24
 71
     3
 72
     8
 73
     4
 74
     0
 42
0.0000000001
 43
0.0000000001
 40
0.0
 40
0.0
 40
0.0
 40
0.0
 40
1.0
 40
1.0
 40
1.0
 40
1.0
 10
77.08899610499533
 20
120.184341485389
 30
0.0
 10
77.08899610499533
 20
120.184341485389
 30
0.0
 10
97.57832469620005
 20
125.1796761093843
 30
0.0
 10
97.57832469620005
 20
125.1796761093843
 30
0.0
  0
SPLINE
  5
F7
330
70
100
AcDbEntity
  8
レイヤー 1
 62
    18
420
        0
370
    25
100
AcDbSpline
210
0.0
220
0.0
230
1.0
 70
    24
 71
     3
 72
     8
 73
     4
 74
     0
 42
0.0000000001
 43
0.0000000001
 40
0.0
 40
0.0
 40
0.0
 40
0.0
 40
1.0
 40
1.0
 40
1.0
 40
1.0
 10
81.27999244353363
 20
119.8456778332656
 30
0.0
 10
81.27999244353363
 20
119.8456778332656
 30
0.0
 10
98.08632555734691
 20
124.7986700805625
 30
0.0
 10
98.08632555734691
 20
124.7986700805625
 30
0.0
  0
SPLINE
  5
F8
330
70
100
AcDbEntity
  8
レイヤー 1
 62
    18
420
        0
370
    25
100
AcDbSpline
210
0.0
220
0.0
230
1.0
 70
    24
 71
     3
 72
     8
 73
     4
 74
     0
 42
0.0000000001
 43
0.0000000001
 40
0.0
 40
0.0
 40
0.0
 40
0.0
 40
1.0
 40
1.0
 40
1.0
 40
1.0
 10
85.08999351917347
 20
118.5756756803984
 30
0.0
 10
85.08999351917347
 20
118.5756756803984
 30
0.0
 10
98.80599523829221
 20
124.3330008301906
 30
0.0
 10
98.80599523829221
 20
124.3330008301906
 30
0.0
  0
SPLINE
  5
F9
330
70
100
AcDbEntity
  8
レイヤー 1
 62
    18
420
        0
370
    25
100
AcDbSpline
210
0.0
220
0.0
230
1.0
 70
    24
 71
     3
 72
     8
 73
     4
 74
     0
 42
0.0000000001
 43
0.0000000001
 40
0.0
 40
0.0
 40
0.0
 40
0.0
 40
1.0
 40
1.0
 40
1.0
 40
1.0
 10
88.56132555972816
 20
117.9406692210031
 30
0.0
 10
88.56132555972816
 20
117.9406692210031
 30
0.0
 10
99.39865932098911
 20
123.9943371780672
 30
0.0
 10
99.39865932098911
 20
123.9943371780672
 30
0.0
  0
SPLINE
  5
FA
330
70
100
AcDbEntity
  8
レイヤー 1
 62
    18
420
        0
370
    25
100
AcDbSpline
210
0.0
220
0.0
230
1.0
 70
    24
 71
     3
 72
     8
 73
     4
 74
     0
 42
0.0000000001
 43
0.0000000001
 40
0.0
 40
0.0
 40
0.0
 40
0.0
 40
1.0
 40
1.0
 40
1.0
 40
1.0
 10
89.11166341461173
 20
113.4533354581547
 30
0.0
 10
89.11166341461173
 20
113.4533354581547
 30
0.0
 10
99.99132340368598
 20
123.6980051367187
 30
0.0
 10
99.99132340368598
 20
123.6980051367187
 30
0.0
  0
SPLINE
  5
FB
330
70
100
AcDbEntity
  8
レイヤー 1
 62
    18
420
        0
370
    25
100
AcDbSpline
210
0.0
220
0.0
230
1.0
 70
    24
 71
     3
 72
     8
 73
     4
 74
     0
 42
0.0000000001
 43
0.0000000001
 40
0.0
 40
0.0
 40
0.0
 40
0.0
 40
1.0
 40
1.0
 40
1.0
 40
1.0
 10
93.38732297470006
 20
112.7760081539078
 30
0.0
 10
93.38732297470006
 20
112.7760081539078
 30
0.0
 10
100.4569926540578
 20
123.5286786936187
 30
0.0
 10
100.4569926540578
 20
123.5286786936187
 30
0.0
  0
SPLINE
  5
FC
330
70
100
AcDbEntity
  8
レイヤー 1
 62
    18
420
        0
370
    25
100
AcDbSpline
210
0.0
220
0.0
230
1.0
 70
    24
 71
     3
 72
     8
 73
     4
 74
     0
 42
0.0000000001
 43
0.0000000001
 40
0.0
 40
0.0
 40
0.0
 40
0.0
 40
1.0
 40
1.0
 40
1.0
 40
1.0
 10
97.91698834832349
 20
112.0986700837375
 30
0.0
 10
97.91698834832349
 20
112.0986700837375
 30
0.0
 10
100.9226619044297
 20
123.2746674971219
 30
0.0
 10
100.9226619044297
 20
123.2746674971219
 30
0.0
  0
SPLINE
  5
FD
330
70
100
AcDbEntity
  8
レイヤー 1
 62
    18
420
        0
370
    25
100
AcDbSpline
210
0.0
220
0.0
230
1.0
 70
    24
 71
     3
 72
     8
 73
     4
 74
     0
 42
0.0000000001
 43
0.0000000001
 40
0.0
 40
0.0
 40
0.0
 40
0.0
 40
1.0
 40
1.0
 40
1.0
 40
1.0
 10
103.2933290011406
 20
111.3366687920172
 30
0.0
 10
103.2933290011406
 20
111.3366687920172
 30
0.0
 10
104.309319957511
 20
122.4703453605499
 30
0.0
 10
104.309319957511
 20
122.4703453605499
 30
0.0
  0
LWPOLYLINE
  5
FE
330
70
100
AcDbEntity
  8
レイヤー 1
 62
    18
420
        0
370
    25
100
AcDbPolyline
 90
        4
 70
     0
 43
0.0
 10
103.3779922226906
 20
217.7203453367375
 10
103.5049978209391
 20
215.3073358633281
 10
100.1183290019344
 20
211.8783461994718
 10
100.8803302936547
 20
208.7456778110406
  0
LWPOLYLINE
  5
FF
330
70
100
AcDbEntity
  8
レイヤー 1
 62
    18
420
        0
370
    25
100
AcDbPolyline
 90
        5
 70
     0
 43
0.0
 10
103.3779922226906
 20
217.7203453367375
 10
100.7956563061813
 20
214.5453453375312
 10
97.62065630697506
 20
217.1700128648156
 10
97.3243242656266
 20
215.2650042525531
 10
100.1183290019344
 20
211.8783461994718
  0
LWPOLYLINE
  5
100
330
70
100
AcDbEntity
  8
レイヤー 1
 62
    18
420
        0
370
    25
100
AcDbPolyline
 90
        3
 70
     0
 43
0.0
 10
94.91132555814067
 20
208.5339982253187
 10
94.31866147544377
 20
211.708998224525
 10
97.3243242656266
 20
215.2650042525531
  0
LWPOLYLINE
  5
101
330
70
100
AcDbEntity
  8
レイヤー 1
 62
    18
420
        0
370
    25
100
AcDbPolyline
 90
        5
 70
     0
 43
0.0
 10
94.31866147544377
 20
211.708998224525
 10
91.22832469778755
 20
214.8416666129563
 10
92.3289896416313
 20
217.1700128648156
 10
95.29233158696252
 20
214.7570033914063
 10
97.62065630697506
 20
217.1700128648156
  0
LWPOLYLINE
  5
102
330
70
100
AcDbEntity
  8
レイヤー 1
 62
    18
420
        0
370
    25
100
AcDbPolyline
 90
        6
 70
     0
 43
0.0
 10
88.30733589507811
 20
207.5603496456468
 10
88.30733589507811
 20
210.7353496448531
 10
85.47099954799532
 20
213.9526597229875
 10
87.12199696376094
 20
216.5349956394969
 10
89.6620012694953
 20
214.9263513663531
 10
92.3289896416313
 20
217.1700128648156
  0
LINE
  5
103
330
70
100
AcDbEntity
  8
レイヤー 1
 62
    18
420
        0
370
    25
100
AcDbLine
 10
91.22832469778755
 20
214.8416666129563
 30
0.0
 11
88.30733589507811
 21
210.7353496448531
 31
0.0
  0
LWPOLYLINE
  5
104
330
70
100
AcDbEntity
  8
レイヤー 1
 62
    18
420
        0
370
    25
100
AcDbPolyline
 90
        3
 70
     0
 43
0.0
 10
85.47099954799532
 20
213.9526597229875
 10
82.59233159013751
 20
209.3806735045125
 10
83.1849956728344
 20
206.4596847018031
  0
LWPOLYLINE
  5
105
330
70
100
AcDbEntity
  8
レイヤー 1
 62
    18
420
        0
370
    25
100
AcDbPolyline
 90
        5
 70
     0
 43
0.0
 10
82.59233159013751
 20
209.3806735045125
 10
79.20566277113284
 20
212.7673315575937
 10
81.44932965255705
 20
215.5190154490499
 10
83.73533352771797
 20
213.6986700583375
 10
87.12199696376094
 20
216.5349956394969
  0
LWPOLYLINE
  5
106
330
70
100
AcDbEntity
  8
レイヤー 1
 62
    18
420
        0
370
    25
100
AcDbPolyline
 90
        3
 70
     0
 43
0.0
 10
79.20566277113284
 20
212.7673315575937
 10
76.70800084209687
 20
208.1106821175687
 10
77.59699696614219
 20
205.4436829795093
  0
LWPOLYLINE
  5
107
330
70
100
AcDbEntity
  8
レイヤー 1
 62
    18
420
        0
370
    25
100
AcDbPolyline
 90
        5
 70
     0
 43
0.0
 10
76.70800084209687
 20
208.1106821175687
 10
73.78700127346405
 20
211.1586657526031
 10
76.24233159172501
 20
214.0373444763843
 10
78.44366686237421
 20
212.9366795325406
 10
81.44932965255705
 20
215.5190154490499
  0
LWPOLYLINE
  5
108
330
70
100
AcDbEntity
  8
レイヤー 1
 62
    18
420
        0
370
    25
100
AcDbPolyline
 90
        3
 70
     0
 43
0.0
 10
73.78700127346405
 20
211.1586657526031
 10
71.45866040456643
 20
206.4173315591812
 10
73.02499998174375
 20
203.242331559975
  0
LWPOLYLINE
  5
109
330
70
100
AcDbEntity
  8
レイヤー 1
 62
    18
420
        0
370
    25
100
AcDbPolyline
 90
        5
 70
     0
 43
0.0
 10
71.45866040456643
 20
206.4173315591812
 10
68.45299761438361
 20
209.2113470614124
 10
71.16232836321799
 20
212.5980051144937
 10
73.23666341858049
 20
211.5820033922
 10
76.24233159172501
 20
214.0373444763843
  0
LWPOLYLINE
  5
10A
330
70
100
AcDbEntity
  8
レイヤー 1
 62
    18
420
        0
370
    25
100
AcDbPolyline
 90
        5
 70
     0
 43
0.0
 10
68.24133417754687
 20
209.6770163117843
 10
66.46333116353282
 20
210.1426640303094
 10
63.28833116432657
 20
206.7983375880031
 10
65.91299869161095
 20
204.2583332822688
 10
68.45299761438361
 20
209.2113470614124
  0
LINE
  5
10B
330
70
100
AcDbEntity
  8
レイヤー 1
 62
    18
420
        0
370
    25
100
AcDbLine
 10
65.91299869161095
 20
204.2583332822688
 30
0.0
 11
68.19900256677186
 21
201.5490025334344
 31
0.0
  0
LWPOLYLINE
  5
10C
330
70
100
AcDbEntity
  8
レイヤー 1
 62
    18
420
        0
370
    25
100
AcDbPolyline
 90
        5
 70
     0
 43
0.0
 10
62.99199912297813
 20
207.094680395275
 10
61.29866471347579
 20
207.6450128671968
 10
58.20833331878125
 20
204.3006648930438
 10
60.95999567839065
 20
201.8030137299312
 10
63.28833116432657
 20
206.7983375880031
  0
SPLINE
  5
10D
330
70
100
AcDbEntity
  8
レイヤー 1
 62
    18
420
        0
370
    25
100
AcDbSpline
210
0.0
220
0.0
230
1.0
 70
    24
 71
     3
 72
     8
 73
     4
 74
     0
 42
0.0000000001
 43
0.0000000001
 40
0.0
 40
0.0
 40
0.0
 40
0.0
 40
1.0
 40
1.0
 40
1.0
 40
1.0
 10
68.24133417754687
 20
209.6770163117843
 30
0.0
 10
68.24133417754687
 20
209.6770163117843
 30
0.0
 10
71.16232836321799
 20
212.5980051144937
 30
0.0
 10
71.16232836321799
 20
212.5980051144937
 30
0.0
  0
SPLINE
  5
10E
330
70
100
AcDbEntity
  8
レイヤー 1
 62
    18
420
        0
370
    25
100
AcDbSpline
210
0.0
220
0.0
230
1.0
 70
    24
 71
     3
 72
     8
 73
     4
 74
     0
 42
0.0000000001
 43
0.0000000001
 40
0.0
 40
0.0
 40
0.0
 40
0.0
 40
1.0
 40
1.0
 40
1.0
 40
1.0
 10
62.99199912297813
 20
207.094680395275
 30
0.0
 10
62.99199912297813
 20
207.094680395275
 30
0.0
 10
66.46333116353282
 20
210.1426640303094
 30
0.0
 10
66.46333116353282
 20
210.1426640303094
 30
0.0
  0
SPLINE
  5
10F
330
70
100
AcDbEntity
  8
レイヤー 1
 62
    18
420
        0
370
    25
100
AcDbSpline
210
0.0
220
0.0
230
1.0
 70
    24
 71
     3
 72
     8
 73
     4
 74
     0
 42
0.0000000001
 43
0.0000000001
 40
0.0
 40
0.0
 40
0.0
 40
0.0
 40
1.0
 40
1.0
 40
1.0
 40
1.0
 10
60.95999567839065
 20
201.8030137299312
 30
0.0
 10
60.95999567839065
 20
201.8030137299312
 30
0.0
 10
62.69566708162969
 20
199.4323358672968
 30
0.0
 10
62.69566708162969
 20
199.4323358672968
 30
0.0
  0
LWPOLYLINE
  5
110
330
70
100
AcDbEntity
  8
レイヤー 1
 62
    18
420
        0
370
    25
100
AcDbPolyline
 90
        5
 70
     0
 43
0.0
 10
57.65799546389768
 20
196.6806735076875
 10
55.79533461129531
 20
199.2206778134218
 10
53.00133525794922
 20
201.5066709226594
 10
51.77366471585704
 20
195.9186829818905
 10
53.33999891007266
 20
193.802016315753
  0
LWPOLYLINE
  5
111
330
70
100
AcDbEntity
  8
レイヤー 1
 62
    18
420
        0
370
    25
100
AcDbPolyline
 90
        4
 70
     0
 43
0.0
 10
55.79533461129531
 20
199.2206778134218
 10
58.20833331878125
 20
204.3006648930438
 10
56.4303303047672
 20
204.7663341434156
 10
53.00133525794922
 20
201.5066709226594
  0
LWPOLYLINE
  5
112
330
70
100
AcDbEntity
  8
レイヤー 1
 62
    18
420
        0
370
    25
100
AcDbPolyline
 90
        4
 70
     0
 43
0.0
 10
51.77366471585704
 20
195.9186829818905
 10
48.64099632742579
 20
198.4586657557781
 10
47.62499998809375
 20
192.6166666185125
 10
49.69932966049455
 20
190.4576683416
  0
LWPOLYLINE
  5
113
330
70
100
AcDbEntity
  8
レイヤー 1
 62
    18
420
        0
370
    25
100
AcDbPolyline
 90
        3
 70
     0
 43
0.0
 10
48.64099632742579
 20
198.4586657557781
 10
51.81599632663204
 20
201.6336657549844
 10
53.00133525794922
 20
201.5066709226594
  0
LWPOLYLINE
  5
114
330
70
100
AcDbEntity
  8
レイヤー 1
 62
    18
420
        0
370
    25
100
AcDbPolyline
 90
        3
 70
     0
 43
0.0
 10
47.62499998809375
 20
192.6166666185125
 10
45.12733267609609
 20
194.4370120092249
 10
48.64099632742579
 20
198.4586657557781
  0
LWPOLYLINE
  5
115
330
70
100
AcDbEntity
  8
レイヤー 1
 62
    18
420
        0
370
    25
100
AcDbPolyline
 90
        3
 70
     1
 43
0.0
 10
45.12733267609609
 20
194.4370120092249
 10
43.94199912774062
 20
189.0183289797094
 10
42.16399880520742
 20
190.2883418984999
  0
LINE
  5
116
330
70
100
AcDbEntity
  8
レイヤー 1
 62
    18
420
        0
370
    25
100
AcDbLine
 10
43.94199912774062
 20
189.0183289797094
 30
0.0
 11
46.5243296612883
 21
187.1133418992937
 31
0.0
  0
LWPOLYLINE
  5
117
330
70
100
AcDbEntity
  8
レイヤー 1
 62
    18
420
        0
370
    25
100
AcDbPolyline
 90
        3
 70
     0
 43
0.0
 10
42.16399880520742
 20
190.2883418984999
 10
41.40199751348712
 20
184.8273487900562
 10
43.47633526033046
 20
183.2186829850655
  0
LWPOLYLINE
  5
118
330
70
100
AcDbEntity
  8
レイヤー 1
 62
    18
420
        0
370
    25
100
AcDbPolyline
 90
        3
 70
     0
 43
0.0
 10
41.40199751348712
 20
184.8273487900562
 10
38.81966697993945
 20
186.5630094273718
 10
42.16399880520742
 20
190.2883418984999
  0
LWPOLYLINE
  5
119
330
70
100
AcDbEntity
  8
レイヤー 1
 62
    18
420
        0
370
    25
100
AcDbPolyline
 90
        3
 70
     1
 43
0.0
 10
38.81966697993945
 20
186.5630094273718
 10
38.81966697993945
 20
181.5253324266781
 10
36.74533461605781
 20
182.7530137346937
  0
LINE
  5
11A
330
70
100
AcDbEntity
  8
レイヤー 1
 62
    18
420
        0
370
    25
100
AcDbLine
 10
38.81966697993945
 20
181.5253324266781
 30
0.0
 11
41.69833493779726
 21
179.5780137354874
 31
0.0
  0
LWPOLYLINE
  5
11B
330
70
100
AcDbEntity
  8
レイヤー 1
 62
    18
420
        0
370
    25
100
AcDbPolyline
 90
        3
 70
     0
 43
0.0
 10
36.74533461605781
 20
182.7530137346937
 10
36.74533461605781
 20
177.3766730818765
 10
39.24300192805546
 20
175.8950128751343
  0
LWPOLYLINE
  5
11C
330
70
100
AcDbEntity
  8
レイヤー 1
 62
    18
420
        0
370
    25
100
AcDbPolyline
 90
        3
 70
     0
 43
0.0
 10
36.74533461605781
 20
177.3766730818765
 10
35.05199751507463
 20
178.6043436239687
 10
36.74533461605781
 20
181.1866795404781
  0
LWPOLYLINE
  5
11D
330
70
100
AcDbEntity
  8
レイヤー 1
 62
    18
420
        0
370
    25
100
AcDbPolyline
 90
        3
 70
     0
 43
0.0
 10
35.05199751507463
 20
178.6043436239687
 10
35.43299816093477
 20
173.7360038322984
 10
37.46500160552226
 20
172.4660124453546
  0
LWPOLYLINE
  5
11E
330
70
100
AcDbEntity
  8
レイヤー 1
 62
    18
420
        0
370
    25
100
AcDbPolyline
 90
        3
 70
     0
 43
0.0
 10
35.43299816093477
 20
173.7360038322984
 10
33.90900096045586
 20
174.4980051240187
 10
35.13666611958633
 20
177.4613470693499
  0
LWPOLYLINE
  5
11F
330
70
100
AcDbEntity
  8
レイヤー 1
 62
    18
420
        0
370
    25
100
AcDbPolyline
 90
        3
 70
     0
 43
0.0
 10
33.90900096045586
 20
174.4980051240187
 10
34.37466482786603
 20
170.1376769594187
 10
36.70300031380195
 20
168.6560167526765
  0
LWPOLYLINE
  5
120
330
70
100
AcDbEntity
  8
レイヤー 1
 62
    18
420
        0
370
    25
100
AcDbPolyline
 90
        3
 70
     0
 43
0.0
 10
34.37466482786603
 20
170.1376769594187
 10
33.23166558176641
 20
170.6880094313406
 10
33.99366418200588
 20
173.2280137370749
  0
LWPOLYLINE
  5
121
330
70
100
AcDbEntity
  8
レイヤー 1
 62
    18
420
        0
370
    25
100
AcDbPolyline
 90
        3
 70
     0
 43
0.0
 10
33.23166558176641
 20
170.6880094313406
 10
33.8666666582
 20
165.8620120163687
 10
35.94099902208165
 20
164.6343414742765
  0
LWPOLYLINE
  5
122
330
70
100
AcDbEntity
  8
レイヤー 1
 62
    18
420
        0
370
    25
100
AcDbPolyline
 90
        3
 70
     0
 43
0.0
 10
33.57033192537071
 20
168.2750107238546
 10
32.97766515119298
 20
166.2853496559655
 10
33.8666666582
 20
165.8620120163687
  0
LWPOLYLINE
  5
123
330
70
100
AcDbEntity
  8
レイヤー 1
 62
    18
420
        0
370
    25
100
AcDbPolyline
 90
        3
 70
     0
 43
0.0
 10
32.97766515119298
 20
166.2853496559655
 10
33.10466536647969
 20
162.7716860046358
 10
36.44899719174767
 20
161.3323466427452
  0
LINE
  5
124
330
70
100
AcDbEntity
  8
レイヤー 1
 62
    18
420
        0
370
    25
100
AcDbLine
 10
32.97766515119298
 20
166.2853496559655
 30
0.0
 11
33.82433235594414
 21
162.433011586589
 31
0.0
  0
LWPOLYLINE
  5
125
330
70
100
AcDbEntity
  8
レイヤー 1
 62
    18
420
        0
370
    25
100
AcDbPolyline
 90
        3
 70
     0
 43
0.0
 10
33.10466536647969
 20
162.7716860046358
 10
34.16299869954845
 20
158.199678254314
 10
36.36433397019766
 20
158.3266838525624
  0
LWPOLYLINE
  5
126
330
70
100
AcDbEntity
  8
レイヤー 1
 62
    18
420
        0
370
    25
100
AcDbPolyline
 90
        3
 70
     0
 43
0.0
 10
34.16299869954845
 20
158.199678254314
 10
35.17900042184219
 20
154.3050193400858
 10
36.57600009851524
 20
154.6013513814343
  0
LWPOLYLINE
  5
127
330
70
100
AcDbEntity
  8
レイヤー 1
 62
    18
420
        0
370
    25
100
AcDbPolyline
 90
        3
 70
     0
 43
0.0
 10
35.17900042184219
 20
154.3050193400858
 10
36.15266515039923
 20
151.3416773947546
 10
38.05766568821915
 20
151.3840090055296
  0
LWPOLYLINE
  5
128
330
70
100
AcDbEntity
  8
レイヤー 1
 62
    18
420
        0
370
    25
100
AcDbPolyline
 90
       34
 70
     0
 43
0.0
 10
36.15266515039923
 20
151.341688160678
 10
36.91466375063869
 20
148.0396825632233
 10
38.60799816014102
 20
148.4206778261218
 10
38.60799816014102
 20
145.288020203614
 10
40.00499783681408
 20
145.0340197730405
 10
40.21666396513165
 20
141.6473509540358
 10
41.74066385709141
 20
141.5626877324858
 10
42.46033084655587
 20
138.5570141763796
 10
44.11133095380235
 20
138.5146825656046
 10
44.74632933875509
 20
135.6360146077468
 10
46.56666127206331
 20
136.0593522473436
 10
47.70966320964376
 20
132.8420206373624
 10
49.23366041012268
 20
133.3500214985092
 10
50.12266191712971
 20
130.5983483729765
 10
51.77366471585704
 20
131.1486808448984
 10
53.21299869478594
 20
128.0160124564671
 10
54.9486647150633
 20
128.354686874514
 10
56.72666234611565
 20
125.6876877364546
 10
58.5469969709047
 20
126.068682999353
 10
60.19799438667034
 20
123.6980159026421
 10
62.56866148338128
 20
124.0366795547656
 10
63.79633202547345
 20
122.3010189174499
 10
65.91299869161095
 20
122.3010189174499
 10
67.47932750286487
 20
120.099678263839
 10
68.91866148179378
 20
120.3113470836374
 10
71.37399718301643
 20
118.1946804174999
 10
73.61766406444065
 20
118.7026812786468
 10
75.73433073057813
 20
116.5436830017343
 10
78.2319926596141
 20
117.644347945578
 10
79.75599524305471
 20
115.654686877689
 10
81.27999782649533
 20
116.2473509603858
 10
84.5819926580266
 20
114.3423531140468
 10
85.08999890213516
 20
115.0196804182937
 10
89.11166341461173
 20
113.453346224078
  0
LWPOLYLINE
  5
129
330
70
100
AcDbEntity
  8
レイヤー 1
 62
    18
420
        0
370
    25
100
AcDbPolyline
 90
        3
 70
     0
 43
0.0
 10
93.38732297470006
 20
112.7759973879844
 10
91.73632555893441
 20
114.7656692217968
 10
89.11166341461173
 20
113.453346224078
  0
LWPOLYLINE
  5
12A
330
70
100
AcDbEntity
  8
レイヤー 1
 62
    18
420
        0
370
    25
100
AcDbPolyline
 90
        3
 70
     0
 43
0.0
 10
93.38732297470006
 20
112.7759973879844
 10
96.39299653080627
 20
114.0036786959999
 10
97.91698834832349
 20
112.0986700837375
  0
LWPOLYLINE
  5
12B
330
70
100
AcDbEntity
  8
レイヤー 1
 62
    18
420
        0
370
    25
100
AcDbPolyline
 90
        3
 70
     0
 43
0.0
 10
63.24599417058987
 20
195.7070033961687
 10
65.48966643497578
 20
195.1143393134718
 10
65.10866578911564
 20
198.882003395375
  0
LWPOLYLINE
  5
12C
330
70
100
AcDbEntity
  8
レイヤー 1
 62
    18
420
        0
370
    25
100
AcDbPolyline
 90
        3
 70
     0
 43
0.0
 10
68.19900256677186
 20
198.2046760911281
 10
70.27333223917266
 20
198.2470077019031
 10
69.72299438428909
 20
201.2103496472343
  0
LWPOLYLINE
  5
12D
330
70
100
AcDbEntity
  8
レイヤー 1
 62
    18
420
        0
370
    25
100
AcDbPolyline
 90
        3
 70
     0
 43
0.0
 10
73.82933288423906
 20
200.2790111464906
 10
74.67599739750939
 20
199.7286786745687
 10
74.76066600202109
 20
202.94601028455
  0
LWPOLYLINE
  5
12E
330
70
100
AcDbEntity
  8
レイヤー 1
 62
    18
420
        0
370
    25
100
AcDbPolyline
 90
        3
 70
     0
 43
0.0
 10
78.02033460573906
 20
202.3533462018531
 10
79.07866793880781
 20
201.6759973657594
 10
79.03633094507111
 20
205.0203453399125
  0
LWPOLYLINE
  5
12F
330
70
100
AcDbEntity
  8
レイヤー 1
 62
    18
420
        0
370
    25
100
AcDbPolyline
 90
        3
 70
     0
 43
0.0
 10
83.1849956728344
 20
203.7503324211219
 10
84.28566599963984
 20
202.8190154522249
 10
84.28566599963984
 20
206.0363470622062
  0
LWPOLYLINE
  5
130
330
70
100
AcDbEntity
  8
レイヤー 1
 62
    18
420
        0
370
    25
100
AcDbPolyline
 90
        3
 70
     0
 43
0.0
 10
88.30733589507811
 20
204.5546760895406
 10
89.23866362989846
 20
203.5386743672468
 10
89.4926640604719
 20
207.13701200605
  0
SPLINE
  5
131
330
70
100
AcDbEntity
  8
レイヤー 1
 62
    18
420
        0
370
    25
100
AcDbSpline
210
0.0
220
0.0
230
1.0
 70
    24
 71
     3
 72
     8
 73
     4
 74
     0
 42
0.0000000001
 43
0.0000000001
 40
0.0
 40
0.0
 40
0.0
 40
0.0
 40
1.0
 40
1.0
 40
1.0
 40
1.0
 10
59.39366148417502
 20
193.3786786761562
 30
0.0
 10
59.39366148417502
 20
193.3786786761562
 30
0.0
 10
60.6636636370422
 20
192.7013513719093
 30
0.0
 10
60.6636636370422
 20
192.7013513719093
 30
0.0
  0
SPLINE
  5
132
330
70
100
AcDbEntity
  8
レイヤー 1
 62
    18
420
        0
370
    25
100
AcDbSpline
210
0.0
220
0.0
230
1.0
 70
    24
 71
     3
 72
     8
 73
     4
 74
     0
 42
0.0000000001
 43
0.0000000001
 40
0.0
 40
0.0
 40
0.0
 40
0.0
 40
1.0
 40
1.0
 40
1.0
 40
1.0
 10
60.53666342175548
 20
192.7436829826843
 30
0.0
 10
60.53666342175548
 20
192.7436829826843
 30
0.0
 10
60.32499998491875
 20
196.2150042573156
 30
0.0
 10
60.32499998491875
 20
196.2150042573156
 30
0.0
  0
LWPOLYLINE
  5
133
330
70
100
AcDbEntity
  8
レイヤー 1
 62
    18
420
        0
370
    25
100
AcDbPolyline
 90
        3
 70
     0
 43
0.0
 10
55.41433396543515
 20
190.4576683416
 10
56.59966213082892
 20
189.9073358696781
 10
56.34566708321719
 20
193.5903367300312
  0
LWPOLYLINE
  5
134
330
70
100
AcDbEntity
  8
レイヤー 1
 62
    18
420
        0
370
    25
100
AcDbPolyline
 90
        3
 70
     0
 43
0.0
 10
52.53566600757735
 20
190.4576683416
 10
54.10199481883127
 20
188.5526597293375
 10
52.32399718777892
 20
187.5366795388906
  0
LWPOLYLINE
  5
135
330
70
100
AcDbEntity
  8
レイヤー 1
 62
    18
420
        0
370
    25
100
AcDbPolyline
 90
        3
 70
     0
 43
0.0
 10
49.44533461288281
 20
187.3249999531688
 10
51.09633202864845
 20
185.3353496512031
 10
48.93733375173593
 20
184.1076683431875
  0
LWPOLYLINE
  5
136
330
70
100
AcDbEntity
  8
レイヤー 1
 62
    18
420
        0
370
    25
100
AcDbPolyline
 90
       42
 70
     0
 43
0.0
 10
46.35499783522657
 20
183.6843522354374
 10
48.30232729234065
 20
181.6523487908499
 10
45.8469969740797
 20
179.9590089983859
 10
46.39732944600157
 20
178.4773487916437
 10
44.66166342572424
 20
177.0380094297531
 10
44.66166342572424
 20
175.090679972639
 10
42.58733106184259
 20
173.6513513766718
 10
43.47632987736877
 20
171.3230158907359
 10
41.61366364180469
 20
169.9683505163187
 10
42.67199697487344
 20
168.0210102932812
 10
40.38599579119337
 20
166.4546760990656
 10
42.16399611372658
 20
164.5073466419515
 10
40.13199536061994
 20
163.2373444890843
 10
42.2909963290133
 20
161.0783462121718
 10
39.58166288869806
 20
159.5120120179562
 10
42.33333063126916
 20
158.030351811214
 10
40.55533030873595
 20
157.0143500889202
 10
43.17999783602032
 20
154.8976834227827
 10
41.69832955483556
 20
153.4583440608921
 10
43.64566439491134
 20
151.5110146037781
 10
41.99466428766485
 20
150.2833440616859
 10
44.66166342572424
 20
148.5053410476718
 10
43.56099579039963
 20
147.1083440624796
 10
46.35499783522657
 20
145.6266838557374
 10
45.04266407158438
 20
144.3566817028702
 10
47.62499460513206
 20
142.6633526763296
 10
46.48199266755159
 20
141.224013314439
 10
49.78399288204457
 20
139.7423423417734
 10
48.17532707705393
 20
137.7526812738843
 10
52.1969969724922
 20
137.8796868721327
 10
50.84232621511332
 20
135.2973509556233
 10
54.65232729075315
 20
135.4666773987234
 10
53.42466213162268
 20
132.8843522481374
 10
57.31932642881253
 20
133.1806842894858
 10
56.3879933110305
 20
130.8100171927749
 10
60.36732621273206
 20
130.8100171927749
 10
59.47833008868673
 20
128.9896825679859
 10
63.11899395530315
 20
128.7780137481874
 10
62.56866148338128
 20
126.1533462209031
 10
66.54799438508284
 20
126.6613470820499
 10
65.91299330864925
 20
124.248348374564
 10
69.42666234294065
 20
123.7403475134171
  0
LINE
  5
137
330
70
100
AcDbEntity
  8
レイヤー 1
 62
    18
420
        0
370
    25
100
AcDbLine
 10
69.13033030159221
 20
121.6236808472796
 30
0.0
 11
72.85566277272033
 21
122.3010081515265
 31
0.0
  0
LWPOLYLINE
  5
138
330
70
100
AcDbEntity
  8
レイヤー 1
 62
    18
420
        0
370
    25
100
AcDbPolyline
 90
        7
 70
     0
 43
0.0
 10
97.91698834832349
 20
112.0986700837375
 10
97.23966104407658
 20
117.0940154736562
 10
93.38732297470006
 20
112.7759973879844
 10
92.96399610102659
 20
117.7713427779031
 10
89.11166341461173
 20
113.453346224078
 10
88.56133094268987
 20
117.9406799869265
 10
85.08999890213516
 20
115.0196588864469
  0
SPLINE
  5
139
330
70
100
AcDbEntity
  8
レイヤー 1
 62
    18
420
        0
370
    25
100
AcDbSpline
210
0.0
220
0.0
230
1.0
 70
    24
 71
     3
 72
     8
 73
     4
 74
     0
 42
0.0000000001
 43
0.0000000001
 40
0.0
 40
0.0
 40
0.0
 40
0.0
 40
1.0
 40
1.0
 40
1.0
 40
1.0
 10
103.8436614730625
 20
206.3749999484063
 30
0.0
 10
103.8436614730625
 20
206.3749999484063
 30
0.0
 10
106.8493242632453
 20
208.6186829787155
 30
0.0
 10
106.8493242632453
 20
208.6186829787155
 30
0.0
  0
SPLINE
  5
13A
330
70
100
AcDbEntity
  8
レイヤー 1
 62
    18
420
        0
370
    25
100
AcDbSpline
210
0.0
220
0.0
230
1.0
 70
    24
 71
     3
 72
     8
 73
     4
 74
     0
 42
0.0000000001
 43
0.0000000001
 40
0.0
 40
0.0
 40
0.0
 40
0.0
 40
1.0
 40
1.0
 40
1.0
 40
1.0
 10
106.9339982507187
 20
212.0053410317968
 30
0.0
 10
106.9339982507187
 20
212.0053410317968
 30
0.0
 10
103.5049978209391
 20
215.3073358633281
 30
0.0
 10
103.5049978209391
 20
215.3073358633281
 30
0.0
  0
SPLINE
  5
13B
330
70
100
AcDbEntity
  8
レイヤー 1
 62
    18
420
        0
370
    25
100
AcDbSpline
210
0.0
220
0.0
230
1.0
 70
    24
 71
     3
 72
     8
 73
     4
 74
     0
 42
0.0000000001
 43
0.0000000001
 40
0.0
 40
0.0
 40
0.0
 40
0.0
 40
1.0
 40
1.0
 40
1.0
 40
1.0
 10
103.2509973903656
 20
217.5509973617907
 30
0.0
 10
103.2509973903656
 20
217.5509973617907
 30
0.0
 10
106.7646610416953
 20
214.3336657518094
 30
0.0
 10
106.7646610416953
 20
214.3336657518094
 30
0.0
  0
LWPOLYLINE
  5
13C
330
70
100
AcDbEntity
  8
レイヤー 1
 62
    18
420
        0
370
    25
100
AcDbPolyline
 90
        4
 70
     0
 43
0.0
 10
106.7223294309203
 20
113.8766838636749
 10
109.8126662085765
 20
111.3366795579405
 10
111.6330008333656
 20
114.299999971425
 10
115.1889960954703
 20
112.0986700837375
  0
LWPOLYLINE
  5
13D
330
70
100
AcDbEntity
  8
レイヤー 1
 62
    18
420
        0
370
    25
100
AcDbPolyline
 90
       76
 70
     0
 43
0.0
 10
128.0160016905437
 20
115.0196804182937
 10
128.0160016905437
 20
118.5756756803984
 10
131.8259973832219
 20
116.2473401944625
 10
131.8259973832219
 20
119.8456778332656
 10
134.8316601734047
 20
117.5596739581046
 10
136.0169991047219
 20
120.184341485389
 10
139.4883311452766
 20
118.6603389019484
 10
140.2503324369968
 20
122.3010081515265
 10
144.1873337279234
 20
120.3113470836374
 10
143.6793328667766
 20
123.7403367474937
 10
147.1929965181062
 20
122.0893393317281
 10
147.1929965181062
 20
125.3066709417093
 10
150.5373337263359
 20
124.0366795547656
 10
150.5373337263359
 20
127.1693371772734
 10
154.5589982388125
 20
126.0686722334297
 10
153.6276597380688
 20
128.9896718020624
 10
158.1573251116922
 20
128.3546761085906
 10
156.5486593067016
 20
131.148670078975
 10
160.951329848
 20
131.148670078975
 10
159.0463320016609
 20
133.7733376062593
 10
163.8723294166328
 20
133.3500107325859
 10
161.7979943612703
 20
135.8900042723968
 10
166.5393285546922
 20
135.8900042723968
 10
164.3379986670047
 20
138.5146717996812
 10
168.9946696388765
 20
138.5146717996812
 10
166.6239917762422
 20
141.224013314439
 10
171.3653259696641
 20
141.5626769665624
 10
168.0633311381328
 20
144.3566709369468
 10
173.1009973729031
 20
145.0340090071171
 10
169.5450021107984
 20
147.1083440624796
 10
174.4979943580953
 20
148.4206778261218
 10
171.111336305014
 20
150.2833440616859
 10
175.0483268300172
 20
151.3840090055296
 10
171.4076683463625
 20
153.4583440608921
 10
176.5299978026828
 20
154.6013406155109
 10
172.5506649009813
 20
157.0143393229968
 10
176.7416666224812
 20
158.326673086639
 10
172.6776597333063
 20
160.3163449204515
 10
176.6569926350078
 20
161.3323358768218
 10
172.9739917746547
 20
163.2373444890843
 10
177.1649934961547
 20
164.6343414742765
 10
172.7200021100047
 20
166.4546760990656
 10
176.4030029703578
 20
168.6560059867531
 10
171.4923315679125
 20
169.9683397503953
 10
175.6410016786375
 20
172.4660124453546
 10
170.5186614563938
 20
173.6513406107484
 10
173.8629986646234
 20
175.8950128751343
 10
168.4443264010313
 20
177.0380094297531
 10
171.4076683463625
 20
179.5780137354874
 10
167.2589982356375
 20
179.9590089983859
 10
169.6296653323484
 20
183.2186829850655
 10
164.1686614579812
 20
184.1076683431875
 10
166.5816601654672
 20
187.1133418992937
 10
160.7819926389766
 20
187.5366580070438
 10
163.406660166261
 20
190.4576683416
 10
157.6916666272437
 20
190.4576683416
 10
159.7660016826062
 20
193.802016315753
 10
153.7123337255422
 20
193.3786786761562
 10
155.4479943628578
 20
196.6806735076875
 10
149.8599956561656
 20
195.7070033961687
 10
150.4103281280875
 20
199.4323358672968
 10
144.9069926429453
 20
198.2046760911281
 10
144.9069926429453
 20
201.5490025334344
 10
139.2766623254781
 20
200.2790111464906
 10
140.0809952279734
 20
203.242331559975
 10
135.0856606039781
 20
202.3533246700063
 10
135.508998243575
 20
205.4436829795093
 10
129.9209995368828
 20
203.7503324211219
 10
129.9209995368828
 20
206.4596631699563
 10
124.7986593146391
 20
204.5546760895406
 10
124.7986593146391
 20
207.5603496456468
 10
119.2529922187219
 20
205.5706778118343
 10
118.1946588856531
 20
208.5339982253187
 10
114.1729943731766
 20
206.2480051160812
 10
112.2256649160625
 20
208.7456778110406
 10
109.2623337366547
 20
206.3749999484063
  0
SPLINE
  5
13E
330
70
100
AcDbEntity
  8
レイヤー 1
 62
    18
420
        0
370
    25
100
AcDbSpline
210
0.0
220
0.0
230
1.0
 70
    24
 71
     3
 72
     8
 73
     4
 74
     0
 42
0.0000000001
 43
0.0000000001
 40
0.0
 40
0.0
 40
0.0
 40
0.0
 40
1.0
 40
1.0
 40
1.0
 40
1.0
 10
112.2256649160625
 20
208.7456778110406
 30
0.0
 10
112.2256649160625
 20
208.7456778110406
 30
0.0
 10
107.3149935136172
 20
138.6416773979296
 30
0.0
 10
107.3149935136172
 20
138.6416773979296
 30
0.0
  0
SPLINE
  5
13F
330
70
100
AcDbEntity
  8
レイヤー 1
 62
    18
420
        0
370
    25
100
AcDbSpline
210
0.0
220
0.0
230
1.0
 70
    24
 71
     3
 72
     8
 73
     4
 74
     0
 42
0.0000000001
 43
0.0000000001
 40
0.0
 40
0.0
 40
0.0
 40
0.0
 40
1.0
 40
1.0
 40
1.0
 40
1.0
 10
118.1946588856531
 20
208.5339982253187
 30
0.0
 10
118.1946588856531
 20
208.5339982253187
 30
0.0
 10
107.9076575963141
 20
138.5993457871546
 30
0.0
 10
107.9076575963141
 20
138.5993457871546
 30
0.0
  0
SPLINE
  5
140
330
70
100
AcDbEntity
  8
レイヤー 1
 62
    18
420
        0
370
    25
100
AcDbSpline
210
0.0
220
0.0
230
1.0
 70
    24
 71
     3
 72
     8
 73
     4
 74
     0
 42
0.0000000001
 43
0.0000000001
 40
0.0
 40
0.0
 40
0.0
 40
0.0
 40
1.0
 40
1.0
 40
1.0
 40
1.0
 10
123.8673315798187
 20
203.5386743672468
 30
0.0
 10
123.8673315798187
 20
203.5386743672468
 30
0.0
 10
108.500321679011
 20
138.5570034104562
 30
0.0
 10
108.500321679011
 20
138.5570034104562
 30
0.0
  0
SPLINE
  5
141
330
70
100
AcDbEntity
  8
レイヤー 1
 62
    18
420
        0
370
    25
100
AcDbSpline
210
0.0
220
0.0
230
1.0
 70
    24
 71
     3
 72
     8
 73
     4
 74
     0
 42
0.0000000001
 43
0.0000000001
 40
0.0
 40
0.0
 40
0.0
 40
0.0
 40
1.0
 40
1.0
 40
1.0
 40
1.0
 10
128.8203238271156
 20
202.8189939203782
 30
0.0
 10
128.8203238271156
 20
202.8189939203782
 30
0.0
 10
108.9236593186078
 20
138.4723401889062
 30
0.0
 10
108.9236593186078
 20
138.4723401889062
 30
0.0
  0
SPLINE
  5
142
330
70
100
AcDbEntity
  8
レイヤー 1
 62
    18
420
        0
370
    25
100
AcDbSpline
210
0.0
220
0.0
230
1.0
 70
    24
 71
     3
 72
     8
 73
     4
 74
     0
 42
0.0000000001
 43
0.0000000001
 40
0.0
 40
0.0
 40
0.0
 40
0.0
 40
1.0
 40
1.0
 40
1.0
 40
1.0
 10
134.0273272709094
 20
201.6759973657594
 30
0.0
 10
134.0273272709094
 20
201.6759973657594
 30
0.0
 10
109.3893285689797
 20
138.4300085781312
 30
0.0
 10
109.3893285689797
 20
138.4300085781312
 30
0.0
  0
SPLINE
  5
143
330
70
100
AcDbEntity
  8
レイヤー 1
 62
    18
420
        0
370
    25
100
AcDbSpline
210
0.0
220
0.0
230
1.0
 70
    24
 71
     3
 72
     8
 73
     4
 74
     0
 42
0.0000000001
 43
0.0000000001
 40
0.0
 40
0.0
 40
0.0
 40
0.0
 40
1.0
 40
1.0
 40
1.0
 40
1.0
 10
138.4299978122078
 20
199.7286571427219
 30
0.0
 10
138.4299978122078
 20
199.7286571427219
 30
0.0
 10
109.9396610409016
 20
138.3030137458062
 30
0.0
 10
109.9396610409016
 20
138.3030137458062
 30
0.0
  0
SPLINE
  5
144
330
70
100
AcDbEntity
  8
レイヤー 1
 62
    18
420
        0
370
    25
100
AcDbSpline
210
0.0
220
0.0
230
1.0
 70
    24
 71
     3
 72
     8
 73
     4
 74
     0
 42
0.0000000001
 43
0.0000000001
 40
0.0
 40
0.0
 40
0.0
 40
0.0
 40
1.0
 40
1.0
 40
1.0
 40
1.0
 10
143.0866580181563
 20
198.2046760911281
 30
0.0
 10
143.0866580181563
 20
198.2046760911281
 30
0.0
 10
110.4899935128234
 20
138.2183397583328
 30
0.0
 10
110.4899935128234
 20
138.2183397583328
 30
0.0
  0
SPLINE
  5
145
330
70
100
AcDbEntity
  8
レイヤー 1
 62
    18
420
        0
370
    25
100
AcDbSpline
210
0.0
220
0.0
230
1.0
 70
    24
 71
     3
 72
     8
 73
     4
 74
     0
 42
0.0000000001
 43
0.0000000001
 40
0.0
 40
0.0
 40
0.0
 40
0.0
 40
1.0
 40
1.0
 40
1.0
 40
1.0
 10
147.6163233917797
 20
195.1143393134718
 30
0.0
 10
147.6163233917797
 20
195.1143393134718
 30
0.0
 10
111.0403259847453
 20
138.0490025493093
 30
0.0
 10
111.0403259847453
 20
138.0490025493093
 30
0.0
  0
SPLINE
  5
146
330
70
100
AcDbEntity
  8
レイヤー 1
 62
    18
420
        0
370
    25
100
AcDbSpline
210
0.0
220
0.0
230
1.0
 70
    24
 71
     3
 72
     8
 73
     4
 74
     0
 42
0.0000000001
 43
0.0000000001
 40
0.0
 40
0.0
 40
0.0
 40
0.0
 40
1.0
 40
1.0
 40
1.0
 40
1.0
 10
152.569326405
 20
192.8283246723875
 30
0.0
 10
152.569326405
 20
192.8283246723875
 30
0.0
 10
111.6329900674422
 20
137.8796761062093
 30
0.0
 10
111.6329900674422
 20
137.8796761062093
 30
0.0
  0
SPLINE
  5
147
330
70
100
AcDbEntity
  8
レイヤー 1
 62
    18
420
        0
370
    25
100
AcDbSpline
210
0.0
220
0.0
230
1.0
 70
    24
 71
     3
 72
     8
 73
     4
 74
     0
 42
0.0000000001
 43
0.0000000001
 40
0.0
 40
0.0
 40
0.0
 40
0.0
 40
1.0
 40
1.0
 40
1.0
 40
1.0
 10
156.5063276959266
 20
189.9073358696781
 30
0.0
 10
156.5063276959266
 20
189.9073358696781
 30
0.0
 10
112.3526597483875
 20
137.6256756756359
 30
0.0
 10
112.3526597483875
 20
137.6256756756359
 30
0.0
  0
SPLINE
  5
148
330
70
100
AcDbEntity
  8
レイヤー 1
 62
    18
420
        0
370
    25
100
AcDbSpline
210
0.0
220
0.0
230
1.0
 70
    24
 71
     3
 72
     8
 73
     4
 74
     0
 42
0.0000000001
 43
0.0000000001
 40
0.0
 40
0.0
 40
0.0
 40
0.0
 40
1.0
 40
1.0
 40
1.0
 40
1.0
 10
163.406660166261
 20
190.4576683416
 30
0.0
 10
163.406660166261
 20
190.4576683416
 30
0.0
 10
113.1993242616578
 20
137.2870120235124
 30
0.0
 10
113.1993242616578
 20
137.2870120235124
 30
0.0
  0
SPLINE
  5
149
330
70
100
AcDbEntity
  8
レイヤー 1
 62
    18
420
        0
370
    25
100
AcDbSpline
210
0.0
220
0.0
230
1.0
 70
    24
 71
     3
 72
     8
 73
     4
 74
     0
 42
0.0000000001
 43
0.0000000001
 40
0.0
 40
0.0
 40
0.0
 40
0.0
 40
1.0
 40
1.0
 40
1.0
 40
1.0
 10
164.1686614579812
 20
184.1076683431875
 30
0.0
 10
164.1686614579812
 20
184.1076683431875
 30
0.0
 10
113.9189939426031
 20
136.9060059946906
 30
0.0
 10
113.9189939426031
 20
136.9060059946906
 30
0.0
  0
SPLINE
  5
14A
330
70
100
AcDbEntity
  8
レイヤー 1
 62
    18
420
        0
370
    25
100
AcDbSpline
210
0.0
220
0.0
230
1.0
 70
    24
 71
     3
 72
     8
 73
     4
 74
     0
 42
0.0000000001
 43
0.0000000001
 40
0.0
 40
0.0
 40
0.0
 40
0.0
 40
1.0
 40
1.0
 40
1.0
 40
1.0
 10
167.2589982356375
 20
179.9590089983859
 30
0.0
 10
167.2589982356375
 20
179.9590089983859
 30
0.0
 10
114.5116580253
 20
136.5673423425671
 30
0.0
 10
114.5116580253
 20
136.5673423425671
 30
0.0
  0
SPLINE
  5
14B
330
70
100
AcDbEntity
  8
レイヤー 1
 62
    18
420
        0
370
    25
100
AcDbSpline
210
0.0
220
0.0
230
1.0
 70
    24
 71
     3
 72
     8
 73
     4
 74
     0
 42
0.0000000001
 43
0.0000000001
 40
0.0
 40
0.0
 40
0.0
 40
0.0
 40
1.0
 40
1.0
 40
1.0
 40
1.0
 10
168.4443264010313
 20
177.0380094297531
 30
0.0
 10
168.4443264010313
 20
177.0380094297531
 30
0.0
 10
115.1043221079969
 20
136.1863470796687
 30
0.0
 10
115.1043221079969
 20
136.1863470796687
 30
0.0
  0
SPLINE
  5
14C
330
70
100
AcDbEntity
  8
レイヤー 1
 62
    18
420
        0
370
    25
100
AcDbSpline
210
0.0
220
0.0
230
1.0
 70
    24
 71
     3
 72
     8
 73
     4
 74
     0
 42
0.0000000001
 43
0.0000000001
 40
0.0
 40
0.0
 40
0.0
 40
0.0
 40
1.0
 40
1.0
 40
1.0
 40
1.0
 10
170.5186614563938
 20
173.6513406107484
 30
0.0
 10
170.5186614563938
 20
173.6513406107484
 30
0.0
 10
115.5276597475938
 20
135.8900150383202
 30
0.0
 10
115.5276597475938
 20
135.8900150383202
 30
0.0
  0
SPLINE
  5
14D
330
70
100
AcDbEntity
  8
レイヤー 1
 62
    18
420
        0
370
    25
100
AcDbSpline
210
0.0
220
0.0
230
1.0
 70
    24
 71
     3
 72
     8
 73
     4
 74
     0
 42
0.0000000001
 43
0.0000000001
 40
0.0
 40
0.0
 40
0.0
 40
0.0
 40
1.0
 40
1.0
 40
1.0
 40
1.0
 10
171.4923315679125
 20
169.9683397503953
 30
0.0
 10
171.4923315679125
 20
169.9683397503953
 30
0.0
 10
116.0356606087406
 20
135.4666773987234
 30
0.0
 10
116.0356606087406
 20
135.4666773987234
 30
0.0
  0
SPLINE
  5
14E
330
70
100
AcDbEntity
  8
レイヤー 1
 62
    18
420
        0
370
    25
100
AcDbSpline
210
0.0
220
0.0
230
1.0
 70
    24
 71
     3
 72
     8
 73
     4
 74
     0
 42
0.0000000001
 43
0.0000000001
 40
0.0
 40
0.0
 40
0.0
 40
0.0
 40
1.0
 40
1.0
 40
1.0
 40
1.0
 10
172.7199913440813
 20
166.4546760990656
 30
0.0
 10
172.7199913440813
 20
166.4546760990656
 30
0.0
 10
116.5013298591125
 20
135.0010081483515
 30
0.0
 10
116.5013298591125
 20
135.0010081483515
 30
0.0
  0
SPLINE
  5
14F
330
70
100
AcDbEntity
  8
レイヤー 1
 62
    18
420
        0
370
    25
100
AcDbSpline
210
0.0
220
0.0
230
1.0
 70
    24
 71
     3
 72
     8
 73
     4
 74
     0
 42
0.0000000001
 43
0.0000000001
 40
0.0
 40
0.0
 40
0.0
 40
0.0
 40
1.0
 40
1.0
 40
1.0
 40
1.0
 10
171.6616580110125
 20
161.8826791146671
 30
0.0
 10
171.6616580110125
 20
161.8826791146671
 30
0.0
 10
116.8823251220109
 20
134.5776705087546
 30
0.0
 10
116.8823251220109
 20
134.5776705087546
 30
0.0
  0
SPLINE
  5
150
330
70
100
AcDbEntity
  8
レイヤー 1
 62
    18
420
        0
370
    25
100
AcDbSpline
210
0.0
220
0.0
230
1.0
 70
    24
 71
     3
 72
     8
 73
     4
 74
     0
 42
0.0000000001
 43
0.0000000001
 40
0.0
 40
0.0
 40
0.0
 40
0.0
 40
1.0
 40
1.0
 40
1.0
 40
1.0
 10
173.1433289836781
 20
159.7236700718312
 30
0.0
 10
173.1433289836781
 20
159.7236700718312
 30
0.0
 10
117.2633311508328
 20
134.1120120243062
 30
0.0
 10
117.2633311508328
 20
134.1120120243062
 30
0.0
  0
SPLINE
  5
151
330
70
100
AcDbEntity
  8
レイヤー 1
 62
    18
420
        0
370
    25
100
AcDbSpline
210
0.0
220
0.0
230
1.0
 70
    24
 71
     3
 72
     8
 73
     4
 74
     0
 42
0.0000000001
 43
0.0000000001
 40
0.0
 40
0.0
 40
0.0
 40
0.0
 40
1.0
 40
1.0
 40
1.0
 40
1.0
 10
171.4499891912141
 20
156.1253431989515
 30
0.0
 10
171.4499891912141
 20
156.1253431989515
 30
0.0
 10
117.6866580245063
 20
133.3923423433609
 30
0.0
 10
117.6866580245063
 20
133.3923423433609
 30
0.0
  0
SPLINE
  5
152
330
70
100
AcDbEntity
  8
レイヤー 1
 62
    18
420
        0
370
    25
100
AcDbSpline
210
0.0
220
0.0
230
1.0
 70
    24
 71
     3
 72
     8
 73
     4
 74
     0
 42
0.0000000001
 43
0.0000000001
 40
0.0
 40
0.0
 40
0.0
 40
0.0
 40
1.0
 40
1.0
 40
1.0
 40
1.0
 10
170.1799870383469
 20
152.2306735188
 30
0.0
 10
170.1799870383469
 20
152.2306735188
 30
0.0
 10
118.0253216766297
 20
132.6303410516405
 30
0.0
 10
118.0253216766297
 20
132.6303410516405
 30
0.0
  0
SPLINE
  5
153
330
70
100
AcDbEntity
  8
レイヤー 1
 62
    18
420
        0
370
    25
100
AcDbSpline
210
0.0
220
0.0
230
1.0
 70
    24
 71
     3
 72
     8
 73
     4
 74
     0
 42
0.0000000001
 43
0.0000000001
 40
0.0
 40
0.0
 40
0.0
 40
0.0
 40
1.0
 40
1.0
 40
1.0
 40
1.0
 10
168.4443264010313
 20
148.5053410476718
 30
0.0
 10
168.4443264010313
 20
148.5053410476718
 30
0.0
 10
118.2793221072031
 20
131.9530137473937
 30
0.0
 10
118.2793221072031
 20
131.9530137473937
 30
0.0
  0
SPLINE
  5
154
330
70
100
AcDbEntity
  8
レイヤー 1
 62
    18
420
        0
370
    25
100
AcDbSpline
210
0.0
220
0.0
230
1.0
 70
    24
 71
     3
 72
     8
 73
     4
 74
     0
 42
0.0000000001
 43
0.0000000001
 40
0.0
 40
0.0
 40
0.0
 40
0.0
 40
1.0
 40
1.0
 40
1.0
 40
1.0
 10
166.7509973744906
 20
145.626673089814
 30
0.0
 10
166.7509973744906
 20
145.626673089814
 30
0.0
 10
118.4063277054516
 20
131.2333440664484
 30
0.0
 10
118.4063277054516
 20
131.2333440664484
 30
0.0
  0
SPLINE
  5
155
330
70
100
AcDbEntity
  8
レイヤー 1
 62
    18
420
        0
370
    25
100
AcDbSpline
210
0.0
220
0.0
230
1.0
 70
    24
 71
     3
 72
     8
 73
     4
 74
     0
 42
0.0000000001
 43
0.0000000001
 40
0.0
 40
0.0
 40
0.0
 40
0.0
 40
1.0
 40
1.0
 40
1.0
 40
1.0
 10
165.4809952216234
 20
142.6633419104062
 30
0.0
 10
165.4809952216234
 20
142.6633419104062
 30
0.0
 10
118.4486593162266
 20
130.6830008286031
 30
0.0
 10
118.4486593162266
 20
130.6830008286031
 30
0.0
  0
SPLINE
  5
156
330
70
100
AcDbEntity
  8
レイヤー 1
 62
    18
420
        0
370
    25
100
AcDbSpline
210
0.0
220
0.0
230
1.0
 70
    24
 71
     3
 72
     8
 73
     4
 74
     0
 42
0.0000000001
 43
0.0000000001
 40
0.0
 40
0.0
 40
0.0
 40
0.0
 40
1.0
 40
1.0
 40
1.0
 40
1.0
 10
163.3219969447109
 20
139.7423423417734
 30
0.0
 10
163.3219969447109
 20
139.7423423417734
 30
0.0
 10
118.4063277054516
 20
130.1750107333796
 30
0.0
 10
118.4063277054516
 20
130.1750107333796
 30
0.0
  0
SPLINE
  5
157
330
70
100
AcDbEntity
  8
レイヤー 1
 62
    18
420
        0
370
    25
100
AcDbSpline
210
0.0
220
0.0
230
1.0
 70
    24
 71
     3
 72
     8
 73
     4
 74
     0
 42
0.0000000001
 43
0.0000000001
 40
0.0
 40
0.0
 40
0.0
 40
0.0
 40
1.0
 40
1.0
 40
1.0
 40
1.0
 10
160.908998237225
 20
137.8796761062093
 30
0.0
 10
160.908998237225
 20
137.8796761062093
 30
0.0
 10
118.3216644839015
 20
129.4976726632093
 30
0.0
 10
118.3216644839015
 20
129.4976726632093
 30
0.0
  0
SPLINE
  5
158
330
70
100
AcDbEntity
  8
レイヤー 1
 62
    18
420
        0
370
    25
100
AcDbSpline
210
0.0
220
0.0
230
1.0
 70
    24
 71
     3
 72
     8
 73
     4
 74
     0
 42
0.0000000001
 43
0.0000000001
 40
0.0
 40
0.0
 40
0.0
 40
0.0
 40
1.0
 40
1.0
 40
1.0
 40
1.0
 10
158.4536571530406
 20
135.4666773987234
 30
0.0
 10
158.4536571530406
 20
135.4666773987234
 30
0.0
 10
118.1946588856531
 20
128.9473401912875
 30
0.0
 10
118.1946588856531
 20
128.9473401912875
 30
0.0
  0
SPLINE
  5
159
330
70
100
AcDbEntity
  8
レイヤー 1
 62
    18
420
        0
370
    25
100
AcDbSpline
210
0.0
220
0.0
230
1.0
 70
    24
 71
     3
 72
     8
 73
     4
 74
     0
 42
0.0000000001
 43
0.0000000001
 40
0.0
 40
0.0
 40
0.0
 40
0.0
 40
1.0
 40
1.0
 40
1.0
 40
1.0
 10
155.7866580149813
 20
133.1806735235625
 30
0.0
 10
155.7866580149813
 20
133.1806735235625
 30
0.0
 10
118.0253216766297
 20
128.3970077193656
 30
0.0
 10
118.0253216766297
 20
128.3970077193656
 30
0.0
  0
SPLINE
  5
15A
330
70
100
AcDbEntity
  8
レイヤー 1
 62
    18
420
        0
370
    25
100
AcDbSpline
210
0.0
220
0.0
230
1.0
 70
    24
 71
     3
 72
     8
 73
     4
 74
     0
 42
0.0000000001
 43
0.0000000001
 40
0.0
 40
0.0
 40
0.0
 40
0.0
 40
1.0
 40
1.0
 40
1.0
 40
1.0
 10
117.4749892047078
 20
127.2963427755218
 30
0.0
 10
117.4749892047078
 20
127.2963427755218
 30
0.0
 10
149.9869904884907
 20
128.7780137481874
 30
0.0
 10
149.9869904884907
 20
128.7780137481874
 30
0.0
  0
SPLINE
  5
15B
330
70
100
AcDbEntity
  8
レイヤー 1
 62
    18
420
        0
370
    25
100
AcDbSpline
210
0.0
220
0.0
230
1.0
 70
    24
 71
     3
 72
     8
 73
     4
 74
     0
 42
0.0000000001
 43
0.0000000001
 40
0.0
 40
0.0
 40
0.0
 40
0.0
 40
1.0
 40
1.0
 40
1.0
 40
1.0
 10
152.7386636140234
 20
130.8100064268515
 30
0.0
 10
152.7386636140234
 20
130.8100064268515
 30
0.0
 10
117.8136636227547
 20
127.9313384689937
 30
0.0
 10
117.8136636227547
 20
127.9313384689937
 30
0.0
  0
SPLINE
  5
15C
330
70
100
AcDbEntity
  8
レイヤー 1
 62
    18
420
        0
370
    25
100
AcDbSpline
210
0.0
220
0.0
230
1.0
 70
    24
 71
     3
 72
     8
 73
     4
 74
     0
 42
0.0000000001
 43
0.0000000001
 40
0.0
 40
0.0
 40
0.0
 40
0.0
 40
1.0
 40
1.0
 40
1.0
 40
1.0
 10
154.5589982388125
 20
126.0686722334297
 30
0.0
 10
154.5589982388125
 20
126.0686722334297
 30
0.0
 10
117.0939939418094
 20
126.7459995376766
 30
0.0
 10
117.0939939418094
 20
126.7459995376766
 30
0.0
  0
SPLINE
  5
15D
330
70
100
AcDbEntity
  8
レイヤー 1
 62
    18
420
        0
370
    25
100
AcDbSpline
210
0.0
220
0.0
230
1.0
 70
    24
 71
     3
 72
     8
 73
     4
 74
     0
 42
0.0000000001
 43
0.0000000001
 40
0.0
 40
0.0
 40
0.0
 40
0.0
 40
1.0
 40
1.0
 40
1.0
 40
1.0
 10
150.5373229604125
 20
124.0366687888422
 30
0.0
 10
150.5373229604125
 20
124.0366687888422
 30
0.0
 10
116.7553302896859
 20
126.3226726640031
 30
0.0
 10
116.7553302896859
 20
126.3226726640031
 30
0.0
  0
SPLINE
  5
15E
330
70
100
AcDbEntity
  8
レイヤー 1
 62
    18
420
        0
370
    25
100
AcDbSpline
210
0.0
220
0.0
230
1.0
 70
    24
 71
     3
 72
     8
 73
     4
 74
     0
 42
0.0000000001
 43
0.0000000001
 40
0.0
 40
0.0
 40
0.0
 40
0.0
 40
1.0
 40
1.0
 40
1.0
 40
1.0
 10
143.6793221008531
 20
123.7403367474937
 30
0.0
 10
143.6793221008531
 20
123.7403367474937
 30
0.0
 10
116.3743242608641
 20
125.8993457903296
 30
0.0
 10
116.3743242608641
 20
125.8993457903296
 30
0.0
  0
SPLINE
  5
15F
330
70
100
AcDbEntity
  8
レイヤー 1
 62
    18
420
        0
370
    25
100
AcDbSpline
210
0.0
220
0.0
230
1.0
 70
    24
 71
     3
 72
     8
 73
     4
 74
     0
 42
0.0000000001
 43
0.0000000001
 40
0.0
 40
0.0
 40
0.0
 40
0.0
 40
1.0
 40
1.0
 40
1.0
 40
1.0
 10
140.2503216710735
 20
122.3010081515265
 30
0.0
 10
140.2503216710735
 20
122.3010081515265
 30
0.0
 10
115.9086550104922
 20
125.4760081507328
 30
0.0
 10
115.9086550104922
 20
125.4760081507328
 30
0.0
  0
SPLINE
  5
160
330
70
100
AcDbEntity
  8
レイヤー 1
 62
    18
420
        0
370
    25
100
AcDbSpline
210
0.0
220
0.0
230
1.0
 70
    24
 71
     3
 72
     8
 73
     4
 74
     0
 42
0.0000000001
 43
0.0000000001
 40
0.0
 40
0.0
 40
0.0
 40
0.0
 40
1.0
 40
1.0
 40
1.0
 40
1.0
 10
136.0169883387985
 20
120.184341485389
 30
0.0
 10
136.0169883387985
 20
120.184341485389
 30
0.0
 10
115.5276597475938
 20
125.1796761093843
 30
0.0
 10
115.5276597475938
 20
125.1796761093843
 30
0.0
  0
SPLINE
  5
161
330
70
100
AcDbEntity
  8
レイヤー 1
 62
    18
420
        0
370
    25
100
AcDbSpline
210
0.0
220
0.0
230
1.0
 70
    24
 71
     3
 72
     8
 73
     4
 74
     0
 42
0.0000000001
 43
0.0000000001
 40
0.0
 40
0.0
 40
0.0
 40
0.0
 40
1.0
 40
1.0
 40
1.0
 40
1.0
 10
131.8259973832219
 20
119.8456778332656
 30
0.0
 10
131.8259973832219
 20
119.8456778332656
 30
0.0
 10
115.0196588864469
 20
124.7986700805625
 30
0.0
 10
115.0196588864469
 20
124.7986700805625
 30
0.0
  0
SPLINE
  5
162
330
70
100
AcDbEntity
  8
レイヤー 1
 62
    18
420
        0
370
    25
100
AcDbSpline
210
0.0
220
0.0
230
1.0
 70
    24
 71
     3
 72
     8
 73
     4
 74
     0
 42
0.0000000001
 43
0.0000000001
 40
0.0
 40
0.0
 40
0.0
 40
0.0
 40
1.0
 40
1.0
 40
1.0
 40
1.0
 10
128.0159909246203
 20
118.5756756803984
 30
0.0
 10
128.0159909246203
 20
118.5756756803984
 30
0.0
 10
114.2999892055016
 20
124.3330008301906
 30
0.0
 10
114.2999892055016
 20
124.3330008301906
 30
0.0
  0
SPLINE
  5
163
330
70
100
AcDbEntity
  8
レイヤー 1
 62
    18
420
        0
370
    25
100
AcDbSpline
210
0.0
220
0.0
230
1.0
 70
    24
 71
     3
 72
     8
 73
     4
 74
     0
 42
0.0000000001
 43
0.0000000001
 40
0.0
 40
0.0
 40
0.0
 40
0.0
 40
1.0
 40
1.0
 40
1.0
 40
1.0
 10
124.5446588840656
 20
117.9406692210031
 30
0.0
 10
124.5446588840656
 20
117.9406692210031
 30
0.0
 10
113.7073251228047
 20
123.9943371780672
 30
0.0
 10
113.7073251228047
 20
123.9943371780672
 30
0.0
  0
SPLINE
  5
164
330
70
100
AcDbEntity
  8
レイヤー 1
 62
    18
420
        0
370
    25
100
AcDbSpline
210
0.0
220
0.0
230
1.0
 70
    24
 71
     3
 72
     8
 73
     4
 74
     0
 42
0.0000000001
 43
0.0000000001
 40
0.0
 40
0.0
 40
0.0
 40
0.0
 40
1.0
 40
1.0
 40
1.0
 40
1.0
 10
123.9943264121438
 20
113.4533354581547
 30
0.0
 10
123.9943264121438
 20
113.4533354581547
 30
0.0
 10
113.1146610401078
 20
123.6980051367187
 30
0.0
 10
113.1146610401078
 20
123.6980051367187
 30
0.0
  0
SPLINE
  5
165
330
70
100
AcDbEntity
  8
レイヤー 1
 62
    18
420
        0
370
    25
100
AcDbSpline
210
0.0
220
0.0
230
1.0
 70
    24
 71
     3
 72
     8
 73
     4
 74
     0
 42
0.0000000001
 43
0.0000000001
 40
0.0
 40
0.0
 40
0.0
 40
0.0
 40
1.0
 40
1.0
 40
1.0
 40
1.0
 10
119.7186614690938
 20
112.7760081539078
 30
0.0
 10
119.7186614690938
 20
112.7760081539078
 30
0.0
 10
112.6489917897359
 20
123.5286786936187
 30
0.0
 10
112.6489917897359
 20
123.5286786936187
 30
0.0
  0
SPLINE
  5
166
330
70
100
AcDbEntity
  8
レイヤー 1
 62
    18
420
        0
370
    25
100
AcDbSpline
210
0.0
220
0.0
230
1.0
 70
    24
 71
     3
 72
     8
 73
     4
 74
     0
 42
0.0000000001
 43
0.0000000001
 40
0.0
 40
0.0
 40
0.0
 40
0.0
 40
1.0
 40
1.0
 40
1.0
 40
1.0
 10
115.1889960954703
 20
112.0986700837375
 30
0.0
 10
115.1889960954703
 20
112.0986700837375
 30
0.0
 10
112.1833225393641
 20
123.2746674971219
 30
0.0
 10
112.1833225393641
 20
123.2746674971219
 30
0.0
  0
SPLINE
  5
167
330
70
100
AcDbEntity
  8
レイヤー 1
 62
    18
420
        0
370
    25
100
AcDbSpline
210
0.0
220
0.0
230
1.0
 70
    24
 71
     3
 72
     8
 73
     4
 74
     0
 42
0.0000000001
 43
0.0000000001
 40
0.0
 40
0.0
 40
0.0
 40
0.0
 40
1.0
 40
1.0
 40
1.0
 40
1.0
 10
112.9876554418594
 20
211.8783246676251
 30
0.0
 10
112.9876554418594
 20
211.8783246676251
 30
0.0
 10
112.2256649160625
 20
208.7456778110406
 30
0.0
 10
112.2256649160625
 20
208.7456778110406
 30
0.0
  0
LWPOLYLINE
  5
168
330
70
100
AcDbEntity
  8
レイヤー 1
 62
    18
420
        0
370
    25
100
AcDbPolyline
 90
        5
 70
     0
 43
0.0
 10
109.6433289995531
 20
217.7203453367375
 10
112.3103281376125
 20
214.5453453375312
 10
115.4853281368187
 20
217.1700128648156
 10
115.7816601781672
 20
215.2650042525531
 10
112.9876662077828
 20
211.8783461994718
  0
LWPOLYLINE
  5
169
330
70
100
AcDbEntity
  8
レイヤー 1
 62
    18
420
        0
370
    25
100
AcDbPolyline
 90
        3
 70
     0
 43
0.0
 10
118.1946588856531
 20
208.5339982253187
 10
118.78732296835
 20
211.708998224525
 10
115.7816601781672
 20
215.2650042525531
  0
LWPOLYLINE
  5
16A
330
70
100
AcDbEntity
  8
レイヤー 1
 62
    18
420
        0
370
    25
100
AcDbPolyline
 90
        5
 70
     0
 43
0.0
 10
118.78732296835
 20
211.708998224525
 10
121.8776705119297
 20
214.8416666129563
 10
120.7769948021625
 20
217.1700128648156
 10
117.8136636227547
 20
214.7570033914063
 10
115.4853281368187
 20
217.1700128648156
  0
LWPOLYLINE
  5
16B
330
70
100
AcDbEntity
  8
レイヤー 1
 62
    18
420
        0
370
    25
100
AcDbPolyline
 90
        6
 70
     0
 43
0.0
 10
124.7986593146391
 20
207.5603496456468
 10
124.7986593146391
 20
210.7353496448531
 10
127.6349956617219
 20
213.9526597229875
 10
125.9839982459562
 20
216.5349956394969
 10
123.4439939402219
 20
214.9263513663531
 10
120.7769948021625
 20
217.1700128648156
  0
LINE
  5
16C
330
70
100
AcDbEntity
  8
レイヤー 1
 62
    18
420
        0
370
    25
100
AcDbLine
 10
121.8776705119297
 20
214.8416666129563
 30
0.0
 11
124.7986593146391
 21
210.7353496448531
 31
0.0
  0
LWPOLYLINE
  5
16D
330
70
100
AcDbEntity
  8
レイヤー 1
 62
    18
420
        0
370
    25
100
AcDbPolyline
 90
        3
 70
     0
 43
0.0
 10
127.6349956617219
 20
213.9526597229875
 10
130.5136636195797
 20
209.3806735045125
 10
129.9209995368828
 20
206.4596847018031
  0
LWPOLYLINE
  5
16E
330
70
100
AcDbEntity
  8
レイヤー 1
 62
    18
420
        0
370
    25
100
AcDbPolyline
 90
        5
 70
     0
 43
0.0
 10
130.5136636195797
 20
209.3806735045125
 10
133.900321672661
 20
212.7673315575937
 10
131.6566601741984
 20
215.5190154490499
 10
129.3706562990375
 20
213.6986700583375
 10
125.9839982459562
 20
216.5349956394969
  0
LWPOLYLINE
  5
16F
330
70
100
AcDbEntity
  8
レイヤー 1
 62
    18
420
        0
370
    25
100
AcDbPolyline
 90
        3
 70
     0
 43
0.0
 10
133.900321672661
 20
212.7673315575937
 10
136.3980051335437
 20
208.1106821175687
 10
135.5089874776516
 20
205.4436829795093
  0
LWPOLYLINE
  5
170
330
70
100
AcDbEntity
  8
レイヤー 1
 62
    18
420
        0
370
    25
100
AcDbPolyline
 90
        5
 70
     0
 43
0.0
 10
136.3980051335437
 20
208.1106821175687
 10
139.3189939362531
 20
211.1586657526031
 10
136.8636743839156
 20
214.0373444763843
 10
134.6623229643813
 20
212.9366795325406
 10
131.6566601741984
 20
215.5190154490499
  0
LWPOLYLINE
  5
171
330
70
100
AcDbEntity
  8
レイヤー 1
 62
    18
420
        0
370
    25
100
AcDbPolyline
 90
        3
 70
     0
 43
0.0
 10
139.3189939362531
 20
211.1586657526031
 10
141.647329422189
 20
206.4173315591812
 10
140.0809952279734
 20
203.242331559975
  0
LWPOLYLINE
  5
172
330
70
100
AcDbEntity
  8
レイヤー 1
 62
    18
420
        0
370
    25
100
AcDbPolyline
 90
        5
 70
     0
 43
0.0
 10
141.647329422189
 20
206.4173315591812
 10
144.6529922123719
 20
209.2113470614124
 10
141.9436614635375
 20
212.5980051144937
 10
139.8693371740984
 20
211.5820033922
 10
136.8636743839156
 20
214.0373444763843
  0
LWPOLYLINE
  5
173
330
70
100
AcDbEntity
  8
レイヤー 1
 62
    18
420
        0
370
    25
100
AcDbPolyline
 90
        5
 70
     0
 43
0.0
 10
144.8646717980937
 20
209.6770163117843
 10
146.6426640461844
 20
210.1426640303094
 10
149.8176640453906
 20
206.7983375880031
 10
147.1929965181062
 20
204.2583332822688
 10
144.6529922123719
 20
209.2113470614124
  0
LINE
  5
174
330
70
100
AcDbEntity
  8
レイヤー 1
 62
    18
420
        0
370
    25
100
AcDbLine
 10
147.1929965181062
 20
204.2583332822688
 30
0.0
 11
144.9069926429453
 21
201.5490025334344
 31
0.0
  0
LWPOLYLINE
  5
175
330
70
100
AcDbEntity
  8
レイヤー 1
 62
    18
420
        0
370
    25
100
AcDbPolyline
 90
        5
 70
     0
 43
0.0
 10
150.1139960867391
 20
207.094680395275
 10
151.8073358792031
 20
207.6450128671968
 10
154.897661890936
 20
204.3006648930438
 10
152.1459887654032
 20
201.8030137299312
 10
149.8176640453906
 20
206.7983375880031
  0
SPLINE
  5
176
330
70
100
AcDbEntity
  8
レイヤー 1
 62
    18
420
        0
370
    25
100
AcDbSpline
210
0.0
220
0.0
230
1.0
 70
    24
 71
     3
 72
     8
 73
     4
 74
     0
 42
0.0000000001
 43
0.0000000001
 40
0.0
 40
0.0
 40
0.0
 40
0.0
 40
1.0
 40
1.0
 40
1.0
 40
1.0
 10
144.8646717980937
 20
209.6770163117843
 30
0.0
 10
144.8646717980937
 20
209.6770163117843
 30
0.0
 10
141.9436614635375
 20
212.5980051144937
 30
0.0
 10
141.9436614635375
 20
212.5980051144937
 30
0.0
  0
SPLINE
  5
177
330
70
100
AcDbEntity
  8
レイヤー 1
 62
    18
420
        0
370
    25
100
AcDbSpline
210
0.0
220
0.0
230
1.0
 70
    24
 71
     3
 72
     8
 73
     4
 74
     0
 42
0.0000000001
 43
0.0000000001
 40
0.0
 40
0.0
 40
0.0
 40
0.0
 40
1.0
 40
1.0
 40
1.0
 40
1.0
 10
150.1139960867391
 20
207.094680395275
 30
0.0
 10
150.1139960867391
 20
207.094680395275
 30
0.0
 10
146.6426640461844
 20
210.1426640303094
 30
0.0
 10
146.6426640461844
 20
210.1426640303094
 30
0.0
  0
SPLINE
  5
178
330
70
100
AcDbEntity
  8
レイヤー 1
 62
    18
420
        0
370
    25
100
AcDbSpline
210
0.0
220
0.0
230
1.0
 70
    24
 71
     3
 72
     8
 73
     4
 74
     0
 42
0.0000000001
 43
0.0000000001
 40
0.0
 40
0.0
 40
0.0
 40
0.0
 40
1.0
 40
1.0
 40
1.0
 40
1.0
 10
152.1459887654032
 20
201.8030137299312
 30
0.0
 10
152.1459887654032
 20
201.8030137299312
 30
0.0
 10
150.4103281280875
 20
199.4323358672968
 30
0.0
 10
150.4103281280875
 20
199.4323358672968
 30
0.0
  0
LWPOLYLINE
  5
179
330
70
100
AcDbEntity
  8
レイヤー 1
 62
    18
420
        0
370
    25
100
AcDbPolyline
 90
        5
 70
     0
 43
0.0
 10
155.4480051287812
 20
196.6806735076875
 10
157.3106605984219
 20
199.2206778134218
 10
160.1046653347297
 20
201.5066709226594
 10
161.3323358768218
 20
195.9186829818905
 10
159.7660016826062
 20
193.802016315753
  0
LWPOLYLINE
  5
17A
330
70
100
AcDbEntity
  8
レイヤー 1
 62
    18
420
        0
370
    25
100
AcDbPolyline
 90
        4
 70
     0
 43
0.0
 10
157.3106605984219
 20
199.2206778134218
 10
154.897661890936
 20
204.3006648930438
 10
156.6756541390266
 20
204.7663341434156
 10
160.1046653347297
 20
201.5066709226594
  0
LWPOLYLINE
  5
17B
330
70
100
AcDbEntity
  8
レイヤー 1
 62
    18
420
        0
370
    25
100
AcDbPolyline
 90
        4
 70
     0
 43
0.0
 10
161.3323358768218
 20
195.9186829818905
 10
164.4649934993297
 20
198.4586657557781
 10
165.4809952216234
 20
192.6166666185125
 10
163.406660166261
 20
190.4576683416
  0
LWPOLYLINE
  5
17C
330
70
100
AcDbEntity
  8
レイヤー 1
 62
    18
420
        0
370
    25
100
AcDbPolyline
 90
        3
 70
     0
 43
0.0
 10
164.4649934993297
 20
198.4586657557781
 10
161.2899935001235
 20
201.6336657549844
 10
160.1046653347297
 20
201.5066709226594
  0
LWPOLYLINE
  5
17D
330
70
100
AcDbEntity
  8
レイヤー 1
 62
    18
420
        0
370
    25
100
AcDbPolyline
 90
        3
 70
     0
 43
0.0
 10
165.4809952216234
 20
192.6166666185125
 10
167.9786679165828
 20
194.4370120092249
 10
164.4649934993297
 20
198.4586657557781
  0
LWPOLYLINE
  5
17E
330
70
100
AcDbEntity
  8
レイヤー 1
 62
    18
420
        0
370
    25
100
AcDbPolyline
 90
        3
 70
     1
 43
0.0
 10
167.9786679165828
 20
194.4370120092249
 10
169.1639960819766
 20
189.0183289797094
 10
170.9419990959906
 20
190.2883418984999
  0
LINE
  5
17F
330
70
100
AcDbEntity
  8
レイヤー 1
 62
    18
420
        0
370
    25
100
AcDbLine
 10
169.1639960819766
 20
189.0183289797094
 30
0.0
 11
166.5816601654672
 21
187.1133418992937
 31
0.0
  0
LWPOLYLINE
  5
180
330
70
100
AcDbEntity
  8
レイヤー 1
 62
    18
420
        0
370
    25
100
AcDbPolyline
 90
        3
 70
     0
 43
0.0
 10
170.9419990959906
 20
190.2883418984999
 10
171.7040003877109
 20
184.8273487900562
 10
169.6296653323484
 20
183.2186829850655
  0
LWPOLYLINE
  5
181
330
70
100
AcDbEntity
  8
レイヤー 1
 62
    18
420
        0
370
    25
100
AcDbPolyline
 90
        3
 70
     0
 43
0.0
 10
171.7040003877109
 20
184.8273487900562
 10
174.2863255382969
 20
186.5630094273718
 10
170.9419990959906
 20
190.2883418984999
  0
LWPOLYLINE
  5
182
330
70
100
AcDbEntity
  8
レイヤー 1
 62
    18
420
        0
370
    25
100
AcDbPolyline
 90
        3
 70
     1
 43
0.0
 10
174.2863255382969
 20
186.5630094273718
 10
174.2863255382969
 20
181.5253324266781
 10
176.3606605936594
 20
182.7530137346937
  0
LINE
  5
183
330
70
100
AcDbEntity
  8
レイヤー 1
 62
    18
420
        0
370
    25
100
AcDbLine
 10
174.2863255382969
 20
181.5253324266781
 30
0.0
 11
171.4076683463625
 21
179.5780137354874
 31
0.0
  0
LWPOLYLINE
  5
184
330
70
100
AcDbEntity
  8
レイヤー 1
 62
    18
420
        0
370
    25
100
AcDbPolyline
 90
        3
 70
     0
 43
0.0
 10
176.3606605936594
 20
182.7530137346937
 10
176.3606605936594
 20
177.3766730818765
 10
173.8629986646234
 20
175.8950128751343
  0
LWPOLYLINE
  5
185
330
70
100
AcDbEntity
  8
レイヤー 1
 62
    18
420
        0
370
    25
100
AcDbPolyline
 90
        3
 70
     0
 43
0.0
 10
176.3606605936594
 20
177.3766730818765
 10
178.0540003861234
 20
178.6043436239687
 10
176.3606605936594
 20
181.1866795404781
  0
LWPOLYLINE
  5
186
330
70
100
AcDbEntity
  8
レイヤー 1
 62
    18
420
        0
370
    25
100
AcDbPolyline
 90
        3
 70
     0
 43
0.0
 10
178.0540003861234
 20
178.6043436239687
 10
177.673005123225
 20
173.7360038322984
 10
175.6410016786375
 20
172.4660124453546
  0
LWPOLYLINE
  5
187
330
70
100
AcDbEntity
  8
レイヤー 1
 62
    18
420
        0
370
    25
100
AcDbPolyline
 90
        3
 70
     0
 43
0.0
 10
177.673005123225
 20
173.7360038322984
 10
179.1970077066656
 20
174.4980051240187
 10
177.9693371645734
 20
177.4613470693499
  0
LWPOLYLINE
  5
188
330
70
100
AcDbEntity
  8
レイヤー 1
 62
    18
420
        0
370
    25
100
AcDbPolyline
 90
        3
 70
     0
 43
0.0
 10
179.1970077066656
 20
174.4980051240187
 10
178.7313384562937
 20
170.1376769594187
 10
176.4029922044344
 20
168.6560167526765
  0
LWPOLYLINE
  5
189
330
70
100
AcDbEntity
  8
レイヤー 1
 62
    18
420
        0
370
    25
100
AcDbPolyline
 90
        3
 70
     0
 43
0.0
 10
178.7313384562937
 20
170.1376769594187
 10
179.8743350109125
 20
170.6880094313406
 10
179.1123337191922
 20
173.2280137370749
  0
LWPOLYLINE
  5
18A
330
70
100
AcDbEntity
  8
レイヤー 1
 62
    18
420
        0
370
    25
100
AcDbPolyline
 90
        3
 70
     0
 43
0.0
 10
179.8743350109125
 20
170.6880094313406
 10
179.2393285515172
 20
165.8620120163687
 10
177.1649934961547
 20
164.6343414742765
  0
LWPOLYLINE
  5
18B
330
70
100
AcDbEntity
  8
レイヤー 1
 62
    18
420
        0
370
    25
100
AcDbPolyline
 90
        3
 70
     0
 43
0.0
 10
179.5356605928656
 20
168.2750107238546
 10
180.1283246755625
 20
166.2853496559655
 10
179.2393285515172
 20
165.8620120163687
  0
LWPOLYLINE
  5
18C
330
70
100
AcDbEntity
  8
レイヤー 1
 62
    18
420
        0
370
    25
100
AcDbPolyline
 90
        3
 70
     0
 43
0.0
 10
180.1283246755625
 20
166.2853496559655
 10
180.0013298432375
 20
162.7716860046358
 10
176.6569926350078
 20
161.3323466427452
  0
LINE
  5
18D
330
70
100
AcDbEntity
  8
レイヤー 1
 62
    18
420
        0
370
    25
100
AcDbLine
 10
180.1283246755625
 20
166.2853496559655
 30
0.0
 11
179.2816601622922
 21
162.433011586589
 31
0.0
  0
LWPOLYLINE
  5
18E
330
70
100
AcDbEntity
  8
レイヤー 1
 62
    18
420
        0
370
    25
100
AcDbPolyline
 90
        3
 70
     0
 43
0.0
 10
180.0013298432375
 20
162.7716860046358
 10
178.9429965101687
 20
158.199678254314
 10
176.7416666224812
 20
158.3266838525624
  0
LWPOLYLINE
  5
18F
330
70
100
AcDbEntity
  8
レイヤー 1
 62
    18
420
        0
370
    25
100
AcDbPolyline
 90
        3
 70
     0
 43
0.0
 10
178.9429965101687
 20
158.199678254314
 10
177.926994787875
 20
154.3050193400858
 10
176.5299978026828
 20
154.6013513814343
  0
LWPOLYLINE
  5
190
330
70
100
AcDbEntity
  8
レイヤー 1
 62
    18
420
        0
370
    25
100
AcDbPolyline
 90
        3
 70
     0
 43
0.0
 10
177.926994787875
 20
154.3050193400858
 10
176.9533246763563
 20
151.3416773947546
 10
175.0483268300172
 20
151.3840090055296
  0
LWPOLYLINE
  5
191
330
70
100
AcDbEntity
  8
レイヤー 1
 62
    18
420
        0
370
    25
100
AcDbPolyline
 90
       34
 70
     0
 43
0.0
 10
176.9533246763563
 20
151.341688160678
 10
176.191323384636
 20
148.0396825632233
 10
174.4979835921719
 20
148.4206778261218
 10
174.4979835921719
 20
145.288020203614
 10
173.1009866069797
 20
145.0340197730405
 10
172.8893177871813
 20
141.6473509540358
 10
171.3653152037407
 20
141.5626877324858
 10
170.6456562887188
 20
138.5570141763796
 10
168.9946481070298
 20
138.5146825656046
 10
168.3596524135579
 20
135.6360146077468
 10
166.5393177887688
 20
136.0593522473436
 10
165.39632123415
 20
132.8420206373624
 10
163.8723186507094
 20
133.3500214985092
 10
162.9833225266641
 20
130.5983483729765
 10
161.3323143449751
 20
131.1486808448984
 10
159.8929857490079
 20
128.0160124564671
 10
158.1573143457688
 20
128.354686874514
 10
156.3793220976782
 20
125.6876877364546
 10
154.5589874728891
 20
126.068682999353
 10
152.9079900571235
 20
123.6980159026421
 10
150.5373229604125
 20
124.0366795547656
 10
149.3096524183204
 20
122.3010189174499
 10
147.1929857521829
 20
122.3010189174499
 10
145.6266515579672
 20
120.099678263839
 10
144.187322962
 20
120.3113470836374
 10
141.7319926437391
 20
118.1946804174999
 10
139.4883203793532
 20
118.7026812786468
 10
137.3716537132157
 20
116.5436830017343
 10
134.8739917841797
 20
117.644347945578
 10
133.3499892007391
 20
115.654686877689
 10
131.8259866172985
 20
116.2473509603858
 10
128.5239917857672
 20
114.3423531140468
 10
128.0159801586969
 20
115.0196804182937
 10
123.9943156462204
 20
113.453346224078
  0
LWPOLYLINE
  5
192
330
70
100
AcDbEntity
  8
レイヤー 1
 62
    18
420
        0
370
    25
100
AcDbPolyline
 90
        3
 70
     0
 43
0.0
 10
119.7186614690938
 20
112.7759973879844
 10
121.3696588848594
 20
114.7656692217968
 10
123.9943371780672
 20
113.453346224078
  0
LWPOLYLINE
  5
193
330
70
100
AcDbEntity
  8
レイヤー 1
 62
    18
420
        0
370
    25
100
AcDbPolyline
 90
        3
 70
     0
 43
0.0
 10
119.7186614690938
 20
112.7759973879844
 10
116.7129986789109
 20
114.0036786959999
 10
115.1889960954703
 20
112.0986700837375
  0
LWPOLYLINE
  5
194
330
70
100
AcDbEntity
  8
レイヤー 1
 62
    18
420
        0
370
    25
100
AcDbPolyline
 90
        3
 70
     0
 43
0.0
 10
149.860006422089
 20
195.7070033961687
 10
147.6163233917797
 20
195.1143393134718
 10
147.9973294206016
 20
198.882003395375
  0
LWPOLYLINE
  5
195
330
70
100
AcDbEntity
  8
レイヤー 1
 62
    18
420
        0
370
    25
100
AcDbPolyline
 90
        3
 70
     0
 43
0.0
 10
144.9069926429453
 20
198.2046760911281
 10
142.8326683535062
 20
198.2470077019031
 10
143.3829900595047
 20
201.2103496472343
  0
LWPOLYLINE
  5
196
330
70
100
AcDbEntity
  8
レイヤー 1
 62
    18
420
        0
370
    25
100
AcDbPolyline
 90
        3
 70
     0
 43
0.0
 10
139.2766730914015
 20
200.2790111464906
 10
138.4299978122078
 20
199.7286786745687
 10
138.3453345906578
 20
202.94601028455
  0
LWPOLYLINE
  5
197
330
70
100
AcDbEntity
  8
レイヤー 1
 62
    18
420
        0
370
    25
100
AcDbPolyline
 90
        3
 70
     0
 43
0.0
 10
135.0856606039781
 20
202.3533462018531
 10
134.0273272709094
 20
201.6759973657594
 10
134.0696588816844
 20
205.0203453399125
  0
LWPOLYLINE
  5
198
330
70
100
AcDbEntity
  8
レイヤー 1
 62
    18
420
        0
370
    25
100
AcDbPolyline
 90
        3
 70
     0
 43
0.0
 10
129.9209995368828
 20
203.7503324211219
 10
128.820334593039
 20
202.8190154522249
 10
128.820334593039
 20
206.0363470622062
  0
LWPOLYLINE
  5
199
330
70
100
AcDbEntity
  8
レイヤー 1
 62
    18
420
        0
370
    25
100
AcDbPolyline
 90
        3
 70
     0
 43
0.0
 10
124.7986593146391
 20
204.5546760895406
 10
123.8673315798187
 20
203.5386743672468
 10
123.6133311492453
 20
207.13701200605
  0
SPLINE
  5
19A
330
70
100
AcDbEntity
  8
レイヤー 1
 62
    18
420
        0
370
    25
100
AcDbSpline
210
0.0
220
0.0
230
1.0
 70
    24
 71
     3
 72
     8
 73
     4
 74
     0
 42
0.0000000001
 43
0.0000000001
 40
0.0
 40
0.0
 40
0.0
 40
0.0
 40
1.0
 40
1.0
 40
1.0
 40
1.0
 10
153.7123337255422
 20
193.3786786761562
 30
0.0
 10
153.7123337255422
 20
193.3786786761562
 30
0.0
 10
152.4423208067516
 20
192.7013513719093
 30
0.0
 10
152.4423208067516
 20
192.7013513719093
 30
0.0
  0
SPLINE
  5
19B
330
70
100
AcDbEntity
  8
レイヤー 1
 62
    18
420
        0
370
    25
100
AcDbSpline
210
0.0
220
0.0
230
1.0
 70
    24
 71
     3
 72
     8
 73
     4
 74
     0
 42
0.0000000001
 43
0.0000000001
 40
0.0
 40
0.0
 40
0.0
 40
0.0
 40
1.0
 40
1.0
 40
1.0
 40
1.0
 10
152.5693371709234
 20
192.7436829826843
 30
0.0
 10
152.5693371709234
 20
192.7436829826843
 30
0.0
 10
152.7809952247984
 20
196.2150042573156
 30
0.0
 10
152.7809952247984
 20
196.2150042573156
 30
0.0
  0
LWPOLYLINE
  5
19C
330
70
100
AcDbEntity
  8
レイヤー 1
 62
    18
420
        0
370
    25
100
AcDbPolyline
 90
        3
 70
     0
 43
0.0
 10
157.6916666272437
 20
190.4576683416
 10
156.50633846185
 20
189.9073358696781
 10
156.7603281265
 20
193.5903367300312
  0
LWPOLYLINE
  5
19D
330
70
100
AcDbEntity
  8
レイヤー 1
 62
    18
420
        0
370
    25
100
AcDbPolyline
 90
        3
 70
     0
 43
0.0
 10
160.5703345851015
 20
190.4576683416
 10
159.0040003908859
 20
188.5526597293375
 10
160.7819926389766
 20
187.5366795388906
  0
LWPOLYLINE
  5
19E
330
70
100
AcDbEntity
  8
レイヤー 1
 62
    18
420
        0
370
    25
100
AcDbPolyline
 90
        3
 70
     0
 43
0.0
 10
163.6606605968344
 20
187.3249999531688
 10
162.0096631810687
 20
185.3353496512031
 10
164.1686614579812
 20
184.1076683431875
  0
LWPOLYLINE
  5
19F
330
70
100
AcDbEntity
  8
レイヤー 1
 62
    18
420
        0
370
    25
100
AcDbPolyline
 90
       42
 70
     0
 43
0.0
 10
166.7509973744906
 20
183.6843522354374
 10
164.8459887622282
 20
181.6523487908499
 10
167.2589874697141
 20
179.9590089983859
 10
166.7086549977922
 20
178.4773487916437
 10
168.4443264010313
 20
177.0380094297531
 10
168.4443264010313
 20
175.090679972639
 10
170.5186614563938
 20
173.6513513766718
 10
169.629654566425
 20
171.3230158907359
 10
171.4923208019891
 20
169.9683505163187
 10
170.4339874689203
 20
168.0210102932812
 10
172.7199913440813
 20
166.4546760990656
 10
170.9419883300672
 20
164.5073466419515
 10
172.9739917746547
 20
163.2373444890843
 10
170.8149934977422
 20
161.0783462121718
 10
173.5243242465766
 20
159.5120120179562
 10
170.7726618869672
 20
158.030351811214
 10
172.5506541350578
 20
157.0143500889202
 10
169.9259973736969
 20
154.8976834227827
 10
171.4076575804391
 20
153.4583440608921
 10
169.460328123325
 20
151.5110146037781
 10
171.1113255390906
 20
150.2833440616859
 10
168.4443264010313
 20
148.5053410476718
 10
169.544991344875
 20
147.1083440624796
 10
166.7509973744906
 20
145.6266838557374
 10
168.0633203722094
 20
144.3566817028702
 10
165.4809952216234
 20
142.6633526763296
 10
166.6239917762422
 20
141.224013314439
 10
163.3219969447109
 20
139.7423423417734
 10
164.9306627497016
 20
137.7526812738843
 10
160.9089874713016
 20
137.8796868721327
 10
162.2636636116422
 20
135.2973509556233
 10
158.4536571530406
 20
135.4666773987234
 10
159.7236593059078
 20
132.8843522481374
 10
155.7866580149813
 20
133.1806842894858
 10
156.717996515725
 20
130.8100171927749
 10
152.7386636140234
 20
130.8100171927749
 10
153.6276597380688
 20
128.9896825679859
 10
149.9869904884907
 20
128.7780137481874
 10
150.5373229604125
 20
126.1533462209031
 10
146.557990058711
 20
126.6613470820499
 10
147.1929965181062
 20
124.248348374564
 10
143.6793221008531
 20
123.7403475134171
  0
LINE
  5
1A0
330
70
100
AcDbEntity
  8
レイヤー 1
 62
    18
420
        0
370
    25
100
AcDbLine
 10
143.9756541422016
 20
121.6236808472796
 30
0.0
 11
140.2503324369968
 21
122.3010081515265
 31
0.0
  0
LWPOLYLINE
  5
1A1
330
70
100
AcDbEntity
  8
レイヤー 1
 62
    18
420
        0
370
    25
100
AcDbPolyline
 90
        7
 70
     0
 43
0.0
 10
115.1889960954703
 20
112.0986700837375
 10
115.8663341656406
 20
117.0940154736562
 10
119.7186614690938
 20
112.7759973879844
 10
119.7610038457922
 20
117.0516838628812
 10
123.9943371780672
 20
113.453346224078
 10
124.5446588840656
 20
117.9406799869265
 10
128.0159909246203
 20
115.0196588864469
  0
LWPOLYLINE
  5
1A2
330
70
100
AcDbEntity
  8
レイヤー 1
 62
    18
420
        0
370
    25
100
AcDbPolyline
 90
        7
 70
     0
 43
0.0
 10
97.91698834832349
 20
112.0986700837375
 10
101.642331585375
 20
115.6970077225406
 10
103.2933290011406
 20
111.3366795579405
 10
106.8493242632453
 20
115.5700128902156
 10
109.8126662085765
 20
111.3366795579405
 10
111.6753216782172
 20
115.6970077225406
 10
115.1889960954703
 20
112.0986700837375
  0
SPLINE
  5
1A3
330
70
100
AcDbEntity
  8
レイヤー 1
 62
    18
420
        0
370
    25
100
AcDbSpline
210
0.0
220
0.0
230
1.0
 70
    24
 71
     3
 72
     8
 73
     4
 74
     0
 42
0.0000000001
 43
0.0000000001
 40
0.0
 40
0.0
 40
0.0
 40
0.0
 40
1.0
 40
1.0
 40
1.0
 40
1.0
 10
106.8493350291687
 20
115.5700128902156
 30
0.0
 10
106.8493350291687
 20
115.5700128902156
 30
0.0
 10
106.5529922218969
 20
122.3433397623015
 30
0.0
 10
106.5529922218969
 20
122.3433397623015
 30
0.0
  0
SPLINE
  5
1A4
330
70
100
AcDbEntity
  8
レイヤー 1
 62
    18
420
        0
370
    25
100
AcDbSpline
210
0.0
220
0.0
230
1.0
 70
    24
 71
     3
 72
     8
 73
     4
 74
     0
 42
0.0000000001
 43
0.0000000001
 40
0.0
 40
0.0
 40
0.0
 40
0.0
 40
1.0
 40
1.0
 40
1.0
 40
1.0
 10
111.6753324441406
 20
115.6970077225406
 30
0.0
 10
111.6753324441406
 20
115.6970077225406
 30
0.0
 10
110.8709995416453
 20
122.9360038449984
 30
0.0
 10
110.8709995416453
 20
122.9360038449984
 30
0.0
  0
SPLINE
  5
1A5
330
70
100
AcDbEntity
  8
レイヤー 1
 62
    18
420
        0
370
    25
100
AcDbSpline
210
0.0
220
0.0
230
1.0
 70
    24
 71
     3
 72
     8
 73
     4
 74
     0
 42
0.0000000001
 43
0.0000000001
 40
0.0
 40
0.0
 40
0.0
 40
0.0
 40
1.0
 40
1.0
 40
1.0
 40
1.0
 10
101.642331585375
 20
115.6970077225406
 30
0.0
 10
101.642331585375
 20
115.6970077225406
 30
0.0
 10
102.2349956680719
 20
122.8936722342234
 30
0.0
 10
102.2349956680719
 20
122.8936722342234
 30
0.0
  0
SPLINE
  5
1A6
330
70
100
AcDbEntity
  8
レイヤー 1
 62
    18
420
        0
370
    25
100
AcDbSpline
210
0.0
220
0.0
230
1.0
 70
    24
 71
     3
 72
     8
 73
     4
 74
     0
 42
0.0000000001
 43
0.0000000001
 40
0.0
 40
0.0
 40
0.0
 40
0.0
 40
1.0
 40
1.0
 40
1.0
 40
1.0
 10
109.8126662085765
 20
111.3366795579405
 30
0.0
 10
109.8126662085765
 20
111.3366795579405
 30
0.0
 10
108.7966644862828
 20
122.682003414425
 30
0.0
 10
108.7966644862828
 20
122.682003414425
 30
0.0
  0
ENDSEC
  0
SECTION
  2
OBJECTS
  0
DICTIONARY
  5
C
330
0
100
AcDbDictionary
281
     1
  3
ACAD_COLOR
350
63
  3
ACAD_DETAILVIEWSTYLE
350
6A
  3
ACAD_GROUP
350
D
  3
ACAD_LAYOUT
350
62
  3
ACAD_MATERIAL
350
10
  3
ACAD_MLEADERSTYLE
350
66
  3
ACAD_MLINESTYLE
350
5F
  3
ACAD_PLOTSETTINGS
350
61
  3
ACAD_PLOTSTYLENAME
350
E
  3
ACAD_SCALELIST
350
42
  3
ACAD_SECTIONVIEWSTYLE
350
68
  3
ACAD_TABLESTYLE
350
64
  3
ACAD_VISUALSTYLE
350
29
  3
ACDB_RECOMPOSE_DATA
350
1AF
  3
AcDbVariableDictionary
350
1A7
  0
DICTIONARY
  5
63
102
{ACAD_REACTORS
330
C
102
}
330
C
100
AcDbDictionary
281
     1
  0
DICTIONARY
  5
6A
102
{ACAD_REACTORS
330
C
102
}
330
C
100
AcDbDictionary
281
     1
  3
Imperial24
350
6B
  0
DICTIONARY
  5
D
102
{ACAD_REACTORS
330
C
102
}
330
C
100
AcDbDictionary
281
     1
  0
DICTIONARY
  5
62
102
{ACAD_REACTORS
330
C
102
}
330
C
100
AcDbDictionary
281
     1
  3
Layout1
350
6F
  3
Layout2
350
77
  3
Model
350
73
  0
DICTIONARY
  5
10
102
{ACAD_REACTORS
330
C
102
}
330
C
100
AcDbDictionary
281
     1
  3
ByBlock
350
19
  3
ByLayer
350
11
  3
Global
350
21
  0
DICTIONARY
  5
66
102
{ACAD_REACTORS
330
C
102
}
330
C
100
AcDbDictionary
281
     1
  3
Standard
350
67
  0
DICTIONARY
  5
5F
102
{ACAD_REACTORS
330
C
102
}
330
C
100
AcDbDictionary
281
     1
  3
Standard
350
60
  0
DICTIONARY
  5
61
102
{ACAD_REACTORS
330
C
102
}
330
C
100
AcDbDictionary
281
     1
  0
ACDBDICTIONARYWDFLT
  5
E
102
{ACAD_REACTORS
330
C
102
}
330
C
100
AcDbDictionary
281
     1
  3
Normal
350
F
100
AcDbDictionaryWithDefault
340
F
  0
DICTIONARY
  5
42
102
{ACAD_REACTORS
330
C
102
}
330
C
100
AcDbDictionary
281
     1
  3
A0
350
43
  3
A1
350
44
  3
A2
350
45
  3
A3
350
46
  3
A4
350
47
  3
A5
350
48
  3
A6
350
49
  3
A7
350
4A
  3
A8
350
4B
  3
A9
350
4C
  3
B0
350
4D
  3
B1
350
4E
  3
B2
350
4F
  3
B3
350
50
  3
B4
350
51
  3
B5
350
52
  3
B6
350
53
  0
DICTIONARY
  5
68
102
{ACAD_REACTORS
330
C
102
}
330
C
100
AcDbDictionary
281
     1
  3
Imperial24
350
69
  0
DICTIONARY
  5
64
102
{ACAD_REACTORS
330
C
102
}
330
C
100
AcDbDictionary
281
     1
  3
Standard
350
65
  0
DICTIONARY
  5
29
102
{ACAD_REACTORS
330
C
102
}
330
C
100
AcDbDictionary
281
     1
  3
2dWireframe
350
2F
  3
Basic
350
2E
  3
Brighten
350
35
  3
ColorChange
350
39
  3
Conceptual
350
32
  3
Dim
350
34
  3
EdgeColorOff
350
41
  3
Facepattern
350
38
  3
Flat
350
2A
  3
FlatWithEdges
350
2B
  3
Gouraud
350
2C
  3
GouraudWithEdges
350
2D
  3
Hidden
350
31
  3
JitterOff
350
3F
  3
Linepattern
350
37
  3
OverhangOff
350
40
  3
Realistic
350
33
  3
Shaded
350
3E
  3
Shaded with edges
350
3D
  3
Shades of Gray
350
3A
  3
Sketchy
350
3B
  3
Thicken
350
36
  3
Wireframe
350
30
  3
X-Ray
350
3C
  0
XRECORD
  5
1AF
102
{ACAD_REACTORS
330
C
102
}
330
C
100
AcDbXrecord
280
     1
 90
        1
330
65
  0
DICTIONARY
  5
1A7
102
{ACAD_REACTORS
330
C
102
}
330
C
100
AcDbDictionary
281
     1
  3
CANNOSCALE
350
1AC
  3
CMLEADERSTYLE
350
1A9
  3
CTABLESTYLE
350
1A8
  3
CVIEWDETAILSTYLE
350
1AA
  3
CVIEWSECTIONSTYLE
350
1AB
  0
ACDBDETAILVIEWSTYLE
  5
6B
102
{ACAD_REACTORS
330
6A
102
}
330
6A
100
AcDbModelDocViewStyle
 70
     0
  3
Imperial24
290
     1
300
Imperial24
 90
        0
100
AcDbDetailViewStyle
 70
     0
 71
     0
 90
        3
 71
     1
340
55
 62
   256
 40
0.24
340
0
 62
   256
 40
0.24
300

 40
0.36
280
     3
 71
     2
340
5D
 90
       25
 62
   256
 71
     3
340
55
 62
   256
 40
0.24
 90
        1
 40
0.75
 90
        1
300
%<\AcVar ViewType \f "%tc1">% %<\AcVar ViewDetailId>%\PSCALE %<\AcVar ViewScale \f "%sn">%
 71
     4
340
5D
 90
       25
 62
   256
340
5D
 90
       25
 62
   256
280
     0
  0
LAYOUT
  5
6F
102
{ACAD_REACTORS
330
62
102
}
330
62
100
AcDbPlotSettings
  1

  2

  4

  6

 40
0.0
 41
0.0
 42
0.0
 43
0.0
 44
0.0
 45
0.0
 46
0.0
 47
0.0
 48
0.0
 49
0.0
140
0.0
141
0.0
142
1.0
143
1.0
 70
   688
 72
     0
 73
     0
 74
     5
  7

 75
    16
147
1.0
 76
     0
 77
     2
 78
   300
148
0.0
149
0.0
100
AcDbLayout
  1
Layout1
 70
     1
 71
     1
 10
0.0
 20
0.0
 11
12.0
 21
9.0
 12
0.0
 22
0.0
 32
0.0
 14
0.0
 24
0.0
 34
0.0
 15
0.0
 25
0.0
 35
0.0
146
0.0
 13
0.0
 23
0.0
 33
0.0
 16
1.0
 26
0.0
 36
0.0
 17
0.0
 27
1.0
 37
0.0
 76
     0
330
6C
  0
LAYOUT
  5
77
102
{ACAD_REACTORS
330
62
102
}
330
62
100
AcDbPlotSettings
  1

  2

  4

  6

 40
0.0
 41
0.0
 42
0.0
 43
0.0
 44
0.0
 45
0.0
 46
0.0
 47
0.0
 48
0.0
 49
0.0
140
0.0
141
0.0
142
1.0
143
1.0
 70
   688
 72
     0
 73
     0
 74
     5
  7

 75
    16
147
1.0
 76
     0
 77
     2
 78
   300
148
0.0
149
0.0
100
AcDbLayout
  1
Layout2
 70
     1
 71
     2
 10
0.0
 20
0.0
 11
12.0
 21
9.0
 12
0.0
 22
0.0
 32
0.0
 14
0.0
 24
0.0
 34
0.0
 15
0.0
 25
0.0
 35
0.0
146
0.0
 13
0.0
 23
0.0
 33
0.0
 16
1.0
 26
0.0
 36
0.0
 17
0.0
 27
1.0
 37
0.0
 76
     0
330
74
  0
LAYOUT
  5
73
102
{ACAD_REACTORS
330
62
102
}
330
62
100
AcDbPlotSettings
  1

  2

  4

  6

 40
0.0
 41
0.0
 42
0.0
 43
0.0
 44
0.0
 45
0.0
 46
0.0
 47
0.0
 48
0.0
 49
0.0
140
0.0
141
0.0
142
1.0
143
1.0
 70
  1712
 72
     0
 73
     0
 74
     0
  7

 75
     0
147
1.0
 76
     0
 77
     2
 78
   300
148
0.0
149
0.0
100
AcDbLayout
  1
Model
 70
     1
 71
     0
 10
0.0
 20
0.0
 11
12.0
 21
9.0
 12
0.0
 22
0.0
 32
0.0
 14
0.0
 24
0.0
 34
0.0
 15
0.0
 25
0.0
 35
0.0
146
0.0
 13
0.0
 23
0.0
 33
0.0
 16
1.0
 26
0.0
 36
0.0
 17
0.0
 27
1.0
 37
0.0
 76
     0
330
70
  0
MATERIAL
  5
19
102
{ACAD_XDICTIONARY
360
1A
102
}
102
{ACAD_REACTORS
330
10
102
}
330
10
100
AcDbMaterial
  1
ByBlock
 72
     0
 43
0.0208333333333333
 43
0.0
 43
0.0
 43
0.0
 43
0.0
 43
0.0208333333333333
 43
0.0
 43
0.0
 43
0.0
 43
0.0
 43
1.0
 43
0.0
 43
0.0
 43
0.0
 43
0.0
 43
1.0
 77
     0
 47
0.0208333333333333
 47
0.0
 47
0.0
 47
0.0
 47
0.0
 47
0.0208333333333333
 47
0.0
 47
0.0
 47
0.0
 47
0.0
 47
1.0
 47
0.0
 47
0.0
 47
0.0
 47
0.0
 47
1.0
171
     0
 49
0.0208333333333333
 49
0.0
 49
0.0
 49
0.0
 49
0.0
 49
0.0208333333333333
 49
0.0
 49
0.0
 49
0.0
 49
0.0
 49
1.0
 49
0.0
 49
0.0
 49
0.0
 49
0.0
 49
1.0
175
     0
142
0.0208333333333333
142
0.0
142
0.0
142
0.0
142
0.0
142
0.0208333333333333
142
0.0
142
0.0
142
0.0
142
0.0
142
1.0
142
0.0
142
0.0
142
0.0
142
0.0
142
1.0
179
     0
144
0.0208333333333333
144
0.0
144
0.0
144
0.0
144
0.0
144
0.0208333333333333
144
0.0
144
0.0
144
0.0
144
0.0
144
1.0
144
0.0
144
0.0
144
0.0
144
0.0
144
1.0
147
0.0208333333333333
147
0.0
147
0.0
147
0.0
147
0.0
147
0.0208333333333333
147
0.0
147
0.0
147
0.0
147
0.0
147
1.0
147
0.0
147
0.0
147
0.0
147
0.0
147
1.0
  0
MATERIAL
  5
11
102
{ACAD_XDICTIONARY
360
12
102
}
102
{ACAD_REACTORS
330
10
102
}
330
10
100
AcDbMaterial
  1
ByLayer
 72
     0
 43
0.0208333333333333
 43
0.0
 43
0.0
 43
0.0
 43
0.0
 43
0.0208333333333333
 43
0.0
 43
0.0
 43
0.0
 43
0.0
 43
1.0
 43
0.0
 43
0.0
 43
0.0
 43
0.0
 43
1.0
 77
     0
 47
0.0208333333333333
 47
0.0
 47
0.0
 47
0.0
 47
0.0
 47
0.0208333333333333
 47
0.0
 47
0.0
 47
0.0
 47
0.0
 47
1.0
 47
0.0
 47
0.0
 47
0.0
 47
0.0
 47
1.0
171
     0
 49
0.0208333333333333
 49
0.0
 49
0.0
 49
0.0
 49
0.0
 49
0.0208333333333333
 49
0.0
 49
0.0
 49
0.0
 49
0.0
 49
1.0
 49
0.0
 49
0.0
 49
0.0
 49
0.0
 49
1.0
175
     0
142
0.0208333333333333
142
0.0
142
0.0
142
0.0
142
0.0
142
0.0208333333333333
142
0.0
142
0.0
142
0.0
142
0.0
142
1.0
142
0.0
142
0.0
142
0.0
142
0.0
142
1.0
179
     0
144
0.0208333333333333
144
0.0
144
0.0
144
0.0
144
0.0
144
0.0208333333333333
144
0.0
144
0.0
144
0.0
144
0.0
144
1.0
144
0.0
144
0.0
144
0.0
144
0.0
144
1.0
147
0.0208333333333333
147
0.0
147
0.0
147
0.0
147
0.0
147
0.0208333333333333
147
0.0
147
0.0
147
0.0
147
0.0
147
1.0
147
0.0
147
0.0
147
0.0
147
0.0
147
1.0
  0
MATERIAL
  5
21
102
{ACAD_XDICTIONARY
360
22
102
}
102
{ACAD_REACTORS
330
10
102
}
330
10
100
AcDbMaterial
  1
Global
 72
     0
 43
0.0208333333333333
 43
0.0
 43
0.0
 43
0.0
 43
0.0
 43
0.0208333333333333
 43
0.0
 43
0.0
 43
0.0
 43
0.0
 43
1.0
 43
0.0
 43
0.0
 43
0.0
 43
0.0
 43
1.0
 77
     0
 47
0.0208333333333333
 47
0.0
 47
0.0
 47
0.0
 47
0.0
 47
0.0208333333333333
 47
0.0
 47
0.0
 47
0.0
 47
0.0
 47
1.0
 47
0.0
 47
0.0
 47
0.0
 47
0.0
 47
1.0
171
     0
 49
0.0208333333333333
 49
0.0
 49
0.0
 49
0.0
 49
0.0
 49
0.0208333333333333
 49
0.0
 49
0.0
 49
0.0
 49
0.0
 49
1.0
 49
0.0
 49
0.0
 49
0.0
 49
0.0
 49
1.0
175
     0
142
0.0208333333333333
142
0.0
142
0.0
142
0.0
142
0.0
142
0.0208333333333333
142
0.0
142
0.0
142
0.0
142
0.0
142
1.0
142
0.0
142
0.0
142
0.0
142
0.0
142
1.0
179
     0
144
0.0208333333333333
144
0.0
144
0.0
144
0.0
144
0.0
144
0.0208333333333333
144
0.0
144
0.0
144
0.0
144
0.0
144
1.0
144
0.0
144
0.0
144
0.0
144
0.0
144
1.0
147
0.0208333333333333
147
0.0
147
0.0
147
0.0
147
0.0
147
0.0208333333333333
147
0.0
147
0.0
147
0.0
147
0.0
147
1.0
147
0.0
147
0.0
147
0.0
147
0.0
147
1.0
  0
MLEADERSTYLE
  5
67
102
{ACAD_REACTORS
330
66
102
}
330
66
100
AcDbMLeaderStyle
179
     2
170
     2
171
     1
172
     0
 90
        2
 40
0.0
 41
0.0
173
     1
 91
-1056964608
340
5B
 92
       -2
290
     1
 42
0.09
291
     1
 43
0.36
  3
Standard
 44
0.18
300

342
55
174
     1
178
     6
175
     1
176
     0
 93
-1056964608
 45
0.18
292
     0
297
     0
 46
0.18
 94
-1056964608
 47
1.0
 49
1.0
140
1.0
293
     1
141
0.0
294
     1
177
     0
142
1.0
295
     1
296
     0
143
0.125
271
     0
272
     9
273
     9
298
     1
  0
MLINESTYLE
  5
60
102
{ACAD_REACTORS
330
5F
102
}
330
5F
100
AcDbMlineStyle
  2
STANDARD
 70
     0
  3

 62
   256
 51
90.0
 52
90.0
 71
     2
 49
0.5
 62
   256
  6
BYLAYER
 49
-0.5
 62
   256
  6
BYLAYER
  0
ACDBPLACEHOLDER
  5
F
102
{ACAD_REACTORS
330
E
102
}
330
E
  0
SCALE
  5
43
102
{ACAD_REACTORS
330
42
102
}
330
42
100
AcDbScale
 70
     0
300
1:1
140
1.0
141
1.0
290
     1
  0
SCALE
  5
44
102
{ACAD_REACTORS
330
42
102
}
330
42
100
AcDbScale
 70
     0
300
1/128" = 1'-0"
140
0.0078125
141
12.0
290
     0
  0
SCALE
  5
45
102
{ACAD_REACTORS
330
42
102
}
330
42
100
AcDbScale
 70
     0
300
1/64" = 1'-0"
140
0.015625
141
12.0
290
     0
  0
SCALE
  5
46
102
{ACAD_REACTORS
330
42
102
}
330
42
100
AcDbScale
 70
     0
300
1/32" = 1'-0"
140
0.03125
141
12.0
290
     0
  0
SCALE
  5
47
102
{ACAD_REACTORS
330
42
102
}
330
42
100
AcDbScale
 70
     0
300
1/16" = 1'-0"
140
0.0625
141
12.0
290
     0
  0
SCALE
  5
48
102
{ACAD_REACTORS
330
42
102
}
330
42
100
AcDbScale
 70
     0
300
3/32" = 1'-0"
140
0.09375
141
12.0
290
     0
  0
SCALE
  5
49
102
{ACAD_REACTORS
330
42
102
}
330
42
100
AcDbScale
 70
     0
300
1/8" = 1'-0"
140
0.125
141
12.0
290
     0
  0
SCALE
  5
4A
102
{ACAD_REACTORS
330
42
102
}
330
42
100
AcDbScale
 70
     0
300
3/16" = 1'-0"
140
0.1875
141
12.0
290
     0
  0
SCALE
  5
4B
102
{ACAD_REACTORS
330
42
102
}
330
42
100
AcDbScale
 70
     0
300
1/4" = 1'-0"
140
0.25
141
12.0
290
     0
  0
SCALE
  5
4C
102
{ACAD_REACTORS
330
42
102
}
330
42
100
AcDbScale
 70
     0
300
3/8" = 1'-0"
140
0.375
141
12.0
290
     0
  0
SCALE
  5
4D
102
{ACAD_REACTORS
330
42
102
}
330
42
100
AcDbScale
 70
     0
300
1/2" = 1'-0"
140
0.5
141
12.0
290
     0
  0
SCALE
  5
4E
102
{ACAD_REACTORS
330
42
102
}
330
42
100
AcDbScale
 70
     0
300
3/4" = 1'-0"
140
0.75
141
12.0
290
     0
  0
SCALE
  5
4F
102
{ACAD_REACTORS
330
42
102
}
330
42
100
AcDbScale
 70
     0
300
1" = 1'-0"
140
1.0
141
12.0
290
     0
  0
SCALE
  5
50
102
{ACAD_REACTORS
330
42
102
}
330
42
100
AcDbScale
 70
     0
300
1-1/2" = 1'-0"
140
1.5
141
12.0
290
     0
  0
SCALE
  5
51
102
{ACAD_REACTORS
330
42
102
}
330
42
100
AcDbScale
 70
     0
300
3" = 1'-0"
140
3.0
141
12.0
290
     0
  0
SCALE
  5
52
102
{ACAD_REACTORS
330
42
102
}
330
42
100
AcDbScale
 70
     0
300
6" = 1'-0"
140
6.0
141
12.0
290
     0
  0
SCALE
  5
53
102
{ACAD_REACTORS
330
42
102
}
330
42
100
AcDbScale
 70
     0
300
1'-0" = 1'-0"
140
12.0
141
12.0
290
     0
  0
ACDBSECTIONVIEWSTYLE
  5
69
102
{ACAD_REACTORS
330
68
102
}
330
68
100
AcDbModelDocViewStyle
 70
     0
  3
Imperial24
290
     1
300
Imperial24
 90
        0
100
AcDbSectionViewStyle
 70
     0
 71
     0
 90
       78
 71
     1
340
55
 62
   256
 40
0.24
340
0
340
0
 62
   256
 40
0.24
300
I, O, Q, S, X, Z
 40
0.48
 90
        3
 40
0.18
 90
        1
 71
     2
340
5D
 90
       25
 62
   256
340
5D
 90
       50
 62
   256
 40
0.24
 40
0.0
 40
0.24
 71
     3
340
55
 62
   256
 40
0.24
 90
        1
 40
0.75
 90
        1
300
%<\AcVar ViewType \f "%tc1">% %<\AcVar ViewSectionStartId>%-%<\AcVar ViewSectionEndId>%\PSCALE %<\AcVar ViewScale \f "%sn">%
 71
     4
 62
   256
 62
   257
300
ANSI31
 40
1.0
 90
        0
290
     0
290
     0
 90
        6
 40
0.0
 40
1.570796326794896
 40
0.2617993877991494
 40
1.308996938995747
 40
-0.2617993877991494
 40
1.832595714594046
  0
TABLESTYLE
  5
65
102
{ACAD_XDICTIONARY
360
1AD
102
}
102
{ACAD_REACTORS
330
64
102
}
330
64
100
AcDbTableStyle
280
     0
  3
Standard
 70
     0
 71
     0
 40
0.06
 41
0.06
280
     0
281
     0
  7
Standard
140
0.18
170
     2
 62
     0
 63
     7
283
     0
 90
      512
 91
        0
  1

274
    -2
284
     1
 64
     0
275
    -2
285
     1
 65
     0
276
    -2
286
     1
 66
     0
277
    -2
287
     1
 67
     0
278
    -2
288
     1
 68
     0
279
    -2
289
     1
 69
     0
  7
Standard
140
0.25
170
     5
 62
     0
 63
     7
283
     0
 90
      512
 91
        0
  1

274
    -2
284
     1
 64
     0
275
    -2
285
     1
 65
     0
276
    -2
286
     1
 66
     0
277
    -2
287
     1
 67
     0
278
    -2
288
     1
 68
     0
279
    -2
289
     1
 69
     0
  7
Standard
140
0.18
170
     5
 62
     0
 63
     7
283
     0
 90
      512
 91
        0
  1

274
    -2
284
     1
 64
     0
275
    -2
285
     1
 65
     0
276
    -2
286
     1
 66
     0
277
    -2
287
     1
 67
     0
278
    -2
288
     1
 68
     0
279
    -2
289
     1
 69
     0
  0
VISUALSTYLE
  5
2F
102
{ACAD_REACTORS
330
29
102
}
330
29
100
AcDbVisualStyle
  2
2dWireframe
 70
     4
177
     3
291
     0
 70
    58
 90
        0
176
     1
 90
        2
176
     1
 90
        0
176
     1
 90
        0
176
     1
 40
0.6
176
     1
 40
30.0
176
     1
 62
     7
420
 16777215
176
     1
 90
        1
176
     1
 90
        4
176
     1
 62
     7
176
     1
 62
   257
176
     1
 90
        1
176
     1
 90
        1
176
     1
 40
1.0
176
     1
 90
        0
176
     1
 62
   257
176
     1
 40
1.0
176
     1
 90
        1
176
     1
 90
        6
176
     1
 90
        2
176
     1
 62
     7
176
     1
 90
        5
176
     1
 90
        0
176
     1
 90
        0
176
     1
290
     0
176
     1
 90
        1
176
     1
 40
0.0
176
     1
 90
        0
176
     1
290
     1
176
     1
290
     1
176
     1
290
     0
176
     1
290
     0
176
     1
290
     0
176
     1
290
     0
176
     1
290
     0
176
     1
290
     0
176
     1
290
     0
176
     1
 90
       50
176
     1
 40
0.0
176
     1
 40
1.0
176
     1
 90
        0
176
     1
 62
    18
420
        0
176
     1
 90
       50
176
     1
 90
        3
176
     1
 62
     5
420
      255
176
     1
290
     0
176
     1
 90
       50
176
     1
 90
       50
176
     1
 90
       50
176
     1
290
     0
176
     1
 90
       50
176
     1
 62
   256
176
     0
 40
1.0
176
     0
 90
        2
176
     1
  1
strokes_ogs.tif
176
     1
290
     0
176
     1
 40
1.0
176
     1
 40
1.0
176
     1
  0
VISUALSTYLE
  5
2E
102
{ACAD_REACTORS
330
29
102
}
330
29
100
AcDbVisualStyle
  2
Basic
 70
     7
177
     3
291
     1
 70
    58
 90
        1
176
     1
 90
        0
176
     1
 90
        1
176
     1
 90
        0
176
     1
 40
0.6
176
     1
 40
30.0
176
     1
 62
     7
420
 16777215
176
     1
 90
        0
176
     1
 90
        4
176
     1
 62
     7
176
     1
 62
   257
176
     1
 90
        1
176
     1
 90
        1
176
     1
 40
1.0
176
     1
 90
        8
176
     1
 62
     7
176
     1
 40
1.0
176
     1
 90
        1
176
     1
 90
        6
176
     1
 90
        2
176
     1
 62
     7
176
     1
 90
        5
176
     1
 90
        0
176
     1
 90
        0
176
     1
290
     0
176
     1
 90
        1
176
     1
 40
0.0
176
     1
 90
        0
176
     1
290
     0
176
     1
290
     1
176
     1
290
     1
176
     1
290
     0
176
     1
290
     0
176
     1
290
     0
176
     1
290
     0
176
     1
290
     0
176
     1
290
     0
176
     1
 90
       50
176
     1
 40
0.0
176
     1
 40
1.0
176
     1
 90
        0
176
     1
 62
    18
420
        0
176
     1
 90
       50
176
     1
 90
        3
176
     1
 62
     5
420
      255
176
     1
290
     0
176
     1
 90
       50
176
     1
 90
       50
176
     1
 90
       50
176
     1
290
     0
176
     1
 90
       50
176
     1
 62
   256
176
     0
 40
1.0
176
     0
 90
        2
176
     1
  1
strokes_ogs.tif
176
     1
290
     0
176
     1
 40
1.0
176
     1
 40
1.0
176
     1
  0
VISUALSTYLE
  5
35
102
{ACAD_REACTORS
330
29
102
}
330
29
100
AcDbVisualStyle
  2
Brighten
 70
    12
177
     3
291
     1
 70
    58
 90
        2
176
     1
 90
        2
176
     1
 90
        0
176
     1
 90
        0
176
     1
 40
0.6
176
     1
 40
30.0
176
     1
 62
     7
420
 16777215
176
     1
 90
        1
176
     1
 90
        4
176
     1
 62
     7
176
     1
 62
   257
176
     1
 90
        1
176
     1
 90
        1
176
     1
 40
1.0
176
     1
 90
        8
176
     1
 62
     7
176
     1
 40
1.0
176
     1
 90
        1
176
     1
 90
        6
176
     1
 90
        2
176
     1
 62
     7
176
     1
 90
        5
176
     1
 90
        0
176
     1
 90
        0
176
     1
290
     0
176
     1
 90
        1
176
     1
 40
50.0
176
     1
 90
        0
176
     1
290
     0
176
     1
290
     1
176
     1
290
     1
176
     1
290
     0
176
     1
290
     0
176
     1
290
     0
176
     1
290
     0
176
     1
290
     0
176
     1
290
     0
176
     1
 90
       50
176
     1
 40
0.0
176
     1
 40
1.0
176
     1
 90
        0
176
     1
 62
    18
420
        0
176
     1
 90
       50
176
     1
 90
        3
176
     1
 62
     5
420
      255
176
     1
290
     0
176
     1
 90
       50
176
     1
 90
       50
176
     1
 90
       50
176
     1
290
     0
176
     1
 90
       50
176
     1
 62
   256
176
     0
 40
1.0
176
     0
 90
        2
176
     1
  1
strokes_ogs.tif
176
     1
290
     0
176
     1
 40
1.0
176
     1
 40
1.0
176
     1
  0
VISUALSTYLE
  5
39
102
{ACAD_REACTORS
330
29
102
}
330
29
100
AcDbVisualStyle
  2
ColorChange
 70
    16
177
     3
291
     1
 70
    58
 90
        2
176
     1
 90
        2
176
     1
 90
        3
176
     1
 90
        0
176
     1
 40
0.6
176
     1
 40
30.0
176
     1
 62
     8
420
  8421504
176
     1
 90
        1
176
     1
 90
        4
176
     1
 62
     7
176
     1
 62
   257
176
     1
 90
        1
176
     1
 90
        1
176
     1
 40
1.0
176
     1
 90
        8
176
     1
 62
     8
420
  8421504
176
     1
 40
1.0
176
     1
 90
        1
176
     1
 90
        6
176
     1
 90
        2
176
     1
 62
     7
176
     1
 90
        5
176
     1
 90
        0
176
     1
 90
        0
176
     1
290
     0
176
     1
 90
        1
176
     1
 40
0.0
176
     1
 90
        0
176
     1
290
     0
176
     1
290
     1
176
     1
290
     1
176
     1
290
     0
176
     1
290
     0
176
     1
290
     0
176
     1
290
     0
176
     1
290
     0
176
     1
290
     0
176
     1
 90
       50
176
     1
 40
0.0
176
     1
 40
1.0
176
     1
 90
        0
176
     1
 62
    18
420
        0
176
     1
 90
       50
176
     1
 90
        3
176
     1
 62
     5
420
      255
176
     1
290
     0
176
     1
 90
       50
176
     1
 90
       50
176
     1
 90
       50
176
     1
290
     0
176
     1
 90
       50
176
     1
 62
   256
176
     0
 40
1.0
176
     0
 90
        2
176
     1
  1
strokes_ogs.tif
176
     1
290
     0
176
     1
 40
1.0
176
     1
 40
1.0
176
     1
  0
VISUALSTYLE
  5
32
102
{ACAD_REACTORS
330
29
102
}
330
29
100
AcDbVisualStyle
  2
Conceptual
 70
     9
177
     3
291
     0
 70
    58
 90
        3
176
     1
 90
        2
176
     1
 90
        0
176
     1
 90
        0
176
     1
 40
0.6
176
     1
 40
30.0
176
     1
 62
     7
420
 16777215
176
     1
 90
        2
176
     1
 90
        2
176
     1
 62
     7
176
     1
 62
   257
176
     1
 90
        1
176
     1
 90
        1
176
     1
 40
179.0
176
     1
 90
        8
176
     1
 62
     7
176
     1
 40
1.0
176
     1
 90
        1
176
     1
 90
        6
176
     1
 90
        2
176
     1
 62
     7
176
     1
 90
        3
176
     1
 90
        0
176
     1
 90
        0
176
     1
290
     0
176
     1
 90
        1
176
     1
 40
0.0
176
     1
 90
        0
176
     1
290
     0
176
     1
290
     1
176
     1
290
     1
176
     1
290
     0
176
     1
290
     0
176
     1
290
     0
176
     1
290
     0
176
     1
290
     0
176
     1
290
     0
176
     1
 90
       50
176
     1
 40
0.0
176
     1
 40
1.0
176
     1
 90
        0
176
     1
 62
    18
420
        0
176
     1
 90
       50
176
     1
 90
        3
176
     1
 62
     5
420
      255
176
     1
290
     0
176
     1
 90
       50
176
     1
 90
       50
176
     1
 90
       50
176
     1
290
     0
176
     1
 90
       50
176
     1
 62
   256
176
     0
 40
1.0
176
     0
 90
        2
176
     1
  1
strokes_ogs.tif
176
     1
290
     0
176
     1
 40
1.0
176
     1
 40
1.0
176
     1
  0
VISUALSTYLE
  5
34
102
{ACAD_REACTORS
330
29
102
}
330
29
100
AcDbVisualStyle
  2
Dim
 70
    11
177
     3
291
     1
 70
    58
 90
        2
176
     1
 90
        2
176
     1
 90
        0
176
     1
 90
        0
176
     1
 40
0.6
176
     1
 40
30.0
176
     1
 62
     7
420
 16777215
176
     1
 90
        1
176
     1
 90
        4
176
     1
 62
     7
176
     1
 62
   257
176
     1
 90
        1
176
     1
 90
        1
176
     1
 40
1.0
176
     1
 90
        8
176
     1
 62
     7
176
     1
 40
1.0
176
     1
 90
        1
176
     1
 90
        6
176
     1
 90
        2
176
     1
 62
     7
176
     1
 90
        5
176
     1
 90
        0
176
     1
 90
        0
176
     1
290
     0
176
     1
 90
        1
176
     1
 40
-50.0
176
     1
 90
        0
176
     1
290
     0
176
     1
290
     1
176
     1
290
     1
176
     1
290
     0
176
     1
290
     0
176
     1
290
     0
176
     1
290
     0
176
     1
290
     0
176
     1
290
     0
176
     1
 90
       50
176
     1
 40
0.0
176
     1
 40
1.0
176
     1
 90
        0
176
     1
 62
    18
420
        0
176
     1
 90
       50
176
     1
 90
        3
176
     1
 62
     5
420
      255
176
     1
290
     0
176
     1
 90
       50
176
     1
 90
       50
176
     1
 90
       50
176
     1
290
     0
176
     1
 90
       50
176
     1
 62
   256
176
     0
 40
1.0
176
     0
 90
        2
176
     1
  1
strokes_ogs.tif
176
     1
290
     0
176
     1
 40
1.0
176
     1
 40
1.0
176
     1
  0
VISUALSTYLE
  5
41
102
{ACAD_REACTORS
330
29
102
}
330
29
100
AcDbVisualStyle
  2
EdgeColorOff
 70
    22
177
     3
291
     1
 70
    58
 90
        2
176
     0
 90
        2
176
     0
 90
        0
176
     0
 90
        0
176
     0
 40
0.6
176
     0
 40
30.0
176
     0
 62
     7
420
 16777215
176
     0
 90
        1
176
     0
 90
        4
176
     0
 62
     7
176
     0
 62
   257
176
     0
 90
        1
176
     0
 90
        1
176
     0
 40
1.0
176
     0
 90
        8
176
     2
 62
     7
176
     0
 40
1.0
176
     0
 90
        1
176
     0
 90
        6
176
     0
 90
        2
176
     0
 62
     7
176
     0
 90
        5
176
     0
 90
        0
176
     0
 90
        0
176
     0
290
     0
176
     0
 90
        1
176
     0
 40
0.0
176
     0
 90
        0
176
     0
290
     0
176
     0
290
     1
176
     0
290
     1
176
     0
290
     0
176
     0
290
     0
176
     0
290
     0
176
     0
290
     0
176
     0
290
     0
176
     0
290
     0
176
     0
 90
       50
176
     0
 40
0.0
176
     0
 40
1.0
176
     0
 90
        0
176
     0
 62
    18
420
        0
176
     0
 90
       50
176
     0
 90
        3
176
     0
 62
     5
420
      255
176
     0
290
     0
176
     0
 90
       50
176
     0
 90
       50
176
     0
 90
       50
176
     0
290
     0
176
     0
 90
       50
176
     0
 62
   256
176
     0
 40
1.0
176
     0
 90
        2
176
     0
  1
strokes_ogs.tif
176
     0
290
     0
176
     0
 40
1.0
176
     0
 40
1.0
176
     0
  0
VISUALSTYLE
  5
38
102
{ACAD_REACTORS
330
29
102
}
330
29
100
AcDbVisualStyle
  2
Facepattern
 70
    15
177
     3
291
     1
 70
    58
 90
        2
176
     1
 90
        2
176
     1
 90
        0
176
     1
 90
        0
176
     1
 40
0.6
176
     1
 40
30.0
176
     1
 62
     7
420
 16777215
176
     1
 90
        1
176
     1
 90
        4
176
     1
 62
     7
176
     1
 62
   257
176
     1
 90
        1
176
     1
 90
        1
176
     1
 40
1.0
176
     1
 90
        8
176
     1
 62
     7
176
     1
 40
1.0
176
     1
 90
        1
176
     1
 90
        6
176
     1
 90
        2
176
     1
 62
     7
176
     1
 90
        5
176
     1
 90
        0
176
     1
 90
        0
176
     1
290
     0
176
     1
 90
        1
176
     1
 40
0.0
176
     1
 90
        0
176
     1
290
     0
176
     1
290
     1
176
     1
290
     1
176
     1
290
     0
176
     1
290
     0
176
     1
290
     0
176
     1
290
     0
176
     1
290
     0
176
     1
290
     0
176
     1
 90
       50
176
     1
 40
0.0
176
     1
 40
1.0
176
     1
 90
        0
176
     1
 62
    18
420
        0
176
     1
 90
       50
176
     1
 90
        3
176
     1
 62
     5
420
      255
176
     1
290
     0
176
     1
 90
       50
176
     1
 90
       50
176
     1
 90
       50
176
     1
290
     0
176
     1
 90
       50
176
     1
 62
   256
176
     0
 40
1.0
176
     0
 90
        2
176
     1
  1
strokes_ogs.tif
176
     1
290
     0
176
     1
 40
1.0
176
     1
 40
1.0
176
     1
  0
VISUALSTYLE
  5
2A
102
{ACAD_REACTORS
330
29
102
}
330
29
100
AcDbVisualStyle
  2
Flat
 70
     0
177
     3
291
     1
 70
    58
 90
        2
176
     1
 90
        1
176
     1
 90
        1
176
     1
 90
        2
176
     1
 40
0.6
176
     1
 40
30.0
176
     1
 62
     7
420
 16777215
176
     1
 90
        0
176
     1
 90
        0
176
     1
 62
     7
176
     1
 62
   257
176
     1
 90
        1
176
     1
 90
        1
176
     1
 40
1.0
176
     1
 90
        8
176
     1
 62
     7
176
     1
 40
1.0
176
     1
 90
        1
176
     1
 90
        6
176
     1
 90
        2
176
     1
 62
     7
176
     1
 90
        5
176
     1
 90
        0
176
     1
 90
        0
176
     1
290
     0
176
     1
 90
       13
176
     1
 40
0.0
176
     1
 90
        0
176
     1
290
     0
176
     1
290
     1
176
     1
290
     1
176
     1
290
     0
176
     1
290
     0
176
     1
290
     0
176
     1
290
     0
176
     1
290
     0
176
     1
290
     0
176
     1
 90
       50
176
     1
 40
0.0
176
     1
 40
1.0
176
     1
 90
        0
176
     1
 62
    18
420
        0
176
     1
 90
       50
176
     1
 90
        3
176
     1
 62
     5
420
      255
176
     1
290
     0
176
     1
 90
       50
176
     1
 90
       50
176
     1
 90
       50
176
     1
290
     0
176
     1
 90
       50
176
     1
 62
   256
176
     0
 40
1.0
176
     0
 90
        2
176
     1
  1
strokes_ogs.tif
176
     1
290
     0
176
     1
 40
1.0
176
     1
 40
1.0
176
     1
  0
VISUALSTYLE
  5
2B
102
{ACAD_REACTORS
330
29
102
}
330
29
100
AcDbVisualStyle
  2
FlatWithEdges
 70
     1
177
     3
291
     1
 70
    58
 90
        2
176
     1
 90
        1
176
     1
 90
        1
176
     1
 90
        2
176
     1
 40
0.6
176
     1
 40
30.0
176
     1
 62
     7
420
 16777215
176
     1
 90
        1
176
     1
 90
        0
176
     1
 62
     7
176
     1
 62
   257
176
     1
 90
        1
176
     1
 90
        1
176
     1
 40
1.0
176
     1
 90
        0
176
     1
 62
   257
176
     1
 40
1.0
176
     1
 90
        1
176
     1
 90
        6
176
     1
 90
        2
176
     1
 62
     7
176
     1
 90
        5
176
     1
 90
        0
176
     1
 90
        0
176
     1
290
     0
176
     1
 90
       13
176
     1
 40
0.0
176
     1
 90
        0
176
     1
290
     0
176
     1
290
     1
176
     1
290
     1
176
     1
290
     0
176
     1
290
     0
176
     1
290
     0
176
     1
290
     0
176
     1
290
     0
176
     1
290
     0
176
     1
 90
       50
176
     1
 40
0.0
176
     1
 40
1.0
176
     1
 90
        0
176
     1
 62
    18
420
        0
176
     1
 90
       50
176
     1
 90
        3
176
     1
 62
     5
420
      255
176
     1
290
     0
176
     1
 90
       50
176
     1
 90
       50
176
     1
 90
       50
176
     1
290
     0
176
     1
 90
       50
176
     1
 62
   256
176
     0
 40
1.0
176
     0
 90
        2
176
     1
  1
strokes_ogs.tif
176
     1
290
     0
176
     1
 40
1.0
176
     1
 40
1.0
176
     1
  0
VISUALSTYLE
  5
2C
102
{ACAD_REACTORS
330
29
102
}
330
29
100
AcDbVisualStyle
  2
Gouraud
 70
     2
177
     3
291
     1
 70
    58
 90
        2
176
     1
 90
        2
176
     1
 90
        1
176
     1
 90
        2
176
     1
 40
0.6
176
     1
 40
30.0
176
     1
 62
     7
420
 16777215
176
     1
 90
        0
176
     1
 90
        0
176
     1
 62
     7
176
     1
 62
   257
176
     1
 90
        1
176
     1
 90
        1
176
     1
 40
1.0
176
     1
 90
        0
176
     1
 62
     7
176
     1
 40
1.0
176
     1
 90
        1
176
     1
 90
        6
176
     1
 90
        2
176
     1
 62
     7
176
     1
 90
        5
176
     1
 90
        0
176
     1
 90
        0
176
     1
290
     0
176
     1
 90
       13
176
     1
 40
0.0
176
     1
 90
        0
176
     1
290
     0
176
     1
290
     1
176
     1
290
     1
176
     1
290
     0
176
     1
290
     0
176
     1
290
     0
176
     1
290
     0
176
     1
290
     0
176
     1
290
     0
176
     1
 90
       50
176
     1
 40
0.0
176
     1
 40
1.0
176
     1
 90
        0
176
     1
 62
    18
420
        0
176
     1
 90
       50
176
     1
 90
        3
176
     1
 62
     5
420
      255
176
     1
290
     0
176
     1
 90
       50
176
     1
 90
       50
176
     1
 90
       50
176
     1
290
     0
176
     1
 90
       50
176
     1
 62
   256
176
     0
 40
1.0
176
     0
 90
        2
176
     1
  1
strokes_ogs.tif
176
     1
290
     0
176
     1
 40
1.0
176
     1
 40
1.0
176
     1
  0
VISUALSTYLE
  5
2D
102
{ACAD_REACTORS
330
29
102
}
330
29
100
AcDbVisualStyle
  2
GouraudWithEdges
 70
     3
177
     3
291
     1
 70
    58
 90
        2
176
     1
 90
        2
176
     1
 90
        1
176
     1
 90
        2
176
     1
 40
0.6
176
     1
 40
30.0
176
     1
 62
     7
420
 16777215
176
     1
 90
        1
176
     1
 90
        0
176
     1
 62
     7
176
     1
 62
   257
176
     1
 90
        1
176
     1
 90
        1
176
     1
 40
1.0
176
     1
 90
        0
176
     1
 62
   257
176
     1
 40
1.0
176
     1
 90
        1
176
     1
 90
        6
176
     1
 90
        2
176
     1
 62
     7
176
     1
 90
        5
176
     1
 90
        0
176
     1
 90
        0
176
     1
290
     0
176
     1
 90
       13
176
     1
 40
0.0
176
     1
 90
        0
176
     1
290
     0
176
     1
290
     1
176
     1
290
     1
176
     1
290
     0
176
     1
290
     0
176
     1
290
     0
176
     1
290
     0
176
     1
290
     0
176
     1
290
     0
176
     1
 90
       50
176
     1
 40
0.0
176
     1
 40
1.0
176
     1
 90
        0
176
     1
 62
    18
420
        0
176
     1
 90
       50
176
     1
 90
        3
176
     1
 62
     5
420
      255
176
     1
290
     0
176
     1
 90
       50
176
     1
 90
       50
176
     1
 90
       50
176
     1
290
     0
176
     1
 90
       50
176
     1
 62
   256
176
     0
 40
1.0
176
     0
 90
        2
176
     1
  1
strokes_ogs.tif
176
     1
290
     0
176
     1
 40
1.0
176
     1
 40
1.0
176
     1
  0
VISUALSTYLE
  5
31
102
{ACAD_REACTORS
330
29
102
}
330
29
100
AcDbVisualStyle
  2
Hidden
 70
     6
177
     3
291
     0
 70
    58
 90
        1
176
     1
 90
        2
176
     1
 90
        2
176
     1
 90
        0
176
     1
 40
0.6
176
     1
 40
30.0
176
     1
 62
     7
420
 16777215
176
     1
 90
        2
176
     1
 90
        2
176
     1
 62
     7
176
     1
 62
   257
176
     1
 90
        2
176
     1
 90
        1
176
     1
 40
40.0
176
     1
 90
        0
176
     1
 62
   257
176
     1
 40
1.0
176
     1
 90
        1
176
     1
 90
        6
176
     1
 90
        2
176
     1
 62
     7
176
     1
 90
        3
176
     1
 90
        0
176
     1
 90
        0
176
     1
290
     0
176
     1
 90
        1
176
     1
 40
0.0
176
     1
 90
        0
176
     1
290
     0
176
     1
290
     1
176
     1
290
     1
176
     1
290
     0
176
     1
290
     0
176
     1
290
     0
176
     1
290
     0
176
     1
290
     0
176
     1
290
     0
176
     1
 90
       50
176
     1
 40
0.0
176
     1
 40
1.0
176
     1
 90
        0
176
     1
 62
    18
420
        0
176
     1
 90
       50
176
     1
 90
        3
176
     1
 62
     5
420
      255
176
     1
290
     0
176
     1
 90
       50
176
     1
 90
       50
176
     1
 90
       50
176
     1
290
     0
176
     1
 90
       50
176
     1
 62
   256
176
     0
 40
1.0
176
     0
 90
        2
176
     1
  1
strokes_ogs.tif
176
     1
290
     0
176
     1
 40
1.0
176
     1
 40
1.0
176
     1
  0
VISUALSTYLE
  5
3F
102
{ACAD_REACTORS
330
29
102
}
330
29
100
AcDbVisualStyle
  2
JitterOff
 70
    20
177
     3
291
     1
 70
    58
 90
        2
176
     0
 90
        2
176
     0
 90
        0
176
     0
 90
        0
176
     0
 40
0.6
176
     0
 40
30.0
176
     0
 62
     7
420
 16777215
176
     0
 90
        1
176
     0
 90
        4
176
     0
 62
     7
176
     0
 62
   257
176
     0
 90
        1
176
     0
 90
        1
176
     0
 40
1.0
176
     0
 90
       10
176
     2
 62
     7
176
     0
 40
1.0
176
     0
 90
        1
176
     0
 90
        6
176
     0
 90
        2
176
     0
 62
     7
176
     0
 90
        5
176
     0
 90
        0
176
     0
 90
        0
176
     0
290
     0
176
     0
 90
        1
176
     0
 40
0.0
176
     0
 90
        0
176
     0
290
     0
176
     0
290
     1
176
     0
290
     1
176
     0
290
     0
176
     0
290
     0
176
     0
290
     0
176
     0
290
     0
176
     0
290
     0
176
     0
290
     0
176
     0
 90
       50
176
     0
 40
0.0
176
     0
 40
1.0
176
     0
 90
        0
176
     0
 62
    18
420
        0
176
     0
 90
       50
176
     0
 90
        3
176
     0
 62
     5
420
      255
176
     0
290
     0
176
     0
 90
       50
176
     0
 90
       50
176
     0
 90
       50
176
     0
290
     0
176
     0
 90
       50
176
     0
 62
   256
176
     0
 40
1.0
176
     0
 90
        2
176
     0
  1
strokes_ogs.tif
176
     0
290
     0
176
     0
 40
1.0
176
     0
 40
1.0
176
     0
  0
VISUALSTYLE
  5
37
102
{ACAD_REACTORS
330
29
102
}
330
29
100
AcDbVisualStyle
  2
Linepattern
 70
    14
177
     3
291
     1
 70
    58
 90
        2
176
     1
 90
        2
176
     1
 90
        0
176
     1
 90
        0
176
     1
 40
0.6
176
     1
 40
30.0
176
     1
 62
     7
420
 16777215
176
     1
 90
        1
176
     1
 90
        4
176
     1
 62
     7
176
     1
 62
   257
176
     1
 90
        7
176
     1
 90
        7
176
     1
 40
1.0
176
     1
 90
        8
176
     1
 62
     7
176
     1
 40
1.0
176
     1
 90
        1
176
     1
 90
        6
176
     1
 90
        2
176
     1
 62
     7
176
     1
 90
        5
176
     1
 90
        0
176
     1
 90
        0
176
     1
290
     0
176
     1
 90
        1
176
     1
 40
0.0
176
     1
 90
        0
176
     1
290
     0
176
     1
290
     1
176
     1
290
     1
176
     1
290
     0
176
     1
290
     0
176
     1
290
     0
176
     1
290
     0
176
     1
290
     0
176
     1
290
     0
176
     1
 90
       50
176
     1
 40
0.0
176
     1
 40
1.0
176
     1
 90
        0
176
     1
 62
    18
420
        0
176
     1
 90
       50
176
     1
 90
        3
176
     1
 62
     5
420
      255
176
     1
290
     0
176
     1
 90
       50
176
     1
 90
       50
176
     1
 90
       50
176
     1
290
     0
176
     1
 90
       50
176
     1
 62
   256
176
     0
 40
1.0
176
     0
 90
        2
176
     1
  1
strokes_ogs.tif
176
     1
290
     0
176
     1
 40
1.0
176
     1
 40
1.0
176
     1
  0
VISUALSTYLE
  5
40
102
{ACAD_REACTORS
330
29
102
}
330
29
100
AcDbVisualStyle
  2
OverhangOff
 70
    21
177
     3
291
     1
 70
    58
 90
        2
176
     0
 90
        2
176
     0
 90
        0
176
     0
 90
        0
176
     0
 40
0.6
176
     0
 40
30.0
176
     0
 62
     7
420
 16777215
176
     0
 90
        1
176
     0
 90
        4
176
     0
 62
     7
176
     0
 62
   257
176
     0
 90
        1
176
     0
 90
        1
176
     0
 40
1.0
176
     0
 90
        9
176
     2
 62
     7
176
     0
 40
1.0
176
     0
 90
        1
176
     0
 90
        6
176
     0
 90
        2
176
     0
 62
     7
176
     0
 90
        5
176
     0
 90
        0
176
     0
 90
        0
176
     0
290
     0
176
     0
 90
        1
176
     0
 40
0.0
176
     0
 90
        0
176
     0
290
     0
176
     0
290
     1
176
     0
290
     1
176
     0
290
     0
176
     0
290
     0
176
     0
290
     0
176
     0
290
     0
176
     0
290
     0
176
     0
290
     0
176
     0
 90
       50
176
     0
 40
0.0
176
     0
 40
1.0
176
     0
 90
        0
176
     0
 62
    18
420
        0
176
     0
 90
       50
176
     0
 90
        3
176
     0
 62
     5
420
      255
176
     0
290
     0
176
     0
 90
       50
176
     0
 90
       50
176
     0
 90
       50
176
     0
290
     0
176
     0
 90
       50
176
     0
 62
   256
176
     0
 40
1.0
176
     0
 90
        2
176
     0
  1
strokes_ogs.tif
176
     0
290
     0
176
     0
 40
1.0
176
     0
 40
1.0
176
     0
  0
VISUALSTYLE
  5
33
102
{ACAD_REACTORS
330
29
102
}
330
29
100
AcDbVisualStyle
  2
Realistic
 70
     8
177
     3
291
     0
 70
    58
 90
        2
176
     1
 90
        3
176
     1
 90
        0
176
     1
 90
        2
176
     1
 40
0.6
176
     1
 40
30.0
176
     1
 62
     7
420
 16777215
176
     1
 90
        0
176
     1
 90
        0
176
     1
 62
     7
176
     1
 62
   257
176
     1
 90
        1
176
     1
 90
        1
176
     1
 40
1.0
176
     1
 90
        8
176
     1
 62
   257
176
     1
 40
1.0
176
     1
 90
        1
176
     1
 90
        6
176
     1
 90
        2
176
     1
 62
     7
176
     1
 90
        3
176
     1
 90
        0
176
     1
 90
        0
176
     1
290
     0
176
     1
 90
       13
176
     1
 40
0.0
176
     1
 90
        0
176
     1
290
     0
176
     1
290
     1
176
     1
290
     1
176
     1
290
     0
176
     1
290
     0
176
     1
290
     0
176
     1
290
     0
176
     1
290
     0
176
     1
290
     0
176
     1
 90
       50
176
     1
 40
0.0
176
     1
 40
1.0
176
     1
 90
        0
176
     1
 62
    18
420
        0
176
     1
 90
       50
176
     1
 90
        3
176
     1
 62
     5
420
      255
176
     1
290
     0
176
     1
 90
       50
176
     1
 90
       50
176
     1
 90
       50
176
     1
290
     0
176
     1
 90
       50
176
     1
 62
   256
176
     0
 40
1.0
176
     0
 90
        2
176
     1
  1
strokes_ogs.tif
176
     1
290
     0
176
     1
 40
1.0
176
     1
 40
1.0
176
     1
  0
VISUALSTYLE
  5
3E
102
{ACAD_REACTORS
330
29
102
}
330
29
100
AcDbVisualStyle
  2
Shaded
 70
    27
177
     3
291
     0
 70
    58
 90
        2
176
     1
 90
        2
176
     1
 90
        1
176
     1
 90
        2
176
     1
 40
0.6
176
     1
 40
30.0
176
     1
 62
     7
420
 16777215
176
     1
 90
        0
176
     1
 90
        4
176
     1
 62
     7
176
     1
 62
   257
176
     1
 90
        1
176
     1
 90
        1
176
     1
 40
1.0
176
     1
 90
        8
176
     1
 62
   257
176
     1
 40
1.0
176
     1
 90
        1
176
     1
 90
        6
176
     1
 90
        2
176
     1
 62
     8
420
  7895160
176
     1
 90
        3
176
     1
 90
        0
176
     1
 90
        0
176
     1
290
     0
176
     1
 90
        5
176
     1
 40
0.0
176
     1
 90
        0
176
     1
290
     0
176
     1
290
     1
176
     1
290
     1
176
     1
290
     0
176
     1
290
     0
176
     1
290
     0
176
     1
290
     0
176
     1
290
     0
176
     1
290
     0
176
     1
 90
       50
176
     1
 40
0.0
176
     1
 40
1.0
176
     1
 90
        0
176
     1
 62
    18
420
        0
176
     1
 90
       50
176
     1
 90
        3
176
     1
 62
     5
420
      255
176
     1
290
     0
176
     1
 90
       50
176
     1
 90
       50
176
     1
 90
       50
176
     1
290
     0
176
     1
 90
       50
176
     1
 62
   256
176
     0
 40
1.0
176
     0
 90
        2
176
     1
  1
strokes_ogs.tif
176
     1
290
     0
176
     1
 40
1.0
176
     1
 40
1.0
176
     1
  0
VISUALSTYLE
  5
3D
102
{ACAD_REACTORS
330
29
102
}
330
29
100
AcDbVisualStyle
  2
Shaded with edges
 70
    26
177
     3
291
     0
 70
    58
 90
        2
176
     1
 90
        2
176
     1
 90
        1
176
     1
 90
        2
176
     1
 40
0.6
176
     1
 40
30.0
176
     1
 62
     7
420
 16777215
176
     1
 90
        1
176
     1
 90
        2
176
     1
 62
     7
176
     1
 62
   257
176
     1
 90
        2
176
     1
 90
        1
176
     1
 40
1.0
176
     1
 90
        8
176
     1
 62
   257
176
     1
 40
1.0
176
     1
 90
        1
176
     1
 90
        6
176
     1
 90
        2
176
     1
 62
     7
176
     1
 90
        3
176
     1
 90
        0
176
     1
 90
        0
176
     1
290
     0
176
     1
 90
        5
176
     1
 40
0.0
176
     1
 90
        0
176
     1
290
     0
176
     1
290
     1
176
     1
290
     1
176
     1
290
     0
176
     1
290
     0
176
     1
290
     0
176
     1
290
     0
176
     1
290
     0
176
     1
290
     0
176
     1
 90
       50
176
     1
 40
0.0
176
     1
 40
1.0
176
     1
 90
        0
176
     1
 62
    18
420
        0
176
     1
 90
       50
176
     1
 90
        3
176
     1
 62
     5
420
      255
176
     1
290
     0
176
     1
 90
       50
176
     1
 90
       50
176
     1
 90
       50
176
     1
290
     0
176
     1
 90
       50
176
     1
 62
   256
176
     0
 40
1.0
176
     0
 90
        2
176
     1
  1
strokes_ogs.tif
176
     1
290
     0
176
     1
 40
1.0
176
     1
 40
1.0
176
     1
  0
VISUALSTYLE
  5
3A
102
{ACAD_REACTORS
330
29
102
}
330
29
100
AcDbVisualStyle
  2
Shades of Gray
 70
    23
177
     3
291
     0
 70
    58
 90
        2
176
     1
 90
        2
176
     1
 90
        3
176
     1
 90
        0
176
     1
 40
0.6
176
     1
 40
30.0
176
     1
 62
     7
420
 16777215
176
     1
 90
        2
176
     1
 90
        2
176
     1
 62
     7
176
     1
 62
     7
176
     1
 90
        1
176
     1
 90
        1
176
     1
 40
40.0
176
     1
 90
        8
176
     1
 62
     7
176
     1
 40
1.0
176
     1
 90
        1
176
     1
 90
        6
176
     1
 90
        2
176
     1
 62
     7
176
     1
 90
        3
176
     1
 90
        0
176
     1
 90
        0
176
     1
290
     0
176
     1
 90
        1
176
     1
 40
0.0
176
     1
 90
        0
176
     1
290
     0
176
     1
290
     1
176
     1
290
     1
176
     1
290
     0
176
     1
290
     0
176
     1
290
     0
176
     1
290
     0
176
     1
290
     0
176
     1
290
     0
176
     1
 90
       50
176
     1
 40
0.0
176
     1
 40
1.0
176
     1
 90
        0
176
     1
 62
    18
420
        0
176
     1
 90
       50
176
     1
 90
        3
176
     1
 62
     5
420
      255
176
     1
290
     0
176
     1
 90
       50
176
     1
 90
       50
176
     1
 90
       50
176
     1
290
     0
176
     1
 90
       50
176
     1
 62
   256
176
     0
 40
1.0
176
     0
 90
        2
176
     1
  1
strokes_ogs.tif
176
     1
290
     0
176
     1
 40
1.0
176
     1
 40
1.0
176
     1
  0
VISUALSTYLE
  5
3B
102
{ACAD_REACTORS
330
29
102
}
330
29
100
AcDbVisualStyle
  2
Sketchy
 70
    24
177
     3
291
     0
 70
    58
 90
        1
176
     1
 90
        2
176
     1
 90
        2
176
     1
 90
        0
176
     1
 40
0.6
176
     1
 40
30.0
176
     1
 62
     7
420
 16777215
176
     1
 90
        2
176
     1
 90
        2
176
     1
 62
     7
176
     1
 62
     7
176
     1
 90
        1
176
     1
 90
        1
176
     1
 40
40.0
176
     1
 90
       11
176
     1
 62
     7
176
     1
 40
1.0
176
     1
 90
        1
176
     1
 90
        6
176
     1
 90
        2
176
     1
 62
     7
176
     1
 90
        6
176
     1
 90
        0
176
     1
 90
        0
176
     1
290
     0
176
     1
 90
        1
176
     1
 40
0.0
176
     1
 90
        0
176
     1
290
     0
176
     1
290
     1
176
     1
290
     1
176
     1
290
     0
176
     1
290
     0
176
     1
290
     0
176
     1
290
     0
176
     1
290
     0
176
     1
290
     0
176
     1
 90
       50
176
     1
 40
0.0
176
     1
 40
1.0
176
     1
 90
        0
176
     1
 62
    18
420
        0
176
     1
 90
       50
176
     1
 90
        3
176
     1
 62
     5
420
      255
176
     1
290
     0
176
     1
 90
       50
176
     1
 90
       50
176
     1
 90
       50
176
     1
290
     0
176
     1
 90
       50
176
     1
 62
   256
176
     0
 40
1.0
176
     0
 90
        2
176
     1
  1
strokes_ogs.tif
176
     1
290
     0
176
     1
 40
1.0
176
     1
 40
1.0
176
     1
  0
VISUALSTYLE
  5
36
102
{ACAD_REACTORS
330
29
102
}
330
29
100
AcDbVisualStyle
  2
Thicken
 70
    13
177
     3
291
     1
 70
    58
 90
        2
176
     1
 90
        2
176
     1
 90
        0
176
     1
 90
        0
176
     1
 40
0.6
176
     1
 40
30.0
176
     1
 62
     7
420
 16777215
176
     1
 90
        1
176
     1
 90
        4
176
     1
 62
     7
176
     1
 62
   257
176
     1
 90
        1
176
     1
 90
        1
176
     1
 40
1.0
176
     1
 90
       12
176
     1
 62
     7
176
     1
 40
1.0
176
     1
 90
        1
176
     1
 90
        6
176
     1
 90
        2
176
     1
 62
     7
176
     1
 90
        5
176
     1
 90
        0
176
     1
 90
        0
176
     1
290
     0
176
     1
 90
        1
176
     1
 40
0.0
176
     1
 90
        0
176
     1
290
     0
176
     1
290
     1
176
     1
290
     1
176
     1
290
     0
176
     1
290
     0
176
     1
290
     0
176
     1
290
     0
176
     1
290
     0
176
     1
290
     0
176
     1
 90
       50
176
     1
 40
0.0
176
     1
 40
1.0
176
     1
 90
        0
176
     1
 62
    18
420
        0
176
     1
 90
       50
176
     1
 90
        3
176
     1
 62
     5
420
      255
176
     1
290
     0
176
     1
 90
       50
176
     1
 90
       50
176
     1
 90
       50
176
     1
290
     0
176
     1
 90
       50
176
     1
 62
   256
176
     0
 40
1.0
176
     0
 90
        2
176
     1
  1
strokes_ogs.tif
176
     1
290
     0
176
     1
 40
1.0
176
     1
 40
1.0
176
     1
  0
VISUALSTYLE
  5
30
102
{ACAD_REACTORS
330
29
102
}
330
29
100
AcDbVisualStyle
  2
Wireframe
 70
     5
177
     3
291
     0
 70
    58
 90
        0
176
     1
 90
        2
176
     1
 90
        0
176
     1
 90
        0
176
     1
 40
0.6
176
     1
 40
30.0
176
     1
 62
     7
420
 16777215
176
     1
 90
        1
176
     1
 90
        4
176
     1
 62
     7
176
     1
 62
   257
176
     1
 90
        1
176
     1
 90
        1
176
     1
 40
1.0
176
     1
 90
        0
176
     1
 62
   257
176
     1
 40
1.0
176
     1
 90
        1
176
     1
 90
        6
176
     1
 90
        2
176
     1
 62
     7
176
     1
 90
        3
176
     1
 90
        0
176
     1
 90
        0
176
     1
290
     0
176
     1
 90
        1
176
     1
 40
0.0
176
     1
 90
        0
176
     1
290
     0
176
     1
290
     1
176
     1
290
     1
176
     1
290
     0
176
     1
290
     0
176
     1
290
     0
176
     1
290
     0
176
     1
290
     0
176
     1
290
     0
176
     1
 90
       50
176
     1
 40
0.0
176
     1
 40
1.0
176
     1
 90
        0
176
     1
 62
    18
420
        0
176
     1
 90
       50
176
     1
 90
        3
176
     1
 62
     5
420
      255
176
     1
290
     0
176
     1
 90
       50
176
     1
 90
       50
176
     1
 90
       50
176
     1
290
     0
176
     1
 90
       50
176
     1
 62
   256
176
     0
 40
1.0
176
     0
 90
        2
176
     1
  1
strokes_ogs.tif
176
     1
290
     0
176
     1
 40
1.0
176
     1
 40
1.0
176
     1
  0
VISUALSTYLE
  5
3C
102
{ACAD_REACTORS
330
29
102
}
330
29
100
AcDbVisualStyle
  2
X-Ray
 70
    25
177
     3
291
     0
 70
    58
 90
        2
176
     1
 90
        2
176
     1
 90
        1
176
     1
 90
        1
176
     1
 40
0.5
176
     1
 40
30.0
176
     1
 62
     7
420
 16777215
176
     1
 90
        1
176
     1
 90
        0
176
     1
 62
     7
176
     1
 62
   257
176
     1
 90
        1
176
     1
 90
        1
176
     1
 40
1.0
176
     1
 90
        8
176
     1
 62
     7
176
     1
 40
1.0
176
     1
 90
        1
176
     1
 90
        6
176
     1
 90
        2
176
     1
 62
     7
176
     1
 90
        3
176
     1
 90
        0
176
     1
 90
        0
176
     1
290
     0
176
     1
 90
       13
176
     1
 40
0.0
176
     1
 90
        0
176
     1
290
     0
176
     1
290
     1
176
     1
290
     1
176
     1
290
     0
176
     1
290
     0
176
     1
290
     0
176
     1
290
     0
176
     1
290
     0
176
     1
290
     0
176
     1
 90
       50
176
     1
 40
0.0
176
     1
 40
1.0
176
     1
 90
        0
176
     1
 62
    18
420
        0
176
     1
 90
       50
176
     1
 90
        3
176
     1
 62
     5
420
      255
176
     1
290
     0
176
     1
 90
       50
176
     1
 90
       50
176
     1
 90
       50
176
     1
290
     0
176
     1
 90
       50
176
     1
 62
   256
176
     0
 40
1.0
176
     0
 90
        2
176
     1
  1
strokes_ogs.tif
176
     1
290
     0
176
     1
 40
1.0
176
     1
 40
1.0
176
     1
  0
DICTIONARYVAR
  5
1AC
102
{ACAD_REACTORS
330
1A7
102
}
330
1A7
100
DictionaryVariables
280
     0
  1
1:1
  0
DICTIONARYVAR
  5
1A9
102
{ACAD_REACTORS
330
1A7
102
}
330
1A7
100
DictionaryVariables
280
     0
  1
STANDARD
  0
DICTIONARYVAR
  5
1A8
102
{ACAD_REACTORS
330
1A7
102
}
330
1A7
100
DictionaryVariables
280
     0
  1
STANDARD
  0
DICTIONARYVAR
  5
1AA
102
{ACAD_REACTORS
330
1A7
102
}
330
1A7
100
DictionaryVariables
280
     0
  1
Imperial24
  0
DICTIONARYVAR
  5
1AB
102
{ACAD_REACTORS
330
1A7
102
}
330
1A7
100
DictionaryVariables
280
     0
  1
Imperial24
  0
DICTIONARY
  5
1A
330
19
100
AcDbDictionary
280
     1
281
     1
  3
BUMPTILE
360
1C
  3
DIFFUSETILE
360
1B
  3
OPACITYTILE
360
1F
  3
REFLECTIONTILE
360
1E
  3
REFRACTIONTILE
360
20
  3
SPECULARTILE
360
1D
  0
DICTIONARY
  5
12
330
11
100
AcDbDictionary
280
     1
281
     1
  3
BUMPTILE
360
14
  3
DIFFUSETILE
360
13
  3
OPACITYTILE
360
17
  3
REFLECTIONTILE
360
16
  3
REFRACTIONTILE
360
18
  3
SPECULARTILE
360
15
  0
DICTIONARY
  5
22
330
21
100
AcDbDictionary
280
     1
281
     1
  3
BUMPTILE
360
24
  3
DIFFUSETILE
360
23
  3
OPACITYTILE
360
27
  3
REFLECTIONTILE
360
26
  3
REFRACTIONTILE
360
28
  3
SPECULARTILE
360
25
  0
DICTIONARY
  5
1AD
330
65
100
AcDbDictionary
280
     1
281
     1
  3
ACAD_ROUNDTRIP_2008_TABLESTYLE_CELLSTYLEMAP
360
1AE
  0
XRECORD
  5
1C
102
{ACAD_REACTORS
330
1A
102
}
330
1A
100
AcDbXrecord
280
     1
270
     1
271
     1
  0
XRECORD
  5
1B
102
{ACAD_REACTORS
330
1A
102
}
330
1A
100
AcDbXrecord
280
     1
270
     1
271
     1
  0
XRECORD
  5
1F
102
{ACAD_REACTORS
330
1A
102
}
330
1A
100
AcDbXrecord
280
     1
270
     1
271
     1
  0
XRECORD
  5
1E
102
{ACAD_REACTORS
330
1A
102
}
330
1A
100
AcDbXrecord
280
     1
270
     1
271
     1
  0
XRECORD
  5
20
102
{ACAD_REACTORS
330
1A
102
}
330
1A
100
AcDbXrecord
280
     1
270
     1
271
     1
  0
XRECORD
  5
1D
102
{ACAD_REACTORS
330
1A
102
}
330
1A
100
AcDbXrecord
280
     1
270
     1
271
     1
  0
XRECORD
  5
14
102
{ACAD_REACTORS
330
12
102
}
330
12
100
AcDbXrecord
280
     1
270
     1
271
     1
  0
XRECORD
  5
13
102
{ACAD_REACTORS
330
12
102
}
330
12
100
AcDbXrecord
280
     1
270
     1
271
     1
  0
XRECORD
  5
17
102
{ACAD_REACTORS
330
12
102
}
330
12
100
AcDbXrecord
280
     1
270
     1
271
     1
  0
XRECORD
  5
16
102
{ACAD_REACTORS
330
12
102
}
330
12
100
AcDbXrecord
280
     1
270
     1
271
     1
  0
XRECORD
  5
18
102
{ACAD_REACTORS
330
12
102
}
330
12
100
AcDbXrecord
280
     1
270
     1
271
     1
  0
XRECORD
  5
15
102
{ACAD_REACTORS
330
12
102
}
330
12
100
AcDbXrecord
280
     1
270
     1
271
     1
  0
XRECORD
  5
24
102
{ACAD_REACTORS
330
22
102
}
330
22
100
AcDbXrecord
280
     1
270
     1
271
     1
  0
XRECORD
  5
23
102
{ACAD_REACTORS
330
22
102
}
330
22
100
AcDbXrecord
280
     1
270
     1
271
     1
  0
XRECORD
  5
27
102
{ACAD_REACTORS
330
22
102
}
330
22
100
AcDbXrecord
280
     1
270
     1
271
     1
  0
XRECORD
  5
26
102
{ACAD_REACTORS
330
22
102
}
330
22
100
AcDbXrecord
280
     1
270
     1
271
     1
  0
XRECORD
  5
28
102
{ACAD_REACTORS
330
22
102
}
330
22
100
AcDbXrecord
280
     1
270
     1
271
     1
  0
XRECORD
  5
25
102
{ACAD_REACTORS
330
22
102
}
330
22
100
AcDbXrecord
280
     1
270
     1
271
     1
  0
CELLSTYLEMAP
  5
1AE
102
{ACAD_REACTORS
330
1AD
102
}
330
1AD
100
AcDbCellStyleMap
 90
        3
300
CELLSTYLE
  1
TABLEFORMAT_BEGIN
 90
        5
170
     1
 91
        0
 92
    32768
 62
   257
 93
        1
300
CONTENTFORMAT
  1
CONTENTFORMAT_BEGIN
 90
        0
 91
        0
 92
      512
 93
        0
300

 40
0.0
140
1.0
 94
        5
 62
     0
340
55
144
0.25
309
CONTENTFORMAT_END
171
     0
 94
        0
309
TABLEFORMAT_END
  1
CELLSTYLE_BEGIN
 90
        1
 91
        1
300
_TITLE
309
CELLSTYLE_END
300
CELLSTYLE
  1
TABLEFORMAT_BEGIN
 90
        5
170
     1
 91
        0
 92
        0
 62
   257
 93
        1
300
CONTENTFORMAT
  1
CONTENTFORMAT_BEGIN
 90
        0
 91
        0
 92
      512
 93
        0
300

 40
0.0
140
1.0
 94
        5
 62
     0
340
55
144
0.18
309
CONTENTFORMAT_END
171
     0
 94
        0
309
TABLEFORMAT_END
  1
CELLSTYLE_BEGIN
 90
        2
 91
        1
300
_HEADER
309
CELLSTYLE_END
300
CELLSTYLE
  1
TABLEFORMAT_BEGIN
 90
        5
170
     1
 91
        0
 92
        0
 62
   257
 93
        1
300
CONTENTFORMAT
  1
CONTENTFORMAT_BEGIN
 90
        0
 91
        0
 92
      512
 93
        0
300

 40
0.0
140
1.0
 94
        2
 62
     0
340
55
144
0.18
309
CONTENTFORMAT_END
171
     0
 94
        0
309
TABLEFORMAT_END
  1
CELLSTYLE_BEGIN
 90
        3
 91
        2
300
_DATA
309
CELLSTYLE_END
  0
ENDSEC
  0
EOF
