  0
SECTION
  2
HEADER
  9
$ACADVER
  1
AC1032
  9
$ACADMAINTVER
 90
      228
  9
$DWGCODEPAGE
  3
ANSI_932
  9
$REQUIREDVERSIONS
160
                 0
  9
$INSBASE
 10
0.0
 20
0.0
 30
0.0
  9
$EXTMIN
 10
1.000000000000000E+20
 20
1.000000000000000E+20
 30
1.000000000000000E+20
  9
$EXTMAX
 10
-1.000000000000000E+20
 20
-1.000000000000000E+20
 30
-1.000000000000000E+20
  9
$LIMMIN
 10
0.0
 20
0.0
  9
$LIMMAX
 10
12.0
 20
9.0
  9
$ORTHOMODE
 70
     0
  9
$REGENMODE
 70
     1
  9
$FILLMODE
 70
     1
  9
$QTEXTMODE
 70
     0
  9
$MIRRTEXT
 70
     0
  9
$LTSCALE
 40
1.0
  9
$ATTMODE
 70
     1
  9
$TEXTSIZE
 40
0.2
  9
$TRACEWID
 40
0.05
  9
$TEXTSTYLE
  7
Standard
  9
$CLAYER
  8
0
  9
$CELTYPE
  6
ByLayer
  9
$CECOLOR
 62
   256
  9
$CELTSCALE
 40
1.0
  9
$DISPSILH
 70
     0
  9
$DIMSCALE
 40
1.0
  9
$DIMASZ
 40
0.18
  9
$DIMEXO
 40
0.0625
  9
$DIMDLI
 40
0.38
  9
$DIMRND
 40
0.0
  9
$DIMDLE
 40
0.0
  9
$DIMEXE
 40
0.18
  9
$DIMTP
 40
0.0
  9
$DIMTM
 40
0.0
  9
$DIMTXT
 40
0.18
  9
$DIMCEN
 40
0.09
  9
$DIMTSZ
 40
0.0
  9
$DIMTOL
 70
     0
  9
$DIMLIM
 70
     0
  9
$DIMTIH
 70
     1
  9
$DIMTOH
 70
     1
  9
$DIMSE1
 70
     0
  9
$DIMSE2
 70
     0
  9
$DIMTAD
 70
     0
  9
$DIMZIN
 70
     0
  9
$DIMBLK
  1

  9
$DIMASO
 70
     1
  9
$DIMSHO
 70
     1
  9
$DIMPOST
  1

  9
$DIMAPOST
  1

  9
$DIMALT
 70
     0
  9
$DIMALTD
 70
     2
  9
$DIMALTF
 40
25.4
  9
$DIMLFAC
 40
1.0
  9
$DIMTOFL
 70
     0
  9
$DIMTVP
 40
0.0
  9
$DIMTIX
 70
     0
  9
$DIMSOXD
 70
     0
  9
$DIMSAH
 70
     0
  9
$DIMBLK1
  1

  9
$DIMBLK2
  1

  9
$DIMSTYLE
  2
Standard
  9
$DIMCLRD
 70
     0
  9
$DIMCLRE
 70
     0
  9
$DIMCLRT
 70
     0
  9
$DIMTFAC
 40
1.0
  9
$DIMGAP
 40
0.09
  9
$DIMJUST
 70
     0
  9
$DIMSD1
 70
     0
  9
$DIMSD2
 70
     0
  9
$DIMTOLJ
 70
     1
  9
$DIMTZIN
 70
     0
  9
$DIMALTZ
 70
     0
  9
$DIMALTTZ
 70
     0
  9
$DIMUPT
 70
     0
  9
$DIMDEC
 70
     4
  9
$DIMTDEC
 70
     4
  9
$DIMALTU
 70
     2
  9
$DIMALTTD
 70
     2
  9
$DIMTXSTY
  7
Standard
  9
$DIMAUNIT
 70
     0
  9
$DIMADEC
 70
     0
  9
$DIMALTRND
 40
0.0
  9
$DIMAZIN
 70
     0
  9
$DIMDSEP
 70
    46
  9
$DIMATFIT
 70
     3
  9
$DIMFRAC
 70
     0
  9
$DIMLDRBLK
  1

  9
$DIMLUNIT
 70
     2
  9
$DIMLWD
 70
    -2
  9
$DIMLWE
 70
    -2
  9
$DIMTMOVE
 70
     0
  9
$DIMFXL
 40
1.0
  9
$DIMFXLON
 70
     0
  9
$DIMJOGANG
 40
0.7853981633974483
  9
$DIMTFILL
 70
     0
  9
$DIMTFILLCLR
 70
     0
  9
$DIMARCSYM
 70
     0
  9
$DIMLTYPE
  6

  9
$DIMLTEX1
  6

  9
$DIMLTEX2
  6

  9
$DIMTXTDIRECTION
 70
     0
  9
$LUNITS
 70
     2
  9
$LUPREC
 70
     4
  9
$SKETCHINC
 40
0.1
  9
$FILLETRAD
 40
0.0
  9
$AUNITS
 70
     0
  9
$AUPREC
 70
     0
  9
$MENU
  1
.
  9
$ELEVATION
 40
0.0
  9
$PELEVATION
 40
0.0
  9
$THICKNESS
 40
0.0
  9
$LIMCHECK
 70
     0
  9
$CHAMFERA
 40
0.0
  9
$CHAMFERB
 40
0.0
  9
$CHAMFERC
 40
0.0
  9
$CHAMFERD
 40
0.0
  9
$SKPOLY
 70
     0
  9
$TDCREATE
 40
2460062.648831019
  9
$TDUCREATE
 40
2460062.273831019
  9
$TDUPDATE
 40
2460062.648831019
  9
$TDUUPDATE
 40
2460062.273831019
  9
$TDINDWG
 40
0.0000000000
  9
$TDUSRTIMER
 40
0.0000000000
  9
$USRTIMER
 70
     1
  9
$ANGBASE
 50
0.0
  9
$ANGDIR
 70
     0
  9
$PDMODE
 70
     0
  9
$PDSIZE
 40
0.0
  9
$PLINEWID
 40
0.0
  9
$SPLFRAME
 70
     0
  9
$SPLINETYPE
 70
     6
  9
$SPLINESEGS
 70
     8
  9
$HANDSEED
  5
329
  9
$SURFTAB1
 70
     6
  9
$SURFTAB2
 70
     6
  9
$SURFTYPE
 70
     6
  9
$SURFU
 70
     6
  9
$SURFV
 70
     6
  9
$UCSBASE
  2

  9
$UCSNAME
  2

  9
$UCSORG
 10
0.0
 20
0.0
 30
0.0
  9
$UCSXDIR
 10
1.0
 20
0.0
 30
0.0
  9
$UCSYDIR
 10
0.0
 20
1.0
 30
0.0
  9
$UCSORTHOREF
  2

  9
$UCSORTHOVIEW
 70
     0
  9
$UCSORGTOP
 10
0.0
 20
0.0
 30
0.0
  9
$UCSORGBOTTOM
 10
0.0
 20
0.0
 30
0.0
  9
$UCSORGLEFT
 10
0.0
 20
0.0
 30
0.0
  9
$UCSORGRIGHT
 10
0.0
 20
0.0
 30
0.0
  9
$UCSORGFRONT
 10
0.0
 20
0.0
 30
0.0
  9
$UCSORGBACK
 10
0.0
 20
0.0
 30
0.0
  9
$PUCSBASE
  2

  9
$PUCSNAME
  2

  9
$PUCSORG
 10
0.0
 20
0.0
 30
0.0
  9
$PUCSXDIR
 10
1.0
 20
0.0
 30
0.0
  9
$PUCSYDIR
 10
0.0
 20
1.0
 30
0.0
  9
$PUCSORTHOREF
  2

  9
$PUCSORTHOVIEW
 70
     0
  9
$PUCSORGTOP
 10
0.0
 20
0.0
 30
0.0
  9
$PUCSORGBOTTOM
 10
0.0
 20
0.0
 30
0.0
  9
$PUCSORGLEFT
 10
0.0
 20
0.0
 30
0.0
  9
$PUCSORGRIGHT
 10
0.0
 20
0.0
 30
0.0
  9
$PUCSORGFRONT
 10
0.0
 20
0.0
 30
0.0
  9
$PUCSORGBACK
 10
0.0
 20
0.0
 30
0.0
  9
$USERI1
 70
     0
  9
$USERI2
 70
     0
  9
$USERI3
 70
     0
  9
$USERI4
 70
     0
  9
$USERI5
 70
     0
  9
$USERR1
 40
0.0
  9
$USERR2
 40
0.0
  9
$USERR3
 40
0.0
  9
$USERR4
 40
0.0
  9
$USERR5
 40
0.0
  9
$WORLDVIEW
 70
     1
  9
$SHADEDGE
 70
     3
  9
$SHADEDIF
 70
    70
  9
$TILEMODE
 70
     1
  9
$MAXACTVP
 70
    64
  9
$PINSBASE
 10
0.0
 20
0.0
 30
0.0
  9
$PLIMCHECK
 70
     0
  9
$PEXTMIN
 10
1.000000000000000E+20
 20
1.000000000000000E+20
 30
1.000000000000000E+20
  9
$PEXTMAX
 10
-1.000000000000000E+20
 20
-1.000000000000000E+20
 30
-1.000000000000000E+20
  9
$PLIMMIN
 10
0.0
 20
0.0
  9
$PLIMMAX
 10
12.0
 20
9.0
  9
$UNITMODE
 70
     0
  9
$VISRETAIN
 70
     1
  9
$PLINEGEN
 70
     0
  9
$PSLTSCALE
 70
     1
  9
$TREEDEPTH
 70
  3020
  9
$CMLSTYLE
  2
Standard
  9
$CMLJUST
 70
     0
  9
$CMLSCALE
 40
1.0
  9
$PROXYGRAPHICS
 70
     1
  9
$MEASUREMENT
 70
     0
  9
$CELWEIGHT
370
    -1
  9
$ENDCAPS
280
     0
  9
$JOINSTYLE
280
     0
  9
$LWDISPLAY
290
     1
  9
$INSUNITS
 70
     4
  9
$HYPERLINKBASE
  1

  9
$STYLESHEET
  1

  9
$XEDIT
290
     1
  9
$CEPSNTYPE
380
     0
  9
$PSTYLEMODE
290
     1
  9
$FINGERPRINTGUID
  2
{EA041A8C-2FC7-BC47-9A26-C287CC61F746}
  9
$VERSIONGUID
  2
{4AAABD81-19D4-C74F-BAAF-59066C6F8772}
  9
$EXTNAMES
290
     1
  9
$PSVPSCALE
 40
0.0
  9
$OLESTARTUP
290
     0
  9
$SORTENTS
280
   127
  9
$INDEXCTL
280
     0
  9
$HIDETEXT
280
     1
  9
$XCLIPFRAME
280
     2
  9
$HALOGAP
280
     0
  9
$OBSCOLOR
 70
   257
  9
$OBSLTYPE
280
     0
  9
$INTERSECTIONDISPLAY
280
     0
  9
$INTERSECTIONCOLOR
 70
   257
  9
$DIMASSOC
280
     2
  9
$PROJECTNAME
  1

  9
$CAMERADISPLAY
290
     0
  9
$LENSLENGTH
 40
50.0
  9
$CAMERAHEIGHT
 40
0.0
  9
$STEPSPERSEC
 40
2.0
  9
$STEPSIZE
 40
6.0
  9
$3DDWFPREC
 40
2.0
  9
$PSOLWIDTH
 40
0.25
  9
$PSOLHEIGHT
 40
4.0
  9
$LOFTANG1
 40
1.570796326794896
  9
$LOFTANG2
 40
1.570796326794896
  9
$LOFTMAG1
 40
0.0
  9
$LOFTMAG2
 40
0.0
  9
$LOFTPARAM
 70
     7
  9
$LOFTNORMALS
280
     1
  9
$LATITUDE
 40
37.795
  9
$LONGITUDE
 40
-122.394
  9
$NORTHDIRECTION
 40
0.0
  9
$TIMEZONE
 70
 -8000
  9
$LIGHTGLYPHDISPLAY
280
     1
  9
$TILEMODELIGHTSYNCH
280
     1
  9
$CMATERIAL
347
11
  9
$SOLIDHIST
280
     0
  9
$SHOWHIST
280
     1
  9
$DWFFRAME
280
     2
  9
$DGNFRAME
280
     0
  9
$REALWORLDSCALE
290
     1
  9
$INTERFERECOLOR
 62
     1
  9
$INTERFEREOBJVS
345
33
  9
$INTERFEREVPVS
346
30
  9
$CSHADOW
280
     0
  9
$SHADOWPLANELOCATION
 40
0.0
  0
ENDSEC
  0
SECTION
  2
CLASSES
  0
CLASS
  1
ACDBDICTIONARYWDFLT
  2
AcDbDictionaryWithDefault
  3
ObjectDBX Classes
 90
        0
 91
        1
280
     0
281
     0
  0
CLASS
  1
MATERIAL
  2
AcDbMaterial
  3
ObjectDBX Classes
 90
     1153
 91
        3
280
     0
281
     0
  0
CLASS
  1
VISUALSTYLE
  2
AcDbVisualStyle
  3
ObjectDBX Classes
 90
     4095
 91
       24
280
     0
281
     0
  0
CLASS
  1
SCALE
  2
AcDbScale
  3
ObjectDBX Classes
 90
     1153
 91
       17
280
     0
281
     0
  0
CLASS
  1
TABLESTYLE
  2
AcDbTableStyle
  3
ObjectDBX Classes
 90
     4095
 91
        1
280
     0
281
     0
  0
CLASS
  1
MLEADERSTYLE
  2
AcDbMLeaderStyle
  3
ACDB_MLEADERSTYLE_CLASS
 90
     4095
 91
        1
280
     0
281
     0
  0
CLASS
  1
ACDBSECTIONVIEWSTYLE
  2
AcDbSectionViewStyle
  3
ObjectDBX Classes
 90
     1025
 91
        1
280
     0
281
     0
  0
CLASS
  1
ACDBDETAILVIEWSTYLE
  2
AcDbDetailViewStyle
  3
ObjectDBX Classes
 90
     1025
 91
        1
280
     0
281
     0
  0
CLASS
  1
DICTIONARYVAR
  2
AcDbDictionaryVar
  3
ObjectDBX Classes
 90
        0
 91
        5
280
     0
281
     0
  0
CLASS
  1
CELLSTYLEMAP
  2
AcDbCellStyleMap
  3
ObjectDBX Classes
 90
     1152
 91
        1
280
     0
281
     0
  0
ENDSEC
  0
SECTION
  2
TABLES
  0
TABLE
  2
VPORT
  5
8
330
0
100
AcDbSymbolTable
 70
     1
  0
VPORT
  5
57
330
8
100
AcDbSymbolTableRecord
100
AcDbViewportTableRecord
  2
*Active
 70
     0
 10
0.0
 20
0.0
 11
1.0
 21
1.0
 12
0.0
 22
0.0
 13
0.0
 23
0.0
 14
1.0
 24
1.0
 15
0.0
 25
0.0
 16
0.0
 26
0.0
 36
1.0
 17
338.666666582
 27
190.4999999523745
 37
0.0
 40
388.8749999028462
 41
1.776612021857627
 42
50.0
 43
0.0
 44
0.0
 50
0.0
 51
0.0
 71
     0
 72
   100
 73
     1
 74
     1
 75
     0
 76
     0
 77
     0
 78
     0
281
     0
 65
     1
110
0.0
120
0.0
130
0.0
111
1.0
121
0.0
131
0.0
112
0.0
122
1.0
132
0.0
 79
     0
146
0.0
 60
     3
 61
     5
292
     1
282
     1
141
0.0
142
0.0
 63
   250
421
  3355443
  0
ENDTAB
  0
TABLE
  2
LTYPE
  5
5
330
0
100
AcDbSymbolTable
 70
     1
  0
LTYPE
  5
5B
330
5
100
AcDbSymbolTableRecord
100
AcDbLinetypeTableRecord
  2
ByBlock
 70
     0
  3

 72
    65
 73
     0
 40
0.0
  0
LTYPE
  5
5C
330
5
100
AcDbSymbolTableRecord
100
AcDbLinetypeTableRecord
  2
ByLayer
 70
     0
  3

 72
    65
 73
     0
 40
0.0
  0
LTYPE
  5
5D
330
5
100
AcDbSymbolTableRecord
100
AcDbLinetypeTableRecord
  2
Continuous
 70
     0
  3
Solid line
 72
    65
 73
     0
 40
0.0
  0
ENDTAB
  0
TABLE
  2
LAYER
  5
2
330
0
100
AcDbSymbolTable
 70
     4
  0
LAYER
  5
54
330
2
100
AcDbSymbolTableRecord
100
AcDbLayerTableRecord
  2
0
 70
     0
 62
     7
  6
Continuous
370
    -3
390
F
347
21
348
0
  0
LAYER
  5
78
330
2
100
AcDbSymbolTableRecord
100
AcDbLayerTableRecord
  2
FLAME
 70
     0
 62
     7
  6
Continuous
370
     0
390
F
347
21
348
0
  0
LAYER
  5
80
330
2
100
AcDbSymbolTableRecord
100
AcDbLayerTableRecord
  2
SPEC
 70
     0
 62
     7
  6
Continuous
370
     0
390
F
347
21
348
0
  0
LAYER
  5
83
330
2
100
AcDbSymbolTableRecord
100
AcDbLayerTableRecord
  2
HONTAI
 70
     0
 62
     7
  6
Continuous
370
     0
390
F
347
21
348
0
  0
ENDTAB
  0
TABLE
  2
STYLE
  5
3
330
0
100
AcDbSymbolTable
 70
     2
  0
STYLE
  5
55
330
3
100
AcDbSymbolTableRecord
100
AcDbTextStyleTableRecord
  2
Standard
 70
     0
 40
0.0
 41
1.0
 50
0.0
 71
     0
 42
0.2
  3
txt
  4

  0
STYLE
  5
5A
330
3
100
AcDbSymbolTableRecord
100
AcDbTextStyleTableRecord
  2
Annotative
 70
     0
 40
0.0
 41
1.0
 50
0.0
 71
     0
 42
0.2
  3
txt
  4

1001
AcadAnnotative
1000
AnnotativeData
1002
{
1070
     1
1070
     1
1002
}
  0
ENDTAB
  0
TABLE
  2
VIEW
  5
6
330
0
100
AcDbSymbolTable
 70
     0
  0
ENDTAB
  0
TABLE
  2
UCS
  5
7
330
0
100
AcDbSymbolTable
 70
     0
  0
ENDTAB
  0
TABLE
  2
APPID
  5
9
330
0
100
AcDbSymbolTable
 70
     2
  0
APPID
  5
56
330
9
100
AcDbSymbolTableRecord
100
AcDbRegAppTableRecord
  2
ACAD
 70
     0
  0
APPID
  5
5E
330
9
100
AcDbSymbolTableRecord
100
AcDbRegAppTableRecord
  2
AcadAnnotative
 70
     0
  0
ENDTAB
  0
TABLE
  2
DIMSTYLE
  5
A
330
0
100
AcDbSymbolTable
 70
     2
100
AcDbDimStyleTable
 71
     0
  0
DIMSTYLE
105
58
330
A
100
AcDbSymbolTableRecord
100
AcDbDimStyleTableRecord
  2
Standard
 70
     0
340
55
  0
DIMSTYLE
105
59
330
A
100
AcDbSymbolTableRecord
100
AcDbDimStyleTableRecord
  2
Annotative
 70
     0
340
55
1001
AcadAnnotative
1000
AnnotativeData
1002
{
1070
     1
1070
     1
1002
}
  0
ENDTAB
  0
TABLE
  2
BLOCK_RECORD
  5
1
330
0
100
AcDbSymbolTable
 70
     1
  0
BLOCK_RECORD
  5
70
330
1
100
AcDbSymbolTableRecord
100
AcDbBlockTableRecord
  2
*Model_Space
340
73
 70
     0
280
     1
281
     0
  0
BLOCK_RECORD
  5
6C
330
1
100
AcDbSymbolTableRecord
100
AcDbBlockTableRecord
  2
*Paper_Space
340
6F
 70
     0
280
     1
281
     0
  0
BLOCK_RECORD
  5
74
330
1
100
AcDbSymbolTableRecord
100
AcDbBlockTableRecord
  2
*Paper_Space0
340
77
 70
     0
280
     1
281
     0
  0
ENDTAB
  0
ENDSEC
  0
SECTION
  2
BLOCKS
  0
BLOCK
  5
71
330
70
100
AcDbEntity
  8
0
100
AcDbBlockBegin
  2
*Model_Space
 70
     0
 10
0.0
 20
0.0
 30
0.0
  3
*Model_Space
  1

  0
ENDBLK
  5
72
330
70
100
AcDbEntity
  8
0
100
AcDbBlockEnd
  0
BLOCK
  5
6D
330
6C
100
AcDbEntity
 67
     1
  8
0
100
AcDbBlockBegin
  2
*Paper_Space
 70
     0
 10
0.0
 20
0.0
 30
0.0
  3
*Paper_Space
  1

  0
ENDBLK
  5
6E
330
6C
100
AcDbEntity
 67
     1
  8
0
100
AcDbBlockEnd
  0
BLOCK
  5
75
330
74
100
AcDbEntity
 67
     1
  8
0
100
AcDbBlockBegin
  2
*Paper_Space0
 70
     0
 10
0.0
 20
0.0
 30
0.0
  3
*Paper_Space0
  1

  0
ENDBLK
  5
76
330
74
100
AcDbEntity
 67
     1
  8
0
100
AcDbBlockEnd
  0
ENDSEC
  0
SECTION
  2
ENTITIES
  0
LINE
  5
79
330
70
100
AcDbEntity
  8
FLAME
 62
     2
420
 16776960
370
    25
100
AcDbLine
 10
501.9523808268935
 20
380.9999999047501
 30
0.0
 11
501.9523808268935
 21
-0.0000000000012834
 31
0.0
  0
LINE
  5
7A
330
70
100
AcDbEntity
  8
FLAME
 62
     2
420
 16776960
370
    25
100
AcDbLine
 10
175.3809523371077
 20
-0.0000000000012834
 30
0.0
 11
175.3809523371077
 21
380.9999999047501
 31
0.0
  0
LINE
  5
7B
330
70
100
AcDbEntity
  8
FLAME
 62
     2
420
 16776960
370
    25
100
AcDbLine
 10
501.9523808268935
 20
-0.0000000000012834
 30
0.0
 11
175.3809523371077
 21
-0.0000000000012834
 31
0.0
  0
LINE
  5
7C
330
70
100
AcDbEntity
  8
FLAME
 62
     2
420
 16776960
370
    25
100
AcDbLine
 10
501.9523808268935
 20
18.14285713832051
 30
0.0
 11
175.3809523371077
 21
18.14285713832051
 31
0.0
  0
LINE
  5
7D
330
70
100
AcDbEntity
  8
FLAME
 62
     2
420
 16776960
370
    25
100
AcDbLine
 10
501.9523808268935
 20
36.28571427664231
 30
0.0
 11
175.3809523371077
 21
36.28571427664231
 31
0.0
  0
LINE
  5
7E
330
70
100
AcDbEntity
  8
FLAME
 62
     2
420
 16776960
370
    25
100
AcDbLine
 10
501.9523808268935
 20
54.42857141496411
 30
0.0
 11
175.3809523371077
 21
54.42857141496411
 31
0.0
  0
LINE
  5
7F
330
70
100
AcDbEntity
  8
FLAME
 62
     2
420
 16776960
370
    25
100
AcDbLine
 10
501.9523808268935
 20
380.9999999047501
 30
0.0
 11
175.3809523371077
 21
380.9999999047501
 31
0.0
  0
MTEXT
  5
81
330
70
100
AcDbEntity
  8
SPEC
100
AcDbMText
 10
186.2666666201
 20
21.77142895048298
 30
0.0
 40
0.2
 41
0.0
 46
0.0
 71
     7
 72
     1
  1
\C9;\c12632256;\FKozuka Gothic Pr6N R|b0|i0|c128;\H7.992533;\W1.000000;E26 LED電球（100W相当 電球色 全方向/広配光タイプ）ｘ2灯
 73
     1
 44
1.0
  0
MTEXT
  5
82
330
70
100
AcDbEntity
  8
SPEC
100
AcDbMText
 10
187.1672145799443
 20
40.19053506906071
 30
0.0
 40
0.2
 41
0.0
 46
0.0
 71
     7
 72
     1
  1
\C9;\c12632256;\FKozuka Gothic Pr6N R|b0|i0|c128;\H9.071429;\W1.000000;KC2670
 73
     1
 44
1.0
  0
ELLIPSE
  5
84
330
70
100
AcDbEntity
  8
HONTAI
 62
     2
420
 16776960
370
    25
100
AcDbEllipse
 10
341.4109948785386
 20
157.7018315146842
 30
0.0
 11
21.47119268978494
 21
0.1429371793528824
 31
0.0
210
0.0
220
0.0
230
0.9999999999999998
 40
0.6880241004214868
 41
0.0
 42
6.283185307179586
  0
LINE
  5
85
330
70
100
AcDbEntity
  8
HONTAI
 62
     2
420
 16776960
370
    25
100
AcDbLine
 10
346.2534755185729
 20
295.4247637241873
 30
0.0
 11
342.0499541602811
 21
299.4805181043392
 31
0.0
  0
LINE
  5
86
330
70
100
AcDbEntity
  8
HONTAI
 62
     2
420
 16776960
370
    25
100
AcDbLine
 10
342.0499541602811
 20
299.4805181043392
 30
0.0
 11
341.3468532496617
 21
172.4747384986659
 31
0.0
  0
LINE
  5
87
330
70
100
AcDbEntity
  8
HONTAI
 62
     2
420
 16776960
370
    25
100
AcDbLine
 10
342.0499541602811
 20
299.4805181043392
 30
0.0
 11
342.165577168845
 21
305.6204885104918
 31
0.0
  0
LINE
  5
88
330
70
100
AcDbEntity
  8
HONTAI
 62
     2
420
 16776960
370
    25
100
AcDbLine
 10
342.165577168845
 20
305.6204885104918
 30
0.0
 11
346.8500149287876
 21
311.5630432742792
 31
0.0
  0
LINE
  5
89
330
70
100
AcDbEntity
  8
HONTAI
 62
     2
420
 16776960
370
    25
100
AcDbLine
 10
346.8500149287876
 20
311.5630432742792
 30
0.0
 11
347.0797445786049
 21
315.9513109809302
 31
0.0
  0
LINE
  5
8A
330
70
100
AcDbEntity
  8
HONTAI
 62
     2
420
 16776960
370
    25
100
AcDbLine
 10
347.0797445786049
 20
315.9513109809302
 30
0.0
 11
341.8600291527532
 21
309.849585556377
 31
0.0
  0
LINE
  5
8B
330
70
100
AcDbEntity
  8
HONTAI
 62
     2
420
 16776960
370
    25
100
AcDbLine
 10
346.8500149287876
 20
311.5630432742792
 30
0.0
 11
352.994714423145
 21
305.3996856492128
 31
0.0
  0
LINE
  5
8C
330
70
100
AcDbEntity
  8
HONTAI
 62
     2
420
 16776960
370
    25
100
AcDbLine
 10
341.811126306554
 20
127.5790935046072
 30
0.0
 11
335.6209357924316
 21
122.9368681145506
 31
0.0
  0
LINE
  5
8D
330
70
100
AcDbEntity
  8
HONTAI
 62
     2
420
 16776960
370
    25
100
AcDbLine
 10
335.6209357924316
 20
122.9368681145506
 30
0.0
 11
332.3016077171509
 21
128.3159284734839
 31
0.0
  0
LINE
  5
8E
330
70
100
AcDbEntity
  8
HONTAI
 62
     2
420
 16776960
370
    25
100
AcDbLine
 10
332.3016077171509
 20
128.3159284734839
 30
0.0
 11
325.847481236356
 21
124.3331950963533
 31
0.0
  0
LINE
  5
8F
330
70
100
AcDbEntity
  8
HONTAI
 62
     2
420
 16776960
370
    25
100
AcDbLine
 10
302.5762590374985
 20
129.6422589318142
 30
0.0
 11
302.5762590374985
 21
136.0528332184138
 31
0.0
  0
LINE
  5
90
330
70
100
AcDbEntity
  8
HONTAI
 62
     2
420
 16776960
370
    25
100
AcDbLine
 10
302.5762590374985
 20
136.0528332184138
 30
0.0
 11
295.6430485339856
 21
131.8527638383903
 31
0.0
  0
LINE
  5
91
330
70
100
AcDbEntity
  8
HONTAI
 62
     2
420
 16776960
370
    25
100
AcDbLine
 10
295.6430485339856
 20
131.8527638383903
 30
0.0
 11
295.6430485339856
 21
138.3618395883453
 31
0.0
  0
LINE
  5
92
330
70
100
AcDbEntity
  8
HONTAI
 62
     2
420
 16776960
370
    25
100
AcDbLine
 10
295.6430485339856
 20
138.3618395883453
 30
0.0
 11
290.2099044071202
 21
134.2355087339569
 31
0.0
  0
LINE
  5
93
330
70
100
AcDbEntity
  8
HONTAI
 62
     2
420
 16776960
370
    25
100
AcDbLine
 10
290.2099044071202
 20
134.2355087339569
 30
0.0
 11
288.0710682946355
 21
139.0250736034353
 31
0.0
  0
LINE
  5
94
330
70
100
AcDbEntity
  8
HONTAI
 62
     2
420
 16776960
370
    25
100
AcDbLine
 10
288.0710682946355
 20
139.0250736034353
 30
0.0
 11
281.7541159827203
 21
136.2041647956896
 31
0.0
  0
LINE
  5
95
330
70
100
AcDbEntity
  8
HONTAI
 62
     2
420
 16776960
370
    25
100
AcDbLine
 10
281.7541159827203
 20
136.2041647956896
 30
0.0
 11
280.3262221801895
 21
142.8565879271316
 31
0.0
  0
LINE
  5
96
330
70
100
AcDbEntity
  8
HONTAI
 62
     2
420
 16776960
370
    25
100
AcDbLine
 10
280.3262221801895
 20
142.8565879271316
 30
0.0
 11
273.2451658624253
 21
139.2461516084654
 31
0.0
  0
LINE
  5
97
330
70
100
AcDbEntity
  8
HONTAI
 62
     2
420
 16776960
370
    25
100
AcDbLine
 10
273.2451658624253
 20
139.2461516084654
 30
0.0
 11
274.1303452886429
 21
145.4356478900338
 31
0.0
  0
LINE
  5
98
330
70
100
AcDbEntity
  8
HONTAI
 62
     2
420
 16776960
370
    25
100
AcDbLine
 10
274.1303452886429
 20
145.4356478900338
 30
0.0
 11
267.7870016747138
 21
142.4881704427067
 31
0.0
  0
LINE
  5
99
330
70
100
AcDbEntity
  8
HONTAI
 62
     2
420
 16776960
370
    25
100
AcDbLine
 10
267.7870016747138
 20
142.4881704427067
 30
0.0
 11
267.7870016747138
 21
148.3093868117257
 31
0.0
  0
LINE
  5
9A
330
70
100
AcDbEntity
  8
HONTAI
 62
     2
420
 16776960
370
    25
100
AcDbLine
 10
267.7870016747138
 20
148.3093868117257
 30
0.0
 11
261.6650476902652
 21
145.9514048538535
 31
0.0
  0
LINE
  5
9B
330
70
100
AcDbEntity
  8
HONTAI
 62
     2
420
 16776960
370
    25
100
AcDbLine
 10
261.6650476902652
 20
145.9514048538535
 30
0.0
 11
261.6650476902652
 21
151.6988826972386
 31
0.0
  0
LINE
  5
9C
330
70
100
AcDbEntity
  8
HONTAI
 62
     2
420
 16776960
370
    25
100
AcDbLine
 10
261.6650476902652
 20
151.6988826972386
 30
0.0
 11
254.3626017430205
 21
149.709318223817
 31
0.0
  0
LINE
  5
9D
330
70
100
AcDbEntity
  8
HONTAI
 62
     2
420
 16776960
370
    25
100
AcDbLine
 10
254.3626017430205
 20
149.709318223817
 30
0.0
 11
256.0590376883025
 21
154.9410391033554
 31
0.0
  0
LINE
  5
9E
330
70
100
AcDbEntity
  8
HONTAI
 62
     2
420
 16776960
370
    25
100
AcDbLine
 10
256.0590376883025
 20
154.9410391033554
 30
0.0
 11
247.871791406655
 21
153.8356490781783
 31
0.0
  0
LINE
  5
9F
330
70
100
AcDbEntity
  8
HONTAI
 62
     2
420
 16776960
370
    25
100
AcDbLine
 10
247.871791406655
 20
153.8356490781783
 30
0.0
 11
250.8067203649499
 21
158.8863253686664
 31
0.0
  0
LINE
  5
A0
330
70
100
AcDbEntity
  8
HONTAI
 62
     2
420
 16776960
370
    25
100
AcDbLine
 10
250.8067203649499
 20
158.8863253686664
 30
0.0
 11
242.7669408057376
 21
158.8863253686664
 31
0.0
  0
LINE
  5
A1
330
70
100
AcDbEntity
  8
HONTAI
 62
     2
420
 16776960
370
    25
100
AcDbLine
 10
242.7669408057376
 20
158.8863253686664
 30
0.0
 11
246.2333565115874
 21
163.6757526662693
 31
0.0
  0
LINE
  5
A2
330
70
100
AcDbEntity
  8
HONTAI
 62
     2
420
 16776960
370
    25
100
AcDbLine
 10
246.2333565115874
 20
163.6757526662693
 30
0.0
 11
237.5297871556392
 21
162.8653167436342
 31
0.0
  0
LINE
  5
A3
330
70
100
AcDbEntity
  8
HONTAI
 62
     2
420
 16776960
370
    25
100
AcDbLine
 10
237.5297871556392
 20
162.8653167436342
 30
0.0
 11
241.2915153981226
 21
167.507404561841
 31
0.0
  0
LINE
  5
A4
330
70
100
AcDbEntity
  8
HONTAI
 62
     2
420
 16776960
370
    25
100
AcDbLine
 10
241.2915153981226
 20
167.507404561841
 30
0.0
 11
232.6618689493264
 21
167.507404561841
 31
0.0
  0
LINE
  5
A5
330
70
100
AcDbEntity
  8
HONTAI
 62
     2
420
 16776960
370
    25
100
AcDbLine
 10
232.6618689493264
 20
167.507404561841
 30
0.0
 11
236.6446077294755
 21
172.2232309056842
 31
0.0
  0
LINE
  5
A6
330
70
100
AcDbEntity
  8
HONTAI
 62
     2
420
 16776960
370
    25
100
AcDbLine
 10
236.6446077294755
 20
172.2232309056842
 30
0.0
 11
228.1624280030618
 21
172.2232309056842
 31
0.0
  0
LINE
  5
A7
330
70
100
AcDbEntity
  8
HONTAI
 62
     2
420
 16776960
370
    25
100
AcDbLine
 10
228.1624280030618
 20
172.2232309056842
 30
0.0
 11
232.5140231350765
 21
177.1601352545575
 31
0.0
  0
LINE
  5
A8
330
70
100
AcDbEntity
  8
HONTAI
 62
     2
420
 16776960
370
    25
100
AcDbLine
 10
232.5140231350765
 20
177.1601352545575
 30
0.0
 11
223.8843766862789
 21
177.8233692696475
 31
0.0
  0
LINE
  5
A9
330
70
100
AcDbEntity
  8
HONTAI
 62
     2
420
 16776960
370
    25
100
AcDbLine
 10
223.8843766862789
 20
177.8233692696475
 30
0.0
 11
229.858863948345
 21
182.8338745722792
 31
0.0
  0
LINE
  5
AA
330
70
100
AcDbEntity
  8
HONTAI
 62
     2
420
 16776960
370
    25
100
AcDbLine
 10
229.858863948345
 20
182.8338745722792
 30
0.0
 11
220.7125153333807
 21
184.0866040768511
 31
0.0
  0
LINE
  5
AB
330
70
100
AcDbEntity
  8
HONTAI
 62
     2
420
 16776960
370
    25
100
AcDbLine
 10
220.7125153333807
 20
184.0866040768511
 30
0.0
 11
227.1892992719864
 21
187.8652908000927
 31
0.0
  0
LINE
  5
AC
330
70
100
AcDbEntity
  8
HONTAI
 62
     2
420
 16776960
370
    25
100
AcDbLine
 10
227.1892992719864
 20
187.8652908000927
 30
0.0
 11
218.1904173794585
 21
190.2232727579662
 31
0.0
  0
LINE
  5
AD
330
70
100
AcDbEntity
  8
HONTAI
 62
     2
420
 16776960
370
    25
100
AcDbLine
 10
218.1904173794585
 20
190.2232727579662
 30
0.0
 11
224.3862942710051
 21
193.6127686434778
 31
0.0
  0
LINE
  5
AE
330
70
100
AcDbEntity
  8
HONTAI
 62
     2
420
 16776960
370
    25
100
AcDbLine
 10
224.3862942710051
 20
193.6127686434778
 30
0.0
 11
217.2316941379577
 21
195.6021955450227
 31
0.0
  0
LINE
  5
AF
330
70
100
AcDbEntity
  8
HONTAI
 62
     2
420
 16776960
370
    25
100
AcDbLine
 10
217.2316941379577
 20
195.6021955450227
 30
0.0
 11
223.7964273814212
 21
199.3601089149592
 31
0.0
  0
LINE
  5
B0
330
70
100
AcDbEntity
  8
HONTAI
 62
     2
420
 16776960
370
    25
100
AcDbLine
 10
223.7964273814212
 20
199.3601089149592
 30
0.0
 11
214.505265686933
 21
201.4630326143705
 31
0.0
  0
LINE
  5
B1
330
70
100
AcDbEntity
  8
HONTAI
 62
     2
420
 16776960
370
    25
100
AcDbLine
 10
214.505265686933
 20
201.4630326143705
 30
0.0
 11
221.7337887270796
 21
205.8104414737876
 31
0.0
  0
LINE
  5
B2
330
70
100
AcDbEntity
  8
HONTAI
 62
     2
420
 16776960
370
    25
100
AcDbLine
 10
221.7337887270796
 20
205.8104414737876
 30
0.0
 11
214.1364093350161
 21
208.2420243853938
 31
0.0
  0
LINE
  5
B3
330
70
100
AcDbEntity
  8
HONTAI
 62
     2
420
 16776960
370
    25
100
AcDbLine
 10
214.1364093350161
 20
208.2420243853938
 30
0.0
 11
221.5123990975452
 21
211.7788597503003
 31
0.0
  0
LINE
  5
B4
330
70
100
AcDbEntity
  8
HONTAI
 62
     2
420
 16776960
370
    25
100
AcDbLine
 10
221.5123990975452
 20
211.7788597503003
 30
0.0
 11
214.2842551492134
 21
213.6946856980868
 31
0.0
  0
LINE
  5
B5
330
70
100
AcDbEntity
  8
HONTAI
 62
     2
420
 16776960
370
    25
100
AcDbLine
 10
214.2842551492134
 20
213.6946856980868
 30
0.0
 11
220.9960760232459
 21
217.0841815835984
 31
0.0
  0
LINE
  5
B6
330
70
100
AcDbEntity
  8
HONTAI
 62
     2
420
 16776960
370
    25
100
AcDbLine
 10
220.9960760232459
 20
217.0841815835984
 30
0.0
 11
213.3990757230484
 21
219.6632415465006
 31
0.0
  0
LINE
  5
B7
330
70
100
AcDbEntity
  8
HONTAI
 62
     2
420
 16776960
370
    25
100
AcDbLine
 10
213.3990757230484
 20
219.6632415465006
 30
0.0
 11
221.442525295178
 21
222.9903509784955
 31
0.0
  0
LINE
  5
B8
330
70
100
AcDbEntity
  8
HONTAI
 62
     2
420
 16776960
370
    25
100
AcDbLine
 10
221.442525295178
 20
222.9903509784955
 30
0.0
 11
214.7266553164147
 21
226.9579902813436
 31
0.0
  0
LINE
  5
B9
330
70
100
AcDbEntity
  8
HONTAI
 62
     2
420
 16776960
370
    25
100
AcDbLine
 10
214.7266553164147
 20
226.9579902813436
 30
0.0
 11
223.6516143018434
 21
229.3494022051203
 31
0.0
  0
LINE
  5
BA
330
70
100
AcDbEntity
  8
HONTAI
 62
     2
420
 16776960
370
    25
100
AcDbLine
 10
223.6516143018434
 20
229.3494022051203
 30
0.0
 11
216.1277787250643
 21
233.8441505439323
 31
0.0
  0
LINE
  5
BB
330
70
100
AcDbEntity
  8
HONTAI
 62
     2
420
 16776960
370
    25
100
AcDbLine
 10
216.1277787250643
 20
233.8441505439323
 30
0.0
 11
225.4215940624112
 21
235.9810544967487
 31
0.0
  0
LINE
  5
BC
330
70
100
AcDbEntity
  8
HONTAI
 62
     2
420
 16776960
370
    25
100
AcDbLine
 10
225.4215940624112
 20
235.9810544967487
 30
0.0
 11
219.3735629850606
 21
240.1073853511371
 31
0.0
  0
LINE
  5
BD
330
70
100
AcDbEntity
  8
HONTAI
 62
     2
420
 16776960
370
    25
100
AcDbLine
 10
219.3735629850606
 20
240.1073853511371
 30
0.0
 11
229.1833223048933
 21
242.1705507783172
 31
0.0
  0
LINE
  5
BE
330
70
100
AcDbEntity
  8
HONTAI
 62
     2
420
 16776960
370
    25
100
AcDbLine
 10
229.1833223048933
 20
242.1705507783172
 30
0.0
 11
223.8062837690132
 21
246.7720548930423
 31
0.0
  0
LINE
  5
BF
330
70
100
AcDbEntity
  8
HONTAI
 62
     2
420
 16776960
370
    25
100
AcDbLine
 10
223.8062837690132
 20
246.7720548930423
 30
0.0
 11
231.3301193457923
 21
247.4351513362569
 31
0.0
  0
LINE
  5
C0
330
70
100
AcDbEntity
  8
HONTAI
 62
     2
420
 16776960
370
    25
100
AcDbLine
 10
231.3301193457923
 20
247.4351513362569
 30
0.0
 11
227.0520680290107
 21
253.403707184672
 31
0.0
  0
LINE
  5
C1
330
70
100
AcDbEntity
  8
HONTAI
 62
     2
420
 16776960
370
    25
100
AcDbLine
 10
227.0520680290107
 20
253.403707184672
 30
0.0
 11
236.9357502559402
 21
254.9509780761568
 31
0.0
  0
LINE
  5
C2
330
70
100
AcDbEntity
  8
HONTAI
 62
     2
420
 16776960
370
    25
100
AcDbLine
 10
236.9357502559402
 20
254.9509780761568
 30
0.0
 11
232.5837760320593
 21
260.477377914485
 31
0.0
  0
LINE
  5
C3
330
70
100
AcDbEntity
  8
HONTAI
 62
     2
420
 16776960
370
    25
100
AcDbLine
 10
232.5837760320593
 20
260.477377914485
 30
0.0
 11
243.1316271474867
 21
261.2142128833617
 31
0.0
  0
LINE
  5
C4
330
70
100
AcDbEntity
  8
HONTAI
 62
     2
420
 16776960
370
    25
100
AcDbLine
 10
243.1316271474867
 20
261.2142128833617
 30
0.0
 11
238.3372527564571
 21
266.5195347166585
 31
0.0
  0
LINE
  5
C5
330
70
100
AcDbEntity
  8
HONTAI
 62
     2
420
 16776960
370
    25
100
AcDbLine
 10
238.3372527564571
 20
266.5195347166585
 30
0.0
 11
248.737258057636
 21
266.5195347166585
 31
0.0
  0
LINE
  5
C6
330
70
100
AcDbEntity
  8
HONTAI
 62
     2
420
 16776960
370
    25
100
AcDbLine
 10
248.737258057636
 20
266.5195347166585
 30
0.0
 11
244.9148751221322
 21
272.5875550315574
 31
0.0
  0
LINE
  5
C7
330
70
100
AcDbEntity
  8
HONTAI
 62
     2
420
 16776960
370
    25
100
AcDbLine
 10
244.9148751221322
 20
272.5875550315574
 30
0.0
 11
255.9051264047623
 21
271.7771191089223
 31
0.0
  0
LINE
  5
C8
330
70
100
AcDbEntity
  8
HONTAI
 62
     2
420
 16776960
370
    25
100
AcDbLine
 10
255.9051264047623
 20
271.7771191089223
 30
0.0
 11
252.807187958962
 21
277.8192759110958
 31
0.0
  0
LINE
  5
C9
330
70
100
AcDbEntity
  8
HONTAI
 62
     2
420
 16776960
370
    25
100
AcDbLine
 10
252.807187958962
 20
277.8192759110958
 30
0.0
 11
262.9122598153745
 21
276.0507894427055
 31
0.0
  0
LINE
  5
CA
330
70
100
AcDbEntity
  8
HONTAI
 62
     2
420
 16776960
370
    25
100
AcDbLine
 10
262.9122598153745
 20
276.0507894427055
 30
0.0
 11
261.9535365739251
 21
282.7561802599691
 31
0.0
  0
LINE
  5
CB
330
70
100
AcDbEntity
  8
HONTAI
 62
     2
420
 16776960
370
    25
100
AcDbLine
 10
261.9535365739251
 20
282.7561802599691
 30
0.0
 11
271.9111417079551
 21
280.5455377814918
 31
0.0
  0
LINE
  5
CC
330
70
100
AcDbEntity
  8
HONTAI
 62
     2
420
 16776960
370
    25
100
AcDbLine
 10
271.9111417079551
 20
280.5455377814918
 30
0.0
 11
271.9111417079551
 21
286.6053037838083
 31
0.0
  0
LINE
  5
CD
330
70
100
AcDbEntity
  8
HONTAI
 62
     2
420
 16776960
370
    25
100
AcDbLine
 10
271.9111417079551
 20
286.6053037838083
 30
0.0
 11
282.1037837774106
 21
284.321060351597
 31
0.0
  0
LINE
  5
CE
330
70
100
AcDbEntity
  8
HONTAI
 62
     2
420
 16776960
370
    25
100
AcDbLine
 10
282.1037837774106
 20
284.321060351597
 30
0.0
 11
280.7022812768936
 21
289.6999831386547
 31
0.0
  0
LINE
  5
CF
330
70
100
AcDbEntity
  8
HONTAI
 62
     2
420
 16776960
370
    25
100
AcDbLine
 10
280.7022812768936
 20
289.6999831386547
 30
0.0
 11
289.7007840776068
 21
288.0789737215334
 31
0.0
  0
LINE
  5
D0
330
70
100
AcDbEntity
  8
HONTAI
 62
     2
420
 16776960
370
    25
100
AcDbLine
 10
289.7007840776068
 20
288.0789737215334
 30
0.0
 11
288.9634504656403
 21
293.6789745136482
 31
0.0
  0
LINE
  5
D1
330
70
100
AcDbEntity
  8
HONTAI
 62
     2
420
 16776960
370
    25
100
AcDbLine
 10
288.9634504656403
 20
293.6789745136482
 30
0.0
 11
299.0685223220516
 21
290.6578961125601
 31
0.0
  0
LINE
  5
D2
330
70
100
AcDbEntity
  8
HONTAI
 62
     2
420
 16776960
370
    25
100
AcDbLine
 10
299.0685223220516
 20
290.6578961125601
 30
0.0
 11
299.0685223220516
 21
295.5210619357982
 31
0.0
  0
LINE
  5
D3
330
70
100
AcDbEntity
  8
HONTAI
 62
     2
420
 16776960
370
    25
100
AcDbLine
 10
299.0685223220516
 20
295.5210619357982
 30
0.0
 11
308.3623376593458
 21
292.0579650965269
 31
0.0
  0
LINE
  5
D4
330
70
100
AcDbEntity
  8
HONTAI
 62
     2
420
 16776960
370
    25
100
AcDbLine
 10
308.3623376593458
 20
292.0579650965269
 30
0.0
 11
308.3623376593458
 21
297.5106264092199
 31
0.0
  0
LINE
  5
D5
330
70
100
AcDbEntity
  8
HONTAI
 62
     2
420
 16776960
370
    25
100
AcDbLine
 10
308.3623376593458
 20
297.5106264092199
 30
0.0
 11
318.4272257816555
 21
293.915735712563
 31
0.0
  0
LINE
  5
D6
330
70
100
AcDbEntity
  8
HONTAI
 62
     2
420
 16776960
370
    25
100
AcDbLine
 10
318.4272257816555
 20
293.915735712563
 30
0.0
 11
320.3514663759196
 21
299.3031780400034
 31
0.0
  0
LINE
  5
D7
330
70
100
AcDbEntity
  8
HONTAI
 62
     2
420
 16776960
370
    25
100
AcDbLine
 10
320.3514663759196
 20
299.3031780400034
 30
0.0
 11
327.6471182118504
 21
295.168465217108
 31
0.0
  0
LINE
  5
D8
330
70
100
AcDbEntity
  8
HONTAI
 62
     2
420
 16776960
370
    25
100
AcDbLine
 10
327.6471182118504
 20
295.168465217108
 30
0.0
 11
331.1874568248508
 21
299.6632135559212
 31
0.0
  0
LINE
  5
D9
330
70
100
AcDbEntity
  8
HONTAI
 62
     2
420
 16776960
370
    25
100
AcDbLine
 10
331.1874568248508
 20
299.6632135559212
 30
0.0
 11
336.568514238503
 21
295.4247637241873
 31
0.0
  0
LINE
  5
DA
330
70
100
AcDbEntity
  8
HONTAI
 62
     2
420
 16776960
370
    25
100
AcDbLine
 10
331.1874568248508
 20
299.6632135559212
 30
0.0
 11
340.161958704302
 21
172.4543907445008
 31
0.0
  0
LINE
  5
DB
330
70
100
AcDbEntity
  8
HONTAI
 62
     2
420
 16776960
370
    25
100
AcDbLine
 10
320.3514663759196
 20
299.3031780400034
 30
0.0
 11
339.030877511312
 21
172.3923275051635
 31
0.0
  0
LINE
  5
DC
330
70
100
AcDbEntity
  8
HONTAI
 62
     2
420
 16776960
370
    25
100
AcDbLine
 10
310.0880868986043
 20
290.221957861842
 30
0.0
 11
338.0085793601553
 21
172.3002977493829
 31
0.0
  0
LINE
  5
DD
330
70
100
AcDbEntity
  8
HONTAI
 62
     2
420
 16776960
370
    25
100
AcDbLine
 10
301.1076093423987
 20
288.9288441604634
 30
0.0
 11
337.2124503097019
 21
172.2045592108423
 31
0.0
  0
LINE
  5
DE
330
70
100
AcDbEntity
  8
HONTAI
 62
     2
420
 16776960
370
    25
100
AcDbLine
 10
291.6330078875157
 20
286.8282157543295
 30
0.0
 11
336.3487535590348
 21
172.0763157469442
 31
0.0
  0
LINE
  5
DF
330
70
100
AcDbEntity
  8
HONTAI
 62
     2
420
 16776960
370
    25
100
AcDbLine
 10
283.6628333352314
 20
283.3241092149245
 30
0.0
 11
335.3987513301774
 21
171.9051292532831
 31
0.0
  0
LINE
  5
E0
330
70
100
AcDbEntity
  8
HONTAI
 62
     2
420
 16776960
370
    25
100
AcDbLine
 10
275.1770829762927
 20
280.5960280559727
 30
0.0
 11
334.3696452594806
 21
171.6827321418289
 31
0.0
  0
LINE
  5
E1
330
70
100
AcDbEntity
  8
HONTAI
 62
     2
420
 16776960
370
    25
100
AcDbLine
 10
266.9734989529119
 20
274.9284576132822
 30
0.0
 11
333.3520022943617
 21
171.4231970892203
 31
0.0
  0
LINE
  5
E2
330
70
100
AcDbEntity
  8
HONTAI
 62
     2
420
 16776960
370
    25
100
AcDbLine
 10
258.0315356550897
 20
270.8012840935913
 30
0.0
 11
332.2541042555942
 21
171.0963238938237
 31
0.0
  0
LINE
  5
E3
330
70
100
AcDbEntity
  8
HONTAI
 62
     2
420
 16776960
370
    25
100
AcDbLine
 10
250.8715262086996
 20
265.5354769682232
 30
0.0
 11
331.0081220814417
 21
170.6617766942618
 31
0.0
  0
LINE
  5
E4
330
70
100
AcDbEntity
  8
HONTAI
 62
     2
420
 16776960
370
    25
100
AcDbLine
 10
238.3372527564571
 20
266.5195347166585
 30
0.0
 11
329.4814886054101
 21
170.0268306423106
 31
0.0
  0
LINE
  5
E5
330
70
100
AcDbEntity
  8
HONTAI
 62
     2
420
 16776960
370
    25
100
AcDbLine
 10
236.9357502559402
 20
254.9509780761568
 30
0.0
 11
328.1368741534784
 21
169.3601431707048
 31
0.0
  0
LINE
  5
E6
330
70
100
AcDbEntity
  8
HONTAI
 62
     2
420
 16776960
370
    25
100
AcDbLine
 10
231.3301193457923
 20
247.4351513362569
 30
0.0
 11
327.0754080131689
 21
168.7502490978473
 31
0.0
  0
LINE
  5
E7
330
70
100
AcDbEntity
  8
HONTAI
 62
     2
420
 16776960
370
    25
100
AcDbLine
 10
229.1833223048933
 20
242.1705507783172
 30
0.0
 11
325.9693382634446
 21
168.0208478206043
 31
0.0
  0
LINE
  5
E8
330
70
100
AcDbEntity
  8
HONTAI
 62
     2
420
 16776960
370
    25
100
AcDbLine
 10
225.4215940624112
 20
235.9810544967487
 30
0.0
 11
325.2533963762787
 21
167.4877090915693
 31
0.0
  0
LINE
  5
E9
330
70
100
AcDbEntity
  8
HONTAI
 62
     2
420
 16776960
370
    25
100
AcDbLine
 10
223.6516143018434
 20
229.3494022051203
 30
0.0
 11
324.3113990720846
 21
166.6963872926349
 31
0.0
  0
LINE
  5
EA
330
70
100
AcDbEntity
  8
HONTAI
 62
     2
420
 16776960
370
    25
100
AcDbLine
 10
221.4425252951806
 20
222.9903509784891
 30
0.0
 11
323.4859572145438
 21
165.8973768841152
 31
0.0
  0
LINE
  5
EB
330
70
100
AcDbEntity
  8
HONTAI
 62
     2
420
 16776960
370
    25
100
AcDbLine
 10
223.3761604470029
 20
214.6884523314827
 30
0.0
 11
322.7877415281987
 21
165.1196980217393
 31
0.0
  0
LINE
  5
EC
330
70
100
AcDbEntity
  8
HONTAI
 62
     2
420
 16776960
370
    25
100
AcDbLine
 10
220.6468305453113
 20
210.776739448657
 30
0.0
 11
322.1114325444213
 21
164.2439698668543
 31
0.0
  0
LINE
  5
ED
330
70
100
AcDbEntity
  8
HONTAI
 62
     2
420
 16776960
370
    25
100
AcDbLine
 10
223.7509049426352
 20
204.1791048087923
 30
0.0
 11
321.3041045826288
 21
162.9548096661143
 31
0.0
  0
LINE
  5
EE
330
70
100
AcDbEntity
  8
HONTAI
 62
     2
420
 16776960
370
    25
100
AcDbLine
 10
226.0617636691908
 20
197.1190382122716
 30
0.0
 11
320.6569738128815
 21
161.5614615171999
 31
0.0
  0
LINE
  5
EF
330
70
100
AcDbEntity
  8
HONTAI
 62
     2
420
 16776960
370
    25
100
AcDbLine
 10
229.1787732029108
 20
190.3784538342899
 30
0.0
 11
320.2640203494607
 21
160.3344458348503
 31
0.0
  0
LINE
  5
F0
330
70
100
AcDbEntity
  8
HONTAI
 62
     2
420
 16776960
370
    25
100
AcDbLine
 10
232.2797443833306
 20
185.157738704845
 30
0.0
 11
320.0184403743531
 21
159.0418493124488
 31
0.0
  0
LINE
  5
F1
330
70
100
AcDbEntity
  8
HONTAI
 62
     2
420
 16776960
370
    25
100
AcDbLine
 10
234.5679426773216
 20
179.7576298488557
 30
0.0
 11
319.9426997433155
 21
158.0290434083734
 31
0.0
  0
LINE
  5
F2
330
70
100
AcDbEntity
  8
HONTAI
 62
     2
420
 16776960
370
    25
100
AcDbLine
 10
238.4687976219046
 20
174.5208188098969
 30
0.0
 11
319.9628470524246
 21
157.0894159064489
 31
0.0
  0
LINE
  5
F3
330
70
100
AcDbEntity
  8
HONTAI
 62
     2
420
 16776960
370
    25
100
AcDbLine
 10
242.8431382638269
 20
171.0747808832666
 30
0.0
 11
320.1201979601624
 21
155.8642949187273
 31
0.0
  0
LINE
  5
F4
330
70
100
AcDbEntity
  8
HONTAI
 62
     2
420
 16776960
370
    25
100
AcDbLine
 10
247.2929181802114
 20
166.6929790548165
 30
0.0
 11
320.3504275274735
 21
154.8995009716399
 31
0.0
  0
LINE
  5
F5
330
70
100
AcDbEntity
  8
HONTAI
 62
     2
420
 16776960
370
    25
100
AcDbLine
 10
252.1426399786506
 20
162.5411974033294
 30
0.0
 11
320.6937372151887
 21
153.8934616388098
 31
0.0
  0
LINE
  5
F6
330
70
100
AcDbEntity
  8
HONTAI
 62
     2
420
 16776960
370
    25
100
AcDbLine
 10
321.7247512117522
 20
151.8731903319094
 30
0.0
 11
262.7143738794298
 21
154.6177451943035
 31
0.0
  0
LINE
  5
F7
330
70
100
AcDbEntity
  8
HONTAI
 62
     2
420
 16776960
370
    25
100
AcDbLine
 10
257.6682825123563
 20
158.3101685285256
 30
0.0
 11
321.0760269039706
 21
153.0305887902282
 31
0.0
  0
LINE
  5
F8
330
70
100
AcDbEntity
  8
HONTAI
 62
     2
420
 16776960
370
    25
100
AcDbLine
 10
254.3626017430205
 20
149.709318223817
 30
0.0
 11
322.3742190603394
 21
150.9357052933637
 31
0.0
  0
LINE
  5
F9
330
70
100
AcDbEntity
  8
HONTAI
 62
     2
420
 16776960
370
    25
100
AcDbLine
 10
261.6650476902652
 20
145.9514048538535
 30
0.0
 11
323.0225212439096
 21
150.1391046824462
 31
0.0
  0
LINE
  5
FA
330
70
100
AcDbEntity
  8
HONTAI
 62
     2
420
 16776960
370
    25
100
AcDbLine
 10
274.1303452886429
 20
145.4356478900338
 30
0.0
 11
323.7175885820759
 21
149.3944754552382
 31
0.0
  0
LINE
  5
FB
330
70
100
AcDbEntity
  8
HONTAI
 62
     2
420
 16776960
370
    25
100
AcDbLine
 10
280.3262221801895
 20
142.8565879271316
 30
0.0
 11
324.5485857561249
 21
148.6154216603132
 31
0.0
  0
LINE
  5
FC
330
70
100
AcDbEntity
  8
HONTAI
 62
     2
420
 16776960
370
    25
100
AcDbLine
 10
288.0710682946355
 20
139.0250736034353
 30
0.0
 11
325.2602300725432
 21
148.0238486924107
 31
0.0
  0
LINE
  5
FD
330
70
100
AcDbEntity
  8
HONTAI
 62
     2
420
 16776960
370
    25
100
AcDbLine
 10
295.6430485339856
 20
138.3618395883453
 30
0.0
 11
326.1345475416121
 21
147.3741410963198
 31
0.0
  0
LINE
  5
FE
330
70
100
AcDbEntity
  8
HONTAI
 62
     2
420
 16776960
370
    25
100
AcDbLine
 10
302.5762590374985
 20
136.0528332184138
 30
0.0
 11
327.4411295317535
 21
146.5320661898967
 31
0.0
  0
LINE
  5
FF
330
70
100
AcDbEntity
  8
HONTAI
 62
     2
420
 16776960
370
    25
100
AcDbLine
 10
308.8233133262883
 20
134.9061716304033
 30
0.0
 11
328.5232794374006
 21
145.9309653420314
 31
0.0
  0
LINE
  5
100
330
70
100
AcDbEntity
  8
HONTAI
 62
     2
420
 16776960
370
    25
100
AcDbLine
 10
309.8787049847445
 20
126.7685200101222
 30
0.0
 11
329.6033714881496
 21
145.4044228724115
 31
0.0
  0
LINE
  5
101
330
70
100
AcDbEntity
  8
HONTAI
 62
     2
420
 16776960
370
    25
100
AcDbLine
 10
317.6235510991905
 20
125.5895290311868
 30
0.0
 11
330.4294014113752
 21
145.0455437237834
 31
0.0
  0
LINE
  5
102
330
70
100
AcDbEntity
  8
HONTAI
 62
     2
420
 16776960
370
    25
100
AcDbLine
 10
325.847481236356
 20
124.3331950963533
 30
0.0
 11
331.2812046171373
 21
144.6405515926403
 31
0.0
  0
LINE
  5
103
330
70
100
AcDbEntity
  8
HONTAI
 62
     2
420
 16776960
370
    25
100
AcDbLine
 10
335.6209357924316
 20
122.9368681145506
 30
0.0
 11
337.4239069786104
 21
143.1715937756026
 31
0.0
  0
LINE
  5
104
330
70
100
AcDbEntity
  8
HONTAI
 62
     2
420
 16776960
370
    25
100
AcDbLine
 10
335.9719748282884
 20
311.5630432742792
 30
0.0
 11
335.7422451784724
 21
315.9513109809302
 31
0.0
  0
LINE
  5
105
330
70
100
AcDbEntity
  8
HONTAI
 62
     2
420
 16776960
370
    25
100
AcDbLine
 10
335.9719748282884
 20
311.5630432742792
 30
0.0
 11
329.8272753339323
 21
305.3996856492128
 31
0.0
  0
LINE
  5
106
330
70
100
AcDbEntity
  8
HONTAI
 62
     2
420
 16776960
370
    25
100
AcDbLine
 10
329.8272753339323
 20
305.3996856492128
 30
0.0
 11
331.1874568248508
 21
299.6632135559212
 31
0.0
  0
LINE
  5
107
330
70
100
AcDbEntity
  8
HONTAI
 62
     2
420
 16776960
370
    25
100
AcDbLine
 10
335.7422451784724
 20
315.9513109809302
 30
0.0
 11
331.0771411018977
 21
310.2129128813816
 31
0.0
  0
LINE
  5
108
330
70
100
AcDbEntity
  8
HONTAI
 62
     2
420
 16776960
370
    25
100
AcDbLine
 10
331.0771411018977
 20
310.2129128813816
 30
0.0
 11
325.263023633465
 21
314.9395739866484
 31
0.0
  0
LINE
  5
109
330
70
100
AcDbEntity
  8
HONTAI
 62
     2
420
 16776960
370
    25
100
AcDbLine
 10
325.263023633465
 20
314.9395739866484
 30
0.0
 11
324.7319020287922
 21
311.5161312644977
 31
0.0
  0
LINE
  5
10A
330
70
100
AcDbEntity
  8
HONTAI
 62
     2
420
 16776960
370
    25
100
AcDbLine
 10
324.7319020287922
 20
311.5161312644977
 30
0.0
 11
329.8272753339323
 21
305.3996856492128
 31
0.0
  0
LINE
  5
10B
330
70
100
AcDbEntity
  8
HONTAI
 62
     2
420
 16776960
370
    25
100
AcDbLine
 10
320.3514663759196
 20
299.3031780400034
 30
0.0
 11
319.2767705756988
 21
305.0591952556457
 31
0.0
  0
LINE
  5
10C
330
70
100
AcDbEntity
  8
HONTAI
 62
     2
420
 16776960
370
    25
100
AcDbLine
 10
319.2767705756988
 20
305.0591952556457
 30
0.0
 11
324.7319020287922
 21
311.5161312644977
 31
0.0
  0
LINE
  5
10D
330
70
100
AcDbEntity
  8
HONTAI
 62
     2
420
 16776960
370
    25
100
AcDbLine
 10
319.2767705756988
 20
305.0591952556457
 30
0.0
 11
313.7026042875561
 21
310.7461414734945
 31
0.0
  0
LINE
  5
10E
330
70
100
AcDbEntity
  8
HONTAI
 62
     2
420
 16776960
370
    25
100
AcDbLine
 10
313.7026042875561
 20
310.7461414734945
 30
0.0
 11
315.7186146466909
 21
314.9519888722888
 31
0.0
  0
LINE
  5
10F
330
70
100
AcDbEntity
  8
HONTAI
 62
     2
420
 16776960
370
    25
100
AcDbLine
 10
315.7186146466909
 20
314.9519888722888
 30
0.0
 11
321.055469448363
 21
310.6275545162104
 31
0.0
  0
LINE
  5
110
330
70
100
AcDbEntity
  8
HONTAI
 62
     2
420
 16776960
370
    25
100
AcDbLine
 10
321.055469448363
 20
310.6275545162104
 30
0.0
 11
325.263023633465
 21
314.9395739866484
 31
0.0
  0
LINE
  5
111
330
70
100
AcDbEntity
  8
HONTAI
 62
     2
420
 16776960
370
    25
100
AcDbLine
 10
308.3623376593458
 20
297.5106264092199
 30
0.0
 11
308.3623376593458
 21
303.2820417590452
 31
0.0
  0
LINE
  5
112
330
70
100
AcDbEntity
  8
HONTAI
 62
     2
420
 16776960
370
    25
100
AcDbLine
 10
308.3623376593458
 20
303.2820417590452
 30
0.0
 11
303.26582707871
 21
309.146593269057
 31
0.0
  0
LINE
  5
113
330
70
100
AcDbEntity
  8
HONTAI
 62
     2
420
 16776960
370
    25
100
AcDbLine
 10
303.26582707871
 20
309.146593269057
 30
0.0
 11
306.230704291701
 21
313.8265133532111
 31
0.0
  0
LINE
  5
114
330
70
100
AcDbEntity
  8
HONTAI
 62
     2
420
 16776960
370
    25
100
AcDbLine
 10
306.230704291701
 20
313.8265133532111
 30
0.0
 11
310.8619478025988
 21
310.8924742870797
 31
0.0
  0
LINE
  5
115
330
70
100
AcDbEntity
  8
HONTAI
 62
     2
420
 16776960
370
    25
100
AcDbLine
 10
310.8619478025988
 20
310.8924742870797
 30
0.0
 11
315.7186146466909
 21
314.9519888722888
 31
0.0
  0
LINE
  5
116
330
70
100
AcDbEntity
  8
HONTAI
 62
     2
420
 16776960
370
    25
100
AcDbLine
 10
313.7026042875561
 20
310.7461414734945
 30
0.0
 11
308.3623376593458
 21
303.2820417590452
 31
0.0
  0
LINE
  5
117
330
70
100
AcDbEntity
  8
HONTAI
 62
     2
420
 16776960
370
    25
100
AcDbLine
 10
303.26582707871
 20
309.146593269057
 30
0.0
 11
298.037771632628
 21
300.8455062598955
 31
0.0
  0
LINE
  5
118
330
70
100
AcDbEntity
  8
HONTAI
 62
     2
420
 16776960
370
    25
100
AcDbLine
 10
298.037771632628
 20
300.8455062598955
 30
0.0
 11
299.0685223220516
 21
295.5210619357982
 31
0.0
  0
LINE
  5
119
330
70
100
AcDbEntity
  8
HONTAI
 62
     2
420
 16776960
370
    25
100
AcDbLine
 10
298.037771632628
 20
300.8455062598955
 30
0.0
 11
291.9112685461982
 21
307.0253725101009
 31
0.0
  0
LINE
  5
11A
330
70
100
AcDbEntity
  8
HONTAI
 62
     2
420
 16776960
370
    25
100
AcDbLine
 10
291.9112685461982
 20
307.0253725101009
 30
0.0
 11
295.9557992948646
 21
312.0168928938359
 31
0.0
  0
LINE
  5
11B
330
70
100
AcDbEntity
  8
HONTAI
 62
     2
420
 16776960
370
    25
100
AcDbLine
 10
295.9557992948646
 20
312.0168928938359
 30
0.0
 11
300.0664226979766
 21
308.6861356351354
 31
0.0
  0
LINE
  5
11C
330
70
100
AcDbEntity
  8
HONTAI
 62
     2
420
 16776960
370
    25
100
AcDbLine
 10
300.0664226979766
 20
308.6861356351354
 30
0.0
 11
306.230704291701
 21
313.8265133532111
 31
0.0
  0
LINE
  5
11D
330
70
100
AcDbEntity
  8
HONTAI
 62
     2
420
 16776960
370
    25
100
AcDbLine
 10
291.9112685461982
 20
307.0253725101009
 30
0.0
 11
287.3310810398631
 21
298.5281080055062
 31
0.0
  0
LINE
  5
11E
330
70
100
AcDbEntity
  8
HONTAI
 62
     2
420
 16776960
370
    25
100
AcDbLine
 10
287.3310810398631
 20
298.5281080055062
 30
0.0
 11
288.9634504656403
 21
293.6789745136482
 31
0.0
  0
LINE
  5
11F
330
70
100
AcDbEntity
  8
HONTAI
 62
     2
420
 16776960
370
    25
100
AcDbLine
 10
287.3310810398631
 20
298.5281080055062
 30
0.0
 11
282.0370636150459
 21
304.0543702719576
 31
0.0
  0
LINE
  5
120
330
70
100
AcDbEntity
  8
HONTAI
 62
     2
420
 16776960
370
    25
100
AcDbLine
 10
282.0370636150459
 20
304.0543702719576
 30
0.0
 11
286.4982162863842
 21
309.2834772858616
 31
0.0
  0
LINE
  5
121
330
70
100
AcDbEntity
  8
HONTAI
 62
     2
420
 16776960
370
    25
100
AcDbLine
 10
286.4982162863842
 20
309.2834772858616
 30
0.0
 11
290.4836087093394
 21
307.2630967121711
 31
0.0
  0
LINE
  5
122
330
70
100
AcDbEntity
  8
HONTAI
 62
     2
420
 16776960
370
    25
100
AcDbLine
 10
290.4836087093394
 20
307.2630967121711
 30
0.0
 11
295.9557992948646
 21
312.0168928938359
 31
0.0
  0
LINE
  5
123
330
70
100
AcDbEntity
  8
HONTAI
 62
     2
420
 16776960
370
    25
100
AcDbLine
 10
282.0370636150459
 20
304.0543702719576
 30
0.0
 11
277.8136015220445
 21
295.4381060944522
 31
0.0
  0
LINE
  5
124
330
70
100
AcDbEntity
  8
HONTAI
 62
     2
420
 16776960
370
    25
100
AcDbLine
 10
277.8136015220445
 20
295.4381060944522
 30
0.0
 11
280.7022812768936
 21
289.6999831386547
 31
0.0
  0
LINE
  5
125
330
70
100
AcDbEntity
  8
HONTAI
 62
     2
420
 16776960
370
    25
100
AcDbLine
 10
277.8136015220445
 20
295.4381060944522
 30
0.0
 11
272.3414109365206
 21
300.5483510073212
 31
0.0
  0
LINE
  5
126
330
70
100
AcDbEntity
  8
HONTAI
 62
     2
420
 16776960
370
    25
100
AcDbLine
 10
272.3414109365206
 20
300.5483510073212
 30
0.0
 11
277.2783238561367
 21
306.6689237789224
 31
0.0
  0
LINE
  5
127
330
70
100
AcDbEntity
  8
HONTAI
 62
     2
420
 16776960
370
    25
100
AcDbLine
 10
277.2783238561367
 20
306.6689237789224
 30
0.0
 11
281.0851640265703
 21
304.8268363567454
 31
0.0
  0
LINE
  5
128
330
70
100
AcDbEntity
  8
HONTAI
 62
     2
420
 16776960
370
    25
100
AcDbLine
 10
281.0851640265703
 20
304.8268363567454
 30
0.0
 11
286.4982162863842
 21
309.2834772858616
 31
0.0
  0
LINE
  5
129
330
70
100
AcDbEntity
  8
HONTAI
 62
     2
420
 16776960
370
    25
100
AcDbLine
 10
271.9892346251682
 20
301.3641522331006
 30
0.0
 11
268.7859086503174
 21
302.2007268122133
 31
0.0
  0
LINE
  5
12A
330
70
100
AcDbEntity
  8
HONTAI
 62
     2
420
 16776960
370
    25
100
AcDbLine
 10
268.7859086503174
 20
302.2007268122133
 30
0.0
 11
262.9983136611084
 21
296.1803063664732
 31
0.0
  0
LINE
  5
12B
330
70
100
AcDbEntity
  8
HONTAI
 62
     2
420
 16776960
370
    25
100
AcDbLine
 10
262.9983136611084
 20
296.1803063664732
 30
0.0
 11
267.7781958017694
 21
291.5852748108522
 31
0.0
  0
LINE
  5
12C
330
70
100
AcDbEntity
  8
HONTAI
 62
     2
420
 16776960
370
    25
100
AcDbLine
 10
267.7781958017694
 20
291.5852748108522
 30
0.0
 11
272.3414109365206
 21
300.5483510073212
 31
0.0
  0
LINE
  5
12D
330
70
100
AcDbEntity
  8
HONTAI
 62
     2
420
 16776960
370
    25
100
AcDbLine
 10
267.7781958017694
 20
291.5852748108522
 30
0.0
 11
271.9111417079551
 21
286.6053037838083
 31
0.0
  0
LINE
  5
12E
330
70
100
AcDbEntity
  8
HONTAI
 62
     2
420
 16776960
370
    25
100
AcDbLine
 10
262.447114138317
 20
296.7114713804537
 30
0.0
 11
259.4181704058726
 21
297.730053551744
 31
0.0
  0
LINE
  5
12F
330
70
100
AcDbEntity
  8
HONTAI
 62
     2
420
 16776960
370
    25
100
AcDbLine
 10
259.4181704058726
 20
297.730053551744
 30
0.0
 11
253.8095067610512
 21
291.6502020554986
 31
0.0
  0
LINE
  5
130
330
70
100
AcDbEntity
  8
HONTAI
 62
     2
420
 16776960
370
    25
100
AcDbLine
 10
253.8095067610512
 20
291.6502020554986
 30
0.0
 11
258.7875839007913
 21
287.0579253704517
 31
0.0
  0
LINE
  5
131
330
70
100
AcDbEntity
  8
HONTAI
 62
     2
420
 16776960
370
    25
100
AcDbLine
 10
258.7875839007913
 20
287.0579253704517
 30
0.0
 11
262.9983136611033
 21
296.1803063664656
 31
0.0
  0
LINE
  5
132
330
70
100
AcDbEntity
  8
HONTAI
 62
     2
420
 16776960
370
    25
100
AcDbLine
 10
271.9892346251682
 20
301.3641522331006
 30
0.0
 11
277.2783238561367
 21
306.6689237789224
 31
0.0
  0
LINE
  5
133
330
70
100
AcDbEntity
  8
HONTAI
 62
     2
420
 16776960
370
    25
100
AcDbLine
 10
262.447114138317
 20
296.7114713804537
 30
0.0
 11
268.7859086503174
 21
302.2007268122133
 31
0.0
  0
LINE
  5
134
330
70
100
AcDbEntity
  8
HONTAI
 62
     2
420
 16776960
370
    25
100
AcDbLine
 10
258.7875839007913
 20
287.0579253704517
 30
0.0
 11
261.9535365739251
 21
282.7561802599691
 31
0.0
  0
LINE
  5
135
330
70
100
AcDbEntity
  8
HONTAI
 62
     2
420
 16776960
370
    25
100
AcDbLine
 10
252.807187958962
 20
277.8192759110958
 30
0.0
 11
249.3646550385167
 21
282.4456805353922
 31
0.0
  0
LINE
  5
136
330
70
100
AcDbEntity
  8
HONTAI
 62
     2
420
 16776960
370
    25
100
AcDbLine
 10
249.3646550385167
 20
282.4456805353922
 30
0.0
 11
244.3068118246746
 21
286.5920968837081
 31
0.0
  0
LINE
  5
137
330
70
100
AcDbEntity
  8
HONTAI
 62
     2
420
 16776960
370
    25
100
AcDbLine
 10
244.3068118246746
 20
286.5920968837081
 30
0.0
 11
242.1319619882022
 21
276.4529120367846
 31
0.0
  0
LINE
  5
138
330
70
100
AcDbEntity
  8
HONTAI
 62
     2
420
 16776960
370
    25
100
AcDbLine
 10
242.1319619882022
 20
276.4529120367846
 30
0.0
 11
244.9148751221322
 21
272.5875550315574
 31
0.0
  0
LINE
  5
139
330
70
100
AcDbEntity
  8
HONTAI
 62
     2
420
 16776960
370
    25
100
AcDbLine
 10
249.3646550385167
 20
282.4456805353922
 30
0.0
 11
253.8095067610512
 21
291.6502020554986
 31
0.0
  0
LINE
  5
13A
330
70
100
AcDbEntity
  8
HONTAI
 62
     2
420
 16776960
370
    25
100
AcDbLine
 10
253.8095067610512
 20
291.6502020554986
 30
0.0
 11
250.5898798374507
 21
292.4461929311284
 31
0.0
  0
LINE
  5
13B
330
70
100
AcDbEntity
  8
HONTAI
 62
     2
420
 16776960
370
    25
100
AcDbLine
 10
250.5898798374507
 20
292.4461929311284
 30
0.0
 11
244.3068118246746
 21
286.5920968837081
 31
0.0
  0
LINE
  5
13C
330
70
100
AcDbEntity
  8
HONTAI
 62
     2
420
 16776960
370
    25
100
AcDbLine
 10
242.1319619882022
 20
276.4529120367846
 30
0.0
 11
236.4543036301328
 21
280.9984243979187
 31
0.0
  0
LINE
  5
13D
330
70
100
AcDbEntity
  8
HONTAI
 62
     2
420
 16776960
370
    25
100
AcDbLine
 10
236.4543036301328
 20
280.9984243979187
 30
0.0
 11
234.5728708711702
 21
270.3875055875458
 31
0.0
  0
LINE
  5
13E
330
70
100
AcDbEntity
  8
HONTAI
 62
     2
420
 16776960
370
    25
100
AcDbLine
 10
234.5728708711702
 20
270.3875055875458
 30
0.0
 11
238.3372527564571
 21
266.5195347166585
 31
0.0
  0
LINE
  5
13F
330
70
100
AcDbEntity
  8
HONTAI
 62
     2
420
 16776960
370
    25
100
AcDbLine
 10
236.4543036301328
 20
280.9984243979187
 30
0.0
 11
242.159635691907
 21
286.8192280512856
 31
0.0
  0
LINE
  5
140
330
70
100
AcDbEntity
  8
HONTAI
 62
     2
420
 16776960
370
    25
100
AcDbLine
 10
242.159635691907
 20
286.8192280512856
 30
0.0
 11
244.3068118246746
 21
286.5920968837081
 31
0.0
  0
LINE
  5
141
330
70
100
AcDbEntity
  8
HONTAI
 62
     2
420
 16776960
370
    25
100
AcDbLine
 10
234.5728708711702
 20
270.3875055875458
 30
0.0
 11
230.0222525276638
 21
273.7515506759599
 31
0.0
  0
LINE
  5
142
330
70
100
AcDbEntity
  8
HONTAI
 62
     2
420
 16776960
370
    25
100
AcDbLine
 10
230.0222525276638
 20
273.7515506759599
 30
0.0
 11
236.4543036301328
 21
280.9984243979187
 31
0.0
  0
LINE
  5
143
330
70
100
AcDbEntity
  8
HONTAI
 62
     2
420
 16776960
370
    25
100
AcDbLine
 10
230.0222525276638
 20
273.7515506759599
 30
0.0
 11
227.8879655171617
 21
263.8829697095092
 31
0.0
  0
LINE
  5
144
330
70
100
AcDbEntity
  8
HONTAI
 62
     2
420
 16776960
370
    25
100
AcDbLine
 10
227.8879655171617
 20
263.8829697095092
 30
0.0
 11
224.6558285631104
 21
266.1978916701396
 31
0.0
  0
LINE
  5
145
330
70
100
AcDbEntity
  8
HONTAI
 62
     2
420
 16776960
370
    25
100
AcDbLine
 10
224.6558285631104
 20
266.1978916701396
 30
0.0
 11
230.0222525276638
 21
273.7515506759599
 31
0.0
  0
LINE
  5
146
330
70
100
AcDbEntity
  8
HONTAI
 62
     2
420
 16776960
370
    25
100
AcDbLine
 10
227.8879655171617
 20
263.8829697095092
 30
0.0
 11
232.5837760320593
 21
260.477377914485
 31
0.0
  0
LINE
  5
147
330
70
100
AcDbEntity
  8
HONTAI
 62
     2
420
 16776960
370
    25
100
AcDbLine
 10
224.6558285631104
 20
266.1978916701396
 30
0.0
 11
223.3146016637991
 21
256.2683663625286
 31
0.0
  0
LINE
  5
148
330
70
100
AcDbEntity
  8
HONTAI
 62
     2
420
 16776960
370
    25
100
AcDbLine
 10
223.3146016637991
 20
256.2683663625286
 30
0.0
 11
227.0520680290107
 21
253.403707184672
 31
0.0
  0
LINE
  5
149
330
70
100
AcDbEntity
  8
HONTAI
 62
     2
420
 16776960
370
    25
100
AcDbLine
 10
223.3146016637991
 20
256.2683663625286
 30
0.0
 11
218.6191702407149
 21
259.4360963836327
 31
0.0
  0
LINE
  5
14A
330
70
100
AcDbEntity
  8
HONTAI
 62
     2
420
 16776960
370
    25
100
AcDbLine
 10
218.6191702407149
 20
259.4360963836327
 30
0.0
 11
224.6558285631104
 21
266.1978916701396
 31
0.0
  0
LINE
  5
14B
330
70
100
AcDbEntity
  8
HONTAI
 62
     2
420
 16776960
370
    25
100
AcDbLine
 10
218.6191702407149
 20
259.4360963836327
 30
0.0
 11
218.6191702407149
 21
250.298572367234
 31
0.0
  0
LINE
  5
14C
330
70
100
AcDbEntity
  8
HONTAI
 62
     2
420
 16776960
370
    25
100
AcDbLine
 10
218.6191702407149
 20
250.298572367234
 30
0.0
 11
214.838487406677
 21
252.4916056455427
 31
0.0
  0
LINE
  5
14D
330
70
100
AcDbEntity
  8
HONTAI
 62
     2
420
 16776960
370
    25
100
AcDbLine
 10
214.838487406677
 20
252.4916056455427
 30
0.0
 11
218.6191702407149
 21
259.4360963836327
 31
0.0
  0
LINE
  5
14E
330
70
100
AcDbEntity
  8
HONTAI
 62
     2
420
 16776960
370
    25
100
AcDbLine
 10
218.6191702407149
 20
250.298572367234
 30
0.0
 11
223.8062837690132
 21
246.7720548930423
 31
0.0
  0
LINE
  5
14F
330
70
100
AcDbEntity
  8
HONTAI
 62
     2
420
 16776960
370
    25
100
AcDbLine
 10
214.838487406677
 20
252.4916056455427
 30
0.0
 11
214.838487406677
 21
242.75949598027
 31
0.0
  0
LINE
  5
150
330
70
100
AcDbEntity
  8
HONTAI
 62
     2
420
 16776960
370
    25
100
AcDbLine
 10
214.838487406677
 20
242.75949598027
 30
0.0
 11
219.3735629850606
 21
240.1073853511371
 31
0.0
  0
LINE
  5
151
330
70
100
AcDbEntity
  8
HONTAI
 62
     2
420
 16776960
370
    25
100
AcDbLine
 10
214.838487406677
 20
242.75949598027
 30
0.0
 11
211.72803893048
 21
245.0345220967963
 31
0.0
  0
LINE
  5
152
330
70
100
AcDbEntity
  8
HONTAI
 62
     2
420
 16776960
370
    25
100
AcDbLine
 10
211.72803893048
 20
245.0345220967963
 30
0.0
 11
214.838487406677
 21
249.6553558390268
 31
0.0
  0
LINE
  5
153
330
70
100
AcDbEntity
  8
HONTAI
 62
     2
420
 16776960
370
    25
100
AcDbLine
 10
211.72803893048
 20
245.0345220967963
 30
0.0
 11
212.4418688489093
 21
236.152331482612
 31
0.0
  0
LINE
  5
154
330
70
100
AcDbEntity
  8
HONTAI
 62
     2
420
 16776960
370
    25
100
AcDbLine
 10
212.4418688489093
 20
236.152331482612
 30
0.0
 11
216.1277787250643
 21
233.8441505439323
 31
0.0
  0
LINE
  5
155
330
70
100
AcDbEntity
  8
HONTAI
 62
     2
420
 16776960
370
    25
100
AcDbLine
 10
212.4418688489093
 20
236.152331482612
 30
0.0
 11
209.6680539188906
 21
237.568771519841
 31
0.0
  0
LINE
  5
156
330
70
100
AcDbEntity
  8
HONTAI
 62
     2
420
 16776960
370
    25
100
AcDbLine
 10
209.6680539188906
 20
237.568771519841
 30
0.0
 11
211.8950204097219
 21
242.9567703952057
 31
0.0
  0
LINE
  5
157
330
70
100
AcDbEntity
  8
HONTAI
 62
     2
420
 16776960
370
    25
100
AcDbLine
 10
209.6680539188906
 20
237.568771519841
 30
0.0
 11
210.5282132842607
 21
229.6637539422111
 31
0.0
  0
LINE
  5
158
330
70
100
AcDbEntity
  8
HONTAI
 62
     2
420
 16776960
370
    25
100
AcDbLine
 10
210.5282132842607
 20
229.6637539422111
 30
0.0
 11
214.7266553164147
 21
226.9579902813436
 31
0.0
  0
LINE
  5
159
330
70
100
AcDbEntity
  8
HONTAI
 62
     2
420
 16776960
370
    25
100
AcDbLine
 10
210.5282132842607
 20
229.6637539422111
 30
0.0
 11
208.478084660316
 21
230.656747744527
 31
0.0
  0
LINE
  5
15A
330
70
100
AcDbEntity
  8
HONTAI
 62
     2
420
 16776960
370
    25
100
AcDbLine
 10
208.478084660316
 20
230.656747744527
 30
0.0
 11
209.8185533759452
 21
235.2095514150894
 31
0.0
  0
LINE
  5
15B
330
70
100
AcDbEntity
  8
HONTAI
 62
     2
420
 16776960
370
    25
100
AcDbLine
 10
208.478084660316
 20
230.656747744527
 30
0.0
 11
209.5842746242006
 21
221.869344153034
 31
0.0
  0
LINE
  5
15C
330
70
100
AcDbEntity
  8
HONTAI
 62
     2
420
 16776960
370
    25
100
AcDbLine
 10
209.5842746242006
 20
221.869344153034
 30
0.0
 11
213.3990757230484
 21
219.6632415465006
 31
0.0
  0
LINE
  5
15D
330
70
100
AcDbEntity
  8
HONTAI
 62
     2
420
 16776960
370
    25
100
AcDbLine
 10
209.0311796422582
 20
226.2630459487799
 30
0.0
 11
207.9670688716787
 21
222.6724887662421
 31
0.0
  0
LINE
  5
15E
330
70
100
AcDbEntity
  8
HONTAI
 62
     2
420
 16776960
370
    25
100
AcDbLine
 10
207.9670688716787
 20
222.6724887662421
 30
0.0
 11
209.5842746242006
 21
221.869344153034
 31
0.0
  0
LINE
  5
15F
330
70
100
AcDbEntity
  8
HONTAI
 62
     2
420
 16776960
370
    25
100
AcDbLine
 10
207.9670688716787
 20
222.6724887662421
 30
0.0
 11
208.2172694803609
 21
216.2526971639316
 31
0.0
  0
LINE
  5
160
330
70
100
AcDbEntity
  8
HONTAI
 62
     2
420
 16776960
370
    25
100
AcDbLine
 10
208.2172694803609
 20
216.2526971639316
 30
0.0
 11
214.2842551492134
 21
213.6946856980868
 31
0.0
  0
LINE
  5
161
330
70
100
AcDbEntity
  8
HONTAI
 62
     2
420
 16776960
370
    25
100
AcDbLine
 10
207.9670688716787
 20
222.6724887662421
 30
0.0
 11
209.547502716532
 21
215.691833490253
 31
0.0
  0
LINE
  5
162
330
70
100
AcDbEntity
  8
HONTAI
 62
     2
420
 16776960
370
    25
100
AcDbLine
 10
208.2172694803609
 20
216.2526971639316
 30
0.0
 11
210.1150031880732
 21
207.9575257454433
 31
0.0
  0
LINE
  5
163
330
70
100
AcDbEntity
  8
HONTAI
 62
     2
420
 16776960
370
    25
100
AcDbLine
 10
210.1150031880732
 20
207.9575257454433
 30
0.0
 11
214.1364093350161
 21
208.2420243853938
 31
0.0
  0
LINE
  5
164
330
70
100
AcDbEntity
  8
HONTAI
 62
     2
420
 16776960
370
    25
100
AcDbLine
 10
210.1150031880732
 20
207.9575257454433
 30
0.0
 11
211.970278610694
 21
200.9266398691199
 31
0.0
  0
LINE
  5
165
330
70
100
AcDbEntity
  8
HONTAI
 62
     2
420
 16776960
370
    25
100
AcDbLine
 10
211.970278610694
 20
200.9266398691199
 30
0.0
 11
214.505265686933
 21
201.4630326143705
 31
0.0
  0
LINE
  5
166
330
70
100
AcDbEntity
  8
HONTAI
 62
     2
420
 16776960
370
    25
100
AcDbLine
 10
211.970278610694
 20
200.9266398691199
 30
0.0
 11
213.761866605621
 21
195.5576222571247
 31
0.0
  0
LINE
  5
167
330
70
100
AcDbEntity
  8
HONTAI
 62
     2
420
 16776960
370
    25
100
AcDbLine
 10
213.761866605621
 20
195.5576222571247
 30
0.0
 11
217.2316941379577
 21
195.6021955450227
 31
0.0
  0
LINE
  5
168
330
70
100
AcDbEntity
  8
HONTAI
 62
     2
420
 16776960
370
    25
100
AcDbLine
 10
213.761866605621
 20
195.5576222571247
 30
0.0
 11
215.1576827286612
 21
189.5106504393089
 31
0.0
  0
LINE
  5
169
330
70
100
AcDbEntity
  8
HONTAI
 62
     2
420
 16776960
370
    25
100
AcDbLine
 10
215.1576827286612
 20
189.5106504393089
 30
0.0
 11
218.2159406370653
 21
190.2165848847796
 31
0.0
  0
LINE
  5
16A
330
70
100
AcDbEntity
  8
HONTAI
 62
     2
420
 16776960
370
    25
100
AcDbLine
 10
218.2159406370653
 20
190.2165848847796
 30
0.0
 11
218.1741164307088
 21
184.5736085185601
 31
0.0
  0
LINE
  5
16B
330
70
100
AcDbEntity
  8
HONTAI
 62
     2
420
 16776960
370
    25
100
AcDbLine
 10
218.1741164307088
 20
184.5736085185601
 30
0.0
 11
220.7125153333807
 21
184.0866040768511
 31
0.0
  0
LINE
  5
16C
330
70
100
AcDbEntity
  8
HONTAI
 62
     2
420
 16776960
370
    25
100
AcDbLine
 10
220.7125153333807
 20
184.0866040768511
 30
0.0
 11
221.1264836132491
 21
177.9056372516161
 31
0.0
  0
LINE
  5
16D
330
70
100
AcDbEntity
  8
HONTAI
 62
     2
420
 16776960
370
    25
100
AcDbLine
 10
221.1264836132491
 20
177.9056372516161
 30
0.0
 11
223.8843766862789
 21
177.8233692696475
 31
0.0
  0
LINE
  5
16E
330
70
100
AcDbEntity
  8
HONTAI
 62
     2
420
 16776960
370
    25
100
AcDbLine
 10
223.8843766862789
 20
177.8233692696475
 30
0.0
 11
225.2339436058732
 21
172.3275103878373
 31
0.0
  0
LINE
  5
16F
330
70
100
AcDbEntity
  8
HONTAI
 62
     2
420
 16776960
370
    25
100
AcDbLine
 10
225.2339436058732
 20
172.3275103878373
 30
0.0
 11
228.1624280030618
 21
172.2232309056842
 31
0.0
  0
LINE
  5
170
330
70
100
AcDbEntity
  8
HONTAI
 62
     2
420
 16776960
370
    25
100
AcDbLine
 10
228.1624280030618
 20
172.2232309056842
 30
0.0
 11
229.3577045472998
 21
167.0495653578962
 31
0.0
  0
LINE
  5
171
330
70
100
AcDbEntity
  8
HONTAI
 62
     2
420
 16776960
370
    25
100
AcDbLine
 10
229.3577045472998
 20
167.0495653578962
 30
0.0
 11
232.6618689493264
 21
167.8129293928383
 31
0.0
  0
LINE
  5
172
330
70
100
AcDbEntity
  8
HONTAI
 62
     2
420
 16776960
370
    25
100
AcDbLine
 10
232.6618689493264
 20
167.8129293928383
 30
0.0
 11
234.717683950748
 21
161.9529400607539
 31
0.0
  0
LINE
  5
173
330
70
100
AcDbEntity
  8
HONTAI
 62
     2
420
 16776960
370
    25
100
AcDbLine
 10
234.717683950748
 20
161.9529400607539
 30
0.0
 11
237.5297871556392
 21
162.8653167436342
 31
0.0
  0
LINE
  5
174
330
70
100
AcDbEntity
  8
HONTAI
 62
     2
420
 16776960
370
    25
100
AcDbLine
 10
237.5297871556392
 20
162.8653167436342
 30
0.0
 11
239.1349818492281
 21
157.9178282479078
 31
0.0
  0
LINE
  5
175
330
70
100
AcDbEntity
  8
HONTAI
 62
     2
420
 16776960
370
    25
100
AcDbLine
 10
239.1349818492281
 20
157.9178282479078
 30
0.0
 11
242.1200579787505
 21
158.88632536866
 31
0.0
  0
LINE
  5
176
330
70
100
AcDbEntity
  8
HONTAI
 62
     2
420
 16776960
370
    25
100
AcDbLine
 10
242.1200579787505
 20
158.88632536866
 30
0.0
 11
244.7276037574616
 21
153.2434021511879
 31
0.0
  0
LINE
  5
177
330
70
100
AcDbEntity
  8
HONTAI
 62
     2
420
 16776960
370
    25
100
AcDbLine
 10
244.7276037574616
 20
153.2434021511879
 30
0.0
 11
247.871791406655
 21
153.8356490781783
 31
0.0
  0
LINE
  5
178
330
70
100
AcDbEntity
  8
HONTAI
 62
     2
420
 16776960
370
    25
100
AcDbLine
 10
247.871791406655
 20
153.8356490781783
 30
0.0
 11
251.1209874931381
 21
148.9854150113164
 31
0.0
  0
LINE
  5
179
330
70
100
AcDbEntity
  8
HONTAI
 62
     2
420
 16776960
370
    25
100
AcDbLine
 10
251.1209874931381
 20
148.9854150113164
 30
0.0
 11
254.3626017430205
 21
149.709318223817
 31
0.0
  0
LINE
  5
17A
330
70
100
AcDbEntity
  8
HONTAI
 62
     2
420
 16776960
370
    25
100
AcDbLine
 10
254.3626017430205
 20
149.709318223817
 30
0.0
 11
257.3987482202521
 21
145.3583324956101
 31
0.0
  0
LINE
  5
17B
330
70
100
AcDbEntity
  8
HONTAI
 62
     2
420
 16776960
370
    25
100
AcDbLine
 10
257.3987482202521
 20
145.3583324956101
 30
0.0
 11
261.6650476902652
 21
145.9514048538535
 31
0.0
  0
LINE
  5
17C
330
70
100
AcDbEntity
  8
HONTAI
 62
     2
420
 16776960
370
    25
100
AcDbLine
 10
261.6650476902652
 20
145.9514048538535
 30
0.0
 11
263.9214022704363
 21
142.8422804520274
 31
0.0
  0
LINE
  5
17D
330
70
100
AcDbEntity
  8
HONTAI
 62
     2
420
 16776960
370
    25
100
AcDbLine
 10
263.9214022704363
 20
142.8422804520274
 30
0.0
 11
267.7870016747138
 21
142.8422804520274
 31
0.0
  0
LINE
  5
17E
330
70
100
AcDbEntity
  8
HONTAI
 62
     2
420
 16776960
370
    25
100
AcDbLine
 10
267.7870016747138
 20
142.8422804520274
 30
0.0
 11
270.63777224645
 21
138.8423781518534
 31
0.0
  0
LINE
  5
17F
330
70
100
AcDbEntity
  8
HONTAI
 62
     2
420
 16776960
370
    25
100
AcDbLine
 10
270.63777224645
 20
138.8423781518534
 30
0.0
 11
273.2451658624253
 21
139.2461516084654
 31
0.0
  0
LINE
  5
180
330
70
100
AcDbEntity
  8
HONTAI
 62
     2
420
 16776960
370
    25
100
AcDbLine
 10
273.2451658624253
 20
139.2461516084654
 30
0.0
 11
277.6771284627496
 21
135.4231667411025
 31
0.0
  0
LINE
  5
181
330
70
100
AcDbEntity
  8
HONTAI
 62
     2
420
 16776960
370
    25
100
AcDbLine
 10
277.6771284627496
 20
135.4231667411025
 30
0.0
 11
281.7348082051455
 21
136.2941179181838
 31
0.0
  0
LINE
  5
182
330
70
100
AcDbEntity
  8
HONTAI
 62
     2
420
 16776960
370
    25
100
AcDbLine
 10
281.7348082051455
 20
136.2941179181838
 30
0.0
 11
285.5641340139161
 21
132.3561393333628
 31
0.0
  0
LINE
  5
183
330
70
100
AcDbEntity
  8
HONTAI
 62
     2
420
 16776960
370
    25
100
AcDbLine
 10
285.5641340139161
 20
132.3561393333628
 30
0.0
 11
290.1372084597824
 21
134.3982991195805
 31
0.0
  0
LINE
  5
184
330
70
100
AcDbEntity
  8
HONTAI
 62
     2
420
 16776960
370
    25
100
AcDbLine
 10
290.1372084597824
 20
134.3982991195805
 30
0.0
 11
292.85899812456
 21
130.797174832407
 31
0.0
  0
LINE
  5
185
330
70
100
AcDbEntity
  8
HONTAI
 62
     2
420
 16776960
370
    25
100
AcDbLine
 10
292.85899812456
 20
130.797174832407
 30
0.0
 11
295.6430485339856
 21
131.8527638383903
 31
0.0
  0
LINE
  5
186
330
70
100
AcDbEntity
  8
HONTAI
 62
     2
420
 16776960
370
    25
100
AcDbLine
 10
295.6430485339856
 20
131.8527638383903
 30
0.0
 11
301.6239803571568
 21
128.4228218212713
 31
0.0
  0
LINE
  5
187
330
70
100
AcDbEntity
  8
HONTAI
 62
     2
420
 16776960
370
    25
100
AcDbLine
 10
301.6239803571568
 20
128.4228218212713
 30
0.0
 11
302.5762590374985
 21
129.6422589318142
 31
0.0
  0
LINE
  5
188
330
70
100
AcDbEntity
  8
HONTAI
 62
     2
420
 16776960
370
    25
100
AcDbLine
 10
302.5762590374985
 20
129.6422589318142
 30
0.0
 11
309.8787049847445
 21
126.7685200101222
 31
0.0
  0
LINE
  5
189
330
70
100
AcDbEntity
  8
HONTAI
 62
     2
420
 16776960
370
    25
100
AcDbLine
 10
314.6237211262108
 20
129.1856978021884
 30
0.0
 11
317.6235510991905
 21
125.5895290311868
 31
0.0
  0
LINE
  5
18A
330
70
100
AcDbEntity
  8
HONTAI
 62
     2
420
 16776960
370
    25
100
AcDbLine
 10
309.8787049847445
 20
126.7685200101222
 30
0.0
 11
314.6237211262108
 21
129.1856978021884
 31
0.0
  0
LINE
  5
18B
330
70
100
AcDbEntity
  8
HONTAI
 62
     2
420
 16776960
370
    25
100
AcDbLine
 10
317.6235510991905
 20
125.5895290311868
 30
0.0
 11
323.0536624914364
 21
127.7959067814968
 31
0.0
  0
LINE
  5
18C
330
70
100
AcDbEntity
  8
HONTAI
 62
     2
420
 16776960
370
    25
100
AcDbLine
 10
323.0536624914364
 20
127.7959067814968
 30
0.0
 11
325.847481236356
 21
124.3331950963533
 31
0.0
  0
LINE
  5
18D
330
70
100
AcDbEntity
  8
HONTAI
 62
     2
420
 16776960
370
    25
100
AcDbLine
 10
262.9122598153745
 20
276.0507894427055
 30
0.0
 11
266.9734989529041
 21
274.9284576133091
 31
0.0
  0
LINE
  5
18E
330
70
100
AcDbEntity
  8
HONTAI
 62
     2
420
 16776960
370
    25
100
AcDbLine
 10
266.9734989529093
 20
274.9284576133027
 30
0.0
 11
266.2966571427921
 21
281.7919838804763
 31
0.0
  0
LINE
  5
18F
330
70
100
AcDbEntity
  8
HONTAI
 62
     2
420
 16776960
370
    25
100
AcDbLine
 10
271.9111417079551
 20
280.5455377814918
 30
0.0
 11
275.6664253892782
 21
280.6035931132409
 31
0.0
  0
LINE
  5
190
330
70
100
AcDbEntity
  8
HONTAI
 62
     2
420
 16776960
370
    25
100
AcDbLine
 10
275.6664253892782
 20
280.6035931132409
 30
0.0
 11
274.6631062605008
 21
285.9885689949351
 31
0.0
  0
LINE
  5
191
330
70
100
AcDbEntity
  8
HONTAI
 62
     2
420
 16776960
370
    25
100
AcDbLine
 10
282.1037837774106
 20
284.321060351597
 30
0.0
 11
283.6628333352417
 21
283.3241092149245
 31
0.0
  0
LINE
  5
192
330
70
100
AcDbEntity
  8
HONTAI
 62
     2
420
 16776960
370
    25
100
AcDbLine
 10
283.7869541293844
 20
289.144303615809
 30
0.0
 11
283.6628333352366
 21
283.3241092149309
 31
0.0
  0
LINE
  5
193
330
70
100
AcDbEntity
  8
HONTAI
 62
     2
420
 16776960
370
    25
100
AcDbLine
 10
289.7007840776068
 20
288.0789737215334
 30
0.0
 11
291.6330078875157
 21
286.8282157543295
 31
0.0
  0
LINE
  5
194
330
70
100
AcDbEntity
  8
HONTAI
 62
     2
420
 16776960
370
    25
100
AcDbLine
 10
291.6330078875157
 20
286.8282157543167
 30
0.0
 11
291.5772150590008
 21
292.8975463485998
 31
0.0
  0
LINE
  5
195
330
70
100
AcDbEntity
  8
HONTAI
 62
     2
420
 16776960
370
    25
100
AcDbLine
 10
299.0685223220516
 20
290.6578961125601
 30
0.0
 11
301.1076093424038
 21
288.9288441604634
 31
0.0
  0
LINE
  5
196
330
70
100
AcDbEntity
  8
HONTAI
 62
     2
420
 16776960
370
    25
100
AcDbLine
 10
301.1076093423987
 20
288.9288441604698
 30
0.0
 11
301.1360927231176
 21
294.7506359846607
 31
0.0
  0
LINE
  5
197
330
70
100
AcDbEntity
  8
HONTAI
 62
     2
420
 16776960
370
    25
100
AcDbLine
 10
308.3623376593458
 20
292.0579650965269
 30
0.0
 11
310.0880868986069
 21
290.2219578618497
 31
0.0
  0
LINE
  5
198
330
70
100
AcDbEntity
  8
HONTAI
 62
     2
420
 16776960
370
    25
100
AcDbLine
 10
310.0880868986056
 20
290.2219578618561
 30
0.0
 11
310.5147160064047
 21
296.7418583114963
 31
0.0
  0
LINE
  5
199
330
70
100
AcDbEntity
  8
HONTAI
 62
     2
420
 16776960
370
    25
100
AcDbLine
 10
255.9051264047623
 20
271.7771191089223
 30
0.0
 11
258.2094171978805
 21
270.5623315421231
 31
0.0
  0
LINE
  5
19A
330
70
100
AcDbEntity
  8
HONTAI
 62
     2
420
 16776960
370
    25
100
AcDbLine
 10
258.041308874414
 20
270.650955730453
 30
0.0
 11
257.6301534523997
 21
276.9752097496759
 31
0.0
  0
LINE
  5
19B
330
70
100
AcDbEntity
  8
HONTAI
 62
     2
420
 16776960
370
    25
100
AcDbLine
 10
248.737258057636
 20
266.5195347166585
 30
0.0
 11
250.8715262087098
 21
265.5354769682232
 31
0.0
  0
LINE
  5
19C
330
70
100
AcDbEntity
  8
HONTAI
 62
     2
420
 16776960
370
    25
100
AcDbLine
 10
250.8715262087021
 20
265.5354769682296
 30
0.0
 11
250.3740405959014
 21
272.1849888213967
 31
0.0
  0
LINE
  5
19D
330
70
100
AcDbEntity
  8
HONTAI
 62
     2
420
 16776960
370
    25
100
AcDbLine
 10
243.4680327741377
 20
266.5195347166585
 30
0.0
 11
246.2898411944399
 21
263.0342888053272
 31
0.0
  0
LINE
  5
19E
330
70
100
AcDbEntity
  8
HONTAI
 62
     2
420
 16776960
370
    25
100
AcDbLine
 10
246.2898411944399
 20
263.0342888053272
 30
0.0
 11
243.1316271474867
 21
261.2142128833617
 31
0.0
  0
LINE
  5
19F
330
70
100
AcDbEntity
  8
HONTAI
 62
     2
420
 16776960
370
    25
100
AcDbLine
 10
237.8577015897737
 20
260.8457953989227
 30
0.0
 11
240.8362261086571
 21
257.1953256642897
 31
0.0
  0
LINE
  5
1A0
330
70
100
AcDbEntity
  8
HONTAI
 62
     2
420
 16776960
370
    25
100
AcDbLine
 10
240.8362261086571
 20
257.1953256642897
 30
0.0
 11
236.9357502559402
 21
254.9509780761568
 31
0.0
  0
LINE
  5
1A1
330
70
100
AcDbEntity
  8
HONTAI
 62
     2
420
 16776960
370
    25
100
AcDbLine
 10
232.2934599372437
 20
254.2242367144897
 30
0.0
 11
235.7635983134257
 21
250.5606467913735
 31
0.0
  0
LINE
  5
1A2
330
70
100
AcDbEntity
  8
HONTAI
 62
     2
420
 16776960
370
    25
100
AcDbLine
 10
235.7635983134257
 20
250.5606467913735
 30
0.0
 11
231.3301193457923
 21
247.4351513362569
 31
0.0
  0
LINE
  5
1A3
330
70
100
AcDbEntity
  8
HONTAI
 62
     2
420
 16776960
370
    25
100
AcDbLine
 10
231.3301193457923
 20
247.4351513362569
 30
0.0
 11
232.3707264228604
 21
244.7336524035567
 31
0.0
  0
LINE
  5
1A4
330
70
100
AcDbEntity
  8
HONTAI
 62
     2
420
 16776960
370
    25
100
AcDbLine
 10
232.3707264228604
 20
244.7336524035567
 30
0.0
 11
229.1833223048933
 21
242.1705507783172
 31
0.0
  0
LINE
  5
1A5
330
70
100
AcDbEntity
  8
HONTAI
 62
     2
420
 16776960
370
    25
100
AcDbLine
 10
229.1833223048933
 20
242.1705507783172
 30
0.0
 11
229.1909041414941
 21
238.6070264694323
 31
0.0
  0
LINE
  5
1A6
330
70
100
AcDbEntity
  8
HONTAI
 62
     2
420
 16776960
370
    25
100
AcDbLine
 10
229.1909041414941
 20
238.6070264694323
 30
0.0
 11
225.3977622610735
 21
235.9755749096634
 31
0.0
  0
LINE
  5
1A7
330
70
100
AcDbEntity
  8
HONTAI
 62
     2
420
 16776960
370
    25
100
AcDbLine
 10
225.3977622610735
 20
235.9755749096634
 30
0.0
 11
227.0755717226004
 21
231.7683285041271
 31
0.0
  0
LINE
  5
1A8
330
70
100
AcDbEntity
  8
HONTAI
 62
     2
420
 16776960
370
    25
100
AcDbLine
 10
227.0755717226004
 20
231.7683285041271
 30
0.0
 11
223.6516143018434
 21
229.3494022051203
 31
0.0
  0
LINE
  5
1A9
330
70
100
AcDbEntity
  8
HONTAI
 62
     2
420
 16776960
370
    25
100
AcDbLine
 10
223.6516143018434
 20
229.3494022051203
 30
0.0
 11
225.5618580400064
 21
225.7678559804661
 31
0.0
  0
LINE
  5
1AA
330
70
100
AcDbEntity
  8
HONTAI
 62
     2
420
 16776960
370
    25
100
AcDbLine
 10
225.5618580400064
 20
225.7678559804661
 30
0.0
 11
221.4425252951806
 21
222.9903509784955
 31
0.0
  0
LINE
  5
1AB
330
70
100
AcDbEntity
  8
HONTAI
 62
     2
420
 16776960
370
    25
100
AcDbLine
 10
221.4425252951806
 20
222.9903509784955
 30
0.0
 11
224.6490049101379
 21
219.3843833534725
 31
0.0
  0
LINE
  5
1AC
330
70
100
AcDbEntity
  8
HONTAI
 62
     2
420
 16776960
370
    25
100
AcDbLine
 10
224.6490049101379
 20
219.3843833534725
 30
0.0
 11
220.9960760232459
 21
217.0841815835984
 31
0.0
  0
LINE
  5
1AD
330
70
100
AcDbEntity
  8
HONTAI
 62
     2
420
 16776960
370
    25
100
AcDbLine
 10
220.9960760232459
 20
217.0841815835984
 30
0.0
 11
224.8942773250229
 21
213.1603565309955
 31
0.0
  0
LINE
  5
1AE
330
70
100
AcDbEntity
  8
HONTAI
 62
     2
420
 16776960
370
    25
100
AcDbLine
 10
224.8942773250229
 20
213.1603565309955
 30
0.0
 11
219.9641880583266
 21
210.3936485289666
 31
0.0
  0
LINE
  5
1AF
330
70
100
AcDbEntity
  8
HONTAI
 62
     2
420
 16776960
370
    25
100
AcDbLine
 10
219.9641880583266
 20
210.3936485289666
 30
0.0
 11
224.9647884056352
 21
207.7038432057361
 31
0.0
  0
LINE
  5
1B0
330
70
100
AcDbEntity
  8
HONTAI
 62
     2
420
 16776960
370
    25
100
AcDbLine
 10
224.9647884056352
 20
207.7038432057361
 30
0.0
 11
221.7337887270796
 21
205.8104414737876
 31
0.0
  0
LINE
  5
1B1
330
70
100
AcDbEntity
  8
HONTAI
 62
     2
420
 16776960
370
    25
100
AcDbLine
 10
221.7337887270796
 20
205.8104414737876
 30
0.0
 11
226.5069339755622
 21
201.950174627955
 31
0.0
  0
LINE
  5
1B2
330
70
100
AcDbEntity
  8
HONTAI
 62
     2
420
 16776960
370
    25
100
AcDbLine
 10
226.5069339755622
 20
201.950174627955
 30
0.0
 11
223.7964273814212
 21
199.3601089149592
 31
0.0
  0
LINE
  5
1B3
330
70
100
AcDbEntity
  8
HONTAI
 62
     2
420
 16776960
370
    25
100
AcDbLine
 10
223.7964273814212
 20
199.3601089149592
 30
0.0
 11
227.3614069634029
 21
195.8333162970165
 31
0.0
  0
LINE
  5
1B4
330
70
100
AcDbEntity
  8
HONTAI
 62
     2
420
 16776960
370
    25
100
AcDbLine
 10
227.3614069634029
 20
195.8333162970165
 30
0.0
 11
224.3862942710051
 21
193.6127686434778
 31
0.0
  0
LINE
  5
1B5
330
70
100
AcDbEntity
  8
HONTAI
 62
     2
420
 16776960
370
    25
100
AcDbLine
 10
224.3862942710051
 20
193.6127686434778
 30
0.0
 11
229.1787732029108
 21
190.3784538342899
 31
0.0
  0
LINE
  5
1B6
330
70
100
AcDbEntity
  8
HONTAI
 62
     2
420
 16776960
370
    25
100
AcDbLine
 10
229.1787732029108
 20
190.3784538342899
 30
0.0
 11
227.1892992719864
 21
187.8652908000927
 31
0.0
  0
LINE
  5
1B7
330
70
100
AcDbEntity
  8
HONTAI
 62
     2
420
 16776960
370
    25
100
AcDbLine
 10
227.1892992719864
 20
187.8652908000927
 30
0.0
 11
232.2797443833306
 21
185.157738704845
 31
0.0
  0
LINE
  5
1B8
330
70
100
AcDbEntity
  8
HONTAI
 62
     2
420
 16776960
370
    25
100
AcDbLine
 10
232.2797443833306
 20
185.157738704845
 30
0.0
 11
229.858863948345
 21
182.8338745722792
 31
0.0
  0
LINE
  5
1B9
330
70
100
AcDbEntity
  8
HONTAI
 62
     2
420
 16776960
370
    25
100
AcDbLine
 10
229.858863948345
 20
182.8338745722792
 30
0.0
 11
234.5679426773216
 21
179.7576298488557
 31
0.0
  0
LINE
  5
1BA
330
70
100
AcDbEntity
  8
HONTAI
 62
     2
420
 16776960
370
    25
100
AcDbLine
 10
234.5679426773216
 20
179.7576298488557
 30
0.0
 11
232.5140231350765
 21
177.1601352545575
 31
0.0
  0
LINE
  5
1BB
330
70
100
AcDbEntity
  8
HONTAI
 62
     2
420
 16776960
370
    25
100
AcDbLine
 10
232.5140231350765
 20
177.1601352545575
 30
0.0
 11
238.4687976219046
 21
174.5208188098969
 31
0.0
  0
LINE
  5
1BC
330
70
100
AcDbEntity
  8
HONTAI
 62
     2
420
 16776960
370
    25
100
AcDbLine
 10
238.4687976219046
 20
174.5208188098969
 30
0.0
 11
235.5366862472872
 21
170.9113785344841
 31
0.0
  0
LINE
  5
1BD
330
70
100
AcDbEntity
  8
HONTAI
 62
     2
420
 16776960
370
    25
100
AcDbLine
 10
235.5366862472872
 20
170.9113785344841
 30
0.0
 11
242.8431382638269
 21
171.0747808832666
 31
0.0
  0
LINE
  5
1BE
330
70
100
AcDbEntity
  8
HONTAI
 62
     2
420
 16776960
370
    25
100
AcDbLine
 10
242.8431382638269
 20
171.0747808832666
 30
0.0
 11
240.3909748516117
 21
166.3961099569982
 31
0.0
  0
LINE
  5
1BF
330
70
100
AcDbEntity
  8
HONTAI
 62
     2
420
 16776960
370
    25
100
AcDbLine
 10
240.3909748516117
 20
166.3961099569982
 30
0.0
 11
247.2929181802114
 21
166.6929790548165
 31
0.0
  0
LINE
  5
1C0
330
70
100
AcDbEntity
  8
HONTAI
 62
     2
420
 16776960
370
    25
100
AcDbLine
 10
247.2929181802114
 20
166.6929790548165
 30
0.0
 11
245.0589120355749
 21
162.0530631476895
 31
0.0
  0
LINE
  5
1C1
330
70
100
AcDbEntity
  8
HONTAI
 62
     2
420
 16776960
370
    25
100
AcDbLine
 10
245.0589120355749
 20
162.0530631476895
 30
0.0
 11
252.1426399786506
 21
162.5411974033294
 31
0.0
  0
LINE
  5
1C2
330
70
100
AcDbEntity
  8
HONTAI
 62
     2
420
 16776960
370
    25
100
AcDbLine
 10
252.1426399786506
 20
162.5411974033294
 30
0.0
 11
250.4719177964635
 21
158.3101685285256
 31
0.0
  0
LINE
  5
1C3
330
70
100
AcDbEntity
  8
HONTAI
 62
     2
420
 16776960
370
    25
100
AcDbLine
 10
250.4719177964635
 20
158.3101685285256
 30
0.0
 11
257.6682825123563
 21
158.3101685285256
 31
0.0
  0
LINE
  5
1C4
330
70
100
AcDbEntity
  8
HONTAI
 62
     2
420
 16776960
370
    25
100
AcDbLine
 10
257.6682825123563
 20
158.3101685285256
 30
0.0
 11
256.0590376883025
 21
154.9410391033554
 31
0.0
  0
LINE
  5
1C5
330
70
100
AcDbEntity
  8
HONTAI
 62
     2
420
 16776960
370
    25
100
AcDbLine
 10
256.0590376883025
 20
154.9410391033554
 30
0.0
 11
262.7143738794298
 21
154.6177451943035
 31
0.0
  0
LINE
  5
1C6
330
70
100
AcDbEntity
  8
HONTAI
 62
     2
420
 16776960
370
    25
100
AcDbLine
 10
262.7143738794298
 20
154.6177451943035
 30
0.0
 11
261.6650476902652
 21
149.8409960994375
 31
0.0
  0
LINE
  5
1C7
330
70
100
AcDbEntity
  8
HONTAI
 62
     2
420
 16776960
370
    25
100
AcDbLine
 10
261.6650476902652
 20
149.8409960994375
 30
0.0
 11
268.8882634447485
 21
150.7503246109182
 31
0.0
  0
LINE
  5
1C8
330
70
100
AcDbEntity
  8
HONTAI
 62
     2
420
 16776960
370
    25
100
AcDbLine
 10
268.8882634447485
 20
150.7503246109182
 30
0.0
 11
267.7870016747138
 21
146.3692334274029
 31
0.0
  0
LINE
  5
1C9
330
70
100
AcDbEntity
  8
HONTAI
 62
     2
420
 16776960
370
    25
100
AcDbLine
 10
267.7870016747138
 20
146.3692334274029
 30
0.0
 11
274.1303452886429
 21
145.4356478900338
 31
0.0
  0
LINE
  5
1CA
330
70
100
AcDbEntity
  8
HONTAI
 62
     2
420
 16776960
370
    25
100
AcDbLine
 10
273.5864527994254
 20
141.6325539184733
 30
0.0
 11
280.3262221801895
 21
142.8565879271316
 31
0.0
  0
LINE
  5
1CB
330
70
100
AcDbEntity
  8
HONTAI
 62
     2
420
 16776960
370
    25
100
AcDbLine
 10
325.847481236356
 20
124.3331950963533
 30
0.0
 11
324.64508999943
 21
133.3946694267052
 31
0.0
  0
LINE
  5
1CC
330
70
100
AcDbEntity
  8
HONTAI
 62
     2
420
 16776960
370
    25
100
AcDbLine
 10
324.64508999943
 20
133.3946694267052
 30
0.0
 11
317.6235510991905
 21
125.5895290311868
 31
0.0
  0
LINE
  5
1CD
330
70
100
AcDbEntity
  8
HONTAI
 62
     2
420
 16776960
370
    25
100
AcDbLine
 10
317.6235510991905
 20
125.5895290311868
 30
0.0
 11
316.8244255187082
 21
134.6438220624873
 31
0.0
  0
LINE
  5
1CE
330
70
100
AcDbEntity
  8
HONTAI
 62
     2
420
 16776960
370
    25
100
AcDbLine
 10
316.8244255187082
 20
134.6438220624873
 30
0.0
 11
309.8787049847445
 21
126.7685200101222
 31
0.0
  0
LINE
  5
1CF
330
70
100
AcDbEntity
  8
HONTAI
 62
     2
420
 16776960
370
    25
100
AcDbLine
 10
309.8787049847445
 20
126.7685200101222
 30
0.0
 11
308.8233133262883
 21
134.9061716304033
 31
0.0
  0
LINE
  5
1D0
330
70
100
AcDbEntity
  8
HONTAI
 62
     2
420
 16776960
370
    25
100
AcDbLine
 10
308.8233133262883
 20
134.9061716304033
 30
0.0
 11
302.5762590374985
 21
129.6422589318142
 31
0.0
  0
LINE
  5
1D1
330
70
100
AcDbEntity
  8
HONTAI
 62
     2
420
 16776960
370
    25
100
AcDbLine
 10
336.568514238503
 20
295.4247637241873
 30
0.0
 11
342.0499541602799
 21
299.4805181043328
 31
0.0
  0
LINE
  5
1D2
330
70
100
AcDbEntity
  8
HONTAI
 62
     2
420
 16776960
370
    25
100
AcDbLine
 10
342.1655771688425
 20
305.6204885104918
 30
0.0
 11
335.9719748282884
 21
311.5630432742792
 31
0.0
  0
LINE
  5
1D3
330
70
100
AcDbEntity
  8
HONTAI
 62
     2
420
 16776960
370
    25
100
AcDbLine
 10
335.4893693194618
 20
315.6402563238601
 30
0.0
 11
341.8600291527532
 21
309.849585556377
 31
0.0
  0
LINE
  5
1D4
330
70
100
AcDbEntity
  8
HONTAI
 62
     2
420
 16776960
370
    25
100
AcDbLine
 10
341.811126306554
 20
127.5790935046072
 30
0.0
 11
347.3977424131276
 21
122.9368681145506
 31
0.0
  0
LINE
  5
1D5
330
70
100
AcDbEntity
  8
HONTAI
 62
     2
420
 16776960
370
    25
100
AcDbLine
 10
347.3977424131276
 20
122.9368681145506
 30
0.0
 11
350.7170704884083
 21
128.3159284734839
 31
0.0
  0
LINE
  5
1D6
330
70
100
AcDbEntity
  8
HONTAI
 62
     2
420
 16776960
370
    25
100
AcDbLine
 10
350.7170704884083
 20
128.3159284734839
 30
0.0
 11
357.1711969692032
 21
124.3331950963533
 31
0.0
  0
LINE
  5
1D7
330
70
100
AcDbEntity
  8
HONTAI
 62
     2
420
 16776960
370
    25
100
AcDbLine
 10
380.4424191680594
 20
129.6422589318142
 30
0.0
 11
380.4424191680594
 21
136.0528332184138
 31
0.0
  0
LINE
  5
1D8
330
70
100
AcDbEntity
  8
HONTAI
 62
     2
420
 16776960
370
    25
100
AcDbLine
 10
380.4424191680594
 20
136.0528332184138
 30
0.0
 11
387.3756296715737
 21
131.8527638383903
 31
0.0
  0
LINE
  5
1D9
330
70
100
AcDbEntity
  8
HONTAI
 62
     2
420
 16776960
370
    25
100
AcDbLine
 10
387.3756296715737
 20
131.8527638383903
 30
0.0
 11
387.3756296715737
 21
138.3618395883453
 31
0.0
  0
LINE
  5
1DA
330
70
100
AcDbEntity
  8
HONTAI
 62
     2
420
 16776960
370
    25
100
AcDbLine
 10
387.3756296715737
 20
138.3618395883453
 30
0.0
 11
392.8087737984391
 21
134.2355087339569
 31
0.0
  0
LINE
  5
1DB
330
70
100
AcDbEntity
  8
HONTAI
 62
     2
420
 16776960
370
    25
100
AcDbLine
 10
392.8087737984391
 20
134.2355087339569
 30
0.0
 11
394.9476099109224
 21
139.0250736034353
 31
0.0
  0
LINE
  5
1DC
330
70
100
AcDbEntity
  8
HONTAI
 62
     2
420
 16776960
370
    25
100
AcDbLine
 10
394.9476099109224
 20
139.0250736034353
 30
0.0
 11
401.2645622228389
 21
136.2041647956896
 31
0.0
  0
LINE
  5
1DD
330
70
100
AcDbEntity
  8
HONTAI
 62
     2
420
 16776960
370
    25
100
AcDbLine
 10
401.2645622228389
 20
136.2041647956896
 30
0.0
 11
402.6924560253697
 21
142.8565879271316
 31
0.0
  0
LINE
  5
1DE
330
70
100
AcDbEntity
  8
HONTAI
 62
     2
420
 16776960
370
    25
100
AcDbLine
 10
402.6924560253697
 20
142.8565879271316
 30
0.0
 11
409.7735123431326
 21
139.2461516084654
 31
0.0
  0
LINE
  5
1DF
330
70
100
AcDbEntity
  8
HONTAI
 62
     2
420
 16776960
370
    25
100
AcDbLine
 10
409.7735123431326
 20
139.2461516084654
 30
0.0
 11
408.8883329169163
 21
145.4356478900338
 31
0.0
  0
LINE
  5
1E0
330
70
100
AcDbEntity
  8
HONTAI
 62
     2
420
 16776960
370
    25
100
AcDbLine
 10
408.8883329169163
 20
145.4356478900338
 30
0.0
 11
415.2316765308454
 21
142.4881704427067
 31
0.0
  0
LINE
  5
1E1
330
70
100
AcDbEntity
  8
HONTAI
 62
     2
420
 16776960
370
    25
100
AcDbLine
 10
415.2316765308454
 20
142.4881704427067
 30
0.0
 11
415.2316765308454
 21
148.3093868117257
 31
0.0
  0
LINE
  5
1E2
330
70
100
AcDbEntity
  8
HONTAI
 62
     2
420
 16776960
370
    25
100
AcDbLine
 10
415.2316765308454
 20
148.3093868117257
 30
0.0
 11
421.353630515294
 21
145.9514048538535
 31
0.0
  0
LINE
  5
1E3
330
70
100
AcDbEntity
  8
HONTAI
 62
     2
420
 16776960
370
    25
100
AcDbLine
 10
421.353630515294
 20
145.9514048538535
 30
0.0
 11
421.353630515294
 21
151.6988826972386
 31
0.0
  0
LINE
  5
1E4
330
70
100
AcDbEntity
  8
HONTAI
 62
     2
420
 16776960
370
    25
100
AcDbLine
 10
421.353630515294
 20
151.6988826972386
 30
0.0
 11
428.6560764625387
 21
149.709318223817
 31
0.0
  0
LINE
  5
1E5
330
70
100
AcDbEntity
  8
HONTAI
 62
     2
420
 16776960
370
    25
100
AcDbLine
 10
428.6560764625387
 20
149.709318223817
 30
0.0
 11
426.9596405172555
 21
154.9410391033554
 31
0.0
  0
LINE
  5
1E6
330
70
100
AcDbEntity
  8
HONTAI
 62
     2
420
 16776960
370
    25
100
AcDbLine
 10
426.9596405172555
 20
154.9410391033554
 30
0.0
 11
435.1468867989042
 21
153.8356490781783
 31
0.0
  0
LINE
  5
1E7
330
70
100
AcDbEntity
  8
HONTAI
 62
     2
420
 16776960
370
    25
100
AcDbLine
 10
435.1468867989042
 20
153.8356490781783
 30
0.0
 11
432.2119578406092
 21
158.8863253686664
 31
0.0
  0
LINE
  5
1E8
330
70
100
AcDbEntity
  8
HONTAI
 62
     2
420
 16776960
370
    25
100
AcDbLine
 10
432.2119578406092
 20
158.8863253686664
 30
0.0
 11
440.2517373998216
 21
158.8863253686664
 31
0.0
  0
LINE
  5
1E9
330
70
100
AcDbEntity
  8
HONTAI
 62
     2
420
 16776960
370
    25
100
AcDbLine
 10
440.2517373998216
 20
158.8863253686664
 30
0.0
 11
436.7853216939718
 21
163.6757526662693
 31
0.0
  0
LINE
  5
1EA
330
70
100
AcDbEntity
  8
HONTAI
 62
     2
420
 16776960
370
    25
100
AcDbLine
 10
436.7853216939718
 20
163.6757526662693
 30
0.0
 11
445.4888910499187
 21
162.8653167436342
 31
0.0
  0
LINE
  5
1EB
330
70
100
AcDbEntity
  8
HONTAI
 62
     2
420
 16776960
370
    25
100
AcDbLine
 10
445.4888910499187
 20
162.8653167436342
 30
0.0
 11
441.7271628074366
 21
167.507404561841
 31
0.0
  0
LINE
  5
1EC
330
70
100
AcDbEntity
  8
HONTAI
 62
     2
420
 16776960
370
    25
100
AcDbLine
 10
441.7271628074366
 20
167.507404561841
 30
0.0
 11
450.3568092562328
 21
167.507404561841
 31
0.0
  0
LINE
  5
1ED
330
70
100
AcDbEntity
  8
HONTAI
 62
     2
420
 16776960
370
    25
100
AcDbLine
 10
450.3568092562328
 20
167.507404561841
 30
0.0
 11
446.3740704760836
 21
172.2232309056842
 31
0.0
  0
LINE
  5
1EE
330
70
100
AcDbEntity
  8
HONTAI
 62
     2
420
 16776960
370
    25
100
AcDbLine
 10
446.3740704760836
 20
172.2232309056842
 30
0.0
 11
454.8562502024974
 21
172.2232309056842
 31
0.0
  0
LINE
  5
1EF
330
70
100
AcDbEntity
  8
HONTAI
 62
     2
420
 16776960
370
    25
100
AcDbLine
 10
454.8562502024974
 20
172.2232309056842
 30
0.0
 11
450.5046550704827
 21
177.1601352545575
 31
0.0
  0
LINE
  5
1F0
330
70
100
AcDbEntity
  8
HONTAI
 62
     2
420
 16776960
370
    25
100
AcDbLine
 10
450.5046550704827
 20
177.1601352545575
 30
0.0
 11
459.134301519279
 21
177.8233692696475
 31
0.0
  0
LINE
  5
1F1
330
70
100
AcDbEntity
  8
HONTAI
 62
     2
420
 16776960
370
    25
100
AcDbLine
 10
459.134301519279
 20
177.8233692696475
 30
0.0
 11
453.1598142572142
 21
182.8338745722792
 31
0.0
  0
LINE
  5
1F2
330
70
100
AcDbEntity
  8
HONTAI
 62
     2
420
 16776960
370
    25
100
AcDbLine
 10
453.1598142572142
 20
182.8338745722792
 30
0.0
 11
462.3061628721772
 21
184.0866040768511
 31
0.0
  0
LINE
  5
1F3
330
70
100
AcDbEntity
  8
HONTAI
 62
     2
420
 16776960
370
    25
100
AcDbLine
 10
462.3061628721772
 20
184.0866040768511
 30
0.0
 11
455.8293789335715
 21
187.8652908000927
 31
0.0
  0
LINE
  5
1F4
330
70
100
AcDbEntity
  8
HONTAI
 62
     2
420
 16776960
370
    25
100
AcDbLine
 10
455.8293789335715
 20
187.8652908000927
 30
0.0
 11
464.8282608260994
 21
190.2232727579662
 31
0.0
  0
LINE
  5
1F5
330
70
100
AcDbEntity
  8
HONTAI
 62
     2
420
 16776960
370
    25
100
AcDbLine
 10
464.8282608260994
 20
190.2232727579662
 30
0.0
 11
458.6323839345529
 21
193.6127686434778
 31
0.0
  0
LINE
  5
1F6
330
70
100
AcDbEntity
  8
HONTAI
 62
     2
420
 16776960
370
    25
100
AcDbLine
 10
458.6323839345529
 20
193.6127686434778
 30
0.0
 11
465.7869840676015
 21
195.6021955450227
 31
0.0
  0
LINE
  5
1F7
330
70
100
AcDbEntity
  8
HONTAI
 62
     2
420
 16776960
370
    25
100
AcDbLine
 10
465.7869840676015
 20
195.6021955450227
 30
0.0
 11
459.2222508241381
 21
199.3601089149592
 31
0.0
  0
LINE
  5
1F8
330
70
100
AcDbEntity
  8
HONTAI
 62
     2
420
 16776960
370
    25
100
AcDbLine
 10
459.2222508241381
 20
199.3601089149592
 30
0.0
 11
468.5134125186262
 21
201.4630326143705
 31
0.0
  0
LINE
  5
1F9
330
70
100
AcDbEntity
  8
HONTAI
 62
     2
420
 16776960
370
    25
100
AcDbLine
 10
468.5134125186262
 20
201.4630326143705
 30
0.0
 11
461.2848894784796
 21
205.8104414737876
 31
0.0
  0
LINE
  5
1FA
330
70
100
AcDbEntity
  8
HONTAI
 62
     2
420
 16776960
370
    25
100
AcDbLine
 10
461.2848894784796
 20
205.8104414737876
 30
0.0
 11
468.8822688705431
 21
208.2420243853938
 31
0.0
  0
LINE
  5
1FB
330
70
100
AcDbEntity
  8
HONTAI
 62
     2
420
 16776960
370
    25
100
AcDbLine
 10
468.8822688705431
 20
208.2420243853938
 30
0.0
 11
461.506279108014
 21
211.7788597503003
 31
0.0
  0
LINE
  5
1FC
330
70
100
AcDbEntity
  8
HONTAI
 62
     2
420
 16776960
370
    25
100
AcDbLine
 10
461.506279108014
 20
211.7788597503003
 30
0.0
 11
468.7344230563458
 21
213.6946856980868
 31
0.0
  0
LINE
  5
1FD
330
70
100
AcDbEntity
  8
HONTAI
 62
     2
420
 16776960
370
    25
100
AcDbLine
 10
468.7344230563458
 20
213.6946856980868
 30
0.0
 11
462.0226021823134
 21
217.0841815835984
 31
0.0
  0
LINE
  5
1FE
330
70
100
AcDbEntity
  8
HONTAI
 62
     2
420
 16776960
370
    25
100
AcDbLine
 10
462.0226021823134
 20
217.0841815835984
 30
0.0
 11
469.6196024825095
 21
219.6632415465006
 31
0.0
  0
LINE
  5
1FF
330
70
100
AcDbEntity
  8
HONTAI
 62
     2
420
 16776960
370
    25
100
AcDbLine
 10
469.6196024825095
 20
219.6632415465006
 30
0.0
 11
461.5761529103799
 21
222.9903509784955
 31
0.0
  0
LINE
  5
200
330
70
100
AcDbEntity
  8
HONTAI
 62
     2
420
 16776960
370
    25
100
AcDbLine
 10
461.5761529103799
 20
222.9903509784955
 30
0.0
 11
468.2920228891444
 21
226.9579902813436
 31
0.0
  0
LINE
  5
201
330
70
100
AcDbEntity
  8
HONTAI
 62
     2
420
 16776960
370
    25
100
AcDbLine
 10
468.2920228891444
 20
226.9579902813436
 30
0.0
 11
459.3670639037157
 21
229.3494022051203
 31
0.0
  0
LINE
  5
202
330
70
100
AcDbEntity
  8
HONTAI
 62
     2
420
 16776960
370
    25
100
AcDbLine
 10
459.3670639037157
 20
229.3494022051203
 30
0.0
 11
466.8908994804949
 21
233.8441505439323
 31
0.0
  0
LINE
  5
203
330
70
100
AcDbEntity
  8
HONTAI
 62
     2
420
 16776960
370
    25
100
AcDbLine
 10
466.8908994804949
 20
233.8441505439323
 30
0.0
 11
457.597084143148
 21
235.9810544967487
 31
0.0
  0
LINE
  5
204
330
70
100
AcDbEntity
  8
HONTAI
 62
     2
420
 16776960
370
    25
100
AcDbLine
 10
457.597084143148
 20
235.9810544967487
 30
0.0
 11
463.6451152204974
 21
240.1073853511371
 31
0.0
  0
LINE
  5
205
330
70
100
AcDbEntity
  8
HONTAI
 62
     2
420
 16776960
370
    25
100
AcDbLine
 10
463.6451152204974
 20
240.1073853511371
 30
0.0
 11
453.8353559006658
 21
242.1705507783172
 31
0.0
  0
LINE
  5
206
330
70
100
AcDbEntity
  8
HONTAI
 62
     2
420
 16776960
370
    25
100
AcDbLine
 10
453.8353559006658
 20
242.1705507783172
 30
0.0
 11
459.212394436546
 21
246.7720548930423
 31
0.0
  0
LINE
  5
207
330
70
100
AcDbEntity
  8
HONTAI
 62
     2
420
 16776960
370
    25
100
AcDbLine
 10
459.212394436546
 20
246.7720548930423
 30
0.0
 11
451.6885588597657
 21
247.4351513362569
 31
0.0
  0
LINE
  5
208
330
70
100
AcDbEntity
  8
HONTAI
 62
     2
420
 16776960
370
    25
100
AcDbLine
 10
451.6885588597657
 20
247.4351513362569
 30
0.0
 11
455.9666101765485
 21
253.403707184672
 31
0.0
  0
LINE
  5
209
330
70
100
AcDbEntity
  8
HONTAI
 62
     2
420
 16776960
370
    25
100
AcDbLine
 10
455.9666101765485
 20
253.403707184672
 30
0.0
 11
446.0829279496177
 21
254.9509780761568
 31
0.0
  0
LINE
  5
20A
330
70
100
AcDbEntity
  8
HONTAI
 62
     2
420
 16776960
370
    25
100
AcDbLine
 10
446.0829279496177
 20
254.9509780761568
 30
0.0
 11
450.4349021734986
 21
260.477377914485
 31
0.0
  0
LINE
  5
20B
330
70
100
AcDbEntity
  8
HONTAI
 62
     2
420
 16776960
370
    25
100
AcDbLine
 10
450.4349021734986
 20
260.477377914485
 30
0.0
 11
439.8870510580712
 21
261.2142128833617
 31
0.0
  0
LINE
  5
20C
330
70
100
AcDbEntity
  8
HONTAI
 62
     2
420
 16776960
370
    25
100
AcDbLine
 10
439.8870510580712
 20
261.2142128833617
 30
0.0
 11
444.6814254491008
 21
266.5195347166585
 31
0.0
  0
LINE
  5
20D
330
70
100
AcDbEntity
  8
HONTAI
 62
     2
420
 16776960
370
    25
100
AcDbLine
 10
444.6814254491008
 20
266.5195347166585
 30
0.0
 11
434.2814201479233
 21
266.5195347166585
 31
0.0
  0
LINE
  5
20E
330
70
100
AcDbEntity
  8
HONTAI
 62
     2
420
 16776960
370
    25
100
AcDbLine
 10
434.2814201479233
 20
266.5195347166585
 30
0.0
 11
438.1038030834258
 21
272.5875550315574
 31
0.0
  0
LINE
  5
20F
330
70
100
AcDbEntity
  8
HONTAI
 62
     2
420
 16776960
370
    25
100
AcDbLine
 10
438.1038030834258
 20
272.5875550315574
 30
0.0
 11
427.1135518007969
 21
271.7771191089223
 31
0.0
  0
LINE
  5
210
330
70
100
AcDbEntity
  8
HONTAI
 62
     2
420
 16776960
370
    25
100
AcDbLine
 10
427.1135518007969
 20
271.7771191089223
 30
0.0
 11
430.2114902465972
 21
277.8192759110958
 31
0.0
  0
LINE
  5
211
330
70
100
AcDbEntity
  8
HONTAI
 62
     2
420
 16776960
370
    25
100
AcDbLine
 10
430.2114902465972
 20
277.8192759110958
 30
0.0
 11
420.1064183901847
 21
276.0507894427055
 31
0.0
  0
LINE
  5
212
330
70
100
AcDbEntity
  8
HONTAI
 62
     2
420
 16776960
370
    25
100
AcDbLine
 10
420.1064183901847
 20
276.0507894427055
 30
0.0
 11
421.0651416316329
 21
282.7561802599691
 31
0.0
  0
LINE
  5
213
330
70
100
AcDbEntity
  8
HONTAI
 62
     2
420
 16776960
370
    25
100
AcDbLine
 10
421.0651416316329
 20
282.7561802599691
 30
0.0
 11
411.1075364976041
 21
280.5455377814918
 31
0.0
  0
LINE
  5
214
330
70
100
AcDbEntity
  8
HONTAI
 62
     2
420
 16776960
370
    25
100
AcDbLine
 10
411.1075364976041
 20
280.5455377814918
 30
0.0
 11
411.1075364976041
 21
286.6053037838083
 31
0.0
  0
LINE
  5
215
330
70
100
AcDbEntity
  8
HONTAI
 62
     2
420
 16776960
370
    25
100
AcDbLine
 10
411.1075364976041
 20
286.6053037838083
 30
0.0
 11
400.9148944281486
 21
284.321060351597
 31
0.0
  0
LINE
  5
216
330
70
100
AcDbEntity
  8
HONTAI
 62
     2
420
 16776960
370
    25
100
AcDbLine
 10
400.9148944281486
 20
284.321060351597
 30
0.0
 11
402.3163969286656
 21
289.6999831386547
 31
0.0
  0
LINE
  5
217
330
70
100
AcDbEntity
  8
HONTAI
 62
     2
420
 16776960
370
    25
100
AcDbLine
 10
402.3163969286656
 20
289.6999831386547
 30
0.0
 11
393.3178941279525
 21
288.0789737215334
 31
0.0
  0
LINE
  5
218
330
70
100
AcDbEntity
  8
HONTAI
 62
     2
420
 16776960
370
    25
100
AcDbLine
 10
393.3178941279525
 20
288.0789737215334
 30
0.0
 11
394.0552277399189
 21
293.6789745136482
 31
0.0
  0
LINE
  5
219
330
70
100
AcDbEntity
  8
HONTAI
 62
     2
420
 16776960
370
    25
100
AcDbLine
 10
394.0552277399189
 20
293.6789745136482
 30
0.0
 11
383.9501558835077
 21
290.6578961125601
 31
0.0
  0
LINE
  5
21A
330
70
100
AcDbEntity
  8
HONTAI
 62
     2
420
 16776960
370
    25
100
AcDbLine
 10
383.9501558835077
 20
290.6578961125601
 30
0.0
 11
383.9501558835077
 21
295.5210619357982
 31
0.0
  0
LINE
  5
21B
330
70
100
AcDbEntity
  8
HONTAI
 62
     2
420
 16776960
370
    25
100
AcDbLine
 10
383.9501558835077
 20
295.5210619357982
 30
0.0
 11
374.6563405462134
 21
292.0579650965269
 31
0.0
  0
LINE
  5
21C
330
70
100
AcDbEntity
  8
HONTAI
 62
     2
420
 16776960
370
    25
100
AcDbLine
 10
374.6563405462134
 20
292.0579650965269
 30
0.0
 11
374.6563405462134
 21
297.5106264092199
 31
0.0
  0
LINE
  5
21D
330
70
100
AcDbEntity
  8
HONTAI
 62
     2
420
 16776960
370
    25
100
AcDbLine
 10
374.6563405462134
 20
297.5106264092199
 30
0.0
 11
364.5914524239038
 21
293.915735712563
 31
0.0
  0
LINE
  5
21E
330
70
100
AcDbEntity
  8
HONTAI
 62
     2
420
 16776960
370
    25
100
AcDbLine
 10
364.5914524239038
 20
293.915735712563
 30
0.0
 11
362.6672118296397
 21
299.3031780400034
 31
0.0
  0
LINE
  5
21F
330
70
100
AcDbEntity
  8
HONTAI
 62
     2
420
 16776960
370
    25
100
AcDbLine
 10
362.6672118296397
 20
299.3031780400034
 30
0.0
 11
355.3715599937088
 21
295.168465217108
 31
0.0
  0
LINE
  5
220
330
70
100
AcDbEntity
  8
HONTAI
 62
     2
420
 16776960
370
    25
100
AcDbLine
 10
355.3715599937088
 20
295.168465217108
 30
0.0
 11
351.8312213807072
 21
299.6632135559212
 31
0.0
  0
LINE
  5
221
330
70
100
AcDbEntity
  8
HONTAI
 62
     2
420
 16776960
370
    25
100
AcDbLine
 10
351.8312213807072
 20
299.6632135559212
 30
0.0
 11
346.4501639670549
 21
295.4247637241873
 31
0.0
  0
LINE
  5
222
330
70
100
AcDbEntity
  8
HONTAI
 62
     2
420
 16776960
370
    25
100
AcDbLine
 10
351.8312213807072
 20
299.6632135559212
 30
0.0
 11
342.8567195012572
 21
172.4543907445008
 31
0.0
  0
LINE
  5
223
330
70
100
AcDbEntity
  8
HONTAI
 62
     2
420
 16776960
370
    25
100
AcDbLine
 10
362.6672118296397
 20
299.3031780400034
 30
0.0
 11
343.9878006942472
 21
172.3923275051635
 31
0.0
  0
LINE
  5
224
330
70
100
AcDbEntity
  8
HONTAI
 62
     2
420
 16776960
370
    25
100
AcDbLine
 10
372.9305913069549
 20
290.221957861842
 30
0.0
 11
345.0100988454027
 21
172.3002977493829
 31
0.0
  0
LINE
  5
225
330
70
100
AcDbEntity
  8
HONTAI
 62
     2
420
 16776960
370
    25
100
AcDbLine
 10
381.9110688631606
 20
288.9288441604634
 30
0.0
 11
345.8062278958573
 21
172.2045592108423
 31
0.0
  0
LINE
  5
226
330
70
100
AcDbEntity
  8
HONTAI
 62
     2
420
 16776960
370
    25
100
AcDbLine
 10
391.3856703180437
 20
286.8282157543295
 30
0.0
 11
346.6699246465244
 21
172.0763157469442
 31
0.0
  0
LINE
  5
227
330
70
100
AcDbEntity
  8
HONTAI
 62
     2
420
 16776960
370
    25
100
AcDbLine
 10
399.3558448703278
 20
283.3241092149245
 30
0.0
 11
347.6199268753806
 21
171.9051292532831
 31
0.0
  0
LINE
  5
228
330
70
100
AcDbEntity
  8
HONTAI
 62
     2
420
 16776960
370
    25
100
AcDbLine
 10
407.8415952292665
 20
280.5960280559727
 30
0.0
 11
348.6490329460786
 21
171.6827321418289
 31
0.0
  0
LINE
  5
229
330
70
100
AcDbEntity
  8
HONTAI
 62
     2
420
 16776960
370
    25
100
AcDbLine
 10
416.0451792526473
 20
274.9284576132822
 30
0.0
 11
349.6666759111975
 21
171.4231970892203
 31
0.0
  0
LINE
  5
22A
330
70
100
AcDbEntity
  8
HONTAI
 62
     2
420
 16776960
370
    25
100
AcDbLine
 10
424.9871425504683
 20
270.8012840935913
 30
0.0
 11
350.7645739499651
 21
171.0963238938237
 31
0.0
  0
LINE
  5
22B
330
70
100
AcDbEntity
  8
HONTAI
 62
     2
420
 16776960
370
    25
100
AcDbLine
 10
432.1471519968596
 20
265.5354769682232
 30
0.0
 11
352.0105561241163
 21
170.6617766942618
 31
0.0
  0
LINE
  5
22C
330
70
100
AcDbEntity
  8
HONTAI
 62
     2
420
 16776960
370
    25
100
AcDbLine
 10
444.6814254491008
 20
266.5195347166585
 30
0.0
 11
353.5371896001491
 21
170.0268306423106
 31
0.0
  0
LINE
  5
22D
330
70
100
AcDbEntity
  8
HONTAI
 62
     2
420
 16776960
370
    25
100
AcDbLine
 10
446.0829279496177
 20
254.9509780761568
 30
0.0
 11
354.8818040520808
 21
169.3601431707048
 31
0.0
  0
LINE
  5
22E
330
70
100
AcDbEntity
  8
HONTAI
 62
     2
420
 16776960
370
    25
100
AcDbLine
 10
451.6885588597657
 20
247.4351513362569
 30
0.0
 11
355.9432701923891
 21
168.7502490978473
 31
0.0
  0
LINE
  5
22F
330
70
100
AcDbEntity
  8
HONTAI
 62
     2
420
 16776960
370
    25
100
AcDbLine
 10
453.8353559006658
 20
242.1705507783172
 30
0.0
 11
357.0493399421134
 21
168.0208478206043
 31
0.0
  0
LINE
  5
230
330
70
100
AcDbEntity
  8
HONTAI
 62
     2
420
 16776960
370
    25
100
AcDbLine
 10
457.597084143148
 20
235.9810544967487
 30
0.0
 11
357.7652818292793
 21
167.4877090915693
 31
0.0
  0
LINE
  5
231
330
70
100
AcDbEntity
  8
HONTAI
 62
     2
420
 16776960
370
    25
100
AcDbLine
 10
459.3670639037157
 20
229.3494022051203
 30
0.0
 11
358.7072791334746
 21
166.6963872926349
 31
0.0
  0
LINE
  5
232
330
70
100
AcDbEntity
  8
HONTAI
 62
     2
420
 16776960
370
    25
100
AcDbLine
 10
461.5761529103786
 20
222.9903509784891
 30
0.0
 11
359.5327209910154
 21
165.8973768841152
 31
0.0
  0
LINE
  5
233
330
70
100
AcDbEntity
  8
HONTAI
 62
     2
420
 16776960
370
    25
100
AcDbLine
 10
459.6425177585563
 20
214.6884523314827
 30
0.0
 11
360.2309366773592
 21
165.1196980217393
 31
0.0
  0
LINE
  5
234
330
70
100
AcDbEntity
  8
HONTAI
 62
     2
420
 16776960
370
    25
100
AcDbLine
 10
462.3718476602479
 20
210.776739448657
 30
0.0
 11
360.907245661138
 21
164.2439698668543
 31
0.0
  0
LINE
  5
235
330
70
100
AcDbEntity
  8
HONTAI
 62
     2
420
 16776960
370
    25
100
AcDbLine
 10
459.2677732629228
 20
204.1791048087923
 30
0.0
 11
361.7145736229304
 21
162.9548096661143
 31
0.0
  0
LINE
  5
236
330
70
100
AcDbEntity
  8
HONTAI
 62
     2
420
 16776960
370
    25
100
AcDbLine
 10
456.9569145363685
 20
197.1190382122716
 30
0.0
 11
362.3617043926764
 21
161.5614615171999
 31
0.0
  0
LINE
  5
237
330
70
100
AcDbEntity
  8
HONTAI
 62
     2
420
 16776960
370
    25
100
AcDbLine
 10
453.8399050026471
 20
190.3784538342899
 30
0.0
 11
362.7546578560985
 21
160.3344458348503
 31
0.0
  0
LINE
  5
238
330
70
100
AcDbEntity
  8
HONTAI
 62
     2
420
 16776960
370
    25
100
AcDbLine
 10
450.7389338222286
 20
185.157738704845
 30
0.0
 11
363.0002378312061
 21
159.0418493124488
 31
0.0
  0
LINE
  5
239
330
70
100
AcDbEntity
  8
HONTAI
 62
     2
420
 16776960
370
    25
100
AcDbLine
 10
448.4507355282375
 20
179.7576298488557
 30
0.0
 11
363.0759784622425
 21
158.0290434083734
 31
0.0
  0
LINE
  5
23A
330
70
100
AcDbEntity
  8
HONTAI
 62
     2
420
 16776960
370
    25
100
AcDbLine
 10
444.5498805836546
 20
174.5208188098969
 30
0.0
 11
363.0558311531346
 21
157.0894159064489
 31
0.0
  0
LINE
  5
23B
330
70
100
AcDbEntity
  8
HONTAI
 62
     2
420
 16776960
370
    25
100
AcDbLine
 10
440.175539941731
 20
171.0747808832666
 30
0.0
 11
362.8984802453968
 21
155.8642949187273
 31
0.0
  0
LINE
  5
23C
330
70
100
AcDbEntity
  8
HONTAI
 62
     2
420
 16776960
370
    25
100
AcDbLine
 10
435.7257600253478
 20
166.6929790548165
 30
0.0
 11
362.6682506780845
 21
154.8995009716399
 31
0.0
  0
LINE
  5
23D
330
70
100
AcDbEntity
  8
HONTAI
 62
     2
420
 16776960
370
    25
100
AcDbLine
 10
430.8760382269086
 20
162.5411974033294
 30
0.0
 11
362.3249409903706
 21
153.8934616388098
 31
0.0
  0
LINE
  5
23E
330
70
100
AcDbEntity
  8
HONTAI
 62
     2
420
 16776960
370
    25
100
AcDbLine
 10
361.2939269938058
 20
151.8731903319094
 30
0.0
 11
420.3043043261294
 21
154.6177451943035
 31
0.0
  0
LINE
  5
23F
330
70
100
AcDbEntity
  8
HONTAI
 62
     2
420
 16776960
370
    25
100
AcDbLine
 10
425.3503956932029
 20
158.3101685285256
 30
0.0
 11
361.9426513015874
 21
153.0305887902282
 31
0.0
  0
LINE
  5
240
330
70
100
AcDbEntity
  8
HONTAI
 62
     2
420
 16776960
370
    25
100
AcDbLine
 10
428.6560764625387
 20
149.709318223817
 30
0.0
 11
360.6444591452198
 21
150.9357052933637
 31
0.0
  0
LINE
  5
241
330
70
100
AcDbEntity
  8
HONTAI
 62
     2
420
 16776960
370
    25
100
AcDbLine
 10
421.353630515294
 20
145.9514048538535
 30
0.0
 11
359.9961569616497
 21
150.1391046824462
 31
0.0
  0
LINE
  5
242
330
70
100
AcDbEntity
  8
HONTAI
 62
     2
420
 16776960
370
    25
100
AcDbLine
 10
408.8883329169163
 20
145.4356478900338
 30
0.0
 11
359.3010896234821
 21
149.3944754552382
 31
0.0
  0
LINE
  5
243
330
70
100
AcDbEntity
  8
HONTAI
 62
     2
420
 16776960
370
    25
100
AcDbLine
 10
402.6924560253697
 20
142.8565879271316
 30
0.0
 11
358.4700924494343
 21
148.6154216603132
 31
0.0
  0
LINE
  5
244
330
70
100
AcDbEntity
  8
HONTAI
 62
     2
420
 16776960
370
    25
100
AcDbLine
 10
394.9476099109224
 20
139.0250736034353
 30
0.0
 11
357.7584481330161
 21
148.0238486924107
 31
0.0
  0
LINE
  5
245
330
70
100
AcDbEntity
  8
HONTAI
 62
     2
420
 16776960
370
    25
100
AcDbLine
 10
387.3756296715737
 20
138.3618395883453
 30
0.0
 11
356.8841306639458
 21
147.3741410963198
 31
0.0
  0
LINE
  5
246
330
70
100
AcDbEntity
  8
HONTAI
 62
     2
420
 16776960
370
    25
100
AcDbLine
 10
380.4424191680594
 20
136.0528332184138
 30
0.0
 11
355.5775486738058
 21
146.5320661898967
 31
0.0
  0
LINE
  5
247
330
70
100
AcDbEntity
  8
HONTAI
 62
     2
420
 16776960
370
    25
100
AcDbLine
 10
374.195364879271
 20
134.9061716304033
 30
0.0
 11
354.4953987681573
 21
145.9309653420314
 31
0.0
  0
LINE
  5
248
330
70
100
AcDbEntity
  8
HONTAI
 62
     2
420
 16776960
370
    25
100
AcDbLine
 10
373.1399732208148
 20
126.7685200101222
 30
0.0
 11
353.4153067174084
 21
145.4044228724115
 31
0.0
  0
LINE
  5
249
330
70
100
AcDbEntity
  8
HONTAI
 62
     2
420
 16776960
370
    25
100
AcDbLine
 10
365.3951271063687
 20
125.5895290311868
 30
0.0
 11
352.5892767941841
 21
145.0455437237834
 31
0.0
  0
LINE
  5
24A
330
70
100
AcDbEntity
  8
HONTAI
 62
     2
420
 16776960
370
    25
100
AcDbLine
 10
357.1711969692032
 20
124.3331950963533
 30
0.0
 11
351.7374735884219
 21
144.6405515926403
 31
0.0
  0
LINE
  5
24B
330
70
100
AcDbEntity
  8
HONTAI
 62
     2
420
 16776960
370
    25
100
AcDbLine
 10
353.191402871627
 20
305.3996856492128
 30
0.0
 11
351.8312213807072
 21
299.6632135559212
 31
0.0
  0
LINE
  5
24C
330
70
100
AcDbEntity
  8
HONTAI
 62
     2
420
 16776960
370
    25
100
AcDbLine
 10
347.0797445786049
 20
315.9513109809302
 30
0.0
 11
351.9415371036603
 21
310.2129128813816
 31
0.0
  0
LINE
  5
24D
330
70
100
AcDbEntity
  8
HONTAI
 62
     2
420
 16776960
370
    25
100
AcDbLine
 10
351.9415371036603
 20
310.2129128813816
 30
0.0
 11
357.7556545720929
 21
314.9395739866484
 31
0.0
  0
LINE
  5
24E
330
70
100
AcDbEntity
  8
HONTAI
 62
     2
420
 16776960
370
    25
100
AcDbLine
 10
357.7556545720929
 20
314.9395739866484
 30
0.0
 11
358.2867761767671
 21
311.5161312644977
 31
0.0
  0
LINE
  5
24F
330
70
100
AcDbEntity
  8
HONTAI
 62
     2
420
 16776960
370
    25
100
AcDbLine
 10
358.2867761767671
 20
311.5161312644977
 30
0.0
 11
353.191402871627
 21
305.3996856492128
 31
0.0
  0
LINE
  5
250
330
70
100
AcDbEntity
  8
HONTAI
 62
     2
420
 16776960
370
    25
100
AcDbLine
 10
362.6672118296397
 20
299.3031780400034
 30
0.0
 11
363.7419076298604
 21
305.0591952556457
 31
0.0
  0
LINE
  5
251
330
70
100
AcDbEntity
  8
HONTAI
 62
     2
420
 16776960
370
    25
100
AcDbLine
 10
363.7419076298604
 20
305.0591952556457
 30
0.0
 11
358.2867761767671
 21
311.5161312644977
 31
0.0
  0
LINE
  5
252
330
70
100
AcDbEntity
  8
HONTAI
 62
     2
420
 16776960
370
    25
100
AcDbLine
 10
363.7419076298604
 20
305.0591952556457
 30
0.0
 11
369.3160739180019
 21
310.7461414734945
 31
0.0
  0
LINE
  5
253
330
70
100
AcDbEntity
  8
HONTAI
 62
     2
420
 16776960
370
    25
100
AcDbLine
 10
369.3160739180019
 20
310.7461414734945
 30
0.0
 11
367.3000635588683
 21
314.9519888722888
 31
0.0
  0
LINE
  5
254
330
70
100
AcDbEntity
  8
HONTAI
 62
     2
420
 16776960
370
    25
100
AcDbLine
 10
367.3000635588683
 20
314.9519888722888
 30
0.0
 11
361.9632087571962
 21
310.6275545162104
 31
0.0
  0
LINE
  5
255
330
70
100
AcDbEntity
  8
HONTAI
 62
     2
420
 16776960
370
    25
100
AcDbLine
 10
361.9632087571962
 20
310.6275545162104
 30
0.0
 11
357.7556545720929
 21
314.9395739866484
 31
0.0
  0
LINE
  5
256
330
70
100
AcDbEntity
  8
HONTAI
 62
     2
420
 16776960
370
    25
100
AcDbLine
 10
374.6563405462134
 20
297.5106264092199
 30
0.0
 11
374.6563405462134
 21
303.2820417590452
 31
0.0
  0
LINE
  5
257
330
70
100
AcDbEntity
  8
HONTAI
 62
     2
420
 16776960
370
    25
100
AcDbLine
 10
374.6563405462134
 20
303.2820417590452
 30
0.0
 11
379.7528511268492
 21
309.146593269057
 31
0.0
  0
LINE
  5
258
330
70
100
AcDbEntity
  8
HONTAI
 62
     2
420
 16776960
370
    25
100
AcDbLine
 10
379.7528511268492
 20
309.146593269057
 30
0.0
 11
376.7879739138582
 21
313.8265133532111
 31
0.0
  0
LINE
  5
259
330
70
100
AcDbEntity
  8
HONTAI
 62
     2
420
 16776960
370
    25
100
AcDbLine
 10
376.7879739138582
 20
313.8265133532111
 30
0.0
 11
372.1567304029591
 21
310.8924742870797
 31
0.0
  0
LINE
  5
25A
330
70
100
AcDbEntity
  8
HONTAI
 62
     2
420
 16776960
370
    25
100
AcDbLine
 10
372.1567304029591
 20
310.8924742870797
 30
0.0
 11
367.3000635588683
 21
314.9519888722888
 31
0.0
  0
LINE
  5
25B
330
70
100
AcDbEntity
  8
HONTAI
 62
     2
420
 16776960
370
    25
100
AcDbLine
 10
369.3160739180019
 20
310.7461414734945
 30
0.0
 11
374.6563405462134
 21
303.2820417590452
 31
0.0
  0
LINE
  5
25C
330
70
100
AcDbEntity
  8
HONTAI
 62
     2
420
 16776960
370
    25
100
AcDbLine
 10
379.7528511268492
 20
309.146593269057
 30
0.0
 11
384.9809065729299
 21
300.8455062598955
 31
0.0
  0
LINE
  5
25D
330
70
100
AcDbEntity
  8
HONTAI
 62
     2
420
 16776960
370
    25
100
AcDbLine
 10
384.9809065729299
 20
300.8455062598955
 30
0.0
 11
383.9501558835077
 21
295.5210619357982
 31
0.0
  0
LINE
  5
25E
330
70
100
AcDbEntity
  8
HONTAI
 62
     2
420
 16776960
370
    25
100
AcDbLine
 10
384.9809065729299
 20
300.8455062598955
 30
0.0
 11
391.1074096593598
 21
307.0253725101009
 31
0.0
  0
LINE
  5
25F
330
70
100
AcDbEntity
  8
HONTAI
 62
     2
420
 16776960
370
    25
100
AcDbLine
 10
391.1074096593598
 20
307.0253725101009
 30
0.0
 11
387.0628789106946
 21
312.0168928938359
 31
0.0
  0
LINE
  5
260
330
70
100
AcDbEntity
  8
HONTAI
 62
     2
420
 16776960
370
    25
100
AcDbLine
 10
387.0628789106946
 20
312.0168928938359
 30
0.0
 11
382.9522555075826
 21
308.6861356351354
 31
0.0
  0
LINE
  5
261
330
70
100
AcDbEntity
  8
HONTAI
 62
     2
420
 16776960
370
    25
100
AcDbLine
 10
382.9522555075826
 20
308.6861356351354
 30
0.0
 11
376.7879739138582
 21
313.8265133532111
 31
0.0
  0
LINE
  5
262
330
70
100
AcDbEntity
  8
HONTAI
 62
     2
420
 16776960
370
    25
100
AcDbLine
 10
391.1074096593598
 20
307.0253725101009
 30
0.0
 11
395.6875971656949
 21
298.5281080055062
 31
0.0
  0
LINE
  5
263
330
70
100
AcDbEntity
  8
HONTAI
 62
     2
420
 16776960
370
    25
100
AcDbLine
 10
395.6875971656949
 20
298.5281080055062
 30
0.0
 11
394.0552277399189
 21
293.6789745136482
 31
0.0
  0
LINE
  5
264
330
70
100
AcDbEntity
  8
HONTAI
 62
     2
420
 16776960
370
    25
100
AcDbLine
 10
395.6875971656949
 20
298.5281080055062
 30
0.0
 11
400.9816145905133
 21
304.0543702719576
 31
0.0
  0
LINE
  5
265
330
70
100
AcDbEntity
  8
HONTAI
 62
     2
420
 16776960
370
    25
100
AcDbLine
 10
400.9816145905133
 20
304.0543702719576
 30
0.0
 11
396.520461919175
 21
309.2834772858616
 31
0.0
  0
LINE
  5
266
330
70
100
AcDbEntity
  8
HONTAI
 62
     2
420
 16776960
370
    25
100
AcDbLine
 10
396.520461919175
 20
309.2834772858616
 30
0.0
 11
392.5350694962198
 21
307.2630967121711
 31
0.0
  0
LINE
  5
267
330
70
100
AcDbEntity
  8
HONTAI
 62
     2
420
 16776960
370
    25
100
AcDbLine
 10
392.5350694962198
 20
307.2630967121711
 30
0.0
 11
387.0628789106946
 21
312.0168928938359
 31
0.0
  0
LINE
  5
268
330
70
100
AcDbEntity
  8
HONTAI
 62
     2
420
 16776960
370
    25
100
AcDbLine
 10
400.9816145905133
 20
304.0543702719576
 30
0.0
 11
405.2050766835135
 21
295.4381060944522
 31
0.0
  0
LINE
  5
269
330
70
100
AcDbEntity
  8
HONTAI
 62
     2
420
 16776960
370
    25
100
AcDbLine
 10
405.2050766835135
 20
295.4381060944522
 30
0.0
 11
402.3163969286656
 21
289.6999831386547
 31
0.0
  0
LINE
  5
26A
330
70
100
AcDbEntity
  8
HONTAI
 62
     2
420
 16776960
370
    25
100
AcDbLine
 10
405.2050766835135
 20
295.4381060944522
 30
0.0
 11
410.6772672690387
 21
300.5483510073212
 31
0.0
  0
LINE
  5
26B
330
70
100
AcDbEntity
  8
HONTAI
 62
     2
420
 16776960
370
    25
100
AcDbLine
 10
410.6772672690387
 20
300.5483510073212
 30
0.0
 11
405.7403543494225
 21
306.6689237789224
 31
0.0
  0
LINE
  5
26C
330
70
100
AcDbEntity
  8
HONTAI
 62
     2
420
 16776960
370
    25
100
AcDbLine
 10
405.7403543494225
 20
306.6689237789224
 30
0.0
 11
401.9335141789889
 21
304.8268363567454
 31
0.0
  0
LINE
  5
26D
330
70
100
AcDbEntity
  8
HONTAI
 62
     2
420
 16776960
370
    25
100
AcDbLine
 10
401.9335141789889
 20
304.8268363567454
 30
0.0
 11
396.520461919175
 21
309.2834772858616
 31
0.0
  0
LINE
  5
26E
330
70
100
AcDbEntity
  8
HONTAI
 62
     2
420
 16776960
370
    25
100
AcDbLine
 10
411.029443580391
 20
301.3641522331006
 30
0.0
 11
414.2327695552418
 21
302.2007268122133
 31
0.0
  0
LINE
  5
26F
330
70
100
AcDbEntity
  8
HONTAI
 62
     2
420
 16776960
370
    25
100
AcDbLine
 10
414.2327695552418
 20
302.2007268122133
 30
0.0
 11
420.0203645444508
 21
296.1803063664732
 31
0.0
  0
LINE
  5
270
330
70
100
AcDbEntity
  8
HONTAI
 62
     2
420
 16776960
370
    25
100
AcDbLine
 10
420.0203645444508
 20
296.1803063664732
 30
0.0
 11
415.2404824037899
 21
291.5852748108522
 31
0.0
  0
LINE
  5
271
330
70
100
AcDbEntity
  8
HONTAI
 62
     2
420
 16776960
370
    25
100
AcDbLine
 10
415.2404824037899
 20
291.5852748108522
 30
0.0
 11
410.6772672690387
 21
300.5483510073212
 31
0.0
  0
LINE
  5
272
330
70
100
AcDbEntity
  8
HONTAI
 62
     2
420
 16776960
370
    25
100
AcDbLine
 10
415.2404824037899
 20
291.5852748108522
 30
0.0
 11
411.1075364976041
 21
286.6053037838083
 31
0.0
  0
LINE
  5
273
330
70
100
AcDbEntity
  8
HONTAI
 62
     2
420
 16776960
370
    25
100
AcDbLine
 10
420.5715640672423
 20
296.7114713804537
 30
0.0
 11
423.6005077996866
 21
297.730053551744
 31
0.0
  0
LINE
  5
274
330
70
100
AcDbEntity
  8
HONTAI
 62
     2
420
 16776960
370
    25
100
AcDbLine
 10
423.6005077996866
 20
297.730053551744
 30
0.0
 11
429.2091714445066
 21
291.6502020554986
 31
0.0
  0
LINE
  5
275
330
70
100
AcDbEntity
  8
HONTAI
 62
     2
420
 16776960
370
    25
100
AcDbLine
 10
429.2091714445066
 20
291.6502020554986
 30
0.0
 11
424.2310943047678
 21
287.0579253704517
 31
0.0
  0
LINE
  5
276
330
70
100
AcDbEntity
  8
HONTAI
 62
     2
420
 16776960
370
    25
100
AcDbLine
 10
424.2310943047678
 20
287.0579253704517
 30
0.0
 11
420.0203645444559
 21
296.1803063664656
 31
0.0
  0
LINE
  5
277
330
70
100
AcDbEntity
  8
HONTAI
 62
     2
420
 16776960
370
    25
100
AcDbLine
 10
411.029443580391
 20
301.3641522331006
 30
0.0
 11
405.7403543494225
 21
306.6689237789224
 31
0.0
  0
LINE
  5
278
330
70
100
AcDbEntity
  8
HONTAI
 62
     2
420
 16776960
370
    25
100
AcDbLine
 10
420.5715640672423
 20
296.7114713804537
 30
0.0
 11
414.2327695552418
 21
302.2007268122133
 31
0.0
  0
LINE
  5
279
330
70
100
AcDbEntity
  8
HONTAI
 62
     2
420
 16776960
370
    25
100
AcDbLine
 10
424.2310943047678
 20
287.0579253704517
 30
0.0
 11
421.0651416316329
 21
282.7561802599691
 31
0.0
  0
LINE
  5
27A
330
70
100
AcDbEntity
  8
HONTAI
 62
     2
420
 16776960
370
    25
100
AcDbLine
 10
430.2114902465972
 20
277.8192759110958
 30
0.0
 11
433.6540231670425
 21
282.4456805353922
 31
0.0
  0
LINE
  5
27B
330
70
100
AcDbEntity
  8
HONTAI
 62
     2
420
 16776960
370
    25
100
AcDbLine
 10
433.6540231670425
 20
282.4456805353922
 30
0.0
 11
438.7118663808847
 21
286.5920968837081
 31
0.0
  0
LINE
  5
27C
330
70
100
AcDbEntity
  8
HONTAI
 62
     2
420
 16776960
370
    25
100
AcDbLine
 10
438.7118663808847
 20
286.5920968837081
 30
0.0
 11
440.8867162173557
 21
276.4529120367846
 31
0.0
  0
LINE
  5
27D
330
70
100
AcDbEntity
  8
HONTAI
 62
     2
420
 16776960
370
    25
100
AcDbLine
 10
440.8867162173557
 20
276.4529120367846
 30
0.0
 11
438.1038030834258
 21
272.5875550315574
 31
0.0
  0
LINE
  5
27E
330
70
100
AcDbEntity
  8
HONTAI
 62
     2
420
 16776960
370
    25
100
AcDbLine
 10
433.6540231670425
 20
282.4456805353922
 30
0.0
 11
429.2091714445066
 21
291.6502020554986
 31
0.0
  0
LINE
  5
27F
330
70
100
AcDbEntity
  8
HONTAI
 62
     2
420
 16776960
370
    25
100
AcDbLine
 10
429.2091714445066
 20
291.6502020554986
 30
0.0
 11
432.4287983681085
 21
292.4461929311284
 31
0.0
  0
LINE
  5
280
330
70
100
AcDbEntity
  8
HONTAI
 62
     2
420
 16776960
370
    25
100
AcDbLine
 10
432.4287983681085
 20
292.4461929311284
 30
0.0
 11
438.7118663808847
 21
286.5920968837081
 31
0.0
  0
LINE
  5
281
330
70
100
AcDbEntity
  8
HONTAI
 62
     2
420
 16776960
370
    25
100
AcDbLine
 10
440.8867162173557
 20
276.4529120367846
 30
0.0
 11
446.5643745754264
 21
280.9984243979187
 31
0.0
  0
LINE
  5
282
330
70
100
AcDbEntity
  8
HONTAI
 62
     2
420
 16776960
370
    25
100
AcDbLine
 10
446.5643745754264
 20
280.9984243979187
 30
0.0
 11
448.445807334389
 21
270.3875055875458
 31
0.0
  0
LINE
  5
283
330
70
100
AcDbEntity
  8
HONTAI
 62
     2
420
 16776960
370
    25
100
AcDbLine
 10
448.445807334389
 20
270.3875055875458
 30
0.0
 11
444.6814254491008
 21
266.5195347166585
 31
0.0
  0
LINE
  5
284
330
70
100
AcDbEntity
  8
HONTAI
 62
     2
420
 16776960
370
    25
100
AcDbLine
 10
446.5643745754264
 20
280.9984243979187
 30
0.0
 11
440.8590425136509
 21
286.8192280512856
 31
0.0
  0
LINE
  5
285
330
70
100
AcDbEntity
  8
HONTAI
 62
     2
420
 16776960
370
    25
100
AcDbLine
 10
440.8590425136509
 20
286.8192280512856
 30
0.0
 11
438.7118663808847
 21
286.5920968837081
 31
0.0
  0
LINE
  5
286
330
70
100
AcDbEntity
  8
HONTAI
 62
     2
420
 16776960
370
    25
100
AcDbLine
 10
448.445807334389
 20
270.3875055875458
 30
0.0
 11
452.9964256778954
 21
273.7515506759599
 31
0.0
  0
LINE
  5
287
330
70
100
AcDbEntity
  8
HONTAI
 62
     2
420
 16776960
370
    25
100
AcDbLine
 10
452.9964256778954
 20
273.7515506759599
 30
0.0
 11
446.5643745754264
 21
280.9984243979187
 31
0.0
  0
LINE
  5
288
330
70
100
AcDbEntity
  8
HONTAI
 62
     2
420
 16776960
370
    25
100
AcDbLine
 10
452.9964256778954
 20
273.7515506759599
 30
0.0
 11
455.1307126883975
 21
263.8829697095092
 31
0.0
  0
LINE
  5
289
330
70
100
AcDbEntity
  8
HONTAI
 62
     2
420
 16776960
370
    25
100
AcDbLine
 10
455.1307126883975
 20
263.8829697095092
 30
0.0
 11
458.3628496424488
 21
266.1978916701396
 31
0.0
  0
LINE
  5
28A
330
70
100
AcDbEntity
  8
HONTAI
 62
     2
420
 16776960
370
    25
100
AcDbLine
 10
458.3628496424488
 20
266.1978916701396
 30
0.0
 11
452.9964256778954
 21
273.7515506759599
 31
0.0
  0
LINE
  5
28B
330
70
100
AcDbEntity
  8
HONTAI
 62
     2
420
 16776960
370
    25
100
AcDbLine
 10
455.1307126883975
 20
263.8829697095092
 30
0.0
 11
450.4349021734986
 21
260.477377914485
 31
0.0
  0
LINE
  5
28C
330
70
100
AcDbEntity
  8
HONTAI
 62
     2
420
 16776960
370
    25
100
AcDbLine
 10
458.3628496424488
 20
266.1978916701396
 30
0.0
 11
459.7040765417601
 21
256.2683663625286
 31
0.0
  0
LINE
  5
28D
330
70
100
AcDbEntity
  8
HONTAI
 62
     2
420
 16776960
370
    25
100
AcDbLine
 10
459.7040765417601
 20
256.2683663625286
 30
0.0
 11
455.9666101765485
 21
253.403707184672
 31
0.0
  0
LINE
  5
28E
330
70
100
AcDbEntity
  8
HONTAI
 62
     2
420
 16776960
370
    25
100
AcDbLine
 10
459.7040765417601
 20
256.2683663625286
 30
0.0
 11
464.3995079648443
 21
259.4360963836327
 31
0.0
  0
LINE
  5
28F
330
70
100
AcDbEntity
  8
HONTAI
 62
     2
420
 16776960
370
    25
100
AcDbLine
 10
464.3995079648443
 20
259.4360963836327
 30
0.0
 11
458.3628496424488
 21
266.1978916701396
 31
0.0
  0
LINE
  5
290
330
70
100
AcDbEntity
  8
HONTAI
 62
     2
420
 16776960
370
    25
100
AcDbLine
 10
464.3995079648443
 20
259.4360963836327
 30
0.0
 11
464.3995079648443
 21
250.298572367234
 31
0.0
  0
LINE
  5
291
330
70
100
AcDbEntity
  8
HONTAI
 62
     2
420
 16776960
370
    25
100
AcDbLine
 10
464.3995079648443
 20
250.298572367234
 30
0.0
 11
468.1801907988822
 21
252.4916056455427
 31
0.0
  0
LINE
  5
292
330
70
100
AcDbEntity
  8
HONTAI
 62
     2
420
 16776960
370
    25
100
AcDbLine
 10
468.1801907988822
 20
252.4916056455427
 30
0.0
 11
464.3995079648443
 21
259.4360963836327
 31
0.0
  0
LINE
  5
293
330
70
100
AcDbEntity
  8
HONTAI
 62
     2
420
 16776960
370
    25
100
AcDbLine
 10
464.3995079648443
 20
250.298572367234
 30
0.0
 11
459.212394436546
 21
246.7720548930423
 31
0.0
  0
LINE
  5
294
330
70
100
AcDbEntity
  8
HONTAI
 62
     2
420
 16776960
370
    25
100
AcDbLine
 10
468.1801907988822
 20
252.4916056455427
 30
0.0
 11
468.1801907988822
 21
242.75949598027
 31
0.0
  0
LINE
  5
295
330
70
100
AcDbEntity
  8
HONTAI
 62
     2
420
 16776960
370
    25
100
AcDbLine
 10
468.1801907988822
 20
242.75949598027
 30
0.0
 11
463.6451152204974
 21
240.1073853511371
 31
0.0
  0
LINE
  5
296
330
70
100
AcDbEntity
  8
HONTAI
 62
     2
420
 16776960
370
    25
100
AcDbLine
 10
468.1801907988822
 20
242.75949598027
 30
0.0
 11
471.2906392750793
 21
245.0345220967963
 31
0.0
  0
LINE
  5
297
330
70
100
AcDbEntity
  8
HONTAI
 62
     2
420
 16776960
370
    25
100
AcDbLine
 10
471.2906392750793
 20
245.0345220967963
 30
0.0
 11
468.1801907988822
 21
249.6553558390268
 31
0.0
  0
LINE
  5
298
330
70
100
AcDbEntity
  8
HONTAI
 62
     2
420
 16776960
370
    25
100
AcDbLine
 10
471.2906392750793
 20
245.0345220967963
 30
0.0
 11
470.5768093566486
 21
236.152331482612
 31
0.0
  0
LINE
  5
299
330
70
100
AcDbEntity
  8
HONTAI
 62
     2
420
 16776960
370
    25
100
AcDbLine
 10
470.5768093566486
 20
236.152331482612
 30
0.0
 11
466.8908994804949
 21
233.8441505439323
 31
0.0
  0
LINE
  5
29A
330
70
100
AcDbEntity
  8
HONTAI
 62
     2
420
 16776960
370
    25
100
AcDbLine
 10
470.5768093566486
 20
236.152331482612
 30
0.0
 11
473.3506242866686
 21
237.568771519841
 31
0.0
  0
LINE
  5
29B
330
70
100
AcDbEntity
  8
HONTAI
 62
     2
420
 16776960
370
    25
100
AcDbLine
 10
473.3506242866686
 20
237.568771519841
 30
0.0
 11
471.1236577958373
 21
242.9567703952057
 31
0.0
  0
LINE
  5
29C
330
70
100
AcDbEntity
  8
HONTAI
 62
     2
420
 16776960
370
    25
100
AcDbLine
 10
473.3506242866686
 20
237.568771519841
 30
0.0
 11
472.4904649212986
 21
229.6637539422111
 31
0.0
  0
LINE
  5
29D
330
70
100
AcDbEntity
  8
HONTAI
 62
     2
420
 16776960
370
    25
100
AcDbLine
 10
472.4904649212986
 20
229.6637539422111
 30
0.0
 11
468.2920228891444
 21
226.9579902813436
 31
0.0
  0
LINE
  5
29E
330
70
100
AcDbEntity
  8
HONTAI
 62
     2
420
 16776960
370
    25
100
AcDbLine
 10
472.4904649212986
 20
229.6637539422111
 30
0.0
 11
474.5405935452432
 21
230.656747744527
 31
0.0
  0
LINE
  5
29F
330
70
100
AcDbEntity
  8
HONTAI
 62
     2
420
 16776960
370
    25
100
AcDbLine
 10
474.5405935452432
 20
230.656747744527
 30
0.0
 11
473.2001248296128
 21
235.2095514150894
 31
0.0
  0
LINE
  5
2A0
330
70
100
AcDbEntity
  8
HONTAI
 62
     2
420
 16776960
370
    25
100
AcDbLine
 10
474.5405935452432
 20
230.656747744527
 30
0.0
 11
473.4344035813586
 21
221.869344153034
 31
0.0
  0
LINE
  5
2A1
330
70
100
AcDbEntity
  8
HONTAI
 62
     2
420
 16776960
370
    25
100
AcDbLine
 10
473.4344035813586
 20
221.869344153034
 30
0.0
 11
469.6196024825095
 21
219.6632415465006
 31
0.0
  0
LINE
  5
2A2
330
70
100
AcDbEntity
  8
HONTAI
 62
     2
420
 16776960
370
    25
100
AcDbLine
 10
473.987498563301
 20
226.2630459487799
 30
0.0
 11
475.0516093338805
 21
222.6724887662421
 31
0.0
  0
LINE
  5
2A3
330
70
100
AcDbEntity
  8
HONTAI
 62
     2
420
 16776960
370
    25
100
AcDbLine
 10
475.0516093338805
 20
222.6724887662421
 30
0.0
 11
473.4344035813586
 21
221.869344153034
 31
0.0
  0
LINE
  5
2A4
330
70
100
AcDbEntity
  8
HONTAI
 62
     2
420
 16776960
370
    25
100
AcDbLine
 10
475.0516093338805
 20
222.6724887662421
 30
0.0
 11
474.8014087251983
 21
216.2526971639316
 31
0.0
  0
LINE
  5
2A5
330
70
100
AcDbEntity
  8
HONTAI
 62
     2
420
 16776960
370
    25
100
AcDbLine
 10
474.8014087251983
 20
216.2526971639316
 30
0.0
 11
468.7344230563458
 21
213.6946856980868
 31
0.0
  0
LINE
  5
2A6
330
70
100
AcDbEntity
  8
HONTAI
 62
     2
420
 16776960
370
    25
100
AcDbLine
 10
475.0516093338805
 20
222.6724887662421
 30
0.0
 11
473.4711754890272
 21
215.691833490253
 31
0.0
  0
LINE
  5
2A7
330
70
100
AcDbEntity
  8
HONTAI
 62
     2
420
 16776960
370
    25
100
AcDbLine
 10
474.8014087251983
 20
216.2526971639316
 30
0.0
 11
472.9036750174848
 21
207.9575257454433
 31
0.0
  0
LINE
  5
2A8
330
70
100
AcDbEntity
  8
HONTAI
 62
     2
420
 16776960
370
    25
100
AcDbLine
 10
472.9036750174848
 20
207.9575257454433
 30
0.0
 11
468.8822688705431
 21
208.2420243853938
 31
0.0
  0
LINE
  5
2A9
330
70
100
AcDbEntity
  8
HONTAI
 62
     2
420
 16776960
370
    25
100
AcDbLine
 10
472.9036750174848
 20
207.9575257454433
 30
0.0
 11
471.0483995948652
 21
200.9266398691199
 31
0.0
  0
LINE
  5
2AA
330
70
100
AcDbEntity
  8
HONTAI
 62
     2
420
 16776960
370
    25
100
AcDbLine
 10
471.0483995948652
 20
200.9266398691199
 30
0.0
 11
468.5134125186262
 21
201.4630326143705
 31
0.0
  0
LINE
  5
2AB
330
70
100
AcDbEntity
  8
HONTAI
 62
     2
420
 16776960
370
    25
100
AcDbLine
 10
471.0483995948652
 20
200.9266398691199
 30
0.0
 11
469.2568115999368
 21
195.5576222571247
 31
0.0
  0
LINE
  5
2AC
330
70
100
AcDbEntity
  8
HONTAI
 62
     2
420
 16776960
370
    25
100
AcDbLine
 10
469.2568115999368
 20
195.5576222571247
 30
0.0
 11
465.7869840676015
 21
195.6021955450227
 31
0.0
  0
LINE
  5
2AD
330
70
100
AcDbEntity
  8
HONTAI
 62
     2
420
 16776960
370
    25
100
AcDbLine
 10
469.2568115999368
 20
195.5576222571247
 30
0.0
 11
467.8609954768981
 21
189.5106504393089
 31
0.0
  0
LINE
  5
2AE
330
70
100
AcDbEntity
  8
HONTAI
 62
     2
420
 16776960
370
    25
100
AcDbLine
 10
467.8609954768981
 20
189.5106504393089
 30
0.0
 11
464.8027375684926
 21
190.2165848847796
 31
0.0
  0
LINE
  5
2AF
330
70
100
AcDbEntity
  8
HONTAI
 62
     2
420
 16776960
370
    25
100
AcDbLine
 10
464.8027375684926
 20
190.2165848847796
 30
0.0
 11
464.8445617748505
 21
184.5736085185601
 31
0.0
  0
LINE
  5
2B0
330
70
100
AcDbEntity
  8
HONTAI
 62
     2
420
 16776960
370
    25
100
AcDbLine
 10
464.8445617748505
 20
184.5736085185601
 30
0.0
 11
462.3061628721772
 21
184.0866040768511
 31
0.0
  0
LINE
  5
2B1
330
70
100
AcDbEntity
  8
HONTAI
 62
     2
420
 16776960
370
    25
100
AcDbLine
 10
462.3061628721772
 20
184.0866040768511
 30
0.0
 11
461.8921945923101
 21
177.9056372516161
 31
0.0
  0
LINE
  5
2B2
330
70
100
AcDbEntity
  8
HONTAI
 62
     2
420
 16776960
370
    25
100
AcDbLine
 10
461.8921945923101
 20
177.9056372516161
 30
0.0
 11
459.134301519279
 21
177.8233692696475
 31
0.0
  0
LINE
  5
2B3
330
70
100
AcDbEntity
  8
HONTAI
 62
     2
420
 16776960
370
    25
100
AcDbLine
 10
459.134301519279
 20
177.8233692696475
 30
0.0
 11
457.784734599686
 21
172.3275103878373
 31
0.0
  0
LINE
  5
2B4
330
70
100
AcDbEntity
  8
HONTAI
 62
     2
420
 16776960
370
    25
100
AcDbLine
 10
457.784734599686
 20
172.3275103878373
 30
0.0
 11
454.8562502024974
 21
172.2232309056842
 31
0.0
  0
LINE
  5
2B5
330
70
100
AcDbEntity
  8
HONTAI
 62
     2
420
 16776960
370
    25
100
AcDbLine
 10
454.8562502024974
 20
172.2232309056842
 30
0.0
 11
453.6609736582595
 21
167.0495653578962
 31
0.0
  0
LINE
  5
2B6
330
70
100
AcDbEntity
  8
HONTAI
 62
     2
420
 16776960
370
    25
100
AcDbLine
 10
453.6609736582595
 20
167.0495653578962
 30
0.0
 11
450.3568092562328
 21
167.8129293928383
 31
0.0
  0
LINE
  5
2B7
330
70
100
AcDbEntity
  8
HONTAI
 62
     2
420
 16776960
370
    25
100
AcDbLine
 10
450.3568092562328
 20
167.8129293928383
 30
0.0
 11
448.3009942548112
 21
161.9529400607539
 31
0.0
  0
LINE
  5
2B8
330
70
100
AcDbEntity
  8
HONTAI
 62
     2
420
 16776960
370
    25
100
AcDbLine
 10
448.3009942548112
 20
161.9529400607539
 30
0.0
 11
445.4888910499187
 21
162.8653167436342
 31
0.0
  0
LINE
  5
2B9
330
70
100
AcDbEntity
  8
HONTAI
 62
     2
420
 16776960
370
    25
100
AcDbLine
 10
445.4888910499187
 20
162.8653167436342
 30
0.0
 11
443.8836963563311
 21
157.9178282479078
 31
0.0
  0
LINE
  5
2BA
330
70
100
AcDbEntity
  8
HONTAI
 62
     2
420
 16776960
370
    25
100
AcDbLine
 10
443.8836963563311
 20
157.9178282479078
 30
0.0
 11
440.8986202268088
 21
158.88632536866
 31
0.0
  0
LINE
  5
2BB
330
70
100
AcDbEntity
  8
HONTAI
 62
     2
420
 16776960
370
    25
100
AcDbLine
 10
440.8986202268088
 20
158.88632536866
 30
0.0
 11
438.2910744480963
 21
153.2434021511879
 31
0.0
  0
LINE
  5
2BC
330
70
100
AcDbEntity
  8
HONTAI
 62
     2
420
 16776960
370
    25
100
AcDbLine
 10
438.2910744480963
 20
153.2434021511879
 30
0.0
 11
435.1468867989042
 21
153.8356490781783
 31
0.0
  0
LINE
  5
2BD
330
70
100
AcDbEntity
  8
HONTAI
 62
     2
420
 16776960
370
    25
100
AcDbLine
 10
435.1468867989042
 20
153.8356490781783
 30
0.0
 11
431.897690712421
 21
148.9854150113164
 31
0.0
  0
LINE
  5
2BE
330
70
100
AcDbEntity
  8
HONTAI
 62
     2
420
 16776960
370
    25
100
AcDbLine
 10
431.897690712421
 20
148.9854150113164
 30
0.0
 11
428.6560764625387
 21
149.709318223817
 31
0.0
  0
LINE
  5
2BF
330
70
100
AcDbEntity
  8
HONTAI
 62
     2
420
 16776960
370
    25
100
AcDbLine
 10
428.6560764625387
 20
149.709318223817
 30
0.0
 11
425.619929985307
 21
145.3583324956101
 31
0.0
  0
LINE
  5
2C0
330
70
100
AcDbEntity
  8
HONTAI
 62
     2
420
 16776960
370
    25
100
AcDbLine
 10
425.619929985307
 20
145.3583324956101
 30
0.0
 11
421.353630515294
 21
145.9514048538535
 31
0.0
  0
LINE
  5
2C1
330
70
100
AcDbEntity
  8
HONTAI
 62
     2
420
 16776960
370
    25
100
AcDbLine
 10
421.353630515294
 20
145.9514048538535
 30
0.0
 11
419.097275935123
 21
142.8422804520274
 31
0.0
  0
LINE
  5
2C2
330
70
100
AcDbEntity
  8
HONTAI
 62
     2
420
 16776960
370
    25
100
AcDbLine
 10
419.097275935123
 20
142.8422804520274
 30
0.0
 11
415.2316765308454
 21
142.8422804520274
 31
0.0
  0
LINE
  5
2C3
330
70
100
AcDbEntity
  8
HONTAI
 62
     2
420
 16776960
370
    25
100
AcDbLine
 10
415.2316765308454
 20
142.8422804520274
 30
0.0
 11
412.3809059591079
 21
138.8423781518534
 31
0.0
  0
LINE
  5
2C4
330
70
100
AcDbEntity
  8
HONTAI
 62
     2
420
 16776960
370
    25
100
AcDbLine
 10
412.3809059591079
 20
138.8423781518534
 30
0.0
 11
409.7735123431326
 21
139.2461516084654
 31
0.0
  0
LINE
  5
2C5
330
70
100
AcDbEntity
  8
HONTAI
 62
     2
420
 16776960
370
    25
100
AcDbLine
 10
409.7735123431326
 20
139.2461516084654
 30
0.0
 11
405.3415497428096
 21
135.4231667411025
 31
0.0
  0
LINE
  5
2C6
330
70
100
AcDbEntity
  8
HONTAI
 62
     2
420
 16776960
370
    25
100
AcDbLine
 10
405.3415497428096
 20
135.4231667411025
 30
0.0
 11
401.2838700004137
 21
136.2941179181838
 31
0.0
  0
LINE
  5
2C7
330
70
100
AcDbEntity
  8
HONTAI
 62
     2
420
 16776960
370
    25
100
AcDbLine
 10
401.2838700004137
 20
136.2941179181838
 30
0.0
 11
397.4545441916431
 21
132.3561393333628
 31
0.0
  0
LINE
  5
2C8
330
70
100
AcDbEntity
  8
HONTAI
 62
     2
420
 16776960
370
    25
100
AcDbLine
 10
397.4545441916431
 20
132.3561393333628
 30
0.0
 11
392.8814697457768
 21
134.3982991195805
 31
0.0
  0
LINE
  5
2C9
330
70
100
AcDbEntity
  8
HONTAI
 62
     2
420
 16776960
370
    25
100
AcDbLine
 10
392.8814697457768
 20
134.3982991195805
 30
0.0
 11
390.1596800809993
 21
130.797174832407
 31
0.0
  0
LINE
  5
2CA
330
70
100
AcDbEntity
  8
HONTAI
 62
     2
420
 16776960
370
    25
100
AcDbLine
 10
390.1596800809993
 20
130.797174832407
 30
0.0
 11
387.3756296715737
 21
131.8527638383903
 31
0.0
  0
LINE
  5
2CB
330
70
100
AcDbEntity
  8
HONTAI
 62
     2
420
 16776960
370
    25
100
AcDbLine
 10
387.3756296715737
 20
131.8527638383903
 30
0.0
 11
381.3946978484025
 21
128.4228218212713
 31
0.0
  0
LINE
  5
2CC
330
70
100
AcDbEntity
  8
HONTAI
 62
     2
420
 16776960
370
    25
100
AcDbLine
 10
381.3946978484025
 20
128.4228218212713
 30
0.0
 11
380.4424191680594
 21
129.6422589318142
 31
0.0
  0
LINE
  5
2CD
330
70
100
AcDbEntity
  8
HONTAI
 62
     2
420
 16776960
370
    25
100
AcDbLine
 10
380.4424191680594
 20
129.6422589318142
 30
0.0
 11
373.1399732208148
 21
126.7685200101222
 31
0.0
  0
LINE
  5
2CE
330
70
100
AcDbEntity
  8
HONTAI
 62
     2
420
 16776960
370
    25
100
AcDbLine
 10
368.3949570793484
 20
129.1856978021884
 30
0.0
 11
365.3951271063687
 21
125.5895290311868
 31
0.0
  0
LINE
  5
2CF
330
70
100
AcDbEntity
  8
HONTAI
 62
     2
420
 16776960
370
    25
100
AcDbLine
 10
373.1399732208148
 20
126.7685200101222
 30
0.0
 11
368.3949570793484
 21
129.1856978021884
 31
0.0
  0
LINE
  5
2D0
330
70
100
AcDbEntity
  8
HONTAI
 62
     2
420
 16776960
370
    25
100
AcDbLine
 10
365.3951271063687
 20
125.5895290311868
 30
0.0
 11
359.9650157141228
 21
127.7959067814968
 31
0.0
  0
LINE
  5
2D1
330
70
100
AcDbEntity
  8
HONTAI
 62
     2
420
 16776960
370
    25
100
AcDbLine
 10
359.9650157141228
 20
127.7959067814968
 30
0.0
 11
357.1711969692032
 21
124.3331950963533
 31
0.0
  0
LINE
  5
2D2
330
70
100
AcDbEntity
  8
HONTAI
 62
     2
420
 16776960
370
    25
100
AcDbLine
 10
420.1064183901847
 20
276.0507894427055
 30
0.0
 11
416.0451792526551
 21
274.9284576133091
 31
0.0
  0
LINE
  5
2D3
330
70
100
AcDbEntity
  8
HONTAI
 62
     2
420
 16776960
370
    25
100
AcDbLine
 10
416.0451792526499
 20
274.9284576133027
 30
0.0
 11
416.7220210627672
 21
281.7919838804763
 31
0.0
  0
LINE
  5
2D4
330
70
100
AcDbEntity
  8
HONTAI
 62
     2
420
 16776960
370
    25
100
AcDbLine
 10
411.1075364976041
 20
280.5455377814918
 30
0.0
 11
407.3522528162797
 21
280.6035931132409
 31
0.0
  0
LINE
  5
2D5
330
70
100
AcDbEntity
  8
HONTAI
 62
     2
420
 16776960
370
    25
100
AcDbLine
 10
407.3522528162797
 20
280.6035931132409
 30
0.0
 11
408.3555719450584
 21
285.9885689949351
 31
0.0
  0
LINE
  5
2D6
330
70
100
AcDbEntity
  8
HONTAI
 62
     2
420
 16776960
370
    25
100
AcDbLine
 10
400.9148944281486
 20
284.321060351597
 30
0.0
 11
399.3558448703175
 21
283.3241092149245
 31
0.0
  0
LINE
  5
2D7
330
70
100
AcDbEntity
  8
HONTAI
 62
     2
420
 16776960
370
    25
100
AcDbLine
 10
399.2317240761748
 20
289.144303615809
 30
0.0
 11
399.3558448703226
 21
283.3241092149309
 31
0.0
  0
LINE
  5
2D8
330
70
100
AcDbEntity
  8
HONTAI
 62
     2
420
 16776960
370
    25
100
AcDbLine
 10
393.3178941279525
 20
288.0789737215334
 30
0.0
 11
391.3856703180437
 21
286.8282157543295
 31
0.0
  0
LINE
  5
2D9
330
70
100
AcDbEntity
  8
HONTAI
 62
     2
420
 16776960
370
    25
100
AcDbLine
 10
391.3856703180437
 20
286.8282157543167
 30
0.0
 11
391.4414631465585
 21
292.8975463485998
 31
0.0
  0
LINE
  5
2DA
330
70
100
AcDbEntity
  8
HONTAI
 62
     2
420
 16776960
370
    25
100
AcDbLine
 10
383.9501558835077
 20
290.6578961125601
 30
0.0
 11
381.9110688631554
 21
288.9288441604634
 31
0.0
  0
LINE
  5
2DB
330
70
100
AcDbEntity
  8
HONTAI
 62
     2
420
 16776960
370
    25
100
AcDbLine
 10
381.9110688631606
 20
288.9288441604698
 30
0.0
 11
381.8825854824417
 21
294.7506359846607
 31
0.0
  0
LINE
  5
2DC
330
70
100
AcDbEntity
  8
HONTAI
 62
     2
420
 16776960
370
    25
100
AcDbLine
 10
374.6563405462134
 20
292.0579650965269
 30
0.0
 11
372.9305913069524
 21
290.2219578618497
 31
0.0
  0
LINE
  5
2DD
330
70
100
AcDbEntity
  8
HONTAI
 62
     2
420
 16776960
370
    25
100
AcDbLine
 10
372.9305913069536
 20
290.2219578618561
 30
0.0
 11
372.5039621991545
 21
296.7418583114963
 31
0.0
  0
LINE
  5
2DE
330
70
100
AcDbEntity
  8
HONTAI
 62
     2
420
 16776960
370
    25
100
AcDbLine
 10
427.1135518007969
 20
271.7771191089223
 30
0.0
 11
424.8092610076773
 21
270.5623315421231
 31
0.0
  0
LINE
  5
2DF
330
70
100
AcDbEntity
  8
HONTAI
 62
     2
420
 16776960
370
    25
100
AcDbLine
 10
424.977369331144
 20
270.650955730453
 30
0.0
 11
425.3885247531583
 21
276.9752097496759
 31
0.0
  0
LINE
  5
2E0
330
70
100
AcDbEntity
  8
HONTAI
 62
     2
420
 16776960
370
    25
100
AcDbLine
 10
434.2814201479233
 20
266.5195347166585
 30
0.0
 11
432.1471519968493
 21
265.5354769682232
 31
0.0
  0
LINE
  5
2E1
330
70
100
AcDbEntity
  8
HONTAI
 62
     2
420
 16776960
370
    25
100
AcDbLine
 10
432.1471519968558
 20
265.5354769682296
 30
0.0
 11
432.6446376096579
 21
272.1849888213967
 31
0.0
  0
LINE
  5
2E2
330
70
100
AcDbEntity
  8
HONTAI
 62
     2
420
 16776960
370
    25
100
AcDbLine
 10
439.5506454314214
 20
266.5195347166585
 30
0.0
 11
436.7288370111192
 21
263.0342888053272
 31
0.0
  0
LINE
  5
2E3
330
70
100
AcDbEntity
  8
HONTAI
 62
     2
420
 16776960
370
    25
100
AcDbLine
 10
436.7288370111192
 20
263.0342888053272
 30
0.0
 11
439.8870510580712
 21
261.2142128833617
 31
0.0
  0
LINE
  5
2E4
330
70
100
AcDbEntity
  8
HONTAI
 62
     2
420
 16776960
370
    25
100
AcDbLine
 10
445.1609766157855
 20
260.8457953989227
 30
0.0
 11
442.1824520969021
 21
257.1953256642897
 31
0.0
  0
LINE
  5
2E5
330
70
100
AcDbEntity
  8
HONTAI
 62
     2
420
 16776960
370
    25
100
AcDbLine
 10
442.1824520969021
 20
257.1953256642897
 30
0.0
 11
446.0829279496177
 21
254.9509780761568
 31
0.0
  0
LINE
  5
2E6
330
70
100
AcDbEntity
  8
HONTAI
 62
     2
420
 16776960
370
    25
100
AcDbLine
 10
450.7252182683155
 20
254.2242367144897
 30
0.0
 11
447.2550798921322
 21
250.5606467913735
 31
0.0
  0
LINE
  5
2E7
330
70
100
AcDbEntity
  8
HONTAI
 62
     2
420
 16776960
370
    25
100
AcDbLine
 10
447.2550798921322
 20
250.5606467913735
 30
0.0
 11
451.6885588597657
 21
247.4351513362569
 31
0.0
  0
LINE
  5
2E8
330
70
100
AcDbEntity
  8
HONTAI
 62
     2
420
 16776960
370
    25
100
AcDbLine
 10
451.6885588597657
 20
247.4351513362569
 30
0.0
 11
450.6479517826988
 21
244.7336524035567
 31
0.0
  0
LINE
  5
2E9
330
70
100
AcDbEntity
  8
HONTAI
 62
     2
420
 16776960
370
    25
100
AcDbLine
 10
450.6479517826988
 20
244.7336524035567
 30
0.0
 11
453.8353559006658
 21
242.1705507783172
 31
0.0
  0
LINE
  5
2EA
330
70
100
AcDbEntity
  8
HONTAI
 62
     2
420
 16776960
370
    25
100
AcDbLine
 10
453.8353559006658
 20
242.1705507783172
 30
0.0
 11
453.827774064065
 21
238.6070264694323
 31
0.0
  0
LINE
  5
2EB
330
70
100
AcDbEntity
  8
HONTAI
 62
     2
420
 16776960
370
    25
100
AcDbLine
 10
453.827774064065
 20
238.6070264694323
 30
0.0
 11
457.6209159444856
 21
235.9755749096634
 31
0.0
  0
LINE
  5
2EC
330
70
100
AcDbEntity
  8
HONTAI
 62
     2
420
 16776960
370
    25
100
AcDbLine
 10
457.6209159444856
 20
235.9755749096634
 30
0.0
 11
455.9431064829588
 21
231.7683285041271
 31
0.0
  0
LINE
  5
2ED
330
70
100
AcDbEntity
  8
HONTAI
 62
     2
420
 16776960
370
    25
100
AcDbLine
 10
455.9431064829588
 20
231.7683285041271
 30
0.0
 11
459.3670639037157
 21
229.3494022051203
 31
0.0
  0
LINE
  5
2EE
330
70
100
AcDbEntity
  8
HONTAI
 62
     2
420
 16776960
370
    25
100
AcDbLine
 10
459.3670639037157
 20
229.3494022051203
 30
0.0
 11
457.4568201655528
 21
225.7678559804661
 31
0.0
  0
LINE
  5
2EF
330
70
100
AcDbEntity
  8
HONTAI
 62
     2
420
 16776960
370
    25
100
AcDbLine
 10
457.4568201655528
 20
225.7678559804661
 30
0.0
 11
461.5761529103786
 21
222.9903509784955
 31
0.0
  0
LINE
  5
2F0
330
70
100
AcDbEntity
  8
HONTAI
 62
     2
420
 16776960
370
    25
100
AcDbLine
 10
461.5761529103786
 20
222.9903509784955
 30
0.0
 11
458.3696732954213
 21
219.3843833534725
 31
0.0
  0
LINE
  5
2F1
330
70
100
AcDbEntity
  8
HONTAI
 62
     2
420
 16776960
370
    25
100
AcDbLine
 10
458.3696732954213
 20
219.3843833534725
 30
0.0
 11
462.0226021823134
 21
217.0841815835984
 31
0.0
  0
LINE
  5
2F2
330
70
100
AcDbEntity
  8
HONTAI
 62
     2
420
 16776960
370
    25
100
AcDbLine
 10
462.0226021823134
 20
217.0841815835984
 30
0.0
 11
458.124400880535
 21
213.1603565309955
 31
0.0
  0
LINE
  5
2F3
330
70
100
AcDbEntity
  8
HONTAI
 62
     2
420
 16776960
370
    25
100
AcDbLine
 10
458.124400880535
 20
213.1603565309955
 30
0.0
 11
463.0544901472325
 21
210.3936485289666
 31
0.0
  0
LINE
  5
2F4
330
70
100
AcDbEntity
  8
HONTAI
 62
     2
420
 16776960
370
    25
100
AcDbLine
 10
463.0544901472325
 20
210.3936485289666
 30
0.0
 11
458.053889799924
 21
207.7038432057361
 31
0.0
  0
LINE
  5
2F5
330
70
100
AcDbEntity
  8
HONTAI
 62
     2
420
 16776960
370
    25
100
AcDbLine
 10
458.053889799924
 20
207.7038432057361
 30
0.0
 11
461.2848894784796
 21
205.8104414737876
 31
0.0
  0
LINE
  5
2F6
330
70
100
AcDbEntity
  8
HONTAI
 62
     2
420
 16776960
370
    25
100
AcDbLine
 10
461.2848894784796
 20
205.8104414737876
 30
0.0
 11
456.5117442299957
 21
201.950174627955
 31
0.0
  0
LINE
  5
2F7
330
70
100
AcDbEntity
  8
HONTAI
 62
     2
420
 16776960
370
    25
100
AcDbLine
 10
456.5117442299957
 20
201.950174627955
 30
0.0
 11
459.2222508241381
 21
199.3601089149592
 31
0.0
  0
LINE
  5
2F8
330
70
100
AcDbEntity
  8
HONTAI
 62
     2
420
 16776960
370
    25
100
AcDbLine
 10
459.2222508241381
 20
199.3601089149592
 30
0.0
 11
455.6572712421563
 21
195.8333162970165
 31
0.0
  0
LINE
  5
2F9
330
70
100
AcDbEntity
  8
HONTAI
 62
     2
420
 16776960
370
    25
100
AcDbLine
 10
455.6572712421563
 20
195.8333162970165
 30
0.0
 11
458.6323839345529
 21
193.6127686434778
 31
0.0
  0
LINE
  5
2FA
330
70
100
AcDbEntity
  8
HONTAI
 62
     2
420
 16776960
370
    25
100
AcDbLine
 10
458.6323839345529
 20
193.6127686434778
 30
0.0
 11
453.8399050026471
 21
190.3784538342899
 31
0.0
  0
LINE
  5
2FB
330
70
100
AcDbEntity
  8
HONTAI
 62
     2
420
 16776960
370
    25
100
AcDbLine
 10
453.8399050026471
 20
190.3784538342899
 30
0.0
 11
455.8293789335715
 21
187.8652908000927
 31
0.0
  0
LINE
  5
2FC
330
70
100
AcDbEntity
  8
HONTAI
 62
     2
420
 16776960
370
    25
100
AcDbLine
 10
455.8293789335715
 20
187.8652908000927
 30
0.0
 11
450.7389338222286
 21
185.157738704845
 31
0.0
  0
LINE
  5
2FD
330
70
100
AcDbEntity
  8
HONTAI
 62
     2
420
 16776960
370
    25
100
AcDbLine
 10
450.7389338222286
 20
185.157738704845
 30
0.0
 11
453.1598142572142
 21
182.8338745722792
 31
0.0
  0
LINE
  5
2FE
330
70
100
AcDbEntity
  8
HONTAI
 62
     2
420
 16776960
370
    25
100
AcDbLine
 10
453.1598142572142
 20
182.8338745722792
 30
0.0
 11
448.4507355282375
 21
179.7576298488557
 31
0.0
  0
LINE
  5
2FF
330
70
100
AcDbEntity
  8
HONTAI
 62
     2
420
 16776960
370
    25
100
AcDbLine
 10
448.4507355282375
 20
179.7576298488557
 30
0.0
 11
450.5046550704827
 21
177.1601352545575
 31
0.0
  0
LINE
  5
300
330
70
100
AcDbEntity
  8
HONTAI
 62
     2
420
 16776960
370
    25
100
AcDbLine
 10
450.5046550704827
 20
177.1601352545575
 30
0.0
 11
444.5498805836546
 21
174.5208188098969
 31
0.0
  0
LINE
  5
301
330
70
100
AcDbEntity
  8
HONTAI
 62
     2
420
 16776960
370
    25
100
AcDbLine
 10
444.5498805836546
 20
174.5208188098969
 30
0.0
 11
447.481991958272
 21
170.9113785344841
 31
0.0
  0
LINE
  5
302
330
70
100
AcDbEntity
  8
HONTAI
 62
     2
420
 16776960
370
    25
100
AcDbLine
 10
447.481991958272
 20
170.9113785344841
 30
0.0
 11
440.175539941731
 21
171.0747808832666
 31
0.0
  0
LINE
  5
303
330
70
100
AcDbEntity
  8
HONTAI
 62
     2
420
 16776960
370
    25
100
AcDbLine
 10
440.175539941731
 20
171.0747808832666
 30
0.0
 11
442.6277033539475
 21
166.3961099569982
 31
0.0
  0
LINE
  5
304
330
70
100
AcDbEntity
  8
HONTAI
 62
     2
420
 16776960
370
    25
100
AcDbLine
 10
442.6277033539475
 20
166.3961099569982
 30
0.0
 11
435.7257600253478
 21
166.6929790548165
 31
0.0
  0
LINE
  5
305
330
70
100
AcDbEntity
  8
HONTAI
 62
     2
420
 16776960
370
    25
100
AcDbLine
 10
435.7257600253478
 20
166.6929790548165
 30
0.0
 11
437.959766169983
 21
162.0530631476895
 31
0.0
  0
LINE
  5
306
330
70
100
AcDbEntity
  8
HONTAI
 62
     2
420
 16776960
370
    25
100
AcDbLine
 10
437.959766169983
 20
162.0530631476895
 30
0.0
 11
430.8760382269086
 21
162.5411974033294
 31
0.0
  0
LINE
  5
307
330
70
100
AcDbEntity
  8
HONTAI
 62
     2
420
 16776960
370
    25
100
AcDbLine
 10
430.8760382269086
 20
162.5411974033294
 30
0.0
 11
432.5467604090958
 21
158.3101685285256
 31
0.0
  0
LINE
  5
308
330
70
100
AcDbEntity
  8
HONTAI
 62
     2
420
 16776960
370
    25
100
AcDbLine
 10
432.5467604090958
 20
158.3101685285256
 30
0.0
 11
425.3503956932029
 21
158.3101685285256
 31
0.0
  0
LINE
  5
309
330
70
100
AcDbEntity
  8
HONTAI
 62
     2
420
 16776960
370
    25
100
AcDbLine
 10
425.3503956932029
 20
158.3101685285256
 30
0.0
 11
426.9596405172555
 21
154.9410391033554
 31
0.0
  0
LINE
  5
30A
330
70
100
AcDbEntity
  8
HONTAI
 62
     2
420
 16776960
370
    25
100
AcDbLine
 10
426.9596405172555
 20
154.9410391033554
 30
0.0
 11
420.3043043261294
 21
154.6177451943035
 31
0.0
  0
LINE
  5
30B
330
70
100
AcDbEntity
  8
HONTAI
 62
     2
420
 16776960
370
    25
100
AcDbLine
 10
420.3043043261294
 20
154.6177451943035
 30
0.0
 11
421.353630515294
 21
149.8409960994375
 31
0.0
  0
LINE
  5
30C
330
70
100
AcDbEntity
  8
HONTAI
 62
     2
420
 16776960
370
    25
100
AcDbLine
 10
421.353630515294
 20
149.8409960994375
 30
0.0
 11
414.1304147608095
 21
150.7503246109182
 31
0.0
  0
LINE
  5
30D
330
70
100
AcDbEntity
  8
HONTAI
 62
     2
420
 16776960
370
    25
100
AcDbLine
 10
414.1304147608095
 20
150.7503246109182
 30
0.0
 11
415.2316765308454
 21
146.3692334274029
 31
0.0
  0
LINE
  5
30E
330
70
100
AcDbEntity
  8
HONTAI
 62
     2
420
 16776960
370
    25
100
AcDbLine
 10
415.2316765308454
 20
146.3692334274029
 30
0.0
 11
408.8883329169163
 21
145.4356478900338
 31
0.0
  0
LINE
  5
30F
330
70
100
AcDbEntity
  8
HONTAI
 62
     2
420
 16776960
370
    25
100
AcDbLine
 10
409.4322254061338
 20
141.6325539184733
 30
0.0
 11
402.6924560253697
 21
142.8565879271316
 31
0.0
  0
LINE
  5
310
330
70
100
AcDbEntity
  8
HONTAI
 62
     2
420
 16776960
370
    25
100
AcDbLine
 10
357.1711969692032
 20
124.3331950963533
 30
0.0
 11
358.3735882061292
 21
133.3946694267052
 31
0.0
  0
LINE
  5
311
330
70
100
AcDbEntity
  8
HONTAI
 62
     2
420
 16776960
370
    25
100
AcDbLine
 10
358.3735882061292
 20
133.3946694267052
 30
0.0
 11
365.3951271063687
 21
125.5895290311868
 31
0.0
  0
LINE
  5
312
330
70
100
AcDbEntity
  8
HONTAI
 62
     2
420
 16776960
370
    25
100
AcDbLine
 10
365.3951271063687
 20
125.5895290311868
 30
0.0
 11
365.46721476631
 21
133.2886015101695
 31
0.0
  0
LINE
  5
313
330
70
100
AcDbEntity
  8
HONTAI
 62
     2
420
 16776960
370
    25
100
AcDbLine
 10
365.46721476631
 20
133.2886015101695
 30
0.0
 11
373.1399732208148
 21
126.7685200101222
 31
0.0
  0
LINE
  5
314
330
70
100
AcDbEntity
  8
HONTAI
 62
     2
420
 16776960
370
    25
100
AcDbLine
 10
373.1399732208148
 20
126.7685200101222
 30
0.0
 11
374.195364879271
 21
134.9061716304033
 31
0.0
  0
LINE
  5
315
330
70
100
AcDbEntity
  8
HONTAI
 62
     2
420
 16776960
370
    25
100
AcDbLine
 10
374.195364879271
 20
134.9061716304033
 30
0.0
 11
380.4424191680594
 21
129.6422589318142
 31
0.0
  0
LINE
  5
316
330
70
100
AcDbEntity
  8
HONTAI
 62
     2
420
 16776960
370
    25
100
AcDbLine
 10
325.847481236356
 20
124.3331950963533
 30
0.0
 11
332.6314176104606
 21
130.8684370642563
 31
0.0
  0
LINE
  5
317
330
70
100
AcDbEntity
  8
HONTAI
 62
     2
420
 16776960
370
    25
100
AcDbLine
 10
332.6314176104606
 20
130.8684370642563
 30
0.0
 11
335.6209357924316
 21
122.9368681145506
 31
0.0
  0
LINE
  5
318
330
70
100
AcDbEntity
  8
HONTAI
 62
     2
420
 16776960
370
    25
100
AcDbLine
 10
335.6209357924316
 20
122.9368681145506
 30
0.0
 11
342.0495750684677
 21
130.6462584842223
 31
0.0
  0
LINE
  5
319
330
70
100
AcDbEntity
  8
HONTAI
 62
     2
420
 16776960
370
    25
100
AcDbLine
 10
342.0495750684677
 20
130.6462584842223
 30
0.0
 11
347.3977424131276
 21
122.9368681145506
 31
0.0
  0
LINE
  5
31A
330
70
100
AcDbEntity
  8
HONTAI
 62
     2
420
 16776960
370
    25
100
AcDbLine
 10
347.3977424131276
 20
122.9368681145506
 30
0.0
 11
350.8001518114373
 21
130.8684370642563
 31
0.0
  0
LINE
  5
31B
330
70
100
AcDbEntity
  8
HONTAI
 62
     2
420
 16776960
370
    25
100
AcDbLine
 10
350.8001518114373
 20
130.8684370642563
 30
0.0
 11
357.1711969692032
 21
124.3331950963533
 31
0.0
  0
LINE
  5
31C
330
70
100
AcDbEntity
  8
HONTAI
 62
     2
420
 16776960
370
    25
100
AcDbLine
 10
342.0495750684677
 20
130.6462584842223
 30
0.0
 11
341.5093391027796
 21
142.9291334793191
 31
0.0
  0
LINE
  5
31D
330
70
100
AcDbEntity
  8
HONTAI
 62
     2
420
 16776960
370
    25
100
AcDbLine
 10
350.8001518114373
 20
130.8684370642563
 30
0.0
 11
349.3813296970881
 21
144.0121169736233
 31
0.0
  0
LINE
  5
31E
330
70
100
AcDbEntity
  8
HONTAI
 62
     2
420
 16776960
370
    25
100
AcDbLine
 10
332.6314176104606
 20
130.8684370642563
 30
0.0
 11
333.6938021250164
 21
143.8887678697917
 31
0.0
  0
LINE
  5
31F
330
70
100
AcDbEntity
  8
HONTAI
 62
     2
420
 16776960
370
    25
100
AcDbLine
 10
347.3977424131276
 20
122.9368681145506
 30
0.0
 11
345.5577082596656
 21
143.5293416148961
 31
0.0
  0
ENDSEC
  0
SECTION
  2
OBJECTS
  0
DICTIONARY
  5
C
330
0
100
AcDbDictionary
281
     1
  3
ACAD_COLOR
350
63
  3
ACAD_DETAILVIEWSTYLE
350
6A
  3
ACAD_GROUP
350
D
  3
ACAD_LAYOUT
350
62
  3
ACAD_MATERIAL
350
10
  3
ACAD_MLEADERSTYLE
350
66
  3
ACAD_MLINESTYLE
350
5F
  3
ACAD_PLOTSETTINGS
350
61
  3
ACAD_PLOTSTYLENAME
350
E
  3
ACAD_SCALELIST
350
42
  3
ACAD_SECTIONVIEWSTYLE
350
68
  3
ACAD_TABLESTYLE
350
64
  3
ACAD_VISUALSTYLE
350
29
  3
ACDB_RECOMPOSE_DATA
350
328
  3
AcDbVariableDictionary
350
320
  0
DICTIONARY
  5
63
102
{ACAD_REACTORS
330
C
102
}
330
C
100
AcDbDictionary
281
     1
  0
DICTIONARY
  5
6A
102
{ACAD_REACTORS
330
C
102
}
330
C
100
AcDbDictionary
281
     1
  3
Imperial24
350
6B
  0
DICTIONARY
  5
D
102
{ACAD_REACTORS
330
C
102
}
330
C
100
AcDbDictionary
281
     1
  0
DICTIONARY
  5
62
102
{ACAD_REACTORS
330
C
102
}
330
C
100
AcDbDictionary
281
     1
  3
Layout1
350
6F
  3
Layout2
350
77
  3
Model
350
73
  0
DICTIONARY
  5
10
102
{ACAD_REACTORS
330
C
102
}
330
C
100
AcDbDictionary
281
     1
  3
ByBlock
350
19
  3
ByLayer
350
11
  3
Global
350
21
  0
DICTIONARY
  5
66
102
{ACAD_REACTORS
330
C
102
}
330
C
100
AcDbDictionary
281
     1
  3
Standard
350
67
  0
DICTIONARY
  5
5F
102
{ACAD_REACTORS
330
C
102
}
330
C
100
AcDbDictionary
281
     1
  3
Standard
350
60
  0
DICTIONARY
  5
61
102
{ACAD_REACTORS
330
C
102
}
330
C
100
AcDbDictionary
281
     1
  0
ACDBDICTIONARYWDFLT
  5
E
102
{ACAD_REACTORS
330
C
102
}
330
C
100
AcDbDictionary
281
     1
  3
Normal
350
F
100
AcDbDictionaryWithDefault
340
F
  0
DICTIONARY
  5
42
102
{ACAD_REACTORS
330
C
102
}
330
C
100
AcDbDictionary
281
     1
  3
A0
350
43
  3
A1
350
44
  3
A2
350
45
  3
A3
350
46
  3
A4
350
47
  3
A5
350
48
  3
A6
350
49
  3
A7
350
4A
  3
A8
350
4B
  3
A9
350
4C
  3
B0
350
4D
  3
B1
350
4E
  3
B2
350
4F
  3
B3
350
50
  3
B4
350
51
  3
B5
350
52
  3
B6
350
53
  0
DICTIONARY
  5
68
102
{ACAD_REACTORS
330
C
102
}
330
C
100
AcDbDictionary
281
     1
  3
Imperial24
350
69
  0
DICTIONARY
  5
64
102
{ACAD_REACTORS
330
C
102
}
330
C
100
AcDbDictionary
281
     1
  3
Standard
350
65
  0
DICTIONARY
  5
29
102
{ACAD_REACTORS
330
C
102
}
330
C
100
AcDbDictionary
281
     1
  3
2dWireframe
350
2F
  3
Basic
350
2E
  3
Brighten
350
35
  3
ColorChange
350
39
  3
Conceptual
350
32
  3
Dim
350
34
  3
EdgeColorOff
350
41
  3
Facepattern
350
38
  3
Flat
350
2A
  3
FlatWithEdges
350
2B
  3
Gouraud
350
2C
  3
GouraudWithEdges
350
2D
  3
Hidden
350
31
  3
JitterOff
350
3F
  3
Linepattern
350
37
  3
OverhangOff
350
40
  3
Realistic
350
33
  3
Shaded
350
3E
  3
Shaded with edges
350
3D
  3
Shades of Gray
350
3A
  3
Sketchy
350
3B
  3
Thicken
350
36
  3
Wireframe
350
30
  3
X-Ray
350
3C
  0
XRECORD
  5
328
102
{ACAD_REACTORS
330
C
102
}
330
C
100
AcDbXrecord
280
     1
 90
        1
330
65
  0
DICTIONARY
  5
320
102
{ACAD_REACTORS
330
C
102
}
330
C
100
AcDbDictionary
281
     1
  3
CANNOSCALE
350
325
  3
CMLEADERSTYLE
350
322
  3
CTABLESTYLE
350
321
  3
CVIEWDETAILSTYLE
350
323
  3
CVIEWSECTIONSTYLE
350
324
  0
ACDBDETAILVIEWSTYLE
  5
6B
102
{ACAD_REACTORS
330
6A
102
}
330
6A
100
AcDbModelDocViewStyle
 70
     0
  3
Imperial24
290
     1
300
Imperial24
 90
        0
100
AcDbDetailViewStyle
 70
     0
 71
     0
 90
        3
 71
     1
340
55
 62
   256
 40
0.24
340
0
 62
   256
 40
0.24
300

 40
0.36
280
     3
 71
     2
340
5D
 90
       25
 62
   256
 71
     3
340
55
 62
   256
 40
0.24
 90
        1
 40
0.75
 90
        1
300
%<\AcVar ViewType \f "%tc1">% %<\AcVar ViewDetailId>%\PSCALE %<\AcVar ViewScale \f "%sn">%
 71
     4
340
5D
 90
       25
 62
   256
340
5D
 90
       25
 62
   256
280
     0
  0
LAYOUT
  5
6F
102
{ACAD_REACTORS
330
62
102
}
330
62
100
AcDbPlotSettings
  1

  2

  4

  6

 40
0.0
 41
0.0
 42
0.0
 43
0.0
 44
0.0
 45
0.0
 46
0.0
 47
0.0
 48
0.0
 49
0.0
140
0.0
141
0.0
142
1.0
143
1.0
 70
   688
 72
     0
 73
     0
 74
     5
  7

 75
    16
147
1.0
 76
     0
 77
     2
 78
   300
148
0.0
149
0.0
100
AcDbLayout
  1
Layout1
 70
     1
 71
     1
 10
0.0
 20
0.0
 11
12.0
 21
9.0
 12
0.0
 22
0.0
 32
0.0
 14
0.0
 24
0.0
 34
0.0
 15
0.0
 25
0.0
 35
0.0
146
0.0
 13
0.0
 23
0.0
 33
0.0
 16
1.0
 26
0.0
 36
0.0
 17
0.0
 27
1.0
 37
0.0
 76
     0
330
6C
  0
LAYOUT
  5
77
102
{ACAD_REACTORS
330
62
102
}
330
62
100
AcDbPlotSettings
  1

  2

  4

  6

 40
0.0
 41
0.0
 42
0.0
 43
0.0
 44
0.0
 45
0.0
 46
0.0
 47
0.0
 48
0.0
 49
0.0
140
0.0
141
0.0
142
1.0
143
1.0
 70
   688
 72
     0
 73
     0
 74
     5
  7

 75
    16
147
1.0
 76
     0
 77
     2
 78
   300
148
0.0
149
0.0
100
AcDbLayout
  1
Layout2
 70
     1
 71
     2
 10
0.0
 20
0.0
 11
12.0
 21
9.0
 12
0.0
 22
0.0
 32
0.0
 14
0.0
 24
0.0
 34
0.0
 15
0.0
 25
0.0
 35
0.0
146
0.0
 13
0.0
 23
0.0
 33
0.0
 16
1.0
 26
0.0
 36
0.0
 17
0.0
 27
1.0
 37
0.0
 76
     0
330
74
  0
LAYOUT
  5
73
102
{ACAD_REACTORS
330
62
102
}
330
62
100
AcDbPlotSettings
  1

  2

  4

  6

 40
0.0
 41
0.0
 42
0.0
 43
0.0
 44
0.0
 45
0.0
 46
0.0
 47
0.0
 48
0.0
 49
0.0
140
0.0
141
0.0
142
1.0
143
1.0
 70
  1712
 72
     0
 73
     0
 74
     0
  7

 75
     0
147
1.0
 76
     0
 77
     2
 78
   300
148
0.0
149
0.0
100
AcDbLayout
  1
Model
 70
     1
 71
     0
 10
0.0
 20
0.0
 11
12.0
 21
9.0
 12
0.0
 22
0.0
 32
0.0
 14
0.0
 24
0.0
 34
0.0
 15
0.0
 25
0.0
 35
0.0
146
0.0
 13
0.0
 23
0.0
 33
0.0
 16
1.0
 26
0.0
 36
0.0
 17
0.0
 27
1.0
 37
0.0
 76
     0
330
70
  0
MATERIAL
  5
19
102
{ACAD_XDICTIONARY
360
1A
102
}
102
{ACAD_REACTORS
330
10
102
}
330
10
100
AcDbMaterial
  1
ByBlock
 72
     0
 43
0.0208333333333333
 43
0.0
 43
0.0
 43
0.0
 43
0.0
 43
0.0208333333333333
 43
0.0
 43
0.0
 43
0.0
 43
0.0
 43
1.0
 43
0.0
 43
0.0
 43
0.0
 43
0.0
 43
1.0
 77
     0
 47
0.0208333333333333
 47
0.0
 47
0.0
 47
0.0
 47
0.0
 47
0.0208333333333333
 47
0.0
 47
0.0
 47
0.0
 47
0.0
 47
1.0
 47
0.0
 47
0.0
 47
0.0
 47
0.0
 47
1.0
171
     0
 49
0.0208333333333333
 49
0.0
 49
0.0
 49
0.0
 49
0.0
 49
0.0208333333333333
 49
0.0
 49
0.0
 49
0.0
 49
0.0
 49
1.0
 49
0.0
 49
0.0
 49
0.0
 49
0.0
 49
1.0
175
     0
142
0.0208333333333333
142
0.0
142
0.0
142
0.0
142
0.0
142
0.0208333333333333
142
0.0
142
0.0
142
0.0
142
0.0
142
1.0
142
0.0
142
0.0
142
0.0
142
0.0
142
1.0
179
     0
144
0.0208333333333333
144
0.0
144
0.0
144
0.0
144
0.0
144
0.0208333333333333
144
0.0
144
0.0
144
0.0
144
0.0
144
1.0
144
0.0
144
0.0
144
0.0
144
0.0
144
1.0
147
0.0208333333333333
147
0.0
147
0.0
147
0.0
147
0.0
147
0.0208333333333333
147
0.0
147
0.0
147
0.0
147
0.0
147
1.0
147
0.0
147
0.0
147
0.0
147
0.0
147
1.0
  0
MATERIAL
  5
11
102
{ACAD_XDICTIONARY
360
12
102
}
102
{ACAD_REACTORS
330
10
102
}
330
10
100
AcDbMaterial
  1
ByLayer
 72
     0
 43
0.0208333333333333
 43
0.0
 43
0.0
 43
0.0
 43
0.0
 43
0.0208333333333333
 43
0.0
 43
0.0
 43
0.0
 43
0.0
 43
1.0
 43
0.0
 43
0.0
 43
0.0
 43
0.0
 43
1.0
 77
     0
 47
0.0208333333333333
 47
0.0
 47
0.0
 47
0.0
 47
0.0
 47
0.0208333333333333
 47
0.0
 47
0.0
 47
0.0
 47
0.0
 47
1.0
 47
0.0
 47
0.0
 47
0.0
 47
0.0
 47
1.0
171
     0
 49
0.0208333333333333
 49
0.0
 49
0.0
 49
0.0
 49
0.0
 49
0.0208333333333333
 49
0.0
 49
0.0
 49
0.0
 49
0.0
 49
1.0
 49
0.0
 49
0.0
 49
0.0
 49
0.0
 49
1.0
175
     0
142
0.0208333333333333
142
0.0
142
0.0
142
0.0
142
0.0
142
0.0208333333333333
142
0.0
142
0.0
142
0.0
142
0.0
142
1.0
142
0.0
142
0.0
142
0.0
142
0.0
142
1.0
179
     0
144
0.0208333333333333
144
0.0
144
0.0
144
0.0
144
0.0
144
0.0208333333333333
144
0.0
144
0.0
144
0.0
144
0.0
144
1.0
144
0.0
144
0.0
144
0.0
144
0.0
144
1.0
147
0.0208333333333333
147
0.0
147
0.0
147
0.0
147
0.0
147
0.0208333333333333
147
0.0
147
0.0
147
0.0
147
0.0
147
1.0
147
0.0
147
0.0
147
0.0
147
0.0
147
1.0
  0
MATERIAL
  5
21
102
{ACAD_XDICTIONARY
360
22
102
}
102
{ACAD_REACTORS
330
10
102
}
330
10
100
AcDbMaterial
  1
Global
 72
     0
 43
0.0208333333333333
 43
0.0
 43
0.0
 43
0.0
 43
0.0
 43
0.0208333333333333
 43
0.0
 43
0.0
 43
0.0
 43
0.0
 43
1.0
 43
0.0
 43
0.0
 43
0.0
 43
0.0
 43
1.0
 77
     0
 47
0.0208333333333333
 47
0.0
 47
0.0
 47
0.0
 47
0.0
 47
0.0208333333333333
 47
0.0
 47
0.0
 47
0.0
 47
0.0
 47
1.0
 47
0.0
 47
0.0
 47
0.0
 47
0.0
 47
1.0
171
     0
 49
0.0208333333333333
 49
0.0
 49
0.0
 49
0.0
 49
0.0
 49
0.0208333333333333
 49
0.0
 49
0.0
 49
0.0
 49
0.0
 49
1.0
 49
0.0
 49
0.0
 49
0.0
 49
0.0
 49
1.0
175
     0
142
0.0208333333333333
142
0.0
142
0.0
142
0.0
142
0.0
142
0.0208333333333333
142
0.0
142
0.0
142
0.0
142
0.0
142
1.0
142
0.0
142
0.0
142
0.0
142
0.0
142
1.0
179
     0
144
0.0208333333333333
144
0.0
144
0.0
144
0.0
144
0.0
144
0.0208333333333333
144
0.0
144
0.0
144
0.0
144
0.0
144
1.0
144
0.0
144
0.0
144
0.0
144
0.0
144
1.0
147
0.0208333333333333
147
0.0
147
0.0
147
0.0
147
0.0
147
0.0208333333333333
147
0.0
147
0.0
147
0.0
147
0.0
147
1.0
147
0.0
147
0.0
147
0.0
147
0.0
147
1.0
  0
MLEADERSTYLE
  5
67
102
{ACAD_REACTORS
330
66
102
}
330
66
100
AcDbMLeaderStyle
179
     2
170
     2
171
     1
172
     0
 90
        2
 40
0.0
 41
0.0
173
     1
 91
-1056964608
340
5B
 92
       -2
290
     1
 42
0.09
291
     1
 43
0.36
  3
Standard
 44
0.18
300

342
55
174
     1
178
     6
175
     1
176
     0
 93
-1056964608
 45
0.18
292
     0
297
     0
 46
0.18
 94
-1056964608
 47
1.0
 49
1.0
140
1.0
293
     1
141
0.0
294
     1
177
     0
142
1.0
295
     1
296
     0
143
0.125
271
     0
272
     9
273
     9
298
     1
  0
MLINESTYLE
  5
60
102
{ACAD_REACTORS
330
5F
102
}
330
5F
100
AcDbMlineStyle
  2
STANDARD
 70
     0
  3

 62
   256
 51
90.0
 52
90.0
 71
     2
 49
0.5
 62
   256
  6
BYLAYER
 49
-0.5
 62
   256
  6
BYLAYER
  0
ACDBPLACEHOLDER
  5
F
102
{ACAD_REACTORS
330
E
102
}
330
E
  0
SCALE
  5
43
102
{ACAD_REACTORS
330
42
102
}
330
42
100
AcDbScale
 70
     0
300
1:1
140
1.0
141
1.0
290
     1
  0
SCALE
  5
44
102
{ACAD_REACTORS
330
42
102
}
330
42
100
AcDbScale
 70
     0
300
1/128" = 1'-0"
140
0.0078125
141
12.0
290
     0
  0
SCALE
  5
45
102
{ACAD_REACTORS
330
42
102
}
330
42
100
AcDbScale
 70
     0
300
1/64" = 1'-0"
140
0.015625
141
12.0
290
     0
  0
SCALE
  5
46
102
{ACAD_REACTORS
330
42
102
}
330
42
100
AcDbScale
 70
     0
300
1/32" = 1'-0"
140
0.03125
141
12.0
290
     0
  0
SCALE
  5
47
102
{ACAD_REACTORS
330
42
102
}
330
42
100
AcDbScale
 70
     0
300
1/16" = 1'-0"
140
0.0625
141
12.0
290
     0
  0
SCALE
  5
48
102
{ACAD_REACTORS
330
42
102
}
330
42
100
AcDbScale
 70
     0
300
3/32" = 1'-0"
140
0.09375
141
12.0
290
     0
  0
SCALE
  5
49
102
{ACAD_REACTORS
330
42
102
}
330
42
100
AcDbScale
 70
     0
300
1/8" = 1'-0"
140
0.125
141
12.0
290
     0
  0
SCALE
  5
4A
102
{ACAD_REACTORS
330
42
102
}
330
42
100
AcDbScale
 70
     0
300
3/16" = 1'-0"
140
0.1875
141
12.0
290
     0
  0
SCALE
  5
4B
102
{ACAD_REACTORS
330
42
102
}
330
42
100
AcDbScale
 70
     0
300
1/4" = 1'-0"
140
0.25
141
12.0
290
     0
  0
SCALE
  5
4C
102
{ACAD_REACTORS
330
42
102
}
330
42
100
AcDbScale
 70
     0
300
3/8" = 1'-0"
140
0.375
141
12.0
290
     0
  0
SCALE
  5
4D
102
{ACAD_REACTORS
330
42
102
}
330
42
100
AcDbScale
 70
     0
300
1/2" = 1'-0"
140
0.5
141
12.0
290
     0
  0
SCALE
  5
4E
102
{ACAD_REACTORS
330
42
102
}
330
42
100
AcDbScale
 70
     0
300
3/4" = 1'-0"
140
0.75
141
12.0
290
     0
  0
SCALE
  5
4F
102
{ACAD_REACTORS
330
42
102
}
330
42
100
AcDbScale
 70
     0
300
1" = 1'-0"
140
1.0
141
12.0
290
     0
  0
SCALE
  5
50
102
{ACAD_REACTORS
330
42
102
}
330
42
100
AcDbScale
 70
     0
300
1-1/2" = 1'-0"
140
1.5
141
12.0
290
     0
  0
SCALE
  5
51
102
{ACAD_REACTORS
330
42
102
}
330
42
100
AcDbScale
 70
     0
300
3" = 1'-0"
140
3.0
141
12.0
290
     0
  0
SCALE
  5
52
102
{ACAD_REACTORS
330
42
102
}
330
42
100
AcDbScale
 70
     0
300
6" = 1'-0"
140
6.0
141
12.0
290
     0
  0
SCALE
  5
53
102
{ACAD_REACTORS
330
42
102
}
330
42
100
AcDbScale
 70
     0
300
1'-0" = 1'-0"
140
12.0
141
12.0
290
     0
  0
ACDBSECTIONVIEWSTYLE
  5
69
102
{ACAD_REACTORS
330
68
102
}
330
68
100
AcDbModelDocViewStyle
 70
     0
  3
Imperial24
290
     1
300
Imperial24
 90
        0
100
AcDbSectionViewStyle
 70
     0
 71
     0
 90
       78
 71
     1
340
55
 62
   256
 40
0.24
340
0
340
0
 62
   256
 40
0.24
300
I, O, Q, S, X, Z
 40
0.48
 90
        3
 40
0.18
 90
        1
 71
     2
340
5D
 90
       25
 62
   256
340
5D
 90
       50
 62
   256
 40
0.24
 40
0.0
 40
0.24
 71
     3
340
55
 62
   256
 40
0.24
 90
        1
 40
0.75
 90
        1
300
%<\AcVar ViewType \f "%tc1">% %<\AcVar ViewSectionStartId>%-%<\AcVar ViewSectionEndId>%\PSCALE %<\AcVar ViewScale \f "%sn">%
 71
     4
 62
   256
 62
   257
300
ANSI31
 40
1.0
 90
        0
290
     0
290
     0
 90
        6
 40
0.0
 40
1.570796326794896
 40
0.2617993877991494
 40
1.308996938995747
 40
-0.2617993877991494
 40
1.832595714594046
  0
TABLESTYLE
  5
65
102
{ACAD_XDICTIONARY
360
326
102
}
102
{ACAD_REACTORS
330
64
102
}
330
64
100
AcDbTableStyle
280
     0
  3
Standard
 70
     0
 71
     0
 40
0.06
 41
0.06
280
     0
281
     0
  7
Standard
140
0.18
170
     2
 62
     0
 63
     7
283
     0
 90
      512
 91
        0
  1

274
    -2
284
     1
 64
     0
275
    -2
285
     1
 65
     0
276
    -2
286
     1
 66
     0
277
    -2
287
     1
 67
     0
278
    -2
288
     1
 68
     0
279
    -2
289
     1
 69
     0
  7
Standard
140
0.25
170
     5
 62
     0
 63
     7
283
     0
 90
      512
 91
        0
  1

274
    -2
284
     1
 64
     0
275
    -2
285
     1
 65
     0
276
    -2
286
     1
 66
     0
277
    -2
287
     1
 67
     0
278
    -2
288
     1
 68
     0
279
    -2
289
     1
 69
     0
  7
Standard
140
0.18
170
     5
 62
     0
 63
     7
283
     0
 90
      512
 91
        0
  1

274
    -2
284
     1
 64
     0
275
    -2
285
     1
 65
     0
276
    -2
286
     1
 66
     0
277
    -2
287
     1
 67
     0
278
    -2
288
     1
 68
     0
279
    -2
289
     1
 69
     0
  0
VISUALSTYLE
  5
2F
102
{ACAD_REACTORS
330
29
102
}
330
29
100
AcDbVisualStyle
  2
2dWireframe
 70
     4
177
     3
291
     0
 70
    58
 90
        0
176
     1
 90
        2
176
     1
 90
        0
176
     1
 90
        0
176
     1
 40
0.6
176
     1
 40
30.0
176
     1
 62
     7
420
 16777215
176
     1
 90
        1
176
     1
 90
        4
176
     1
 62
     7
176
     1
 62
   257
176
     1
 90
        1
176
     1
 90
        1
176
     1
 40
1.0
176
     1
 90
        0
176
     1
 62
   257
176
     1
 40
1.0
176
     1
 90
        1
176
     1
 90
        6
176
     1
 90
        2
176
     1
 62
     7
176
     1
 90
        5
176
     1
 90
        0
176
     1
 90
        0
176
     1
290
     0
176
     1
 90
        1
176
     1
 40
0.0
176
     1
 90
        0
176
     1
290
     1
176
     1
290
     1
176
     1
290
     0
176
     1
290
     0
176
     1
290
     0
176
     1
290
     0
176
     1
290
     0
176
     1
290
     0
176
     1
290
     0
176
     1
 90
       50
176
     1
 40
0.0
176
     1
 40
1.0
176
     1
 90
        0
176
     1
 62
    18
420
        0
176
     1
 90
       50
176
     1
 90
        3
176
     1
 62
     5
420
      255
176
     1
290
     0
176
     1
 90
       50
176
     1
 90
       50
176
     1
 90
       50
176
     1
290
     0
176
     1
 90
       50
176
     1
 62
   256
176
     0
 40
1.0
176
     0
 90
        2
176
     1
  1
strokes_ogs.tif
176
     1
290
     0
176
     1
 40
1.0
176
     1
 40
1.0
176
     1
  0
VISUALSTYLE
  5
2E
102
{ACAD_REACTORS
330
29
102
}
330
29
100
AcDbVisualStyle
  2
Basic
 70
     7
177
     3
291
     1
 70
    58
 90
        1
176
     1
 90
        0
176
     1
 90
        1
176
     1
 90
        0
176
     1
 40
0.6
176
     1
 40
30.0
176
     1
 62
     7
420
 16777215
176
     1
 90
        0
176
     1
 90
        4
176
     1
 62
     7
176
     1
 62
   257
176
     1
 90
        1
176
     1
 90
        1
176
     1
 40
1.0
176
     1
 90
        8
176
     1
 62
     7
176
     1
 40
1.0
176
     1
 90
        1
176
     1
 90
        6
176
     1
 90
        2
176
     1
 62
     7
176
     1
 90
        5
176
     1
 90
        0
176
     1
 90
        0
176
     1
290
     0
176
     1
 90
        1
176
     1
 40
0.0
176
     1
 90
        0
176
     1
290
     0
176
     1
290
     1
176
     1
290
     1
176
     1
290
     0
176
     1
290
     0
176
     1
290
     0
176
     1
290
     0
176
     1
290
     0
176
     1
290
     0
176
     1
 90
       50
176
     1
 40
0.0
176
     1
 40
1.0
176
     1
 90
        0
176
     1
 62
    18
420
        0
176
     1
 90
       50
176
     1
 90
        3
176
     1
 62
     5
420
      255
176
     1
290
     0
176
     1
 90
       50
176
     1
 90
       50
176
     1
 90
       50
176
     1
290
     0
176
     1
 90
       50
176
     1
 62
   256
176
     0
 40
1.0
176
     0
 90
        2
176
     1
  1
strokes_ogs.tif
176
     1
290
     0
176
     1
 40
1.0
176
     1
 40
1.0
176
     1
  0
VISUALSTYLE
  5
35
102
{ACAD_REACTORS
330
29
102
}
330
29
100
AcDbVisualStyle
  2
Brighten
 70
    12
177
     3
291
     1
 70
    58
 90
        2
176
     1
 90
        2
176
     1
 90
        0
176
     1
 90
        0
176
     1
 40
0.6
176
     1
 40
30.0
176
     1
 62
     7
420
 16777215
176
     1
 90
        1
176
     1
 90
        4
176
     1
 62
     7
176
     1
 62
   257
176
     1
 90
        1
176
     1
 90
        1
176
     1
 40
1.0
176
     1
 90
        8
176
     1
 62
     7
176
     1
 40
1.0
176
     1
 90
        1
176
     1
 90
        6
176
     1
 90
        2
176
     1
 62
     7
176
     1
 90
        5
176
     1
 90
        0
176
     1
 90
        0
176
     1
290
     0
176
     1
 90
        1
176
     1
 40
50.0
176
     1
 90
        0
176
     1
290
     0
176
     1
290
     1
176
     1
290
     1
176
     1
290
     0
176
     1
290
     0
176
     1
290
     0
176
     1
290
     0
176
     1
290
     0
176
     1
290
     0
176
     1
 90
       50
176
     1
 40
0.0
176
     1
 40
1.0
176
     1
 90
        0
176
     1
 62
    18
420
        0
176
     1
 90
       50
176
     1
 90
        3
176
     1
 62
     5
420
      255
176
     1
290
     0
176
     1
 90
       50
176
     1
 90
       50
176
     1
 90
       50
176
     1
290
     0
176
     1
 90
       50
176
     1
 62
   256
176
     0
 40
1.0
176
     0
 90
        2
176
     1
  1
strokes_ogs.tif
176
     1
290
     0
176
     1
 40
1.0
176
     1
 40
1.0
176
     1
  0
VISUALSTYLE
  5
39
102
{ACAD_REACTORS
330
29
102
}
330
29
100
AcDbVisualStyle
  2
ColorChange
 70
    16
177
     3
291
     1
 70
    58
 90
        2
176
     1
 90
        2
176
     1
 90
        3
176
     1
 90
        0
176
     1
 40
0.6
176
     1
 40
30.0
176
     1
 62
     8
420
  8421504
176
     1
 90
        1
176
     1
 90
        4
176
     1
 62
     7
176
     1
 62
   257
176
     1
 90
        1
176
     1
 90
        1
176
     1
 40
1.0
176
     1
 90
        8
176
     1
 62
     8
420
  8421504
176
     1
 40
1.0
176
     1
 90
        1
176
     1
 90
        6
176
     1
 90
        2
176
     1
 62
     7
176
     1
 90
        5
176
     1
 90
        0
176
     1
 90
        0
176
     1
290
     0
176
     1
 90
        1
176
     1
 40
0.0
176
     1
 90
        0
176
     1
290
     0
176
     1
290
     1
176
     1
290
     1
176
     1
290
     0
176
     1
290
     0
176
     1
290
     0
176
     1
290
     0
176
     1
290
     0
176
     1
290
     0
176
     1
 90
       50
176
     1
 40
0.0
176
     1
 40
1.0
176
     1
 90
        0
176
     1
 62
    18
420
        0
176
     1
 90
       50
176
     1
 90
        3
176
     1
 62
     5
420
      255
176
     1
290
     0
176
     1
 90
       50
176
     1
 90
       50
176
     1
 90
       50
176
     1
290
     0
176
     1
 90
       50
176
     1
 62
   256
176
     0
 40
1.0
176
     0
 90
        2
176
     1
  1
strokes_ogs.tif
176
     1
290
     0
176
     1
 40
1.0
176
     1
 40
1.0
176
     1
  0
VISUALSTYLE
  5
32
102
{ACAD_REACTORS
330
29
102
}
330
29
100
AcDbVisualStyle
  2
Conceptual
 70
     9
177
     3
291
     0
 70
    58
 90
        3
176
     1
 90
        2
176
     1
 90
        0
176
     1
 90
        0
176
     1
 40
0.6
176
     1
 40
30.0
176
     1
 62
     7
420
 16777215
176
     1
 90
        2
176
     1
 90
        2
176
     1
 62
     7
176
     1
 62
   257
176
     1
 90
        1
176
     1
 90
        1
176
     1
 40
179.0
176
     1
 90
        8
176
     1
 62
     7
176
     1
 40
1.0
176
     1
 90
        1
176
     1
 90
        6
176
     1
 90
        2
176
     1
 62
     7
176
     1
 90
        3
176
     1
 90
        0
176
     1
 90
        0
176
     1
290
     0
176
     1
 90
        1
176
     1
 40
0.0
176
     1
 90
        0
176
     1
290
     0
176
     1
290
     1
176
     1
290
     1
176
     1
290
     0
176
     1
290
     0
176
     1
290
     0
176
     1
290
     0
176
     1
290
     0
176
     1
290
     0
176
     1
 90
       50
176
     1
 40
0.0
176
     1
 40
1.0
176
     1
 90
        0
176
     1
 62
    18
420
        0
176
     1
 90
       50
176
     1
 90
        3
176
     1
 62
     5
420
      255
176
     1
290
     0
176
     1
 90
       50
176
     1
 90
       50
176
     1
 90
       50
176
     1
290
     0
176
     1
 90
       50
176
     1
 62
   256
176
     0
 40
1.0
176
     0
 90
        2
176
     1
  1
strokes_ogs.tif
176
     1
290
     0
176
     1
 40
1.0
176
     1
 40
1.0
176
     1
  0
VISUALSTYLE
  5
34
102
{ACAD_REACTORS
330
29
102
}
330
29
100
AcDbVisualStyle
  2
Dim
 70
    11
177
     3
291
     1
 70
    58
 90
        2
176
     1
 90
        2
176
     1
 90
        0
176
     1
 90
        0
176
     1
 40
0.6
176
     1
 40
30.0
176
     1
 62
     7
420
 16777215
176
     1
 90
        1
176
     1
 90
        4
176
     1
 62
     7
176
     1
 62
   257
176
     1
 90
        1
176
     1
 90
        1
176
     1
 40
1.0
176
     1
 90
        8
176
     1
 62
     7
176
     1
 40
1.0
176
     1
 90
        1
176
     1
 90
        6
176
     1
 90
        2
176
     1
 62
     7
176
     1
 90
        5
176
     1
 90
        0
176
     1
 90
        0
176
     1
290
     0
176
     1
 90
        1
176
     1
 40
-50.0
176
     1
 90
        0
176
     1
290
     0
176
     1
290
     1
176
     1
290
     1
176
     1
290
     0
176
     1
290
     0
176
     1
290
     0
176
     1
290
     0
176
     1
290
     0
176
     1
290
     0
176
     1
 90
       50
176
     1
 40
0.0
176
     1
 40
1.0
176
     1
 90
        0
176
     1
 62
    18
420
        0
176
     1
 90
       50
176
     1
 90
        3
176
     1
 62
     5
420
      255
176
     1
290
     0
176
     1
 90
       50
176
     1
 90
       50
176
     1
 90
       50
176
     1
290
     0
176
     1
 90
       50
176
     1
 62
   256
176
     0
 40
1.0
176
     0
 90
        2
176
     1
  1
strokes_ogs.tif
176
     1
290
     0
176
     1
 40
1.0
176
     1
 40
1.0
176
     1
  0
VISUALSTYLE
  5
41
102
{ACAD_REACTORS
330
29
102
}
330
29
100
AcDbVisualStyle
  2
EdgeColorOff
 70
    22
177
     3
291
     1
 70
    58
 90
        2
176
     0
 90
        2
176
     0
 90
        0
176
     0
 90
        0
176
     0
 40
0.6
176
     0
 40
30.0
176
     0
 62
     7
420
 16777215
176
     0
 90
        1
176
     0
 90
        4
176
     0
 62
     7
176
     0
 62
   257
176
     0
 90
        1
176
     0
 90
        1
176
     0
 40
1.0
176
     0
 90
        8
176
     2
 62
     7
176
     0
 40
1.0
176
     0
 90
        1
176
     0
 90
        6
176
     0
 90
        2
176
     0
 62
     7
176
     0
 90
        5
176
     0
 90
        0
176
     0
 90
        0
176
     0
290
     0
176
     0
 90
        1
176
     0
 40
0.0
176
     0
 90
        0
176
     0
290
     0
176
     0
290
     1
176
     0
290
     1
176
     0
290
     0
176
     0
290
     0
176
     0
290
     0
176
     0
290
     0
176
     0
290
     0
176
     0
290
     0
176
     0
 90
       50
176
     0
 40
0.0
176
     0
 40
1.0
176
     0
 90
        0
176
     0
 62
    18
420
        0
176
     0
 90
       50
176
     0
 90
        3
176
     0
 62
     5
420
      255
176
     0
290
     0
176
     0
 90
       50
176
     0
 90
       50
176
     0
 90
       50
176
     0
290
     0
176
     0
 90
       50
176
     0
 62
   256
176
     0
 40
1.0
176
     0
 90
        2
176
     0
  1
strokes_ogs.tif
176
     0
290
     0
176
     0
 40
1.0
176
     0
 40
1.0
176
     0
  0
VISUALSTYLE
  5
38
102
{ACAD_REACTORS
330
29
102
}
330
29
100
AcDbVisualStyle
  2
Facepattern
 70
    15
177
     3
291
     1
 70
    58
 90
        2
176
     1
 90
        2
176
     1
 90
        0
176
     1
 90
        0
176
     1
 40
0.6
176
     1
 40
30.0
176
     1
 62
     7
420
 16777215
176
     1
 90
        1
176
     1
 90
        4
176
     1
 62
     7
176
     1
 62
   257
176
     1
 90
        1
176
     1
 90
        1
176
     1
 40
1.0
176
     1
 90
        8
176
     1
 62
     7
176
     1
 40
1.0
176
     1
 90
        1
176
     1
 90
        6
176
     1
 90
        2
176
     1
 62
     7
176
     1
 90
        5
176
     1
 90
        0
176
     1
 90
        0
176
     1
290
     0
176
     1
 90
        1
176
     1
 40
0.0
176
     1
 90
        0
176
     1
290
     0
176
     1
290
     1
176
     1
290
     1
176
     1
290
     0
176
     1
290
     0
176
     1
290
     0
176
     1
290
     0
176
     1
290
     0
176
     1
290
     0
176
     1
 90
       50
176
     1
 40
0.0
176
     1
 40
1.0
176
     1
 90
        0
176
     1
 62
    18
420
        0
176
     1
 90
       50
176
     1
 90
        3
176
     1
 62
     5
420
      255
176
     1
290
     0
176
     1
 90
       50
176
     1
 90
       50
176
     1
 90
       50
176
     1
290
     0
176
     1
 90
       50
176
     1
 62
   256
176
     0
 40
1.0
176
     0
 90
        2
176
     1
  1
strokes_ogs.tif
176
     1
290
     0
176
     1
 40
1.0
176
     1
 40
1.0
176
     1
  0
VISUALSTYLE
  5
2A
102
{ACAD_REACTORS
330
29
102
}
330
29
100
AcDbVisualStyle
  2
Flat
 70
     0
177
     3
291
     1
 70
    58
 90
        2
176
     1
 90
        1
176
     1
 90
        1
176
     1
 90
        2
176
     1
 40
0.6
176
     1
 40
30.0
176
     1
 62
     7
420
 16777215
176
     1
 90
        0
176
     1
 90
        0
176
     1
 62
     7
176
     1
 62
   257
176
     1
 90
        1
176
     1
 90
        1
176
     1
 40
1.0
176
     1
 90
        8
176
     1
 62
     7
176
     1
 40
1.0
176
     1
 90
        1
176
     1
 90
        6
176
     1
 90
        2
176
     1
 62
     7
176
     1
 90
        5
176
     1
 90
        0
176
     1
 90
        0
176
     1
290
     0
176
     1
 90
       13
176
     1
 40
0.0
176
     1
 90
        0
176
     1
290
     0
176
     1
290
     1
176
     1
290
     1
176
     1
290
     0
176
     1
290
     0
176
     1
290
     0
176
     1
290
     0
176
     1
290
     0
176
     1
290
     0
176
     1
 90
       50
176
     1
 40
0.0
176
     1
 40
1.0
176
     1
 90
        0
176
     1
 62
    18
420
        0
176
     1
 90
       50
176
     1
 90
        3
176
     1
 62
     5
420
      255
176
     1
290
     0
176
     1
 90
       50
176
     1
 90
       50
176
     1
 90
       50
176
     1
290
     0
176
     1
 90
       50
176
     1
 62
   256
176
     0
 40
1.0
176
     0
 90
        2
176
     1
  1
strokes_ogs.tif
176
     1
290
     0
176
     1
 40
1.0
176
     1
 40
1.0
176
     1
  0
VISUALSTYLE
  5
2B
102
{ACAD_REACTORS
330
29
102
}
330
29
100
AcDbVisualStyle
  2
FlatWithEdges
 70
     1
177
     3
291
     1
 70
    58
 90
        2
176
     1
 90
        1
176
     1
 90
        1
176
     1
 90
        2
176
     1
 40
0.6
176
     1
 40
30.0
176
     1
 62
     7
420
 16777215
176
     1
 90
        1
176
     1
 90
        0
176
     1
 62
     7
176
     1
 62
   257
176
     1
 90
        1
176
     1
 90
        1
176
     1
 40
1.0
176
     1
 90
        0
176
     1
 62
   257
176
     1
 40
1.0
176
     1
 90
        1
176
     1
 90
        6
176
     1
 90
        2
176
     1
 62
     7
176
     1
 90
        5
176
     1
 90
        0
176
     1
 90
        0
176
     1
290
     0
176
     1
 90
       13
176
     1
 40
0.0
176
     1
 90
        0
176
     1
290
     0
176
     1
290
     1
176
     1
290
     1
176
     1
290
     0
176
     1
290
     0
176
     1
290
     0
176
     1
290
     0
176
     1
290
     0
176
     1
290
     0
176
     1
 90
       50
176
     1
 40
0.0
176
     1
 40
1.0
176
     1
 90
        0
176
     1
 62
    18
420
        0
176
     1
 90
       50
176
     1
 90
        3
176
     1
 62
     5
420
      255
176
     1
290
     0
176
     1
 90
       50
176
     1
 90
       50
176
     1
 90
       50
176
     1
290
     0
176
     1
 90
       50
176
     1
 62
   256
176
     0
 40
1.0
176
     0
 90
        2
176
     1
  1
strokes_ogs.tif
176
     1
290
     0
176
     1
 40
1.0
176
     1
 40
1.0
176
     1
  0
VISUALSTYLE
  5
2C
102
{ACAD_REACTORS
330
29
102
}
330
29
100
AcDbVisualStyle
  2
Gouraud
 70
     2
177
     3
291
     1
 70
    58
 90
        2
176
     1
 90
        2
176
     1
 90
        1
176
     1
 90
        2
176
     1
 40
0.6
176
     1
 40
30.0
176
     1
 62
     7
420
 16777215
176
     1
 90
        0
176
     1
 90
        0
176
     1
 62
     7
176
     1
 62
   257
176
     1
 90
        1
176
     1
 90
        1
176
     1
 40
1.0
176
     1
 90
        0
176
     1
 62
     7
176
     1
 40
1.0
176
     1
 90
        1
176
     1
 90
        6
176
     1
 90
        2
176
     1
 62
     7
176
     1
 90
        5
176
     1
 90
        0
176
     1
 90
        0
176
     1
290
     0
176
     1
 90
       13
176
     1
 40
0.0
176
     1
 90
        0
176
     1
290
     0
176
     1
290
     1
176
     1
290
     1
176
     1
290
     0
176
     1
290
     0
176
     1
290
     0
176
     1
290
     0
176
     1
290
     0
176
     1
290
     0
176
     1
 90
       50
176
     1
 40
0.0
176
     1
 40
1.0
176
     1
 90
        0
176
     1
 62
    18
420
        0
176
     1
 90
       50
176
     1
 90
        3
176
     1
 62
     5
420
      255
176
     1
290
     0
176
     1
 90
       50
176
     1
 90
       50
176
     1
 90
       50
176
     1
290
     0
176
     1
 90
       50
176
     1
 62
   256
176
     0
 40
1.0
176
     0
 90
        2
176
     1
  1
strokes_ogs.tif
176
     1
290
     0
176
     1
 40
1.0
176
     1
 40
1.0
176
     1
  0
VISUALSTYLE
  5
2D
102
{ACAD_REACTORS
330
29
102
}
330
29
100
AcDbVisualStyle
  2
GouraudWithEdges
 70
     3
177
     3
291
     1
 70
    58
 90
        2
176
     1
 90
        2
176
     1
 90
        1
176
     1
 90
        2
176
     1
 40
0.6
176
     1
 40
30.0
176
     1
 62
     7
420
 16777215
176
     1
 90
        1
176
     1
 90
        0
176
     1
 62
     7
176
     1
 62
   257
176
     1
 90
        1
176
     1
 90
        1
176
     1
 40
1.0
176
     1
 90
        0
176
     1
 62
   257
176
     1
 40
1.0
176
     1
 90
        1
176
     1
 90
        6
176
     1
 90
        2
176
     1
 62
     7
176
     1
 90
        5
176
     1
 90
        0
176
     1
 90
        0
176
     1
290
     0
176
     1
 90
       13
176
     1
 40
0.0
176
     1
 90
        0
176
     1
290
     0
176
     1
290
     1
176
     1
290
     1
176
     1
290
     0
176
     1
290
     0
176
     1
290
     0
176
     1
290
     0
176
     1
290
     0
176
     1
290
     0
176
     1
 90
       50
176
     1
 40
0.0
176
     1
 40
1.0
176
     1
 90
        0
176
     1
 62
    18
420
        0
176
     1
 90
       50
176
     1
 90
        3
176
     1
 62
     5
420
      255
176
     1
290
     0
176
     1
 90
       50
176
     1
 90
       50
176
     1
 90
       50
176
     1
290
     0
176
     1
 90
       50
176
     1
 62
   256
176
     0
 40
1.0
176
     0
 90
        2
176
     1
  1
strokes_ogs.tif
176
     1
290
     0
176
     1
 40
1.0
176
     1
 40
1.0
176
     1
  0
VISUALSTYLE
  5
31
102
{ACAD_REACTORS
330
29
102
}
330
29
100
AcDbVisualStyle
  2
Hidden
 70
     6
177
     3
291
     0
 70
    58
 90
        1
176
     1
 90
        2
176
     1
 90
        2
176
     1
 90
        0
176
     1
 40
0.6
176
     1
 40
30.0
176
     1
 62
     7
420
 16777215
176
     1
 90
        2
176
     1
 90
        2
176
     1
 62
     7
176
     1
 62
   257
176
     1
 90
        2
176
     1
 90
        1
176
     1
 40
40.0
176
     1
 90
        0
176
     1
 62
   257
176
     1
 40
1.0
176
     1
 90
        1
176
     1
 90
        6
176
     1
 90
        2
176
     1
 62
     7
176
     1
 90
        3
176
     1
 90
        0
176
     1
 90
        0
176
     1
290
     0
176
     1
 90
        1
176
     1
 40
0.0
176
     1
 90
        0
176
     1
290
     0
176
     1
290
     1
176
     1
290
     1
176
     1
290
     0
176
     1
290
     0
176
     1
290
     0
176
     1
290
     0
176
     1
290
     0
176
     1
290
     0
176
     1
 90
       50
176
     1
 40
0.0
176
     1
 40
1.0
176
     1
 90
        0
176
     1
 62
    18
420
        0
176
     1
 90
       50
176
     1
 90
        3
176
     1
 62
     5
420
      255
176
     1
290
     0
176
     1
 90
       50
176
     1
 90
       50
176
     1
 90
       50
176
     1
290
     0
176
     1
 90
       50
176
     1
 62
   256
176
     0
 40
1.0
176
     0
 90
        2
176
     1
  1
strokes_ogs.tif
176
     1
290
     0
176
     1
 40
1.0
176
     1
 40
1.0
176
     1
  0
VISUALSTYLE
  5
3F
102
{ACAD_REACTORS
330
29
102
}
330
29
100
AcDbVisualStyle
  2
JitterOff
 70
    20
177
     3
291
     1
 70
    58
 90
        2
176
     0
 90
        2
176
     0
 90
        0
176
     0
 90
        0
176
     0
 40
0.6
176
     0
 40
30.0
176
     0
 62
     7
420
 16777215
176
     0
 90
        1
176
     0
 90
        4
176
     0
 62
     7
176
     0
 62
   257
176
     0
 90
        1
176
     0
 90
        1
176
     0
 40
1.0
176
     0
 90
       10
176
     2
 62
     7
176
     0
 40
1.0
176
     0
 90
        1
176
     0
 90
        6
176
     0
 90
        2
176
     0
 62
     7
176
     0
 90
        5
176
     0
 90
        0
176
     0
 90
        0
176
     0
290
     0
176
     0
 90
        1
176
     0
 40
0.0
176
     0
 90
        0
176
     0
290
     0
176
     0
290
     1
176
     0
290
     1
176
     0
290
     0
176
     0
290
     0
176
     0
290
     0
176
     0
290
     0
176
     0
290
     0
176
     0
290
     0
176
     0
 90
       50
176
     0
 40
0.0
176
     0
 40
1.0
176
     0
 90
        0
176
     0
 62
    18
420
        0
176
     0
 90
       50
176
     0
 90
        3
176
     0
 62
     5
420
      255
176
     0
290
     0
176
     0
 90
       50
176
     0
 90
       50
176
     0
 90
       50
176
     0
290
     0
176
     0
 90
       50
176
     0
 62
   256
176
     0
 40
1.0
176
     0
 90
        2
176
     0
  1
strokes_ogs.tif
176
     0
290
     0
176
     0
 40
1.0
176
     0
 40
1.0
176
     0
  0
VISUALSTYLE
  5
37
102
{ACAD_REACTORS
330
29
102
}
330
29
100
AcDbVisualStyle
  2
Linepattern
 70
    14
177
     3
291
     1
 70
    58
 90
        2
176
     1
 90
        2
176
     1
 90
        0
176
     1
 90
        0
176
     1
 40
0.6
176
     1
 40
30.0
176
     1
 62
     7
420
 16777215
176
     1
 90
        1
176
     1
 90
        4
176
     1
 62
     7
176
     1
 62
   257
176
     1
 90
        7
176
     1
 90
        7
176
     1
 40
1.0
176
     1
 90
        8
176
     1
 62
     7
176
     1
 40
1.0
176
     1
 90
        1
176
     1
 90
        6
176
     1
 90
        2
176
     1
 62
     7
176
     1
 90
        5
176
     1
 90
        0
176
     1
 90
        0
176
     1
290
     0
176
     1
 90
        1
176
     1
 40
0.0
176
     1
 90
        0
176
     1
290
     0
176
     1
290
     1
176
     1
290
     1
176
     1
290
     0
176
     1
290
     0
176
     1
290
     0
176
     1
290
     0
176
     1
290
     0
176
     1
290
     0
176
     1
 90
       50
176
     1
 40
0.0
176
     1
 40
1.0
176
     1
 90
        0
176
     1
 62
    18
420
        0
176
     1
 90
       50
176
     1
 90
        3
176
     1
 62
     5
420
      255
176
     1
290
     0
176
     1
 90
       50
176
     1
 90
       50
176
     1
 90
       50
176
     1
290
     0
176
     1
 90
       50
176
     1
 62
   256
176
     0
 40
1.0
176
     0
 90
        2
176
     1
  1
strokes_ogs.tif
176
     1
290
     0
176
     1
 40
1.0
176
     1
 40
1.0
176
     1
  0
VISUALSTYLE
  5
40
102
{ACAD_REACTORS
330
29
102
}
330
29
100
AcDbVisualStyle
  2
OverhangOff
 70
    21
177
     3
291
     1
 70
    58
 90
        2
176
     0
 90
        2
176
     0
 90
        0
176
     0
 90
        0
176
     0
 40
0.6
176
     0
 40
30.0
176
     0
 62
     7
420
 16777215
176
     0
 90
        1
176
     0
 90
        4
176
     0
 62
     7
176
     0
 62
   257
176
     0
 90
        1
176
     0
 90
        1
176
     0
 40
1.0
176
     0
 90
        9
176
     2
 62
     7
176
     0
 40
1.0
176
     0
 90
        1
176
     0
 90
        6
176
     0
 90
        2
176
     0
 62
     7
176
     0
 90
        5
176
     0
 90
        0
176
     0
 90
        0
176
     0
290
     0
176
     0
 90
        1
176
     0
 40
0.0
176
     0
 90
        0
176
     0
290
     0
176
     0
290
     1
176
     0
290
     1
176
     0
290
     0
176
     0
290
     0
176
     0
290
     0
176
     0
290
     0
176
     0
290
     0
176
     0
290
     0
176
     0
 90
       50
176
     0
 40
0.0
176
     0
 40
1.0
176
     0
 90
        0
176
     0
 62
    18
420
        0
176
     0
 90
       50
176
     0
 90
        3
176
     0
 62
     5
420
      255
176
     0
290
     0
176
     0
 90
       50
176
     0
 90
       50
176
     0
 90
       50
176
     0
290
     0
176
     0
 90
       50
176
     0
 62
   256
176
     0
 40
1.0
176
     0
 90
        2
176
     0
  1
strokes_ogs.tif
176
     0
290
     0
176
     0
 40
1.0
176
     0
 40
1.0
176
     0
  0
VISUALSTYLE
  5
33
102
{ACAD_REACTORS
330
29
102
}
330
29
100
AcDbVisualStyle
  2
Realistic
 70
     8
177
     3
291
     0
 70
    58
 90
        2
176
     1
 90
        3
176
     1
 90
        0
176
     1
 90
        2
176
     1
 40
0.6
176
     1
 40
30.0
176
     1
 62
     7
420
 16777215
176
     1
 90
        0
176
     1
 90
        0
176
     1
 62
     7
176
     1
 62
   257
176
     1
 90
        1
176
     1
 90
        1
176
     1
 40
1.0
176
     1
 90
        8
176
     1
 62
   257
176
     1
 40
1.0
176
     1
 90
        1
176
     1
 90
        6
176
     1
 90
        2
176
     1
 62
     7
176
     1
 90
        3
176
     1
 90
        0
176
     1
 90
        0
176
     1
290
     0
176
     1
 90
       13
176
     1
 40
0.0
176
     1
 90
        0
176
     1
290
     0
176
     1
290
     1
176
     1
290
     1
176
     1
290
     0
176
     1
290
     0
176
     1
290
     0
176
     1
290
     0
176
     1
290
     0
176
     1
290
     0
176
     1
 90
       50
176
     1
 40
0.0
176
     1
 40
1.0
176
     1
 90
        0
176
     1
 62
    18
420
        0
176
     1
 90
       50
176
     1
 90
        3
176
     1
 62
     5
420
      255
176
     1
290
     0
176
     1
 90
       50
176
     1
 90
       50
176
     1
 90
       50
176
     1
290
     0
176
     1
 90
       50
176
     1
 62
   256
176
     0
 40
1.0
176
     0
 90
        2
176
     1
  1
strokes_ogs.tif
176
     1
290
     0
176
     1
 40
1.0
176
     1
 40
1.0
176
     1
  0
VISUALSTYLE
  5
3E
102
{ACAD_REACTORS
330
29
102
}
330
29
100
AcDbVisualStyle
  2
Shaded
 70
    27
177
     3
291
     0
 70
    58
 90
        2
176
     1
 90
        2
176
     1
 90
        1
176
     1
 90
        2
176
     1
 40
0.6
176
     1
 40
30.0
176
     1
 62
     7
420
 16777215
176
     1
 90
        0
176
     1
 90
        4
176
     1
 62
     7
176
     1
 62
   257
176
     1
 90
        1
176
     1
 90
        1
176
     1
 40
1.0
176
     1
 90
        8
176
     1
 62
   257
176
     1
 40
1.0
176
     1
 90
        1
176
     1
 90
        6
176
     1
 90
        2
176
     1
 62
     8
420
  7895160
176
     1
 90
        3
176
     1
 90
        0
176
     1
 90
        0
176
     1
290
     0
176
     1
 90
        5
176
     1
 40
0.0
176
     1
 90
        0
176
     1
290
     0
176
     1
290
     1
176
     1
290
     1
176
     1
290
     0
176
     1
290
     0
176
     1
290
     0
176
     1
290
     0
176
     1
290
     0
176
     1
290
     0
176
     1
 90
       50
176
     1
 40
0.0
176
     1
 40
1.0
176
     1
 90
        0
176
     1
 62
    18
420
        0
176
     1
 90
       50
176
     1
 90
        3
176
     1
 62
     5
420
      255
176
     1
290
     0
176
     1
 90
       50
176
     1
 90
       50
176
     1
 90
       50
176
     1
290
     0
176
     1
 90
       50
176
     1
 62
   256
176
     0
 40
1.0
176
     0
 90
        2
176
     1
  1
strokes_ogs.tif
176
     1
290
     0
176
     1
 40
1.0
176
     1
 40
1.0
176
     1
  0
VISUALSTYLE
  5
3D
102
{ACAD_REACTORS
330
29
102
}
330
29
100
AcDbVisualStyle
  2
Shaded with edges
 70
    26
177
     3
291
     0
 70
    58
 90
        2
176
     1
 90
        2
176
     1
 90
        1
176
     1
 90
        2
176
     1
 40
0.6
176
     1
 40
30.0
176
     1
 62
     7
420
 16777215
176
     1
 90
        1
176
     1
 90
        2
176
     1
 62
     7
176
     1
 62
   257
176
     1
 90
        2
176
     1
 90
        1
176
     1
 40
1.0
176
     1
 90
        8
176
     1
 62
   257
176
     1
 40
1.0
176
     1
 90
        1
176
     1
 90
        6
176
     1
 90
        2
176
     1
 62
     7
176
     1
 90
        3
176
     1
 90
        0
176
     1
 90
        0
176
     1
290
     0
176
     1
 90
        5
176
     1
 40
0.0
176
     1
 90
        0
176
     1
290
     0
176
     1
290
     1
176
     1
290
     1
176
     1
290
     0
176
     1
290
     0
176
     1
290
     0
176
     1
290
     0
176
     1
290
     0
176
     1
290
     0
176
     1
 90
       50
176
     1
 40
0.0
176
     1
 40
1.0
176
     1
 90
        0
176
     1
 62
    18
420
        0
176
     1
 90
       50
176
     1
 90
        3
176
     1
 62
     5
420
      255
176
     1
290
     0
176
     1
 90
       50
176
     1
 90
       50
176
     1
 90
       50
176
     1
290
     0
176
     1
 90
       50
176
     1
 62
   256
176
     0
 40
1.0
176
     0
 90
        2
176
     1
  1
strokes_ogs.tif
176
     1
290
     0
176
     1
 40
1.0
176
     1
 40
1.0
176
     1
  0
VISUALSTYLE
  5
3A
102
{ACAD_REACTORS
330
29
102
}
330
29
100
AcDbVisualStyle
  2
Shades of Gray
 70
    23
177
     3
291
     0
 70
    58
 90
        2
176
     1
 90
        2
176
     1
 90
        3
176
     1
 90
        0
176
     1
 40
0.6
176
     1
 40
30.0
176
     1
 62
     7
420
 16777215
176
     1
 90
        2
176
     1
 90
        2
176
     1
 62
     7
176
     1
 62
     7
176
     1
 90
        1
176
     1
 90
        1
176
     1
 40
40.0
176
     1
 90
        8
176
     1
 62
     7
176
     1
 40
1.0
176
     1
 90
        1
176
     1
 90
        6
176
     1
 90
        2
176
     1
 62
     7
176
     1
 90
        3
176
     1
 90
        0
176
     1
 90
        0
176
     1
290
     0
176
     1
 90
        1
176
     1
 40
0.0
176
     1
 90
        0
176
     1
290
     0
176
     1
290
     1
176
     1
290
     1
176
     1
290
     0
176
     1
290
     0
176
     1
290
     0
176
     1
290
     0
176
     1
290
     0
176
     1
290
     0
176
     1
 90
       50
176
     1
 40
0.0
176
     1
 40
1.0
176
     1
 90
        0
176
     1
 62
    18
420
        0
176
     1
 90
       50
176
     1
 90
        3
176
     1
 62
     5
420
      255
176
     1
290
     0
176
     1
 90
       50
176
     1
 90
       50
176
     1
 90
       50
176
     1
290
     0
176
     1
 90
       50
176
     1
 62
   256
176
     0
 40
1.0
176
     0
 90
        2
176
     1
  1
strokes_ogs.tif
176
     1
290
     0
176
     1
 40
1.0
176
     1
 40
1.0
176
     1
  0
VISUALSTYLE
  5
3B
102
{ACAD_REACTORS
330
29
102
}
330
29
100
AcDbVisualStyle
  2
Sketchy
 70
    24
177
     3
291
     0
 70
    58
 90
        1
176
     1
 90
        2
176
     1
 90
        2
176
     1
 90
        0
176
     1
 40
0.6
176
     1
 40
30.0
176
     1
 62
     7
420
 16777215
176
     1
 90
        2
176
     1
 90
        2
176
     1
 62
     7
176
     1
 62
     7
176
     1
 90
        1
176
     1
 90
        1
176
     1
 40
40.0
176
     1
 90
       11
176
     1
 62
     7
176
     1
 40
1.0
176
     1
 90
        1
176
     1
 90
        6
176
     1
 90
        2
176
     1
 62
     7
176
     1
 90
        6
176
     1
 90
        0
176
     1
 90
        0
176
     1
290
     0
176
     1
 90
        1
176
     1
 40
0.0
176
     1
 90
        0
176
     1
290
     0
176
     1
290
     1
176
     1
290
     1
176
     1
290
     0
176
     1
290
     0
176
     1
290
     0
176
     1
290
     0
176
     1
290
     0
176
     1
290
     0
176
     1
 90
       50
176
     1
 40
0.0
176
     1
 40
1.0
176
     1
 90
        0
176
     1
 62
    18
420
        0
176
     1
 90
       50
176
     1
 90
        3
176
     1
 62
     5
420
      255
176
     1
290
     0
176
     1
 90
       50
176
     1
 90
       50
176
     1
 90
       50
176
     1
290
     0
176
     1
 90
       50
176
     1
 62
   256
176
     0
 40
1.0
176
     0
 90
        2
176
     1
  1
strokes_ogs.tif
176
     1
290
     0
176
     1
 40
1.0
176
     1
 40
1.0
176
     1
  0
VISUALSTYLE
  5
36
102
{ACAD_REACTORS
330
29
102
}
330
29
100
AcDbVisualStyle
  2
Thicken
 70
    13
177
     3
291
     1
 70
    58
 90
        2
176
     1
 90
        2
176
     1
 90
        0
176
     1
 90
        0
176
     1
 40
0.6
176
     1
 40
30.0
176
     1
 62
     7
420
 16777215
176
     1
 90
        1
176
     1
 90
        4
176
     1
 62
     7
176
     1
 62
   257
176
     1
 90
        1
176
     1
 90
        1
176
     1
 40
1.0
176
     1
 90
       12
176
     1
 62
     7
176
     1
 40
1.0
176
     1
 90
        1
176
     1
 90
        6
176
     1
 90
        2
176
     1
 62
     7
176
     1
 90
        5
176
     1
 90
        0
176
     1
 90
        0
176
     1
290
     0
176
     1
 90
        1
176
     1
 40
0.0
176
     1
 90
        0
176
     1
290
     0
176
     1
290
     1
176
     1
290
     1
176
     1
290
     0
176
     1
290
     0
176
     1
290
     0
176
     1
290
     0
176
     1
290
     0
176
     1
290
     0
176
     1
 90
       50
176
     1
 40
0.0
176
     1
 40
1.0
176
     1
 90
        0
176
     1
 62
    18
420
        0
176
     1
 90
       50
176
     1
 90
        3
176
     1
 62
     5
420
      255
176
     1
290
     0
176
     1
 90
       50
176
     1
 90
       50
176
     1
 90
       50
176
     1
290
     0
176
     1
 90
       50
176
     1
 62
   256
176
     0
 40
1.0
176
     0
 90
        2
176
     1
  1
strokes_ogs.tif
176
     1
290
     0
176
     1
 40
1.0
176
     1
 40
1.0
176
     1
  0
VISUALSTYLE
  5
30
102
{ACAD_REACTORS
330
29
102
}
330
29
100
AcDbVisualStyle
  2
Wireframe
 70
     5
177
     3
291
     0
 70
    58
 90
        0
176
     1
 90
        2
176
     1
 90
        0
176
     1
 90
        0
176
     1
 40
0.6
176
     1
 40
30.0
176
     1
 62
     7
420
 16777215
176
     1
 90
        1
176
     1
 90
        4
176
     1
 62
     7
176
     1
 62
   257
176
     1
 90
        1
176
     1
 90
        1
176
     1
 40
1.0
176
     1
 90
        0
176
     1
 62
   257
176
     1
 40
1.0
176
     1
 90
        1
176
     1
 90
        6
176
     1
 90
        2
176
     1
 62
     7
176
     1
 90
        3
176
     1
 90
        0
176
     1
 90
        0
176
     1
290
     0
176
     1
 90
        1
176
     1
 40
0.0
176
     1
 90
        0
176
     1
290
     0
176
     1
290
     1
176
     1
290
     1
176
     1
290
     0
176
     1
290
     0
176
     1
290
     0
176
     1
290
     0
176
     1
290
     0
176
     1
290
     0
176
     1
 90
       50
176
     1
 40
0.0
176
     1
 40
1.0
176
     1
 90
        0
176
     1
 62
    18
420
        0
176
     1
 90
       50
176
     1
 90
        3
176
     1
 62
     5
420
      255
176
     1
290
     0
176
     1
 90
       50
176
     1
 90
       50
176
     1
 90
       50
176
     1
290
     0
176
     1
 90
       50
176
     1
 62
   256
176
     0
 40
1.0
176
     0
 90
        2
176
     1
  1
strokes_ogs.tif
176
     1
290
     0
176
     1
 40
1.0
176
     1
 40
1.0
176
     1
  0
VISUALSTYLE
  5
3C
102
{ACAD_REACTORS
330
29
102
}
330
29
100
AcDbVisualStyle
  2
X-Ray
 70
    25
177
     3
291
     0
 70
    58
 90
        2
176
     1
 90
        2
176
     1
 90
        1
176
     1
 90
        1
176
     1
 40
0.5
176
     1
 40
30.0
176
     1
 62
     7
420
 16777215
176
     1
 90
        1
176
     1
 90
        0
176
     1
 62
     7
176
     1
 62
   257
176
     1
 90
        1
176
     1
 90
        1
176
     1
 40
1.0
176
     1
 90
        8
176
     1
 62
     7
176
     1
 40
1.0
176
     1
 90
        1
176
     1
 90
        6
176
     1
 90
        2
176
     1
 62
     7
176
     1
 90
        3
176
     1
 90
        0
176
     1
 90
        0
176
     1
290
     0
176
     1
 90
       13
176
     1
 40
0.0
176
     1
 90
        0
176
     1
290
     0
176
     1
290
     1
176
     1
290
     1
176
     1
290
     0
176
     1
290
     0
176
     1
290
     0
176
     1
290
     0
176
     1
290
     0
176
     1
290
     0
176
     1
 90
       50
176
     1
 40
0.0
176
     1
 40
1.0
176
     1
 90
        0
176
     1
 62
    18
420
        0
176
     1
 90
       50
176
     1
 90
        3
176
     1
 62
     5
420
      255
176
     1
290
     0
176
     1
 90
       50
176
     1
 90
       50
176
     1
 90
       50
176
     1
290
     0
176
     1
 90
       50
176
     1
 62
   256
176
     0
 40
1.0
176
     0
 90
        2
176
     1
  1
strokes_ogs.tif
176
     1
290
     0
176
     1
 40
1.0
176
     1
 40
1.0
176
     1
  0
DICTIONARYVAR
  5
325
102
{ACAD_REACTORS
330
320
102
}
330
320
100
DictionaryVariables
280
     0
  1
1:1
  0
DICTIONARYVAR
  5
322
102
{ACAD_REACTORS
330
320
102
}
330
320
100
DictionaryVariables
280
     0
  1
STANDARD
  0
DICTIONARYVAR
  5
321
102
{ACAD_REACTORS
330
320
102
}
330
320
100
DictionaryVariables
280
     0
  1
STANDARD
  0
DICTIONARYVAR
  5
323
102
{ACAD_REACTORS
330
320
102
}
330
320
100
DictionaryVariables
280
     0
  1
Imperial24
  0
DICTIONARYVAR
  5
324
102
{ACAD_REACTORS
330
320
102
}
330
320
100
DictionaryVariables
280
     0
  1
Imperial24
  0
DICTIONARY
  5
1A
330
19
100
AcDbDictionary
280
     1
281
     1
  3
BUMPTILE
360
1C
  3
DIFFUSETILE
360
1B
  3
OPACITYTILE
360
1F
  3
REFLECTIONTILE
360
1E
  3
REFRACTIONTILE
360
20
  3
SPECULARTILE
360
1D
  0
DICTIONARY
  5
12
330
11
100
AcDbDictionary
280
     1
281
     1
  3
BUMPTILE
360
14
  3
DIFFUSETILE
360
13
  3
OPACITYTILE
360
17
  3
REFLECTIONTILE
360
16
  3
REFRACTIONTILE
360
18
  3
SPECULARTILE
360
15
  0
DICTIONARY
  5
22
330
21
100
AcDbDictionary
280
     1
281
     1
  3
BUMPTILE
360
24
  3
DIFFUSETILE
360
23
  3
OPACITYTILE
360
27
  3
REFLECTIONTILE
360
26
  3
REFRACTIONTILE
360
28
  3
SPECULARTILE
360
25
  0
DICTIONARY
  5
326
330
65
100
AcDbDictionary
280
     1
281
     1
  3
ACAD_ROUNDTRIP_2008_TABLESTYLE_CELLSTYLEMAP
360
327
  0
XRECORD
  5
1C
102
{ACAD_REACTORS
330
1A
102
}
330
1A
100
AcDbXrecord
280
     1
270
     1
271
     1
  0
XRECORD
  5
1B
102
{ACAD_REACTORS
330
1A
102
}
330
1A
100
AcDbXrecord
280
     1
270
     1
271
     1
  0
XRECORD
  5
1F
102
{ACAD_REACTORS
330
1A
102
}
330
1A
100
AcDbXrecord
280
     1
270
     1
271
     1
  0
XRECORD
  5
1E
102
{ACAD_REACTORS
330
1A
102
}
330
1A
100
AcDbXrecord
280
     1
270
     1
271
     1
  0
XRECORD
  5
20
102
{ACAD_REACTORS
330
1A
102
}
330
1A
100
AcDbXrecord
280
     1
270
     1
271
     1
  0
XRECORD
  5
1D
102
{ACAD_REACTORS
330
1A
102
}
330
1A
100
AcDbXrecord
280
     1
270
     1
271
     1
  0
XRECORD
  5
14
102
{ACAD_REACTORS
330
12
102
}
330
12
100
AcDbXrecord
280
     1
270
     1
271
     1
  0
XRECORD
  5
13
102
{ACAD_REACTORS
330
12
102
}
330
12
100
AcDbXrecord
280
     1
270
     1
271
     1
  0
XRECORD
  5
17
102
{ACAD_REACTORS
330
12
102
}
330
12
100
AcDbXrecord
280
     1
270
     1
271
     1
  0
XRECORD
  5
16
102
{ACAD_REACTORS
330
12
102
}
330
12
100
AcDbXrecord
280
     1
270
     1
271
     1
  0
XRECORD
  5
18
102
{ACAD_REACTORS
330
12
102
}
330
12
100
AcDbXrecord
280
     1
270
     1
271
     1
  0
XRECORD
  5
15
102
{ACAD_REACTORS
330
12
102
}
330
12
100
AcDbXrecord
280
     1
270
     1
271
     1
  0
XRECORD
  5
24
102
{ACAD_REACTORS
330
22
102
}
330
22
100
AcDbXrecord
280
     1
270
     1
271
     1
  0
XRECORD
  5
23
102
{ACAD_REACTORS
330
22
102
}
330
22
100
AcDbXrecord
280
     1
270
     1
271
     1
  0
XRECORD
  5
27
102
{ACAD_REACTORS
330
22
102
}
330
22
100
AcDbXrecord
280
     1
270
     1
271
     1
  0
XRECORD
  5
26
102
{ACAD_REACTORS
330
22
102
}
330
22
100
AcDbXrecord
280
     1
270
     1
271
     1
  0
XRECORD
  5
28
102
{ACAD_REACTORS
330
22
102
}
330
22
100
AcDbXrecord
280
     1
270
     1
271
     1
  0
XRECORD
  5
25
102
{ACAD_REACTORS
330
22
102
}
330
22
100
AcDbXrecord
280
     1
270
     1
271
     1
  0
CELLSTYLEMAP
  5
327
102
{ACAD_REACTORS
330
326
102
}
330
326
100
AcDbCellStyleMap
 90
        3
300
CELLSTYLE
  1
TABLEFORMAT_BEGIN
 90
        5
170
     1
 91
        0
 92
    32768
 62
   257
 93
        1
300
CONTENTFORMAT
  1
CONTENTFORMAT_BEGIN
 90
        0
 91
        0
 92
      512
 93
        0
300

 40
0.0
140
1.0
 94
        5
 62
     0
340
55
144
0.25
309
CONTENTFORMAT_END
171
     0
 94
        0
309
TABLEFORMAT_END
  1
CELLSTYLE_BEGIN
 90
        1
 91
        1
300
_TITLE
309
CELLSTYLE_END
300
CELLSTYLE
  1
TABLEFORMAT_BEGIN
 90
        5
170
     1
 91
        0
 92
        0
 62
   257
 93
        1
300
CONTENTFORMAT
  1
CONTENTFORMAT_BEGIN
 90
        0
 91
        0
 92
      512
 93
        0
300

 40
0.0
140
1.0
 94
        5
 62
     0
340
55
144
0.18
309
CONTENTFORMAT_END
171
     0
 94
        0
309
TABLEFORMAT_END
  1
CELLSTYLE_BEGIN
 90
        2
 91
        1
300
_HEADER
309
CELLSTYLE_END
300
CELLSTYLE
  1
TABLEFORMAT_BEGIN
 90
        5
170
     1
 91
        0
 92
        0
 62
   257
 93
        1
300
CONTENTFORMAT
  1
CONTENTFORMAT_BEGIN
 90
        0
 91
        0
 92
      512
 93
        0
300

 40
0.0
140
1.0
 94
        2
 62
     0
340
55
144
0.18
309
CONTENTFORMAT_END
171
     0
 94
        0
309
TABLEFORMAT_END
  1
CELLSTYLE_BEGIN
 90
        3
 91
        2
300
_DATA
309
CELLSTYLE_END
  0
ENDSEC
  0
EOF
