  0
SECTION
  2
HEADER
  9
$ACADVER
  1
AC1032
  9
$ACADMAINTVER
 90
      197
  9
$DWGCODEPAGE
  3
ANSI_932
  9
$REQUIREDVERSIONS
160
                 0
  9
$INSBASE
 10
0.0
 20
0.0
 30
0.0
  9
$EXTMIN
 10
1.000000000000000E+20
 20
1.000000000000000E+20
 30
1.000000000000000E+20
  9
$EXTMAX
 10
-1.000000000000000E+20
 20
-1.000000000000000E+20
 30
-1.000000000000000E+20
  9
$LIMMIN
 10
0.0
 20
0.0
  9
$LIMMAX
 10
12.0
 20
9.0
  9
$ORTHOMODE
 70
     0
  9
$REGENMODE
 70
     1
  9
$FILLMODE
 70
     1
  9
$QTEXTMODE
 70
     0
  9
$MIRRTEXT
 70
     0
  9
$LTSCALE
 40
1.0
  9
$ATTMODE
 70
     1
  9
$TEXTSIZE
 40
0.2
  9
$TRACEWID
 40
0.05
  9
$TEXTSTYLE
  7
Standard
  9
$CLAYER
  8
0
  9
$CELTYPE
  6
ByLayer
  9
$CECOLOR
 62
   256
  9
$CELTSCALE
 40
1.0
  9
$DISPSILH
 70
     0
  9
$DIMSCALE
 40
1.0
  9
$DIMASZ
 40
0.18
  9
$DIMEXO
 40
0.0625
  9
$DIMDLI
 40
0.38
  9
$DIMRND
 40
0.0
  9
$DIMDLE
 40
0.0
  9
$DIMEXE
 40
0.18
  9
$DIMTP
 40
0.0
  9
$DIMTM
 40
0.0
  9
$DIMTXT
 40
0.18
  9
$DIMCEN
 40
0.09
  9
$DIMTSZ
 40
0.0
  9
$DIMTOL
 70
     0
  9
$DIMLIM
 70
     0
  9
$DIMTIH
 70
     1
  9
$DIMTOH
 70
     1
  9
$DIMSE1
 70
     0
  9
$DIMSE2
 70
     0
  9
$DIMTAD
 70
     0
  9
$DIMZIN
 70
     0
  9
$DIMBLK
  1

  9
$DIMASO
 70
     1
  9
$DIMSHO
 70
     1
  9
$DIMPOST
  1

  9
$DIMAPOST
  1

  9
$DIMALT
 70
     0
  9
$DIMALTD
 70
     2
  9
$DIMALTF
 40
25.4
  9
$DIMLFAC
 40
1.0
  9
$DIMTOFL
 70
     0
  9
$DIMTVP
 40
0.0
  9
$DIMTIX
 70
     0
  9
$DIMSOXD
 70
     0
  9
$DIMSAH
 70
     0
  9
$DIMBLK1
  1

  9
$DIMBLK2
  1

  9
$DIMSTYLE
  2
Standard
  9
$DIMCLRD
 70
     0
  9
$DIMCLRE
 70
     0
  9
$DIMCLRT
 70
     0
  9
$DIMTFAC
 40
1.0
  9
$DIMGAP
 40
0.09
  9
$DIMJUST
 70
     0
  9
$DIMSD1
 70
     0
  9
$DIMSD2
 70
     0
  9
$DIMTOLJ
 70
     1
  9
$DIMTZIN
 70
     0
  9
$DIMALTZ
 70
     0
  9
$DIMALTTZ
 70
     0
  9
$DIMUPT
 70
     0
  9
$DIMDEC
 70
     4
  9
$DIMTDEC
 70
     4
  9
$DIMALTU
 70
     2
  9
$DIMALTTD
 70
     2
  9
$DIMTXSTY
  7
Standard
  9
$DIMAUNIT
 70
     0
  9
$DIMADEC
 70
     0
  9
$DIMALTRND
 40
0.0
  9
$DIMAZIN
 70
     0
  9
$DIMDSEP
 70
    46
  9
$DIMATFIT
 70
     3
  9
$DIMFRAC
 70
     0
  9
$DIMLDRBLK
  1

  9
$DIMLUNIT
 70
     2
  9
$DIMLWD
 70
    -2
  9
$DIMLWE
 70
    -2
  9
$DIMTMOVE
 70
     0
  9
$DIMFXL
 40
1.0
  9
$DIMFXLON
 70
     0
  9
$DIMJOGANG
 40
0.7853981633974483
  9
$DIMTFILL
 70
     0
  9
$DIMTFILLCLR
 70
     0
  9
$DIMARCSYM
 70
     0
  9
$DIMLTYPE
  6

  9
$DIMLTEX1
  6

  9
$DIMLTEX2
  6

  9
$DIMTXTDIRECTION
 70
     0
  9
$LUNITS
 70
     2
  9
$LUPREC
 70
     4
  9
$SKETCHINC
 40
0.1
  9
$FILLETRAD
 40
0.0
  9
$AUNITS
 70
     0
  9
$AUPREC
 70
     0
  9
$MENU
  1
.
  9
$ELEVATION
 40
0.0
  9
$PELEVATION
 40
0.0
  9
$THICKNESS
 40
0.0
  9
$LIMCHECK
 70
     0
  9
$CHAMFERA
 40
0.0
  9
$CHAMFERB
 40
0.0
  9
$CHAMFERC
 40
0.0
  9
$CHAMFERD
 40
0.0
  9
$SKPOLY
 70
     0
  9
$TDCREATE
 40
2459604.671701389
  9
$TDUCREATE
 40
2459604.296701389
  9
$TDUPDATE
 40
2459604.671701389
  9
$TDUUPDATE
 40
2459604.296701389
  9
$TDINDWG
 40
0.0000000000
  9
$TDUSRTIMER
 40
0.0000000000
  9
$USRTIMER
 70
     1
  9
$ANGBASE
 50
0.0
  9
$ANGDIR
 70
     0
  9
$PDMODE
 70
     0
  9
$PDSIZE
 40
0.0
  9
$PLINEWID
 40
0.0
  9
$SPLFRAME
 70
     0
  9
$SPLINETYPE
 70
     6
  9
$SPLINESEGS
 70
     8
  9
$HANDSEED
  5
17A
  9
$SURFTAB1
 70
     6
  9
$SURFTAB2
 70
     6
  9
$SURFTYPE
 70
     6
  9
$SURFU
 70
     6
  9
$SURFV
 70
     6
  9
$UCSBASE
  2

  9
$UCSNAME
  2

  9
$UCSORG
 10
0.0
 20
0.0
 30
0.0
  9
$UCSXDIR
 10
1.0
 20
0.0
 30
0.0
  9
$UCSYDIR
 10
0.0
 20
1.0
 30
0.0
  9
$UCSORTHOREF
  2

  9
$UCSORTHOVIEW
 70
     0
  9
$UCSORGTOP
 10
0.0
 20
0.0
 30
0.0
  9
$UCSORGBOTTOM
 10
0.0
 20
0.0
 30
0.0
  9
$UCSORGLEFT
 10
0.0
 20
0.0
 30
0.0
  9
$UCSORGRIGHT
 10
0.0
 20
0.0
 30
0.0
  9
$UCSORGFRONT
 10
0.0
 20
0.0
 30
0.0
  9
$UCSORGBACK
 10
0.0
 20
0.0
 30
0.0
  9
$PUCSBASE
  2

  9
$PUCSNAME
  2

  9
$PUCSORG
 10
0.0
 20
0.0
 30
0.0
  9
$PUCSXDIR
 10
1.0
 20
0.0
 30
0.0
  9
$PUCSYDIR
 10
0.0
 20
1.0
 30
0.0
  9
$PUCSORTHOREF
  2

  9
$PUCSORTHOVIEW
 70
     0
  9
$PUCSORGTOP
 10
0.0
 20
0.0
 30
0.0
  9
$PUCSORGBOTTOM
 10
0.0
 20
0.0
 30
0.0
  9
$PUCSORGLEFT
 10
0.0
 20
0.0
 30
0.0
  9
$PUCSORGRIGHT
 10
0.0
 20
0.0
 30
0.0
  9
$PUCSORGFRONT
 10
0.0
 20
0.0
 30
0.0
  9
$PUCSORGBACK
 10
0.0
 20
0.0
 30
0.0
  9
$USERI1
 70
     0
  9
$USERI2
 70
     0
  9
$USERI3
 70
     0
  9
$USERI4
 70
     0
  9
$USERI5
 70
     0
  9
$USERR1
 40
0.0
  9
$USERR2
 40
0.0
  9
$USERR3
 40
0.0
  9
$USERR4
 40
0.0
  9
$USERR5
 40
0.0
  9
$WORLDVIEW
 70
     1
  9
$SHADEDGE
 70
     3
  9
$SHADEDIF
 70
    70
  9
$TILEMODE
 70
     1
  9
$MAXACTVP
 70
    64
  9
$PINSBASE
 10
0.0
 20
0.0
 30
0.0
  9
$PLIMCHECK
 70
     0
  9
$PEXTMIN
 10
1.000000000000000E+20
 20
1.000000000000000E+20
 30
1.000000000000000E+20
  9
$PEXTMAX
 10
-1.000000000000000E+20
 20
-1.000000000000000E+20
 30
-1.000000000000000E+20
  9
$PLIMMIN
 10
0.0
 20
0.0
  9
$PLIMMAX
 10
12.0
 20
9.0
  9
$UNITMODE
 70
     0
  9
$VISRETAIN
 70
     1
  9
$PLINEGEN
 70
     0
  9
$PSLTSCALE
 70
     1
  9
$TREEDEPTH
 70
  3020
  9
$CMLSTYLE
  2
Standard
  9
$CMLJUST
 70
     0
  9
$CMLSCALE
 40
1.0
  9
$PROXYGRAPHICS
 70
     1
  9
$MEASUREMENT
 70
     0
  9
$CELWEIGHT
370
    -1
  9
$ENDCAPS
280
     0
  9
$JOINSTYLE
280
     0
  9
$LWDISPLAY
290
     1
  9
$INSUNITS
 70
     4
  9
$HYPERLINKBASE
  1

  9
$STYLESHEET
  1

  9
$XEDIT
290
     1
  9
$CEPSNTYPE
380
     0
  9
$PSTYLEMODE
290
     1
  9
$FINGERPRINTGUID
  2
{71085E87-3102-9141-A9A6-B9E81E10B62C}
  9
$VERSIONGUID
  2
{33A1034C-C1C8-B845-8A30-7A4826BE6F26}
  9
$EXTNAMES
290
     1
  9
$PSVPSCALE
 40
0.0
  9
$OLESTARTUP
290
     0
  9
$SORTENTS
280
   127
  9
$INDEXCTL
280
     0
  9
$HIDETEXT
280
     1
  9
$XCLIPFRAME
280
     2
  9
$HALOGAP
280
     0
  9
$OBSCOLOR
 70
   257
  9
$OBSLTYPE
280
     0
  9
$INTERSECTIONDISPLAY
280
     0
  9
$INTERSECTIONCOLOR
 70
   257
  9
$DIMASSOC
280
     2
  9
$PROJECTNAME
  1

  9
$CAMERADISPLAY
290
     0
  9
$LENSLENGTH
 40
50.0
  9
$CAMERAHEIGHT
 40
0.0
  9
$STEPSPERSEC
 40
2.0
  9
$STEPSIZE
 40
6.0
  9
$3DDWFPREC
 40
2.0
  9
$PSOLWIDTH
 40
0.25
  9
$PSOLHEIGHT
 40
4.0
  9
$LOFTANG1
 40
1.570796326794896
  9
$LOFTANG2
 40
1.570796326794896
  9
$LOFTMAG1
 40
0.0
  9
$LOFTMAG2
 40
0.0
  9
$LOFTPARAM
 70
     7
  9
$LOFTNORMALS
280
     1
  9
$LATITUDE
 40
37.795
  9
$LONGITUDE
 40
-122.394
  9
$NORTHDIRECTION
 40
0.0
  9
$TIMEZONE
 70
 -8000
  9
$LIGHTGLYPHDISPLAY
280
     1
  9
$TILEMODELIGHTSYNCH
280
     1
  9
$CMATERIAL
347
11
  9
$SOLIDHIST
280
     0
  9
$SHOWHIST
280
     1
  9
$DWFFRAME
280
     2
  9
$DGNFRAME
280
     0
  9
$REALWORLDSCALE
290
     1
  9
$INTERFERECOLOR
 62
     1
  9
$INTERFEREOBJVS
345
33
  9
$INTERFEREVPVS
346
30
  9
$CSHADOW
280
     0
  9
$SHADOWPLANELOCATION
 40
0.0
  0
ENDSEC
  0
SECTION
  2
CLASSES
  0
CLASS
  1
ACDBDICTIONARYWDFLT
  2
AcDbDictionaryWithDefault
  3
ObjectDBX Classes
 90
        0
 91
        1
280
     0
281
     0
  0
CLASS
  1
MATERIAL
  2
AcDbMaterial
  3
ObjectDBX Classes
 90
     1153
 91
        3
280
     0
281
     0
  0
CLASS
  1
VISUALSTYLE
  2
AcDbVisualStyle
  3
ObjectDBX Classes
 90
     4095
 91
       24
280
     0
281
     0
  0
CLASS
  1
SCALE
  2
AcDbScale
  3
ObjectDBX Classes
 90
     1153
 91
       17
280
     0
281
     0
  0
CLASS
  1
TABLESTYLE
  2
AcDbTableStyle
  3
ObjectDBX Classes
 90
     4095
 91
        1
280
     0
281
     0
  0
CLASS
  1
MLEADERSTYLE
  2
AcDbMLeaderStyle
  3
ACDB_MLEADERSTYLE_CLASS
 90
     4095
 91
        1
280
     0
281
     0
  0
CLASS
  1
ACDBSECTIONVIEWSTYLE
  2
AcDbSectionViewStyle
  3
ObjectDBX Classes
 90
     1025
 91
        1
280
     0
281
     0
  0
CLASS
  1
ACDBDETAILVIEWSTYLE
  2
AcDbDetailViewStyle
  3
ObjectDBX Classes
 90
     1025
 91
        1
280
     0
281
     0
  0
CLASS
  1
DICTIONARYVAR
  2
AcDbDictionaryVar
  3
ObjectDBX Classes
 90
        0
 91
        5
280
     0
281
     0
  0
CLASS
  1
CELLSTYLEMAP
  2
AcDbCellStyleMap
  3
ObjectDBX Classes
 90
     1152
 91
        1
280
     0
281
     0
  0
ENDSEC
  0
SECTION
  2
TABLES
  0
TABLE
  2
VPORT
  5
8
330
0
100
AcDbSymbolTable
 70
     1
  0
VPORT
  5
57
330
8
100
AcDbSymbolTableRecord
100
AcDbViewportTableRecord
  2
*Active
 70
     0
 10
0.0
 20
0.0
 11
1.0
 21
1.0
 12
0.0
 22
0.0
 13
0.0
 23
0.0
 14
1.0
 24
1.0
 15
0.0
 25
0.0
 16
0.0
 26
0.0
 36
1.0
 17
105.0078345989922
 27
148.5053410476718
 37
0.0
 40
302.9508957372506
 41
0.7070980333648977
 42
50.0
 43
0.0
 44
0.0
 50
0.0
 51
0.0
 71
     0
 72
   100
 73
     1
 74
     1
 75
     0
 76
     0
 77
     0
 78
     0
281
     0
 65
     1
110
0.0
120
0.0
130
0.0
111
1.0
121
0.0
131
0.0
112
0.0
122
1.0
132
0.0
 79
     0
146
0.0
 60
     3
 61
     5
292
     1
282
     1
141
0.0
142
0.0
 63
   250
421
  3355443
  0
ENDTAB
  0
TABLE
  2
LTYPE
  5
5
330
0
100
AcDbSymbolTable
 70
     1
  0
LTYPE
  5
5B
330
5
100
AcDbSymbolTableRecord
100
AcDbLinetypeTableRecord
  2
ByBlock
 70
     0
  3

 72
    65
 73
     0
 40
0.0
  0
LTYPE
  5
5C
330
5
100
AcDbSymbolTableRecord
100
AcDbLinetypeTableRecord
  2
ByLayer
 70
     0
  3

 72
    65
 73
     0
 40
0.0
  0
LTYPE
  5
5D
330
5
100
AcDbSymbolTableRecord
100
AcDbLinetypeTableRecord
  2
Continuous
 70
     0
  3
Solid line
 72
    65
 73
     0
 40
0.0
  0
ENDTAB
  0
TABLE
  2
LAYER
  5
2
330
0
100
AcDbSymbolTable
 70
     2
  0
LAYER
  5
54
330
2
100
AcDbSymbolTableRecord
100
AcDbLayerTableRecord
  2
0
 70
     0
 62
     7
  6
Continuous
370
    -3
390
F
347
21
348
0
  0
LAYER
  5
78
330
2
100
AcDbSymbolTableRecord
100
AcDbLayerTableRecord
  2
レイヤー 1
 70
     0
 62
     7
  6
Continuous
370
     0
390
F
347
21
348
0
  0
ENDTAB
  0
TABLE
  2
STYLE
  5
3
330
0
100
AcDbSymbolTable
 70
     2
  0
STYLE
  5
55
330
3
100
AcDbSymbolTableRecord
100
AcDbTextStyleTableRecord
  2
Standard
 70
     0
 40
0.0
 41
1.0
 50
0.0
 71
     0
 42
0.2
  3
txt
  4

  0
STYLE
  5
5A
330
3
100
AcDbSymbolTableRecord
100
AcDbTextStyleTableRecord
  2
Annotative
 70
     0
 40
0.0
 41
1.0
 50
0.0
 71
     0
 42
0.2
  3
txt
  4

1001
AcadAnnotative
1000
AnnotativeData
1002
{
1070
     1
1070
     1
1002
}
  0
ENDTAB
  0
TABLE
  2
VIEW
  5
6
330
0
100
AcDbSymbolTable
 70
     0
  0
ENDTAB
  0
TABLE
  2
UCS
  5
7
330
0
100
AcDbSymbolTable
 70
     0
  0
ENDTAB
  0
TABLE
  2
APPID
  5
9
330
0
100
AcDbSymbolTable
 70
     2
  0
APPID
  5
56
330
9
100
AcDbSymbolTableRecord
100
AcDbRegAppTableRecord
  2
ACAD
 70
     0
  0
APPID
  5
5E
330
9
100
AcDbSymbolTableRecord
100
AcDbRegAppTableRecord
  2
AcadAnnotative
 70
     0
  0
ENDTAB
  0
TABLE
  2
DIMSTYLE
  5
A
330
0
100
AcDbSymbolTable
 70
     2
100
AcDbDimStyleTable
 71
     0
  0
DIMSTYLE
105
58
330
A
100
AcDbSymbolTableRecord
100
AcDbDimStyleTableRecord
  2
Standard
 70
     0
340
55
  0
DIMSTYLE
105
59
330
A
100
AcDbSymbolTableRecord
100
AcDbDimStyleTableRecord
  2
Annotative
 70
     0
340
55
1001
AcadAnnotative
1000
AnnotativeData
1002
{
1070
     1
1070
     1
1002
}
  0
ENDTAB
  0
TABLE
  2
BLOCK_RECORD
  5
1
330
0
100
AcDbSymbolTable
 70
     1
  0
BLOCK_RECORD
  5
70
330
1
100
AcDbSymbolTableRecord
100
AcDbBlockTableRecord
  2
*Model_Space
340
73
 70
     0
280
     1
281
     0
  0
BLOCK_RECORD
  5
6C
330
1
100
AcDbSymbolTableRecord
100
AcDbBlockTableRecord
  2
*Paper_Space
340
6F
 70
     0
280
     1
281
     0
  0
BLOCK_RECORD
  5
74
330
1
100
AcDbSymbolTableRecord
100
AcDbBlockTableRecord
  2
*Paper_Space0
340
77
 70
     0
280
     1
281
     0
  0
ENDTAB
  0
ENDSEC
  0
SECTION
  2
BLOCKS
  0
BLOCK
  5
71
330
70
100
AcDbEntity
  8
0
100
AcDbBlockBegin
  2
*Model_Space
 70
     0
 10
0.0
 20
0.0
 30
0.0
  3
*Model_Space
  1

  0
ENDBLK
  5
72
330
70
100
AcDbEntity
  8
0
100
AcDbBlockEnd
  0
BLOCK
  5
6D
330
6C
100
AcDbEntity
 67
     1
  8
0
100
AcDbBlockBegin
  2
*Paper_Space
 70
     0
 10
0.0
 20
0.0
 30
0.0
  3
*Paper_Space
  1

  0
ENDBLK
  5
6E
330
6C
100
AcDbEntity
 67
     1
  8
0
100
AcDbBlockEnd
  0
BLOCK
  5
75
330
74
100
AcDbEntity
 67
     1
  8
0
100
AcDbBlockBegin
  2
*Paper_Space0
 70
     0
 10
0.0
 20
0.0
 30
0.0
  3
*Paper_Space0
  1

  0
ENDBLK
  5
76
330
74
100
AcDbEntity
 67
     1
  8
0
100
AcDbBlockEnd
  0
ENDSEC
  0
SECTION
  2
ENTITIES
  0
LINE
  5
79
330
70
100
AcDbEntity
  8
レイヤー 1
 62
    18
420
        0
370
    25
100
AcDbLine
 10
194.944991338525
 20
253.5343306861282
 30
0.0
 11
194.944991338525
 21
43.60334624154057
 31
0.0
  0
LWPOLYLINE
  5
7A
330
70
100
AcDbEntity
  8
レイヤー 1
 62
    18
420
        0
370
    25
100
AcDbPolyline
 90
        3
 70
     0
 43
0.0
 10
15.02833279128008
 20
253.5343306861282
 10
15.02833279128008
 20
43.60334624154057
 10
194.944991338525
 20
43.60334624154057
  0
SPLINE
  5
7B
330
70
100
AcDbEntity
  8
レイヤー 1
 62
    18
420
        0
370
    25
100
AcDbSpline
210
0.0
220
0.0
230
1.0
 70
    24
 71
     3
 72
     8
 73
     4
 74
     0
 42
0.0000000001
 43
0.0000000001
 40
0.0
 40
0.0
 40
0.0
 40
0.0
 40
1.0
 40
1.0
 40
1.0
 40
1.0
 10
194.944991338525
 20
53.59401548953119
 30
0.0
 10
194.944991338525
 20
53.59401548953119
 30
0.0
 10
15.02832471683754
 20
53.59401548953119
 30
0.0
 10
15.02832471683754
 20
53.59401548953119
 30
0.0
  0
SPLINE
  5
7C
330
70
100
AcDbEntity
  8
レイヤー 1
 62
    18
420
        0
370
    25
100
AcDbSpline
210
0.0
220
0.0
230
1.0
 70
    24
 71
     3
 72
     8
 73
     4
 74
     0
 42
0.0000000001
 43
0.0000000001
 40
0.0
 40
0.0
 40
0.0
 40
0.0
 40
1.0
 40
1.0
 40
1.0
 40
1.0
 10
194.944991338525
 20
63.5846793545601
 30
0.0
 10
194.944991338525
 20
63.5846793545601
 30
0.0
 10
15.02832471683754
 20
63.5846793545601
 30
0.0
 10
15.02832471683754
 20
63.5846793545601
 30
0.0
  0
SPLINE
  5
7D
330
70
100
AcDbEntity
  8
レイヤー 1
 62
    18
420
        0
370
    25
100
AcDbSpline
210
0.0
220
0.0
230
1.0
 70
    24
 71
     3
 72
     8
 73
     4
 74
     0
 42
0.0000000001
 43
0.0000000001
 40
0.0
 40
0.0
 40
0.0
 40
0.0
 40
1.0
 40
1.0
 40
1.0
 40
1.0
 10
194.944991338525
 20
73.57534321958903
 30
0.0
 10
194.944991338525
 20
73.57534321958903
 30
0.0
 10
15.02832471683754
 20
73.57534321958903
 30
0.0
 10
15.02832471683754
 20
73.57534321958903
 30
0.0
  0
SPLINE
  5
7E
330
70
100
AcDbEntity
  8
レイヤー 1
 62
    18
420
        0
370
    25
100
AcDbSpline
210
0.0
220
0.0
230
1.0
 70
    24
 71
     3
 72
     8
 73
     4
 74
     0
 42
0.0000000001
 43
0.0000000001
 40
0.0
 40
0.0
 40
0.0
 40
0.0
 40
1.0
 40
1.0
 40
1.0
 40
1.0
 10
194.944991338525
 20
253.5343306861282
 30
0.0
 10
194.944991338525
 20
253.5343306861282
 30
0.0
 10
15.02832471683754
 20
253.5343306861282
 30
0.0
 10
15.02832471683754
 20
253.5343306861282
 30
0.0
  0
LWPOLYLINE
  5
7F
330
70
100
AcDbEntity
  8
レイヤー 1
 62
    18
420
        0
370
    13
100
AcDbPolyline
 90
        3
 70
     0
 43
0.0
 10
16.50999972672441
 20
55.32967612684683
 10
16.50999972672441
 20
60.32499998491875
 10
19.6003338128998
 20
60.32499998491875
  0
SPLINE
  5
80
330
70
100
AcDbEntity
  8
レイヤー 1
 62
    18
420
        0
370
    13
100
AcDbSpline
210
0.0
220
0.0
230
1.0
 70
    24
 71
     3
 72
     8
 73
     4
 74
     0
 42
0.0000000001
 43
0.0000000001
 40
0.0
 40
0.0
 40
0.0
 40
0.0
 40
1.0
 40
1.0
 40
1.0
 40
1.0
 10
16.50999972672441
 20
57.95434365413121
 30
0.0
 10
16.50999972672441
 20
57.95434365413121
 30
0.0
 10
18.41499891880391
 20
57.95434365413121
 30
0.0
 10
18.41499891880391
 20
57.95434365413121
 30
0.0
  0
SPLINE
  5
81
330
70
100
AcDbEntity
  8
レイヤー 1
 62
    18
420
        0
370
    13
100
AcDbSpline
210
0.0
220
0.0
230
1.0
 70
    24
 71
     3
 72
     8
 73
     4
 74
     0
 42
0.0000000001
 43
0.0000000001
 40
0.0
 40
0.0
 40
0.0
 40
0.0
 40
1.0
 40
1.0
 40
1.0
 40
1.0
 10
16.50999972672441
 20
55.32967612684683
 30
0.0
 10
16.50999972672441
 20
55.32967612684683
 30
0.0
 10
19.6003338128998
 20
55.32967612684683
 30
0.0
 10
19.6003338128998
 20
55.32967612684683
 30
0.0
  0
LWPOLYLINE
  5
82
330
70
100
AcDbEntity
  8
レイヤー 1
 62
    18
420
        0
370
    13
100
AcDbPolyline
 90
        4
 70
     0
 43
0.0
 10
21.03966510034786
 20
59.39366148417502
 10
21.5053330049793
 20
59.60534106989684
 10
22.22499999444375
 20
60.32499998491875
 10
22.22499999444375
 20
55.32967612684683
  0
LWPOLYLINE
  5
83
330
70
100
AcDbEntity
  8
レイヤー 1
 62
    18
420
        0
370
    13
100
AcDbPolyline
 90
        3
 70
     0
 43
0.0
 10
24.84966483024728
 20
60.32499998491875
 10
28.15166504474024
 20
60.32499998491875
 10
25.78100063951016
 20
55.32967612684683
  0
LWPOLYLINE
  5
84
330
70
100
AcDbEntity
  8
レイヤー 1
 62
    18
420
        0
370
    13
100
AcDbPolyline
 90
        3
 70
     0
 43
0.0
 10
36.91466644211953
 20
55.32967612684683
 10
37.25333278572384
 20
55.66835054489367
 10
37.25333278572384
 20
56.00700343109373
  0
LWPOLYLINE
  5
85
330
70
100
AcDbEntity
  8
レイヤー 1
 62
    18
420
        0
370
    13
100
AcDbPolyline
 90
        3
 70
     0
 43
0.0
 10
34.92499999126875
 20
55.66835054489367
 10
35.26366633487305
 20
55.32967612684683
 10
36.91466644211953
 20
55.32967612684683
  0
LINE
  5
86
330
70
100
AcDbEntity
  8
レイヤー 1
 62
    18
420
        0
370
    13
100
AcDbLine
 10
37.25333278572384
 20
59.3513514052468
 30
0.0
 11
37.25333278572384
 21
58.67400256915312
 31
0.0
  0
LWPOLYLINE
  5
87
330
70
100
AcDbEntity
  8
レイヤー 1
 62
    18
420
        0
370
    13
100
AcDbPolyline
 90
        4
 70
     1
 43
0.0
 10
36.57600009851524
 20
57.31934796065932
 10
36.57600009851524
 20
56.00700343109373
 10
33.27399988402227
 20
56.00700343109373
 10
33.27399988402227
 20
57.31934796065932
  0
SPLINE
  5
88
330
70
100
AcDbEntity
  8
レイヤー 1
 62
    18
420
        0
370
    13
100
AcDbSpline
210
0.0
220
0.0
230
1.0
 70
    24
 71
     3
 72
     8
 73
     4
 74
     0
 42
0.0000000001
 43
0.0000000001
 40
0.0
 40
0.0
 40
0.0
 40
0.0
 40
1.0
 40
1.0
 40
1.0
 40
1.0
 10
34.92499999126875
 20
57.31934796065932
 30
0.0
 10
34.92499999126875
 20
57.31934796065932
 30
0.0
 10
34.92499999126875
 20
55.66834516193198
 30
0.0
 10
34.92499999126875
 20
55.66834516193198
 30
0.0
  0
SPLINE
  5
89
330
70
100
AcDbEntity
  8
レイヤー 1
 62
    18
420
        0
370
    13
100
AcDbSpline
210
0.0
220
0.0
230
1.0
 70
    24
 71
     3
 72
     8
 73
     4
 74
     0
 42
0.0000000001
 43
0.0000000001
 40
0.0
 40
0.0
 40
0.0
 40
0.0
 40
1.0
 40
1.0
 40
1.0
 40
1.0
 10
34.92499999126875
 20
59.98634709871869
 30
0.0
 10
34.92499999126875
 20
59.98634709871869
 30
0.0
 10
34.92499999126875
 20
57.99668064786791
 30
0.0
 10
34.92499999126875
 20
57.99668064786791
 30
0.0
  0
SPLINE
  5
8A
330
70
100
AcDbEntity
  8
レイヤー 1
 62
    18
420
        0
370
    13
100
AcDbSpline
210
0.0
220
0.0
230
1.0
 70
    24
 71
     3
 72
     8
 73
     4
 74
     0
 42
0.0000000001
 43
0.0000000001
 40
0.0
 40
0.0
 40
0.0
 40
0.0
 40
1.0
 40
1.0
 40
1.0
 40
1.0
 10
32.59666450533283
 20
59.35134602228511
 30
0.0
 10
32.59666450533283
 20
59.35134602228511
 30
0.0
 10
32.59666450533283
 20
58.6740133350765
 30
0.0
 10
32.59666450533283
 20
58.6740133350765
 30
0.0
  0
SPLINE
  5
8B
330
70
100
AcDbEntity
  8
レイヤー 1
 62
    18
420
        0
370
    13
100
AcDbSpline
210
0.0
220
0.0
230
1.0
 70
    24
 71
     3
 72
     8
 73
     4
 74
     0
 42
0.0000000001
 43
0.0000000001
 40
0.0
 40
0.0
 40
0.0
 40
0.0
 40
1.0
 40
1.0
 40
1.0
 40
1.0
 10
33.27399988402227
 20
56.68434688422572
 30
0.0
 10
33.27399988402227
 20
56.68434688422572
 30
0.0
 10
36.57599740703439
 20
56.68434688422572
 30
0.0
 10
36.57599740703439
 20
56.68434688422572
 30
0.0
  0
SPLINE
  5
8C
330
70
100
AcDbEntity
  8
レイヤー 1
 62
    18
420
        0
370
    13
100
AcDbSpline
210
0.0
220
0.0
230
1.0
 70
    24
 71
     3
 72
     8
 73
     4
 74
     0
 42
0.0000000001
 43
0.0000000001
 40
0.0
 40
0.0
 40
0.0
 40
0.0
 40
1.0
 40
1.0
 40
1.0
 40
1.0
 10
35.60233267847735
 20
57.99668064786791
 30
0.0
 10
35.60233267847735
 20
57.99668064786791
 30
0.0
 10
36.57599740703439
 20
57.99668064786791
 30
0.0
 10
36.57599740703439
 20
57.99668064786791
 30
0.0
  0
SPLINE
  5
8D
330
70
100
AcDbEntity
  8
レイヤー 1
 62
    18
420
        0
370
    13
100
AcDbSpline
210
0.0
220
0.0
230
1.0
 70
    24
 71
     3
 72
     8
 73
     4
 74
     0
 42
0.0000000001
 43
0.0000000001
 40
0.0
 40
0.0
 40
0.0
 40
0.0
 40
1.0
 40
1.0
 40
1.0
 40
1.0
 10
33.27399988402227
 20
57.99668064786791
 30
0.0
 10
33.27399988402227
 20
57.99668064786791
 30
0.0
 10
34.24766461257931
 20
57.99668064786791
 30
0.0
 10
34.24766461257931
 20
57.99668064786791
 30
0.0
  0
SPLINE
  5
8E
330
70
100
AcDbEntity
  8
レイヤー 1
 62
    18
420
        0
370
    13
100
AcDbSpline
210
0.0
220
0.0
230
1.0
 70
    24
 71
     3
 72
     8
 73
     4
 74
     0
 42
0.0000000001
 43
0.0000000001
 40
0.0
 40
0.0
 40
0.0
 40
0.0
 40
1.0
 40
1.0
 40
1.0
 40
1.0
 10
35.60233267847735
 20
58.6740133350765
 30
0.0
 10
35.60233267847735
 20
58.6740133350765
 30
0.0
 10
36.57599740703439
 20
58.6740133350765
 30
0.0
 10
36.57599740703439
 20
58.6740133350765
 30
0.0
  0
SPLINE
  5
8F
330
70
100
AcDbEntity
  8
レイヤー 1
 62
    18
420
        0
370
    13
100
AcDbSpline
210
0.0
220
0.0
230
1.0
 70
    24
 71
     3
 72
     8
 73
     4
 74
     0
 42
0.0000000001
 43
0.0000000001
 40
0.0
 40
0.0
 40
0.0
 40
0.0
 40
1.0
 40
1.0
 40
1.0
 40
1.0
 10
33.27399988402227
 20
58.6740133350765
 30
0.0
 10
33.27399988402227
 20
58.6740133350765
 30
0.0
 10
34.24766461257931
 20
58.6740133350765
 30
0.0
 10
34.24766461257931
 20
58.6740133350765
 30
0.0
  0
SPLINE
  5
90
330
70
100
AcDbEntity
  8
レイヤー 1
 62
    18
420
        0
370
    13
100
AcDbSpline
210
0.0
220
0.0
230
1.0
 70
    24
 71
     3
 72
     8
 73
     4
 74
     0
 42
0.0000000001
 43
0.0000000001
 40
0.0
 40
0.0
 40
0.0
 40
0.0
 40
1.0
 40
1.0
 40
1.0
 40
1.0
 10
32.59666450533283
 20
59.35134602228511
 30
0.0
 10
32.59666450533283
 20
59.35134602228511
 30
0.0
 10
37.25333278572384
 20
59.35134602228511
 30
0.0
 10
37.25333278572384
 20
59.35134602228511
 30
0.0
  0
SPLINE
  5
91
330
70
100
AcDbEntity
  8
レイヤー 1
 62
    18
420
        0
370
    13
100
AcDbSpline
210
0.0
220
0.0
230
1.0
 70
    24
 71
     3
 72
     8
 73
     4
 74
     0
 42
0.0000000001
 43
0.0000000001
 40
0.0
 40
0.0
 40
0.0
 40
0.0
 40
1.0
 40
1.0
 40
1.0
 40
1.0
 10
32.93533084893712
 20
59.98634709871869
 30
0.0
 10
32.93533084893712
 20
59.98634709871869
 30
0.0
 10
36.91466644211953
 20
59.98634709871869
 30
0.0
 10
36.91466644211953
 20
59.98634709871869
 30
0.0
  0
SPLINE
  5
92
330
70
100
AcDbEntity
  8
レイヤー 1
 62
    18
420
        0
370
    13
100
AcDbSpline
210
0.0
220
0.0
230
1.0
 70
    24
 71
     3
 72
     8
 73
     4
 74
     0
 42
0.0000000001
 43
0.0000000001
 40
0.0
 40
0.0
 40
0.0
 40
0.0
 40
1.0
 40
1.0
 40
1.0
 40
1.0
 10
42.24866471823829
 20
59.98634709871869
 30
0.0
 10
42.24866471823829
 20
59.98634709871869
 30
0.0
 10
42.92599740544688
 20
59.69000967440855
 30
0.0
 10
42.92599740544688
 20
59.69000967440855
 30
0.0
  0
LWPOLYLINE
  5
93
330
70
100
AcDbEntity
  8
レイヤー 1
 62
    18
420
        0
370
    13
100
AcDbPolyline
 90
        4
 70
     0
 43
0.0
 10
43.26466644053203
 20
56.00700343109373
 10
42.58733375332343
 20
56.68433073534064
 10
42.24866471823829
 20
57.31934796065932
 10
41.57133203102969
 20
58.33532815110627
  0
SPLINE
  5
94
330
70
100
AcDbEntity
  8
レイヤー 1
 62
    18
420
        0
370
    13
100
AcDbSpline
210
0.0
220
0.0
230
1.0
 70
    24
 71
     3
 72
     8
 73
     4
 74
     0
 42
0.0000000001
 43
0.0000000001
 40
0.0
 40
0.0
 40
0.0
 40
0.0
 40
1.0
 40
1.0
 40
1.0
 40
1.0
 10
42.92600009692773
 20
58.33532815110627
 30
0.0
 10
42.92600009692773
 20
58.33532815110627
 30
0.0
 10
42.24866471823829
 20
57.65800084685937
 30
0.0
 10
42.24866471823829
 20
57.65800084685937
 30
0.0
  0
SPLINE
  5
95
330
70
100
AcDbEntity
  8
レイヤー 1
 62
    18
420
        0
370
    13
100
AcDbSpline
210
0.0
220
0.0
230
1.0
 70
    24
 71
     3
 72
     8
 73
     4
 74
     0
 42
0.0000000001
 43
0.0000000001
 40
0.0
 40
0.0
 40
0.0
 40
0.0
 40
1.0
 40
1.0
 40
1.0
 40
1.0
 10
40.25900095886835
 20
56.34567784914057
 30
0.0
 10
40.25900095886835
 20
56.34567784914057
 30
0.0
 10
41.27499998968125
 20
57.31934796065932
 30
0.0
 10
41.27499998968125
 20
57.31934796065932
 30
0.0
  0
SPLINE
  5
96
330
70
100
AcDbEntity
  8
レイヤー 1
 62
    18
420
        0
370
    13
100
AcDbSpline
210
0.0
220
0.0
230
1.0
 70
    24
 71
     3
 72
     8
 73
     4
 74
     0
 42
0.0000000001
 43
0.0000000001
 40
0.0
 40
0.0
 40
0.0
 40
0.0
 40
1.0
 40
1.0
 40
1.0
 40
1.0
 10
40.59766730247265
 20
58.33532815110627
 30
0.0
 10
40.59766730247265
 20
58.33532815110627
 30
0.0
 10
40.93633364607695
 20
57.99667526490622
 30
0.0
 10
40.93633364607695
 20
57.99667526490622
 30
0.0
  0
LWPOLYLINE
  5
97
330
70
100
AcDbEntity
  8
レイヤー 1
 62
    18
420
        0
370
    13
100
AcDbPolyline
 90
        3
 70
     0
 43
0.0
 10
39.92033461526406
 20
57.02300515338748
 10
39.24300192805546
 20
56.34567784914057
 10
38.60799816014102
 20
56.34567784914057
  0
LINE
  5
98
330
70
100
AcDbEntity
  8
レイヤー 1
 62
    18
420
        0
370
    13
100
AcDbLine
 10
39.24300192805546
 20
56.34567784914057
 30
0.0
 11
39.24300192805546
 21
59.69000429144686
 31
0.0
  0
LWPOLYLINE
  5
99
330
70
100
AcDbEntity
  8
レイヤー 1
 62
    18
420
        0
370
    13
100
AcDbPolyline
 90
        3
 70
     0
 43
0.0
 10
41.57133203102969
 20
60.32499998491875
 10
41.57133203102969
 20
55.32967612684683
 10
40.93633364607695
 20
55.32967612684683
  0
SPLINE
  5
9A
330
70
100
AcDbEntity
  8
レイヤー 1
 62
    18
420
        0
370
    13
100
AcDbSpline
210
0.0
220
0.0
230
1.0
 70
    24
 71
     3
 72
     8
 73
     4
 74
     0
 42
0.0000000001
 43
0.0000000001
 40
0.0
 40
0.0
 40
0.0
 40
0.0
 40
1.0
 40
1.0
 40
1.0
 40
1.0
 10
38.60799816014102
 20
57.99667526490622
 30
0.0
 10
38.60799816014102
 20
57.99667526490622
 30
0.0
 10
39.92033461526406
 20
57.99667526490622
 30
0.0
 10
39.92033461526406
 20
57.99667526490622
 30
0.0
  0
SPLINE
  5
9B
330
70
100
AcDbEntity
  8
レイヤー 1
 62
    18
420
        0
370
    13
100
AcDbSpline
210
0.0
220
0.0
230
1.0
 70
    24
 71
     3
 72
     8
 73
     4
 74
     0
 42
0.0000000001
 43
0.0000000001
 40
0.0
 40
0.0
 40
0.0
 40
0.0
 40
1.0
 40
1.0
 40
1.0
 40
1.0
 10
40.25900095886835
 20
59.01267698719996
 30
0.0
 10
40.25900095886835
 20
59.01267698719996
 30
0.0
 10
43.26466644053203
 20
59.01267698719996
 30
0.0
 10
43.26466644053203
 20
59.01267698719996
 30
0.0
  0
SPLINE
  5
9C
330
70
100
AcDbEntity
  8
レイヤー 1
 62
    18
420
        0
370
    13
100
AcDbSpline
210
0.0
220
0.0
230
1.0
 70
    24
 71
     3
 72
     8
 73
     4
 74
     0
 42
0.0000000001
 43
0.0000000001
 40
0.0
 40
0.0
 40
0.0
 40
0.0
 40
1.0
 40
1.0
 40
1.0
 40
1.0
 10
38.60799816014102
 20
59.69000429144686
 30
0.0
 10
38.60799816014102
 20
59.69000429144686
 30
0.0
 10
39.92033461526406
 20
59.69000429144686
 30
0.0
 10
39.92033461526406
 20
59.69000429144686
 30
0.0
  0
LWPOLYLINE
  5
9D
330
70
100
AcDbEntity
  8
レイヤー 1
 62
    18
420
        0
370
    13
100
AcDbPolyline
 90
        3
 70
     0
 43
0.0
 10
45.25432750842112
 20
57.99667526490622
 10
44.91566385629766
 20
57.65800084685937
 10
44.57699751269337
 20
57.65800084685937
  0
LINE
  5
9E
330
70
100
AcDbEntity
  8
レイヤー 1
 62
    18
420
        0
370
    13
100
AcDbLine
 10
45.59300192646796
 20
58.67400256915312
 30
0.0
 11
45.25432750842112
 21
57.99667526490622
 31
0.0
  0
LWPOLYLINE
  5
9F
330
70
100
AcDbEntity
  8
レイヤー 1
 62
    18
420
        0
370
    13
100
AcDbPolyline
 90
        3
 70
     0
 43
0.0
 10
49.27599740385939
 20
60.32499998491875
 10
49.27599740385939
 20
57.65800084685937
 10
48.59866471665079
 20
57.65800084685937
  0
SPLINE
  5
A0
330
70
100
AcDbEntity
  8
レイヤー 1
 62
    18
420
        0
370
    13
100
AcDbSpline
210
0.0
220
0.0
230
1.0
 70
    24
 71
     3
 72
     8
 73
     4
 74
     0
 42
0.0000000001
 43
0.0000000001
 40
0.0
 40
0.0
 40
0.0
 40
0.0
 40
1.0
 40
1.0
 40
1.0
 40
1.0
 10
48.25999568156564
 20
59.98634709871869
 30
0.0
 10
48.25999568156564
 20
59.98634709871869
 30
0.0
 10
48.25999568156564
 20
58.33534429999136
 30
0.0
 10
48.25999568156564
 20
58.33534429999136
 30
0.0
  0
SPLINE
  5
A1
330
70
100
AcDbEntity
  8
レイヤー 1
 62
    18
420
        0
370
    13
100
AcDbSpline
210
0.0
220
0.0
230
1.0
 70
    24
 71
     3
 72
     8
 73
     4
 74
     0
 42
0.0000000001
 43
0.0000000001
 40
0.0
 40
0.0
 40
0.0
 40
0.0
 40
1.0
 40
1.0
 40
1.0
 40
1.0
 10
46.90532492418675
 20
57.31934257769761
 30
0.0
 10
46.90532492418675
 20
57.31934257769761
 30
0.0
 10
46.90532492418675
 20
55.32967612684683
 30
0.0
 10
46.90532492418675
 20
55.32967612684683
 30
0.0
  0
SPLINE
  5
A2
330
70
100
AcDbEntity
  8
レイヤー 1
 62
    18
420
        0
370
    13
100
AcDbSpline
210
0.0
220
0.0
230
1.0
 70
    24
 71
     3
 72
     8
 73
     4
 74
     0
 42
0.0000000001
 43
0.0000000001
 40
0.0
 40
0.0
 40
0.0
 40
0.0
 40
1.0
 40
1.0
 40
1.0
 40
1.0
 10
46.60899288283832
 20
59.98634709871869
 30
0.0
 10
46.60899288283832
 20
59.98634709871869
 30
0.0
 10
46.60899288283832
 20
57.65801161278276
 30
0.0
 10
46.60899288283832
 20
57.65801161278276
 30
0.0
  0
SPLINE
  5
A3
330
70
100
AcDbEntity
  8
レイヤー 1
 62
    18
420
        0
370
    13
100
AcDbSpline
210
0.0
220
0.0
230
1.0
 70
    24
 71
     3
 72
     8
 73
     4
 74
     0
 42
0.0000000001
 43
0.0000000001
 40
0.0
 40
0.0
 40
0.0
 40
0.0
 40
1.0
 40
1.0
 40
1.0
 40
1.0
 10
45.59299116054456
 20
59.98634709871869
 30
0.0
 10
45.59299116054456
 20
59.98634709871869
 30
0.0
 10
45.59299116054456
 20
58.6740133350765
 30
0.0
 10
45.59299116054456
 20
58.6740133350765
 30
0.0
  0
SPLINE
  5
A4
330
70
100
AcDbEntity
  8
レイヤー 1
 62
    18
420
        0
370
    13
100
AcDbSpline
210
0.0
220
0.0
230
1.0
 70
    24
 71
     3
 72
     8
 73
     4
 74
     0
 42
0.0000000001
 43
0.0000000001
 40
0.0
 40
0.0
 40
0.0
 40
0.0
 40
1.0
 40
1.0
 40
1.0
 40
1.0
 10
44.57699482121252
 20
55.32967612684683
 30
0.0
 10
44.57699482121252
 20
55.32967612684683
 30
0.0
 10
49.27599202089769
 20
55.32967612684683
 30
0.0
 10
49.27599202089769
 20
55.32967612684683
 30
0.0
  0
SPLINE
  5
A5
330
70
100
AcDbEntity
  8
レイヤー 1
 62
    18
420
        0
370
    13
100
AcDbSpline
210
0.0
220
0.0
230
1.0
 70
    24
 71
     3
 72
     8
 73
     4
 74
     0
 42
0.0000000001
 43
0.0000000001
 40
0.0
 40
0.0
 40
0.0
 40
0.0
 40
1.0
 40
1.0
 40
1.0
 40
1.0
 10
45.25432750842112
 20
56.68434688422572
 30
0.0
 10
45.25432750842112
 20
56.68434688422572
 30
0.0
 10
48.5986593336891
 20
56.68434688422572
 30
0.0
 10
48.5986593336891
 20
56.68434688422572
 30
0.0
  0
SPLINE
  5
A6
330
70
100
AcDbEntity
  8
レイヤー 1
 62
    18
420
        0
370
    13
100
AcDbSpline
210
0.0
220
0.0
230
1.0
 70
    24
 71
     3
 72
     8
 73
     4
 74
     0
 42
0.0000000001
 43
0.0000000001
 40
0.0
 40
0.0
 40
0.0
 40
0.0
 40
1.0
 40
1.0
 40
1.0
 40
1.0
 10
44.57699482121252
 20
59.01267698719996
 30
0.0
 10
44.57699482121252
 20
59.01267698719996
 30
0.0
 10
47.58265761139536
 20
59.01267698719996
 30
0.0
 10
47.58265761139536
 20
59.01267698719996
 30
0.0
  0
SPLINE
  5
A7
330
70
100
AcDbEntity
  8
レイヤー 1
 62
    18
420
        0
370
    13
100
AcDbSpline
210
0.0
220
0.0
230
1.0
 70
    24
 71
     3
 72
     8
 73
     4
 74
     0
 42
0.0000000001
 43
0.0000000001
 40
0.0
 40
0.0
 40
0.0
 40
0.0
 40
1.0
 40
1.0
 40
1.0
 40
1.0
 10
44.91566116481682
 20
59.98634709871869
 30
0.0
 10
44.91566116481682
 20
59.98634709871869
 30
0.0
 10
47.2439939592719
 20
59.98634709871869
 30
0.0
 10
47.2439939592719
 20
59.98634709871869
 30
0.0
  0
LWPOLYLINE
  5
A8
330
70
100
AcDbEntity
  8
レイヤー 1
 62
    18
420
        0
370
    13
100
AcDbPolyline
 90
        3
 70
     0
 43
0.0
 10
50.58833116750157
 20
60.32499998491875
 10
50.58833116750157
 20
55.32967612684683
 10
53.46699912535938
 20
55.32967612684683
  0
LWPOLYLINE
  5
A9
330
70
100
AcDbEntity
  8
レイヤー 1
 62
    18
420
        0
370
    13
100
AcDbPolyline
 90
        3
 70
     0
 43
0.0
 10
54.65233267371485
 20
55.32967612684683
 10
54.65233267371485
 20
60.32499998491875
 10
57.74266406840939
 20
60.32499998491875
  0
SPLINE
  5
AA
330
70
100
AcDbEntity
  8
レイヤー 1
 62
    18
420
        0
370
    13
100
AcDbSpline
210
0.0
220
0.0
230
1.0
 70
    24
 71
     3
 72
     8
 73
     4
 74
     0
 42
0.0000000001
 43
0.0000000001
 40
0.0
 40
0.0
 40
0.0
 40
0.0
 40
1.0
 40
1.0
 40
1.0
 40
1.0
 10
54.65233267371485
 20
57.95434365413121
 30
0.0
 10
54.65233267371485
 20
57.95434365413121
 30
0.0
 10
56.55733052005392
 20
57.95434365413121
 30
0.0
 10
56.55733052005392
 20
57.95434365413121
 30
0.0
  0
SPLINE
  5
AB
330
70
100
AcDbEntity
  8
レイヤー 1
 62
    18
420
        0
370
    13
100
AcDbSpline
210
0.0
220
0.0
230
1.0
 70
    24
 71
     3
 72
     8
 73
     4
 74
     0
 42
0.0000000001
 43
0.0000000001
 40
0.0
 40
0.0
 40
0.0
 40
0.0
 40
1.0
 40
1.0
 40
1.0
 40
1.0
 10
54.65233267371485
 20
55.32967612684683
 30
0.0
 10
54.65233267371485
 20
55.32967612684683
 30
0.0
 10
57.74266406840939
 20
55.32967612684683
 30
0.0
 10
57.74266406840939
 20
55.32967612684683
 30
0.0
  0
LWPOLYLINE
  5
AC
330
70
100
AcDbEntity
  8
レイヤー 1
 62
    18
420
        0
370
    13
100
AcDbPolyline
 90
       12
 70
     1
 43
0.0
 10
59.13966643656328
 20
55.32967612684683
 10
59.13966643656328
 20
60.32500536788045
 10
60.83299546310392
 20
60.32500536788045
 10
61.55266514404923
 20
60.11334193104371
 10
62.01832901145939
 20
59.60534106989684
 10
62.27232944203283
 20
59.13967181952497
 10
62.48399826183126
 20
58.42000752154138
 10
62.48399826183126
 20
57.2346739731859
 10
62.27232944203283
 20
56.51500429224061
 10
62.01832901145939
 20
56.04934042483044
 10
61.55266514404923
 20
55.58367117445857
 10
60.83299546310392
 20
55.32967612684683
  0
LWPOLYLINE
  5
AD
330
70
100
AcDbEntity
  8
レイヤー 1
 62
    18
420
        0
370
    13
100
AcDbPolyline
 90
        3
 70
     0
 43
0.0
 10
66.84433180939298
 20
56.00700343109373
 10
66.16699912218438
 20
55.66835054489367
 10
65.48966643497578
 20
55.66835054489367
  0
LWPOLYLINE
  5
AE
330
70
100
AcDbEntity
  8
レイヤー 1
 62
    18
420
        0
370
    13
100
AcDbPolyline
 90
        6
 70
     0
 43
0.0
 10
66.84433180939298
 20
56.00700343109373
 10
67.47932750286487
 20
56.34567784914057
 10
68.15666557303517
 20
57.02300515338748
 10
68.49533460812032
 20
57.65800084685937
 10
68.49533460812032
 20
58.33532815110627
 10
64.47366471268203
 20
58.33532815110627
  0
LINE
  5
AF
330
70
100
AcDbEntity
  8
レイヤー 1
 62
    18
420
        0
370
    13
100
AcDbLine
 10
64.81233374776718
 20
59.69000429144686
 30
0.0
 11
68.15666557303517
 21
59.69000429144686
 31
0.0
  0
LWPOLYLINE
  5
B0
330
70
100
AcDbEntity
  8
レイヤー 1
 62
    18
420
        0
370
    13
100
AcDbPolyline
 90
        3
 70
     0
 43
0.0
 10
74.16800191932421
 20
57.31934796065932
 10
74.50666557144767
 20
57.99667526490622
 10
74.50666557144767
 20
58.67400256915312
  0
LWPOLYLINE
  5
B1
330
70
100
AcDbEntity
  8
レイヤー 1
 62
    18
420
        0
370
    13
100
AcDbPolyline
 90
        3
 70
     0
 43
0.0
 10
74.16800191932421
 20
57.31934796065932
 10
73.15200019703048
 20
56.34567784914057
 10
71.83966105042658
 20
55.66835054489367
  0
SPLINE
  5
B2
330
70
100
AcDbEntity
  8
レイヤー 1
 62
    18
420
        0
370
    13
100
AcDbSpline
210
0.0
220
0.0
230
1.0
 70
    24
 71
     3
 72
     8
 73
     4
 74
     0
 42
0.0000000001
 43
0.0000000001
 40
0.0
 40
0.0
 40
0.0
 40
0.0
 40
1.0
 40
1.0
 40
1.0
 40
1.0
 10
70.82366471109454
 20
59.69000429144686
 30
0.0
 10
70.82366471109454
 20
59.69000429144686
 30
0.0
 10
72.13600385769843
 20
59.01267698719996
 30
0.0
 10
72.13600385769843
 20
59.01267698719996
 30
0.0
  0
SPLINE
  5
B3
330
70
100
AcDbEntity
  8
レイヤー 1
 62
    18
420
        0
370
    13
100
AcDbSpline
210
0.0
220
0.0
230
1.0
 70
    24
 71
     3
 72
     8
 73
     4
 74
     0
 42
0.0000000001
 43
0.0000000001
 40
0.0
 40
0.0
 40
0.0
 40
0.0
 40
1.0
 40
1.0
 40
1.0
 40
1.0
 10
71.16232836321799
 20
55.66835054489367
 30
0.0
 10
71.16232836321799
 20
55.66835054489367
 30
0.0
 10
71.83966105042658
 20
55.66835054489367
 30
0.0
 10
71.83966105042658
 20
55.66835054489367
 30
0.0
  0
LWPOLYLINE
  5
B4
330
70
100
AcDbEntity
  8
レイヤー 1
 62
    18
420
        0
370
    13
100
AcDbPolyline
 90
        9
 70
     0
 43
0.0
 10
76.83499567442189
 20
55.66835054489367
 10
77.4699913678938
 20
55.66835054489367
 10
78.82466212527268
 20
56.34568323210228
 10
79.50199481248127
 20
57.02301591931087
 10
79.84065846460473
 20
57.65801699574446
 10
80.13699050595317
 20
58.33534968295306
 10
80.13699050595317
 20
59.01268237016165
 10
79.50199481248127
 20
59.35134602228511
 10
76.49632663933676
 20
59.35134602228511
  0
LWPOLYLINE
  5
B5
330
70
100
AcDbEntity
  8
レイヤー 1
 62
    18
420
        0
370
    13
100
AcDbPolyline
 90
        8
 70
     1
 43
0.0
 10
80.13700127187656
 20
60.32502151676554
 10
80.47566492400001
 20
60.32502151676554
 10
80.81433395908517
 20
59.98635248168039
 10
80.81433395908517
 20
59.69002044033195
 10
80.47566492400001
 20
59.3513514052468
 10
80.13700127187656
 20
59.3513514052468
 10
79.84066384756641
 20
59.69002044033195
 10
79.84066384756641
 20
59.98635248168039
  0
LWPOLYLINE
  5
B6
330
70
100
AcDbEntity
  8
レイヤー 1
 62
    18
420
        0
370
    13
100
AcDbPolyline
 90
        3
 70
     0
 43
0.0
 10
85.13233589587185
 20
60.32499998491875
 10
85.13233589587185
 20
55.32967612684683
 10
88.01100385372967
 20
55.32967612684683
  0
LWPOLYLINE
  5
B7
330
70
100
AcDbEntity
  8
レイヤー 1
 62
    18
420
        0
370
    13
100
AcDbPolyline
 90
       12
 70
     1
 43
0.0
 10
89.19633201912345
 20
55.32967612684683
 10
89.19633201912345
 20
60.32500536788045
 10
90.84732943488909
 20
60.32500536788045
 10
91.56698834991098
 20
60.11334193104371
 10
92.07498921105786
 20
59.60534106989684
 10
92.28665803085629
 20
59.13967181952497
 10
92.54065846142973
 20
58.42000752154138
 10
92.54065846142973
 20
57.2346739731859
 10
92.28665803085629
 20
56.51500429224061
 10
92.07498921105786
 20
56.04934042483044
 10
91.56698834991098
 20
55.58367117445857
 10
90.84732943488909
 20
55.32967612684683
  0
LWPOLYLINE
  5
B8
330
70
100
AcDbEntity
  8
レイヤー 1
 62
    18
420
        0
370
    13
100
AcDbPolyline
 90
        3
 70
     0
 43
0.0
 10
94.19166664311875
 20
55.32967612684683
 10
96.09666448945782
 20
60.32499998491875
 10
98.00166233579689
 20
55.32967612684683
  0
LINE
  5
B9
330
70
100
AcDbEntity
  8
レイヤー 1
 62
    18
420
        0
370
    13
100
AcDbLine
 10
94.91132555814067
 20
57.02300515338748
 30
0.0
 11
97.28199265485159
 21
57.02300515338748
 31
0.0
  0
LWPOLYLINE
  5
BA
330
70
100
AcDbEntity
  8
レイヤー 1
 62
    18
420
        0
370
    13
100
AcDbPolyline
 90
        3
 70
     0
 43
0.0
 10
101.811658028475
 20
60.32499998491875
 10
99.44099093176411
 20
57.02300515338748
 10
102.9969969597922
 20
57.02300515338748
  0
LINE
  5
BB
330
70
100
AcDbEntity
  8
レイヤー 1
 62
    18
420
        0
370
    13
100
AcDbLine
 10
101.811658028475
 20
60.32499998491875
 30
0.0
 11
101.811658028475
 21
55.32967612684683
 31
0.0
  0
LWPOLYLINE
  5
BC
330
70
100
AcDbEntity
  8
レイヤー 1
 62
    18
420
        0
370
    13
100
AcDbPolyline
 90
        3
 70
     0
 43
0.0
 10
104.1823358911093
 20
60.32499998491875
 10
104.1823358911093
 20
55.32967612684683
 10
107.0610038489671
 20
55.32967612684683
  0
SPLINE
  5
BD
330
70
100
AcDbEntity
  8
レイヤー 1
 62
    18
420
        0
370
    13
100
AcDbSpline
210
0.0
220
0.0
230
1.0
 70
    24
 71
     3
 72
     8
 73
     4
 74
     0
 42
0.0000000001
 43
0.0000000001
 40
0.0
 40
0.0
 40
0.0
 40
0.0
 40
1.0
 40
1.0
 40
1.0
 40
1.0
 10
112.2256649160625
 20
56.00700343109373
 30
0.0
 10
112.2256649160625
 20
56.00700343109373
 30
0.0
 10
108.9236593186078
 20
59.69000429144686
 30
0.0
 10
108.9236593186078
 20
59.69000429144686
 30
0.0
  0
SPLINE
  5
BE
330
70
100
AcDbEntity
  8
レイヤー 1
 62
    18
420
        0
370
    13
100
AcDbSpline
210
0.0
220
0.0
230
1.0
 70
    24
 71
     3
 72
     8
 73
     4
 74
     0
 42
0.0000000001
 43
0.0000000001
 40
0.0
 40
0.0
 40
0.0
 40
0.0
 40
1.0
 40
1.0
 40
1.0
 40
1.0
 10
112.2256649160625
 20
59.69000429144686
 30
0.0
 10
112.2256649160625
 20
59.69000429144686
 30
0.0
 10
108.9236593186078
 20
56.00700343109373
 30
0.0
 10
108.9236593186078
 20
56.00700343109373
 30
0.0
  0
LWPOLYLINE
  5
BF
330
70
100
AcDbEntity
  8
レイヤー 1
 62
    18
420
        0
370
    13
100
AcDbPolyline
 90
       14
 70
     0
 43
0.0
 10
114.4693371804484
 20
59.13969335137176
 10
114.4693371804484
 20
59.3936883989835
 10
114.7233268450984
 20
59.85935764935536
 10
114.9349956648969
 20
60.1133580799288
 10
115.4429965260437
 20
60.32502151676554
 10
116.3743350267875
 20
60.32502151676554
 10
116.8399935112359
 20
60.1133580799288
 10
117.0939939418094
 20
59.85935764935536
 10
117.3479943723828
 20
59.3936883989835
 10
117.3479943723828
 20
58.92802453157333
 10
117.0939939418094
 20
58.42002367042646
 10
116.6283354573609
 20
57.70035937244286
 10
114.25766836065
 20
55.32969227573192
 10
117.5596631921812
 20
55.32969227573192
  0
LINE
  5
C0
330
70
100
AcDbEntity
  8
レイヤー 1
 62
    18
420
        0
370
    13
100
AcDbLine
 10
120.6499999698375
 20
59.98632556687191
 30
0.0
 11
123.6556627600203
 21
59.98632556687191
 31
0.0
  0
LWPOLYLINE
  5
C1
330
70
100
AcDbEntity
  8
レイヤー 1
 62
    18
420
        0
370
    13
100
AcDbPolyline
 90
        3
 70
     0
 43
0.0
 10
121.6659909262078
 20
55.32967612684683
 10
122.3433289963781
 20
55.32967612684683
 10
122.3433289963781
 20
59.98632556687191
  0
LINE
  5
C2
330
70
100
AcDbEntity
  8
レイヤー 1
 62
    18
420
        0
370
    13
100
AcDbLine
 10
118.9990025540718
 20
59.01267698719996
 30
0.0
 11
118.9990025540718
 21
57.99667526490622
 31
0.0
  0
LWPOLYLINE
  5
C3
330
70
100
AcDbEntity
  8
レイヤー 1
 62
    18
420
        0
370
    13
100
AcDbPolyline
 90
        4
 70
     0
 43
0.0
 10
119.6763298583187
 20
60.32499998491875
 10
119.6763298583187
 20
57.31934796065932
 10
119.3376662061953
 20
56.00700343109373
 10
118.9990025540718
 20
55.66835054489367
  0
LWPOLYLINE
  5
C4
330
70
100
AcDbEntity
  8
レイヤー 1
 62
    18
420
        0
370
    13
100
AcDbPolyline
 90
        3
 70
     0
 43
0.0
 10
120.6499999698375
 20
59.3513514052468
 10
120.6499999698375
 20
59.01267698719996
 10
120.353667928489
 20
58.67400256915312
  0
LWPOLYLINE
  5
C5
330
70
100
AcDbEntity
  8
レイヤー 1
 62
    18
420
        0
370
    13
100
AcDbPolyline
 90
        3
 70
     0
 43
0.0
 10
119.6763298583187
 20
57.31934796065932
 10
120.353667928489
 20
56.68433073534064
 10
120.353667928489
 20
56.34567784914057
  0
LWPOLYLINE
  5
C6
330
70
100
AcDbEntity
  8
レイヤー 1
 62
    18
420
        0
370
    25
100
AcDbPolyline
 90
       49
 70
     1
 43
0.0
 10
94.82666233659065
 20
126.6613470820499
 10
94.91132555814067
 20
126.0263406226546
 10
95.1229943779391
 20
125.4336765399578
 10
95.50398964083754
 20
124.8410124572609
 10
96.05432211275942
 20
124.290679985339
 10
96.77399179370473
 20
123.7826791241921
 10
97.62065630697506
 20
123.2746782630453
 10
98.55199480771878
 20
122.8513406234484
 10
99.61032814078754
 20
122.4703453605499
 10
100.7533246954063
 20
122.1316709425031
 10
101.9809952374984
 20
121.9200128886281
 10
103.2509866244422
 20
121.7083440688296
 10
104.5633203880844
 20
121.6236700813562
 10
105.8756541517266
 20
121.6236700813562
 10
107.1456563045938
 20
121.6660124580546
 10
108.4156584574609
 20
121.7930072903796
 10
109.6433289995531
 20
122.0046761101781
 10
110.7439939433969
 20
122.2586765407515
 10
111.8023272764656
 20
122.597340192875
 10
112.733655011286
 20
123.0206778324718
 10
113.4956563030063
 20
123.4863470828437
 10
114.1729943731766
 20
123.9943371780672
 10
114.6809952343234
 20
124.5446804159124
 10
115.0196588864469
 20
125.0950128878343
 10
115.2313277062453
 20
125.6876769705312
 10
115.2313277062453
 20
126.2803410532281
 10
115.1043221079969
 20
126.873005135925
 10
114.7656584558734
 20
127.5080115953203
 10
114.2999892055016
 20
128.0583440672421
 10
113.6649935120297
 20
128.608676539164
 10
112.9029922203094
 20
129.1166774003109
 10
112.0139853303407
 20
129.5823466506827
 10
110.9979943739703
 20
129.9633419135812
 10
109.8973186642032
 20
130.3443371764797
 10
108.7119904988094
 20
130.5983376070531
 10
107.4419883459422
 20
130.8100064268515
 10
106.171986193075
 20
130.9793436358749
 10
104.8596524294329
 20
131.02167524665
 10
103.5473186657907
 20
131.02167524665
 10
102.2773272788469
 20
130.8946804143249
 10
101.0496567367547
 20
130.7253432053015
 10
99.86432857136096
 20
130.5136743855031
 10
98.80599523829221
 20
130.1750107333796
 10
97.83232512677349
 20
129.8363470812562
 10
96.94332900272815
 20
129.3706778308843
 10
96.22365932178285
 20
128.9050085805124
 10
95.63099523908595
 20
128.3970077193656
 10
95.20765759948911
 20
127.8043436366687
 10
94.95365716891567
 20
127.2540111647468
  0
LINE
  5
C7
330
70
100
AcDbEntity
  8
レイヤー 1
 62
    18
420
        0
370
    25
100
AcDbLine
 10
105.1983268474797
 20
175.4716860014608
 30
0.0
 11
105.1983268474797
 21
184.8696804008312
 31
0.0
  0
LWPOLYLINE
  5
C8
330
70
100
AcDbEntity
  8
レイヤー 1
 62
    18
420
        0
370
    25
100
AcDbPolyline
 90
       38
 70
     0
 43
0.0
 10
105.1983376134031
 20
170.0106821270937
 10
107.1879986812922
 20
173.8206778197718
 10
108.9236700845312
 20
169.2486808353734
 10
111.2519948045438
 20
173.5666773891984
 10
113.0299978185578
 20
168.6560059867531
 10
115.5276705135171
 20
173.1856821262999
 10
116.8823358879343
 20
167.9363470717312
 10
119.3376662061953
 20
172.7623444867031
 10
120.7769948021625
 20
167.5130094321343
 10
123.6133311492453
 20
171.7886743751843
 10
124.7563277038641
 20
166.4970077098406
 10
127.6349956617219
 20
170.4763406115421
 10
128.5240025516906
 20
165.2693479336718
 10
131.36032813285
 20
168.9523487940249
 10
132.0376662030203
 20
163.6183397519828
 10
134.7469969518547
 20
167.5553410429093
 10
135.3396610345516
 20
162.1366795452406
 10
138.2183289924094
 20
165.9890068486937
 10
138.6416666320062
 20
160.9936722246984
 10
141.1816709377406
 20
164.9730051264
 10
141.562666200639
 20
159.1733483658327
 10
144.3143285602484
 20
162.7293436279374
 10
144.3143285602484
 20
157.3953453518187
 10
146.5580008246343
 20
160.8243457815984
 10
146.0923315742625
 20
155.0246782551077
 10
148.6323358799968
 20
158.3690154633374
 10
148.082003408075
 20
153.2043436303187
 10
150.5373337263359
 20
155.9136743791531
 10
149.6059952255922
 20
150.6220077138093
 10
151.8073358792031
 20
153.2890068518687
 10
150.6643285586609
 20
148.2513406170984
 10
152.7386636140234
 20
150.9606821318562
 10
151.0030029767078
 20
145.9230051311624
 10
153.0349956553719
 20
148.7170098674702
 10
151.5956670594047
 20
143.5100064236765
 10
153.3313276967203
 20
146.0076791186359
 10
151.3416666288312
 20
141.6896717988874
 10
152.6540003924734
 20
142.8750107302046
  0
LWPOLYLINE
  5
C9
330
70
100
AcDbEntity
  8
レイヤー 1
 62
    18
420
        0
370
    25
100
AcDbPolyline
 90
       25
 70
     0
 43
0.0
 10
144.6953345890703
 20
129.9633526795046
 10
143.1290003948547
 20
129.5823466506827
 10
142.4516623246844
 20
128.0160124564671
 10
140.8006649089188
 20
127.8890176241421
 10
139.8269947974
 20
126.1956778316781
 10
138.048991783386
 20
125.9416774011046
 10
136.8213320072172
 20
124.0790111655406
 10
134.5353281320562
 20
124.0790111655406
 10
133.9426640493594
 20
122.9783462216968
 10
131.6989917849735
 20
122.7243457911234
 10
130.6830008286031
 20
121.4966860149546
 10
128.3123337318922
 20
121.6660124580546
 10
126.6613255502031
 20
119.972683431514
 10
124.5023272732906
 20
120.2690154728624
 10
123.4863255509969
 20
119.1683505290187
 10
121.1580008309844
 20
119.6763513901655
 10
119.8879986781172
 20
118.4063492372984
 10
117.6019948029563
 20
119.2106821397937
 10
116.5859930806625
 20
117.8983483761515
 10
114.7656584558734
 20
118.9143500984452
 10
112.8606606095344
 20
117.0940154736562
 10
110.9556627631953
 20
119.1260189182437
 10
108.7543328755078
 20
117.0516838628812
 10
106.8069926524703
 20
118.7450128894218
 10
105.1983268474797
 20
116.8823466538577
  0
LWPOLYLINE
  5
CA
330
70
100
AcDbEntity
  8
レイヤー 1
 62
    18
420
        0
370
    25
100
AcDbPolyline
 90
       10
 70
     0
 43
0.0
 10
152.6540111583968
 20
142.875021496128
 10
150.6643393245843
 20
138.2183505242561
 10
149.860006422089
 20
138.3030137458062
 10
149.4790111591906
 20
136.2286786904437
 10
148.4630094368968
 20
136.1863470796687
 10
148.1666773955484
 20
133.9850171919811
 10
147.2776705055796
 20
134.0273488027562
 10
146.4733376030843
 20
131.9953453581687
 10
145.626673089814
 20
131.9953453581687
 10
144.6953345890703
 20
129.9633526795046
  0
LWPOLYLINE
  5
CB
330
70
100
AcDbEntity
  8
レイヤー 1
 62
    18
420
        0
370
    25
100
AcDbPolyline
 90
       38
 70
     0
 43
0.0
 10
106.9339982507187
 20
187.1556735100687
 10
108.457990068236
 20
184.3193263970625
 10
110.4476619020484
 20
187.0709887566719
 10
112.3103281376125
 20
184.2346631755125
 10
113.9189939426031
 20
186.8169990920219
 10
115.9933289979656
 20
184.0230051216375
 10
118.1099956641031
 20
186.18200339855
 10
120.5229943715891
 20
183.0916666208937
 10
121.4966644831078
 20
185.6316709266281
 10
124.2906584534922
 20
182.033333287825
 10
124.9679965236625
 20
184.6156692043344
 10
127.7196588832719
 20
180.8903367332062
 10
128.1429965228688
 20
183.5573358712656
 10
131.2333225346016
 20
179.8743350109125
 10
131.2333225346016
 20
181.8216537021032
 10
134.4929965212813
 20
178.3080008166969
 10
134.4929965212813
 20
180.4669990936094
 10
137.4563277006891
 20
176.8686722207297
 10
137.4563277006891
 20
178.7736700670687
 10
140.3773272693219
 20
174.5826683455687
 10
139.9963212405
 20
176.8263298440313
 10
143.0443264073812
 20
172.9740025405781
 10
143.0443264073812
 20
174.6673315671188
 10
145.2879986717672
 20
170.5186722223172
 10
145.2879986717672
 20
172.0003324290594
 10
147.3199913504313
 20
167.9363363058078
 10
147.7433289900281
 20
168.6560059867531
 10
148.9709995321203
 20
164.9306735156249
 10
148.9709995321203
 20
165.8620012504453
 10
150.1563276975141
 20
163.0256649033625
 10
150.1563276975141
 20
163.9993350148812
 10
150.833655001761
 20
159.9776705024047
 10
151.2146610305828
 20
160.908998237225
 10
151.6379986701797
 20
156.8873337247484
 10
152.0613255438531
 20
156.9296653355234
 10
152.442331572675
 20
153.2043328643953
 10
152.9079900571235
 20
153.2466644751703
 10
152.9503216678985
 20
149.3520055609421
  0
SPLINE
  5
CC
330
70
100
AcDbEntity
  8
レイヤー 1
 62
    18
420
        0
370
    25
100
AcDbSpline
210
0.0
220
0.0
230
1.0
 70
    24
 71
     3
 72
     8
 73
     4
 74
     0
 42
0.0000000001
 43
0.0000000001
 40
0.0
 40
0.0
 40
0.0
 40
0.0
 40
1.0
 40
1.0
 40
1.0
 40
1.0
 10
108.4580008341593
 20
184.3193479289093
 30
0.0
 10
108.4580008341593
 20
184.3193479289093
 30
0.0
 10
108.4580008341593
 20
175.6833440553359
 30
0.0
 10
108.4580008341593
 20
175.6833440553359
 30
0.0
  0
SPLINE
  5
CD
330
70
100
AcDbEntity
  8
レイヤー 1
 62
    18
420
        0
370
    25
100
AcDbSpline
210
0.0
220
0.0
230
1.0
 70
    24
 71
     3
 72
     8
 73
     4
 74
     0
 42
0.0000000001
 43
0.0000000001
 40
0.0
 40
0.0
 40
0.0
 40
0.0
 40
1.0
 40
1.0
 40
1.0
 40
1.0
 10
106.9339982507187
 20
181.7370120123999
 30
0.0
 10
106.9339982507187
 20
181.7370120123999
 30
0.0
 10
107.1879986812922
 20
173.8206778197718
 30
0.0
 10
107.1879986812922
 20
173.8206778197718
 30
0.0
  0
SPLINE
  5
CE
330
70
100
AcDbEntity
  8
レイヤー 1
 62
    18
420
        0
370
    25
100
AcDbSpline
210
0.0
220
0.0
230
1.0
 70
    24
 71
     3
 72
     8
 73
     4
 74
     0
 42
0.0000000001
 43
0.0000000001
 40
0.0
 40
0.0
 40
0.0
 40
0.0
 40
1.0
 40
1.0
 40
1.0
 40
1.0
 10
111.2519948045438
 20
173.5666773891984
 30
0.0
 10
111.2519948045438
 20
173.5666773891984
 30
0.0
 10
110.23599308225
 20
181.5253324266781
 30
0.0
 10
110.23599308225
 20
181.5253324266781
 30
0.0
  0
SPLINE
  5
CF
330
70
100
AcDbEntity
  8
レイヤー 1
 62
    18
420
        0
370
    25
100
AcDbSpline
210
0.0
220
0.0
230
1.0
 70
    24
 71
     3
 72
     8
 73
     4
 74
     0
 42
0.0000000001
 43
0.0000000001
 40
0.0
 40
0.0
 40
0.0
 40
0.0
 40
1.0
 40
1.0
 40
1.0
 40
1.0
 10
112.3103281376125
 20
184.2346631755125
 30
0.0
 10
112.3103281376125
 20
184.2346631755125
 30
0.0
 10
112.3103281376125
 20
176.4453453470562
 30
0.0
 10
112.3103281376125
 20
176.4453453470562
 30
0.0
  0
SPLINE
  5
D0
330
70
100
AcDbEntity
  8
レイヤー 1
 62
    18
420
        0
370
    25
100
AcDbSpline
210
0.0
220
0.0
230
1.0
 70
    24
 71
     3
 72
     8
 73
     4
 74
     0
 42
0.0000000001
 43
0.0000000001
 40
0.0
 40
0.0
 40
0.0
 40
0.0
 40
1.0
 40
1.0
 40
1.0
 40
1.0
 10
113.6226619012547
 20
181.4830008159031
 30
0.0
 10
113.6226619012547
 20
181.4830008159031
 30
0.0
 10
115.5276597475938
 20
173.1856713603765
 30
0.0
 10
115.5276597475938
 20
173.1856713603765
 30
0.0
  0
SPLINE
  5
D1
330
70
100
AcDbEntity
  8
レイヤー 1
 62
    18
420
        0
370
    25
100
AcDbSpline
210
0.0
220
0.0
230
1.0
 70
    24
 71
     3
 72
     8
 73
     4
 74
     0
 42
0.0000000001
 43
0.0000000001
 40
0.0
 40
0.0
 40
0.0
 40
0.0
 40
1.0
 40
1.0
 40
1.0
 40
1.0
 10
115.5699913583688
 20
176.5723401793812
 30
0.0
 10
115.5699913583688
 20
176.5723401793812
 30
0.0
 10
115.9933289979656
 20
184.0230051216375
 30
0.0
 10
115.9933289979656
 20
184.0230051216375
 30
0.0
  0
SPLINE
  5
D2
330
70
100
AcDbEntity
  8
レイヤー 1
 62
    18
420
        0
370
    25
100
AcDbSpline
210
0.0
220
0.0
230
1.0
 70
    24
 71
     3
 72
     8
 73
     4
 74
     0
 42
0.0000000001
 43
0.0000000001
 40
0.0
 40
0.0
 40
0.0
 40
0.0
 40
1.0
 40
1.0
 40
1.0
 40
1.0
 10
117.3903259831578
 20
180.9326683439812
 30
0.0
 10
117.3903259831578
 20
180.9326683439812
 30
0.0
 10
119.3376662061953
 20
172.7623444867031
 30
0.0
 10
119.3376662061953
 20
172.7623444867031
 30
0.0
  0
SPLINE
  5
D3
330
70
100
AcDbEntity
  8
レイヤー 1
 62
    18
420
        0
370
    25
100
AcDbSpline
210
0.0
220
0.0
230
1.0
 70
    24
 71
     3
 72
     8
 73
     4
 74
     0
 42
0.0000000001
 43
0.0000000001
 40
0.0
 40
0.0
 40
0.0
 40
0.0
 40
1.0
 40
1.0
 40
1.0
 40
1.0
 10
119.5069926492953
 20
176.4876769578312
 30
0.0
 10
119.5069926492953
 20
176.4876769578312
 30
0.0
 10
120.5229943715891
 20
183.0916666208937
 30
0.0
 10
120.5229943715891
 20
183.0916666208937
 30
0.0
  0
SPLINE
  5
D4
330
70
100
AcDbEntity
  8
レイヤー 1
 62
    18
420
        0
370
    25
100
AcDbSpline
210
0.0
220
0.0
230
1.0
 70
    24
 71
     3
 72
     8
 73
     4
 74
     0
 42
0.0000000001
 43
0.0000000001
 40
0.0
 40
0.0
 40
0.0
 40
0.0
 40
1.0
 40
1.0
 40
1.0
 40
1.0
 10
121.0733268435109
 20
179.6626769570374
 30
0.0
 10
121.0733268435109
 20
179.6626769570374
 30
0.0
 10
123.6133311492453
 20
171.7886743751843
 30
0.0
 10
123.6133311492453
 20
171.7886743751843
 30
0.0
  0
SPLINE
  5
D5
330
70
100
AcDbEntity
  8
レイヤー 1
 62
    18
420
        0
370
    25
100
AcDbSpline
210
0.0
220
0.0
230
1.0
 70
    24
 71
     3
 72
     8
 73
     4
 74
     0
 42
0.0000000001
 43
0.0000000001
 40
0.0
 40
0.0
 40
0.0
 40
0.0
 40
1.0
 40
1.0
 40
1.0
 40
1.0
 10
123.2323251204235
 20
175.8950128751343
 30
0.0
 10
123.2323251204235
 20
175.8950128751343
 30
0.0
 10
124.2906584534922
 20
182.033333287825
 30
0.0
 10
124.2906584534922
 20
182.033333287825
 30
0.0
  0
SPLINE
  5
D6
330
70
100
AcDbEntity
  8
レイヤー 1
 62
    18
420
        0
370
    25
100
AcDbSpline
210
0.0
220
0.0
230
1.0
 70
    24
 71
     3
 72
     8
 73
     4
 74
     0
 42
0.0000000001
 43
0.0000000001
 40
0.0
 40
0.0
 40
0.0
 40
0.0
 40
1.0
 40
1.0
 40
1.0
 40
1.0
 10
124.7563277038641
 20
178.6466752347437
 30
0.0
 10
124.7563277038641
 20
178.6466752347437
 30
0.0
 10
127.6349956617219
 20
170.4763406115421
 30
0.0
 10
127.6349956617219
 20
170.4763406115421
 30
0.0
  0
SPLINE
  5
D7
330
70
100
AcDbEntity
  8
レイヤー 1
 62
    18
420
        0
370
    25
100
AcDbSpline
210
0.0
220
0.0
230
1.0
 70
    24
 71
     3
 72
     8
 73
     4
 74
     0
 42
0.0000000001
 43
0.0000000001
 40
0.0
 40
0.0
 40
0.0
 40
0.0
 40
1.0
 40
1.0
 40
1.0
 40
1.0
 10
126.7459995376766
 20
175.5563384570875
 30
0.0
 10
126.7459995376766
 20
175.5563384570875
 30
0.0
 10
127.7196588832719
 20
180.8903367332062
 30
0.0
 10
127.7196588832719
 20
180.8903367332062
 30
0.0
  0
SPLINE
  5
D8
330
70
100
AcDbEntity
  8
レイヤー 1
 62
    18
420
        0
370
    25
100
AcDbSpline
210
0.0
220
0.0
230
1.0
 70
    24
 71
     3
 72
     8
 73
     4
 74
     0
 42
0.0000000001
 43
0.0000000001
 40
0.0
 40
0.0
 40
0.0
 40
0.0
 40
1.0
 40
1.0
 40
1.0
 40
1.0
 10
127.9313277030703
 20
178.3080115826203
 30
0.0
 10
127.9313277030703
 20
178.3080115826203
 30
0.0
 10
131.36032813285
 20
168.9523380281015
 30
0.0
 10
131.36032813285
 20
168.9523380281015
 30
0.0
  0
SPLINE
  5
D9
330
70
100
AcDbEntity
  8
レイヤー 1
 62
    18
420
        0
370
    25
100
AcDbSpline
210
0.0
220
0.0
230
1.0
 70
    24
 71
     3
 72
     8
 73
     4
 74
     0
 42
0.0000000001
 43
0.0000000001
 40
0.0
 40
0.0
 40
0.0
 40
0.0
 40
1.0
 40
1.0
 40
1.0
 40
1.0
 10
130.0056627584328
 20
174.0746782503453
 30
0.0
 10
130.0056627584328
 20
174.0746782503453
 30
0.0
 10
131.233333300525
 20
179.8743457768359
 30
0.0
 10
131.233333300525
 20
179.8743457768359
 30
0.0
  0
SPLINE
  5
DA
330
70
100
AcDbEntity
  8
レイヤー 1
 62
    18
420
        0
370
    25
100
AcDbSpline
210
0.0
220
0.0
230
1.0
 70
    24
 71
     3
 72
     8
 73
     4
 74
     0
 42
0.0000000001
 43
0.0000000001
 40
0.0
 40
0.0
 40
0.0
 40
0.0
 40
1.0
 40
1.0
 40
1.0
 40
1.0
 10
130.8946588824781
 20
177.2073466387765
 30
0.0
 10
130.8946588824781
 20
177.2073466387765
 30
0.0
 10
134.7469969518547
 20
167.5553410429093
 30
0.0
 10
134.7469969518547
 20
167.5553410429093
 30
0.0
  0
SPLINE
  5
DB
330
70
100
AcDbEntity
  8
レイヤー 1
 62
    18
420
        0
370
    25
100
AcDbSpline
210
0.0
220
0.0
230
1.0
 70
    24
 71
     3
 72
     8
 73
     4
 74
     0
 42
0.0000000001
 43
0.0000000001
 40
0.0
 40
0.0
 40
0.0
 40
0.0
 40
1.0
 40
1.0
 40
1.0
 40
1.0
 10
134.4929965212813
 20
178.3080115826203
 30
0.0
 10
134.4929965212813
 20
178.3080115826203
 30
0.0
 10
132.8419991055156
 20
172.3813384578812
 30
0.0
 10
132.8419991055156
 20
172.3813384578812
 30
0.0
  0
SPLINE
  5
DC
330
70
100
AcDbEntity
  8
レイヤー 1
 62
    18
420
        0
370
    25
100
AcDbSpline
210
0.0
220
0.0
230
1.0
 70
    24
 71
     3
 72
     8
 73
     4
 74
     0
 42
0.0000000001
 43
0.0000000001
 40
0.0
 40
0.0
 40
0.0
 40
0.0
 40
1.0
 40
1.0
 40
1.0
 40
1.0
 10
137.4563277006891
 20
176.8686722207297
 30
0.0
 10
137.4563277006891
 20
176.8686722207297
 30
0.0
 10
135.9746674939468
 20
171.5770055553859
 30
0.0
 10
135.9746674939468
 20
171.5770055553859
 30
0.0
  0
SPLINE
  5
DD
330
70
100
AcDbEntity
  8
レイヤー 1
 62
    18
420
        0
370
    25
100
AcDbSpline
210
0.0
220
0.0
230
1.0
 70
    24
 71
     3
 72
     8
 73
     4
 74
     0
 42
0.0000000001
 43
0.0000000001
 40
0.0
 40
0.0
 40
0.0
 40
0.0
 40
1.0
 40
1.0
 40
1.0
 40
1.0
 10
133.9849956601344
 20
175.4716752355375
 30
0.0
 10
133.9849956601344
 20
175.4716752355375
 30
0.0
 10
138.2183289924094
 20
165.9890068486937
 30
0.0
 10
138.2183289924094
 20
165.9890068486937
 30
0.0
  0
SPLINE
  5
DE
330
70
100
AcDbEntity
  8
レイヤー 1
 62
    18
420
        0
370
    25
100
AcDbSpline
210
0.0
220
0.0
230
1.0
 70
    24
 71
     3
 72
     8
 73
     4
 74
     0
 42
0.0000000001
 43
0.0000000001
 40
0.0
 40
0.0
 40
0.0
 40
0.0
 40
1.0
 40
1.0
 40
1.0
 40
1.0
 10
137.0753324377906
 20
173.6936722215234
 30
0.0
 10
137.0753324377906
 20
173.6936722215234
 30
0.0
 10
141.1816601718172
 20
164.9730051264
 30
0.0
 10
141.1816601718172
 20
164.9730051264
 30
0.0
  0
SPLINE
  5
DF
330
70
100
AcDbEntity
  8
レイヤー 1
 62
    18
420
        0
370
    25
100
AcDbSpline
210
0.0
220
0.0
230
1.0
 70
    24
 71
     3
 72
     8
 73
     4
 74
     0
 42
0.0000000001
 43
0.0000000001
 40
0.0
 40
0.0
 40
0.0
 40
0.0
 40
1.0
 40
1.0
 40
1.0
 40
1.0
 10
140.3773272693219
 20
174.5826791114921
 30
0.0
 10
140.3773272693219
 20
174.5826791114921
 30
0.0
 10
138.8109930751063
 20
170.4340090007671
 30
0.0
 10
138.8109930751063
 20
170.4340090007671
 30
0.0
  0
SPLINE
  5
E0
330
70
100
AcDbEntity
  8
レイヤー 1
 62
    18
420
        0
370
    25
100
AcDbSpline
210
0.0
220
0.0
230
1.0
 70
    24
 71
     3
 72
     8
 73
     4
 74
     0
 42
0.0000000001
 43
0.0000000001
 40
0.0
 40
0.0
 40
0.0
 40
0.0
 40
1.0
 40
1.0
 40
1.0
 40
1.0
 10
139.6153259776016
 20
171.8310059859593
 30
0.0
 10
139.6153259776016
 20
171.8310059859593
 30
0.0
 10
144.3143285602484
 20
162.433011586589
 30
0.0
 10
144.3143285602484
 20
162.433011586589
 30
0.0
  0
SPLINE
  5
E1
330
70
100
AcDbEntity
  8
レイヤー 1
 62
    18
420
        0
370
    25
100
AcDbSpline
210
0.0
220
0.0
230
1.0
 70
    24
 71
     3
 72
     8
 73
     4
 74
     0
 42
0.0000000001
 43
0.0000000001
 40
0.0
 40
0.0
 40
0.0
 40
0.0
 40
1.0
 40
1.0
 40
1.0
 40
1.0
 10
143.0443264073812
 20
172.9740133065015
 30
0.0
 10
143.0443264073812
 20
172.9740133065015
 30
0.0
 10
141.5203238239407
 20
168.6560059867531
 30
0.0
 10
141.5203238239407
 20
168.6560059867531
 30
0.0
  0
SPLINE
  5
E2
330
70
100
AcDbEntity
  8
レイヤー 1
 62
    18
420
        0
370
    25
100
AcDbSpline
210
0.0
220
0.0
230
1.0
 70
    24
 71
     3
 72
     8
 73
     4
 74
     0
 42
0.0000000001
 43
0.0000000001
 40
0.0
 40
0.0
 40
0.0
 40
0.0
 40
1.0
 40
1.0
 40
1.0
 40
1.0
 10
142.239993504886
 20
169.5026812659468
 30
0.0
 10
142.239993504886
 20
169.5026812659468
 30
0.0
 10
146.5580008246343
 20
160.3586765312265
 30
0.0
 10
146.5580008246343
 20
160.3586765312265
 30
0.0
  0
SPLINE
  5
E3
330
70
100
AcDbEntity
  8
レイヤー 1
 62
    18
420
        0
370
    25
100
AcDbSpline
210
0.0
220
0.0
230
1.0
 70
    24
 71
     3
 72
     8
 73
     4
 74
     0
 42
0.0000000001
 43
0.0000000001
 40
0.0
 40
0.0
 40
0.0
 40
0.0
 40
1.0
 40
1.0
 40
1.0
 40
1.0
 10
144.3989917817985
 20
167.3860145998093
 30
0.0
 10
144.3989917817985
 20
167.3860145998093
 30
0.0
 10
148.6323251140734
 20
158.369004697414
 30
0.0
 10
148.6323251140734
 20
158.369004697414
 30
0.0
  0
SPLINE
  5
E4
330
70
100
AcDbEntity
  8
レイヤー 1
 62
    18
420
        0
370
    25
100
AcDbSpline
210
0.0
220
0.0
230
1.0
 70
    24
 71
     3
 72
     8
 73
     4
 74
     0
 42
0.0000000001
 43
0.0000000001
 40
0.0
 40
0.0
 40
0.0
 40
0.0
 40
1.0
 40
1.0
 40
1.0
 40
1.0
 10
145.2879986717672
 20
170.5186722223172
 30
0.0
 10
145.2879986717672
 20
170.5186722223172
 30
0.0
 10
143.8063276991016
 20
166.708676529639
 30
0.0
 10
143.8063276991016
 20
166.708676529639
 30
0.0
  0
SPLINE
  5
E5
330
70
100
AcDbEntity
  8
レイヤー 1
 62
    18
420
        0
370
    25
100
AcDbSpline
210
0.0
220
0.0
230
1.0
 70
    24
 71
     3
 72
     8
 73
     4
 74
     0
 42
0.0000000001
 43
0.0000000001
 40
0.0
 40
0.0
 40
0.0
 40
0.0
 40
1.0
 40
1.0
 40
1.0
 40
1.0
 10
147.3200021163547
 20
167.9363470717312
 30
0.0
 10
147.3200021163547
 20
167.9363470717312
 30
0.0
 10
145.9653259760141
 20
165.0153475030984
 30
0.0
 10
145.9653259760141
 20
165.0153475030984
 30
0.0
  0
SPLINE
  5
E6
330
70
100
AcDbEntity
  8
レイヤー 1
 62
    18
420
        0
370
    25
100
AcDbSpline
210
0.0
220
0.0
230
1.0
 70
    24
 71
     3
 72
     8
 73
     4
 74
     0
 42
0.0000000001
 43
0.0000000001
 40
0.0
 40
0.0
 40
0.0
 40
0.0
 40
1.0
 40
1.0
 40
1.0
 40
1.0
 10
148.9709995321203
 20
164.9306735156249
 30
0.0
 10
148.9709995321203
 20
164.9306735156249
 30
0.0
 10
147.2353281288813
 20
162.0943479344655
 30
0.0
 10
147.2353281288813
 20
162.0943479344655
 30
0.0
  0
SPLINE
  5
E7
330
70
100
AcDbEntity
  8
レイヤー 1
 62
    18
420
        0
370
    25
100
AcDbSpline
210
0.0
220
0.0
230
1.0
 70
    24
 71
     3
 72
     8
 73
     4
 74
     0
 42
0.0000000001
 43
0.0000000001
 40
0.0
 40
0.0
 40
0.0
 40
0.0
 40
1.0
 40
1.0
 40
1.0
 40
1.0
 10
146.3463320048359
 20
164.8883419048499
 30
0.0
 10
146.3463320048359
 20
164.8883419048499
 30
0.0
 10
150.5373229604125
 20
155.9136743791531
 30
0.0
 10
150.5373229604125
 20
155.9136743791531
 30
0.0
  0
SPLINE
  5
E8
330
70
100
AcDbEntity
  8
レイヤー 1
 62
    18
420
        0
370
    25
100
AcDbSpline
210
0.0
220
0.0
230
1.0
 70
    24
 71
     3
 72
     8
 73
     4
 74
     0
 42
0.0000000001
 43
0.0000000001
 40
0.0
 40
0.0
 40
0.0
 40
0.0
 40
1.0
 40
1.0
 40
1.0
 40
1.0
 10
150.1563276975141
 20
163.0256756692859
 30
0.0
 10
150.1563276975141
 20
163.0256756692859
 30
0.0
 10
148.8016623230969
 20
160.3586765312265
 30
0.0
 10
148.8016623230969
 20
160.3586765312265
 30
0.0
  0
SPLINE
  5
E9
330
70
100
AcDbEntity
  8
レイヤー 1
 62
    18
420
        0
370
    25
100
AcDbSpline
210
0.0
220
0.0
230
1.0
 70
    24
 71
     3
 72
     8
 73
     4
 74
     0
 42
0.0000000001
 43
0.0000000001
 40
0.0
 40
0.0
 40
0.0
 40
0.0
 40
1.0
 40
1.0
 40
1.0
 40
1.0
 10
150.8336657676843
 20
159.977681268328
 30
0.0
 10
150.8336657676843
 20
159.977681268328
 30
0.0
 10
149.6059952255922
 20
158.5806735172125
 30
0.0
 10
149.6059952255922
 20
158.5806735172125
 30
0.0
  0
SPLINE
  5
EA
330
70
100
AcDbEntity
  8
レイヤー 1
 62
    18
420
        0
370
    25
100
AcDbSpline
210
0.0
220
0.0
230
1.0
 70
    24
 71
     3
 72
     8
 73
     4
 74
     0
 42
0.0000000001
 43
0.0000000001
 40
0.0
 40
0.0
 40
0.0
 40
0.0
 40
1.0
 40
1.0
 40
1.0
 40
1.0
 10
151.6379986701797
 20
156.8873444906718
 30
0.0
 10
151.6379986701797
 20
156.8873444906718
 30
0.0
 10
150.5796653371109
 20
156.2100064205015
 30
0.0
 10
150.5796653371109
 20
156.2100064205015
 30
0.0
  0
LWPOLYLINE
  5
EB
330
70
100
AcDbEntity
  8
レイヤー 1
 62
    18
420
        0
370
    25
100
AcDbPolyline
 90
        4
 70
     0
 43
0.0
 10
150.5373337263359
 20
155.9136743791531
 10
151.8073358792031
 20
153.2890068518687
 10
152.7386743799468
 20
150.9606821318562
 10
152.9503324338219
 20
149.3520055609421
  0
SPLINE
  5
EC
330
70
100
AcDbEntity
  8
レイヤー 1
 62
    18
420
        0
370
    25
100
AcDbSpline
210
0.0
220
0.0
230
1.0
 70
    24
 71
     3
 72
     8
 73
     4
 74
     0
 42
0.0000000001
 43
0.0000000001
 40
0.0
 40
0.0
 40
0.0
 40
0.0
 40
1.0
 40
1.0
 40
1.0
 40
1.0
 10
153.0350064212953
 20
148.7170206333936
 30
0.0
 10
153.0350064212953
 20
148.7170206333936
 30
0.0
 10
152.6540003924734
 20
150.1563492293608
 30
0.0
 10
152.6540003924734
 20
150.1563492293608
 30
0.0
  0
SPLINE
  5
ED
330
70
100
AcDbEntity
  8
レイヤー 1
 62
    18
420
        0
370
    25
100
AcDbSpline
210
0.0
220
0.0
230
1.0
 70
    24
 71
     3
 72
     8
 73
     4
 74
     0
 42
0.0000000001
 43
0.0000000001
 40
0.0
 40
0.0
 40
0.0
 40
0.0
 40
1.0
 40
1.0
 40
1.0
 40
1.0
 10
153.3313384626437
 20
146.0076898845592
 30
0.0
 10
153.3313384626437
 20
146.0076898845592
 30
0.0
 10
152.7386743799468
 20
147.0236808409296
 30
0.0
 10
152.7386743799468
 20
147.0236808409296
 30
0.0
  0
SPLINE
  5
EE
330
70
100
AcDbEntity
  8
レイヤー 1
 62
    18
420
        0
370
    25
100
AcDbSpline
210
0.0
220
0.0
230
1.0
 70
    24
 71
     3
 72
     8
 73
     4
 74
     0
 42
0.0000000001
 43
0.0000000001
 40
0.0
 40
0.0
 40
0.0
 40
0.0
 40
1.0
 40
1.0
 40
1.0
 40
1.0
 10
152.6540003924734
 20
142.8750107302046
 30
0.0
 10
152.6540003924734
 20
142.8750107302046
 30
0.0
 10
152.6540003924734
 20
144.0603388955984
 30
0.0
 10
152.6540003924734
 20
144.0603388955984
 30
0.0
  0
LWPOLYLINE
  5
EF
330
70
100
AcDbEntity
  8
レイヤー 1
 62
    18
420
        0
370
    25
100
AcDbPolyline
 90
        3
 70
     0
 43
0.0
 10
151.4263298503813
 20
139.9963427723468
 10
151.3416666288312
 20
141.6896825648109
 10
150.6643285586609
 20
138.2183505242561
  0
SPLINE
  5
F0
330
70
100
AcDbEntity
  8
レイヤー 1
 62
    18
420
        0
370
    25
100
AcDbSpline
210
0.0
220
0.0
230
1.0
 70
    24
 71
     3
 72
     8
 73
     4
 74
     0
 42
0.0000000001
 43
0.0000000001
 40
0.0
 40
0.0
 40
0.0
 40
0.0
 40
1.0
 40
1.0
 40
1.0
 40
1.0
 10
150.3256541406141
 20
138.0913449260077
 30
0.0
 10
150.3256541406141
 20
138.0913449260077
 30
0.0
 10
149.4790003932672
 20
136.2286786904437
 30
0.0
 10
149.4790003932672
 20
136.2286786904437
 30
0.0
  0
SPLINE
  5
F1
330
70
100
AcDbEntity
  8
レイヤー 1
 62
    18
420
        0
370
    25
100
AcDbSpline
210
0.0
220
0.0
230
1.0
 70
    24
 71
     3
 72
     8
 73
     4
 74
     0
 42
0.0000000001
 43
0.0000000001
 40
0.0
 40
0.0
 40
0.0
 40
0.0
 40
1.0
 40
1.0
 40
1.0
 40
1.0
 10
149.0556627536703
 20
136.0170206365687
 30
0.0
 10
149.0556627536703
 20
136.0170206365687
 30
0.0
 10
148.166666629625
 20
133.9850171919811
 30
0.0
 10
148.166666629625
 20
133.9850171919811
 30
0.0
  0
SPLINE
  5
F2
330
70
100
AcDbEntity
  8
レイヤー 1
 62
    18
420
        0
370
    25
100
AcDbSpline
210
0.0
220
0.0
230
1.0
 70
    24
 71
     3
 72
     8
 73
     4
 74
     0
 42
0.0000000001
 43
0.0000000001
 40
0.0
 40
0.0
 40
0.0
 40
0.0
 40
1.0
 40
1.0
 40
1.0
 40
1.0
 10
147.7009973792531
 20
133.8156799829577
 30
0.0
 10
147.7009973792531
 20
133.8156799829577
 30
0.0
 10
146.473326837161
 20
131.9953453581687
 30
0.0
 10
146.473326837161
 20
131.9953453581687
 30
0.0
  0
LWPOLYLINE
  5
F3
330
70
100
AcDbEntity
  8
レイヤー 1
 62
    18
420
        0
370
    25
100
AcDbPolyline
 90
        4
 70
     0
 43
0.0
 10
145.8806627544641
 20
131.7413449275952
 10
144.6953345890703
 20
129.9633526795046
 10
143.3406692146531
 20
129.3706885968077
 10
142.4516730906077
 20
128.0160232223905
  0
SPLINE
  5
F4
330
70
100
AcDbEntity
  8
レイヤー 1
 62
    18
420
        0
370
    25
100
AcDbSpline
210
0.0
220
0.0
230
1.0
 70
    24
 71
     3
 72
     8
 73
     4
 74
     0
 42
0.0000000001
 43
0.0000000001
 40
0.0
 40
0.0
 40
0.0
 40
0.0
 40
1.0
 40
1.0
 40
1.0
 40
1.0
 10
108.9236700845312
 20
169.2486808353734
 30
0.0
 10
108.9236700845312
 20
169.2486808353734
 30
0.0
 10
106.002659749975
 20
130.9793436358749
 30
0.0
 10
106.002659749975
 20
130.9793436358749
 30
0.0
  0
SPLINE
  5
F5
330
70
100
AcDbEntity
  8
レイヤー 1
 62
    18
420
        0
370
    25
100
AcDbSpline
210
0.0
220
0.0
230
1.0
 70
    24
 71
     3
 72
     8
 73
     4
 74
     0
 42
0.0000000001
 43
0.0000000001
 40
0.0
 40
0.0
 40
0.0
 40
0.0
 40
1.0
 40
1.0
 40
1.0
 40
1.0
 10
113.0299978185578
 20
168.6560059867531
 30
0.0
 10
113.0299978185578
 20
168.6560059867531
 30
0.0
 10
106.7646610416953
 20
130.8946696484015
 30
0.0
 10
106.7646610416953
 20
130.8946696484015
 30
0.0
  0
SPLINE
  5
F6
330
70
100
AcDbEntity
  8
レイヤー 1
 62
    18
420
        0
370
    25
100
AcDbSpline
210
0.0
220
0.0
230
1.0
 70
    24
 71
     3
 72
     8
 73
     4
 74
     0
 42
0.0000000001
 43
0.0000000001
 40
0.0
 40
0.0
 40
0.0
 40
0.0
 40
1.0
 40
1.0
 40
1.0
 40
1.0
 10
116.8823358879343
 20
167.9363470717312
 30
0.0
 10
116.8823358879343
 20
167.9363470717312
 30
0.0
 10
107.4419991118656
 20
130.8100064268515
 30
0.0
 10
107.4419991118656
 20
130.8100064268515
 30
0.0
  0
SPLINE
  5
F7
330
70
100
AcDbEntity
  8
レイヤー 1
 62
    18
420
        0
370
    25
100
AcDbSpline
210
0.0
220
0.0
230
1.0
 70
    24
 71
     3
 72
     8
 73
     4
 74
     0
 42
0.0000000001
 43
0.0000000001
 40
0.0
 40
0.0
 40
0.0
 40
0.0
 40
1.0
 40
1.0
 40
1.0
 40
1.0
 10
120.7769948021625
 20
167.5130094321343
 30
0.0
 10
120.7769948021625
 20
167.5130094321343
 30
0.0
 10
107.8229943747641
 20
130.7676748160765
 30
0.0
 10
107.8229943747641
 20
130.7676748160765
 30
0.0
  0
SPLINE
  5
F8
330
70
100
AcDbEntity
  8
レイヤー 1
 62
    18
420
        0
370
    25
100
AcDbSpline
210
0.0
220
0.0
230
1.0
 70
    24
 71
     3
 72
     8
 73
     4
 74
     0
 42
0.0000000001
 43
0.0000000001
 40
0.0
 40
0.0
 40
0.0
 40
0.0
 40
1.0
 40
1.0
 40
1.0
 40
1.0
 10
124.7563277038641
 20
166.4970077098406
 30
0.0
 10
124.7563277038641
 20
166.4970077098406
 30
0.0
 10
108.2886636251359
 20
130.6830115945265
 30
0.0
 10
108.2886636251359
 20
130.6830115945265
 30
0.0
  0
SPLINE
  5
F9
330
70
100
AcDbEntity
  8
レイヤー 1
 62
    18
420
        0
370
    25
100
AcDbSpline
210
0.0
220
0.0
230
1.0
 70
    24
 71
     3
 72
     8
 73
     4
 74
     0
 42
0.0000000001
 43
0.0000000001
 40
0.0
 40
0.0
 40
0.0
 40
0.0
 40
1.0
 40
1.0
 40
1.0
 40
1.0
 10
128.5240025516906
 20
165.2693371677484
 30
0.0
 10
128.5240025516906
 20
165.2693371677484
 30
0.0
 10
108.7120012647328
 20
130.5983376070531
 30
0.0
 10
108.7120012647328
 20
130.5983376070531
 30
0.0
  0
SPLINE
  5
FA
330
70
100
AcDbEntity
  8
レイヤー 1
 62
    18
420
        0
370
    25
100
AcDbSpline
210
0.0
220
0.0
230
1.0
 70
    24
 71
     3
 72
     8
 73
     4
 74
     0
 42
0.0000000001
 43
0.0000000001
 40
0.0
 40
0.0
 40
0.0
 40
0.0
 40
1.0
 40
1.0
 40
1.0
 40
1.0
 10
132.0376662030203
 20
163.6183397519828
 30
0.0
 10
132.0376662030203
 20
163.6183397519828
 30
0.0
 10
109.2623337366547
 20
130.4713427747281
 30
0.0
 10
109.2623337366547
 20
130.4713427747281
 30
0.0
  0
SPLINE
  5
FB
330
70
100
AcDbEntity
  8
レイヤー 1
 62
    18
420
        0
370
    25
100
AcDbSpline
210
0.0
220
0.0
230
1.0
 70
    24
 71
     3
 72
     8
 73
     4
 74
     0
 42
0.0000000001
 43
0.0000000001
 40
0.0
 40
0.0
 40
0.0
 40
0.0
 40
1.0
 40
1.0
 40
1.0
 40
1.0
 10
135.3396610345516
 20
162.1366795452406
 30
0.0
 10
135.3396610345516
 20
162.1366795452406
 30
0.0
 10
109.8973294301266
 20
130.344347942403
 30
0.0
 10
109.8973294301266
 20
130.344347942403
 30
0.0
  0
SPLINE
  5
FC
330
70
100
AcDbEntity
  8
レイヤー 1
 62
    18
420
        0
370
    25
100
AcDbSpline
210
0.0
220
0.0
230
1.0
 70
    24
 71
     3
 72
     8
 73
     4
 74
     0
 42
0.0000000001
 43
0.0000000001
 40
0.0
 40
0.0
 40
0.0
 40
0.0
 40
1.0
 40
1.0
 40
1.0
 40
1.0
 10
138.6416666320062
 20
160.9936722246984
 30
0.0
 10
138.6416666320062
 20
160.9936722246984
 30
0.0
 10
110.4053302912734
 20
130.1750107333796
 30
0.0
 10
110.4053302912734
 20
130.1750107333796
 30
0.0
  0
SPLINE
  5
FD
330
70
100
AcDbEntity
  8
レイヤー 1
 62
    18
420
        0
370
    25
100
AcDbSpline
210
0.0
220
0.0
230
1.0
 70
    24
 71
     3
 72
     8
 73
     4
 74
     0
 42
0.0000000001
 43
0.0000000001
 40
0.0
 40
0.0
 40
0.0
 40
0.0
 40
1.0
 40
1.0
 40
1.0
 40
1.0
 10
141.562666200639
 20
159.1733375999093
 30
0.0
 10
141.562666200639
 20
159.1733375999093
 30
0.0
 10
110.7439939433969
 20
130.0903475118296
 30
0.0
 10
110.7439939433969
 20
130.0903475118296
 30
0.0
  0
SPLINE
  5
FE
330
70
100
AcDbEntity
  8
レイヤー 1
 62
    18
420
        0
370
    25
100
AcDbSpline
210
0.0
220
0.0
230
1.0
 70
    24
 71
     3
 72
     8
 73
     4
 74
     0
 42
0.0000000001
 43
0.0000000001
 40
0.0
 40
0.0
 40
0.0
 40
0.0
 40
1.0
 40
1.0
 40
1.0
 40
1.0
 10
144.3143285602484
 20
157.3953453518187
 30
0.0
 10
144.3143285602484
 20
157.3953453518187
 30
0.0
 10
111.2943264153188
 20
129.8786786920312
 30
0.0
 10
111.2943264153188
 20
129.8786786920312
 30
0.0
  0
SPLINE
  5
FF
330
70
100
AcDbEntity
  8
レイヤー 1
 62
    18
420
        0
370
    25
100
AcDbSpline
210
0.0
220
0.0
230
1.0
 70
    24
 71
     3
 72
     8
 73
     4
 74
     0
 42
0.0000000001
 43
0.0000000001
 40
0.0
 40
0.0
 40
0.0
 40
0.0
 40
1.0
 40
1.0
 40
1.0
 40
1.0
 10
146.0923315742625
 20
155.0246782551077
 30
0.0
 10
146.0923315742625
 20
155.0246782551077
 30
0.0
 10
111.7176640549156
 20
129.7093414830078
 30
0.0
 10
111.7176640549156
 20
129.7093414830078
 30
0.0
  0
SPLINE
  5
100
330
70
100
AcDbEntity
  8
レイヤー 1
 62
    18
420
        0
370
    25
100
AcDbSpline
210
0.0
220
0.0
230
1.0
 70
    24
 71
     3
 72
     8
 73
     4
 74
     0
 42
0.0000000001
 43
0.0000000001
 40
0.0
 40
0.0
 40
0.0
 40
0.0
 40
1.0
 40
1.0
 40
1.0
 40
1.0
 10
148.082003408075
 20
153.2043436303187
 30
0.0
 10
148.082003408075
 20
153.2043436303187
 30
0.0
 10
112.1410016945125
 20
129.5400042739843
 30
0.0
 10
112.1410016945125
 20
129.5400042739843
 30
0.0
  0
SPLINE
  5
101
330
70
100
AcDbEntity
  8
レイヤー 1
 62
    18
420
        0
370
    25
100
AcDbSpline
210
0.0
220
0.0
230
1.0
 70
    24
 71
     3
 72
     8
 73
     4
 74
     0
 42
0.0000000001
 43
0.0000000001
 40
0.0
 40
0.0
 40
0.0
 40
0.0
 40
1.0
 40
1.0
 40
1.0
 40
1.0
 10
149.6059952255922
 20
150.6220077138093
 30
0.0
 10
149.6059952255922
 20
150.6220077138093
 30
0.0
 10
112.4373337358609
 20
129.3706778308843
 30
0.0
 10
112.4373337358609
 20
129.3706778308843
 30
0.0
  0
SPLINE
  5
102
330
70
100
AcDbEntity
  8
レイヤー 1
 62
    18
420
        0
370
    25
100
AcDbSpline
210
0.0
220
0.0
230
1.0
 70
    24
 71
     3
 72
     8
 73
     4
 74
     0
 42
0.0000000001
 43
0.0000000001
 40
0.0
 40
0.0
 40
0.0
 40
0.0
 40
1.0
 40
1.0
 40
1.0
 40
1.0
 10
150.6643285586609
 20
148.2513406170984
 30
0.0
 10
150.6643285586609
 20
148.2513406170984
 30
0.0
 10
112.8183289987594
 20
129.1590090110859
 30
0.0
 10
112.8183289987594
 20
129.1590090110859
 30
0.0
  0
SPLINE
  5
103
330
70
100
AcDbEntity
  8
レイヤー 1
 62
    18
420
        0
370
    25
100
AcDbSpline
210
0.0
220
0.0
230
1.0
 70
    24
 71
     3
 72
     8
 73
     4
 74
     0
 42
0.0000000001
 43
0.0000000001
 40
0.0
 40
0.0
 40
0.0
 40
0.0
 40
1.0
 40
1.0
 40
1.0
 40
1.0
 10
151.0029922107844
 20
145.9230051311624
 30
0.0
 10
151.0029922107844
 20
145.9230051311624
 30
0.0
 10
113.3263298599062
 20
128.8626769697374
 30
0.0
 10
113.3263298599062
 20
128.8626769697374
 30
0.0
  0
SPLINE
  5
104
330
70
100
AcDbEntity
  8
レイヤー 1
 62
    18
420
        0
370
    25
100
AcDbSpline
210
0.0
220
0.0
230
1.0
 70
    24
 71
     3
 72
     8
 73
     4
 74
     0
 42
0.0000000001
 43
0.0000000001
 40
0.0
 40
0.0
 40
0.0
 40
0.0
 40
1.0
 40
1.0
 40
1.0
 40
1.0
 10
151.5956670594047
 20
143.5100064236765
 30
0.0
 10
151.5956670594047
 20
143.5100064236765
 30
0.0
 10
113.7073358887281
 20
128.566344928389
 30
0.0
 10
113.7073358887281
 20
128.566344928389
 30
0.0
  0
SPLINE
  5
105
330
70
100
AcDbEntity
  8
レイヤー 1
 62
    18
420
        0
370
    25
100
AcDbSpline
210
0.0
220
0.0
230
1.0
 70
    24
 71
     3
 72
     8
 73
     4
 74
     0
 42
0.0000000001
 43
0.0000000001
 40
0.0
 40
0.0
 40
0.0
 40
0.0
 40
1.0
 40
1.0
 40
1.0
 40
1.0
 10
151.3416666288312
 20
141.6896717988874
 30
0.0
 10
151.3416666288312
 20
141.6896717988874
 30
0.0
 10
114.1306627624016
 20
128.2276812762656
 30
0.0
 10
114.1306627624016
 20
128.2276812762656
 30
0.0
  0
SPLINE
  5
106
330
70
100
AcDbEntity
  8
レイヤー 1
 62
    18
420
        0
370
    25
100
AcDbSpline
210
0.0
220
0.0
230
1.0
 70
    24
 71
     3
 72
     8
 73
     4
 74
     0
 42
0.0000000001
 43
0.0000000001
 40
0.0
 40
0.0
 40
0.0
 40
0.0
 40
1.0
 40
1.0
 40
1.0
 40
1.0
 10
149.8599956561656
 20
138.3030137458062
 30
0.0
 10
149.8599956561656
 20
138.3030137458062
 30
0.0
 10
114.469326414525
 20
127.8890068582187
 30
0.0
 10
114.469326414525
 20
127.8890068582187
 30
0.0
  0
SPLINE
  5
107
330
70
100
AcDbEntity
  8
レイヤー 1
 62
    18
420
        0
370
    25
100
AcDbSpline
210
0.0
220
0.0
230
1.0
 70
    24
 71
     3
 72
     8
 73
     4
 74
     0
 42
0.0000000001
 43
0.0000000001
 40
0.0
 40
0.0
 40
0.0
 40
0.0
 40
1.0
 40
1.0
 40
1.0
 40
1.0
 10
148.4206670601984
 20
136.0170098706452
 30
0.0
 10
148.4206670601984
 20
136.0170098706452
 30
0.0
 10
114.6809952343234
 20
127.5926748168703
 30
0.0
 10
114.6809952343234
 20
127.5926748168703
 30
0.0
  0
SPLINE
  5
108
330
70
100
AcDbEntity
  8
レイヤー 1
 62
    18
420
        0
370
    25
100
AcDbSpline
210
0.0
220
0.0
230
1.0
 70
    24
 71
     3
 72
     8
 73
     4
 74
     0
 42
0.0000000001
 43
0.0000000001
 40
0.0
 40
0.0
 40
0.0
 40
0.0
 40
1.0
 40
1.0
 40
1.0
 40
1.0
 10
147.2776705055796
 20
134.0273488027562
 30
0.0
 10
147.2776705055796
 20
134.0273488027562
 30
0.0
 10
114.8926640541219
 20
127.2540111647468
 30
0.0
 10
114.8926640541219
 20
127.2540111647468
 30
0.0
  0
SPLINE
  5
109
330
70
100
AcDbEntity
  8
レイヤー 1
 62
    18
420
        0
370
    25
100
AcDbSpline
210
0.0
220
0.0
230
1.0
 70
    24
 71
     3
 72
     8
 73
     4
 74
     0
 42
0.0000000001
 43
0.0000000001
 40
0.0
 40
0.0
 40
0.0
 40
0.0
 40
1.0
 40
1.0
 40
1.0
 40
1.0
 10
145.6266623238906
 20
131.9953453581687
 30
0.0
 10
145.6266623238906
 20
131.9953453581687
 30
0.0
 10
115.1043328739203
 20
126.83067352515
 30
0.0
 10
115.1043328739203
 20
126.83067352515
 30
0.0
  0
SPLINE
  5
10A
330
70
100
AcDbEntity
  8
レイヤー 1
 62
    18
420
        0
370
    25
100
AcDbSpline
210
0.0
220
0.0
230
1.0
 70
    24
 71
     3
 72
     8
 73
     4
 74
     0
 42
0.0000000001
 43
0.0000000001
 40
0.0
 40
0.0
 40
0.0
 40
0.0
 40
1.0
 40
1.0
 40
1.0
 40
1.0
 10
143.1290003948547
 20
129.5823466506827
 30
0.0
 10
143.1290003948547
 20
129.5823466506827
 30
0.0
 10
115.2313277062453
 20
126.3226726640031
 30
0.0
 10
115.2313277062453
 20
126.3226726640031
 30
0.0
  0
SPLINE
  5
10B
330
70
100
AcDbEntity
  8
レイヤー 1
 62
    18
420
        0
370
    25
100
AcDbSpline
210
0.0
220
0.0
230
1.0
 70
    24
 71
     3
 72
     8
 73
     4
 74
     0
 42
0.0000000001
 43
0.0000000001
 40
0.0
 40
0.0
 40
0.0
 40
0.0
 40
1.0
 40
1.0
 40
1.0
 40
1.0
 10
140.8006649089188
 20
127.8890068582187
 30
0.0
 10
140.8006649089188
 20
127.8890068582187
 30
0.0
 10
115.2313277062453
 20
125.7723401920812
 30
0.0
 10
115.2313277062453
 20
125.7723401920812
 30
0.0
  0
SPLINE
  5
10C
330
70
100
AcDbEntity
  8
レイヤー 1
 62
    18
420
        0
370
    25
100
AcDbSpline
210
0.0
220
0.0
230
1.0
 70
    24
 71
     3
 72
     8
 73
     4
 74
     0
 42
0.0000000001
 43
0.0000000001
 40
0.0
 40
0.0
 40
0.0
 40
0.0
 40
1.0
 40
1.0
 40
1.0
 40
1.0
 10
138.0490025493093
 20
125.9416774011046
 30
0.0
 10
138.0490025493093
 20
125.9416774011046
 30
0.0
 10
114.9349956648969
 20
124.8833440680359
 30
0.0
 10
114.9349956648969
 20
124.8833440680359
 30
0.0
  0
SPLINE
  5
10D
330
70
100
AcDbEntity
  8
レイヤー 1
 62
    18
420
        0
370
    25
100
AcDbSpline
210
0.0
220
0.0
230
1.0
 70
    24
 71
     3
 72
     8
 73
     4
 74
     0
 42
0.0000000001
 43
0.0000000001
 40
0.0
 40
0.0
 40
0.0
 40
0.0
 40
1.0
 40
1.0
 40
1.0
 40
1.0
 10
134.5353281320562
 20
124.0790111655406
 30
0.0
 10
134.5353281320562
 20
124.0790111655406
 30
0.0
 10
114.5116687912234
 20
124.333011596114
 30
0.0
 10
114.5116687912234
 20
124.333011596114
 30
0.0
  0
SPLINE
  5
10E
330
70
100
AcDbEntity
  8
レイヤー 1
 62
    18
420
        0
370
    25
100
AcDbSpline
210
0.0
220
0.0
230
1.0
 70
    24
 71
     3
 72
     8
 73
     4
 74
     0
 42
0.0000000001
 43
0.0000000001
 40
0.0
 40
0.0
 40
0.0
 40
0.0
 40
1.0
 40
1.0
 40
1.0
 40
1.0
 10
131.6990025508968
 20
122.7243457911234
 30
0.0
 10
131.6990025508968
 20
122.7243457911234
 30
0.0
 10
113.8343307210531
 20
123.6980051367187
 30
0.0
 10
113.8343307210531
 20
123.6980051367187
 30
0.0
  0
SPLINE
  5
10F
330
70
100
AcDbEntity
  8
レイヤー 1
 62
    18
420
        0
370
    25
100
AcDbSpline
210
0.0
220
0.0
230
1.0
 70
    24
 71
     3
 72
     8
 73
     4
 74
     0
 42
0.0000000001
 43
0.0000000001
 40
0.0
 40
0.0
 40
0.0
 40
0.0
 40
1.0
 40
1.0
 40
1.0
 40
1.0
 10
128.3123337318922
 20
121.6660124580546
 30
0.0
 10
128.3123337318922
 20
121.6660124580546
 30
0.0
 10
113.2416666383562
 20
123.3170098738203
 30
0.0
 10
113.2416666383562
 20
123.3170098738203
 30
0.0
  0
SPLINE
  5
110
330
70
100
AcDbEntity
  8
レイヤー 1
 62
    18
420
        0
370
    25
100
AcDbSpline
210
0.0
220
0.0
230
1.0
 70
    24
 71
     3
 72
     8
 73
     4
 74
     0
 42
0.0000000001
 43
0.0000000001
 40
0.0
 40
0.0
 40
0.0
 40
0.0
 40
1.0
 40
1.0
 40
1.0
 40
1.0
 10
124.5023272732906
 20
120.2690154728624
 30
0.0
 10
124.5023272732906
 20
120.2690154728624
 30
0.0
 10
112.6066601789609
 20
122.9783462216968
 30
0.0
 10
112.6066601789609
 20
122.9783462216968
 30
0.0
  0
SPLINE
  5
111
330
70
100
AcDbEntity
  8
レイヤー 1
 62
    18
420
        0
370
    25
100
AcDbSpline
210
0.0
220
0.0
230
1.0
 70
    24
 71
     3
 72
     8
 73
     4
 74
     0
 42
0.0000000001
 43
0.0000000001
 40
0.0
 40
0.0
 40
0.0
 40
0.0
 40
1.0
 40
1.0
 40
1.0
 40
1.0
 10
121.1580008309844
 20
119.6763406242421
 30
0.0
 10
121.1580008309844
 20
119.6763406242421
 30
0.0
 10
111.6753324441406
 20
122.597340192875
 30
0.0
 10
111.6753324441406
 20
122.597340192875
 30
0.0
  0
SPLINE
  5
112
330
70
100
AcDbEntity
  8
レイヤー 1
 62
    18
420
        0
370
    25
100
AcDbSpline
210
0.0
220
0.0
230
1.0
 70
    24
 71
     3
 72
     8
 73
     4
 74
     0
 42
0.0000000001
 43
0.0000000001
 40
0.0
 40
0.0
 40
0.0
 40
0.0
 40
1.0
 40
1.0
 40
1.0
 40
1.0
 10
117.6019948029563
 20
119.2106821397937
 30
0.0
 10
117.6019948029563
 20
119.2106821397937
 30
0.0
 10
110.4899935128234
 20
122.2163449299765
 30
0.0
 10
110.4899935128234
 20
122.2163449299765
 30
0.0
  0
SPLINE
  5
113
330
70
100
AcDbEntity
  8
レイヤー 1
 62
    18
420
        0
370
    25
100
AcDbSpline
210
0.0
220
0.0
230
1.0
 70
    24
 71
     3
 72
     8
 73
     4
 74
     0
 42
0.0000000001
 43
0.0000000001
 40
0.0
 40
0.0
 40
0.0
 40
0.0
 40
1.0
 40
1.0
 40
1.0
 40
1.0
 10
114.7656692217968
 20
118.9143393325218
 30
0.0
 10
114.7656692217968
 20
118.9143393325218
 30
0.0
 10
109.1776597491813
 20
121.9200128886281
 30
0.0
 10
109.1776597491813
 20
121.9200128886281
 30
0.0
  0
SPLINE
  5
114
330
70
100
AcDbEntity
  8
レイヤー 1
 62
    18
420
        0
370
    25
100
AcDbSpline
210
0.0
220
0.0
230
1.0
 70
    24
 71
     3
 72
     8
 73
     4
 74
     0
 42
0.0000000001
 43
0.0000000001
 40
0.0
 40
0.0
 40
0.0
 40
0.0
 40
1.0
 40
1.0
 40
1.0
 40
1.0
 10
110.9556627631953
 20
119.1260081523203
 30
0.0
 10
110.9556627631953
 20
119.1260081523203
 30
0.0
 10
107.9076683622375
 20
121.7083440688296
 30
0.0
 10
107.9076683622375
 20
121.7083440688296
 30
0.0
  0
SPLINE
  5
115
330
70
100
AcDbEntity
  8
レイヤー 1
 62
    18
420
        0
370
    25
100
AcDbSpline
210
0.0
220
0.0
230
1.0
 70
    24
 71
     3
 72
     8
 73
     4
 74
     0
 42
0.0000000001
 43
0.0000000001
 40
0.0
 40
0.0
 40
0.0
 40
0.0
 40
1.0
 40
1.0
 40
1.0
 40
1.0
 10
108.7543328755078
 20
117.0516730969578
 30
0.0
 10
108.7543328755078
 20
117.0516730969578
 30
0.0
 10
106.8070034183937
 20
121.6236808472796
 30
0.0
 10
106.8070034183937
 20
121.6236808472796
 30
0.0
  0
SPLINE
  5
116
330
70
100
AcDbEntity
  8
レイヤー 1
 62
    18
420
        0
370
    25
100
AcDbSpline
210
0.0
220
0.0
230
1.0
 70
    24
 71
     3
 72
     8
 73
     4
 74
     0
 42
0.0000000001
 43
0.0000000001
 40
0.0
 40
0.0
 40
0.0
 40
0.0
 40
1.0
 40
1.0
 40
1.0
 40
1.0
 10
106.8070034183937
 20
118.7450128894218
 30
0.0
 10
106.8070034183937
 20
118.7450128894218
 30
0.0
 10
105.87566491765
 20
121.6236808472796
 30
0.0
 10
105.87566491765
 20
121.6236808472796
 30
0.0
  0
SPLINE
  5
117
330
70
100
AcDbEntity
  8
レイヤー 1
 62
    18
420
        0
370
    25
100
AcDbSpline
210
0.0
220
0.0
230
1.0
 70
    24
 71
     3
 72
     8
 73
     4
 74
     0
 42
0.0000000001
 43
0.0000000001
 40
0.0
 40
0.0
 40
0.0
 40
0.0
 40
1.0
 40
1.0
 40
1.0
 40
1.0
 10
105.1983268474797
 20
131.02167524665
 30
0.0
 10
105.1983268474797
 20
131.02167524665
 30
0.0
 10
105.1983268474797
 20
170.0106713611703
 30
0.0
 10
105.1983268474797
 20
170.0106713611703
 30
0.0
  0
SPLINE
  5
118
330
70
100
AcDbEntity
  8
レイヤー 1
 62
    18
420
        0
370
    25
100
AcDbSpline
210
0.0
220
0.0
230
1.0
 70
    24
 71
     3
 72
     8
 73
     4
 74
     0
 42
0.0000000001
 43
0.0000000001
 40
0.0
 40
0.0
 40
0.0
 40
0.0
 40
1.0
 40
1.0
 40
1.0
 40
1.0
 10
105.1983268474797
 20
116.8823466538577
 30
0.0
 10
105.1983268474797
 20
116.8823466538577
 30
0.0
 10
105.2830008349531
 20
121.6236808472796
 30
0.0
 10
105.2830008349531
 20
121.6236808472796
 30
0.0
  0
LWPOLYLINE
  5
119
330
70
100
AcDbEntity
  8
レイヤー 1
 62
    18
420
        0
370
    25
100
AcDbPolyline
 90
       38
 70
     0
 43
0.0
 10
105.1983376134031
 20
170.0106821270937
 10
103.2086657795906
 20
173.8206778197718
 10
101.4729943763516
 20
169.2486808353734
 10
99.10232727964066
 20
173.5666773891984
 10
97.36666664232501
 20
168.6560059867531
 10
94.86899394736566
 20
173.1856821262999
 10
93.51432857294845
 20
167.9363470717312
 10
91.05899825468751
 20
172.7623444867031
 10
89.5773326649836
 20
167.5130094321343
 10
86.7833333116375
 20
171.7886743751843
 10
85.64033675701875
 20
166.4970077098406
 10
82.76166879916093
 20
170.4763406115421
 10
81.87266729215391
 20
165.2693479336718
 10
78.9939993342961
 20
168.9523487940249
 10
78.3166666470875
 20
163.6183397519828
 10
75.60733589825311
 20
167.5553410429093
 10
75.01466643259454
 20
162.1366795452406
 10
72.13600385769843
 20
165.9890068486937
 10
71.71267160106326
 20
160.9936722246984
 10
69.1726672953289
 20
164.9730051264
 10
68.83400364320547
 20
159.1733483658327
 10
66.04000428985935
 20
162.7293436279374
 10
66.04000428985935
 20
157.3953453518187
 10
63.79633740843514
 20
160.8243457815984
 10
64.30433826958202
 20
155.0246782551077
 10
61.72200235307265
 20
158.3690154633374
 10
62.31466643576954
 20
153.2043436303187
 10
59.85933611750859
 20
155.9136743791531
 10
60.79066923529062
 20
150.6220077138093
 10
58.58933396464141
 20
153.2890068518687
 10
59.73233590222187
 20
148.2513406170984
 10
57.61566923608437
 20
150.9606821318562
 10
59.35133525636171
 20
145.9230051311624
 10
57.36166880551093
 20
148.7170098674702
 10
58.80100278443983
 20
143.5100064236765
 10
57.06533676416249
 20
146.0076791186359
 10
59.01267160423826
 20
141.6896717988874
 10
57.74266945137108
 20
142.8750107302046
  0
LWPOLYLINE
  5
11A
330
70
100
AcDbEntity
  8
レイヤー 1
 62
    18
420
        0
370
    25
100
AcDbPolyline
 90
       25
 70
     0
 43
0.0
 10
65.7013352547742
 20
129.9633526795046
 10
67.22533245525314
 20
129.5823466506827
 10
67.94499675323674
 20
128.0160124564671
 10
69.59599955196407
 20
127.8890176241421
 10
70.56966428052111
 20
126.1956778316781
 10
72.34766729453515
 20
125.9416774011046
 10
73.57533245366564
 20
124.0790111655406
 10
75.86133094586486
 20
124.0790111655406
 10
76.41166341778674
 20
122.9783462216968
 10
78.65533029921095
 20
122.7243457911234
 10
79.7136636322797
 20
121.4966860149546
 10
82.04199911821563
 20
121.6660124580546
 10
83.73533352771797
 20
119.972683431514
 10
85.89433180463048
 20
120.2690154728624
 10
86.91033352692421
 20
119.1683505290187
 10
89.19633201912345
 20
119.6763513901655
 10
90.46633417199062
 20
118.4063492372984
 10
92.79465889200315
 20
119.2106821397937
 10
93.8106606142969
 20
117.8983483761515
 10
95.63099523908595
 20
118.9143500984452
 10
97.53599308542504
 20
117.0940154736562
 10
99.44099093176411
 20
119.1260189182437
 10
101.642331585375
 20
117.0516838628812
 10
103.5896610424891
 20
118.7450128894218
 10
105.1983268474797
 20
116.8823466538577
  0
LWPOLYLINE
  5
11B
330
70
100
AcDbEntity
  8
レイヤー 1
 62
    18
420
        0
370
    25
100
AcDbPolyline
 90
       10
 70
     0
 43
0.0
 10
57.74266945137108
 20
142.875021496128
 10
59.73233590222187
 20
138.2183505242561
 10
60.53666880471718
 20
138.3030137458062
 10
60.87533245684063
 20
136.2286786904437
 10
61.93366578990938
 20
136.1863470796687
 10
62.22999783125782
 20
133.9850171919811
 10
63.07666772748984
 20
134.0273488027562
 10
63.88100062998516
 20
131.9953453581687
 10
64.77000213699217
 20
131.9953453581687
 10
65.7013352547742
 20
129.9633526795046
  0
LWPOLYLINE
  5
11C
330
70
100
AcDbEntity
  8
レイヤー 1
 62
    18
420
        0
370
    25
100
AcDbPolyline
 90
       38
 70
     0
 43
0.0
 10
103.462666210164
 20
187.1556735100687
 10
101.8963320159484
 20
184.3193263970625
 10
99.94899179291097
 20
187.0709887566719
 10
98.08632555734691
 20
184.2346631755125
 10
96.47765975235628
 20
186.8169990920219
 10
94.36099308621878
 20
184.0230051216375
 10
92.28665803085629
 20
186.18200339855
 10
89.87366470633205
 20
183.0916666208937
 10
88.8999945948133
 20
185.6316709266281
 10
86.0636636306922
 20
182.033333287825
 10
85.42866255425861
 20
184.6156692043344
 10
82.67700019464923
 20
180.8903367332062
 10
82.25366255505235
 20
183.5573358712656
 10
79.16333116035783
 20
179.8743350109125
 10
79.16333116035783
 20
181.8216537021032
 10
75.90366255663986
 20
178.3080008166969
 10
75.90366255663986
 20
180.4669990936094
 10
72.94033137723204
 20
176.8686722207297
 10
72.94033137723204
 20
178.7736700670687
 10
70.01933180859923
 20
174.5826683455687
 10
70.35799546072268
 20
176.8263298440313
 10
67.30999567680314
 20
172.9740025405781
 10
67.30999567680314
 20
174.6673315671188
 10
65.06633417834063
 20
170.5186722223172
 10
65.06633417834063
 20
172.0003324290594
 10
63.07666234452814
 20
167.9363363058078
 10
62.65333008789298
 20
168.6560059867531
 10
61.42566492876251
 20
164.9306735156249
 10
61.42566492876251
 20
165.8620012504453
 10
60.19799438667034
 20
163.0256649033625
 10
60.19799438667034
 20
163.9993350148812
 10
59.56299869319845
 20
159.9776705024047
 10
59.18199804733829
 20
160.908998237225
 10
58.75866040774144
 20
156.8873337247484
 10
58.33533353406797
 20
156.9296653355234
 10
57.95433288820781
 20
153.2043328643953
 10
57.48866363783595
 20
153.2466644751703
 10
57.44633202706094
 20
149.3520055609421
  0
SPLINE
  5
11D
330
70
100
AcDbEntity
  8
レイヤー 1
 62
    18
420
        0
370
    25
100
AcDbSpline
210
0.0
220
0.0
230
1.0
 70
    24
 71
     3
 72
     8
 73
     4
 74
     0
 42
0.0000000001
 43
0.0000000001
 40
0.0
 40
0.0
 40
0.0
 40
0.0
 40
1.0
 40
1.0
 40
1.0
 40
1.0
 10
101.8963320159484
 20
184.3193479289093
 30
0.0
 10
101.8963320159484
 20
184.3193479289093
 30
0.0
 10
101.8963320159484
 20
175.6833440553359
 30
0.0
 10
101.8963320159484
 20
175.6833440553359
 30
0.0
  0
SPLINE
  5
11E
330
70
100
AcDbEntity
  8
レイヤー 1
 62
    18
420
        0
370
    25
100
AcDbSpline
210
0.0
220
0.0
230
1.0
 70
    24
 71
     3
 72
     8
 73
     4
 74
     0
 42
0.0000000001
 43
0.0000000001
 40
0.0
 40
0.0
 40
0.0
 40
0.0
 40
1.0
 40
1.0
 40
1.0
 40
1.0
 10
103.4203238334656
 20
181.7370120123999
 30
0.0
 10
103.4203238334656
 20
181.7370120123999
 30
0.0
 10
103.2086550136672
 20
173.8206778197718
 30
0.0
 10
103.2086550136672
 20
173.8206778197718
 30
0.0
  0
SPLINE
  5
11F
330
70
100
AcDbEntity
  8
レイヤー 1
 62
    18
420
        0
370
    25
100
AcDbSpline
210
0.0
220
0.0
230
1.0
 70
    24
 71
     3
 72
     8
 73
     4
 74
     0
 42
0.0000000001
 43
0.0000000001
 40
0.0
 40
0.0
 40
0.0
 40
0.0
 40
1.0
 40
1.0
 40
1.0
 40
1.0
 10
99.10232727964066
 20
173.5666773891984
 30
0.0
 10
99.10232727964066
 20
173.5666773891984
 30
0.0
 10
100.1606606127094
 20
181.5253324266781
 30
0.0
 10
100.1606606127094
 20
181.5253324266781
 30
0.0
  0
SPLINE
  5
120
330
70
100
AcDbEntity
  8
レイヤー 1
 62
    18
420
        0
370
    25
100
AcDbSpline
210
0.0
220
0.0
230
1.0
 70
    24
 71
     3
 72
     8
 73
     4
 74
     0
 42
0.0000000001
 43
0.0000000001
 40
0.0
 40
0.0
 40
0.0
 40
0.0
 40
1.0
 40
1.0
 40
1.0
 40
1.0
 10
98.08632555734691
 20
184.2346631755125
 30
0.0
 10
98.08632555734691
 20
184.2346631755125
 30
0.0
 10
98.08632555734691
 20
176.4453453470562
 30
0.0
 10
98.08632555734691
 20
176.4453453470562
 30
0.0
  0
SPLINE
  5
121
330
70
100
AcDbEntity
  8
レイヤー 1
 62
    18
420
        0
370
    25
100
AcDbSpline
210
0.0
220
0.0
230
1.0
 70
    24
 71
     3
 72
     8
 73
     4
 74
     0
 42
0.0000000001
 43
0.0000000001
 40
0.0
 40
0.0
 40
0.0
 40
0.0
 40
1.0
 40
1.0
 40
1.0
 40
1.0
 10
96.73166018292972
 20
181.4830008159031
 30
0.0
 10
96.73166018292972
 20
181.4830008159031
 30
0.0
 10
94.86899394736566
 20
173.1856713603765
 30
0.0
 10
94.86899394736566
 20
173.1856713603765
 30
0.0
  0
SPLINE
  5
122
330
70
100
AcDbEntity
  8
レイヤー 1
 62
    18
420
        0
370
    25
100
AcDbSpline
210
0.0
220
0.0
230
1.0
 70
    24
 71
     3
 72
     8
 73
     4
 74
     0
 42
0.0000000001
 43
0.0000000001
 40
0.0
 40
0.0
 40
0.0
 40
0.0
 40
1.0
 40
1.0
 40
1.0
 40
1.0
 10
94.82666233659065
 20
176.5723401793812
 30
0.0
 10
94.82666233659065
 20
176.5723401793812
 30
0.0
 10
94.36099308621878
 20
184.0230051216375
 30
0.0
 10
94.36099308621878
 20
184.0230051216375
 30
0.0
  0
SPLINE
  5
123
330
70
100
AcDbEntity
  8
レイヤー 1
 62
    18
420
        0
370
    25
100
AcDbSpline
210
0.0
220
0.0
230
1.0
 70
    24
 71
     3
 72
     8
 73
     4
 74
     0
 42
0.0000000001
 43
0.0000000001
 40
0.0
 40
0.0
 40
0.0
 40
0.0
 40
1.0
 40
1.0
 40
1.0
 40
1.0
 10
92.96399610102659
 20
180.9326683439812
 30
0.0
 10
92.96399610102659
 20
180.9326683439812
 30
0.0
 10
91.05899825468751
 20
172.7623444867031
 30
0.0
 10
91.05899825468751
 20
172.7623444867031
 30
0.0
  0
SPLINE
  5
124
330
70
100
AcDbEntity
  8
レイヤー 1
 62
    18
420
        0
370
    25
100
AcDbSpline
210
0.0
220
0.0
230
1.0
 70
    24
 71
     3
 72
     8
 73
     4
 74
     0
 42
0.0000000001
 43
0.0000000001
 40
0.0
 40
0.0
 40
0.0
 40
0.0
 40
1.0
 40
1.0
 40
1.0
 40
1.0
 10
90.88966104566408
 20
176.4876769578312
 30
0.0
 10
90.88966104566408
 20
176.4876769578312
 30
0.0
 10
89.87366470633205
 20
183.0916666208937
 30
0.0
 10
89.87366470633205
 20
183.0916666208937
 30
0.0
  0
SPLINE
  5
125
330
70
100
AcDbEntity
  8
レイヤー 1
 62
    18
420
        0
370
    25
100
AcDbSpline
210
0.0
220
0.0
230
1.0
 70
    24
 71
     3
 72
     8
 73
     4
 74
     0
 42
0.0000000001
 43
0.0000000001
 40
0.0
 40
0.0
 40
0.0
 40
0.0
 40
1.0
 40
1.0
 40
1.0
 40
1.0
 10
89.28099524067347
 20
179.6626769570374
 30
0.0
 10
89.28099524067347
 20
179.6626769570374
 30
0.0
 10
86.7833279286758
 20
171.7886743751843
 30
0.0
 10
86.7833279286758
 20
171.7886743751843
 30
0.0
  0
SPLINE
  5
126
330
70
100
AcDbEntity
  8
レイヤー 1
 62
    18
420
        0
370
    25
100
AcDbSpline
210
0.0
220
0.0
230
1.0
 70
    24
 71
     3
 72
     8
 73
     4
 74
     0
 42
0.0000000001
 43
0.0000000001
 40
0.0
 40
0.0
 40
0.0
 40
0.0
 40
1.0
 40
1.0
 40
1.0
 40
1.0
 10
87.16432857453595
 20
175.8950128751343
 30
0.0
 10
87.16432857453595
 20
175.8950128751343
 30
0.0
 10
86.0636636306922
 20
182.033333287825
 30
0.0
 10
86.0636636306922
 20
182.033333287825
 30
0.0
  0
SPLINE
  5
127
330
70
100
AcDbEntity
  8
レイヤー 1
 62
    18
420
        0
370
    25
100
AcDbSpline
210
0.0
220
0.0
230
1.0
 70
    24
 71
     3
 72
     8
 73
     4
 74
     0
 42
0.0000000001
 43
0.0000000001
 40
0.0
 40
0.0
 40
0.0
 40
0.0
 40
1.0
 40
1.0
 40
1.0
 40
1.0
 10
85.64033137405704
 20
178.6466752347437
 30
0.0
 10
85.64033137405704
 20
178.6466752347437
 30
0.0
 10
82.76166341619925
 20
170.4763406115421
 30
0.0
 10
82.76166341619925
 20
170.4763406115421
 30
0.0
  0
SPLINE
  5
128
330
70
100
AcDbEntity
  8
レイヤー 1
 62
    18
420
        0
370
    25
100
AcDbSpline
210
0.0
220
0.0
230
1.0
 70
    24
 71
     3
 72
     8
 73
     4
 74
     0
 42
0.0000000001
 43
0.0000000001
 40
0.0
 40
0.0
 40
0.0
 40
0.0
 40
1.0
 40
1.0
 40
1.0
 40
1.0
 10
83.65066492320627
 20
175.5563384570875
 30
0.0
 10
83.65066492320627
 20
175.5563384570875
 30
0.0
 10
82.67699481168753
 20
180.8903367332062
 30
0.0
 10
82.67699481168753
 20
180.8903367332062
 30
0.0
  0
SPLINE
  5
129
330
70
100
AcDbEntity
  8
レイヤー 1
 62
    18
420
        0
370
    25
100
AcDbSpline
210
0.0
220
0.0
230
1.0
 70
    24
 71
     3
 72
     8
 73
     4
 74
     0
 42
0.0000000001
 43
0.0000000001
 40
0.0
 40
0.0
 40
0.0
 40
0.0
 40
1.0
 40
1.0
 40
1.0
 40
1.0
 10
82.46533137485078
 20
178.3080115826203
 30
0.0
 10
82.46533137485078
 20
178.3080115826203
 30
0.0
 10
78.9939993342961
 20
168.9523380281015
 30
0.0
 10
78.9939993342961
 20
168.9523380281015
 30
0.0
  0
SPLINE
  5
12A
330
70
100
AcDbEntity
  8
レイヤー 1
 62
    18
420
        0
370
    25
100
AcDbSpline
210
0.0
220
0.0
230
1.0
 70
    24
 71
     3
 72
     8
 73
     4
 74
     0
 42
0.0000000001
 43
0.0000000001
 40
0.0
 40
0.0
 40
0.0
 40
0.0
 40
1.0
 40
1.0
 40
1.0
 40
1.0
 10
80.39099631948829
 20
174.0746782503453
 30
0.0
 10
80.39099631948829
 20
174.0746782503453
 30
0.0
 10
79.16333116035783
 20
179.8743457768359
 30
0.0
 10
79.16333116035783
 20
179.8743457768359
 30
0.0
  0
SPLINE
  5
12B
330
70
100
AcDbEntity
  8
レイヤー 1
 62
    18
420
        0
370
    25
100
AcDbSpline
210
0.0
220
0.0
230
1.0
 70
    24
 71
     3
 72
     8
 73
     4
 74
     0
 42
0.0000000001
 43
0.0000000001
 40
0.0
 40
0.0
 40
0.0
 40
0.0
 40
1.0
 40
1.0
 40
1.0
 40
1.0
 10
79.45966320170626
 20
177.2073466387765
 30
0.0
 10
79.45966320170626
 20
177.2073466387765
 30
0.0
 10
75.60733051529142
 20
167.5553410429093
 30
0.0
 10
75.60733051529142
 20
167.5553410429093
 30
0.0
  0
SPLINE
  5
12C
330
70
100
AcDbEntity
  8
レイヤー 1
 62
    18
420
        0
370
    25
100
AcDbSpline
210
0.0
220
0.0
230
1.0
 70
    24
 71
     3
 72
     8
 73
     4
 74
     0
 42
0.0000000001
 43
0.0000000001
 40
0.0
 40
0.0
 40
0.0
 40
0.0
 40
1.0
 40
1.0
 40
1.0
 40
1.0
 10
75.90366255663986
 20
178.3080115826203
 30
0.0
 10
75.90366255663986
 20
178.3080115826203
 30
0.0
 10
77.55466535536719
 20
172.3813384578812
 30
0.0
 10
77.55466535536719
 20
172.3813384578812
 30
0.0
  0
SPLINE
  5
12D
330
70
100
AcDbEntity
  8
レイヤー 1
 62
    18
420
        0
370
    25
100
AcDbSpline
210
0.0
220
0.0
230
1.0
 70
    24
 71
     3
 72
     8
 73
     4
 74
     0
 42
0.0000000001
 43
0.0000000001
 40
0.0
 40
0.0
 40
0.0
 40
0.0
 40
1.0
 40
1.0
 40
1.0
 40
1.0
 10
72.94033137723204
 20
176.8686722207297
 30
0.0
 10
72.94033137723204
 20
176.8686722207297
 30
0.0
 10
74.42199696693595
 20
171.5770055553859
 30
0.0
 10
74.42199696693595
 20
171.5770055553859
 30
0.0
  0
SPLINE
  5
12E
330
70
100
AcDbEntity
  8
レイヤー 1
 62
    18
420
        0
370
    25
100
AcDbSpline
210
0.0
220
0.0
230
1.0
 70
    24
 71
     3
 72
     8
 73
     4
 74
     0
 42
0.0000000001
 43
0.0000000001
 40
0.0
 40
0.0
 40
0.0
 40
0.0
 40
1.0
 40
1.0
 40
1.0
 40
1.0
 10
76.41166341778674
 20
175.4716752355375
 30
0.0
 10
76.41166341778674
 20
175.4716752355375
 30
0.0
 10
72.13599309177503
 20
165.9890068486937
 30
0.0
 10
72.13599309177503
 20
165.9890068486937
 30
0.0
  0
SPLINE
  5
12F
330
70
100
AcDbEntity
  8
レイヤー 1
 62
    18
420
        0
370
    25
100
AcDbSpline
210
0.0
220
0.0
230
1.0
 70
    24
 71
     3
 72
     8
 73
     4
 74
     0
 42
0.0000000001
 43
0.0000000001
 40
0.0
 40
0.0
 40
0.0
 40
0.0
 40
1.0
 40
1.0
 40
1.0
 40
1.0
 10
73.2789950293555
 20
173.6936722215234
 30
0.0
 10
73.2789950293555
 20
173.6936722215234
 30
0.0
 10
69.17266191236722
 20
164.9730051264
 30
0.0
 10
69.17266191236722
 20
164.9730051264
 30
0.0
  0
SPLINE
  5
130
330
70
100
AcDbEntity
  8
レイヤー 1
 62
    18
420
        0
370
    25
100
AcDbSpline
210
0.0
220
0.0
230
1.0
 70
    24
 71
     3
 72
     8
 73
     4
 74
     0
 42
0.0000000001
 43
0.0000000001
 40
0.0
 40
0.0
 40
0.0
 40
0.0
 40
1.0
 40
1.0
 40
1.0
 40
1.0
 10
70.01932642563753
 20
174.5826791114921
 30
0.0
 10
70.01932642563753
 20
174.5826791114921
 30
0.0
 10
71.54332900907815
 20
170.4340090007671
 30
0.0
 10
71.54332900907815
 20
170.4340090007671
 30
0.0
  0
SPLINE
  5
131
330
70
100
AcDbEntity
  8
レイヤー 1
 62
    18
420
        0
370
    25
100
AcDbSpline
210
0.0
220
0.0
230
1.0
 70
    24
 71
     3
 72
     8
 73
     4
 74
     0
 42
0.0000000001
 43
0.0000000001
 40
0.0
 40
0.0
 40
0.0
 40
0.0
 40
1.0
 40
1.0
 40
1.0
 40
1.0
 10
70.78132771735784
 20
171.8310059859593
 30
0.0
 10
70.78132771735784
 20
171.8310059859593
 30
0.0
 10
66.03999352393596
 20
162.433011586589
 30
0.0
 10
66.03999352393596
 20
162.433011586589
 30
0.0
  0
SPLINE
  5
132
330
70
100
AcDbEntity
  8
レイヤー 1
 62
    18
420
        0
370
    25
100
AcDbSpline
210
0.0
220
0.0
230
1.0
 70
    24
 71
     3
 72
     8
 73
     4
 74
     0
 42
0.0000000001
 43
0.0000000001
 40
0.0
 40
0.0
 40
0.0
 40
0.0
 40
1.0
 40
1.0
 40
1.0
 40
1.0
 10
67.30999567680314
 20
172.9740133065015
 30
0.0
 10
67.30999567680314
 20
172.9740133065015
 30
0.0
 10
68.87632987101877
 20
168.6560059867531
 30
0.0
 10
68.87632987101877
 20
168.6560059867531
 30
0.0
  0
SPLINE
  5
133
330
70
100
AcDbEntity
  8
レイヤー 1
 62
    18
420
        0
370
    25
100
AcDbSpline
210
0.0
220
0.0
230
1.0
 70
    24
 71
     3
 72
     8
 73
     4
 74
     0
 42
0.0000000001
 43
0.0000000001
 40
0.0
 40
0.0
 40
0.0
 40
0.0
 40
1.0
 40
1.0
 40
1.0
 40
1.0
 10
68.15666557303517
 20
169.5026812659468
 30
0.0
 10
68.15666557303517
 20
169.5026812659468
 30
0.0
 10
63.79633202547345
 20
160.3586765312265
 30
0.0
 10
63.79633202547345
 20
160.3586765312265
 30
0.0
  0
SPLINE
  5
134
330
70
100
AcDbEntity
  8
レイヤー 1
 62
    18
420
        0
370
    25
100
AcDbSpline
210
0.0
220
0.0
230
1.0
 70
    24
 71
     3
 72
     8
 73
     4
 74
     0
 42
0.0000000001
 43
0.0000000001
 40
0.0
 40
0.0
 40
0.0
 40
0.0
 40
1.0
 40
1.0
 40
1.0
 40
1.0
 10
65.99766729612266
 20
167.3860145998093
 30
0.0
 10
65.99766729612266
 20
167.3860145998093
 30
0.0
 10
61.72199697011095
 20
158.369004697414
 30
0.0
 10
61.72199697011095
 20
158.369004697414
 30
0.0
  0
SPLINE
  5
135
330
70
100
AcDbEntity
  8
レイヤー 1
 62
    18
420
        0
370
    25
100
AcDbSpline
210
0.0
220
0.0
230
1.0
 70
    24
 71
     3
 72
     8
 73
     4
 74
     0
 42
0.0000000001
 43
0.0000000001
 40
0.0
 40
0.0
 40
0.0
 40
0.0
 40
1.0
 40
1.0
 40
1.0
 40
1.0
 10
65.06632879537892
 20
170.5186722223172
 30
0.0
 10
65.06632879537892
 20
170.5186722223172
 30
0.0
 10
66.54799438508284
 20
166.708676529639
 30
0.0
 10
66.54799438508284
 20
166.708676529639
 30
0.0
  0
SPLINE
  5
136
330
70
100
AcDbEntity
  8
レイヤー 1
 62
    18
420
        0
370
    25
100
AcDbSpline
210
0.0
220
0.0
230
1.0
 70
    24
 71
     3
 72
     8
 73
     4
 74
     0
 42
0.0000000001
 43
0.0000000001
 40
0.0
 40
0.0
 40
0.0
 40
0.0
 40
1.0
 40
1.0
 40
1.0
 40
1.0
 10
63.07666234452814
 20
167.9363470717312
 30
0.0
 10
63.07666234452814
 20
167.9363470717312
 30
0.0
 10
64.43132771894534
 20
165.0153475030984
 30
0.0
 10
64.43132771894534
 20
165.0153475030984
 30
0.0
  0
SPLINE
  5
137
330
70
100
AcDbEntity
  8
レイヤー 1
 62
    18
420
        0
370
    25
100
AcDbSpline
210
0.0
220
0.0
230
1.0
 70
    24
 71
     3
 72
     8
 73
     4
 74
     0
 42
0.0000000001
 43
0.0000000001
 40
0.0
 40
0.0
 40
0.0
 40
0.0
 40
1.0
 40
1.0
 40
1.0
 40
1.0
 10
61.42565954580081
 20
164.9306735156249
 30
0.0
 10
61.42565954580081
 20
164.9306735156249
 30
0.0
 10
63.16133094903985
 20
162.0943479344655
 30
0.0
 10
63.16133094903985
 20
162.0943479344655
 30
0.0
  0
SPLINE
  5
138
330
70
100
AcDbEntity
  8
レイヤー 1
 62
    18
420
        0
370
    25
100
AcDbSpline
210
0.0
220
0.0
230
1.0
 70
    24
 71
     3
 72
     8
 73
     4
 74
     0
 42
0.0000000001
 43
0.0000000001
 40
0.0
 40
0.0
 40
0.0
 40
0.0
 40
1.0
 40
1.0
 40
1.0
 40
1.0
 10
64.00799546231017
 20
164.8883419048499
 30
0.0
 10
64.00799546231017
 20
164.8883419048499
 30
0.0
 10
59.85933073454688
 20
155.9136743791531
 30
0.0
 10
59.85933073454688
 20
155.9136743791531
 30
0.0
  0
SPLINE
  5
139
330
70
100
AcDbEntity
  8
レイヤー 1
 62
    18
420
        0
370
    25
100
AcDbSpline
210
0.0
220
0.0
230
1.0
 70
    24
 71
     3
 72
     8
 73
     4
 74
     0
 42
0.0000000001
 43
0.0000000001
 40
0.0
 40
0.0
 40
0.0
 40
0.0
 40
1.0
 40
1.0
 40
1.0
 40
1.0
 10
60.19799438667034
 20
163.0256756692859
 30
0.0
 10
60.19799438667034
 20
163.0256756692859
 30
0.0
 10
61.59499675482424
 20
160.3586765312265
 30
0.0
 10
61.59499675482424
 20
160.3586765312265
 30
0.0
  0
SPLINE
  5
13A
330
70
100
AcDbEntity
  8
レイヤー 1
 62
    18
420
        0
370
    25
100
AcDbSpline
210
0.0
220
0.0
230
1.0
 70
    24
 71
     3
 72
     8
 73
     4
 74
     0
 42
0.0000000001
 43
0.0000000001
 40
0.0
 40
0.0
 40
0.0
 40
0.0
 40
1.0
 40
1.0
 40
1.0
 40
1.0
 10
59.56299869319845
 20
159.977681268328
 30
0.0
 10
59.56299869319845
 20
159.977681268328
 30
0.0
 10
60.74832685859221
 20
158.5806735172125
 30
0.0
 10
60.74832685859221
 20
158.5806735172125
 30
0.0
  0
SPLINE
  5
13B
330
70
100
AcDbEntity
  8
レイヤー 1
 62
    18
420
        0
370
    25
100
AcDbSpline
210
0.0
220
0.0
230
1.0
 70
    24
 71
     3
 72
     8
 73
     4
 74
     0
 42
0.0000000001
 43
0.0000000001
 40
0.0
 40
0.0
 40
0.0
 40
0.0
 40
1.0
 40
1.0
 40
1.0
 40
1.0
 10
58.75866579070313
 20
156.8873444906718
 30
0.0
 10
58.75866579070313
 20
156.8873444906718
 30
0.0
 10
59.81699912377187
 20
156.2100064205015
 30
0.0
 10
59.81699912377187
 20
156.2100064205015
 30
0.0
  0
LWPOLYLINE
  5
13C
330
70
100
AcDbEntity
  8
レイヤー 1
 62
    18
420
        0
370
    25
100
AcDbPolyline
 90
        4
 70
     0
 43
0.0
 10
59.85933073454688
 20
155.9136743791531
 10
58.58933396464141
 20
153.2890068518687
 10
57.61566385312267
 20
150.9606821318562
 10
57.44633202706094
 20
149.3520055609421
  0
SPLINE
  5
13D
330
70
100
AcDbEntity
  8
レイヤー 1
 62
    18
420
        0
370
    25
100
AcDbSpline
210
0.0
220
0.0
230
1.0
 70
    24
 71
     3
 72
     8
 73
     4
 74
     0
 42
0.0000000001
 43
0.0000000001
 40
0.0
 40
0.0
 40
0.0
 40
0.0
 40
1.0
 40
1.0
 40
1.0
 40
1.0
 10
57.36166342254923
 20
148.7170206333936
 30
0.0
 10
57.36166342254923
 20
148.7170206333936
 30
0.0
 10
57.74266406840939
 20
150.1563492293608
 30
0.0
 10
57.74266406840939
 20
150.1563492293608
 30
0.0
  0
SPLINE
  5
13E
330
70
100
AcDbEntity
  8
レイヤー 1
 62
    18
420
        0
370
    25
100
AcDbSpline
210
0.0
220
0.0
230
1.0
 70
    24
 71
     3
 72
     8
 73
     4
 74
     0
 42
0.0000000001
 43
0.0000000001
 40
0.0
 40
0.0
 40
0.0
 40
0.0
 40
1.0
 40
1.0
 40
1.0
 40
1.0
 10
57.06533138120079
 20
146.0076898845592
 30
0.0
 10
57.06533138120079
 20
146.0076898845592
 30
0.0
 10
57.65799546389768
 20
147.0236808409296
 30
0.0
 10
57.65799546389768
 20
147.0236808409296
 30
0.0
  0
SPLINE
  5
13F
330
70
100
AcDbEntity
  8
レイヤー 1
 62
    18
420
        0
370
    25
100
AcDbSpline
210
0.0
220
0.0
230
1.0
 70
    24
 71
     3
 72
     8
 73
     4
 74
     0
 42
0.0000000001
 43
0.0000000001
 40
0.0
 40
0.0
 40
0.0
 40
0.0
 40
1.0
 40
1.0
 40
1.0
 40
1.0
 10
57.74266406840939
 20
142.8750107302046
 30
0.0
 10
57.74266406840939
 20
142.8750107302046
 30
0.0
 10
57.74266406840939
 20
144.0603388955984
 30
0.0
 10
57.74266406840939
 20
144.0603388955984
 30
0.0
  0
LWPOLYLINE
  5
140
330
70
100
AcDbEntity
  8
レイヤー 1
 62
    18
420
        0
370
    25
100
AcDbPolyline
 90
        3
 70
     0
 43
0.0
 10
58.97033461050156
 20
139.9963427723468
 10
59.01266083831487
 20
141.6896825648109
 10
59.73233051926017
 20
138.2183505242561
  0
SPLINE
  5
141
330
70
100
AcDbEntity
  8
レイヤー 1
 62
    18
420
        0
370
    25
100
AcDbSpline
210
0.0
220
0.0
230
1.0
 70
    24
 71
     3
 72
     8
 73
     4
 74
     0
 42
0.0000000001
 43
0.0000000001
 40
0.0
 40
0.0
 40
0.0
 40
0.0
 40
1.0
 40
1.0
 40
1.0
 40
1.0
 10
60.07099417138363
 20
138.0913449260077
 30
0.0
 10
60.07099417138363
 20
138.0913449260077
 30
0.0
 10
60.87533245684063
 20
136.2286786904437
 30
0.0
 10
60.87533245684063
 20
136.2286786904437
 30
0.0
  0
SPLINE
  5
142
330
70
100
AcDbEntity
  8
レイヤー 1
 62
    18
420
        0
370
    25
100
AcDbSpline
210
0.0
220
0.0
230
1.0
 70
    24
 71
     3
 72
     8
 73
     4
 74
     0
 42
0.0000000001
 43
0.0000000001
 40
0.0
 40
0.0
 40
0.0
 40
0.0
 40
1.0
 40
1.0
 40
1.0
 40
1.0
 10
61.3409963242508
 20
136.0170206365687
 30
0.0
 10
61.3409963242508
 20
136.0170206365687
 30
0.0
 10
62.22999783125782
 20
133.9850171919811
 30
0.0
 10
62.22999783125782
 20
133.9850171919811
 30
0.0
  0
SPLINE
  5
143
330
70
100
AcDbEntity
  8
レイヤー 1
 62
    18
420
        0
370
    25
100
AcDbSpline
210
0.0
220
0.0
230
1.0
 70
    24
 71
     3
 72
     8
 73
     4
 74
     0
 42
0.0000000001
 43
0.0000000001
 40
0.0
 40
0.0
 40
0.0
 40
0.0
 40
1.0
 40
1.0
 40
1.0
 40
1.0
 10
62.69566708162969
 20
133.8156799829577
 30
0.0
 10
62.69566708162969
 20
133.8156799829577
 30
0.0
 10
63.88100062998516
 20
131.9953453581687
 30
0.0
 10
63.88100062998516
 20
131.9953453581687
 30
0.0
  0
LWPOLYLINE
  5
144
330
70
100
AcDbEntity
  8
レイヤー 1
 62
    18
420
        0
370
    25
100
AcDbPolyline
 90
        4
 70
     0
 43
0.0
 10
64.51599632345704
 20
131.7413449275952
 10
65.7013352547742
 20
129.9633526795046
 10
67.0560006291914
 20
129.3706885968077
 10
67.94499675323674
 20
128.0160232223905
  0
SPLINE
  5
145
330
70
100
AcDbEntity
  8
レイヤー 1
 62
    18
420
        0
370
    25
100
AcDbSpline
210
0.0
220
0.0
230
1.0
 70
    24
 71
     3
 72
     8
 73
     4
 74
     0
 42
0.0000000001
 43
0.0000000001
 40
0.0
 40
0.0
 40
0.0
 40
0.0
 40
1.0
 40
1.0
 40
1.0
 40
1.0
 10
101.4729943763516
 20
169.2486808353734
 30
0.0
 10
101.4729943763516
 20
169.2486808353734
 30
0.0
 10
104.3939939449844
 20
130.9793436358749
 30
0.0
 10
104.3939939449844
 20
130.9793436358749
 30
0.0
  0
SPLINE
  5
146
330
70
100
AcDbEntity
  8
レイヤー 1
 62
    18
420
        0
370
    25
100
AcDbSpline
210
0.0
220
0.0
230
1.0
 70
    24
 71
     3
 72
     8
 73
     4
 74
     0
 42
0.0000000001
 43
0.0000000001
 40
0.0
 40
0.0
 40
0.0
 40
0.0
 40
1.0
 40
1.0
 40
1.0
 40
1.0
 10
97.3666558764016
 20
168.6560059867531
 30
0.0
 10
97.3666558764016
 20
168.6560059867531
 30
0.0
 10
103.6319926532641
 20
130.8946696484015
 30
0.0
 10
103.6319926532641
 20
130.8946696484015
 30
0.0
  0
SPLINE
  5
147
330
70
100
AcDbEntity
  8
レイヤー 1
 62
    18
420
        0
370
    25
100
AcDbSpline
210
0.0
220
0.0
230
1.0
 70
    24
 71
     3
 72
     8
 73
     4
 74
     0
 42
0.0000000001
 43
0.0000000001
 40
0.0
 40
0.0
 40
0.0
 40
0.0
 40
1.0
 40
1.0
 40
1.0
 40
1.0
 10
93.51431780702506
 20
167.9363470717312
 30
0.0
 10
93.51431780702506
 20
167.9363470717312
 30
0.0
 10
102.9546545830938
 20
130.8100064268515
 30
0.0
 10
102.9546545830938
 20
130.8100064268515
 30
0.0
  0
SPLINE
  5
148
330
70
100
AcDbEntity
  8
レイヤー 1
 62
    18
420
        0
370
    25
100
AcDbSpline
210
0.0
220
0.0
230
1.0
 70
    24
 71
     3
 72
     8
 73
     4
 74
     0
 42
0.0000000001
 43
0.0000000001
 40
0.0
 40
0.0
 40
0.0
 40
0.0
 40
1.0
 40
1.0
 40
1.0
 40
1.0
 10
89.57732728202191
 20
167.5130094321343
 30
0.0
 10
89.57732728202191
 20
167.5130094321343
 30
0.0
 10
102.5313277094203
 20
130.7676748160765
 30
0.0
 10
102.5313277094203
 20
130.7676748160765
 30
0.0
  0
SPLINE
  5
149
330
70
100
AcDbEntity
  8
レイヤー 1
 62
    18
420
        0
370
    25
100
AcDbSpline
210
0.0
220
0.0
230
1.0
 70
    24
 71
     3
 72
     8
 73
     4
 74
     0
 42
0.0000000001
 43
0.0000000001
 40
0.0
 40
0.0
 40
0.0
 40
0.0
 40
1.0
 40
1.0
 40
1.0
 40
1.0
 10
85.64032599109536
 20
166.4970077098406
 30
0.0
 10
85.64032599109536
 20
166.4970077098406
 30
0.0
 10
102.1079900698235
 20
130.6830115945265
 30
0.0
 10
102.1079900698235
 20
130.6830115945265
 30
0.0
  0
SPLINE
  5
14A
330
70
100
AcDbEntity
  8
レイヤー 1
 62
    18
420
        0
370
    25
100
AcDbSpline
210
0.0
220
0.0
230
1.0
 70
    24
 71
     3
 72
     8
 73
     4
 74
     0
 42
0.0000000001
 43
0.0000000001
 40
0.0
 40
0.0
 40
0.0
 40
0.0
 40
1.0
 40
1.0
 40
1.0
 40
1.0
 10
81.87265652623052
 20
165.2693371677484
 30
0.0
 10
81.87265652623052
 20
165.2693371677484
 30
0.0
 10
101.6846524302266
 20
130.5983376070531
 30
0.0
 10
101.6846524302266
 20
130.5983376070531
 30
0.0
  0
SPLINE
  5
14B
330
70
100
AcDbEntity
  8
レイヤー 1
 62
    18
420
        0
370
    25
100
AcDbSpline
210
0.0
220
0.0
230
1.0
 70
    24
 71
     3
 72
     8
 73
     4
 74
     0
 42
0.0000000001
 43
0.0000000001
 40
0.0
 40
0.0
 40
0.0
 40
0.0
 40
1.0
 40
1.0
 40
1.0
 40
1.0
 10
78.31666126412581
 20
163.6183397519828
 30
0.0
 10
78.31666126412581
 20
163.6183397519828
 30
0.0
 10
101.0919883475297
 20
130.4713427747281
 30
0.0
 10
101.0919883475297
 20
130.4713427747281
 30
0.0
  0
SPLINE
  5
14C
330
70
100
AcDbEntity
  8
レイヤー 1
 62
    18
420
        0
370
    25
100
AcDbSpline
210
0.0
220
0.0
230
1.0
 70
    24
 71
     3
 72
     8
 73
     4
 74
     0
 42
0.0000000001
 43
0.0000000001
 40
0.0
 40
0.0
 40
0.0
 40
0.0
 40
1.0
 40
1.0
 40
1.0
 40
1.0
 10
75.01466104963284
 20
162.1366795452406
 30
0.0
 10
75.01466104963284
 20
162.1366795452406
 30
0.0
 10
100.4993242648328
 20
130.344347942403
 30
0.0
 10
100.4993242648328
 20
130.344347942403
 30
0.0
  0
SPLINE
  5
14D
330
70
100
AcDbEntity
  8
レイヤー 1
 62
    18
420
        0
370
    25
100
AcDbSpline
210
0.0
220
0.0
230
1.0
 70
    24
 71
     3
 72
     8
 73
     4
 74
     0
 42
0.0000000001
 43
0.0000000001
 40
0.0
 40
0.0
 40
0.0
 40
0.0
 40
1.0
 40
1.0
 40
1.0
 40
1.0
 10
71.71265545217818
 20
160.9936722246984
 30
0.0
 10
71.71265545217818
 20
160.9936722246984
 30
0.0
 10
99.99132340368598
 20
130.1750107333796
 30
0.0
 10
99.99132340368598
 20
130.1750107333796
 30
0.0
  0
SPLINE
  5
14E
330
70
100
AcDbEntity
  8
レイヤー 1
 62
    18
420
        0
370
    25
100
AcDbSpline
210
0.0
220
0.0
230
1.0
 70
    24
 71
     3
 72
     8
 73
     4
 74
     0
 42
0.0000000001
 43
0.0000000001
 40
0.0
 40
0.0
 40
0.0
 40
0.0
 40
1.0
 40
1.0
 40
1.0
 40
1.0
 10
68.83399287728207
 20
159.1733375999093
 30
0.0
 10
68.83399287728207
 20
159.1733375999093
 30
0.0
 10
99.65265975156254
 20
130.0903475118296
 30
0.0
 10
99.65265975156254
 20
130.0903475118296
 30
0.0
  0
SPLINE
  5
14F
330
70
100
AcDbEntity
  8
レイヤー 1
 62
    18
420
        0
370
    25
100
AcDbSpline
210
0.0
220
0.0
230
1.0
 70
    24
 71
     3
 72
     8
 73
     4
 74
     0
 42
0.0000000001
 43
0.0000000001
 40
0.0
 40
0.0
 40
0.0
 40
0.0
 40
1.0
 40
1.0
 40
1.0
 40
1.0
 10
66.03999352393596
 20
157.3953453518187
 30
0.0
 10
66.03999352393596
 20
157.3953453518187
 30
0.0
 10
99.05998490294226
 20
129.8786786920312
 30
0.0
 10
99.05998490294226
 20
129.8786786920312
 30
0.0
  0
SPLINE
  5
150
330
70
100
AcDbEntity
  8
レイヤー 1
 62
    18
420
        0
370
    25
100
AcDbSpline
210
0.0
220
0.0
230
1.0
 70
    24
 71
     3
 72
     8
 73
     4
 74
     0
 42
0.0000000001
 43
0.0000000001
 40
0.0
 40
0.0
 40
0.0
 40
0.0
 40
1.0
 40
1.0
 40
1.0
 40
1.0
 10
64.30432750365863
 20
155.0246782551077
 30
0.0
 10
64.30432750365863
 20
155.0246782551077
 30
0.0
 10
98.63665802926879
 20
129.7093414830078
 30
0.0
 10
98.63665802926879
 20
129.7093414830078
 30
0.0
  0
SPLINE
  5
151
330
70
100
AcDbEntity
  8
レイヤー 1
 62
    18
420
        0
370
    25
100
AcDbSpline
210
0.0
220
0.0
230
1.0
 70
    24
 71
     3
 72
     8
 73
     4
 74
     0
 42
0.0000000001
 43
0.0000000001
 40
0.0
 40
0.0
 40
0.0
 40
0.0
 40
1.0
 40
1.0
 40
1.0
 40
1.0
 10
62.31466105280784
 20
153.2043436303187
 30
0.0
 10
62.31466105280784
 20
153.2043436303187
 30
0.0
 10
98.25565200044694
 20
129.5400042739843
 30
0.0
 10
98.25565200044694
 20
129.5400042739843
 30
0.0
  0
SPLINE
  5
152
330
70
100
AcDbEntity
  8
レイヤー 1
 62
    18
420
        0
370
    25
100
AcDbSpline
210
0.0
220
0.0
230
1.0
 70
    24
 71
     3
 72
     8
 73
     4
 74
     0
 42
0.0000000001
 43
0.0000000001
 40
0.0
 40
0.0
 40
0.0
 40
0.0
 40
1.0
 40
1.0
 40
1.0
 40
1.0
 10
60.79065846936722
 20
150.6220077138093
 30
0.0
 10
60.79065846936722
 20
150.6220077138093
 30
0.0
 10
97.91698834832349
 20
129.3706778308843
 30
0.0
 10
97.91698834832349
 20
129.3706778308843
 30
0.0
  0
SPLINE
  5
153
330
70
100
AcDbEntity
  8
レイヤー 1
 62
    18
420
        0
370
    25
100
AcDbSpline
210
0.0
220
0.0
230
1.0
 70
    24
 71
     3
 72
     8
 73
     4
 74
     0
 42
0.0000000001
 43
0.0000000001
 40
0.0
 40
0.0
 40
0.0
 40
0.0
 40
1.0
 40
1.0
 40
1.0
 40
1.0
 10
59.73232513629848
 20
148.2513406170984
 30
0.0
 10
59.73232513629848
 20
148.2513406170984
 30
0.0
 10
97.53599308542504
 20
129.1590090110859
 30
0.0
 10
97.53599308542504
 20
129.1590090110859
 30
0.0
  0
SPLINE
  5
154
330
70
100
AcDbEntity
  8
レイヤー 1
 62
    18
420
        0
370
    25
100
AcDbSpline
210
0.0
220
0.0
230
1.0
 70
    24
 71
     3
 72
     8
 73
     4
 74
     0
 42
0.0000000001
 43
0.0000000001
 40
0.0
 40
0.0
 40
0.0
 40
0.0
 40
1.0
 40
1.0
 40
1.0
 40
1.0
 10
59.35132449043832
 20
145.9230051311624
 30
0.0
 10
59.35132449043832
 20
145.9230051311624
 30
0.0
 10
97.07032383505318
 20
128.8626769697374
 30
0.0
 10
97.07032383505318
 20
128.8626769697374
 30
0.0
  0
SPLINE
  5
155
330
70
100
AcDbEntity
  8
レイヤー 1
 62
    18
420
        0
370
    25
100
AcDbSpline
210
0.0
220
0.0
230
1.0
 70
    24
 71
     3
 72
     8
 73
     4
 74
     0
 42
0.0000000001
 43
0.0000000001
 40
0.0
 40
0.0
 40
0.0
 40
0.0
 40
1.0
 40
1.0
 40
1.0
 40
1.0
 10
58.80099201851645
 20
143.5100064236765
 30
0.0
 10
58.80099201851645
 20
143.5100064236765
 30
0.0
 10
96.64698619545632
 20
128.566344928389
 30
0.0
 10
96.64698619545632
 20
128.566344928389
 30
0.0
  0
SPLINE
  5
156
330
70
100
AcDbEntity
  8
レイヤー 1
 62
    18
420
        0
370
    25
100
AcDbSpline
210
0.0
220
0.0
230
1.0
 70
    24
 71
     3
 72
     8
 73
     4
 74
     0
 42
0.0000000001
 43
0.0000000001
 40
0.0
 40
0.0
 40
0.0
 40
0.0
 40
1.0
 40
1.0
 40
1.0
 40
1.0
 10
59.01266083831487
 20
141.6896717988874
 30
0.0
 10
59.01266083831487
 20
141.6896717988874
 30
0.0
 10
96.26599093255785
 20
128.2276812762656
 30
0.0
 10
96.26599093255785
 20
128.2276812762656
 30
0.0
  0
SPLINE
  5
157
330
70
100
AcDbEntity
  8
レイヤー 1
 62
    18
420
        0
370
    25
100
AcDbSpline
210
0.0
220
0.0
230
1.0
 70
    24
 71
     3
 72
     8
 73
     4
 74
     0
 42
0.0000000001
 43
0.0000000001
 40
0.0
 40
0.0
 40
0.0
 40
0.0
 40
1.0
 40
1.0
 40
1.0
 40
1.0
 10
60.53665803879379
 20
138.3030137458062
 30
0.0
 10
60.53665803879379
 20
138.3030137458062
 30
0.0
 10
95.92732728043442
 20
127.8890068582187
 30
0.0
 10
95.92732728043442
 20
127.8890068582187
 30
0.0
  0
SPLINE
  5
158
330
70
100
AcDbEntity
  8
レイヤー 1
 62
    18
420
        0
370
    25
100
AcDbSpline
210
0.0
220
0.0
230
1.0
 70
    24
 71
     3
 72
     8
 73
     4
 74
     0
 42
0.0000000001
 43
0.0000000001
 40
0.0
 40
0.0
 40
0.0
 40
0.0
 40
1.0
 40
1.0
 40
1.0
 40
1.0
 10
61.93366040694769
 20
136.0170098706452
 30
0.0
 10
61.93366040694769
 20
136.0170098706452
 30
0.0
 10
95.67332684986096
 20
127.5926748168703
 30
0.0
 10
95.67332684986096
 20
127.5926748168703
 30
0.0
  0
SPLINE
  5
159
330
70
100
AcDbEntity
  8
レイヤー 1
 62
    18
420
        0
370
    25
100
AcDbSpline
210
0.0
220
0.0
230
1.0
 70
    24
 71
     3
 72
     8
 73
     4
 74
     0
 42
0.0000000001
 43
0.0000000001
 40
0.0
 40
0.0
 40
0.0
 40
0.0
 40
1.0
 40
1.0
 40
1.0
 40
1.0
 10
63.07666234452814
 20
134.0273488027562
 30
0.0
 10
63.07666234452814
 20
134.0273488027562
 30
0.0
 10
95.46165803006253
 20
127.2540111647468
 30
0.0
 10
95.46165803006253
 20
127.2540111647468
 30
0.0
  0
SPLINE
  5
15A
330
70
100
AcDbEntity
  8
レイヤー 1
 62
    18
420
        0
370
    25
100
AcDbSpline
210
0.0
220
0.0
230
1.0
 70
    24
 71
     3
 72
     8
 73
     4
 74
     0
 42
0.0000000001
 43
0.0000000001
 40
0.0
 40
0.0
 40
0.0
 40
0.0
 40
1.0
 40
1.0
 40
1.0
 40
1.0
 10
64.76999137106878
 20
131.9953453581687
 30
0.0
 10
64.76999137106878
 20
131.9953453581687
 30
0.0
 10
95.24998921026412
 20
126.83067352515
 30
0.0
 10
95.24998921026412
 20
126.83067352515
 30
0.0
  0
SPLINE
  5
15B
330
70
100
AcDbEntity
  8
レイヤー 1
 62
    18
420
        0
370
    25
100
AcDbSpline
210
0.0
220
0.0
230
1.0
 70
    24
 71
     3
 72
     8
 73
     4
 74
     0
 42
0.0000000001
 43
0.0000000001
 40
0.0
 40
0.0
 40
0.0
 40
0.0
 40
1.0
 40
1.0
 40
1.0
 40
1.0
 10
67.22532707229143
 20
129.5823466506827
 30
0.0
 10
67.22532707229143
 20
129.5823466506827
 30
0.0
 10
95.1653259887141
 20
126.3226726640031
 30
0.0
 10
95.1653259887141
 20
126.3226726640031
 30
0.0
  0
SPLINE
  5
15C
330
70
100
AcDbEntity
  8
レイヤー 1
 62
    18
420
        0
370
    25
100
AcDbSpline
210
0.0
220
0.0
230
1.0
 70
    24
 71
     3
 72
     8
 73
     4
 74
     0
 42
0.0000000001
 43
0.0000000001
 40
0.0
 40
0.0
 40
0.0
 40
0.0
 40
1.0
 40
1.0
 40
1.0
 40
1.0
 10
69.59598878604068
 20
127.8890068582187
 30
0.0
 10
69.59598878604068
 20
127.8890068582187
 30
0.0
 10
95.1653259887141
 20
125.7723401920812
 30
0.0
 10
95.1653259887141
 20
125.7723401920812
 30
0.0
  0
SPLINE
  5
15D
330
70
100
AcDbEntity
  8
レイヤー 1
 62
    18
420
        0
370
    25
100
AcDbSpline
210
0.0
220
0.0
230
1.0
 70
    24
 71
     3
 72
     8
 73
     4
 74
     0
 42
0.0000000001
 43
0.0000000001
 40
0.0
 40
0.0
 40
0.0
 40
0.0
 40
1.0
 40
1.0
 40
1.0
 40
1.0
 10
72.34765652861177
 20
125.9416774011046
 30
0.0
 10
72.34765652861177
 20
125.9416774011046
 30
0.0
 10
95.46165803006253
 20
124.8833440680359
 30
0.0
 10
95.46165803006253
 20
124.8833440680359
 30
0.0
  0
SPLINE
  5
15E
330
70
100
AcDbEntity
  8
レイヤー 1
 62
    18
420
        0
370
    25
100
AcDbSpline
210
0.0
220
0.0
230
1.0
 70
    24
 71
     3
 72
     8
 73
     4
 74
     0
 42
0.0000000001
 43
0.0000000001
 40
0.0
 40
0.0
 40
0.0
 40
0.0
 40
1.0
 40
1.0
 40
1.0
 40
1.0
 10
75.86132556290316
 20
124.0790111655406
 30
0.0
 10
75.86132556290316
 20
124.0790111655406
 30
0.0
 10
95.84265329296099
 20
124.333011596114
 30
0.0
 10
95.84265329296099
 20
124.333011596114
 30
0.0
  0
SPLINE
  5
15F
330
70
100
AcDbEntity
  8
レイヤー 1
 62
    18
420
        0
370
    25
100
AcDbSpline
210
0.0
220
0.0
230
1.0
 70
    24
 71
     3
 72
     8
 73
     4
 74
     0
 42
0.0000000001
 43
0.0000000001
 40
0.0
 40
0.0
 40
0.0
 40
0.0
 40
1.0
 40
1.0
 40
1.0
 40
1.0
 10
78.65532491624925
 20
122.7243457911234
 30
0.0
 10
78.65532491624925
 20
122.7243457911234
 30
0.0
 10
96.51999136313129
 20
123.6980051367187
 30
0.0
 10
96.51999136313129
 20
123.6980051367187
 30
0.0
  0
SPLINE
  5
160
330
70
100
AcDbEntity
  8
レイヤー 1
 62
    18
420
        0
370
    25
100
AcDbSpline
210
0.0
220
0.0
230
1.0
 70
    24
 71
     3
 72
     8
 73
     4
 74
     0
 42
0.0000000001
 43
0.0000000001
 40
0.0
 40
0.0
 40
0.0
 40
0.0
 40
1.0
 40
1.0
 40
1.0
 40
1.0
 10
82.04199373525394
 20
121.6660124580546
 30
0.0
 10
82.04199373525394
 20
121.6660124580546
 30
0.0
 10
97.11265544582818
 20
123.3170098738203
 30
0.0
 10
97.11265544582818
 20
123.3170098738203
 30
0.0
  0
SPLINE
  5
161
330
70
100
AcDbEntity
  8
レイヤー 1
 62
    18
420
        0
370
    25
100
AcDbSpline
210
0.0
220
0.0
230
1.0
 70
    24
 71
     3
 72
     8
 73
     4
 74
     0
 42
0.0000000001
 43
0.0000000001
 40
0.0
 40
0.0
 40
0.0
 40
0.0
 40
1.0
 40
1.0
 40
1.0
 40
1.0
 10
85.89432642166878
 20
120.2690154728624
 30
0.0
 10
85.89432642166878
 20
120.2690154728624
 30
0.0
 10
97.78999351599848
 20
122.9783462216968
 30
0.0
 10
97.78999351599848
 20
122.9783462216968
 30
0.0
  0
SPLINE
  5
162
330
70
100
AcDbEntity
  8
レイヤー 1
 62
    18
420
        0
370
    25
100
AcDbSpline
210
0.0
220
0.0
230
1.0
 70
    24
 71
     3
 72
     8
 73
     4
 74
     0
 42
0.0000000001
 43
0.0000000001
 40
0.0
 40
0.0
 40
0.0
 40
0.0
 40
1.0
 40
1.0
 40
1.0
 40
1.0
 10
89.19632663616175
 20
119.6763406242421
 30
0.0
 10
89.19632663616175
 20
119.6763406242421
 30
0.0
 10
98.6789896400438
 20
122.597340192875
 30
0.0
 10
98.6789896400438
 20
122.597340192875
 30
0.0
  0
SPLINE
  5
163
330
70
100
AcDbEntity
  8
レイヤー 1
 62
    18
420
        0
370
    25
100
AcDbSpline
210
0.0
220
0.0
230
1.0
 70
    24
 71
     3
 72
     8
 73
     4
 74
     0
 42
0.0000000001
 43
0.0000000001
 40
0.0
 40
0.0
 40
0.0
 40
0.0
 40
1.0
 40
1.0
 40
1.0
 40
1.0
 10
92.79465889200315
 20
119.2106821397937
 30
0.0
 10
92.79465889200315
 20
119.2106821397937
 30
0.0
 10
99.90666018213596
 20
122.2163449299765
 30
0.0
 10
99.90666018213596
 20
122.2163449299765
 30
0.0
  0
SPLINE
  5
164
330
70
100
AcDbEntity
  8
レイヤー 1
 62
    18
420
        0
370
    25
100
AcDbSpline
210
0.0
220
0.0
230
1.0
 70
    24
 71
     3
 72
     8
 73
     4
 74
     0
 42
0.0000000001
 43
0.0000000001
 40
0.0
 40
0.0
 40
0.0
 40
0.0
 40
1.0
 40
1.0
 40
1.0
 40
1.0
 10
95.63098447316257
 20
118.9143393325218
 30
0.0
 10
95.63098447316257
 20
118.9143393325218
 30
0.0
 10
101.2189939457781
 20
121.9200128886281
 30
0.0
 10
101.2189939457781
 20
121.9200128886281
 30
0.0
  0
SPLINE
  5
165
330
70
100
AcDbEntity
  8
レイヤー 1
 62
    18
420
        0
370
    25
100
AcDbSpline
210
0.0
220
0.0
230
1.0
 70
    24
 71
     3
 72
     8
 73
     4
 74
     0
 42
0.0000000001
 43
0.0000000001
 40
0.0
 40
0.0
 40
0.0
 40
0.0
 40
1.0
 40
1.0
 40
1.0
 40
1.0
 10
99.44099093176411
 20
119.1260081523203
 30
0.0
 10
99.44099093176411
 20
119.1260081523203
 30
0.0
 10
102.4889853327219
 20
121.7083440688296
 30
0.0
 10
102.4889853327219
 20
121.7083440688296
 30
0.0
  0
SPLINE
  5
166
330
70
100
AcDbEntity
  8
レイヤー 1
 62
    18
420
        0
370
    25
100
AcDbSpline
210
0.0
220
0.0
230
1.0
 70
    24
 71
     3
 72
     8
 73
     4
 74
     0
 42
0.0000000001
 43
0.0000000001
 40
0.0
 40
0.0
 40
0.0
 40
0.0
 40
1.0
 40
1.0
 40
1.0
 40
1.0
 10
101.6423208194516
 20
117.0516730969578
 30
0.0
 10
101.6423208194516
 20
117.0516730969578
 30
0.0
 10
103.5473186657907
 20
121.6236808472796
 30
0.0
 10
103.5473186657907
 20
121.6236808472796
 30
0.0
  0
SPLINE
  5
167
330
70
100
AcDbEntity
  8
レイヤー 1
 62
    18
420
        0
370
    25
100
AcDbSpline
210
0.0
220
0.0
230
1.0
 70
    24
 71
     3
 72
     8
 73
     4
 74
     0
 42
0.0000000001
 43
0.0000000001
 40
0.0
 40
0.0
 40
0.0
 40
0.0
 40
1.0
 40
1.0
 40
1.0
 40
1.0
 10
103.5896610424891
 20
118.7450128894218
 30
0.0
 10
103.5896610424891
 20
118.7450128894218
 30
0.0
 10
104.5209887773094
 20
121.6236808472796
 30
0.0
 10
104.5209887773094
 20
121.6236808472796
 30
0.0
  0
LWPOLYLINE
  5
168
330
70
100
AcDbEntity
  8
レイヤー 1
 62
    18
420
        0
370
    25
100
AcDbPolyline
 90
        3
 70
     0
 43
0.0
 10
106.9339982507187
 20
187.1556735100687
 10
105.1983268474797
 20
184.8696804008312
 10
103.462666210164
 20
187.1556735100687
  0
SPLINE
  5
169
330
70
100
AcDbEntity
  8
レイヤー 1
 62
    18
420
        0
370
    13
100
AcDbSpline
210
0.0
220
0.0
230
1.0
 70
    24
 71
     3
 72
     8
 73
     4
 74
     0
 42
0.0000000001
 43
0.0000000001
 40
0.0
 40
0.0
 40
0.0
 40
0.0
 40
1.0
 40
1.0
 40
1.0
 40
1.0
 10
21.12433235911915
 20
65.95534106830935
 30
0.0
 10
21.12433235911915
 20
65.95534106830935
 30
0.0
 10
21.12433235911915
 20
70.95066492638126
 30
0.0
 10
21.12433235911915
 20
70.95066492638126
 30
0.0
  0
SPLINE
  5
16A
330
70
100
AcDbEntity
  8
レイヤー 1
 62
    18
420
        0
370
    13
100
AcDbSpline
210
0.0
220
0.0
230
1.0
 70
    24
 71
     3
 72
     8
 73
     4
 74
     0
 42
0.0000000001
 43
0.0000000001
 40
0.0
 40
0.0
 40
0.0
 40
0.0
 40
1.0
 40
1.0
 40
1.0
 40
1.0
 10
24.46866687586797
 20
70.95066492638126
 30
0.0
 10
24.46866687586797
 20
70.95066492638126
 30
0.0
 10
21.12433235911915
 20
67.64867009484999
 30
0.0
 10
21.12433235911915
 20
67.64867009484999
 30
0.0
  0
SPLINE
  5
16B
330
70
100
AcDbEntity
  8
レイヤー 1
 62
    18
420
        0
370
    13
100
AcDbSpline
210
0.0
220
0.0
230
1.0
 70
    24
 71
     3
 72
     8
 73
     4
 74
     0
 42
0.0000000001
 43
0.0000000001
 40
0.0
 40
0.0
 40
0.0
 40
0.0
 40
1.0
 40
1.0
 40
1.0
 40
1.0
 10
22.30966590747462
 20
68.83399826024376
 30
0.0
 10
22.30966590747462
 20
68.83399826024376
 30
0.0
 10
24.46866687586797
 20
65.95534106830935
 30
0.0
 10
24.46866687586797
 20
65.95534106830935
 30
0.0
  0
LWPOLYLINE
  5
16C
330
70
100
AcDbEntity
  8
レイヤー 1
 62
    18
420
        0
370
    13
100
AcDbPolyline
 90
       18
 70
     0
 43
0.0
 10
29.67566762818086
 20
69.7653367609875
 10
29.46399880838243
 20
70.23100062839765
 10
28.99833224949141
 20
70.73900148954454
 10
28.49033407982539
 20
70.95066492638126
 10
27.55900096204336
 20
70.95066492638126
 10
27.09333171167149
 20
70.73900148954454
 10
26.58533354200547
 20
70.23100062839765
 10
26.37366741368789
 20
69.7653367609875
 10
26.11966698311445
 20
69.04566708004219
 10
26.11966698311445
 20
67.86033353168672
 10
26.37366741368789
 20
67.14066923370312
 10
26.58533354200547
 20
66.67499998333124
 10
27.09333171167149
 20
66.20933611592109
 10
27.55900096204336
 20
65.95533568534765
 10
28.49033407982539
 20
65.95533568534765
 10
28.99833224949141
 20
66.20933611592109
 10
29.46399880838243
 20
66.67499998333124
 10
29.67566762818086
 20
67.14066923370312
  0
LWPOLYLINE
  5
16D
330
70
100
AcDbEntity
  8
レイヤー 1
 62
    18
420
        0
370
    13
100
AcDbPolyline
 90
       15
 70
     0
 43
0.0
 10
31.58066816600078
 20
70.95066492638126
 10
34.2053330018043
 20
70.95066492638126
 10
32.80833332513125
 20
69.04566169708049
 10
33.48566601233985
 20
69.04566169708049
 10
33.99366687348672
 20
68.83399826024376
 10
34.2053330018043
 20
68.57999782967032
 10
34.45933343237773
 20
67.86032814872503
 10
34.45933343237773
 20
67.39466428131485
 10
34.2053330018043
 20
66.67499460036956
 10
33.73966644291328
 20
66.20933073295939
 10
33.01999945344884
 20
65.95533030238596
 10
32.30033246398438
 20
65.95533030238596
 10
31.58066816600078
 20
66.20933073295939
 10
31.36899934620235
 20
66.42099416979611
 10
31.11499891562891
 20
66.928995030943
  0
LWPOLYLINE
  5
16E
330
70
100
AcDbEntity
  8
レイヤー 1
 62
    18
420
        0
370
    13
100
AcDbPolyline
 90
       16
 70
     1
 43
0.0
 10
37.29566708797969
 20
70.95066492638126
 10
36.57600009851524
 20
70.73899610658283
 10
36.11033353962422
 20
70.01932642563753
 10
35.89866471982579
 20
68.83399826024376
 10
35.89866471982579
 20
68.11432857929846
 10
36.11033353962422
 20
66.928995030943
 10
36.57600009851524
 20
66.20933073295939
 10
37.29566708797969
 20
65.95533030238596
 10
37.80366525764571
 20
65.95533030238596
 10
38.48099794485431
 20
66.20933073295939
 10
38.98899880600118
 20
66.928995030943
 10
39.20066493431876
 20
68.11432857929846
 10
39.20066493431876
 20
68.83399826024376
 10
38.98899880600118
 20
70.01932642563753
 10
38.48099794485431
 20
70.73899610658283
 10
37.80366525764571
 20
70.95066492638126
  0
LWPOLYLINE
  5
16F
330
70
100
AcDbEntity
  8
レイヤー 1
 62
    18
420
        0
370
    13
100
AcDbPolyline
 90
       15
 70
     0
 43
0.0
 10
41.10566816361952
 20
70.95066492638126
 10
43.73033299942305
 20
70.95066492638126
 10
42.29099902049415
 20
69.04566169708049
 10
43.01066600995859
 20
69.04566169708049
 10
43.51866687110546
 20
68.83399826024376
 10
43.73033299942305
 20
68.57999782967032
 10
43.98433342999648
 20
67.86032814872503
 10
43.98433342999648
 20
67.39466428131485
 10
43.73033299942305
 20
66.67499460036956
 10
43.26466644053203
 20
66.20933073295939
 10
42.54499945106758
 20
65.95533030238596
 10
41.82533246160313
 20
65.95533030238596
 10
41.10566816361952
 20
66.20933073295939
 10
40.8939993438211
 20
66.42099416979611
 10
40.63999891324766
 20
66.928995030943
  0
LWPOLYLINE
  5
170
330
70
100
AcDbEntity
  8
レイヤー 1
 62
    18
420
        0
370
    13
100
AcDbPolyline
 90
       17
 70
     0
 43
0.0
 10
48.25999568156564
 20
70.95066492638126
 10
45.8893285848547
 20
70.95066492638126
 10
45.63532815428128
 20
68.83399826024376
 10
45.8893285848547
 20
69.04566169708049
 10
46.60899288283832
 20
69.29966212765393
 10
47.32865718082192
 20
69.29966212765393
 10
48.00599525099221
 20
69.04566169708049
 10
48.51399072917739
 20
68.57999782967032
 10
48.72565954897581
 20
67.86032814872503
 10
48.72565954897581
 20
67.39466428131485
 10
48.51399072917739
 20
66.67499460036956
 10
48.00599525099221
 20
66.20933073295939
 10
47.32865718082192
 20
65.95533030238596
 10
46.60899288283832
 20
65.95533030238596
 10
45.8893285848547
 20
66.20933073295939
 10
45.63532815428128
 20
66.42099416979611
 10
45.42365933448285
 20
66.928995030943
  0
ENDSEC
  0
SECTION
  2
OBJECTS
  0
DICTIONARY
  5
C
330
0
100
AcDbDictionary
281
     1
  3
ACAD_COLOR
350
63
  3
ACAD_DETAILVIEWSTYLE
350
6A
  3
ACAD_GROUP
350
D
  3
ACAD_LAYOUT
350
62
  3
ACAD_MATERIAL
350
10
  3
ACAD_MLEADERSTYLE
350
66
  3
ACAD_MLINESTYLE
350
5F
  3
ACAD_PLOTSETTINGS
350
61
  3
ACAD_PLOTSTYLENAME
350
E
  3
ACAD_SCALELIST
350
42
  3
ACAD_SECTIONVIEWSTYLE
350
68
  3
ACAD_TABLESTYLE
350
64
  3
ACAD_VISUALSTYLE
350
29
  3
ACDB_RECOMPOSE_DATA
350
179
  3
AcDbVariableDictionary
350
171
  0
DICTIONARY
  5
63
102
{ACAD_REACTORS
330
C
102
}
330
C
100
AcDbDictionary
281
     1
  0
DICTIONARY
  5
6A
102
{ACAD_REACTORS
330
C
102
}
330
C
100
AcDbDictionary
281
     1
  3
Imperial24
350
6B
  0
DICTIONARY
  5
D
102
{ACAD_REACTORS
330
C
102
}
330
C
100
AcDbDictionary
281
     1
  0
DICTIONARY
  5
62
102
{ACAD_REACTORS
330
C
102
}
330
C
100
AcDbDictionary
281
     1
  3
Layout1
350
6F
  3
Layout2
350
77
  3
Model
350
73
  0
DICTIONARY
  5
10
102
{ACAD_REACTORS
330
C
102
}
330
C
100
AcDbDictionary
281
     1
  3
ByBlock
350
19
  3
ByLayer
350
11
  3
Global
350
21
  0
DICTIONARY
  5
66
102
{ACAD_REACTORS
330
C
102
}
330
C
100
AcDbDictionary
281
     1
  3
Standard
350
67
  0
DICTIONARY
  5
5F
102
{ACAD_REACTORS
330
C
102
}
330
C
100
AcDbDictionary
281
     1
  3
Standard
350
60
  0
DICTIONARY
  5
61
102
{ACAD_REACTORS
330
C
102
}
330
C
100
AcDbDictionary
281
     1
  0
ACDBDICTIONARYWDFLT
  5
E
102
{ACAD_REACTORS
330
C
102
}
330
C
100
AcDbDictionary
281
     1
  3
Normal
350
F
100
AcDbDictionaryWithDefault
340
F
  0
DICTIONARY
  5
42
102
{ACAD_REACTORS
330
C
102
}
330
C
100
AcDbDictionary
281
     1
  3
A0
350
43
  3
A1
350
44
  3
A2
350
45
  3
A3
350
46
  3
A4
350
47
  3
A5
350
48
  3
A6
350
49
  3
A7
350
4A
  3
A8
350
4B
  3
A9
350
4C
  3
B0
350
4D
  3
B1
350
4E
  3
B2
350
4F
  3
B3
350
50
  3
B4
350
51
  3
B5
350
52
  3
B6
350
53
  0
DICTIONARY
  5
68
102
{ACAD_REACTORS
330
C
102
}
330
C
100
AcDbDictionary
281
     1
  3
Imperial24
350
69
  0
DICTIONARY
  5
64
102
{ACAD_REACTORS
330
C
102
}
330
C
100
AcDbDictionary
281
     1
  3
Standard
350
65
  0
DICTIONARY
  5
29
102
{ACAD_REACTORS
330
C
102
}
330
C
100
AcDbDictionary
281
     1
  3
2dWireframe
350
2F
  3
Basic
350
2E
  3
Brighten
350
35
  3
ColorChange
350
39
  3
Conceptual
350
32
  3
Dim
350
34
  3
EdgeColorOff
350
41
  3
Facepattern
350
38
  3
Flat
350
2A
  3
FlatWithEdges
350
2B
  3
Gouraud
350
2C
  3
GouraudWithEdges
350
2D
  3
Hidden
350
31
  3
JitterOff
350
3F
  3
Linepattern
350
37
  3
OverhangOff
350
40
  3
Realistic
350
33
  3
Shaded
350
3E
  3
Shaded with edges
350
3D
  3
Shades of Gray
350
3A
  3
Sketchy
350
3B
  3
Thicken
350
36
  3
Wireframe
350
30
  3
X-Ray
350
3C
  0
XRECORD
  5
179
102
{ACAD_REACTORS
330
C
102
}
330
C
100
AcDbXrecord
280
     1
 90
        1
330
65
  0
DICTIONARY
  5
171
102
{ACAD_REACTORS
330
C
102
}
330
C
100
AcDbDictionary
281
     1
  3
CANNOSCALE
350
176
  3
CMLEADERSTYLE
350
173
  3
CTABLESTYLE
350
172
  3
CVIEWDETAILSTYLE
350
174
  3
CVIEWSECTIONSTYLE
350
175
  0
ACDBDETAILVIEWSTYLE
  5
6B
102
{ACAD_REACTORS
330
6A
102
}
330
6A
100
AcDbModelDocViewStyle
 70
     0
  3
Imperial24
290
     1
300
Imperial24
 90
        0
100
AcDbDetailViewStyle
 70
     0
 71
     0
 90
        3
 71
     1
340
55
 62
   256
 40
0.24
340
0
 62
   256
 40
0.24
300

 40
0.36
280
     3
 71
     2
340
5D
 90
       25
 62
   256
 71
     3
340
55
 62
   256
 40
0.24
 90
        1
 40
0.75
 90
        1
300
%<\AcVar ViewType \f "%tc1">% %<\AcVar ViewDetailId>%\PSCALE %<\AcVar ViewScale \f "%sn">%
 71
     4
340
5D
 90
       25
 62
   256
340
5D
 90
       25
 62
   256
280
     0
  0
LAYOUT
  5
6F
102
{ACAD_REACTORS
330
62
102
}
330
62
100
AcDbPlotSettings
  1

  2

  4

  6

 40
0.0
 41
0.0
 42
0.0
 43
0.0
 44
0.0
 45
0.0
 46
0.0
 47
0.0
 48
0.0
 49
0.0
140
0.0
141
0.0
142
1.0
143
1.0
 70
   688
 72
     0
 73
     0
 74
     5
  7

 75
    16
147
1.0
 76
     0
 77
     2
 78
   300
148
0.0
149
0.0
100
AcDbLayout
  1
Layout1
 70
     1
 71
     1
 10
0.0
 20
0.0
 11
12.0
 21
9.0
 12
0.0
 22
0.0
 32
0.0
 14
0.0
 24
0.0
 34
0.0
 15
0.0
 25
0.0
 35
0.0
146
0.0
 13
0.0
 23
0.0
 33
0.0
 16
1.0
 26
0.0
 36
0.0
 17
0.0
 27
1.0
 37
0.0
 76
     0
330
6C
  0
LAYOUT
  5
77
102
{ACAD_REACTORS
330
62
102
}
330
62
100
AcDbPlotSettings
  1

  2

  4

  6

 40
0.0
 41
0.0
 42
0.0
 43
0.0
 44
0.0
 45
0.0
 46
0.0
 47
0.0
 48
0.0
 49
0.0
140
0.0
141
0.0
142
1.0
143
1.0
 70
   688
 72
     0
 73
     0
 74
     5
  7

 75
    16
147
1.0
 76
     0
 77
     2
 78
   300
148
0.0
149
0.0
100
AcDbLayout
  1
Layout2
 70
     1
 71
     2
 10
0.0
 20
0.0
 11
12.0
 21
9.0
 12
0.0
 22
0.0
 32
0.0
 14
0.0
 24
0.0
 34
0.0
 15
0.0
 25
0.0
 35
0.0
146
0.0
 13
0.0
 23
0.0
 33
0.0
 16
1.0
 26
0.0
 36
0.0
 17
0.0
 27
1.0
 37
0.0
 76
     0
330
74
  0
LAYOUT
  5
73
102
{ACAD_REACTORS
330
62
102
}
330
62
100
AcDbPlotSettings
  1

  2

  4

  6

 40
0.0
 41
0.0
 42
0.0
 43
0.0
 44
0.0
 45
0.0
 46
0.0
 47
0.0
 48
0.0
 49
0.0
140
0.0
141
0.0
142
1.0
143
1.0
 70
  1712
 72
     0
 73
     0
 74
     0
  7

 75
     0
147
1.0
 76
     0
 77
     2
 78
   300
148
0.0
149
0.0
100
AcDbLayout
  1
Model
 70
     1
 71
     0
 10
0.0
 20
0.0
 11
12.0
 21
9.0
 12
0.0
 22
0.0
 32
0.0
 14
0.0
 24
0.0
 34
0.0
 15
0.0
 25
0.0
 35
0.0
146
0.0
 13
0.0
 23
0.0
 33
0.0
 16
1.0
 26
0.0
 36
0.0
 17
0.0
 27
1.0
 37
0.0
 76
     0
330
70
  0
MATERIAL
  5
19
102
{ACAD_XDICTIONARY
360
1A
102
}
102
{ACAD_REACTORS
330
10
102
}
330
10
100
AcDbMaterial
  1
ByBlock
 72
     0
 43
0.0208333333333333
 43
0.0
 43
0.0
 43
0.0
 43
0.0
 43
0.0208333333333333
 43
0.0
 43
0.0
 43
0.0
 43
0.0
 43
1.0
 43
0.0
 43
0.0
 43
0.0
 43
0.0
 43
1.0
 77
     0
 47
0.0208333333333333
 47
0.0
 47
0.0
 47
0.0
 47
0.0
 47
0.0208333333333333
 47
0.0
 47
0.0
 47
0.0
 47
0.0
 47
1.0
 47
0.0
 47
0.0
 47
0.0
 47
0.0
 47
1.0
171
     0
 49
0.0208333333333333
 49
0.0
 49
0.0
 49
0.0
 49
0.0
 49
0.0208333333333333
 49
0.0
 49
0.0
 49
0.0
 49
0.0
 49
1.0
 49
0.0
 49
0.0
 49
0.0
 49
0.0
 49
1.0
175
     0
142
0.0208333333333333
142
0.0
142
0.0
142
0.0
142
0.0
142
0.0208333333333333
142
0.0
142
0.0
142
0.0
142
0.0
142
1.0
142
0.0
142
0.0
142
0.0
142
0.0
142
1.0
179
     0
144
0.0208333333333333
144
0.0
144
0.0
144
0.0
144
0.0
144
0.0208333333333333
144
0.0
144
0.0
144
0.0
144
0.0
144
1.0
144
0.0
144
0.0
144
0.0
144
0.0
144
1.0
147
0.0208333333333333
147
0.0
147
0.0
147
0.0
147
0.0
147
0.0208333333333333
147
0.0
147
0.0
147
0.0
147
0.0
147
1.0
147
0.0
147
0.0
147
0.0
147
0.0
147
1.0
  0
MATERIAL
  5
11
102
{ACAD_XDICTIONARY
360
12
102
}
102
{ACAD_REACTORS
330
10
102
}
330
10
100
AcDbMaterial
  1
ByLayer
 72
     0
 43
0.0208333333333333
 43
0.0
 43
0.0
 43
0.0
 43
0.0
 43
0.0208333333333333
 43
0.0
 43
0.0
 43
0.0
 43
0.0
 43
1.0
 43
0.0
 43
0.0
 43
0.0
 43
0.0
 43
1.0
 77
     0
 47
0.0208333333333333
 47
0.0
 47
0.0
 47
0.0
 47
0.0
 47
0.0208333333333333
 47
0.0
 47
0.0
 47
0.0
 47
0.0
 47
1.0
 47
0.0
 47
0.0
 47
0.0
 47
0.0
 47
1.0
171
     0
 49
0.0208333333333333
 49
0.0
 49
0.0
 49
0.0
 49
0.0
 49
0.0208333333333333
 49
0.0
 49
0.0
 49
0.0
 49
0.0
 49
1.0
 49
0.0
 49
0.0
 49
0.0
 49
0.0
 49
1.0
175
     0
142
0.0208333333333333
142
0.0
142
0.0
142
0.0
142
0.0
142
0.0208333333333333
142
0.0
142
0.0
142
0.0
142
0.0
142
1.0
142
0.0
142
0.0
142
0.0
142
0.0
142
1.0
179
     0
144
0.0208333333333333
144
0.0
144
0.0
144
0.0
144
0.0
144
0.0208333333333333
144
0.0
144
0.0
144
0.0
144
0.0
144
1.0
144
0.0
144
0.0
144
0.0
144
0.0
144
1.0
147
0.0208333333333333
147
0.0
147
0.0
147
0.0
147
0.0
147
0.0208333333333333
147
0.0
147
0.0
147
0.0
147
0.0
147
1.0
147
0.0
147
0.0
147
0.0
147
0.0
147
1.0
  0
MATERIAL
  5
21
102
{ACAD_XDICTIONARY
360
22
102
}
102
{ACAD_REACTORS
330
10
102
}
330
10
100
AcDbMaterial
  1
Global
 72
     0
 43
0.0208333333333333
 43
0.0
 43
0.0
 43
0.0
 43
0.0
 43
0.0208333333333333
 43
0.0
 43
0.0
 43
0.0
 43
0.0
 43
1.0
 43
0.0
 43
0.0
 43
0.0
 43
0.0
 43
1.0
 77
     0
 47
0.0208333333333333
 47
0.0
 47
0.0
 47
0.0
 47
0.0
 47
0.0208333333333333
 47
0.0
 47
0.0
 47
0.0
 47
0.0
 47
1.0
 47
0.0
 47
0.0
 47
0.0
 47
0.0
 47
1.0
171
     0
 49
0.0208333333333333
 49
0.0
 49
0.0
 49
0.0
 49
0.0
 49
0.0208333333333333
 49
0.0
 49
0.0
 49
0.0
 49
0.0
 49
1.0
 49
0.0
 49
0.0
 49
0.0
 49
0.0
 49
1.0
175
     0
142
0.0208333333333333
142
0.0
142
0.0
142
0.0
142
0.0
142
0.0208333333333333
142
0.0
142
0.0
142
0.0
142
0.0
142
1.0
142
0.0
142
0.0
142
0.0
142
0.0
142
1.0
179
     0
144
0.0208333333333333
144
0.0
144
0.0
144
0.0
144
0.0
144
0.0208333333333333
144
0.0
144
0.0
144
0.0
144
0.0
144
1.0
144
0.0
144
0.0
144
0.0
144
0.0
144
1.0
147
0.0208333333333333
147
0.0
147
0.0
147
0.0
147
0.0
147
0.0208333333333333
147
0.0
147
0.0
147
0.0
147
0.0
147
1.0
147
0.0
147
0.0
147
0.0
147
0.0
147
1.0
  0
MLEADERSTYLE
  5
67
102
{ACAD_REACTORS
330
66
102
}
330
66
100
AcDbMLeaderStyle
179
     2
170
     2
171
     1
172
     0
 90
        2
 40
0.0
 41
0.0
173
     1
 91
-1056964608
340
5B
 92
       -2
290
     1
 42
0.09
291
     1
 43
0.36
  3
Standard
 44
0.18
300

342
55
174
     1
178
     6
175
     1
176
     0
 93
-1056964608
 45
0.18
292
     0
297
     0
 46
0.18
 94
-1056964608
 47
1.0
 49
1.0
140
1.0
293
     1
141
0.0
294
     1
177
     0
142
1.0
295
     1
296
     0
143
0.125
271
     0
272
     9
273
     9
298
     1
  0
MLINESTYLE
  5
60
102
{ACAD_REACTORS
330
5F
102
}
330
5F
100
AcDbMlineStyle
  2
STANDARD
 70
     0
  3

 62
   256
 51
90.0
 52
90.0
 71
     2
 49
0.5
 62
   256
  6
BYLAYER
 49
-0.5
 62
   256
  6
BYLAYER
  0
ACDBPLACEHOLDER
  5
F
102
{ACAD_REACTORS
330
E
102
}
330
E
  0
SCALE
  5
43
102
{ACAD_REACTORS
330
42
102
}
330
42
100
AcDbScale
 70
     0
300
1:1
140
1.0
141
1.0
290
     1
  0
SCALE
  5
44
102
{ACAD_REACTORS
330
42
102
}
330
42
100
AcDbScale
 70
     0
300
1/128" = 1'-0"
140
0.0078125
141
12.0
290
     0
  0
SCALE
  5
45
102
{ACAD_REACTORS
330
42
102
}
330
42
100
AcDbScale
 70
     0
300
1/64" = 1'-0"
140
0.015625
141
12.0
290
     0
  0
SCALE
  5
46
102
{ACAD_REACTORS
330
42
102
}
330
42
100
AcDbScale
 70
     0
300
1/32" = 1'-0"
140
0.03125
141
12.0
290
     0
  0
SCALE
  5
47
102
{ACAD_REACTORS
330
42
102
}
330
42
100
AcDbScale
 70
     0
300
1/16" = 1'-0"
140
0.0625
141
12.0
290
     0
  0
SCALE
  5
48
102
{ACAD_REACTORS
330
42
102
}
330
42
100
AcDbScale
 70
     0
300
3/32" = 1'-0"
140
0.09375
141
12.0
290
     0
  0
SCALE
  5
49
102
{ACAD_REACTORS
330
42
102
}
330
42
100
AcDbScale
 70
     0
300
1/8" = 1'-0"
140
0.125
141
12.0
290
     0
  0
SCALE
  5
4A
102
{ACAD_REACTORS
330
42
102
}
330
42
100
AcDbScale
 70
     0
300
3/16" = 1'-0"
140
0.1875
141
12.0
290
     0
  0
SCALE
  5
4B
102
{ACAD_REACTORS
330
42
102
}
330
42
100
AcDbScale
 70
     0
300
1/4" = 1'-0"
140
0.25
141
12.0
290
     0
  0
SCALE
  5
4C
102
{ACAD_REACTORS
330
42
102
}
330
42
100
AcDbScale
 70
     0
300
3/8" = 1'-0"
140
0.375
141
12.0
290
     0
  0
SCALE
  5
4D
102
{ACAD_REACTORS
330
42
102
}
330
42
100
AcDbScale
 70
     0
300
1/2" = 1'-0"
140
0.5
141
12.0
290
     0
  0
SCALE
  5
4E
102
{ACAD_REACTORS
330
42
102
}
330
42
100
AcDbScale
 70
     0
300
3/4" = 1'-0"
140
0.75
141
12.0
290
     0
  0
SCALE
  5
4F
102
{ACAD_REACTORS
330
42
102
}
330
42
100
AcDbScale
 70
     0
300
1" = 1'-0"
140
1.0
141
12.0
290
     0
  0
SCALE
  5
50
102
{ACAD_REACTORS
330
42
102
}
330
42
100
AcDbScale
 70
     0
300
1-1/2" = 1'-0"
140
1.5
141
12.0
290
     0
  0
SCALE
  5
51
102
{ACAD_REACTORS
330
42
102
}
330
42
100
AcDbScale
 70
     0
300
3" = 1'-0"
140
3.0
141
12.0
290
     0
  0
SCALE
  5
52
102
{ACAD_REACTORS
330
42
102
}
330
42
100
AcDbScale
 70
     0
300
6" = 1'-0"
140
6.0
141
12.0
290
     0
  0
SCALE
  5
53
102
{ACAD_REACTORS
330
42
102
}
330
42
100
AcDbScale
 70
     0
300
1'-0" = 1'-0"
140
12.0
141
12.0
290
     0
  0
ACDBSECTIONVIEWSTYLE
  5
69
102
{ACAD_REACTORS
330
68
102
}
330
68
100
AcDbModelDocViewStyle
 70
     0
  3
Imperial24
290
     1
300
Imperial24
 90
        0
100
AcDbSectionViewStyle
 70
     0
 71
     0
 90
       78
 71
     1
340
55
 62
   256
 40
0.24
340
0
340
0
 62
   256
 40
0.24
300
I, O, Q, S, X, Z
 40
0.48
 90
        3
 40
0.18
 90
        1
 71
     2
340
5D
 90
       25
 62
   256
340
5D
 90
       50
 62
   256
 40
0.24
 40
0.0
 40
0.24
 71
     3
340
55
 62
   256
 40
0.24
 90
        1
 40
0.75
 90
        1
300
%<\AcVar ViewType \f "%tc1">% %<\AcVar ViewSectionStartId>%-%<\AcVar ViewSectionEndId>%\PSCALE %<\AcVar ViewScale \f "%sn">%
 71
     4
 62
   256
 62
   257
300
ANSI31
 40
1.0
 90
        0
290
     0
290
     0
 90
        6
 40
0.0
 40
1.570796326794896
 40
0.2617993877991494
 40
1.308996938995747
 40
-0.2617993877991494
 40
1.832595714594046
  0
TABLESTYLE
  5
65
102
{ACAD_XDICTIONARY
360
177
102
}
102
{ACAD_REACTORS
330
64
102
}
330
64
100
AcDbTableStyle
280
     0
  3
Standard
 70
     0
 71
     0
 40
0.06
 41
0.06
280
     0
281
     0
  7
Standard
140
0.18
170
     2
 62
     0
 63
     7
283
     0
 90
      512
 91
        0
  1

274
    -2
284
     1
 64
     0
275
    -2
285
     1
 65
     0
276
    -2
286
     1
 66
     0
277
    -2
287
     1
 67
     0
278
    -2
288
     1
 68
     0
279
    -2
289
     1
 69
     0
  7
Standard
140
0.25
170
     5
 62
     0
 63
     7
283
     0
 90
      512
 91
        0
  1

274
    -2
284
     1
 64
     0
275
    -2
285
     1
 65
     0
276
    -2
286
     1
 66
     0
277
    -2
287
     1
 67
     0
278
    -2
288
     1
 68
     0
279
    -2
289
     1
 69
     0
  7
Standard
140
0.18
170
     5
 62
     0
 63
     7
283
     0
 90
      512
 91
        0
  1

274
    -2
284
     1
 64
     0
275
    -2
285
     1
 65
     0
276
    -2
286
     1
 66
     0
277
    -2
287
     1
 67
     0
278
    -2
288
     1
 68
     0
279
    -2
289
     1
 69
     0
  0
VISUALSTYLE
  5
2F
102
{ACAD_REACTORS
330
29
102
}
330
29
100
AcDbVisualStyle
  2
2dWireframe
 70
     4
177
     3
291
     0
 70
    58
 90
        0
176
     1
 90
        2
176
     1
 90
        0
176
     1
 90
        0
176
     1
 40
0.6
176
     1
 40
30.0
176
     1
 62
     7
420
 16777215
176
     1
 90
        1
176
     1
 90
        4
176
     1
 62
     7
176
     1
 62
   257
176
     1
 90
        1
176
     1
 90
        1
176
     1
 40
1.0
176
     1
 90
        0
176
     1
 62
   257
176
     1
 40
1.0
176
     1
 90
        1
176
     1
 90
        6
176
     1
 90
        2
176
     1
 62
     7
176
     1
 90
        5
176
     1
 90
        0
176
     1
 90
        0
176
     1
290
     0
176
     1
 90
        1
176
     1
 40
0.0
176
     1
 90
        0
176
     1
290
     1
176
     1
290
     1
176
     1
290
     0
176
     1
290
     0
176
     1
290
     0
176
     1
290
     0
176
     1
290
     0
176
     1
290
     0
176
     1
290
     0
176
     1
 90
       50
176
     1
 40
0.0
176
     1
 40
1.0
176
     1
 90
        0
176
     1
 62
    18
420
        0
176
     1
 90
       50
176
     1
 90
        3
176
     1
 62
     5
420
      255
176
     1
290
     0
176
     1
 90
       50
176
     1
 90
       50
176
     1
 90
       50
176
     1
290
     0
176
     1
 90
       50
176
     1
 62
   256
176
     0
 40
1.0
176
     0
 90
        2
176
     1
  1
strokes_ogs.tif
176
     1
290
     0
176
     1
 40
1.0
176
     1
 40
1.0
176
     1
  0
VISUALSTYLE
  5
2E
102
{ACAD_REACTORS
330
29
102
}
330
29
100
AcDbVisualStyle
  2
Basic
 70
     7
177
     3
291
     1
 70
    58
 90
        1
176
     1
 90
        0
176
     1
 90
        1
176
     1
 90
        0
176
     1
 40
0.6
176
     1
 40
30.0
176
     1
 62
     7
420
 16777215
176
     1
 90
        0
176
     1
 90
        4
176
     1
 62
     7
176
     1
 62
   257
176
     1
 90
        1
176
     1
 90
        1
176
     1
 40
1.0
176
     1
 90
        8
176
     1
 62
     7
176
     1
 40
1.0
176
     1
 90
        1
176
     1
 90
        6
176
     1
 90
        2
176
     1
 62
     7
176
     1
 90
        5
176
     1
 90
        0
176
     1
 90
        0
176
     1
290
     0
176
     1
 90
        1
176
     1
 40
0.0
176
     1
 90
        0
176
     1
290
     0
176
     1
290
     1
176
     1
290
     1
176
     1
290
     0
176
     1
290
     0
176
     1
290
     0
176
     1
290
     0
176
     1
290
     0
176
     1
290
     0
176
     1
 90
       50
176
     1
 40
0.0
176
     1
 40
1.0
176
     1
 90
        0
176
     1
 62
    18
420
        0
176
     1
 90
       50
176
     1
 90
        3
176
     1
 62
     5
420
      255
176
     1
290
     0
176
     1
 90
       50
176
     1
 90
       50
176
     1
 90
       50
176
     1
290
     0
176
     1
 90
       50
176
     1
 62
   256
176
     0
 40
1.0
176
     0
 90
        2
176
     1
  1
strokes_ogs.tif
176
     1
290
     0
176
     1
 40
1.0
176
     1
 40
1.0
176
     1
  0
VISUALSTYLE
  5
35
102
{ACAD_REACTORS
330
29
102
}
330
29
100
AcDbVisualStyle
  2
Brighten
 70
    12
177
     3
291
     1
 70
    58
 90
        2
176
     1
 90
        2
176
     1
 90
        0
176
     1
 90
        0
176
     1
 40
0.6
176
     1
 40
30.0
176
     1
 62
     7
420
 16777215
176
     1
 90
        1
176
     1
 90
        4
176
     1
 62
     7
176
     1
 62
   257
176
     1
 90
        1
176
     1
 90
        1
176
     1
 40
1.0
176
     1
 90
        8
176
     1
 62
     7
176
     1
 40
1.0
176
     1
 90
        1
176
     1
 90
        6
176
     1
 90
        2
176
     1
 62
     7
176
     1
 90
        5
176
     1
 90
        0
176
     1
 90
        0
176
     1
290
     0
176
     1
 90
        1
176
     1
 40
50.0
176
     1
 90
        0
176
     1
290
     0
176
     1
290
     1
176
     1
290
     1
176
     1
290
     0
176
     1
290
     0
176
     1
290
     0
176
     1
290
     0
176
     1
290
     0
176
     1
290
     0
176
     1
 90
       50
176
     1
 40
0.0
176
     1
 40
1.0
176
     1
 90
        0
176
     1
 62
    18
420
        0
176
     1
 90
       50
176
     1
 90
        3
176
     1
 62
     5
420
      255
176
     1
290
     0
176
     1
 90
       50
176
     1
 90
       50
176
     1
 90
       50
176
     1
290
     0
176
     1
 90
       50
176
     1
 62
   256
176
     0
 40
1.0
176
     0
 90
        2
176
     1
  1
strokes_ogs.tif
176
     1
290
     0
176
     1
 40
1.0
176
     1
 40
1.0
176
     1
  0
VISUALSTYLE
  5
39
102
{ACAD_REACTORS
330
29
102
}
330
29
100
AcDbVisualStyle
  2
ColorChange
 70
    16
177
     3
291
     1
 70
    58
 90
        2
176
     1
 90
        2
176
     1
 90
        3
176
     1
 90
        0
176
     1
 40
0.6
176
     1
 40
30.0
176
     1
 62
     8
420
  8421504
176
     1
 90
        1
176
     1
 90
        4
176
     1
 62
     7
176
     1
 62
   257
176
     1
 90
        1
176
     1
 90
        1
176
     1
 40
1.0
176
     1
 90
        8
176
     1
 62
     8
420
  8421504
176
     1
 40
1.0
176
     1
 90
        1
176
     1
 90
        6
176
     1
 90
        2
176
     1
 62
     7
176
     1
 90
        5
176
     1
 90
        0
176
     1
 90
        0
176
     1
290
     0
176
     1
 90
        1
176
     1
 40
0.0
176
     1
 90
        0
176
     1
290
     0
176
     1
290
     1
176
     1
290
     1
176
     1
290
     0
176
     1
290
     0
176
     1
290
     0
176
     1
290
     0
176
     1
290
     0
176
     1
290
     0
176
     1
 90
       50
176
     1
 40
0.0
176
     1
 40
1.0
176
     1
 90
        0
176
     1
 62
    18
420
        0
176
     1
 90
       50
176
     1
 90
        3
176
     1
 62
     5
420
      255
176
     1
290
     0
176
     1
 90
       50
176
     1
 90
       50
176
     1
 90
       50
176
     1
290
     0
176
     1
 90
       50
176
     1
 62
   256
176
     0
 40
1.0
176
     0
 90
        2
176
     1
  1
strokes_ogs.tif
176
     1
290
     0
176
     1
 40
1.0
176
     1
 40
1.0
176
     1
  0
VISUALSTYLE
  5
32
102
{ACAD_REACTORS
330
29
102
}
330
29
100
AcDbVisualStyle
  2
Conceptual
 70
     9
177
     3
291
     0
 70
    58
 90
        3
176
     1
 90
        2
176
     1
 90
        0
176
     1
 90
        0
176
     1
 40
0.6
176
     1
 40
30.0
176
     1
 62
     7
420
 16777215
176
     1
 90
        2
176
     1
 90
        2
176
     1
 62
     7
176
     1
 62
   257
176
     1
 90
        1
176
     1
 90
        1
176
     1
 40
179.0
176
     1
 90
        8
176
     1
 62
     7
176
     1
 40
1.0
176
     1
 90
        1
176
     1
 90
        6
176
     1
 90
        2
176
     1
 62
     7
176
     1
 90
        3
176
     1
 90
        0
176
     1
 90
        0
176
     1
290
     0
176
     1
 90
        1
176
     1
 40
0.0
176
     1
 90
        0
176
     1
290
     0
176
     1
290
     1
176
     1
290
     1
176
     1
290
     0
176
     1
290
     0
176
     1
290
     0
176
     1
290
     0
176
     1
290
     0
176
     1
290
     0
176
     1
 90
       50
176
     1
 40
0.0
176
     1
 40
1.0
176
     1
 90
        0
176
     1
 62
    18
420
        0
176
     1
 90
       50
176
     1
 90
        3
176
     1
 62
     5
420
      255
176
     1
290
     0
176
     1
 90
       50
176
     1
 90
       50
176
     1
 90
       50
176
     1
290
     0
176
     1
 90
       50
176
     1
 62
   256
176
     0
 40
1.0
176
     0
 90
        2
176
     1
  1
strokes_ogs.tif
176
     1
290
     0
176
     1
 40
1.0
176
     1
 40
1.0
176
     1
  0
VISUALSTYLE
  5
34
102
{ACAD_REACTORS
330
29
102
}
330
29
100
AcDbVisualStyle
  2
Dim
 70
    11
177
     3
291
     1
 70
    58
 90
        2
176
     1
 90
        2
176
     1
 90
        0
176
     1
 90
        0
176
     1
 40
0.6
176
     1
 40
30.0
176
     1
 62
     7
420
 16777215
176
     1
 90
        1
176
     1
 90
        4
176
     1
 62
     7
176
     1
 62
   257
176
     1
 90
        1
176
     1
 90
        1
176
     1
 40
1.0
176
     1
 90
        8
176
     1
 62
     7
176
     1
 40
1.0
176
     1
 90
        1
176
     1
 90
        6
176
     1
 90
        2
176
     1
 62
     7
176
     1
 90
        5
176
     1
 90
        0
176
     1
 90
        0
176
     1
290
     0
176
     1
 90
        1
176
     1
 40
-50.0
176
     1
 90
        0
176
     1
290
     0
176
     1
290
     1
176
     1
290
     1
176
     1
290
     0
176
     1
290
     0
176
     1
290
     0
176
     1
290
     0
176
     1
290
     0
176
     1
290
     0
176
     1
 90
       50
176
     1
 40
0.0
176
     1
 40
1.0
176
     1
 90
        0
176
     1
 62
    18
420
        0
176
     1
 90
       50
176
     1
 90
        3
176
     1
 62
     5
420
      255
176
     1
290
     0
176
     1
 90
       50
176
     1
 90
       50
176
     1
 90
       50
176
     1
290
     0
176
     1
 90
       50
176
     1
 62
   256
176
     0
 40
1.0
176
     0
 90
        2
176
     1
  1
strokes_ogs.tif
176
     1
290
     0
176
     1
 40
1.0
176
     1
 40
1.0
176
     1
  0
VISUALSTYLE
  5
41
102
{ACAD_REACTORS
330
29
102
}
330
29
100
AcDbVisualStyle
  2
EdgeColorOff
 70
    22
177
     3
291
     1
 70
    58
 90
        2
176
     0
 90
        2
176
     0
 90
        0
176
     0
 90
        0
176
     0
 40
0.6
176
     0
 40
30.0
176
     0
 62
     7
420
 16777215
176
     0
 90
        1
176
     0
 90
        4
176
     0
 62
     7
176
     0
 62
   257
176
     0
 90
        1
176
     0
 90
        1
176
     0
 40
1.0
176
     0
 90
        8
176
     2
 62
     7
176
     0
 40
1.0
176
     0
 90
        1
176
     0
 90
        6
176
     0
 90
        2
176
     0
 62
     7
176
     0
 90
        5
176
     0
 90
        0
176
     0
 90
        0
176
     0
290
     0
176
     0
 90
        1
176
     0
 40
0.0
176
     0
 90
        0
176
     0
290
     0
176
     0
290
     1
176
     0
290
     1
176
     0
290
     0
176
     0
290
     0
176
     0
290
     0
176
     0
290
     0
176
     0
290
     0
176
     0
290
     0
176
     0
 90
       50
176
     0
 40
0.0
176
     0
 40
1.0
176
     0
 90
        0
176
     0
 62
    18
420
        0
176
     0
 90
       50
176
     0
 90
        3
176
     0
 62
     5
420
      255
176
     0
290
     0
176
     0
 90
       50
176
     0
 90
       50
176
     0
 90
       50
176
     0
290
     0
176
     0
 90
       50
176
     0
 62
   256
176
     0
 40
1.0
176
     0
 90
        2
176
     0
  1
strokes_ogs.tif
176
     0
290
     0
176
     0
 40
1.0
176
     0
 40
1.0
176
     0
  0
VISUALSTYLE
  5
38
102
{ACAD_REACTORS
330
29
102
}
330
29
100
AcDbVisualStyle
  2
Facepattern
 70
    15
177
     3
291
     1
 70
    58
 90
        2
176
     1
 90
        2
176
     1
 90
        0
176
     1
 90
        0
176
     1
 40
0.6
176
     1
 40
30.0
176
     1
 62
     7
420
 16777215
176
     1
 90
        1
176
     1
 90
        4
176
     1
 62
     7
176
     1
 62
   257
176
     1
 90
        1
176
     1
 90
        1
176
     1
 40
1.0
176
     1
 90
        8
176
     1
 62
     7
176
     1
 40
1.0
176
     1
 90
        1
176
     1
 90
        6
176
     1
 90
        2
176
     1
 62
     7
176
     1
 90
        5
176
     1
 90
        0
176
     1
 90
        0
176
     1
290
     0
176
     1
 90
        1
176
     1
 40
0.0
176
     1
 90
        0
176
     1
290
     0
176
     1
290
     1
176
     1
290
     1
176
     1
290
     0
176
     1
290
     0
176
     1
290
     0
176
     1
290
     0
176
     1
290
     0
176
     1
290
     0
176
     1
 90
       50
176
     1
 40
0.0
176
     1
 40
1.0
176
     1
 90
        0
176
     1
 62
    18
420
        0
176
     1
 90
       50
176
     1
 90
        3
176
     1
 62
     5
420
      255
176
     1
290
     0
176
     1
 90
       50
176
     1
 90
       50
176
     1
 90
       50
176
     1
290
     0
176
     1
 90
       50
176
     1
 62
   256
176
     0
 40
1.0
176
     0
 90
        2
176
     1
  1
strokes_ogs.tif
176
     1
290
     0
176
     1
 40
1.0
176
     1
 40
1.0
176
     1
  0
VISUALSTYLE
  5
2A
102
{ACAD_REACTORS
330
29
102
}
330
29
100
AcDbVisualStyle
  2
Flat
 70
     0
177
     3
291
     1
 70
    58
 90
        2
176
     1
 90
        1
176
     1
 90
        1
176
     1
 90
        2
176
     1
 40
0.6
176
     1
 40
30.0
176
     1
 62
     7
420
 16777215
176
     1
 90
        0
176
     1
 90
        0
176
     1
 62
     7
176
     1
 62
   257
176
     1
 90
        1
176
     1
 90
        1
176
     1
 40
1.0
176
     1
 90
        8
176
     1
 62
     7
176
     1
 40
1.0
176
     1
 90
        1
176
     1
 90
        6
176
     1
 90
        2
176
     1
 62
     7
176
     1
 90
        5
176
     1
 90
        0
176
     1
 90
        0
176
     1
290
     0
176
     1
 90
       13
176
     1
 40
0.0
176
     1
 90
        0
176
     1
290
     0
176
     1
290
     1
176
     1
290
     1
176
     1
290
     0
176
     1
290
     0
176
     1
290
     0
176
     1
290
     0
176
     1
290
     0
176
     1
290
     0
176
     1
 90
       50
176
     1
 40
0.0
176
     1
 40
1.0
176
     1
 90
        0
176
     1
 62
    18
420
        0
176
     1
 90
       50
176
     1
 90
        3
176
     1
 62
     5
420
      255
176
     1
290
     0
176
     1
 90
       50
176
     1
 90
       50
176
     1
 90
       50
176
     1
290
     0
176
     1
 90
       50
176
     1
 62
   256
176
     0
 40
1.0
176
     0
 90
        2
176
     1
  1
strokes_ogs.tif
176
     1
290
     0
176
     1
 40
1.0
176
     1
 40
1.0
176
     1
  0
VISUALSTYLE
  5
2B
102
{ACAD_REACTORS
330
29
102
}
330
29
100
AcDbVisualStyle
  2
FlatWithEdges
 70
     1
177
     3
291
     1
 70
    58
 90
        2
176
     1
 90
        1
176
     1
 90
        1
176
     1
 90
        2
176
     1
 40
0.6
176
     1
 40
30.0
176
     1
 62
     7
420
 16777215
176
     1
 90
        1
176
     1
 90
        0
176
     1
 62
     7
176
     1
 62
   257
176
     1
 90
        1
176
     1
 90
        1
176
     1
 40
1.0
176
     1
 90
        0
176
     1
 62
   257
176
     1
 40
1.0
176
     1
 90
        1
176
     1
 90
        6
176
     1
 90
        2
176
     1
 62
     7
176
     1
 90
        5
176
     1
 90
        0
176
     1
 90
        0
176
     1
290
     0
176
     1
 90
       13
176
     1
 40
0.0
176
     1
 90
        0
176
     1
290
     0
176
     1
290
     1
176
     1
290
     1
176
     1
290
     0
176
     1
290
     0
176
     1
290
     0
176
     1
290
     0
176
     1
290
     0
176
     1
290
     0
176
     1
 90
       50
176
     1
 40
0.0
176
     1
 40
1.0
176
     1
 90
        0
176
     1
 62
    18
420
        0
176
     1
 90
       50
176
     1
 90
        3
176
     1
 62
     5
420
      255
176
     1
290
     0
176
     1
 90
       50
176
     1
 90
       50
176
     1
 90
       50
176
     1
290
     0
176
     1
 90
       50
176
     1
 62
   256
176
     0
 40
1.0
176
     0
 90
        2
176
     1
  1
strokes_ogs.tif
176
     1
290
     0
176
     1
 40
1.0
176
     1
 40
1.0
176
     1
  0
VISUALSTYLE
  5
2C
102
{ACAD_REACTORS
330
29
102
}
330
29
100
AcDbVisualStyle
  2
Gouraud
 70
     2
177
     3
291
     1
 70
    58
 90
        2
176
     1
 90
        2
176
     1
 90
        1
176
     1
 90
        2
176
     1
 40
0.6
176
     1
 40
30.0
176
     1
 62
     7
420
 16777215
176
     1
 90
        0
176
     1
 90
        0
176
     1
 62
     7
176
     1
 62
   257
176
     1
 90
        1
176
     1
 90
        1
176
     1
 40
1.0
176
     1
 90
        0
176
     1
 62
     7
176
     1
 40
1.0
176
     1
 90
        1
176
     1
 90
        6
176
     1
 90
        2
176
     1
 62
     7
176
     1
 90
        5
176
     1
 90
        0
176
     1
 90
        0
176
     1
290
     0
176
     1
 90
       13
176
     1
 40
0.0
176
     1
 90
        0
176
     1
290
     0
176
     1
290
     1
176
     1
290
     1
176
     1
290
     0
176
     1
290
     0
176
     1
290
     0
176
     1
290
     0
176
     1
290
     0
176
     1
290
     0
176
     1
 90
       50
176
     1
 40
0.0
176
     1
 40
1.0
176
     1
 90
        0
176
     1
 62
    18
420
        0
176
     1
 90
       50
176
     1
 90
        3
176
     1
 62
     5
420
      255
176
     1
290
     0
176
     1
 90
       50
176
     1
 90
       50
176
     1
 90
       50
176
     1
290
     0
176
     1
 90
       50
176
     1
 62
   256
176
     0
 40
1.0
176
     0
 90
        2
176
     1
  1
strokes_ogs.tif
176
     1
290
     0
176
     1
 40
1.0
176
     1
 40
1.0
176
     1
  0
VISUALSTYLE
  5
2D
102
{ACAD_REACTORS
330
29
102
}
330
29
100
AcDbVisualStyle
  2
GouraudWithEdges
 70
     3
177
     3
291
     1
 70
    58
 90
        2
176
     1
 90
        2
176
     1
 90
        1
176
     1
 90
        2
176
     1
 40
0.6
176
     1
 40
30.0
176
     1
 62
     7
420
 16777215
176
     1
 90
        1
176
     1
 90
        0
176
     1
 62
     7
176
     1
 62
   257
176
     1
 90
        1
176
     1
 90
        1
176
     1
 40
1.0
176
     1
 90
        0
176
     1
 62
   257
176
     1
 40
1.0
176
     1
 90
        1
176
     1
 90
        6
176
     1
 90
        2
176
     1
 62
     7
176
     1
 90
        5
176
     1
 90
        0
176
     1
 90
        0
176
     1
290
     0
176
     1
 90
       13
176
     1
 40
0.0
176
     1
 90
        0
176
     1
290
     0
176
     1
290
     1
176
     1
290
     1
176
     1
290
     0
176
     1
290
     0
176
     1
290
     0
176
     1
290
     0
176
     1
290
     0
176
     1
290
     0
176
     1
 90
       50
176
     1
 40
0.0
176
     1
 40
1.0
176
     1
 90
        0
176
     1
 62
    18
420
        0
176
     1
 90
       50
176
     1
 90
        3
176
     1
 62
     5
420
      255
176
     1
290
     0
176
     1
 90
       50
176
     1
 90
       50
176
     1
 90
       50
176
     1
290
     0
176
     1
 90
       50
176
     1
 62
   256
176
     0
 40
1.0
176
     0
 90
        2
176
     1
  1
strokes_ogs.tif
176
     1
290
     0
176
     1
 40
1.0
176
     1
 40
1.0
176
     1
  0
VISUALSTYLE
  5
31
102
{ACAD_REACTORS
330
29
102
}
330
29
100
AcDbVisualStyle
  2
Hidden
 70
     6
177
     3
291
     0
 70
    58
 90
        1
176
     1
 90
        2
176
     1
 90
        2
176
     1
 90
        0
176
     1
 40
0.6
176
     1
 40
30.0
176
     1
 62
     7
420
 16777215
176
     1
 90
        2
176
     1
 90
        2
176
     1
 62
     7
176
     1
 62
   257
176
     1
 90
        2
176
     1
 90
        1
176
     1
 40
40.0
176
     1
 90
        0
176
     1
 62
   257
176
     1
 40
1.0
176
     1
 90
        1
176
     1
 90
        6
176
     1
 90
        2
176
     1
 62
     7
176
     1
 90
        3
176
     1
 90
        0
176
     1
 90
        0
176
     1
290
     0
176
     1
 90
        1
176
     1
 40
0.0
176
     1
 90
        0
176
     1
290
     0
176
     1
290
     1
176
     1
290
     1
176
     1
290
     0
176
     1
290
     0
176
     1
290
     0
176
     1
290
     0
176
     1
290
     0
176
     1
290
     0
176
     1
 90
       50
176
     1
 40
0.0
176
     1
 40
1.0
176
     1
 90
        0
176
     1
 62
    18
420
        0
176
     1
 90
       50
176
     1
 90
        3
176
     1
 62
     5
420
      255
176
     1
290
     0
176
     1
 90
       50
176
     1
 90
       50
176
     1
 90
       50
176
     1
290
     0
176
     1
 90
       50
176
     1
 62
   256
176
     0
 40
1.0
176
     0
 90
        2
176
     1
  1
strokes_ogs.tif
176
     1
290
     0
176
     1
 40
1.0
176
     1
 40
1.0
176
     1
  0
VISUALSTYLE
  5
3F
102
{ACAD_REACTORS
330
29
102
}
330
29
100
AcDbVisualStyle
  2
JitterOff
 70
    20
177
     3
291
     1
 70
    58
 90
        2
176
     0
 90
        2
176
     0
 90
        0
176
     0
 90
        0
176
     0
 40
0.6
176
     0
 40
30.0
176
     0
 62
     7
420
 16777215
176
     0
 90
        1
176
     0
 90
        4
176
     0
 62
     7
176
     0
 62
   257
176
     0
 90
        1
176
     0
 90
        1
176
     0
 40
1.0
176
     0
 90
       10
176
     2
 62
     7
176
     0
 40
1.0
176
     0
 90
        1
176
     0
 90
        6
176
     0
 90
        2
176
     0
 62
     7
176
     0
 90
        5
176
     0
 90
        0
176
     0
 90
        0
176
     0
290
     0
176
     0
 90
        1
176
     0
 40
0.0
176
     0
 90
        0
176
     0
290
     0
176
     0
290
     1
176
     0
290
     1
176
     0
290
     0
176
     0
290
     0
176
     0
290
     0
176
     0
290
     0
176
     0
290
     0
176
     0
290
     0
176
     0
 90
       50
176
     0
 40
0.0
176
     0
 40
1.0
176
     0
 90
        0
176
     0
 62
    18
420
        0
176
     0
 90
       50
176
     0
 90
        3
176
     0
 62
     5
420
      255
176
     0
290
     0
176
     0
 90
       50
176
     0
 90
       50
176
     0
 90
       50
176
     0
290
     0
176
     0
 90
       50
176
     0
 62
   256
176
     0
 40
1.0
176
     0
 90
        2
176
     0
  1
strokes_ogs.tif
176
     0
290
     0
176
     0
 40
1.0
176
     0
 40
1.0
176
     0
  0
VISUALSTYLE
  5
37
102
{ACAD_REACTORS
330
29
102
}
330
29
100
AcDbVisualStyle
  2
Linepattern
 70
    14
177
     3
291
     1
 70
    58
 90
        2
176
     1
 90
        2
176
     1
 90
        0
176
     1
 90
        0
176
     1
 40
0.6
176
     1
 40
30.0
176
     1
 62
     7
420
 16777215
176
     1
 90
        1
176
     1
 90
        4
176
     1
 62
     7
176
     1
 62
   257
176
     1
 90
        7
176
     1
 90
        7
176
     1
 40
1.0
176
     1
 90
        8
176
     1
 62
     7
176
     1
 40
1.0
176
     1
 90
        1
176
     1
 90
        6
176
     1
 90
        2
176
     1
 62
     7
176
     1
 90
        5
176
     1
 90
        0
176
     1
 90
        0
176
     1
290
     0
176
     1
 90
        1
176
     1
 40
0.0
176
     1
 90
        0
176
     1
290
     0
176
     1
290
     1
176
     1
290
     1
176
     1
290
     0
176
     1
290
     0
176
     1
290
     0
176
     1
290
     0
176
     1
290
     0
176
     1
290
     0
176
     1
 90
       50
176
     1
 40
0.0
176
     1
 40
1.0
176
     1
 90
        0
176
     1
 62
    18
420
        0
176
     1
 90
       50
176
     1
 90
        3
176
     1
 62
     5
420
      255
176
     1
290
     0
176
     1
 90
       50
176
     1
 90
       50
176
     1
 90
       50
176
     1
290
     0
176
     1
 90
       50
176
     1
 62
   256
176
     0
 40
1.0
176
     0
 90
        2
176
     1
  1
strokes_ogs.tif
176
     1
290
     0
176
     1
 40
1.0
176
     1
 40
1.0
176
     1
  0
VISUALSTYLE
  5
40
102
{ACAD_REACTORS
330
29
102
}
330
29
100
AcDbVisualStyle
  2
OverhangOff
 70
    21
177
     3
291
     1
 70
    58
 90
        2
176
     0
 90
        2
176
     0
 90
        0
176
     0
 90
        0
176
     0
 40
0.6
176
     0
 40
30.0
176
     0
 62
     7
420
 16777215
176
     0
 90
        1
176
     0
 90
        4
176
     0
 62
     7
176
     0
 62
   257
176
     0
 90
        1
176
     0
 90
        1
176
     0
 40
1.0
176
     0
 90
        9
176
     2
 62
     7
176
     0
 40
1.0
176
     0
 90
        1
176
     0
 90
        6
176
     0
 90
        2
176
     0
 62
     7
176
     0
 90
        5
176
     0
 90
        0
176
     0
 90
        0
176
     0
290
     0
176
     0
 90
        1
176
     0
 40
0.0
176
     0
 90
        0
176
     0
290
     0
176
     0
290
     1
176
     0
290
     1
176
     0
290
     0
176
     0
290
     0
176
     0
290
     0
176
     0
290
     0
176
     0
290
     0
176
     0
290
     0
176
     0
 90
       50
176
     0
 40
0.0
176
     0
 40
1.0
176
     0
 90
        0
176
     0
 62
    18
420
        0
176
     0
 90
       50
176
     0
 90
        3
176
     0
 62
     5
420
      255
176
     0
290
     0
176
     0
 90
       50
176
     0
 90
       50
176
     0
 90
       50
176
     0
290
     0
176
     0
 90
       50
176
     0
 62
   256
176
     0
 40
1.0
176
     0
 90
        2
176
     0
  1
strokes_ogs.tif
176
     0
290
     0
176
     0
 40
1.0
176
     0
 40
1.0
176
     0
  0
VISUALSTYLE
  5
33
102
{ACAD_REACTORS
330
29
102
}
330
29
100
AcDbVisualStyle
  2
Realistic
 70
     8
177
     3
291
     0
 70
    58
 90
        2
176
     1
 90
        3
176
     1
 90
        0
176
     1
 90
        2
176
     1
 40
0.6
176
     1
 40
30.0
176
     1
 62
     7
420
 16777215
176
     1
 90
        0
176
     1
 90
        0
176
     1
 62
     7
176
     1
 62
   257
176
     1
 90
        1
176
     1
 90
        1
176
     1
 40
1.0
176
     1
 90
        8
176
     1
 62
   257
176
     1
 40
1.0
176
     1
 90
        1
176
     1
 90
        6
176
     1
 90
        2
176
     1
 62
     7
176
     1
 90
        3
176
     1
 90
        0
176
     1
 90
        0
176
     1
290
     0
176
     1
 90
       13
176
     1
 40
0.0
176
     1
 90
        0
176
     1
290
     0
176
     1
290
     1
176
     1
290
     1
176
     1
290
     0
176
     1
290
     0
176
     1
290
     0
176
     1
290
     0
176
     1
290
     0
176
     1
290
     0
176
     1
 90
       50
176
     1
 40
0.0
176
     1
 40
1.0
176
     1
 90
        0
176
     1
 62
    18
420
        0
176
     1
 90
       50
176
     1
 90
        3
176
     1
 62
     5
420
      255
176
     1
290
     0
176
     1
 90
       50
176
     1
 90
       50
176
     1
 90
       50
176
     1
290
     0
176
     1
 90
       50
176
     1
 62
   256
176
     0
 40
1.0
176
     0
 90
        2
176
     1
  1
strokes_ogs.tif
176
     1
290
     0
176
     1
 40
1.0
176
     1
 40
1.0
176
     1
  0
VISUALSTYLE
  5
3E
102
{ACAD_REACTORS
330
29
102
}
330
29
100
AcDbVisualStyle
  2
Shaded
 70
    27
177
     3
291
     0
 70
    58
 90
        2
176
     1
 90
        2
176
     1
 90
        1
176
     1
 90
        2
176
     1
 40
0.6
176
     1
 40
30.0
176
     1
 62
     7
420
 16777215
176
     1
 90
        0
176
     1
 90
        4
176
     1
 62
     7
176
     1
 62
   257
176
     1
 90
        1
176
     1
 90
        1
176
     1
 40
1.0
176
     1
 90
        8
176
     1
 62
   257
176
     1
 40
1.0
176
     1
 90
        1
176
     1
 90
        6
176
     1
 90
        2
176
     1
 62
     8
420
  7895160
176
     1
 90
        3
176
     1
 90
        0
176
     1
 90
        0
176
     1
290
     0
176
     1
 90
        5
176
     1
 40
0.0
176
     1
 90
        0
176
     1
290
     0
176
     1
290
     1
176
     1
290
     1
176
     1
290
     0
176
     1
290
     0
176
     1
290
     0
176
     1
290
     0
176
     1
290
     0
176
     1
290
     0
176
     1
 90
       50
176
     1
 40
0.0
176
     1
 40
1.0
176
     1
 90
        0
176
     1
 62
    18
420
        0
176
     1
 90
       50
176
     1
 90
        3
176
     1
 62
     5
420
      255
176
     1
290
     0
176
     1
 90
       50
176
     1
 90
       50
176
     1
 90
       50
176
     1
290
     0
176
     1
 90
       50
176
     1
 62
   256
176
     0
 40
1.0
176
     0
 90
        2
176
     1
  1
strokes_ogs.tif
176
     1
290
     0
176
     1
 40
1.0
176
     1
 40
1.0
176
     1
  0
VISUALSTYLE
  5
3D
102
{ACAD_REACTORS
330
29
102
}
330
29
100
AcDbVisualStyle
  2
Shaded with edges
 70
    26
177
     3
291
     0
 70
    58
 90
        2
176
     1
 90
        2
176
     1
 90
        1
176
     1
 90
        2
176
     1
 40
0.6
176
     1
 40
30.0
176
     1
 62
     7
420
 16777215
176
     1
 90
        1
176
     1
 90
        2
176
     1
 62
     7
176
     1
 62
   257
176
     1
 90
        2
176
     1
 90
        1
176
     1
 40
1.0
176
     1
 90
        8
176
     1
 62
   257
176
     1
 40
1.0
176
     1
 90
        1
176
     1
 90
        6
176
     1
 90
        2
176
     1
 62
     7
176
     1
 90
        3
176
     1
 90
        0
176
     1
 90
        0
176
     1
290
     0
176
     1
 90
        5
176
     1
 40
0.0
176
     1
 90
        0
176
     1
290
     0
176
     1
290
     1
176
     1
290
     1
176
     1
290
     0
176
     1
290
     0
176
     1
290
     0
176
     1
290
     0
176
     1
290
     0
176
     1
290
     0
176
     1
 90
       50
176
     1
 40
0.0
176
     1
 40
1.0
176
     1
 90
        0
176
     1
 62
    18
420
        0
176
     1
 90
       50
176
     1
 90
        3
176
     1
 62
     5
420
      255
176
     1
290
     0
176
     1
 90
       50
176
     1
 90
       50
176
     1
 90
       50
176
     1
290
     0
176
     1
 90
       50
176
     1
 62
   256
176
     0
 40
1.0
176
     0
 90
        2
176
     1
  1
strokes_ogs.tif
176
     1
290
     0
176
     1
 40
1.0
176
     1
 40
1.0
176
     1
  0
VISUALSTYLE
  5
3A
102
{ACAD_REACTORS
330
29
102
}
330
29
100
AcDbVisualStyle
  2
Shades of Gray
 70
    23
177
     3
291
     0
 70
    58
 90
        2
176
     1
 90
        2
176
     1
 90
        3
176
     1
 90
        0
176
     1
 40
0.6
176
     1
 40
30.0
176
     1
 62
     7
420
 16777215
176
     1
 90
        2
176
     1
 90
        2
176
     1
 62
     7
176
     1
 62
     7
176
     1
 90
        1
176
     1
 90
        1
176
     1
 40
40.0
176
     1
 90
        8
176
     1
 62
     7
176
     1
 40
1.0
176
     1
 90
        1
176
     1
 90
        6
176
     1
 90
        2
176
     1
 62
     7
176
     1
 90
        3
176
     1
 90
        0
176
     1
 90
        0
176
     1
290
     0
176
     1
 90
        1
176
     1
 40
0.0
176
     1
 90
        0
176
     1
290
     0
176
     1
290
     1
176
     1
290
     1
176
     1
290
     0
176
     1
290
     0
176
     1
290
     0
176
     1
290
     0
176
     1
290
     0
176
     1
290
     0
176
     1
 90
       50
176
     1
 40
0.0
176
     1
 40
1.0
176
     1
 90
        0
176
     1
 62
    18
420
        0
176
     1
 90
       50
176
     1
 90
        3
176
     1
 62
     5
420
      255
176
     1
290
     0
176
     1
 90
       50
176
     1
 90
       50
176
     1
 90
       50
176
     1
290
     0
176
     1
 90
       50
176
     1
 62
   256
176
     0
 40
1.0
176
     0
 90
        2
176
     1
  1
strokes_ogs.tif
176
     1
290
     0
176
     1
 40
1.0
176
     1
 40
1.0
176
     1
  0
VISUALSTYLE
  5
3B
102
{ACAD_REACTORS
330
29
102
}
330
29
100
AcDbVisualStyle
  2
Sketchy
 70
    24
177
     3
291
     0
 70
    58
 90
        1
176
     1
 90
        2
176
     1
 90
        2
176
     1
 90
        0
176
     1
 40
0.6
176
     1
 40
30.0
176
     1
 62
     7
420
 16777215
176
     1
 90
        2
176
     1
 90
        2
176
     1
 62
     7
176
     1
 62
     7
176
     1
 90
        1
176
     1
 90
        1
176
     1
 40
40.0
176
     1
 90
       11
176
     1
 62
     7
176
     1
 40
1.0
176
     1
 90
        1
176
     1
 90
        6
176
     1
 90
        2
176
     1
 62
     7
176
     1
 90
        6
176
     1
 90
        0
176
     1
 90
        0
176
     1
290
     0
176
     1
 90
        1
176
     1
 40
0.0
176
     1
 90
        0
176
     1
290
     0
176
     1
290
     1
176
     1
290
     1
176
     1
290
     0
176
     1
290
     0
176
     1
290
     0
176
     1
290
     0
176
     1
290
     0
176
     1
290
     0
176
     1
 90
       50
176
     1
 40
0.0
176
     1
 40
1.0
176
     1
 90
        0
176
     1
 62
    18
420
        0
176
     1
 90
       50
176
     1
 90
        3
176
     1
 62
     5
420
      255
176
     1
290
     0
176
     1
 90
       50
176
     1
 90
       50
176
     1
 90
       50
176
     1
290
     0
176
     1
 90
       50
176
     1
 62
   256
176
     0
 40
1.0
176
     0
 90
        2
176
     1
  1
strokes_ogs.tif
176
     1
290
     0
176
     1
 40
1.0
176
     1
 40
1.0
176
     1
  0
VISUALSTYLE
  5
36
102
{ACAD_REACTORS
330
29
102
}
330
29
100
AcDbVisualStyle
  2
Thicken
 70
    13
177
     3
291
     1
 70
    58
 90
        2
176
     1
 90
        2
176
     1
 90
        0
176
     1
 90
        0
176
     1
 40
0.6
176
     1
 40
30.0
176
     1
 62
     7
420
 16777215
176
     1
 90
        1
176
     1
 90
        4
176
     1
 62
     7
176
     1
 62
   257
176
     1
 90
        1
176
     1
 90
        1
176
     1
 40
1.0
176
     1
 90
       12
176
     1
 62
     7
176
     1
 40
1.0
176
     1
 90
        1
176
     1
 90
        6
176
     1
 90
        2
176
     1
 62
     7
176
     1
 90
        5
176
     1
 90
        0
176
     1
 90
        0
176
     1
290
     0
176
     1
 90
        1
176
     1
 40
0.0
176
     1
 90
        0
176
     1
290
     0
176
     1
290
     1
176
     1
290
     1
176
     1
290
     0
176
     1
290
     0
176
     1
290
     0
176
     1
290
     0
176
     1
290
     0
176
     1
290
     0
176
     1
 90
       50
176
     1
 40
0.0
176
     1
 40
1.0
176
     1
 90
        0
176
     1
 62
    18
420
        0
176
     1
 90
       50
176
     1
 90
        3
176
     1
 62
     5
420
      255
176
     1
290
     0
176
     1
 90
       50
176
     1
 90
       50
176
     1
 90
       50
176
     1
290
     0
176
     1
 90
       50
176
     1
 62
   256
176
     0
 40
1.0
176
     0
 90
        2
176
     1
  1
strokes_ogs.tif
176
     1
290
     0
176
     1
 40
1.0
176
     1
 40
1.0
176
     1
  0
VISUALSTYLE
  5
30
102
{ACAD_REACTORS
330
29
102
}
330
29
100
AcDbVisualStyle
  2
Wireframe
 70
     5
177
     3
291
     0
 70
    58
 90
        0
176
     1
 90
        2
176
     1
 90
        0
176
     1
 90
        0
176
     1
 40
0.6
176
     1
 40
30.0
176
     1
 62
     7
420
 16777215
176
     1
 90
        1
176
     1
 90
        4
176
     1
 62
     7
176
     1
 62
   257
176
     1
 90
        1
176
     1
 90
        1
176
     1
 40
1.0
176
     1
 90
        0
176
     1
 62
   257
176
     1
 40
1.0
176
     1
 90
        1
176
     1
 90
        6
176
     1
 90
        2
176
     1
 62
     7
176
     1
 90
        3
176
     1
 90
        0
176
     1
 90
        0
176
     1
290
     0
176
     1
 90
        1
176
     1
 40
0.0
176
     1
 90
        0
176
     1
290
     0
176
     1
290
     1
176
     1
290
     1
176
     1
290
     0
176
     1
290
     0
176
     1
290
     0
176
     1
290
     0
176
     1
290
     0
176
     1
290
     0
176
     1
 90
       50
176
     1
 40
0.0
176
     1
 40
1.0
176
     1
 90
        0
176
     1
 62
    18
420
        0
176
     1
 90
       50
176
     1
 90
        3
176
     1
 62
     5
420
      255
176
     1
290
     0
176
     1
 90
       50
176
     1
 90
       50
176
     1
 90
       50
176
     1
290
     0
176
     1
 90
       50
176
     1
 62
   256
176
     0
 40
1.0
176
     0
 90
        2
176
     1
  1
strokes_ogs.tif
176
     1
290
     0
176
     1
 40
1.0
176
     1
 40
1.0
176
     1
  0
VISUALSTYLE
  5
3C
102
{ACAD_REACTORS
330
29
102
}
330
29
100
AcDbVisualStyle
  2
X-Ray
 70
    25
177
     3
291
     0
 70
    58
 90
        2
176
     1
 90
        2
176
     1
 90
        1
176
     1
 90
        1
176
     1
 40
0.5
176
     1
 40
30.0
176
     1
 62
     7
420
 16777215
176
     1
 90
        1
176
     1
 90
        0
176
     1
 62
     7
176
     1
 62
   257
176
     1
 90
        1
176
     1
 90
        1
176
     1
 40
1.0
176
     1
 90
        8
176
     1
 62
     7
176
     1
 40
1.0
176
     1
 90
        1
176
     1
 90
        6
176
     1
 90
        2
176
     1
 62
     7
176
     1
 90
        3
176
     1
 90
        0
176
     1
 90
        0
176
     1
290
     0
176
     1
 90
       13
176
     1
 40
0.0
176
     1
 90
        0
176
     1
290
     0
176
     1
290
     1
176
     1
290
     1
176
     1
290
     0
176
     1
290
     0
176
     1
290
     0
176
     1
290
     0
176
     1
290
     0
176
     1
290
     0
176
     1
 90
       50
176
     1
 40
0.0
176
     1
 40
1.0
176
     1
 90
        0
176
     1
 62
    18
420
        0
176
     1
 90
       50
176
     1
 90
        3
176
     1
 62
     5
420
      255
176
     1
290
     0
176
     1
 90
       50
176
     1
 90
       50
176
     1
 90
       50
176
     1
290
     0
176
     1
 90
       50
176
     1
 62
   256
176
     0
 40
1.0
176
     0
 90
        2
176
     1
  1
strokes_ogs.tif
176
     1
290
     0
176
     1
 40
1.0
176
     1
 40
1.0
176
     1
  0
DICTIONARYVAR
  5
176
102
{ACAD_REACTORS
330
171
102
}
330
171
100
DictionaryVariables
280
     0
  1
1:1
  0
DICTIONARYVAR
  5
173
102
{ACAD_REACTORS
330
171
102
}
330
171
100
DictionaryVariables
280
     0
  1
STANDARD
  0
DICTIONARYVAR
  5
172
102
{ACAD_REACTORS
330
171
102
}
330
171
100
DictionaryVariables
280
     0
  1
STANDARD
  0
DICTIONARYVAR
  5
174
102
{ACAD_REACTORS
330
171
102
}
330
171
100
DictionaryVariables
280
     0
  1
Imperial24
  0
DICTIONARYVAR
  5
175
102
{ACAD_REACTORS
330
171
102
}
330
171
100
DictionaryVariables
280
     0
  1
Imperial24
  0
DICTIONARY
  5
1A
330
19
100
AcDbDictionary
280
     1
281
     1
  3
BUMPTILE
360
1C
  3
DIFFUSETILE
360
1B
  3
OPACITYTILE
360
1F
  3
REFLECTIONTILE
360
1E
  3
REFRACTIONTILE
360
20
  3
SPECULARTILE
360
1D
  0
DICTIONARY
  5
12
330
11
100
AcDbDictionary
280
     1
281
     1
  3
BUMPTILE
360
14
  3
DIFFUSETILE
360
13
  3
OPACITYTILE
360
17
  3
REFLECTIONTILE
360
16
  3
REFRACTIONTILE
360
18
  3
SPECULARTILE
360
15
  0
DICTIONARY
  5
22
330
21
100
AcDbDictionary
280
     1
281
     1
  3
BUMPTILE
360
24
  3
DIFFUSETILE
360
23
  3
OPACITYTILE
360
27
  3
REFLECTIONTILE
360
26
  3
REFRACTIONTILE
360
28
  3
SPECULARTILE
360
25
  0
DICTIONARY
  5
177
330
65
100
AcDbDictionary
280
     1
281
     1
  3
ACAD_ROUNDTRIP_2008_TABLESTYLE_CELLSTYLEMAP
360
178
  0
XRECORD
  5
1C
102
{ACAD_REACTORS
330
1A
102
}
330
1A
100
AcDbXrecord
280
     1
270
     1
271
     1
  0
XRECORD
  5
1B
102
{ACAD_REACTORS
330
1A
102
}
330
1A
100
AcDbXrecord
280
     1
270
     1
271
     1
  0
XRECORD
  5
1F
102
{ACAD_REACTORS
330
1A
102
}
330
1A
100
AcDbXrecord
280
     1
270
     1
271
     1
  0
XRECORD
  5
1E
102
{ACAD_REACTORS
330
1A
102
}
330
1A
100
AcDbXrecord
280
     1
270
     1
271
     1
  0
XRECORD
  5
20
102
{ACAD_REACTORS
330
1A
102
}
330
1A
100
AcDbXrecord
280
     1
270
     1
271
     1
  0
XRECORD
  5
1D
102
{ACAD_REACTORS
330
1A
102
}
330
1A
100
AcDbXrecord
280
     1
270
     1
271
     1
  0
XRECORD
  5
14
102
{ACAD_REACTORS
330
12
102
}
330
12
100
AcDbXrecord
280
     1
270
     1
271
     1
  0
XRECORD
  5
13
102
{ACAD_REACTORS
330
12
102
}
330
12
100
AcDbXrecord
280
     1
270
     1
271
     1
  0
XRECORD
  5
17
102
{ACAD_REACTORS
330
12
102
}
330
12
100
AcDbXrecord
280
     1
270
     1
271
     1
  0
XRECORD
  5
16
102
{ACAD_REACTORS
330
12
102
}
330
12
100
AcDbXrecord
280
     1
270
     1
271
     1
  0
XRECORD
  5
18
102
{ACAD_REACTORS
330
12
102
}
330
12
100
AcDbXrecord
280
     1
270
     1
271
     1
  0
XRECORD
  5
15
102
{ACAD_REACTORS
330
12
102
}
330
12
100
AcDbXrecord
280
     1
270
     1
271
     1
  0
XRECORD
  5
24
102
{ACAD_REACTORS
330
22
102
}
330
22
100
AcDbXrecord
280
     1
270
     1
271
     1
  0
XRECORD
  5
23
102
{ACAD_REACTORS
330
22
102
}
330
22
100
AcDbXrecord
280
     1
270
     1
271
     1
  0
XRECORD
  5
27
102
{ACAD_REACTORS
330
22
102
}
330
22
100
AcDbXrecord
280
     1
270
     1
271
     1
  0
XRECORD
  5
26
102
{ACAD_REACTORS
330
22
102
}
330
22
100
AcDbXrecord
280
     1
270
     1
271
     1
  0
XRECORD
  5
28
102
{ACAD_REACTORS
330
22
102
}
330
22
100
AcDbXrecord
280
     1
270
     1
271
     1
  0
XRECORD
  5
25
102
{ACAD_REACTORS
330
22
102
}
330
22
100
AcDbXrecord
280
     1
270
     1
271
     1
  0
CELLSTYLEMAP
  5
178
102
{ACAD_REACTORS
330
177
102
}
330
177
100
AcDbCellStyleMap
 90
        3
300
CELLSTYLE
  1
TABLEFORMAT_BEGIN
 90
        5
170
     1
 91
        0
 92
    32768
 62
   257
 93
        1
300
CONTENTFORMAT
  1
CONTENTFORMAT_BEGIN
 90
        0
 91
        0
 92
      512
 93
        0
300

 40
0.0
140
1.0
 94
        5
 62
     0
340
55
144
0.25
309
CONTENTFORMAT_END
171
     0
 94
        0
309
TABLEFORMAT_END
  1
CELLSTYLE_BEGIN
 90
        1
 91
        1
300
_TITLE
309
CELLSTYLE_END
300
CELLSTYLE
  1
TABLEFORMAT_BEGIN
 90
        5
170
     1
 91
        0
 92
        0
 62
   257
 93
        1
300
CONTENTFORMAT
  1
CONTENTFORMAT_BEGIN
 90
        0
 91
        0
 92
      512
 93
        0
300

 40
0.0
140
1.0
 94
        5
 62
     0
340
55
144
0.18
309
CONTENTFORMAT_END
171
     0
 94
        0
309
TABLEFORMAT_END
  1
CELLSTYLE_BEGIN
 90
        2
 91
        1
300
_HEADER
309
CELLSTYLE_END
300
CELLSTYLE
  1
TABLEFORMAT_BEGIN
 90
        5
170
     1
 91
        0
 92
        0
 62
   257
 93
        1
300
CONTENTFORMAT
  1
CONTENTFORMAT_BEGIN
 90
        0
 91
        0
 92
      512
 93
        0
300

 40
0.0
140
1.0
 94
        2
 62
     0
340
55
144
0.18
309
CONTENTFORMAT_END
171
     0
 94
        0
309
TABLEFORMAT_END
  1
CELLSTYLE_BEGIN
 90
        3
 91
        2
300
_DATA
309
CELLSTYLE_END
  0
ENDSEC
  0
EOF
