  0
SECTION
  2
HEADER
  9
$ACADVER
  1
AC1032
  9
$ACADMAINTVER
 90
      228
  9
$DWGCODEPAGE
  3
ANSI_932
  9
$REQUIREDVERSIONS
160
                 0
  9
$INSBASE
 10
0.0
 20
0.0
 30
0.0
  9
$EXTMIN
 10
1.000000000000000E+20
 20
1.000000000000000E+20
 30
1.000000000000000E+20
  9
$EXTMAX
 10
-1.000000000000000E+20
 20
-1.000000000000000E+20
 30
-1.000000000000000E+20
  9
$LIMMIN
 10
0.0
 20
0.0
  9
$LIMMAX
 10
12.0
 20
9.0
  9
$ORTHOMODE
 70
     0
  9
$REGENMODE
 70
     1
  9
$FILLMODE
 70
     1
  9
$QTEXTMODE
 70
     0
  9
$MIRRTEXT
 70
     0
  9
$LTSCALE
 40
1.0
  9
$ATTMODE
 70
     1
  9
$TEXTSIZE
 40
0.2
  9
$TRACEWID
 40
0.05
  9
$TEXTSTYLE
  7
Standard
  9
$CLAYER
  8
0
  9
$CELTYPE
  6
ByLayer
  9
$CECOLOR
 62
   256
  9
$CELTSCALE
 40
1.0
  9
$DISPSILH
 70
     0
  9
$DIMSCALE
 40
1.0
  9
$DIMASZ
 40
0.18
  9
$DIMEXO
 40
0.0625
  9
$DIMDLI
 40
0.38
  9
$DIMRND
 40
0.0
  9
$DIMDLE
 40
0.0
  9
$DIMEXE
 40
0.18
  9
$DIMTP
 40
0.0
  9
$DIMTM
 40
0.0
  9
$DIMTXT
 40
0.18
  9
$DIMCEN
 40
0.09
  9
$DIMTSZ
 40
0.0
  9
$DIMTOL
 70
     0
  9
$DIMLIM
 70
     0
  9
$DIMTIH
 70
     1
  9
$DIMTOH
 70
     1
  9
$DIMSE1
 70
     0
  9
$DIMSE2
 70
     0
  9
$DIMTAD
 70
     0
  9
$DIMZIN
 70
     0
  9
$DIMBLK
  1

  9
$DIMASO
 70
     1
  9
$DIMSHO
 70
     1
  9
$DIMPOST
  1

  9
$DIMAPOST
  1

  9
$DIMALT
 70
     0
  9
$DIMALTD
 70
     2
  9
$DIMALTF
 40
25.4
  9
$DIMLFAC
 40
1.0
  9
$DIMTOFL
 70
     0
  9
$DIMTVP
 40
0.0
  9
$DIMTIX
 70
     0
  9
$DIMSOXD
 70
     0
  9
$DIMSAH
 70
     0
  9
$DIMBLK1
  1

  9
$DIMBLK2
  1

  9
$DIMSTYLE
  2
Standard
  9
$DIMCLRD
 70
     0
  9
$DIMCLRE
 70
     0
  9
$DIMCLRT
 70
     0
  9
$DIMTFAC
 40
1.0
  9
$DIMGAP
 40
0.09
  9
$DIMJUST
 70
     0
  9
$DIMSD1
 70
     0
  9
$DIMSD2
 70
     0
  9
$DIMTOLJ
 70
     1
  9
$DIMTZIN
 70
     0
  9
$DIMALTZ
 70
     0
  9
$DIMALTTZ
 70
     0
  9
$DIMUPT
 70
     0
  9
$DIMDEC
 70
     4
  9
$DIMTDEC
 70
     4
  9
$DIMALTU
 70
     2
  9
$DIMALTTD
 70
     2
  9
$DIMTXSTY
  7
Standard
  9
$DIMAUNIT
 70
     0
  9
$DIMADEC
 70
     0
  9
$DIMALTRND
 40
0.0
  9
$DIMAZIN
 70
     0
  9
$DIMDSEP
 70
    46
  9
$DIMATFIT
 70
     3
  9
$DIMFRAC
 70
     0
  9
$DIMLDRBLK
  1

  9
$DIMLUNIT
 70
     2
  9
$DIMLWD
 70
    -2
  9
$DIMLWE
 70
    -2
  9
$DIMTMOVE
 70
     0
  9
$DIMFXL
 40
1.0
  9
$DIMFXLON
 70
     0
  9
$DIMJOGANG
 40
0.7853981633974483
  9
$DIMTFILL
 70
     0
  9
$DIMTFILLCLR
 70
     0
  9
$DIMARCSYM
 70
     0
  9
$DIMLTYPE
  6

  9
$DIMLTEX1
  6

  9
$DIMLTEX2
  6

  9
$DIMTXTDIRECTION
 70
     0
  9
$LUNITS
 70
     2
  9
$LUPREC
 70
     4
  9
$SKETCHINC
 40
0.1
  9
$FILLETRAD
 40
0.0
  9
$AUNITS
 70
     0
  9
$AUPREC
 70
     0
  9
$MENU
  1
.
  9
$ELEVATION
 40
0.0
  9
$PELEVATION
 40
0.0
  9
$THICKNESS
 40
0.0
  9
$LIMCHECK
 70
     0
  9
$CHAMFERA
 40
0.0
  9
$CHAMFERB
 40
0.0
  9
$CHAMFERC
 40
0.0
  9
$CHAMFERD
 40
0.0
  9
$SKPOLY
 70
     0
  9
$TDCREATE
 40
2460062.650497685
  9
$TDUCREATE
 40
2460062.275497685
  9
$TDUPDATE
 40
2460062.650497685
  9
$TDUUPDATE
 40
2460062.275497685
  9
$TDINDWG
 40
0.0000000000
  9
$TDUSRTIMER
 40
0.0000000000
  9
$USRTIMER
 70
     1
  9
$ANGBASE
 50
0.0
  9
$ANGDIR
 70
     0
  9
$PDMODE
 70
     0
  9
$PDSIZE
 40
0.0
  9
$PLINEWID
 40
0.0
  9
$SPLFRAME
 70
     0
  9
$SPLINETYPE
 70
     6
  9
$SPLINESEGS
 70
     8
  9
$HANDSEED
  5
20B
  9
$SURFTAB1
 70
     6
  9
$SURFTAB2
 70
     6
  9
$SURFTYPE
 70
     6
  9
$SURFU
 70
     6
  9
$SURFV
 70
     6
  9
$UCSBASE
  2

  9
$UCSNAME
  2

  9
$UCSORG
 10
0.0
 20
0.0
 30
0.0
  9
$UCSXDIR
 10
1.0
 20
0.0
 30
0.0
  9
$UCSYDIR
 10
0.0
 20
1.0
 30
0.0
  9
$UCSORTHOREF
  2

  9
$UCSORTHOVIEW
 70
     0
  9
$UCSORGTOP
 10
0.0
 20
0.0
 30
0.0
  9
$UCSORGBOTTOM
 10
0.0
 20
0.0
 30
0.0
  9
$UCSORGLEFT
 10
0.0
 20
0.0
 30
0.0
  9
$UCSORGRIGHT
 10
0.0
 20
0.0
 30
0.0
  9
$UCSORGFRONT
 10
0.0
 20
0.0
 30
0.0
  9
$UCSORGBACK
 10
0.0
 20
0.0
 30
0.0
  9
$PUCSBASE
  2

  9
$PUCSNAME
  2

  9
$PUCSORG
 10
0.0
 20
0.0
 30
0.0
  9
$PUCSXDIR
 10
1.0
 20
0.0
 30
0.0
  9
$PUCSYDIR
 10
0.0
 20
1.0
 30
0.0
  9
$PUCSORTHOREF
  2

  9
$PUCSORTHOVIEW
 70
     0
  9
$PUCSORGTOP
 10
0.0
 20
0.0
 30
0.0
  9
$PUCSORGBOTTOM
 10
0.0
 20
0.0
 30
0.0
  9
$PUCSORGLEFT
 10
0.0
 20
0.0
 30
0.0
  9
$PUCSORGRIGHT
 10
0.0
 20
0.0
 30
0.0
  9
$PUCSORGFRONT
 10
0.0
 20
0.0
 30
0.0
  9
$PUCSORGBACK
 10
0.0
 20
0.0
 30
0.0
  9
$USERI1
 70
     0
  9
$USERI2
 70
     0
  9
$USERI3
 70
     0
  9
$USERI4
 70
     0
  9
$USERI5
 70
     0
  9
$USERR1
 40
0.0
  9
$USERR2
 40
0.0
  9
$USERR3
 40
0.0
  9
$USERR4
 40
0.0
  9
$USERR5
 40
0.0
  9
$WORLDVIEW
 70
     1
  9
$SHADEDGE
 70
     3
  9
$SHADEDIF
 70
    70
  9
$TILEMODE
 70
     1
  9
$MAXACTVP
 70
    64
  9
$PINSBASE
 10
0.0
 20
0.0
 30
0.0
  9
$PLIMCHECK
 70
     0
  9
$PEXTMIN
 10
1.000000000000000E+20
 20
1.000000000000000E+20
 30
1.000000000000000E+20
  9
$PEXTMAX
 10
-1.000000000000000E+20
 20
-1.000000000000000E+20
 30
-1.000000000000000E+20
  9
$PLIMMIN
 10
0.0
 20
0.0
  9
$PLIMMAX
 10
12.0
 20
9.0
  9
$UNITMODE
 70
     0
  9
$VISRETAIN
 70
     1
  9
$PLINEGEN
 70
     0
  9
$PSLTSCALE
 70
     1
  9
$TREEDEPTH
 70
  3020
  9
$CMLSTYLE
  2
Standard
  9
$CMLJUST
 70
     0
  9
$CMLSCALE
 40
1.0
  9
$PROXYGRAPHICS
 70
     1
  9
$MEASUREMENT
 70
     0
  9
$CELWEIGHT
370
    -1
  9
$ENDCAPS
280
     0
  9
$JOINSTYLE
280
     0
  9
$LWDISPLAY
290
     1
  9
$INSUNITS
 70
     4
  9
$HYPERLINKBASE
  1

  9
$STYLESHEET
  1

  9
$XEDIT
290
     1
  9
$CEPSNTYPE
380
     0
  9
$PSTYLEMODE
290
     1
  9
$FINGERPRINTGUID
  2
{26D22FEA-D371-544A-9299-F9941159BDEB}
  9
$VERSIONGUID
  2
{1CE05450-42A7-C148-B4DA-44A4DB407F4D}
  9
$EXTNAMES
290
     1
  9
$PSVPSCALE
 40
0.0
  9
$OLESTARTUP
290
     0
  9
$SORTENTS
280
   127
  9
$INDEXCTL
280
     0
  9
$HIDETEXT
280
     1
  9
$XCLIPFRAME
280
     2
  9
$HALOGAP
280
     0
  9
$OBSCOLOR
 70
   257
  9
$OBSLTYPE
280
     0
  9
$INTERSECTIONDISPLAY
280
     0
  9
$INTERSECTIONCOLOR
 70
   257
  9
$DIMASSOC
280
     2
  9
$PROJECTNAME
  1

  9
$CAMERADISPLAY
290
     0
  9
$LENSLENGTH
 40
50.0
  9
$CAMERAHEIGHT
 40
0.0
  9
$STEPSPERSEC
 40
2.0
  9
$STEPSIZE
 40
6.0
  9
$3DDWFPREC
 40
2.0
  9
$PSOLWIDTH
 40
0.25
  9
$PSOLHEIGHT
 40
4.0
  9
$LOFTANG1
 40
1.570796326794896
  9
$LOFTANG2
 40
1.570796326794896
  9
$LOFTMAG1
 40
0.0
  9
$LOFTMAG2
 40
0.0
  9
$LOFTPARAM
 70
     7
  9
$LOFTNORMALS
280
     1
  9
$LATITUDE
 40
37.795
  9
$LONGITUDE
 40
-122.394
  9
$NORTHDIRECTION
 40
0.0
  9
$TIMEZONE
 70
 -8000
  9
$LIGHTGLYPHDISPLAY
280
     1
  9
$TILEMODELIGHTSYNCH
280
     1
  9
$CMATERIAL
347
11
  9
$SOLIDHIST
280
     0
  9
$SHOWHIST
280
     1
  9
$DWFFRAME
280
     2
  9
$DGNFRAME
280
     0
  9
$REALWORLDSCALE
290
     1
  9
$INTERFERECOLOR
 62
     1
  9
$INTERFEREOBJVS
345
33
  9
$INTERFEREVPVS
346
30
  9
$CSHADOW
280
     0
  9
$SHADOWPLANELOCATION
 40
0.0
  0
ENDSEC
  0
SECTION
  2
CLASSES
  0
CLASS
  1
ACDBDICTIONARYWDFLT
  2
AcDbDictionaryWithDefault
  3
ObjectDBX Classes
 90
        0
 91
        1
280
     0
281
     0
  0
CLASS
  1
MATERIAL
  2
AcDbMaterial
  3
ObjectDBX Classes
 90
     1153
 91
        3
280
     0
281
     0
  0
CLASS
  1
VISUALSTYLE
  2
AcDbVisualStyle
  3
ObjectDBX Classes
 90
     4095
 91
       24
280
     0
281
     0
  0
CLASS
  1
SCALE
  2
AcDbScale
  3
ObjectDBX Classes
 90
     1153
 91
       17
280
     0
281
     0
  0
CLASS
  1
TABLESTYLE
  2
AcDbTableStyle
  3
ObjectDBX Classes
 90
     4095
 91
        1
280
     0
281
     0
  0
CLASS
  1
MLEADERSTYLE
  2
AcDbMLeaderStyle
  3
ACDB_MLEADERSTYLE_CLASS
 90
     4095
 91
        1
280
     0
281
     0
  0
CLASS
  1
ACDBSECTIONVIEWSTYLE
  2
AcDbSectionViewStyle
  3
ObjectDBX Classes
 90
     1025
 91
        1
280
     0
281
     0
  0
CLASS
  1
ACDBDETAILVIEWSTYLE
  2
AcDbDetailViewStyle
  3
ObjectDBX Classes
 90
     1025
 91
        1
280
     0
281
     0
  0
CLASS
  1
DICTIONARYVAR
  2
AcDbDictionaryVar
  3
ObjectDBX Classes
 90
        0
 91
        5
280
     0
281
     0
  0
CLASS
  1
CELLSTYLEMAP
  2
AcDbCellStyleMap
  3
ObjectDBX Classes
 90
     1152
 91
        1
280
     0
281
     0
  0
ENDSEC
  0
SECTION
  2
TABLES
  0
TABLE
  2
VPORT
  5
8
330
0
100
AcDbSymbolTable
 70
     1
  0
VPORT
  5
57
330
8
100
AcDbSymbolTableRecord
100
AcDbViewportTableRecord
  2
*Active
 70
     0
 10
0.0
 20
0.0
 11
1.0
 21
1.0
 12
0.0
 22
0.0
 13
0.0
 23
0.0
 14
1.0
 24
1.0
 15
0.0
 25
0.0
 16
0.0
 26
0.0
 36
1.0
 17
338.666666582
 27
190.4999999523751
 37
0.0
 40
388.8749999028449
 41
1.776612021857632
 42
50.0
 43
0.0
 44
0.0
 50
0.0
 51
0.0
 71
     0
 72
   100
 73
     1
 74
     1
 75
     0
 76
     0
 77
     0
 78
     0
281
     0
 65
     1
110
0.0
120
0.0
130
0.0
111
1.0
121
0.0
131
0.0
112
0.0
122
1.0
132
0.0
 79
     0
146
0.0
 60
     3
 61
     5
292
     1
282
     1
141
0.0
142
0.0
 63
   250
421
  3355443
  0
ENDTAB
  0
TABLE
  2
LTYPE
  5
5
330
0
100
AcDbSymbolTable
 70
     1
  0
LTYPE
  5
5B
330
5
100
AcDbSymbolTableRecord
100
AcDbLinetypeTableRecord
  2
ByBlock
 70
     0
  3

 72
    65
 73
     0
 40
0.0
  0
LTYPE
  5
5C
330
5
100
AcDbSymbolTableRecord
100
AcDbLinetypeTableRecord
  2
ByLayer
 70
     0
  3

 72
    65
 73
     0
 40
0.0
  0
LTYPE
  5
5D
330
5
100
AcDbSymbolTableRecord
100
AcDbLinetypeTableRecord
  2
Continuous
 70
     0
  3
Solid line
 72
    65
 73
     0
 40
0.0
  0
ENDTAB
  0
TABLE
  2
LAYER
  5
2
330
0
100
AcDbSymbolTable
 70
     4
  0
LAYER
  5
54
330
2
100
AcDbSymbolTableRecord
100
AcDbLayerTableRecord
  2
0
 70
     0
 62
     7
  6
Continuous
370
    -3
390
F
347
21
348
0
  0
LAYER
  5
78
330
2
100
AcDbSymbolTableRecord
100
AcDbLayerTableRecord
  2
FLAME
 70
     0
 62
     7
  6
Continuous
370
     0
390
F
347
21
348
0
  0
LAYER
  5
80
330
2
100
AcDbSymbolTableRecord
100
AcDbLayerTableRecord
  2
SPEC
 70
     0
 62
     7
  6
Continuous
370
     0
390
F
347
21
348
0
  0
LAYER
  5
83
330
2
100
AcDbSymbolTableRecord
100
AcDbLayerTableRecord
  2
HONTAI
 70
     0
 62
     7
  6
Continuous
370
     0
390
F
347
21
348
0
  0
ENDTAB
  0
TABLE
  2
STYLE
  5
3
330
0
100
AcDbSymbolTable
 70
     2
  0
STYLE
  5
55
330
3
100
AcDbSymbolTableRecord
100
AcDbTextStyleTableRecord
  2
Standard
 70
     0
 40
0.0
 41
1.0
 50
0.0
 71
     0
 42
0.2
  3
txt
  4

  0
STYLE
  5
5A
330
3
100
AcDbSymbolTableRecord
100
AcDbTextStyleTableRecord
  2
Annotative
 70
     0
 40
0.0
 41
1.0
 50
0.0
 71
     0
 42
0.2
  3
txt
  4

1001
AcadAnnotative
1000
AnnotativeData
1002
{
1070
     1
1070
     1
1002
}
  0
ENDTAB
  0
TABLE
  2
VIEW
  5
6
330
0
100
AcDbSymbolTable
 70
     0
  0
ENDTAB
  0
TABLE
  2
UCS
  5
7
330
0
100
AcDbSymbolTable
 70
     0
  0
ENDTAB
  0
TABLE
  2
APPID
  5
9
330
0
100
AcDbSymbolTable
 70
     2
  0
APPID
  5
56
330
9
100
AcDbSymbolTableRecord
100
AcDbRegAppTableRecord
  2
ACAD
 70
     0
  0
APPID
  5
5E
330
9
100
AcDbSymbolTableRecord
100
AcDbRegAppTableRecord
  2
AcadAnnotative
 70
     0
  0
ENDTAB
  0
TABLE
  2
DIMSTYLE
  5
A
330
0
100
AcDbSymbolTable
 70
     2
100
AcDbDimStyleTable
 71
     0
  0
DIMSTYLE
105
58
330
A
100
AcDbSymbolTableRecord
100
AcDbDimStyleTableRecord
  2
Standard
 70
     0
340
55
  0
DIMSTYLE
105
59
330
A
100
AcDbSymbolTableRecord
100
AcDbDimStyleTableRecord
  2
Annotative
 70
     0
340
55
1001
AcadAnnotative
1000
AnnotativeData
1002
{
1070
     1
1070
     1
1002
}
  0
ENDTAB
  0
TABLE
  2
BLOCK_RECORD
  5
1
330
0
100
AcDbSymbolTable
 70
     1
  0
BLOCK_RECORD
  5
70
330
1
100
AcDbSymbolTableRecord
100
AcDbBlockTableRecord
  2
*Model_Space
340
73
 70
     0
280
     1
281
     0
  0
BLOCK_RECORD
  5
6C
330
1
100
AcDbSymbolTableRecord
100
AcDbBlockTableRecord
  2
*Paper_Space
340
6F
 70
     0
280
     1
281
     0
  0
BLOCK_RECORD
  5
74
330
1
100
AcDbSymbolTableRecord
100
AcDbBlockTableRecord
  2
*Paper_Space0
340
77
 70
     0
280
     1
281
     0
  0
ENDTAB
  0
ENDSEC
  0
SECTION
  2
BLOCKS
  0
BLOCK
  5
71
330
70
100
AcDbEntity
  8
0
100
AcDbBlockBegin
  2
*Model_Space
 70
     0
 10
0.0
 20
0.0
 30
0.0
  3
*Model_Space
  1

  0
ENDBLK
  5
72
330
70
100
AcDbEntity
  8
0
100
AcDbBlockEnd
  0
BLOCK
  5
6D
330
6C
100
AcDbEntity
 67
     1
  8
0
100
AcDbBlockBegin
  2
*Paper_Space
 70
     0
 10
0.0
 20
0.0
 30
0.0
  3
*Paper_Space
  1

  0
ENDBLK
  5
6E
330
6C
100
AcDbEntity
 67
     1
  8
0
100
AcDbBlockEnd
  0
BLOCK
  5
75
330
74
100
AcDbEntity
 67
     1
  8
0
100
AcDbBlockBegin
  2
*Paper_Space0
 70
     0
 10
0.0
 20
0.0
 30
0.0
  3
*Paper_Space0
  1

  0
ENDBLK
  5
76
330
74
100
AcDbEntity
 67
     1
  8
0
100
AcDbBlockEnd
  0
ENDSEC
  0
SECTION
  2
ENTITIES
  0
LINE
  5
79
330
70
100
AcDbEntity
  8
FLAME
 62
     2
420
 16776960
370
    25
100
AcDbLine
 10
501.9523808268935
 20
380.9999999047501
 30
0.0
 11
501.9523808268935
 21
0.0
 31
0.0
  0
LINE
  5
7A
330
70
100
AcDbEntity
  8
FLAME
 62
     2
420
 16776960
370
    25
100
AcDbLine
 10
175.3809523371077
 20
0.0
 30
0.0
 11
175.3809523371077
 21
380.9999999047501
 31
0.0
  0
LINE
  5
7B
330
70
100
AcDbEntity
  8
FLAME
 62
     2
420
 16776960
370
    25
100
AcDbLine
 10
501.9523808268935
 20
0.0
 30
0.0
 11
175.3809523371077
 21
0.0
 31
0.0
  0
LINE
  5
7C
330
70
100
AcDbEntity
  8
FLAME
 62
     2
420
 16776960
370
    25
100
AcDbLine
 10
501.9523808268935
 20
18.1428571383218
 30
0.0
 11
175.3809523371077
 21
18.1428571383218
 31
0.0
  0
LINE
  5
7D
330
70
100
AcDbEntity
  8
FLAME
 62
     2
420
 16776960
370
    25
100
AcDbLine
 10
501.9523808268935
 20
36.2857142766436
 30
0.0
 11
175.3809523371077
 21
36.2857142766436
 31
0.0
  0
LINE
  5
7E
330
70
100
AcDbEntity
  8
FLAME
 62
     2
420
 16776960
370
    25
100
AcDbLine
 10
501.9523808268935
 20
54.42857141496411
 30
0.0
 11
175.3809523371077
 21
54.42857141496411
 31
0.0
  0
LINE
  5
7F
330
70
100
AcDbEntity
  8
FLAME
 62
     2
420
 16776960
370
    25
100
AcDbLine
 10
501.9523808268935
 20
380.9999999047501
 30
0.0
 11
175.3809523371077
 21
380.9999999047501
 31
0.0
  0
MTEXT
  5
81
330
70
100
AcDbEntity
  8
SPEC
100
AcDbMText
 10
186.481403728065
 20
23.09771804232128
 30
0.0
 40
0.2
 41
0.0
 46
0.0
 71
     7
 72
     1
  1
\C9;\c12632256;\FKozuka Gothic Pr6N R|b0|i0|c128;\H7.992533;\W1.000000;E17 LED電球（40W相当 電球色 全方向/広配光タイプ）ｘ2灯
 73
     1
 44
1.0
  0
MTEXT
  5
82
330
70
100
AcDbEntity
  8
SPEC
100
AcDbMText
 10
186.4814467917585
 20
40.60686947549146
 30
0.0
 40
0.2
 41
0.0
 46
0.0
 71
     7
 72
     1
  1
\C9;\c12632256;\FKozuka Gothic Pr6N R|b0|i0|c128;\H9.071429;\W1.000000;KC3035
 73
     1
 44
1.0
  0
ELLIPSE
  5
84
330
70
100
AcDbEntity
  8
HONTAI
 62
     2
420
 16776960
370
    25
100
AcDbEllipse
 10
338.7658210500063
 20
150.1207955852652
 30
0.0
 11
-18.52021393109565
 21
0.5920522627861863
 31
0.0
210
0.0
220
0.0
230
1.0
 40
0.460573916706076
 41
0.0
 42
6.283185307179585
  0
LINE
  5
85
330
70
100
AcDbEntity
  8
HONTAI
 62
     2
420
 16776960
370
    25
100
AcDbLine
 10
339.0385048795732
 20
239.2967126846568
 30
0.0
 11
339.0385048795732
 21
256.3375384922805
 31
0.0
  0
LINE
  5
86
330
70
100
AcDbEntity
  8
HONTAI
 62
     2
420
 16776960
370
    25
100
AcDbLine
 10
339.0385048795732
 20
229.4138224257589
 30
0.0
 11
342.6484862207851
 21
236.3279920760843
 31
0.0
  0
LINE
  5
87
330
70
100
AcDbEntity
  8
HONTAI
 62
     2
420
 16776960
370
    25
100
AcDbLine
 10
342.6484862207851
 20
236.3279920760843
 30
0.0
 11
345.7918607180127
 21
228.0012919349981
 31
0.0
  0
LINE
  5
88
330
70
100
AcDbEntity
  8
HONTAI
 62
     2
420
 16776960
370
    25
100
AcDbLine
 10
345.7918607180127
 20
228.0012919349981
 30
0.0
 11
350.0525060333275
 21
235.8395169910309
 31
0.0
  0
LINE
  5
89
330
70
100
AcDbEntity
  8
HONTAI
 62
     2
420
 16776960
370
    25
100
AcDbLine
 10
350.0525060333275
 20
235.8395169910309
 30
0.0
 11
353.2652694993629
 21
226.9547001297127
 31
0.0
  0
LINE
  5
8A
330
70
100
AcDbEntity
  8
HONTAI
 62
     2
420
 16776960
370
    25
100
AcDbLine
 10
353.2652694993629
 20
226.9547001297127
 30
0.0
 11
357.7820576878387
 21
235.141723544901
 31
0.0
  0
LINE
  5
8B
330
70
100
AcDbEntity
  8
HONTAI
 62
     2
420
 16776960
370
    25
100
AcDbLine
 10
357.7820576878387
 20
235.141723544901
 30
0.0
 11
360.2269346357627
 21
225.6754777210917
 31
0.0
  0
LINE
  5
8C
330
70
100
AcDbEntity
  8
HONTAI
 62
     2
420
 16776960
370
    25
100
AcDbLine
 10
360.2269346357627
 20
225.6754777210917
 30
0.0
 11
364.69710211081
 21
234.4207162204017
 31
0.0
  0
LINE
  5
8D
330
70
100
AcDbEntity
  8
HONTAI
 62
     2
420
 16776960
370
    25
100
AcDbLine
 10
364.69710211081
 20
234.4207162204017
 30
0.0
 11
367.3422854960108
 21
224.9047966313979
 31
0.0
  0
LINE
  5
8E
330
70
100
AcDbEntity
  8
HONTAI
 62
     2
420
 16776960
370
    25
100
AcDbLine
 10
367.3422854960108
 20
224.9047966313979
 30
0.0
 11
372.4440010074926
 21
232.6424937903313
 31
0.0
  0
LINE
  5
8F
330
70
100
AcDbEntity
  8
HONTAI
 62
     2
420
 16776960
370
    25
100
AcDbLine
 10
372.4440010074926
 20
232.6424937903313
 30
0.0
 11
374.5291937303599
 21
223.0448338075109
 31
0.0
  0
LINE
  5
90
330
70
100
AcDbEntity
  8
HONTAI
 62
     2
420
 16776960
370
    25
100
AcDbLine
 10
374.5291937303599
 20
223.0448338075109
 30
0.0
 11
379.7425821135314
 21
230.22441424622
 31
0.0
  0
LINE
  5
91
330
70
100
AcDbEntity
  8
HONTAI
 62
     2
420
 16776960
370
    25
100
AcDbLine
 10
379.7425821135314
 20
230.22441424622
 30
0.0
 11
381.3436783587033
 21
220.8127603821838
 31
0.0
  0
LINE
  5
92
330
70
100
AcDbEntity
  8
HONTAI
 62
     2
420
 16776960
370
    25
100
AcDbLine
 10
381.3436783587033
 20
220.8127603821838
 30
0.0
 11
386.5570667418749
 21
227.4716023794162
 31
0.0
  0
LINE
  5
93
330
70
100
AcDbEntity
  8
HONTAI
 62
     2
420
 16776960
370
    25
100
AcDbLine
 10
386.5570667418749
 20
227.4716023794162
 30
0.0
 11
387.786010431652
 21
217.8367608456299
 31
0.0
  0
LINE
  5
94
330
70
100
AcDbEntity
  8
HONTAI
 62
     2
420
 16776960
370
    25
100
AcDbLine
 10
387.786010431652
 20
217.8367608456299
 30
0.0
 11
392.7069351533226
 21
224.9448307352314
 31
0.0
  0
LINE
  5
95
330
70
100
AcDbEntity
  8
HONTAI
 62
     2
420
 16776960
370
    25
100
AcDbLine
 10
392.7069351533226
 20
224.9448307352314
 30
0.0
 11
393.782735220505
 21
215.0910311790191
 31
0.0
  0
LINE
  5
96
330
70
100
AcDbEntity
  8
HONTAI
 62
     2
420
 16776960
370
    25
100
AcDbLine
 10
393.782735220505
 20
215.0910311790191
 30
0.0
 11
398.9885341852169
 21
222.1446074727399
 31
0.0
  0
LINE
  5
97
330
70
100
AcDbEntity
  8
HONTAI
 62
     2
420
 16776960
370
    25
100
AcDbLine
 10
398.9885341852169
 20
222.1446074727399
 30
0.0
 11
399.7664495777252
 21
213.0586364533742
 31
0.0
  0
LINE
  5
98
330
70
100
AcDbEntity
  8
HONTAI
 62
     2
420
 16776960
370
    25
100
AcDbLine
 10
399.7664495777252
 20
213.0586364533742
 30
0.0
 11
404.3737686864703
 21
220.2915301212576
 31
0.0
  0
LINE
  5
99
330
70
100
AcDbEntity
  8
HONTAI
 62
     2
420
 16776960
370
    25
100
AcDbLine
 10
404.3737686864703
 20
220.2915301212576
 30
0.0
 11
405.0318796874958
 21
209.7111164987336
 31
0.0
  0
LINE
  5
9A
330
70
100
AcDbEntity
  8
HONTAI
 62
     2
420
 16776960
370
    25
100
AcDbLine
 10
405.0318796874958
 20
209.7111164987336
 30
0.0
 11
410.0582431156687
 21
216.1669354239679
 31
0.0
  0
LINE
  5
9B
330
70
100
AcDbEntity
  8
HONTAI
 62
     2
420
 16776960
370
    25
100
AcDbLine
 10
410.0582431156687
 20
216.1669354239679
 30
0.0
 11
410.0582431156687
 21
206.5430122821208
 31
0.0
  0
LINE
  5
9C
330
70
100
AcDbEntity
  8
HONTAI
 62
     2
420
 16776960
370
    25
100
AcDbLine
 10
410.0582431156687
 20
206.5430122821208
 30
0.0
 11
414.1272556147916
 21
212.7597085871785
 31
0.0
  0
LINE
  5
9D
330
70
100
AcDbEntity
  8
HONTAI
 62
     2
420
 16776960
370
    25
100
AcDbLine
 10
414.1272556147916
 20
212.7597085871785
 30
0.0
 11
413.2295358308377
 21
202.1792949646545
 31
0.0
  0
LINE
  5
9E
330
70
100
AcDbEntity
  8
HONTAI
 62
     2
420
 16776960
370
    25
100
AcDbLine
 10
413.2295358308377
 20
202.1792949646545
 30
0.0
 11
417.8970281859299
 21
208.27647914157
 31
0.0
  0
LINE
  5
9F
330
70
100
AcDbEntity
  8
HONTAI
 62
     2
420
 16776960
370
    25
100
AcDbLine
 10
417.8970281859299
 20
208.27647914157
 30
0.0
 11
416.87977506114
 21
198.8916786198982
 31
0.0
  0
LINE
  5
A0
330
70
100
AcDbEntity
  8
HONTAI
 62
     2
420
 16776960
370
    25
100
AcDbLine
 10
416.87977506114
 20
198.8916786198982
 30
0.0
 11
421.3339505472891
 21
203.8541369447834
 31
0.0
  0
LINE
  5
A1
330
70
100
AcDbEntity
  8
HONTAI
 62
     2
420
 16776960
370
    25
100
AcDbLine
 10
421.3339505472891
 20
203.8541369447834
 30
0.0
 11
419.6111525560663
 21
194.1978520826542
 31
0.0
  0
LINE
  5
A2
330
70
100
AcDbEntity
  8
HONTAI
 62
     2
420
 16776960
370
    25
100
AcDbLine
 10
419.6111525560663
 20
194.1978520826542
 30
0.0
 11
423.6308338351793
 21
199.0737501830312
 31
0.0
  0
LINE
  5
A3
330
70
100
AcDbEntity
  8
HONTAI
 62
     2
420
 16776960
370
    25
100
AcDbLine
 10
423.6308338351793
 20
199.0737501830312
 30
0.0
 11
421.5253123128317
 21
189.8955138334592
 31
0.0
  0
LINE
  5
A4
330
70
100
AcDbEntity
  8
HONTAI
 62
     2
420
 16776960
370
    25
100
AcDbLine
 10
421.5253123128317
 20
189.8955138334592
 30
0.0
 11
425.3536318264008
 21
194.8670216363598
 31
0.0
  0
LINE
  5
A5
330
70
100
AcDbEntity
  8
HONTAI
 62
     2
420
 16776960
370
    25
100
AcDbLine
 10
425.3536318264008
 20
194.8670216363598
 30
0.0
 11
422.1953495429005
 21
185.6887852867814
 31
0.0
  0
LINE
  5
A6
330
70
100
AcDbEntity
  8
HONTAI
 62
     2
420
 16776960
370
    25
100
AcDbLine
 10
422.1953495429005
 20
185.6887852867814
 30
0.0
 11
425.832036240279
 21
190.7560011560823
 31
0.0
  0
LINE
  5
A7
330
70
100
AcDbEntity
  8
HONTAI
 62
     2
420
 16776960
370
    25
100
AcDbLine
 10
425.832036240279
 20
190.7560011560823
 30
0.0
 11
423.2481103040544
 21
181.2909356989604
 31
0.0
  0
LINE
  5
A8
330
70
100
AcDbEntity
  8
HONTAI
 62
     2
420
 16776960
370
    25
100
AcDbLine
 10
423.2481103040544
 20
181.2909356989604
 30
0.0
 11
426.406392587556
 21
185.8800046918144
 31
0.0
  0
LINE
  5
A9
330
70
100
AcDbEntity
  8
HONTAI
 62
     2
420
 16776960
370
    25
100
AcDbLine
 10
426.406392587556
 20
185.8800046918144
 30
0.0
 11
422.8176818569154
 21
178.0460092831184
 31
0.0
  0
LINE
  5
AA
330
70
100
AcDbEntity
  8
HONTAI
 62
     2
420
 16776960
370
    25
100
AcDbLine
 10
422.8176818569154
 20
178.0460092831184
 30
0.0
 11
425.1619990102115
 21
180.1436192688219
 31
0.0
  0
LINE
  5
AB
330
70
100
AcDbEntity
  8
HONTAI
 62
     2
420
 16776960
370
    25
100
AcDbLine
 10
410.7074094449611
 20
156.7104877668096
 30
0.0
 11
407.9006798667245
 21
156.0128910484743
 31
0.0
  0
LINE
  5
AC
330
70
100
AcDbEntity
  8
HONTAI
 62
     2
420
 16776960
370
    25
100
AcDbLine
 10
407.9006798667245
 20
156.0128910484743
 30
0.0
 11
406.6435469083979
 21
153.21679906943
 31
0.0
  0
LINE
  5
AD
330
70
100
AcDbEntity
  8
HONTAI
 62
     2
420
 16776960
370
    25
100
AcDbLine
 10
406.6435469083979
 20
153.21679906943
 30
0.0
 11
403.654942337685
 21
152.9798404548525
 31
0.0
  0
LINE
  5
AE
330
70
100
AcDbEntity
  8
HONTAI
 62
     2
420
 16776960
370
    25
100
AcDbLine
 10
403.654942337685
 20
152.9798404548525
 30
0.0
 11
401.8784763158687
 21
149.9278056301994
 31
0.0
  0
LINE
  5
AF
330
70
100
AcDbEntity
  8
HONTAI
 62
     2
420
 16776960
370
    25
100
AcDbLine
 10
401.8784763158687
 20
149.9278056301994
 30
0.0
 11
398.6768259268968
 21
149.4328385282986
 31
0.0
  0
LINE
  5
B0
330
70
100
AcDbEntity
  8
HONTAI
 62
     2
420
 16776960
370
    25
100
AcDbLine
 10
398.6768259268968
 20
149.4328385282986
 30
0.0
 11
396.4279186057444
 21
146.0441041031115
 31
0.0
  0
LINE
  5
B1
330
70
100
AcDbEntity
  8
HONTAI
 62
     2
420
 16776960
370
    25
100
AcDbLine
 10
396.4279186057444
 20
146.0441041031115
 30
0.0
 11
392.2735251489131
 21
146.0441041031115
 31
0.0
  0
LINE
  5
B2
330
70
100
AcDbEntity
  8
HONTAI
 62
     2
420
 16776960
370
    25
100
AcDbLine
 10
392.2735251489131
 20
146.0441041031115
 30
0.0
 11
391.2443457951195
 21
144.0641373316469
 31
0.0
  0
LINE
  5
B3
330
70
100
AcDbEntity
  8
HONTAI
 62
     2
420
 16776960
370
    25
100
AcDbLine
 10
391.2443457951195
 20
144.0641373316469
 30
0.0
 11
387.1661175735757
 21
143.6072370557444
 31
0.0
  0
LINE
  5
B4
330
70
100
AcDbEntity
  8
HONTAI
 62
     2
420
 16776960
370
    25
100
AcDbLine
 10
387.1661175735757
 20
143.6072370557444
 30
0.0
 11
385.2985785301991
 21
141.3607041383648
 31
0.0
  0
LINE
  5
B5
330
70
100
AcDbEntity
  8
HONTAI
 62
     2
420
 16776960
370
    25
100
AcDbLine
 10
385.2985785301991
 20
141.3607041383648
 30
0.0
 11
381.0295306444447
 21
141.7034039362507
 31
0.0
  0
LINE
  5
B6
330
70
100
AcDbEntity
  8
HONTAI
 62
     2
420
 16776960
370
    25
100
AcDbLine
 10
381.0295306444447
 20
141.7034039362507
 30
0.0
 11
377.9986421708869
 21
138.5986460657702
 31
0.0
  0
LINE
  5
B7
330
70
100
AcDbEntity
  8
HONTAI
 62
     2
420
 16776960
370
    25
100
AcDbLine
 10
377.9986421708869
 20
138.5986460657702
 30
0.0
 11
374.0730154705687
 21
139.1316799936693
 31
0.0
  0
LINE
  5
B8
330
70
100
AcDbEntity
  8
HONTAI
 62
     2
420
 16776960
370
    25
100
AcDbLine
 10
374.0730154705687
 20
139.1316799936693
 30
0.0
 11
372.2052053765826
 21
137.1518115860686
 31
0.0
  0
LINE
  5
B9
330
70
100
AcDbEntity
  8
HONTAI
 62
     2
420
 16776960
370
    25
100
AcDbLine
 10
372.2052053765826
 20
137.1518115860686
 30
0.0
 11
368.0508119197128
 21
138.1036789638707
 31
0.0
  0
LINE
  5
BA
330
70
100
AcDbEntity
  8
HONTAI
 62
     2
420
 16776960
370
    25
100
AcDbLine
 10
368.0508119197128
 20
138.1036789638707
 30
0.0
 11
365.7257393632729
 21
135.7429455684744
 31
0.0
  0
LINE
  5
BB
330
70
100
AcDbEntity
  8
HONTAI
 62
     2
420
 16776960
370
    25
100
AcDbLine
 10
365.7257393632729
 20
135.7429455684744
 30
0.0
 11
361.5331277634539
 21
137.2660120640584
 31
0.0
  0
LINE
  5
BC
330
70
100
AcDbEntity
  8
HONTAI
 62
     2
420
 16776960
370
    25
100
AcDbLine
 10
361.5331277634539
 20
137.2660120640584
 30
0.0
 11
359.7035358124157
 21
134.8291450166925
 31
0.0
  0
LINE
  5
BD
330
70
100
AcDbEntity
  8
HONTAI
 62
     2
420
 16776960
370
    25
100
AcDbLine
 10
359.7035358124157
 20
134.8291450166925
 30
0.0
 11
356.3875020451674
 21
136.6567461202846
 31
0.0
  0
LINE
  5
BE
330
70
100
AcDbEntity
  8
HONTAI
 62
     2
420
 16776960
370
    25
100
AcDbLine
 10
356.3875020451674
 20
136.6567461202846
 30
0.0
 11
352.9573559502546
 21
133.4202789990983
 31
0.0
  0
LINE
  5
BF
330
70
100
AcDbEntity
  8
HONTAI
 62
     2
420
 16776960
370
    25
100
AcDbLine
 10
352.9573559502546
 20
133.4202789990983
 30
0.0
 11
349.486548040779
 21
137.0987894708917
 31
0.0
  0
LINE
  5
C0
330
70
100
AcDbEntity
  8
HONTAI
 62
     2
420
 16776960
370
    25
100
AcDbLine
 10
349.486548040779
 20
137.0987894708917
 30
0.0
 11
345.4947553634899
 21
133.3323884497241
 31
0.0
  0
LINE
  5
C1
330
70
100
AcDbEntity
  8
HONTAI
 62
     2
420
 16776960
370
    25
100
AcDbLine
 10
345.4947553634899
 20
133.3323884497241
 30
0.0
 11
341.9730279775111
 21
136.3899832466007
 31
0.0
  0
LINE
  5
C2
330
70
100
AcDbEntity
  8
HONTAI
 62
     2
420
 16776960
370
    25
100
AcDbLine
 10
341.9730279775111
 20
136.3899832466007
 30
0.0
 11
339.0385048795732
 21
133.0100094288192
 31
0.0
  0
LINE
  5
C3
330
70
100
AcDbEntity
  8
HONTAI
 62
     2
420
 16776960
370
    25
100
AcDbLine
 10
425.1619990102115
 20
180.1436192688219
 30
0.0
 11
421.5361543392086
 21
171.748654587066
 31
0.0
  0
LINE
  5
C4
330
70
100
AcDbEntity
  8
HONTAI
 62
     2
420
 16776960
370
    25
100
AcDbLine
 10
421.5361543392086
 20
171.748654587066
 30
0.0
 11
420.0797991461918
 21
171.838264092198
 31
0.0
  0
LINE
  5
C5
330
70
100
AcDbEntity
  8
HONTAI
 62
     2
420
 16776960
370
    25
100
AcDbLine
 10
420.0797991461918
 20
171.838264092198
 30
0.0
 11
419.4292775635887
 21
168.1183384444175
 31
0.0
  0
LINE
  5
C6
330
70
100
AcDbEntity
  8
HONTAI
 62
     2
420
 16776960
370
    25
100
AcDbLine
 10
419.4292775635887
 20
168.1183384444175
 30
0.0
 11
417.5601122162909
 21
168.0497788120686
 31
0.0
  0
LINE
  5
C7
330
70
100
AcDbEntity
  8
HONTAI
 62
     2
420
 16776960
370
    25
100
AcDbLine
 10
417.5601122162909
 20
168.0497788120686
 30
0.0
 11
417.0288529238388
 21
164.0435158762145
 31
0.0
  0
LINE
  5
C8
330
70
100
AcDbEntity
  8
HONTAI
 62
     2
420
 16776960
370
    25
100
AcDbLine
 10
417.0288529238388
 20
164.0435158762145
 30
0.0
 11
415.4377855530652
 21
164.1031243944454
 31
0.0
  0
LINE
  5
C9
330
70
100
AcDbEntity
  8
HONTAI
 62
     2
420
 16776960
370
    25
100
AcDbLine
 10
415.4377855530652
 20
164.1031243944454
 30
0.0
 11
413.9846829679284
 21
160.4045437111284
 31
0.0
  0
LINE
  5
CA
330
70
100
AcDbEntity
  8
HONTAI
 62
     2
420
 16776960
370
    25
100
AcDbLine
 10
413.9846829679284
 20
160.4045437111284
 30
0.0
 11
412.4017471169836
 21
160.4045437111284
 31
0.0
  0
LINE
  5
CB
330
70
100
AcDbEntity
  8
HONTAI
 62
     2
420
 16776960
370
    25
100
AcDbLine
 10
412.4017471169836
 20
160.4045437111284
 30
0.0
 11
410.7074094449611
 21
156.7104877668096
 31
0.0
  0
LINE
  5
CC
330
70
100
AcDbEntity
  8
HONTAI
 62
     2
420
 16776960
370
    25
100
AcDbLine
 10
342.1771291240731
 20
260.5445919736945
 30
0.0
 11
344.9941586273534
 21
255.3989800828877
 31
0.0
  0
LINE
  5
CD
330
70
100
AcDbEntity
  8
HONTAI
 62
     2
420
 16776960
370
    25
100
AcDbLine
 10
344.9941586273534
 20
255.3989800828877
 30
0.0
 11
348.5755509901836
 21
260.3435361795111
 31
0.0
  0
LINE
  5
CE
330
70
100
AcDbEntity
  8
HONTAI
 62
     2
420
 16776960
370
    25
100
AcDbLine
 10
348.5755509901836
 20
260.3435361795111
 30
0.0
 11
351.9558237637532
 21
255.1979242887043
 31
0.0
  0
LINE
  5
CF
330
70
100
AcDbEntity
  8
HONTAI
 62
     2
420
 16776960
370
    25
100
AcDbLine
 10
351.9558237637532
 20
255.1979242887043
 30
0.0
 11
354.8530842622193
 21
259.9013904873286
 31
0.0
  0
LINE
  5
D0
330
70
100
AcDbEntity
  8
HONTAI
 62
     2
420
 16776960
370
    25
100
AcDbLine
 10
354.8530842622193
 20
259.9013904873286
 30
0.0
 11
358.6759827625808
 21
254.8361418958771
 31
0.0
  0
LINE
  5
D1
330
70
100
AcDbEntity
  8
HONTAI
 62
     2
420
 16776960
370
    25
100
AcDbLine
 10
358.6759827625808
 20
254.8361418958771
 30
0.0
 11
362.4584947147026
 21
258.7355816455751
 31
0.0
  0
LINE
  5
D2
330
70
100
AcDbEntity
  8
HONTAI
 62
     2
420
 16776960
370
    25
100
AcDbLine
 10
362.4584947147026
 20
258.7355816455751
 30
0.0
 11
366.8449075360026
 21
253.1478240626128
 31
0.0
  0
LINE
  5
D3
330
70
100
AcDbEntity
  8
HONTAI
 62
     2
420
 16776960
370
    25
100
AcDbLine
 10
366.8449075360026
 20
253.1478240626128
 30
0.0
 11
368.6154104432767
 21
257.7707302341141
 31
0.0
  0
LINE
  5
D4
330
70
100
AcDbEntity
  8
HONTAI
 62
     2
420
 16776960
370
    25
100
AcDbLine
 10
368.6154104432767
 20
257.7707302341141
 30
0.0
 11
373.7144154481732
 21
251.2567782490219
 31
0.0
  0
LINE
  5
D5
330
70
100
AcDbEntity
  8
HONTAI
 62
     2
420
 16776960
370
    25
100
AcDbLine
 10
373.7144154481732
 20
251.2567782490219
 30
0.0
 11
374.9373960234505
 21
255.886078073472
 31
0.0
  0
LINE
  5
D6
330
70
100
AcDbEntity
  8
HONTAI
 62
     2
420
 16776960
370
    25
100
AcDbLine
 10
374.9373960234505
 20
255.886078073472
 30
0.0
 11
379.8932862801889
 21
249.1349707460268
 31
0.0
  0
LINE
  5
D7
330
70
100
AcDbEntity
  8
HONTAI
 62
     2
420
 16776960
370
    25
100
AcDbLine
 10
379.8932862801889
 20
249.1349707460268
 30
0.0
 11
380.6655096088428
 21
254.0214921466831
 31
0.0
  0
LINE
  5
D8
330
70
100
AcDbEntity
  8
HONTAI
 62
     2
420
 16776960
370
    25
100
AcDbLine
 10
380.6655096088428
 20
254.0214921466831
 30
0.0
 11
386.2648741310193
 21
247.2703848192379
 31
0.0
  0
LINE
  5
D9
330
70
100
AcDbEntity
  8
HONTAI
 62
     2
420
 16776960
370
    25
100
AcDbLine
 10
386.2648741310193
 20
247.2703848192379
 30
0.0
 11
386.2648741310193
 21
250.8709950666516
 31
0.0
  0
LINE
  5
DA
330
70
100
AcDbEntity
  8
HONTAI
 62
     2
420
 16776960
370
    25
100
AcDbLine
 10
386.2648741310193
 20
250.8709950666516
 30
0.0
 11
392.1862468365622
 21
244.441340936553
 31
0.0
  0
LINE
  5
DB
330
70
100
AcDbEntity
  8
HONTAI
 62
     2
420
 16776960
370
    25
100
AcDbLine
 10
392.1862468365622
 20
244.441340936553
 30
0.0
 11
392.1862468365622
 21
248.3634043812928
 31
0.0
  0
LINE
  5
DC
330
70
100
AcDbEntity
  8
HONTAI
 62
     2
420
 16776960
370
    25
100
AcDbLine
 10
392.1862468365622
 20
248.3634043812928
 30
0.0
 11
397.5926232892362
 21
241.8695186300602
 31
0.0
  0
LINE
  5
DD
330
70
100
AcDbEntity
  8
HONTAI
 62
     2
420
 16776960
370
    25
100
AcDbLine
 10
397.5926232892362
 20
241.8695186300602
 30
0.0
 11
397.5926232892362
 21
245.3414689074382
 31
0.0
  0
LINE
  5
DE
330
70
100
AcDbEntity
  8
HONTAI
 62
     2
420
 16776960
370
    25
100
AcDbLine
 10
397.5926232892362
 20
245.3414689074382
 30
0.0
 11
402.8702506786943
 21
237.6902336091066
 31
0.0
  0
LINE
  5
DF
330
70
100
AcDbEntity
  8
HONTAI
 62
     2
420
 16776960
370
    25
100
AcDbLine
 10
402.8702506786943
 20
237.6902336091066
 30
0.0
 11
402.2267764132179
 21
241.740957023909
 31
0.0
  0
LINE
  5
E0
330
70
100
AcDbEntity
  8
HONTAI
 62
     2
420
 16776960
370
    25
100
AcDbLine
 10
402.2267764132179
 20
241.740957023909
 30
0.0
 11
407.7619019291104
 21
234.7969581052877
 31
0.0
  0
LINE
  5
E1
330
70
100
AcDbEntity
  8
HONTAI
 62
     2
420
 16776960
370
    25
100
AcDbLine
 10
407.7619019291104
 20
234.7969581052877
 30
0.0
 11
407.7619019291104
 21
237.8187952152578
 31
0.0
  0
LINE
  5
E2
330
70
100
AcDbEntity
  8
HONTAI
 62
     2
420
 16776960
370
    25
100
AcDbLine
 10
407.7619019291104
 20
237.8187952152578
 30
0.0
 11
411.8165487432926
 21
230.3604515081228
 31
0.0
  0
LINE
  5
E3
330
70
100
AcDbEntity
  8
HONTAI
 62
     2
420
 16776960
370
    25
100
AcDbLine
 10
411.8165487432926
 20
230.3604515081228
 30
0.0
 11
411.8165487432926
 21
232.9966037996328
 31
0.0
  0
LINE
  5
E4
330
70
100
AcDbEntity
  8
HONTAI
 62
     2
420
 16776960
370
    25
100
AcDbLine
 10
411.8165487432926
 20
232.9966037996328
 30
0.0
 11
415.4852194184699
 21
225.6668216986478
 31
0.0
  0
LINE
  5
E5
330
70
100
AcDbEntity
  8
HONTAI
 62
     2
420
 16776960
370
    25
100
AcDbLine
 10
415.4852194184699
 20
225.6668216986478
 30
0.0
 11
416.2574427471263
 21
226.952732851898
 31
0.0
  0
LINE
  5
E6
330
70
100
AcDbEntity
  8
HONTAI
 62
     2
420
 16776960
370
    25
100
AcDbLine
 10
416.2574427471263
 20
226.952732851898
 30
0.0
 11
418.4814134076051
 21
220.2142161025673
 31
0.0
  0
LINE
  5
E7
330
70
100
AcDbEntity
  8
HONTAI
 62
     2
420
 16776960
370
    25
100
AcDbLine
 10
418.4814134076051
 20
220.2142161025673
 30
0.0
 11
418.4814134076051
 21
221.8859104381608
 31
0.0
  0
LINE
  5
E8
330
70
100
AcDbEntity
  8
HONTAI
 62
     2
420
 16776960
370
    25
100
AcDbLine
 10
418.4814134076051
 20
221.8859104381608
 30
0.0
 11
420.669605381076
 21
216.7422658251957
 31
0.0
  0
LINE
  5
E9
330
70
100
AcDbEntity
  8
HONTAI
 62
     2
420
 16776960
370
    25
100
AcDbLine
 10
420.669605381076
 20
216.7422658251957
 30
0.0
 11
420.669605381076
 21
218.4782901458206
 31
0.0
  0
LINE
  5
EA
330
70
100
AcDbEntity
  8
HONTAI
 62
     2
420
 16776960
370
    25
100
AcDbLine
 10
420.669605381076
 20
218.4782901458206
 30
0.0
 11
421.8280758994174
 21
211.2127396659695
 31
0.0
  0
LINE
  5
EB
330
70
100
AcDbEntity
  8
HONTAI
 62
     2
420
 16776960
370
    25
100
AcDbLine
 10
421.8280758994174
 20
211.2127396659695
 30
0.0
 11
422.5360602217887
 21
212.8844340015823
 31
0.0
  0
LINE
  5
EC
330
70
100
AcDbEntity
  8
HONTAI
 62
     2
420
 16776960
370
    25
100
AcDbLine
 10
422.5360602217887
 20
212.8844340015823
 30
0.0
 11
423.3085546011277
 21
205.6189818856221
 31
0.0
  0
LINE
  5
ED
330
70
100
AcDbEntity
  8
HONTAI
 62
     2
420
 16776960
370
    25
100
AcDbLine
 10
423.3085546011277
 20
205.6189818856221
 30
0.0
 11
424.0556797087412
 21
205.6984194673531
 31
0.0
  0
LINE
  5
EE
330
70
100
AcDbEntity
  8
HONTAI
 62
     2
420
 16776960
370
    25
100
AcDbLine
 10
424.0556797087412
 20
205.6984194673531
 30
0.0
 11
424.781288084658
 21
198.8739388613011
 31
0.0
  0
LINE
  5
EF
330
70
100
AcDbEntity
  8
HONTAI
 62
     2
420
 16776960
370
    25
100
AcDbLine
 10
424.781288084658
 20
198.8739388613011
 30
0.0
 11
425.6424642879135
 21
198.9655028501705
 31
0.0
  0
LINE
  5
F0
330
70
100
AcDbEntity
  8
HONTAI
 62
     2
420
 16776960
370
    25
100
AcDbLine
 10
425.6424642879135
 20
198.9655028501705
 30
0.0
 11
425.7149423553789
 21
191.915809800452
 31
0.0
  0
LINE
  5
F1
330
70
100
AcDbEntity
  8
HONTAI
 62
     2
420
 16776960
370
    25
100
AcDbLine
 10
344.9941586273534
 20
255.3989800828877
 30
0.0
 11
344.9941586273534
 21
239.6974471785225
 31
0.0
  0
LINE
  5
F2
330
70
100
AcDbEntity
  8
HONTAI
 62
     2
420
 16776960
370
    25
100
AcDbLine
 10
342.2264603440869
 20
250.6650210779128
 30
0.0
 11
342.6484862207851
 21
236.3279920760843
 31
0.0
  0
LINE
  5
F3
330
70
100
AcDbEntity
  8
HONTAI
 62
     2
420
 16776960
370
    25
100
AcDbLine
 10
350.0525060333275
 20
235.8395169910309
 30
0.0
 11
348.2031273841409
 21
250.2756967954486
 31
0.0
  0
LINE
  5
F4
330
70
100
AcDbEntity
  8
HONTAI
 62
     2
420
 16776960
370
    25
100
AcDbLine
 10
351.9558237637532
 20
255.1979242887043
 30
0.0
 11
351.9558237637532
 21
241.0602788949173
 31
0.0
  0
LINE
  5
F5
330
70
100
AcDbEntity
  8
HONTAI
 62
     2
420
 16776960
370
    25
100
AcDbLine
 10
354.3744087976957
 20
250.2107766270846
 30
0.0
 11
357.7820576878387
 21
235.141723544901
 31
0.0
  0
LINE
  5
F6
330
70
100
AcDbEntity
  8
HONTAI
 62
     2
420
 16776960
370
    25
100
AcDbLine
 10
357.8826174824665
 20
241.3198612045109
 30
0.0
 11
358.6759827625808
 21
254.8361418958771
 31
0.0
  0
LINE
  5
F7
330
70
100
AcDbEntity
  8
HONTAI
 62
     2
420
 16776960
370
    25
100
AcDbLine
 10
361.1956696924817
 20
249.2373675570436
 30
0.0
 11
364.69710211081
 21
234.4207162204017
 31
0.0
  0
LINE
  5
F8
330
70
100
AcDbEntity
  8
HONTAI
 62
     2
420
 16776960
370
    25
100
AcDbLine
 10
365.0285970672798
 20
241.1900208677622
 30
0.0
 11
366.8449075360026
 21
253.1478240626128
 31
0.0
  0
LINE
  5
F9
330
70
100
AcDbEntity
  8
HONTAI
 62
     2
420
 16776960
370
    25
100
AcDbLine
 10
367.8868262707796
 20
246.9010284067618
 30
0.0
 11
372.4440010074926
 21
232.6424937903313
 31
0.0
  0
LINE
  5
FA
330
70
100
AcDbEntity
  8
HONTAI
 62
     2
420
 16776960
370
    25
100
AcDbLine
 10
371.7848058038019
 20
240.0867714609854
 30
0.0
 11
373.7144154481732
 21
251.2567782490219
 31
0.0
  0
LINE
  5
FB
330
70
100
AcDbEntity
  8
HONTAI
 62
     2
420
 16776960
370
    25
100
AcDbLine
 10
374.5132017414605
 20
245.0838538756542
 30
0.0
 11
379.7425821135314
 21
230.22441424622
 31
0.0
  0
LINE
  5
FC
330
70
100
AcDbEntity
  8
HONTAI
 62
     2
420
 16776960
370
    25
100
AcDbLine
 10
378.1509726414644
 20
239.4378648689289
 30
0.0
 11
379.8932862801889
 21
249.1349707460268
 31
0.0
  0
LINE
  5
FD
330
70
100
AcDbEntity
  8
HONTAI
 62
     2
420
 16776960
370
    25
100
AcDbLine
 10
380.2949833574452
 20
244.4998674519875
 30
0.0
 11
386.5570667418749
 21
227.4716023794162
 31
0.0
  0
LINE
  5
FE
330
70
100
AcDbEntity
  8
HONTAI
 62
     2
420
 16776960
370
    25
100
AcDbLine
 10
384.0628585739397
 20
236.7770232406702
 30
0.0
 11
386.2648741310193
 21
247.2703848192379
 31
0.0
  0
LINE
  5
FF
330
70
100
AcDbEntity
  8
HONTAI
 62
     2
420
 16776960
370
    25
100
AcDbLine
 10
385.7002756074554
 20
242.4801616683365
 30
0.0
 11
392.7069351533226
 21
224.9448307352314
 31
0.0
  0
LINE
  5
100
330
70
100
AcDbEntity
  8
HONTAI
 62
     2
420
 16776960
370
    25
100
AcDbLine
 10
392.1862468365622
 20
244.441340936553
 30
0.0
 11
389.2036053803877
 21
233.7124962017872
 31
0.0
  0
LINE
  5
101
330
70
100
AcDbEntity
  8
HONTAI
 62
     2
420
 16776960
370
    25
100
AcDbLine
 10
397.5926232892362
 20
241.8695186300602
 30
0.0
 11
394.8810324924583
 21
232.2464807632533
 31
0.0
  0
LINE
  5
102
330
70
100
AcDbEntity
  8
HONTAI
 62
     2
420
 16776960
370
    25
100
AcDbLine
 10
391.2763297729195
 20
239.2926797651082
 30
0.0
 11
398.9885341852169
 21
222.1446074727399
 31
0.0
  0
LINE
  5
103
330
70
100
AcDbEntity
  8
HONTAI
 62
     2
420
 16776960
370
    25
100
AcDbLine
 10
396.9239413124793
 20
236.1003780312078
 30
0.0
 11
404.3737686864703
 21
220.2915301212576
 31
0.0
  0
LINE
  5
104
330
70
100
AcDbEntity
  8
HONTAI
 62
     2
420
 16776960
370
    25
100
AcDbLine
 10
402.8702506786943
 20
237.6902336091066
 30
0.0
 11
400.0651474044164
 21
230.2077907485633
 31
0.0
  0
LINE
  5
105
330
70
100
AcDbEntity
  8
HONTAI
 62
     2
420
 16776960
370
    25
100
AcDbLine
 10
401.5093053177829
 20
232.6812491635687
 30
0.0
 11
410.0582431156687
 21
215.6375409600332
 31
0.0
  0
LINE
  5
106
330
70
100
AcDbEntity
  8
HONTAI
 62
     2
420
 16776960
370
    25
100
AcDbLine
 10
407.7619019291104
 20
234.7969581052877
 30
0.0
 11
404.9749590490235
 21
226.924699142818
 31
0.0
  0
LINE
  5
107
330
70
100
AcDbEntity
  8
HONTAI
 62
     2
420
 16776960
370
    25
100
AcDbLine
 10
406.2556734147491
 20
228.4517985579441
 30
0.0
 11
414.1272556147916
 21
211.9262713347236
 31
0.0
  0
LINE
  5
108
330
70
100
AcDbEntity
  8
HONTAI
 62
     2
420
 16776960
370
    25
100
AcDbLine
 10
410.1574476570219
 20
224.6403944911065
 30
0.0
 11
417.8970281859299
 21
208.27647914157
 31
0.0
  0
LINE
  5
109
330
70
100
AcDbEntity
  8
HONTAI
 62
     2
420
 16776960
370
    25
100
AcDbLine
 10
411.8165487432926
 20
230.3604515081228
 30
0.0
 11
409.1382971776278
 21
223.4513717709721
 31
0.0
  0
LINE
  5
10A
330
70
100
AcDbEntity
  8
HONTAI
 62
     2
420
 16776960
370
    25
100
AcDbLine
 10
415.4852194184699
 20
225.6668216986478
 30
0.0
 11
413.0295004441703
 21
220.3397284280869
 31
0.0
  0
LINE
  5
10B
330
70
100
AcDbEntity
  8
HONTAI
 62
     2
420
 16776960
370
    25
100
AcDbLine
 10
418.4814134076051
 20
220.2142161025673
 30
0.0
 11
415.323131124142
 21
215.0490297973632
 31
0.0
  0
LINE
  5
10C
330
70
100
AcDbEntity
  8
HONTAI
 62
     2
420
 16776960
370
    25
100
AcDbLine
 10
413.7526636034968
 20
220.1445744673963
 30
0.0
 11
421.3339505472891
 21
203.8541369447834
 31
0.0
  0
LINE
  5
10D
330
70
100
AcDbEntity
  8
HONTAI
 62
     2
420
 16776960
370
    25
100
AcDbLine
 10
420.669605381076
 20
216.7422658251957
 30
0.0
 11
418.1875944928282
 21
211.930599345945
 31
0.0
  0
LINE
  5
10E
330
70
100
AcDbEntity
  8
HONTAI
 62
     2
420
 16776960
370
    25
100
AcDbLine
 10
421.8280758994174
 20
211.2127396659695
 30
0.0
 11
419.658586421471
 21
208.69777168875
 31
0.0
  0
LINE
  5
10F
330
70
100
AcDbEntity
  8
HONTAI
 62
     2
420
 16776960
370
    25
100
AcDbLine
 10
423.3085546011277
 20
205.6189818856221
 30
0.0
 11
421.3748791968606
 21
204.3609077136494
 31
0.0
  0
LINE
  5
110
330
70
100
AcDbEntity
  8
HONTAI
 62
     2
420
 16776960
370
    25
100
AcDbLine
 10
421.3339505472891
 20
203.8541369447834
 30
0.0
 11
423.6308338351793
 21
199.0737501830312
 31
0.0
  0
LINE
  5
111
330
70
100
AcDbEntity
  8
HONTAI
 62
     2
420
 16776960
370
    25
100
AcDbLine
 10
423.6308338351793
 20
199.0737501830312
 30
0.0
 11
425.3536318264008
 21
194.8670216363598
 31
0.0
  0
LINE
  5
112
330
70
100
AcDbEntity
  8
HONTAI
 62
     2
420
 16776960
370
    25
100
AcDbLine
 10
425.3536318264008
 20
194.8670216363598
 30
0.0
 11
425.7149423553789
 21
191.915809800452
 31
0.0
  0
LINE
  5
113
330
70
100
AcDbEntity
  8
HONTAI
 62
     2
420
 16776960
370
    25
100
AcDbLine
 10
425.832036240279
 20
190.7560011560823
 30
0.0
 11
425.1408570587499
 21
193.4136951398185
 31
0.0
  0
LINE
  5
114
330
70
100
AcDbEntity
  8
HONTAI
 62
     2
420
 16776960
370
    25
100
AcDbLine
 10
426.406392587556
 20
185.8800046918144
 30
0.0
 11
425.3097216195588
 21
187.665702777635
 31
0.0
  0
LINE
  5
115
330
70
100
AcDbEntity
  8
HONTAI
 62
     2
420
 16776960
370
    25
100
AcDbLine
 10
425.1619990102115
 20
180.1436192688219
 30
0.0
 11
425.1619990102115
 21
182.3426424266163
 31
0.0
  0
LINE
  5
116
330
70
100
AcDbEntity
  8
HONTAI
 62
     2
420
 16776960
370
    25
100
AcDbLine
 10
422.9293297085646
 20
174.9742913924029
 30
0.0
 11
422.8176818569154
 21
178.0460092831184
 31
0.0
  0
LINE
  5
117
330
70
100
AcDbEntity
  8
HONTAI
 62
     2
420
 16776960
370
    25
100
AcDbLine
 10
422.8176818569154
 20
178.0460092831184
 30
0.0
 11
421.5361543392086
 21
171.748654587066
 31
0.0
  0
LINE
  5
118
330
70
100
AcDbEntity
  8
HONTAI
 62
     2
420
 16776960
370
    25
100
AcDbLine
 10
420.9290008621157
 20
171.5050072278721
 30
0.0
 11
419.4292775635887
 21
168.1183384444175
 31
0.0
  0
LINE
  5
119
330
70
100
AcDbEntity
  8
HONTAI
 62
     2
420
 16776960
370
    25
100
AcDbLine
 10
418.6334728275348
 20
167.7228172367877
 30
0.0
 11
417.0288529238388
 21
164.0435158762145
 31
0.0
  0
LINE
  5
11A
330
70
100
AcDbEntity
  8
HONTAI
 62
     2
420
 16776960
370
    25
100
AcDbLine
 10
416.154172445912
 20
163.740850182143
 30
0.0
 11
413.9846829679284
 21
160.4045437111284
 31
0.0
  0
LINE
  5
11B
330
70
100
AcDbEntity
  8
HONTAI
 62
     2
420
 16776960
370
    25
100
AcDbLine
 10
412.8801515308246
 20
159.9982024754298
 30
0.0
 11
410.7074094449611
 21
156.7104877668096
 31
0.0
  0
LINE
  5
11C
330
70
100
AcDbEntity
  8
HONTAI
 62
     2
420
 16776960
370
    25
100
AcDbLine
 10
410.7074094449611
 20
156.7104877668096
 30
0.0
 11
408.2576535851986
 21
155.635862252439
 31
0.0
  0
LINE
  5
11D
330
70
100
AcDbEntity
  8
HONTAI
 62
     2
420
 16776960
370
    25
100
AcDbLine
 10
408.2576535851986
 20
155.635862252439
 30
0.0
 11
406.6435469083979
 21
153.21679906943
 31
0.0
  0
LINE
  5
11E
330
70
100
AcDbEntity
  8
HONTAI
 62
     2
420
 16776960
370
    25
100
AcDbLine
 10
406.6435469083979
 20
153.21679906943
 30
0.0
 11
406.6435469083979
 21
153.21679906943
 31
0.0
  0
LINE
  5
11F
330
70
100
AcDbEntity
  8
HONTAI
 62
     2
420
 16776960
370
    25
100
AcDbLine
 10
345.7918607180127
 20
228.0012919349981
 30
0.0
 11
340.5096868768404
 21
158.5766779885441
 31
0.0
  0
LINE
  5
120
330
70
100
AcDbEntity
  8
HONTAI
 62
     2
420
 16776960
370
    25
100
AcDbLine
 10
353.2652694993629
 20
226.9547001297127
 30
0.0
 11
341.8830900865149
 21
158.458236510803
 31
0.0
  0
LINE
  5
121
330
70
100
AcDbEntity
  8
HONTAI
 62
     2
420
 16776960
370
    25
100
AcDbLine
 10
360.2269346357627
 20
225.6754777210917
 30
0.0
 11
343.1071361759598
 21
158.3113693348212
 31
0.0
  0
LINE
  5
122
330
70
100
AcDbEntity
  8
HONTAI
 62
     2
420
 16776960
370
    25
100
AcDbLine
 10
367.3422854960108
 20
224.9047966313979
 30
0.0
 11
343.8452622963465
 21
158.2032956722188
 31
0.0
  0
LINE
  5
123
330
70
100
AcDbEntity
  8
HONTAI
 62
     2
420
 16776960
370
    25
100
AcDbLine
 10
374.5291937303599
 20
223.0448338075109
 30
0.0
 11
344.6702901690289
 21
158.0644168489623
 31
0.0
  0
LINE
  5
124
330
70
100
AcDbEntity
  8
HONTAI
 62
     2
420
 16776960
370
    25
100
AcDbLine
 10
381.3436783587033
 20
220.8127603821838
 30
0.0
 11
345.4254780513892
 21
157.9198654498162
 31
0.0
  0
LINE
  5
125
330
70
100
AcDbEntity
  8
HONTAI
 62
     2
420
 16776960
370
    25
100
AcDbLine
 10
387.786010431652
 20
217.8367608456299
 30
0.0
 11
346.4538515519134
 21
157.6947267848306
 31
0.0
  0
LINE
  5
126
330
70
100
AcDbEntity
  8
HONTAI
 62
     2
420
 16776960
370
    25
100
AcDbLine
 10
393.782735220505
 20
215.0910311790191
 30
0.0
 11
347.5409520845865
 21
157.4185935587226
 31
0.0
  0
LINE
  5
127
330
70
100
AcDbEntity
  8
HONTAI
 62
     2
420
 16776960
370
    25
100
AcDbLine
 10
399.7664495777252
 20
213.0586364533742
 30
0.0
 11
348.4699904598985
 21
157.1485830393866
 31
0.0
  0
LINE
  5
128
330
70
100
AcDbEntity
  8
HONTAI
 62
     2
420
 16776960
370
    25
100
AcDbLine
 10
405.0318796874958
 20
209.7111164987336
 30
0.0
 11
349.1276357934736
 21
156.9366197373306
 31
0.0
  0
LINE
  5
129
330
70
100
AcDbEntity
  8
HONTAI
 62
     2
420
 16776960
370
    25
100
AcDbLine
 10
410.0582431156687
 20
206.5430122821208
 30
0.0
 11
350.1469308342215
 21
156.5700420566621
 31
0.0
  0
LINE
  5
12A
330
70
100
AcDbEntity
  8
HONTAI
 62
     2
420
 16776960
370
    25
100
AcDbLine
 10
413.2295358308377
 20
202.1792949646545
 30
0.0
 11
350.9007561705181
 21
156.2654202275164
 31
0.0
  0
LINE
  5
12B
330
70
100
AcDbEntity
  8
HONTAI
 62
     2
420
 16776960
370
    25
100
AcDbLine
 10
416.87977506114
 20
198.8916786198982
 30
0.0
 11
351.6337124194992
 21
155.9377209118976
 31
0.0
  0
LINE
  5
12C
330
70
100
AcDbEntity
  8
HONTAI
 62
     2
420
 16776960
370
    25
100
AcDbLine
 10
419.6111525560663
 20
194.1978520826542
 30
0.0
 11
352.2194534525449
 21
155.6501975097645
 31
0.0
  0
LINE
  5
12D
330
70
100
AcDbEntity
  8
HONTAI
 62
     2
420
 16776960
370
    25
100
AcDbLine
 10
421.5253123128317
 20
189.8955138334592
 30
0.0
 11
352.9079243767762
 21
155.2781960885108
 31
0.0
  0
LINE
  5
12E
330
70
100
AcDbEntity
  8
HONTAI
 62
     2
420
 16776960
370
    25
100
AcDbLine
 10
422.1953495429005
 20
185.6887852867814
 30
0.0
 11
353.7894732172962
 21
154.7360809271016
 31
0.0
  0
LINE
  5
12F
330
70
100
AcDbEntity
  8
HONTAI
 62
     2
420
 16776960
370
    25
100
AcDbLine
 10
423.2481103040544
 20
181.2909356989604
 30
0.0
 11
354.528725668573
 21
154.2072156189111
 31
0.0
  0
LINE
  5
130
330
70
100
AcDbEntity
  8
HONTAI
 62
     2
420
 16776960
370
    25
100
AcDbLine
 10
422.8176818569154
 20
178.0460092831184
 30
0.0
 11
355.2284940185447
 21
153.6189334014499
 31
0.0
  0
LINE
  5
131
330
70
100
AcDbEntity
  8
HONTAI
 62
     2
420
 16776960
370
    25
100
AcDbLine
 10
420.0797991461918
 20
171.838264092198
 30
0.0
 11
355.8843074271159
 21
152.9500846966762
 31
0.0
  0
LINE
  5
132
330
70
100
AcDbEntity
  8
HONTAI
 62
     2
420
 16776960
370
    25
100
AcDbLine
 10
417.5167547587496
 20
167.7228172367877
 30
0.0
 11
356.2866264975977
 21
152.4488803312851
 31
0.0
  0
LINE
  5
133
330
70
100
AcDbEntity
  8
HONTAI
 62
     2
420
 16776960
370
    25
100
AcDbLine
 10
415.4377855530652
 20
164.1031243944454
 30
0.0
 11
356.6777138493136
 21
151.843379197284
 31
0.0
  0
LINE
  5
134
330
70
100
AcDbEntity
  8
HONTAI
 62
     2
420
 16776960
370
    25
100
AcDbLine
 10
412.4017471169836
 20
160.4045437111284
 30
0.0
 11
357.0514809770289
 21
151.0205052423338
 31
0.0
  0
LINE
  5
135
330
70
100
AcDbEntity
  8
HONTAI
 62
     2
420
 16776960
370
    25
100
AcDbLine
 10
407.9006798667245
 20
156.0128910484743
 30
0.0
 11
357.2612439442863
 21
150.114159829192
 31
0.0
  0
LINE
  5
136
330
70
100
AcDbEntity
  8
HONTAI
 62
     2
420
 16776960
370
    25
100
AcDbLine
 10
403.654942337685
 20
152.9798404548525
 30
0.0
 11
357.2557990552605
 21
149.1516490532752
 31
0.0
  0
LINE
  5
137
330
70
100
AcDbEntity
  8
HONTAI
 62
     2
420
 16776960
370
    25
100
AcDbLine
 10
398.6768259268968
 20
149.4328385282986
 30
0.0
 11
356.6992347103436
 21
147.5336219790796
 31
0.0
  0
LINE
  5
138
330
70
100
AcDbEntity
  8
HONTAI
 62
     2
420
 16776960
370
    25
100
AcDbLine
 10
392.2735251489131
 20
146.0441041031115
 30
0.0
 11
355.9703511460959
 21
146.5249068046583
 31
0.0
  0
LINE
  5
139
330
70
100
AcDbEntity
  8
HONTAI
 62
     2
420
 16776960
370
    25
100
AcDbLine
 10
387.1661175735757
 20
143.6072370557444
 30
0.0
 11
354.7475047866916
 21
145.4027133726217
 31
0.0
  0
LINE
  5
13A
330
70
100
AcDbEntity
  8
HONTAI
 62
     2
420
 16776960
370
    25
100
AcDbLine
 10
381.0295306444447
 20
141.7034039362507
 30
0.0
 11
353.6679295694611
 21
144.6751554018852
 31
0.0
  0
LINE
  5
13B
330
70
100
AcDbEntity
  8
HONTAI
 62
     2
420
 16776960
370
    25
100
AcDbLine
 10
374.0730154705687
 20
139.1316799936693
 30
0.0
 11
352.4634870269879
 21
144.0288958258268
 31
0.0
  0
LINE
  5
13C
330
70
100
AcDbEntity
  8
HONTAI
 62
     2
420
 16776960
370
    25
100
AcDbLine
 10
368.0508119197128
 20
138.1036789638707
 30
0.0
 11
350.8382447471415
 21
143.341726944625
 31
0.0
  0
LINE
  5
13D
330
70
100
AcDbEntity
  8
HONTAI
 62
     2
420
 16776960
370
    25
100
AcDbLine
 10
361.5331277634539
 20
137.2660120640584
 30
0.0
 11
348.6613255640294
 21
142.6544572277884
 31
0.0
  0
LINE
  5
13E
330
70
100
AcDbEntity
  8
HONTAI
 62
     2
420
 16776960
370
    25
100
AcDbLine
 10
356.3875020451674
 20
136.6567461202846
 30
0.0
 11
346.2342444561709
 21
142.1198174177756
 31
0.0
  0
LINE
  5
13F
330
70
100
AcDbEntity
  8
HONTAI
 62
     2
420
 16776960
370
    25
100
AcDbLine
 10
349.486548040779
 20
137.0987894708917
 30
0.0
 11
343.9569805728278
 21
141.7945299717141
 31
0.0
  0
LINE
  5
140
330
70
100
AcDbEntity
  8
HONTAI
 62
     2
420
 16776960
370
    25
100
AcDbLine
 10
345.4947553634899
 20
133.3323884497241
 30
0.0
 11
342.0073395210425
 21
141.6332122404645
 31
0.0
  0
LINE
  5
141
330
70
100
AcDbEntity
  8
HONTAI
 62
     2
420
 16776960
370
    25
100
AcDbLine
 10
341.9730279775111
 20
136.3899832466007
 30
0.0
 11
340.274104706827
 21
141.5734500036331
 31
0.0
  0
LINE
  5
142
330
70
100
AcDbEntity
  8
HONTAI
 62
     2
420
 16776960
370
    25
100
AcDbLine
 10
339.0385048795732
 20
158.6507230537476
 30
0.0
 11
339.0385048795732
 21
229.4138224257589
 31
0.0
  0
LINE
  5
143
330
70
100
AcDbEntity
  8
HONTAI
 62
     2
420
 16776960
370
    25
100
AcDbLine
 10
339.0385048795732
 20
133.0100094288192
 30
0.0
 11
339.1683596188923
 21
141.5749564490186
 31
0.0
  0
LINE
  5
144
330
70
100
AcDbEntity
  8
HONTAI
 62
     2
420
 16776960
370
    25
100
AcDbLine
 10
339.0385048795732
 20
229.4138224257589
 30
0.0
 11
335.4285235383599
 21
236.3279920760843
 31
0.0
  0
LINE
  5
145
330
70
100
AcDbEntity
  8
HONTAI
 62
     2
420
 16776960
370
    25
100
AcDbLine
 10
335.4285235383599
 20
236.3279920760843
 30
0.0
 11
332.2851490411323
 21
228.0012919349981
 31
0.0
  0
LINE
  5
146
330
70
100
AcDbEntity
  8
HONTAI
 62
     2
420
 16776960
370
    25
100
AcDbLine
 10
332.2851490411323
 20
228.0012919349981
 30
0.0
 11
328.0245037258187
 21
235.8395169910309
 31
0.0
  0
LINE
  5
147
330
70
100
AcDbEntity
  8
HONTAI
 62
     2
420
 16776960
370
    25
100
AcDbLine
 10
328.0245037258187
 20
235.8395169910309
 30
0.0
 11
324.8117402597834
 21
226.9547001297127
 31
0.0
  0
LINE
  5
148
330
70
100
AcDbEntity
  8
HONTAI
 62
     2
420
 16776960
370
    25
100
AcDbLine
 10
324.8117402597834
 20
226.9547001297127
 30
0.0
 11
320.2949520713076
 21
235.141723544901
 31
0.0
  0
LINE
  5
149
330
70
100
AcDbEntity
  8
HONTAI
 62
     2
420
 16776960
370
    25
100
AcDbLine
 10
320.2949520713076
 20
235.141723544901
 30
0.0
 11
317.8500751233836
 21
225.6754777210917
 31
0.0
  0
LINE
  5
14A
330
70
100
AcDbEntity
  8
HONTAI
 62
     2
420
 16776960
370
    25
100
AcDbLine
 10
317.8500751233836
 20
225.6754777210917
 30
0.0
 11
313.3799076483363
 21
234.4207162204017
 31
0.0
  0
LINE
  5
14B
330
70
100
AcDbEntity
  8
HONTAI
 62
     2
420
 16776960
370
    25
100
AcDbLine
 10
313.3799076483363
 20
234.4207162204017
 30
0.0
 11
310.7347242631341
 21
224.9047966313979
 31
0.0
  0
LINE
  5
14C
330
70
100
AcDbEntity
  8
HONTAI
 62
     2
420
 16776960
370
    25
100
AcDbLine
 10
310.7347242631341
 20
224.9047966313979
 30
0.0
 11
305.6330087516511
 21
232.6424937903313
 31
0.0
  0
LINE
  5
14D
330
70
100
AcDbEntity
  8
HONTAI
 62
     2
420
 16776960
370
    25
100
AcDbLine
 10
305.6330087516511
 20
232.6424937903313
 30
0.0
 11
303.5478160287864
 21
223.0448338075109
 31
0.0
  0
LINE
  5
14E
330
70
100
AcDbEntity
  8
HONTAI
 62
     2
420
 16776960
370
    25
100
AcDbLine
 10
303.5478160287864
 20
223.0448338075109
 30
0.0
 11
298.3344276456135
 21
230.22441424622
 31
0.0
  0
LINE
  5
14F
330
70
100
AcDbEntity
  8
HONTAI
 62
     2
420
 16776960
370
    25
100
AcDbLine
 10
298.3344276456135
 20
230.22441424622
 30
0.0
 11
296.733331400443
 21
220.8127603821838
 31
0.0
  0
LINE
  5
150
330
70
100
AcDbEntity
  8
HONTAI
 62
     2
420
 16776960
370
    25
100
AcDbLine
 10
296.733331400443
 20
220.8127603821838
 30
0.0
 11
291.5199430172688
 21
227.4716023794162
 31
0.0
  0
LINE
  5
151
330
70
100
AcDbEntity
  8
HONTAI
 62
     2
420
 16776960
370
    25
100
AcDbLine
 10
291.5199430172688
 20
227.4716023794162
 30
0.0
 11
290.2909993274917
 21
217.8367608456299
 31
0.0
  0
LINE
  5
152
330
70
100
AcDbEntity
  8
HONTAI
 62
     2
420
 16776960
370
    25
100
AcDbLine
 10
290.2909993274917
 20
217.8367608456299
 30
0.0
 11
285.3700746058224
 21
224.9448307352314
 31
0.0
  0
LINE
  5
153
330
70
100
AcDbEntity
  8
HONTAI
 62
     2
420
 16776960
370
    25
100
AcDbLine
 10
285.3700746058224
 20
224.9448307352314
 30
0.0
 11
284.2942745386413
 21
215.0910311790191
 31
0.0
  0
LINE
  5
154
330
70
100
AcDbEntity
  8
HONTAI
 62
     2
420
 16776960
370
    25
100
AcDbLine
 10
284.2942745386413
 20
215.0910311790191
 30
0.0
 11
279.0884755739269
 21
222.1446074727399
 31
0.0
  0
LINE
  5
155
330
70
100
AcDbEntity
  8
HONTAI
 62
     2
420
 16776960
370
    25
100
AcDbLine
 10
279.0884755739269
 20
222.1446074727399
 30
0.0
 11
278.3105601814185
 21
213.0586364533742
 31
0.0
  0
LINE
  5
156
330
70
100
AcDbEntity
  8
HONTAI
 62
     2
420
 16776960
370
    25
100
AcDbLine
 10
278.3105601814185
 20
213.0586364533742
 30
0.0
 11
273.7032410726759
 21
220.2915301212576
 31
0.0
  0
LINE
  5
157
330
70
100
AcDbEntity
  8
HONTAI
 62
     2
420
 16776960
370
    25
100
AcDbLine
 10
273.7032410726759
 20
220.2915301212576
 30
0.0
 11
273.0451300716492
 21
209.7111164987336
 31
0.0
  0
LINE
  5
158
330
70
100
AcDbEntity
  8
HONTAI
 62
     2
420
 16776960
370
    25
100
AcDbLine
 10
273.0451300716492
 20
209.7111164987336
 30
0.0
 11
268.0187666434776
 21
216.1669354239679
 31
0.0
  0
LINE
  5
159
330
70
100
AcDbEntity
  8
HONTAI
 62
     2
420
 16776960
370
    25
100
AcDbLine
 10
268.0187666434776
 20
216.1669354239679
 30
0.0
 11
268.0187666434776
 21
206.5430122821208
 31
0.0
  0
LINE
  5
15A
330
70
100
AcDbEntity
  8
HONTAI
 62
     2
420
 16776960
370
    25
100
AcDbLine
 10
268.0187666434776
 20
206.5430122821208
 30
0.0
 11
263.949754144352
 21
212.7597085871785
 31
0.0
  0
LINE
  5
15B
330
70
100
AcDbEntity
  8
HONTAI
 62
     2
420
 16776960
370
    25
100
AcDbLine
 10
263.949754144352
 20
212.7597085871785
 30
0.0
 11
264.8474739283086
 21
202.1792949646545
 31
0.0
  0
LINE
  5
15C
330
70
100
AcDbEntity
  8
HONTAI
 62
     2
420
 16776960
370
    25
100
AcDbLine
 10
264.8474739283086
 20
202.1792949646545
 30
0.0
 11
260.179981573215
 21
208.27647914157
 31
0.0
  0
LINE
  5
15D
330
70
100
AcDbEntity
  8
HONTAI
 62
     2
420
 16776960
370
    25
100
AcDbLine
 10
260.179981573215
 20
208.27647914157
 30
0.0
 11
261.1972346980037
 21
198.8916786198982
 31
0.0
  0
LINE
  5
15E
330
70
100
AcDbEntity
  8
HONTAI
 62
     2
420
 16776960
370
    25
100
AcDbLine
 10
261.1972346980037
 20
198.8916786198982
 30
0.0
 11
256.7430592118571
 21
203.8541369447834
 31
0.0
  0
LINE
  5
15F
330
70
100
AcDbEntity
  8
HONTAI
 62
     2
420
 16776960
370
    25
100
AcDbLine
 10
256.7430592118571
 20
203.8541369447834
 30
0.0
 11
258.4658572030786
 21
194.1978520826542
 31
0.0
  0
LINE
  5
160
330
70
100
AcDbEntity
  8
HONTAI
 62
     2
420
 16776960
370
    25
100
AcDbLine
 10
258.4658572030786
 20
194.1978520826542
 30
0.0
 11
254.4461759239669
 21
199.0737501830312
 31
0.0
  0
LINE
  5
161
330
70
100
AcDbEntity
  8
HONTAI
 62
     2
420
 16776960
370
    25
100
AcDbLine
 10
254.4461759239669
 20
199.0737501830312
 30
0.0
 11
256.551697446312
 21
189.8955138334592
 31
0.0
  0
LINE
  5
162
330
70
100
AcDbEntity
  8
HONTAI
 62
     2
420
 16776960
370
    25
100
AcDbLine
 10
256.551697446312
 20
189.8955138334592
 30
0.0
 11
252.7233779327454
 21
194.8670216363598
 31
0.0
  0
LINE
  5
163
330
70
100
AcDbEntity
  8
HONTAI
 62
     2
420
 16776960
370
    25
100
AcDbLine
 10
252.7233779327454
 20
194.8670216363598
 30
0.0
 11
255.8816602162458
 21
185.6887852867814
 31
0.0
  0
LINE
  5
164
330
70
100
AcDbEntity
  8
HONTAI
 62
     2
420
 16776960
370
    25
100
AcDbLine
 10
255.8816602162458
 20
185.6887852867814
 30
0.0
 11
252.2449735188672
 21
190.7560011560823
 31
0.0
  0
LINE
  5
165
330
70
100
AcDbEntity
  8
HONTAI
 62
     2
420
 16776960
370
    25
100
AcDbLine
 10
252.2449735188672
 20
190.7560011560823
 30
0.0
 11
254.8288994550905
 21
181.2909356989604
 31
0.0
  0
LINE
  5
166
330
70
100
AcDbEntity
  8
HONTAI
 62
     2
420
 16776960
370
    25
100
AcDbLine
 10
254.8288994550905
 20
181.2909356989604
 30
0.0
 11
251.6706171715902
 21
185.8800046918144
 31
0.0
  0
LINE
  5
167
330
70
100
AcDbEntity
  8
HONTAI
 62
     2
420
 16776960
370
    25
100
AcDbLine
 10
251.6706171715902
 20
185.8800046918144
 30
0.0
 11
255.2593279022296
 21
178.0460092831184
 31
0.0
  0
LINE
  5
168
330
70
100
AcDbEntity
  8
HONTAI
 62
     2
420
 16776960
370
    25
100
AcDbLine
 10
255.2593279022296
 20
178.0460092831184
 30
0.0
 11
252.9150107489347
 21
180.1436192688219
 31
0.0
  0
LINE
  5
169
330
70
100
AcDbEntity
  8
HONTAI
 62
     2
420
 16776960
370
    25
100
AcDbLine
 10
267.3696003141852
 20
156.7104877668096
 30
0.0
 11
270.1763298924204
 21
156.0128910484743
 31
0.0
  0
LINE
  5
16A
330
70
100
AcDbEntity
  8
HONTAI
 62
     2
420
 16776960
370
    25
100
AcDbLine
 10
270.1763298924204
 20
156.0128910484743
 30
0.0
 11
271.4334628507497
 21
153.21679906943
 31
0.0
  0
LINE
  5
16B
330
70
100
AcDbEntity
  8
HONTAI
 62
     2
420
 16776960
370
    25
100
AcDbLine
 10
271.4334628507497
 20
153.21679906943
 30
0.0
 11
274.4220674214612
 21
152.9798404548525
 31
0.0
  0
LINE
  5
16C
330
70
100
AcDbEntity
  8
HONTAI
 62
     2
420
 16776960
370
    25
100
AcDbLine
 10
274.4220674214612
 20
152.9798404548525
 30
0.0
 11
276.1985334432763
 21
149.9278056301994
 31
0.0
  0
LINE
  5
16D
330
70
100
AcDbEntity
  8
HONTAI
 62
     2
420
 16776960
370
    25
100
AcDbLine
 10
276.1985334432763
 20
149.9278056301994
 30
0.0
 11
279.4001838322483
 21
149.4328385282986
 31
0.0
  0
LINE
  5
16E
330
70
100
AcDbEntity
  8
HONTAI
 62
     2
420
 16776960
370
    25
100
AcDbLine
 10
279.4001838322483
 20
149.4328385282986
 30
0.0
 11
281.6490911534006
 21
146.0441041031115
 31
0.0
  0
LINE
  5
16F
330
70
100
AcDbEntity
  8
HONTAI
 62
     2
420
 16776960
370
    25
100
AcDbLine
 10
281.6490911534006
 20
146.0441041031115
 30
0.0
 11
285.8034846102332
 21
146.0441041031115
 31
0.0
  0
LINE
  5
170
330
70
100
AcDbEntity
  8
HONTAI
 62
     2
420
 16776960
370
    25
100
AcDbLine
 10
285.8034846102332
 20
146.0441041031115
 30
0.0
 11
286.8326639640281
 21
144.0641373316469
 31
0.0
  0
LINE
  5
171
330
70
100
AcDbEntity
  8
HONTAI
 62
     2
420
 16776960
370
    25
100
AcDbLine
 10
286.8326639640281
 20
144.0641373316469
 30
0.0
 11
290.9108921855694
 21
143.6072370557444
 31
0.0
  0
LINE
  5
172
330
70
100
AcDbEntity
  8
HONTAI
 62
     2
420
 16776960
370
    25
100
AcDbLine
 10
290.9108921855694
 20
143.6072370557444
 30
0.0
 11
292.7784312289459
 21
141.3607041383648
 31
0.0
  0
LINE
  5
173
330
70
100
AcDbEntity
  8
HONTAI
 62
     2
420
 16776960
370
    25
100
AcDbLine
 10
292.7784312289459
 20
141.3607041383648
 30
0.0
 11
297.0474791147004
 21
141.7034039362507
 31
0.0
  0
LINE
  5
174
330
70
100
AcDbEntity
  8
HONTAI
 62
     2
420
 16776960
370
    25
100
AcDbLine
 10
297.0474791147004
 20
141.7034039362507
 30
0.0
 11
300.0783675882594
 21
138.5986460657702
 31
0.0
  0
LINE
  5
175
330
70
100
AcDbEntity
  8
HONTAI
 62
     2
420
 16776960
370
    25
100
AcDbLine
 10
300.0783675882594
 20
138.5986460657702
 30
0.0
 11
304.0039942885751
 21
139.1316799936693
 31
0.0
  0
LINE
  5
176
330
70
100
AcDbEntity
  8
HONTAI
 62
     2
420
 16776960
370
    25
100
AcDbLine
 10
304.0039942885751
 20
139.1316799936693
 30
0.0
 11
305.8718043825625
 21
137.1518115860686
 31
0.0
  0
LINE
  5
177
330
70
100
AcDbEntity
  8
HONTAI
 62
     2
420
 16776960
370
    25
100
AcDbLine
 10
305.8718043825625
 20
137.1518115860686
 30
0.0
 11
310.0261978394323
 21
138.1036789638707
 31
0.0
  0
LINE
  5
178
330
70
100
AcDbEntity
  8
HONTAI
 62
     2
420
 16776960
370
    25
100
AcDbLine
 10
310.0261978394323
 20
138.1036789638707
 30
0.0
 11
312.3512703958734
 21
135.7429455684744
 31
0.0
  0
LINE
  5
179
330
70
100
AcDbEntity
  8
HONTAI
 62
     2
420
 16776960
370
    25
100
AcDbLine
 10
312.3512703958734
 20
135.7429455684744
 30
0.0
 11
316.5438819956898
 21
137.2660120640584
 31
0.0
  0
LINE
  5
17A
330
70
100
AcDbEntity
  8
HONTAI
 62
     2
420
 16776960
370
    25
100
AcDbLine
 10
316.5438819956898
 20
137.2660120640584
 30
0.0
 11
318.3734739467293
 21
134.8291450166925
 31
0.0
  0
LINE
  5
17B
330
70
100
AcDbEntity
  8
HONTAI
 62
     2
420
 16776960
370
    25
100
AcDbLine
 10
318.3734739467293
 20
134.8291450166925
 30
0.0
 11
321.6895077139763
 21
136.6567461202846
 31
0.0
  0
LINE
  5
17C
330
70
100
AcDbEntity
  8
HONTAI
 62
     2
420
 16776960
370
    25
100
AcDbLine
 10
321.6895077139763
 20
136.6567461202846
 30
0.0
 11
325.1196538088917
 21
133.4202789990983
 31
0.0
  0
LINE
  5
17D
330
70
100
AcDbEntity
  8
HONTAI
 62
     2
420
 16776960
370
    25
100
AcDbLine
 10
325.1196538088917
 20
133.4202789990983
 30
0.0
 11
328.5904617183647
 21
137.0987894708917
 31
0.0
  0
LINE
  5
17E
330
70
100
AcDbEntity
  8
HONTAI
 62
     2
420
 16776960
370
    25
100
AcDbLine
 10
328.5904617183647
 20
137.0987894708917
 30
0.0
 11
332.5822543956551
 21
133.3323884497241
 31
0.0
  0
LINE
  5
17F
330
70
100
AcDbEntity
  8
HONTAI
 62
     2
420
 16776960
370
    25
100
AcDbLine
 10
332.5822543956551
 20
133.3323884497241
 30
0.0
 11
336.1039817816351
 21
136.3899832466007
 31
0.0
  0
LINE
  5
180
330
70
100
AcDbEntity
  8
HONTAI
 62
     2
420
 16776960
370
    25
100
AcDbLine
 10
336.1039817816351
 20
136.3899832466007
 30
0.0
 11
339.0385048795732
 21
133.0100094288192
 31
0.0
  0
LINE
  5
181
330
70
100
AcDbEntity
  8
HONTAI
 62
     2
420
 16776960
370
    25
100
AcDbLine
 10
252.9150107489347
 20
180.1436192688219
 30
0.0
 11
256.5408554199364
 21
171.748654587066
 31
0.0
  0
LINE
  5
182
330
70
100
AcDbEntity
  8
HONTAI
 62
     2
420
 16776960
370
    25
100
AcDbLine
 10
256.5408554199364
 20
171.748654587066
 30
0.0
 11
257.9972106129519
 21
171.838264092198
 31
0.0
  0
LINE
  5
183
330
70
100
AcDbEntity
  8
HONTAI
 62
     2
420
 16776960
370
    25
100
AcDbLine
 10
257.9972106129519
 20
171.838264092198
 30
0.0
 11
258.6477321955575
 21
168.1183384444175
 31
0.0
  0
LINE
  5
184
330
70
100
AcDbEntity
  8
HONTAI
 62
     2
420
 16776960
370
    25
100
AcDbLine
 10
258.6477321955575
 20
168.1183384444175
 30
0.0
 11
260.5168975428554
 21
168.0497788120686
 31
0.0
  0
LINE
  5
185
330
70
100
AcDbEntity
  8
HONTAI
 62
     2
420
 16776960
370
    25
100
AcDbLine
 10
260.5168975428554
 20
168.0497788120686
 30
0.0
 11
261.0481568353049
 21
164.0435158762145
 31
0.0
  0
LINE
  5
186
330
70
100
AcDbEntity
  8
HONTAI
 62
     2
420
 16776960
370
    25
100
AcDbLine
 10
261.0481568353049
 20
164.0435158762145
 30
0.0
 11
262.6392242060798
 21
164.1031243944454
 31
0.0
  0
LINE
  5
187
330
70
100
AcDbEntity
  8
HONTAI
 62
     2
420
 16776960
370
    25
100
AcDbLine
 10
262.6392242060798
 20
164.1031243944454
 30
0.0
 11
264.0923267912191
 21
160.4045437111284
 31
0.0
  0
LINE
  5
188
330
70
100
AcDbEntity
  8
HONTAI
 62
     2
420
 16776960
370
    25
100
AcDbLine
 10
264.0923267912191
 20
160.4045437111284
 30
0.0
 11
265.6752626421613
 21
160.4045437111284
 31
0.0
  0
LINE
  5
189
330
70
100
AcDbEntity
  8
HONTAI
 62
     2
420
 16776960
370
    25
100
AcDbLine
 10
265.6752626421613
 20
160.4045437111284
 30
0.0
 11
267.3696003141852
 21
156.7104877668096
 31
0.0
  0
LINE
  5
18A
330
70
100
AcDbEntity
  8
HONTAI
 62
     2
420
 16776960
370
    25
100
AcDbLine
 10
335.8998806350706
 20
260.5445919736945
 30
0.0
 11
333.0828511317903
 21
255.3989800828877
 31
0.0
  0
LINE
  5
18B
330
70
100
AcDbEntity
  8
HONTAI
 62
     2
420
 16776960
370
    25
100
AcDbLine
 10
333.0828511317903
 20
255.3989800828877
 30
0.0
 11
329.5014587689627
 21
260.3435361795111
 31
0.0
  0
LINE
  5
18C
330
70
100
AcDbEntity
  8
HONTAI
 62
     2
420
 16776960
370
    25
100
AcDbLine
 10
329.5014587689627
 20
260.3435361795111
 30
0.0
 11
326.1211859953919
 21
255.1979242887043
 31
0.0
  0
LINE
  5
18D
330
70
100
AcDbEntity
  8
HONTAI
 62
     2
420
 16776960
370
    25
100
AcDbLine
 10
326.1211859953919
 20
255.1979242887043
 30
0.0
 11
323.2239254969257
 21
259.9013904873286
 31
0.0
  0
LINE
  5
18E
330
70
100
AcDbEntity
  8
HONTAI
 62
     2
420
 16776960
370
    25
100
AcDbLine
 10
323.2239254969257
 20
259.9013904873286
 30
0.0
 11
319.4010269965643
 21
254.8361418958771
 31
0.0
  0
LINE
  5
18F
330
70
100
AcDbEntity
  8
HONTAI
 62
     2
420
 16776960
370
    25
100
AcDbLine
 10
319.4010269965643
 20
254.8361418958771
 30
0.0
 11
315.6185150444438
 21
258.7355816455751
 31
0.0
  0
LINE
  5
190
330
70
100
AcDbEntity
  8
HONTAI
 62
     2
420
 16776960
370
    25
100
AcDbLine
 10
315.6185150444438
 20
258.7355816455751
 30
0.0
 11
311.2321022231437
 21
253.1478240626128
 31
0.0
  0
LINE
  5
191
330
70
100
AcDbEntity
  8
HONTAI
 62
     2
420
 16776960
370
    25
100
AcDbLine
 10
311.2321022231437
 20
253.1478240626128
 30
0.0
 11
309.4615993158683
 21
257.7707302341141
 31
0.0
  0
LINE
  5
192
330
70
100
AcDbEntity
  8
HONTAI
 62
     2
420
 16776960
370
    25
100
AcDbLine
 10
309.4615993158683
 20
257.7707302341141
 30
0.0
 11
304.3625943109705
 21
251.2567782490219
 31
0.0
  0
LINE
  5
193
330
70
100
AcDbEntity
  8
HONTAI
 62
     2
420
 16776960
370
    25
100
AcDbLine
 10
304.3625943109705
 20
251.2567782490219
 30
0.0
 11
303.1396137356958
 21
255.886078073472
 31
0.0
  0
LINE
  5
194
330
70
100
AcDbEntity
  8
HONTAI
 62
     2
420
 16776960
370
    25
100
AcDbLine
 10
303.1396137356958
 20
255.886078073472
 30
0.0
 11
298.1837234789574
 21
249.1349707460268
 31
0.0
  0
LINE
  5
195
330
70
100
AcDbEntity
  8
HONTAI
 62
     2
420
 16776960
370
    25
100
AcDbLine
 10
298.1837234789574
 20
249.1349707460268
 30
0.0
 11
297.4115001503022
 21
254.0214921466831
 31
0.0
  0
LINE
  5
196
330
70
100
AcDbEntity
  8
HONTAI
 62
     2
420
 16776960
370
    25
100
AcDbLine
 10
297.4115001503022
 20
254.0214921466831
 30
0.0
 11
291.8121356281257
 21
247.2703848192379
 31
0.0
  0
LINE
  5
197
330
70
100
AcDbEntity
  8
HONTAI
 62
     2
420
 16776960
370
    25
100
AcDbLine
 10
291.8121356281257
 20
247.2703848192379
 30
0.0
 11
291.8121356281257
 21
250.8709950666516
 31
0.0
  0
LINE
  5
198
330
70
100
AcDbEntity
  8
HONTAI
 62
     2
420
 16776960
370
    25
100
AcDbLine
 10
291.8121356281257
 20
250.8709950666516
 30
0.0
 11
285.8907629225841
 21
244.441340936553
 31
0.0
  0
LINE
  5
199
330
70
100
AcDbEntity
  8
HONTAI
 62
     2
420
 16776960
370
    25
100
AcDbLine
 10
285.8907629225841
 20
244.441340936553
 30
0.0
 11
285.8907629225841
 21
248.3634043812928
 31
0.0
  0
LINE
  5
19A
330
70
100
AcDbEntity
  8
HONTAI
 62
     2
420
 16776960
370
    25
100
AcDbLine
 10
285.8907629225841
 20
248.3634043812928
 30
0.0
 11
280.4843864699088
 21
241.8695186300602
 31
0.0
  0
LINE
  5
19B
330
70
100
AcDbEntity
  8
HONTAI
 62
     2
420
 16776960
370
    25
100
AcDbLine
 10
280.4843864699088
 20
241.8695186300602
 30
0.0
 11
280.4843864699088
 21
245.3414689074382
 31
0.0
  0
LINE
  5
19C
330
70
100
AcDbEntity
  8
HONTAI
 62
     2
420
 16776960
370
    25
100
AcDbLine
 10
280.4843864699088
 20
245.3414689074382
 30
0.0
 11
275.2067590804519
 21
237.6902336091066
 31
0.0
  0
LINE
  5
19D
330
70
100
AcDbEntity
  8
HONTAI
 62
     2
420
 16776960
370
    25
100
AcDbLine
 10
275.2067590804519
 20
237.6902336091066
 30
0.0
 11
275.8502333459271
 21
241.740957023909
 31
0.0
  0
LINE
  5
19E
330
70
100
AcDbEntity
  8
HONTAI
 62
     2
420
 16776960
370
    25
100
AcDbLine
 10
275.8502333459271
 20
241.740957023909
 30
0.0
 11
270.3151078300359
 21
234.7969581052877
 31
0.0
  0
LINE
  5
19F
330
70
100
AcDbEntity
  8
HONTAI
 62
     2
420
 16776960
370
    25
100
AcDbLine
 10
270.3151078300359
 20
234.7969581052877
 30
0.0
 11
270.3151078300359
 21
237.8187952152578
 31
0.0
  0
LINE
  5
1A0
330
70
100
AcDbEntity
  8
HONTAI
 62
     2
420
 16776960
370
    25
100
AcDbLine
 10
270.3151078300359
 20
237.8187952152578
 30
0.0
 11
266.2604610158512
 21
230.3604515081228
 31
0.0
  0
LINE
  5
1A1
330
70
100
AcDbEntity
  8
HONTAI
 62
     2
420
 16776960
370
    25
100
AcDbLine
 10
266.2604610158512
 20
230.3604515081228
 30
0.0
 11
266.2604610158512
 21
232.9966037996328
 31
0.0
  0
LINE
  5
1A2
330
70
100
AcDbEntity
  8
HONTAI
 62
     2
420
 16776960
370
    25
100
AcDbLine
 10
266.2604610158512
 20
232.9966037996328
 30
0.0
 11
262.5917903406738
 21
225.6668216986478
 31
0.0
  0
LINE
  5
1A3
330
70
100
AcDbEntity
  8
HONTAI
 62
     2
420
 16776960
370
    25
100
AcDbLine
 10
262.5917903406738
 20
225.6668216986478
 30
0.0
 11
261.8195670120212
 21
226.952732851898
 31
0.0
  0
LINE
  5
1A4
330
70
100
AcDbEntity
  8
HONTAI
 62
     2
420
 16776960
370
    25
100
AcDbLine
 10
261.8195670120212
 20
226.952732851898
 30
0.0
 11
259.5955963515398
 21
220.2142161025673
 31
0.0
  0
LINE
  5
1A5
330
70
100
AcDbEntity
  8
HONTAI
 62
     2
420
 16776960
370
    25
100
AcDbLine
 10
259.5955963515398
 20
220.2142161025673
 30
0.0
 11
259.5955963515398
 21
221.8859104381608
 31
0.0
  0
LINE
  5
1A6
330
70
100
AcDbEntity
  8
HONTAI
 62
     2
420
 16776960
370
    25
100
AcDbLine
 10
259.5955963515398
 20
221.8859104381608
 30
0.0
 11
257.407404378069
 21
216.7422658251957
 31
0.0
  0
LINE
  5
1A7
330
70
100
AcDbEntity
  8
HONTAI
 62
     2
420
 16776960
370
    25
100
AcDbLine
 10
257.407404378069
 20
216.7422658251957
 30
0.0
 11
257.407404378069
 21
218.4782901458206
 31
0.0
  0
LINE
  5
1A8
330
70
100
AcDbEntity
  8
HONTAI
 62
     2
420
 16776960
370
    25
100
AcDbLine
 10
257.407404378069
 20
218.4782901458206
 30
0.0
 11
256.2489338597263
 21
211.2127396659695
 31
0.0
  0
LINE
  5
1A9
330
70
100
AcDbEntity
  8
HONTAI
 62
     2
420
 16776960
370
    25
100
AcDbLine
 10
256.2489338597263
 20
211.2127396659695
 30
0.0
 11
255.5409495373563
 21
212.8844340015823
 31
0.0
  0
LINE
  5
1AA
330
70
100
AcDbEntity
  8
HONTAI
 62
     2
420
 16776960
370
    25
100
AcDbLine
 10
255.5409495373563
 20
212.8844340015823
 30
0.0
 11
254.7684551580172
 21
205.6189818856221
 31
0.0
  0
LINE
  5
1AB
330
70
100
AcDbEntity
  8
HONTAI
 62
     2
420
 16776960
370
    25
100
AcDbLine
 10
254.7684551580172
 20
205.6189818856221
 30
0.0
 11
254.0213300504025
 21
205.6984194673531
 31
0.0
  0
LINE
  5
1AC
330
70
100
AcDbEntity
  8
HONTAI
 62
     2
420
 16776960
370
    25
100
AcDbLine
 10
254.0213300504025
 20
205.6984194673531
 30
0.0
 11
253.295721674487
 21
198.8739388613011
 31
0.0
  0
LINE
  5
1AD
330
70
100
AcDbEntity
  8
HONTAI
 62
     2
420
 16776960
370
    25
100
AcDbLine
 10
253.295721674487
 20
198.8739388613011
 30
0.0
 11
252.4345454712314
 21
198.9655028501705
 31
0.0
  0
LINE
  5
1AE
330
70
100
AcDbEntity
  8
HONTAI
 62
     2
420
 16776960
370
    25
100
AcDbLine
 10
252.4345454712314
 20
198.9655028501705
 30
0.0
 11
252.3620674037648
 21
191.915809800452
 31
0.0
  0
LINE
  5
1AF
330
70
100
AcDbEntity
  8
HONTAI
 62
     2
420
 16776960
370
    25
100
AcDbLine
 10
333.0828511317903
 20
255.3989800828877
 30
0.0
 11
333.0828511317903
 21
239.6974471785225
 31
0.0
  0
LINE
  5
1B0
330
70
100
AcDbEntity
  8
HONTAI
 62
     2
420
 16776960
370
    25
100
AcDbLine
 10
335.8505494150593
 20
250.6650210779128
 30
0.0
 11
335.4285235383599
 21
236.3279920760843
 31
0.0
  0
LINE
  5
1B1
330
70
100
AcDbEntity
  8
HONTAI
 62
     2
420
 16776960
370
    25
100
AcDbLine
 10
328.0245037258187
 20
235.8395169910309
 30
0.0
 11
329.8738823750042
 21
250.2756967954486
 31
0.0
  0
LINE
  5
1B2
330
70
100
AcDbEntity
  8
HONTAI
 62
     2
420
 16776960
370
    25
100
AcDbLine
 10
326.1211859953919
 20
255.1979242887043
 30
0.0
 11
326.1211859953919
 21
241.0602788949173
 31
0.0
  0
LINE
  5
1B3
330
70
100
AcDbEntity
  8
HONTAI
 62
     2
420
 16776960
370
    25
100
AcDbLine
 10
323.7026009614494
 20
250.2107766270846
 30
0.0
 11
320.2949520713076
 21
235.141723544901
 31
0.0
  0
LINE
  5
1B4
330
70
100
AcDbEntity
  8
HONTAI
 62
     2
420
 16776960
370
    25
100
AcDbLine
 10
320.1943922766785
 20
241.3198612045109
 30
0.0
 11
319.4010269965643
 21
254.8361418958771
 31
0.0
  0
LINE
  5
1B5
330
70
100
AcDbEntity
  8
HONTAI
 62
     2
420
 16776960
370
    25
100
AcDbLine
 10
316.8813400666634
 20
249.2373675570436
 30
0.0
 11
313.3799076483363
 21
234.4207162204017
 31
0.0
  0
LINE
  5
1B6
330
70
100
AcDbEntity
  8
HONTAI
 62
     2
420
 16776960
370
    25
100
AcDbLine
 10
313.0484126918665
 20
241.1900208677622
 30
0.0
 11
311.2321022231437
 21
253.1478240626128
 31
0.0
  0
LINE
  5
1B7
330
70
100
AcDbEntity
  8
HONTAI
 62
     2
420
 16776960
370
    25
100
AcDbLine
 10
310.1901834883666
 20
246.9010284067618
 30
0.0
 11
305.6330087516511
 21
232.6424937903313
 31
0.0
  0
LINE
  5
1B8
330
70
100
AcDbEntity
  8
HONTAI
 62
     2
420
 16776960
370
    25
100
AcDbLine
 10
306.2922039553418
 20
240.0867714609854
 30
0.0
 11
304.3625943109705
 21
251.2567782490219
 31
0.0
  0
LINE
  5
1B9
330
70
100
AcDbEntity
  8
HONTAI
 62
     2
420
 16776960
370
    25
100
AcDbLine
 10
303.5638080176858
 20
245.0838538756542
 30
0.0
 11
298.3344276456135
 21
230.22441424622
 31
0.0
  0
LINE
  5
1BA
330
70
100
AcDbEntity
  8
HONTAI
 62
     2
420
 16776960
370
    25
100
AcDbLine
 10
299.9260371176819
 20
239.4378648689289
 30
0.0
 11
298.1837234789574
 21
249.1349707460268
 31
0.0
  0
LINE
  5
1BB
330
70
100
AcDbEntity
  8
HONTAI
 62
     2
420
 16776960
370
    25
100
AcDbLine
 10
297.7820264016998
 20
244.4998674519875
 30
0.0
 11
291.5199430172688
 21
227.4716023794162
 31
0.0
  0
LINE
  5
1BC
330
70
100
AcDbEntity
  8
HONTAI
 62
     2
420
 16776960
370
    25
100
AcDbLine
 10
294.0141511852053
 20
236.7770232406702
 30
0.0
 11
291.8121356281257
 21
247.2703848192379
 31
0.0
  0
LINE
  5
1BD
330
70
100
AcDbEntity
  8
HONTAI
 62
     2
420
 16776960
370
    25
100
AcDbLine
 10
292.3767341516909
 20
242.4801616683365
 30
0.0
 11
285.3700746058224
 21
224.9448307352314
 31
0.0
  0
LINE
  5
1BE
330
70
100
AcDbEntity
  8
HONTAI
 62
     2
420
 16776960
370
    25
100
AcDbLine
 10
285.8907629225841
 20
244.441340936553
 30
0.0
 11
288.8734043787573
 21
233.7124962017872
 31
0.0
  0
LINE
  5
1BF
330
70
100
AcDbEntity
  8
HONTAI
 62
     2
420
 16776960
370
    25
100
AcDbLine
 10
280.4843864699088
 20
241.8695186300602
 30
0.0
 11
283.1959772666855
 21
232.2464807632533
 31
0.0
  0
LINE
  5
1C0
330
70
100
AcDbEntity
  8
HONTAI
 62
     2
420
 16776960
370
    25
100
AcDbLine
 10
286.8006799862268
 20
239.2926797651082
 30
0.0
 11
279.0884755739269
 21
222.1446074727399
 31
0.0
  0
LINE
  5
1C1
330
70
100
AcDbEntity
  8
HONTAI
 62
     2
420
 16776960
370
    25
100
AcDbLine
 10
281.1530684466657
 20
236.1003780312078
 30
0.0
 11
273.7032410726759
 21
220.2915301212576
 31
0.0
  0
LINE
  5
1C2
330
70
100
AcDbEntity
  8
HONTAI
 62
     2
420
 16776960
370
    25
100
AcDbLine
 10
275.2067590804519
 20
237.6902336091066
 30
0.0
 11
278.0118623547286
 21
230.2077907485633
 31
0.0
  0
LINE
  5
1C3
330
70
100
AcDbEntity
  8
HONTAI
 62
     2
420
 16776960
370
    25
100
AcDbLine
 10
276.5677044413634
 20
232.6812491635687
 30
0.0
 11
268.0187666434776
 21
215.6375409600332
 31
0.0
  0
LINE
  5
1C4
330
70
100
AcDbEntity
  8
HONTAI
 62
     2
420
 16776960
370
    25
100
AcDbLine
 10
270.3151078300359
 20
234.7969581052877
 30
0.0
 11
273.1020507101227
 21
226.924699142818
 31
0.0
  0
LINE
  5
1C5
330
70
100
AcDbEntity
  8
HONTAI
 62
     2
420
 16776960
370
    25
100
AcDbLine
 10
271.8213363443958
 20
228.4517985579441
 30
0.0
 11
263.949754144352
 21
211.9262713347236
 31
0.0
  0
LINE
  5
1C6
330
70
100
AcDbEntity
  8
HONTAI
 62
     2
420
 16776960
370
    25
100
AcDbLine
 10
267.9195621021232
 20
224.6403944911065
 30
0.0
 11
260.179981573215
 21
208.27647914157
 31
0.0
  0
LINE
  5
1C7
330
70
100
AcDbEntity
  8
HONTAI
 62
     2
420
 16776960
370
    25
100
AcDbLine
 10
266.2604610158512
 20
230.3604515081228
 30
0.0
 11
268.9387125815185
 21
223.4513717709721
 31
0.0
  0
LINE
  5
1C8
330
70
100
AcDbEntity
  8
HONTAI
 62
     2
420
 16776960
370
    25
100
AcDbLine
 10
262.5917903406738
 20
225.6668216986478
 30
0.0
 11
265.047509314976
 21
220.3397284280869
 31
0.0
  0
LINE
  5
1C9
330
70
100
AcDbEntity
  8
HONTAI
 62
     2
420
 16776960
370
    25
100
AcDbLine
 10
259.5955963515398
 20
220.2142161025673
 30
0.0
 11
262.7538786350016
 21
215.0490297973632
 31
0.0
  0
LINE
  5
1CA
330
70
100
AcDbEntity
  8
HONTAI
 62
     2
420
 16776960
370
    25
100
AcDbLine
 10
264.3243461556481
 20
220.1445744673963
 30
0.0
 11
256.7430592118571
 21
203.8541369447834
 31
0.0
  0
LINE
  5
1CB
330
70
100
AcDbEntity
  8
HONTAI
 62
     2
420
 16776960
370
    25
100
AcDbLine
 10
257.407404378069
 20
216.7422658251957
 30
0.0
 11
259.8894152663155
 21
211.930599345945
 31
0.0
  0
LINE
  5
1CC
330
70
100
AcDbEntity
  8
HONTAI
 62
     2
420
 16776960
370
    25
100
AcDbLine
 10
256.2489338597263
 20
211.2127396659695
 30
0.0
 11
258.4184233376727
 21
208.69777168875
 31
0.0
  0
LINE
  5
1CD
330
70
100
AcDbEntity
  8
HONTAI
 62
     2
420
 16776960
370
    25
100
AcDbLine
 10
254.7684551580172
 20
205.6189818856221
 30
0.0
 11
256.7021305622855
 21
204.3609077136494
 31
0.0
  0
LINE
  5
1CE
330
70
100
AcDbEntity
  8
HONTAI
 62
     2
420
 16776960
370
    25
100
AcDbLine
 10
256.7430592118571
 20
203.8541369447834
 30
0.0
 11
254.4461759239669
 21
199.0737501830312
 31
0.0
  0
LINE
  5
1CF
330
70
100
AcDbEntity
  8
HONTAI
 62
     2
420
 16776960
370
    25
100
AcDbLine
 10
254.4461759239669
 20
199.0737501830312
 30
0.0
 11
252.7233779327454
 21
194.8670216363598
 31
0.0
  0
LINE
  5
1D0
330
70
100
AcDbEntity
  8
HONTAI
 62
     2
420
 16776960
370
    25
100
AcDbLine
 10
252.7233779327454
 20
194.8670216363598
 30
0.0
 11
252.3620674037648
 21
191.915809800452
 31
0.0
  0
LINE
  5
1D1
330
70
100
AcDbEntity
  8
HONTAI
 62
     2
420
 16776960
370
    25
100
AcDbLine
 10
252.2449735188672
 20
190.7560011560823
 30
0.0
 11
252.9361527003963
 21
193.4136951398185
 31
0.0
  0
LINE
  5
1D2
330
70
100
AcDbEntity
  8
HONTAI
 62
     2
420
 16776960
370
    25
100
AcDbLine
 10
251.6706171715902
 20
185.8800046918144
 30
0.0
 11
252.767288139585
 21
187.665702777635
 31
0.0
  0
LINE
  5
1D3
330
70
100
AcDbEntity
  8
HONTAI
 62
     2
420
 16776960
370
    25
100
AcDbLine
 10
252.9150107489347
 20
180.1436192688219
 30
0.0
 11
252.9150107489347
 21
182.3426424266163
 31
0.0
  0
LINE
  5
1D4
330
70
100
AcDbEntity
  8
HONTAI
 62
     2
420
 16776960
370
    25
100
AcDbLine
 10
255.1476800505803
 20
174.9742913924029
 30
0.0
 11
255.2593279022296
 21
178.0460092831184
 31
0.0
  0
LINE
  5
1D5
330
70
100
AcDbEntity
  8
HONTAI
 62
     2
420
 16776960
370
    25
100
AcDbLine
 10
255.2593279022296
 20
178.0460092831184
 30
0.0
 11
256.5408554199364
 21
171.748654587066
 31
0.0
  0
LINE
  5
1D6
330
70
100
AcDbEntity
  8
HONTAI
 62
     2
420
 16776960
370
    25
100
AcDbLine
 10
257.1480088970293
 20
171.5050072278721
 30
0.0
 11
258.6477321955575
 21
168.1183384444175
 31
0.0
  0
LINE
  5
1D7
330
70
100
AcDbEntity
  8
HONTAI
 62
     2
420
 16776960
370
    25
100
AcDbLine
 10
259.4435369316089
 20
167.7228172367877
 30
0.0
 11
261.0481568353049
 21
164.0435158762145
 31
0.0
  0
LINE
  5
1D8
330
70
100
AcDbEntity
  8
HONTAI
 62
     2
420
 16776960
370
    25
100
AcDbLine
 10
261.9228373132342
 20
163.740850182143
 30
0.0
 11
264.0923267912191
 21
160.4045437111284
 31
0.0
  0
LINE
  5
1D9
330
70
100
AcDbEntity
  8
HONTAI
 62
     2
420
 16776960
370
    25
100
AcDbLine
 10
265.1968582283203
 20
159.9982024754298
 30
0.0
 11
267.3696003141852
 21
156.7104877668096
 31
0.0
  0
LINE
  5
1DA
330
70
100
AcDbEntity
  8
HONTAI
 62
     2
420
 16776960
370
    25
100
AcDbLine
 10
267.3696003141852
 20
156.7104877668096
 30
0.0
 11
269.8193561739464
 21
155.635862252439
 31
0.0
  0
LINE
  5
1DB
330
70
100
AcDbEntity
  8
HONTAI
 62
     2
420
 16776960
370
    25
100
AcDbLine
 10
269.8193561739464
 20
155.635862252439
 30
0.0
 11
271.4334628507497
 21
153.21679906943
 31
0.0
  0
LINE
  5
1DC
330
70
100
AcDbEntity
  8
HONTAI
 62
     2
420
 16776960
370
    25
100
AcDbLine
 10
271.4334628507497
 20
153.21679906943
 30
0.0
 11
271.4334628507497
 21
153.21679906943
 31
0.0
  0
LINE
  5
1DD
330
70
100
AcDbEntity
  8
HONTAI
 62
     2
420
 16776960
370
    25
100
AcDbLine
 10
332.2851490411323
 20
228.0012919349981
 30
0.0
 11
337.5673228823033
 21
158.5766779885441
 31
0.0
  0
LINE
  5
1DE
330
70
100
AcDbEntity
  8
HONTAI
 62
     2
420
 16776960
370
    25
100
AcDbLine
 10
324.8117402597834
 20
226.9547001297127
 30
0.0
 11
336.1939196726288
 21
158.458236510803
 31
0.0
  0
LINE
  5
1DF
330
70
100
AcDbEntity
  8
HONTAI
 62
     2
420
 16776960
370
    25
100
AcDbLine
 10
317.8500751233836
 20
225.6754777210917
 30
0.0
 11
334.9698735831865
 21
158.3113693348212
 31
0.0
  0
LINE
  5
1E0
330
70
100
AcDbEntity
  8
HONTAI
 62
     2
420
 16776960
370
    25
100
AcDbLine
 10
310.7347242631341
 20
224.9047966313979
 30
0.0
 11
334.2317474627984
 21
158.2032956722188
 31
0.0
  0
LINE
  5
1E1
330
70
100
AcDbEntity
  8
HONTAI
 62
     2
420
 16776960
370
    25
100
AcDbLine
 10
303.5478160287864
 20
223.0448338075109
 30
0.0
 11
333.4067195901148
 21
158.0644168489623
 31
0.0
  0
LINE
  5
1E2
330
70
100
AcDbEntity
  8
HONTAI
 62
     2
420
 16776960
370
    25
100
AcDbLine
 10
296.733331400443
 20
220.8127603821838
 30
0.0
 11
332.6515317077571
 21
157.9198654498162
 31
0.0
  0
LINE
  5
1E3
330
70
100
AcDbEntity
  8
HONTAI
 62
     2
420
 16776960
370
    25
100
AcDbLine
 10
290.2909993274917
 20
217.8367608456299
 30
0.0
 11
331.6231582072316
 21
157.6947267848306
 31
0.0
  0
LINE
  5
1E4
330
70
100
AcDbEntity
  8
HONTAI
 62
     2
420
 16776960
370
    25
100
AcDbLine
 10
284.2942745386413
 20
215.0910311790191
 30
0.0
 11
330.5360576745598
 21
157.4185935587226
 31
0.0
  0
LINE
  5
1E5
330
70
100
AcDbEntity
  8
HONTAI
 62
     2
420
 16776960
370
    25
100
AcDbLine
 10
278.3105601814185
 20
213.0586364533742
 30
0.0
 11
329.6070192992464
 21
157.1485830393866
 31
0.0
  0
LINE
  5
1E6
330
70
100
AcDbEntity
  8
HONTAI
 62
     2
420
 16776960
370
    25
100
AcDbLine
 10
273.0451300716492
 20
209.7111164987336
 30
0.0
 11
328.9493739656702
 21
156.9366197373306
 31
0.0
  0
LINE
  5
1E7
330
70
100
AcDbEntity
  8
HONTAI
 62
     2
420
 16776960
370
    25
100
AcDbLine
 10
268.0187666434776
 20
206.5430122821208
 30
0.0
 11
327.9300789249223
 21
156.5700420566621
 31
0.0
  0
LINE
  5
1E8
330
70
100
AcDbEntity
  8
HONTAI
 62
     2
420
 16776960
370
    25
100
AcDbLine
 10
264.8474739283086
 20
202.1792949646545
 30
0.0
 11
327.1762535886269
 21
156.2654202275164
 31
0.0
  0
LINE
  5
1E9
330
70
100
AcDbEntity
  8
HONTAI
 62
     2
420
 16776960
370
    25
100
AcDbLine
 10
261.1972346980037
 20
198.8916786198982
 30
0.0
 11
326.4432973396459
 21
155.9377209118976
 31
0.0
  0
LINE
  5
1EA
330
70
100
AcDbEntity
  8
HONTAI
 62
     2
420
 16776960
370
    25
100
AcDbLine
 10
258.4658572030786
 20
194.1978520826542
 30
0.0
 11
325.8575563065988
 21
155.6501975097645
 31
0.0
  0
LINE
  5
1EB
330
70
100
AcDbEntity
  8
HONTAI
 62
     2
420
 16776960
370
    25
100
AcDbLine
 10
256.551697446312
 20
189.8955138334592
 30
0.0
 11
325.1690853823714
 21
155.2781960885108
 31
0.0
  0
LINE
  5
1EC
330
70
100
AcDbEntity
  8
HONTAI
 62
     2
420
 16776960
370
    25
100
AcDbLine
 10
255.8816602162458
 20
185.6887852867814
 30
0.0
 11
324.28753654185
 21
154.7360809271016
 31
0.0
  0
LINE
  5
1ED
330
70
100
AcDbEntity
  8
HONTAI
 62
     2
420
 16776960
370
    25
100
AcDbLine
 10
254.8288994550905
 20
181.2909356989604
 30
0.0
 11
323.5482840905707
 21
154.2072156189111
 31
0.0
  0
LINE
  5
1EE
330
70
100
AcDbEntity
  8
HONTAI
 62
     2
420
 16776960
370
    25
100
AcDbLine
 10
255.2593279022296
 20
178.0460092831184
 30
0.0
 11
322.8485157406003
 21
153.6189334014499
 31
0.0
  0
LINE
  5
1EF
330
70
100
AcDbEntity
  8
HONTAI
 62
     2
420
 16776960
370
    25
100
AcDbLine
 10
257.9972106129519
 20
171.838264092198
 30
0.0
 11
322.1927023320317
 21
152.9500846966762
 31
0.0
  0
LINE
  5
1F0
330
70
100
AcDbEntity
  8
HONTAI
 62
     2
420
 16776960
370
    25
100
AcDbLine
 10
260.5602550003941
 20
167.7228172367877
 30
0.0
 11
321.7903832615486
 21
152.4488803312851
 31
0.0
  0
LINE
  5
1F1
330
70
100
AcDbEntity
  8
HONTAI
 62
     2
420
 16776960
370
    25
100
AcDbLine
 10
262.6392242060798
 20
164.1031243944454
 30
0.0
 11
321.3992959098327
 21
151.843379197284
 31
0.0
  0
LINE
  5
1F2
330
70
100
AcDbEntity
  8
HONTAI
 62
     2
420
 16776960
370
    25
100
AcDbLine
 10
265.6752626421613
 20
160.4045437111284
 30
0.0
 11
321.0255287821187
 21
151.0205052423338
 31
0.0
  0
LINE
  5
1F3
330
70
100
AcDbEntity
  8
HONTAI
 62
     2
420
 16776960
370
    25
100
AcDbLine
 10
270.1763298924204
 20
156.0128910484743
 30
0.0
 11
320.8157658148587
 21
150.114159829192
 31
0.0
  0
LINE
  5
1F4
330
70
100
AcDbEntity
  8
HONTAI
 62
     2
420
 16776960
370
    25
100
AcDbLine
 10
274.4220674214612
 20
152.9798404548525
 30
0.0
 11
320.8212107038857
 21
149.1516490532752
 31
0.0
  0
LINE
  5
1F5
330
70
100
AcDbEntity
  8
HONTAI
 62
     2
420
 16776960
370
    25
100
AcDbLine
 10
279.4001838322483
 20
149.4328385282986
 30
0.0
 11
321.377775048804
 21
147.5336219790796
 31
0.0
  0
LINE
  5
1F6
330
70
100
AcDbEntity
  8
HONTAI
 62
     2
420
 16776960
370
    25
100
AcDbLine
 10
285.8034846102332
 20
146.0441041031115
 30
0.0
 11
322.1066586130492
 21
146.5249068046583
 31
0.0
  0
LINE
  5
1F7
330
70
100
AcDbEntity
  8
HONTAI
 62
     2
420
 16776960
370
    25
100
AcDbLine
 10
290.9108921855694
 20
143.6072370557444
 30
0.0
 11
323.3295049724547
 21
145.4027133726217
 31
0.0
  0
LINE
  5
1F8
330
70
100
AcDbEntity
  8
HONTAI
 62
     2
420
 16776960
370
    25
100
AcDbLine
 10
297.0474791147004
 20
141.7034039362507
 30
0.0
 11
324.4090801896839
 21
144.6751554018852
 31
0.0
  0
LINE
  5
1F9
330
70
100
AcDbEntity
  8
HONTAI
 62
     2
420
 16776960
370
    25
100
AcDbLine
 10
304.0039942885751
 20
139.1316799936693
 30
0.0
 11
325.6135227321558
 21
144.0288958258268
 31
0.0
  0
LINE
  5
1FA
330
70
100
AcDbEntity
  8
HONTAI
 62
     2
420
 16776960
370
    25
100
AcDbLine
 10
310.0261978394323
 20
138.1036789638707
 30
0.0
 11
327.2387650120023
 21
143.341726944625
 31
0.0
  0
LINE
  5
1FB
330
70
100
AcDbEntity
  8
HONTAI
 62
     2
420
 16776960
370
    25
100
AcDbLine
 10
316.5438819956898
 20
137.2660120640584
 30
0.0
 11
329.4156841951157
 21
142.6544572277884
 31
0.0
  0
LINE
  5
1FC
330
70
100
AcDbEntity
  8
HONTAI
 62
     2
420
 16776960
370
    25
100
AcDbLine
 10
321.6895077139763
 20
136.6567461202846
 30
0.0
 11
331.8427653029754
 21
142.1198174177756
 31
0.0
  0
LINE
  5
1FD
330
70
100
AcDbEntity
  8
HONTAI
 62
     2
420
 16776960
370
    25
100
AcDbLine
 10
328.5904617183647
 20
137.0987894708917
 30
0.0
 11
334.1200291863198
 21
141.7945299717141
 31
0.0
  0
LINE
  5
1FE
330
70
100
AcDbEntity
  8
HONTAI
 62
     2
420
 16776960
370
    25
100
AcDbLine
 10
332.5822543956551
 20
133.3323884497241
 30
0.0
 11
336.0696702381051
 21
141.6332122404645
 31
0.0
  0
LINE
  5
1FF
330
70
100
AcDbEntity
  8
HONTAI
 62
     2
420
 16776960
370
    25
100
AcDbLine
 10
336.1039817816351
 20
136.3899832466007
 30
0.0
 11
337.8029050523193
 21
141.5734500036331
 31
0.0
  0
LINE
  5
200
330
70
100
AcDbEntity
  8
HONTAI
 62
     2
420
 16776960
370
    25
100
AcDbLine
 10
342.1771291240731
 20
260.5445919736945
 30
0.0
 11
339.0385048795732
 21
256.3375384922805
 31
0.0
  0
LINE
  5
201
330
70
100
AcDbEntity
  8
HONTAI
 62
     2
420
 16776960
370
    25
100
AcDbLine
 10
339.0385048795732
 20
256.3375384922805
 30
0.0
 11
335.8998806350706
 21
260.5445919736945
 31
0.0
  0
ENDSEC
  0
SECTION
  2
OBJECTS
  0
DICTIONARY
  5
C
330
0
100
AcDbDictionary
281
     1
  3
ACAD_COLOR
350
63
  3
ACAD_DETAILVIEWSTYLE
350
6A
  3
ACAD_GROUP
350
D
  3
ACAD_LAYOUT
350
62
  3
ACAD_MATERIAL
350
10
  3
ACAD_MLEADERSTYLE
350
66
  3
ACAD_MLINESTYLE
350
5F
  3
ACAD_PLOTSETTINGS
350
61
  3
ACAD_PLOTSTYLENAME
350
E
  3
ACAD_SCALELIST
350
42
  3
ACAD_SECTIONVIEWSTYLE
350
68
  3
ACAD_TABLESTYLE
350
64
  3
ACAD_VISUALSTYLE
350
29
  3
ACDB_RECOMPOSE_DATA
350
20A
  3
AcDbVariableDictionary
350
202
  0
DICTIONARY
  5
63
102
{ACAD_REACTORS
330
C
102
}
330
C
100
AcDbDictionary
281
     1
  0
DICTIONARY
  5
6A
102
{ACAD_REACTORS
330
C
102
}
330
C
100
AcDbDictionary
281
     1
  3
Imperial24
350
6B
  0
DICTIONARY
  5
D
102
{ACAD_REACTORS
330
C
102
}
330
C
100
AcDbDictionary
281
     1
  0
DICTIONARY
  5
62
102
{ACAD_REACTORS
330
C
102
}
330
C
100
AcDbDictionary
281
     1
  3
Layout1
350
6F
  3
Layout2
350
77
  3
Model
350
73
  0
DICTIONARY
  5
10
102
{ACAD_REACTORS
330
C
102
}
330
C
100
AcDbDictionary
281
     1
  3
ByBlock
350
19
  3
ByLayer
350
11
  3
Global
350
21
  0
DICTIONARY
  5
66
102
{ACAD_REACTORS
330
C
102
}
330
C
100
AcDbDictionary
281
     1
  3
Standard
350
67
  0
DICTIONARY
  5
5F
102
{ACAD_REACTORS
330
C
102
}
330
C
100
AcDbDictionary
281
     1
  3
Standard
350
60
  0
DICTIONARY
  5
61
102
{ACAD_REACTORS
330
C
102
}
330
C
100
AcDbDictionary
281
     1
  0
ACDBDICTIONARYWDFLT
  5
E
102
{ACAD_REACTORS
330
C
102
}
330
C
100
AcDbDictionary
281
     1
  3
Normal
350
F
100
AcDbDictionaryWithDefault
340
F
  0
DICTIONARY
  5
42
102
{ACAD_REACTORS
330
C
102
}
330
C
100
AcDbDictionary
281
     1
  3
A0
350
43
  3
A1
350
44
  3
A2
350
45
  3
A3
350
46
  3
A4
350
47
  3
A5
350
48
  3
A6
350
49
  3
A7
350
4A
  3
A8
350
4B
  3
A9
350
4C
  3
B0
350
4D
  3
B1
350
4E
  3
B2
350
4F
  3
B3
350
50
  3
B4
350
51
  3
B5
350
52
  3
B6
350
53
  0
DICTIONARY
  5
68
102
{ACAD_REACTORS
330
C
102
}
330
C
100
AcDbDictionary
281
     1
  3
Imperial24
350
69
  0
DICTIONARY
  5
64
102
{ACAD_REACTORS
330
C
102
}
330
C
100
AcDbDictionary
281
     1
  3
Standard
350
65
  0
DICTIONARY
  5
29
102
{ACAD_REACTORS
330
C
102
}
330
C
100
AcDbDictionary
281
     1
  3
2dWireframe
350
2F
  3
Basic
350
2E
  3
Brighten
350
35
  3
ColorChange
350
39
  3
Conceptual
350
32
  3
Dim
350
34
  3
EdgeColorOff
350
41
  3
Facepattern
350
38
  3
Flat
350
2A
  3
FlatWithEdges
350
2B
  3
Gouraud
350
2C
  3
GouraudWithEdges
350
2D
  3
Hidden
350
31
  3
JitterOff
350
3F
  3
Linepattern
350
37
  3
OverhangOff
350
40
  3
Realistic
350
33
  3
Shaded
350
3E
  3
Shaded with edges
350
3D
  3
Shades of Gray
350
3A
  3
Sketchy
350
3B
  3
Thicken
350
36
  3
Wireframe
350
30
  3
X-Ray
350
3C
  0
XRECORD
  5
20A
102
{ACAD_REACTORS
330
C
102
}
330
C
100
AcDbXrecord
280
     1
 90
        1
330
65
  0
DICTIONARY
  5
202
102
{ACAD_REACTORS
330
C
102
}
330
C
100
AcDbDictionary
281
     1
  3
CANNOSCALE
350
207
  3
CMLEADERSTYLE
350
204
  3
CTABLESTYLE
350
203
  3
CVIEWDETAILSTYLE
350
205
  3
CVIEWSECTIONSTYLE
350
206
  0
ACDBDETAILVIEWSTYLE
  5
6B
102
{ACAD_REACTORS
330
6A
102
}
330
6A
100
AcDbModelDocViewStyle
 70
     0
  3
Imperial24
290
     1
300
Imperial24
 90
        0
100
AcDbDetailViewStyle
 70
     0
 71
     0
 90
        3
 71
     1
340
55
 62
   256
 40
0.24
340
0
 62
   256
 40
0.24
300

 40
0.36
280
     3
 71
     2
340
5D
 90
       25
 62
   256
 71
     3
340
55
 62
   256
 40
0.24
 90
        1
 40
0.75
 90
        1
300
%<\AcVar ViewType \f "%tc1">% %<\AcVar ViewDetailId>%\PSCALE %<\AcVar ViewScale \f "%sn">%
 71
     4
340
5D
 90
       25
 62
   256
340
5D
 90
       25
 62
   256
280
     0
  0
LAYOUT
  5
6F
102
{ACAD_REACTORS
330
62
102
}
330
62
100
AcDbPlotSettings
  1

  2

  4

  6

 40
0.0
 41
0.0
 42
0.0
 43
0.0
 44
0.0
 45
0.0
 46
0.0
 47
0.0
 48
0.0
 49
0.0
140
0.0
141
0.0
142
1.0
143
1.0
 70
   688
 72
     0
 73
     0
 74
     5
  7

 75
    16
147
1.0
 76
     0
 77
     2
 78
   300
148
0.0
149
0.0
100
AcDbLayout
  1
Layout1
 70
     1
 71
     1
 10
0.0
 20
0.0
 11
12.0
 21
9.0
 12
0.0
 22
0.0
 32
0.0
 14
0.0
 24
0.0
 34
0.0
 15
0.0
 25
0.0
 35
0.0
146
0.0
 13
0.0
 23
0.0
 33
0.0
 16
1.0
 26
0.0
 36
0.0
 17
0.0
 27
1.0
 37
0.0
 76
     0
330
6C
  0
LAYOUT
  5
77
102
{ACAD_REACTORS
330
62
102
}
330
62
100
AcDbPlotSettings
  1

  2

  4

  6

 40
0.0
 41
0.0
 42
0.0
 43
0.0
 44
0.0
 45
0.0
 46
0.0
 47
0.0
 48
0.0
 49
0.0
140
0.0
141
0.0
142
1.0
143
1.0
 70
   688
 72
     0
 73
     0
 74
     5
  7

 75
    16
147
1.0
 76
     0
 77
     2
 78
   300
148
0.0
149
0.0
100
AcDbLayout
  1
Layout2
 70
     1
 71
     2
 10
0.0
 20
0.0
 11
12.0
 21
9.0
 12
0.0
 22
0.0
 32
0.0
 14
0.0
 24
0.0
 34
0.0
 15
0.0
 25
0.0
 35
0.0
146
0.0
 13
0.0
 23
0.0
 33
0.0
 16
1.0
 26
0.0
 36
0.0
 17
0.0
 27
1.0
 37
0.0
 76
     0
330
74
  0
LAYOUT
  5
73
102
{ACAD_REACTORS
330
62
102
}
330
62
100
AcDbPlotSettings
  1

  2

  4

  6

 40
0.0
 41
0.0
 42
0.0
 43
0.0
 44
0.0
 45
0.0
 46
0.0
 47
0.0
 48
0.0
 49
0.0
140
0.0
141
0.0
142
1.0
143
1.0
 70
  1712
 72
     0
 73
     0
 74
     0
  7

 75
     0
147
1.0
 76
     0
 77
     2
 78
   300
148
0.0
149
0.0
100
AcDbLayout
  1
Model
 70
     1
 71
     0
 10
0.0
 20
0.0
 11
12.0
 21
9.0
 12
0.0
 22
0.0
 32
0.0
 14
0.0
 24
0.0
 34
0.0
 15
0.0
 25
0.0
 35
0.0
146
0.0
 13
0.0
 23
0.0
 33
0.0
 16
1.0
 26
0.0
 36
0.0
 17
0.0
 27
1.0
 37
0.0
 76
     0
330
70
  0
MATERIAL
  5
19
102
{ACAD_XDICTIONARY
360
1A
102
}
102
{ACAD_REACTORS
330
10
102
}
330
10
100
AcDbMaterial
  1
ByBlock
 72
     0
 43
0.0208333333333333
 43
0.0
 43
0.0
 43
0.0
 43
0.0
 43
0.0208333333333333
 43
0.0
 43
0.0
 43
0.0
 43
0.0
 43
1.0
 43
0.0
 43
0.0
 43
0.0
 43
0.0
 43
1.0
 77
     0
 47
0.0208333333333333
 47
0.0
 47
0.0
 47
0.0
 47
0.0
 47
0.0208333333333333
 47
0.0
 47
0.0
 47
0.0
 47
0.0
 47
1.0
 47
0.0
 47
0.0
 47
0.0
 47
0.0
 47
1.0
171
     0
 49
0.0208333333333333
 49
0.0
 49
0.0
 49
0.0
 49
0.0
 49
0.0208333333333333
 49
0.0
 49
0.0
 49
0.0
 49
0.0
 49
1.0
 49
0.0
 49
0.0
 49
0.0
 49
0.0
 49
1.0
175
     0
142
0.0208333333333333
142
0.0
142
0.0
142
0.0
142
0.0
142
0.0208333333333333
142
0.0
142
0.0
142
0.0
142
0.0
142
1.0
142
0.0
142
0.0
142
0.0
142
0.0
142
1.0
179
     0
144
0.0208333333333333
144
0.0
144
0.0
144
0.0
144
0.0
144
0.0208333333333333
144
0.0
144
0.0
144
0.0
144
0.0
144
1.0
144
0.0
144
0.0
144
0.0
144
0.0
144
1.0
147
0.0208333333333333
147
0.0
147
0.0
147
0.0
147
0.0
147
0.0208333333333333
147
0.0
147
0.0
147
0.0
147
0.0
147
1.0
147
0.0
147
0.0
147
0.0
147
0.0
147
1.0
  0
MATERIAL
  5
11
102
{ACAD_XDICTIONARY
360
12
102
}
102
{ACAD_REACTORS
330
10
102
}
330
10
100
AcDbMaterial
  1
ByLayer
 72
     0
 43
0.0208333333333333
 43
0.0
 43
0.0
 43
0.0
 43
0.0
 43
0.0208333333333333
 43
0.0
 43
0.0
 43
0.0
 43
0.0
 43
1.0
 43
0.0
 43
0.0
 43
0.0
 43
0.0
 43
1.0
 77
     0
 47
0.0208333333333333
 47
0.0
 47
0.0
 47
0.0
 47
0.0
 47
0.0208333333333333
 47
0.0
 47
0.0
 47
0.0
 47
0.0
 47
1.0
 47
0.0
 47
0.0
 47
0.0
 47
0.0
 47
1.0
171
     0
 49
0.0208333333333333
 49
0.0
 49
0.0
 49
0.0
 49
0.0
 49
0.0208333333333333
 49
0.0
 49
0.0
 49
0.0
 49
0.0
 49
1.0
 49
0.0
 49
0.0
 49
0.0
 49
0.0
 49
1.0
175
     0
142
0.0208333333333333
142
0.0
142
0.0
142
0.0
142
0.0
142
0.0208333333333333
142
0.0
142
0.0
142
0.0
142
0.0
142
1.0
142
0.0
142
0.0
142
0.0
142
0.0
142
1.0
179
     0
144
0.0208333333333333
144
0.0
144
0.0
144
0.0
144
0.0
144
0.0208333333333333
144
0.0
144
0.0
144
0.0
144
0.0
144
1.0
144
0.0
144
0.0
144
0.0
144
0.0
144
1.0
147
0.0208333333333333
147
0.0
147
0.0
147
0.0
147
0.0
147
0.0208333333333333
147
0.0
147
0.0
147
0.0
147
0.0
147
1.0
147
0.0
147
0.0
147
0.0
147
0.0
147
1.0
  0
MATERIAL
  5
21
102
{ACAD_XDICTIONARY
360
22
102
}
102
{ACAD_REACTORS
330
10
102
}
330
10
100
AcDbMaterial
  1
Global
 72
     0
 43
0.0208333333333333
 43
0.0
 43
0.0
 43
0.0
 43
0.0
 43
0.0208333333333333
 43
0.0
 43
0.0
 43
0.0
 43
0.0
 43
1.0
 43
0.0
 43
0.0
 43
0.0
 43
0.0
 43
1.0
 77
     0
 47
0.0208333333333333
 47
0.0
 47
0.0
 47
0.0
 47
0.0
 47
0.0208333333333333
 47
0.0
 47
0.0
 47
0.0
 47
0.0
 47
1.0
 47
0.0
 47
0.0
 47
0.0
 47
0.0
 47
1.0
171
     0
 49
0.0208333333333333
 49
0.0
 49
0.0
 49
0.0
 49
0.0
 49
0.0208333333333333
 49
0.0
 49
0.0
 49
0.0
 49
0.0
 49
1.0
 49
0.0
 49
0.0
 49
0.0
 49
0.0
 49
1.0
175
     0
142
0.0208333333333333
142
0.0
142
0.0
142
0.0
142
0.0
142
0.0208333333333333
142
0.0
142
0.0
142
0.0
142
0.0
142
1.0
142
0.0
142
0.0
142
0.0
142
0.0
142
1.0
179
     0
144
0.0208333333333333
144
0.0
144
0.0
144
0.0
144
0.0
144
0.0208333333333333
144
0.0
144
0.0
144
0.0
144
0.0
144
1.0
144
0.0
144
0.0
144
0.0
144
0.0
144
1.0
147
0.0208333333333333
147
0.0
147
0.0
147
0.0
147
0.0
147
0.0208333333333333
147
0.0
147
0.0
147
0.0
147
0.0
147
1.0
147
0.0
147
0.0
147
0.0
147
0.0
147
1.0
  0
MLEADERSTYLE
  5
67
102
{ACAD_REACTORS
330
66
102
}
330
66
100
AcDbMLeaderStyle
179
     2
170
     2
171
     1
172
     0
 90
        2
 40
0.0
 41
0.0
173
     1
 91
-1056964608
340
5B
 92
       -2
290
     1
 42
0.09
291
     1
 43
0.36
  3
Standard
 44
0.18
300

342
55
174
     1
178
     6
175
     1
176
     0
 93
-1056964608
 45
0.18
292
     0
297
     0
 46
0.18
 94
-1056964608
 47
1.0
 49
1.0
140
1.0
293
     1
141
0.0
294
     1
177
     0
142
1.0
295
     1
296
     0
143
0.125
271
     0
272
     9
273
     9
298
     1
  0
MLINESTYLE
  5
60
102
{ACAD_REACTORS
330
5F
102
}
330
5F
100
AcDbMlineStyle
  2
STANDARD
 70
     0
  3

 62
   256
 51
90.0
 52
90.0
 71
     2
 49
0.5
 62
   256
  6
BYLAYER
 49
-0.5
 62
   256
  6
BYLAYER
  0
ACDBPLACEHOLDER
  5
F
102
{ACAD_REACTORS
330
E
102
}
330
E
  0
SCALE
  5
43
102
{ACAD_REACTORS
330
42
102
}
330
42
100
AcDbScale
 70
     0
300
1:1
140
1.0
141
1.0
290
     1
  0
SCALE
  5
44
102
{ACAD_REACTORS
330
42
102
}
330
42
100
AcDbScale
 70
     0
300
1/128" = 1'-0"
140
0.0078125
141
12.0
290
     0
  0
SCALE
  5
45
102
{ACAD_REACTORS
330
42
102
}
330
42
100
AcDbScale
 70
     0
300
1/64" = 1'-0"
140
0.015625
141
12.0
290
     0
  0
SCALE
  5
46
102
{ACAD_REACTORS
330
42
102
}
330
42
100
AcDbScale
 70
     0
300
1/32" = 1'-0"
140
0.03125
141
12.0
290
     0
  0
SCALE
  5
47
102
{ACAD_REACTORS
330
42
102
}
330
42
100
AcDbScale
 70
     0
300
1/16" = 1'-0"
140
0.0625
141
12.0
290
     0
  0
SCALE
  5
48
102
{ACAD_REACTORS
330
42
102
}
330
42
100
AcDbScale
 70
     0
300
3/32" = 1'-0"
140
0.09375
141
12.0
290
     0
  0
SCALE
  5
49
102
{ACAD_REACTORS
330
42
102
}
330
42
100
AcDbScale
 70
     0
300
1/8" = 1'-0"
140
0.125
141
12.0
290
     0
  0
SCALE
  5
4A
102
{ACAD_REACTORS
330
42
102
}
330
42
100
AcDbScale
 70
     0
300
3/16" = 1'-0"
140
0.1875
141
12.0
290
     0
  0
SCALE
  5
4B
102
{ACAD_REACTORS
330
42
102
}
330
42
100
AcDbScale
 70
     0
300
1/4" = 1'-0"
140
0.25
141
12.0
290
     0
  0
SCALE
  5
4C
102
{ACAD_REACTORS
330
42
102
}
330
42
100
AcDbScale
 70
     0
300
3/8" = 1'-0"
140
0.375
141
12.0
290
     0
  0
SCALE
  5
4D
102
{ACAD_REACTORS
330
42
102
}
330
42
100
AcDbScale
 70
     0
300
1/2" = 1'-0"
140
0.5
141
12.0
290
     0
  0
SCALE
  5
4E
102
{ACAD_REACTORS
330
42
102
}
330
42
100
AcDbScale
 70
     0
300
3/4" = 1'-0"
140
0.75
141
12.0
290
     0
  0
SCALE
  5
4F
102
{ACAD_REACTORS
330
42
102
}
330
42
100
AcDbScale
 70
     0
300
1" = 1'-0"
140
1.0
141
12.0
290
     0
  0
SCALE
  5
50
102
{ACAD_REACTORS
330
42
102
}
330
42
100
AcDbScale
 70
     0
300
1-1/2" = 1'-0"
140
1.5
141
12.0
290
     0
  0
SCALE
  5
51
102
{ACAD_REACTORS
330
42
102
}
330
42
100
AcDbScale
 70
     0
300
3" = 1'-0"
140
3.0
141
12.0
290
     0
  0
SCALE
  5
52
102
{ACAD_REACTORS
330
42
102
}
330
42
100
AcDbScale
 70
     0
300
6" = 1'-0"
140
6.0
141
12.0
290
     0
  0
SCALE
  5
53
102
{ACAD_REACTORS
330
42
102
}
330
42
100
AcDbScale
 70
     0
300
1'-0" = 1'-0"
140
12.0
141
12.0
290
     0
  0
ACDBSECTIONVIEWSTYLE
  5
69
102
{ACAD_REACTORS
330
68
102
}
330
68
100
AcDbModelDocViewStyle
 70
     0
  3
Imperial24
290
     1
300
Imperial24
 90
        0
100
AcDbSectionViewStyle
 70
     0
 71
     0
 90
       78
 71
     1
340
55
 62
   256
 40
0.24
340
0
340
0
 62
   256
 40
0.24
300
I, O, Q, S, X, Z
 40
0.48
 90
        3
 40
0.18
 90
        1
 71
     2
340
5D
 90
       25
 62
   256
340
5D
 90
       50
 62
   256
 40
0.24
 40
0.0
 40
0.24
 71
     3
340
55
 62
   256
 40
0.24
 90
        1
 40
0.75
 90
        1
300
%<\AcVar ViewType \f "%tc1">% %<\AcVar ViewSectionStartId>%-%<\AcVar ViewSectionEndId>%\PSCALE %<\AcVar ViewScale \f "%sn">%
 71
     4
 62
   256
 62
   257
300
ANSI31
 40
1.0
 90
        0
290
     0
290
     0
 90
        6
 40
0.0
 40
1.570796326794896
 40
0.2617993877991494
 40
1.308996938995747
 40
-0.2617993877991494
 40
1.832595714594046
  0
TABLESTYLE
  5
65
102
{ACAD_XDICTIONARY
360
208
102
}
102
{ACAD_REACTORS
330
64
102
}
330
64
100
AcDbTableStyle
280
     0
  3
Standard
 70
     0
 71
     0
 40
0.06
 41
0.06
280
     0
281
     0
  7
Standard
140
0.18
170
     2
 62
     0
 63
     7
283
     0
 90
      512
 91
        0
  1

274
    -2
284
     1
 64
     0
275
    -2
285
     1
 65
     0
276
    -2
286
     1
 66
     0
277
    -2
287
     1
 67
     0
278
    -2
288
     1
 68
     0
279
    -2
289
     1
 69
     0
  7
Standard
140
0.25
170
     5
 62
     0
 63
     7
283
     0
 90
      512
 91
        0
  1

274
    -2
284
     1
 64
     0
275
    -2
285
     1
 65
     0
276
    -2
286
     1
 66
     0
277
    -2
287
     1
 67
     0
278
    -2
288
     1
 68
     0
279
    -2
289
     1
 69
     0
  7
Standard
140
0.18
170
     5
 62
     0
 63
     7
283
     0
 90
      512
 91
        0
  1

274
    -2
284
     1
 64
     0
275
    -2
285
     1
 65
     0
276
    -2
286
     1
 66
     0
277
    -2
287
     1
 67
     0
278
    -2
288
     1
 68
     0
279
    -2
289
     1
 69
     0
  0
VISUALSTYLE
  5
2F
102
{ACAD_REACTORS
330
29
102
}
330
29
100
AcDbVisualStyle
  2
2dWireframe
 70
     4
177
     3
291
     0
 70
    58
 90
        0
176
     1
 90
        2
176
     1
 90
        0
176
     1
 90
        0
176
     1
 40
0.6
176
     1
 40
30.0
176
     1
 62
     7
420
 16777215
176
     1
 90
        1
176
     1
 90
        4
176
     1
 62
     7
176
     1
 62
   257
176
     1
 90
        1
176
     1
 90
        1
176
     1
 40
1.0
176
     1
 90
        0
176
     1
 62
   257
176
     1
 40
1.0
176
     1
 90
        1
176
     1
 90
        6
176
     1
 90
        2
176
     1
 62
     7
176
     1
 90
        5
176
     1
 90
        0
176
     1
 90
        0
176
     1
290
     0
176
     1
 90
        1
176
     1
 40
0.0
176
     1
 90
        0
176
     1
290
     1
176
     1
290
     1
176
     1
290
     0
176
     1
290
     0
176
     1
290
     0
176
     1
290
     0
176
     1
290
     0
176
     1
290
     0
176
     1
290
     0
176
     1
 90
       50
176
     1
 40
0.0
176
     1
 40
1.0
176
     1
 90
        0
176
     1
 62
    18
420
        0
176
     1
 90
       50
176
     1
 90
        3
176
     1
 62
     5
420
      255
176
     1
290
     0
176
     1
 90
       50
176
     1
 90
       50
176
     1
 90
       50
176
     1
290
     0
176
     1
 90
       50
176
     1
 62
   256
176
     0
 40
1.0
176
     0
 90
        2
176
     1
  1
strokes_ogs.tif
176
     1
290
     0
176
     1
 40
1.0
176
     1
 40
1.0
176
     1
  0
VISUALSTYLE
  5
2E
102
{ACAD_REACTORS
330
29
102
}
330
29
100
AcDbVisualStyle
  2
Basic
 70
     7
177
     3
291
     1
 70
    58
 90
        1
176
     1
 90
        0
176
     1
 90
        1
176
     1
 90
        0
176
     1
 40
0.6
176
     1
 40
30.0
176
     1
 62
     7
420
 16777215
176
     1
 90
        0
176
     1
 90
        4
176
     1
 62
     7
176
     1
 62
   257
176
     1
 90
        1
176
     1
 90
        1
176
     1
 40
1.0
176
     1
 90
        8
176
     1
 62
     7
176
     1
 40
1.0
176
     1
 90
        1
176
     1
 90
        6
176
     1
 90
        2
176
     1
 62
     7
176
     1
 90
        5
176
     1
 90
        0
176
     1
 90
        0
176
     1
290
     0
176
     1
 90
        1
176
     1
 40
0.0
176
     1
 90
        0
176
     1
290
     0
176
     1
290
     1
176
     1
290
     1
176
     1
290
     0
176
     1
290
     0
176
     1
290
     0
176
     1
290
     0
176
     1
290
     0
176
     1
290
     0
176
     1
 90
       50
176
     1
 40
0.0
176
     1
 40
1.0
176
     1
 90
        0
176
     1
 62
    18
420
        0
176
     1
 90
       50
176
     1
 90
        3
176
     1
 62
     5
420
      255
176
     1
290
     0
176
     1
 90
       50
176
     1
 90
       50
176
     1
 90
       50
176
     1
290
     0
176
     1
 90
       50
176
     1
 62
   256
176
     0
 40
1.0
176
     0
 90
        2
176
     1
  1
strokes_ogs.tif
176
     1
290
     0
176
     1
 40
1.0
176
     1
 40
1.0
176
     1
  0
VISUALSTYLE
  5
35
102
{ACAD_REACTORS
330
29
102
}
330
29
100
AcDbVisualStyle
  2
Brighten
 70
    12
177
     3
291
     1
 70
    58
 90
        2
176
     1
 90
        2
176
     1
 90
        0
176
     1
 90
        0
176
     1
 40
0.6
176
     1
 40
30.0
176
     1
 62
     7
420
 16777215
176
     1
 90
        1
176
     1
 90
        4
176
     1
 62
     7
176
     1
 62
   257
176
     1
 90
        1
176
     1
 90
        1
176
     1
 40
1.0
176
     1
 90
        8
176
     1
 62
     7
176
     1
 40
1.0
176
     1
 90
        1
176
     1
 90
        6
176
     1
 90
        2
176
     1
 62
     7
176
     1
 90
        5
176
     1
 90
        0
176
     1
 90
        0
176
     1
290
     0
176
     1
 90
        1
176
     1
 40
50.0
176
     1
 90
        0
176
     1
290
     0
176
     1
290
     1
176
     1
290
     1
176
     1
290
     0
176
     1
290
     0
176
     1
290
     0
176
     1
290
     0
176
     1
290
     0
176
     1
290
     0
176
     1
 90
       50
176
     1
 40
0.0
176
     1
 40
1.0
176
     1
 90
        0
176
     1
 62
    18
420
        0
176
     1
 90
       50
176
     1
 90
        3
176
     1
 62
     5
420
      255
176
     1
290
     0
176
     1
 90
       50
176
     1
 90
       50
176
     1
 90
       50
176
     1
290
     0
176
     1
 90
       50
176
     1
 62
   256
176
     0
 40
1.0
176
     0
 90
        2
176
     1
  1
strokes_ogs.tif
176
     1
290
     0
176
     1
 40
1.0
176
     1
 40
1.0
176
     1
  0
VISUALSTYLE
  5
39
102
{ACAD_REACTORS
330
29
102
}
330
29
100
AcDbVisualStyle
  2
ColorChange
 70
    16
177
     3
291
     1
 70
    58
 90
        2
176
     1
 90
        2
176
     1
 90
        3
176
     1
 90
        0
176
     1
 40
0.6
176
     1
 40
30.0
176
     1
 62
     8
420
  8421504
176
     1
 90
        1
176
     1
 90
        4
176
     1
 62
     7
176
     1
 62
   257
176
     1
 90
        1
176
     1
 90
        1
176
     1
 40
1.0
176
     1
 90
        8
176
     1
 62
     8
420
  8421504
176
     1
 40
1.0
176
     1
 90
        1
176
     1
 90
        6
176
     1
 90
        2
176
     1
 62
     7
176
     1
 90
        5
176
     1
 90
        0
176
     1
 90
        0
176
     1
290
     0
176
     1
 90
        1
176
     1
 40
0.0
176
     1
 90
        0
176
     1
290
     0
176
     1
290
     1
176
     1
290
     1
176
     1
290
     0
176
     1
290
     0
176
     1
290
     0
176
     1
290
     0
176
     1
290
     0
176
     1
290
     0
176
     1
 90
       50
176
     1
 40
0.0
176
     1
 40
1.0
176
     1
 90
        0
176
     1
 62
    18
420
        0
176
     1
 90
       50
176
     1
 90
        3
176
     1
 62
     5
420
      255
176
     1
290
     0
176
     1
 90
       50
176
     1
 90
       50
176
     1
 90
       50
176
     1
290
     0
176
     1
 90
       50
176
     1
 62
   256
176
     0
 40
1.0
176
     0
 90
        2
176
     1
  1
strokes_ogs.tif
176
     1
290
     0
176
     1
 40
1.0
176
     1
 40
1.0
176
     1
  0
VISUALSTYLE
  5
32
102
{ACAD_REACTORS
330
29
102
}
330
29
100
AcDbVisualStyle
  2
Conceptual
 70
     9
177
     3
291
     0
 70
    58
 90
        3
176
     1
 90
        2
176
     1
 90
        0
176
     1
 90
        0
176
     1
 40
0.6
176
     1
 40
30.0
176
     1
 62
     7
420
 16777215
176
     1
 90
        2
176
     1
 90
        2
176
     1
 62
     7
176
     1
 62
   257
176
     1
 90
        1
176
     1
 90
        1
176
     1
 40
179.0
176
     1
 90
        8
176
     1
 62
     7
176
     1
 40
1.0
176
     1
 90
        1
176
     1
 90
        6
176
     1
 90
        2
176
     1
 62
     7
176
     1
 90
        3
176
     1
 90
        0
176
     1
 90
        0
176
     1
290
     0
176
     1
 90
        1
176
     1
 40
0.0
176
     1
 90
        0
176
     1
290
     0
176
     1
290
     1
176
     1
290
     1
176
     1
290
     0
176
     1
290
     0
176
     1
290
     0
176
     1
290
     0
176
     1
290
     0
176
     1
290
     0
176
     1
 90
       50
176
     1
 40
0.0
176
     1
 40
1.0
176
     1
 90
        0
176
     1
 62
    18
420
        0
176
     1
 90
       50
176
     1
 90
        3
176
     1
 62
     5
420
      255
176
     1
290
     0
176
     1
 90
       50
176
     1
 90
       50
176
     1
 90
       50
176
     1
290
     0
176
     1
 90
       50
176
     1
 62
   256
176
     0
 40
1.0
176
     0
 90
        2
176
     1
  1
strokes_ogs.tif
176
     1
290
     0
176
     1
 40
1.0
176
     1
 40
1.0
176
     1
  0
VISUALSTYLE
  5
34
102
{ACAD_REACTORS
330
29
102
}
330
29
100
AcDbVisualStyle
  2
Dim
 70
    11
177
     3
291
     1
 70
    58
 90
        2
176
     1
 90
        2
176
     1
 90
        0
176
     1
 90
        0
176
     1
 40
0.6
176
     1
 40
30.0
176
     1
 62
     7
420
 16777215
176
     1
 90
        1
176
     1
 90
        4
176
     1
 62
     7
176
     1
 62
   257
176
     1
 90
        1
176
     1
 90
        1
176
     1
 40
1.0
176
     1
 90
        8
176
     1
 62
     7
176
     1
 40
1.0
176
     1
 90
        1
176
     1
 90
        6
176
     1
 90
        2
176
     1
 62
     7
176
     1
 90
        5
176
     1
 90
        0
176
     1
 90
        0
176
     1
290
     0
176
     1
 90
        1
176
     1
 40
-50.0
176
     1
 90
        0
176
     1
290
     0
176
     1
290
     1
176
     1
290
     1
176
     1
290
     0
176
     1
290
     0
176
     1
290
     0
176
     1
290
     0
176
     1
290
     0
176
     1
290
     0
176
     1
 90
       50
176
     1
 40
0.0
176
     1
 40
1.0
176
     1
 90
        0
176
     1
 62
    18
420
        0
176
     1
 90
       50
176
     1
 90
        3
176
     1
 62
     5
420
      255
176
     1
290
     0
176
     1
 90
       50
176
     1
 90
       50
176
     1
 90
       50
176
     1
290
     0
176
     1
 90
       50
176
     1
 62
   256
176
     0
 40
1.0
176
     0
 90
        2
176
     1
  1
strokes_ogs.tif
176
     1
290
     0
176
     1
 40
1.0
176
     1
 40
1.0
176
     1
  0
VISUALSTYLE
  5
41
102
{ACAD_REACTORS
330
29
102
}
330
29
100
AcDbVisualStyle
  2
EdgeColorOff
 70
    22
177
     3
291
     1
 70
    58
 90
        2
176
     0
 90
        2
176
     0
 90
        0
176
     0
 90
        0
176
     0
 40
0.6
176
     0
 40
30.0
176
     0
 62
     7
420
 16777215
176
     0
 90
        1
176
     0
 90
        4
176
     0
 62
     7
176
     0
 62
   257
176
     0
 90
        1
176
     0
 90
        1
176
     0
 40
1.0
176
     0
 90
        8
176
     2
 62
     7
176
     0
 40
1.0
176
     0
 90
        1
176
     0
 90
        6
176
     0
 90
        2
176
     0
 62
     7
176
     0
 90
        5
176
     0
 90
        0
176
     0
 90
        0
176
     0
290
     0
176
     0
 90
        1
176
     0
 40
0.0
176
     0
 90
        0
176
     0
290
     0
176
     0
290
     1
176
     0
290
     1
176
     0
290
     0
176
     0
290
     0
176
     0
290
     0
176
     0
290
     0
176
     0
290
     0
176
     0
290
     0
176
     0
 90
       50
176
     0
 40
0.0
176
     0
 40
1.0
176
     0
 90
        0
176
     0
 62
    18
420
        0
176
     0
 90
       50
176
     0
 90
        3
176
     0
 62
     5
420
      255
176
     0
290
     0
176
     0
 90
       50
176
     0
 90
       50
176
     0
 90
       50
176
     0
290
     0
176
     0
 90
       50
176
     0
 62
   256
176
     0
 40
1.0
176
     0
 90
        2
176
     0
  1
strokes_ogs.tif
176
     0
290
     0
176
     0
 40
1.0
176
     0
 40
1.0
176
     0
  0
VISUALSTYLE
  5
38
102
{ACAD_REACTORS
330
29
102
}
330
29
100
AcDbVisualStyle
  2
Facepattern
 70
    15
177
     3
291
     1
 70
    58
 90
        2
176
     1
 90
        2
176
     1
 90
        0
176
     1
 90
        0
176
     1
 40
0.6
176
     1
 40
30.0
176
     1
 62
     7
420
 16777215
176
     1
 90
        1
176
     1
 90
        4
176
     1
 62
     7
176
     1
 62
   257
176
     1
 90
        1
176
     1
 90
        1
176
     1
 40
1.0
176
     1
 90
        8
176
     1
 62
     7
176
     1
 40
1.0
176
     1
 90
        1
176
     1
 90
        6
176
     1
 90
        2
176
     1
 62
     7
176
     1
 90
        5
176
     1
 90
        0
176
     1
 90
        0
176
     1
290
     0
176
     1
 90
        1
176
     1
 40
0.0
176
     1
 90
        0
176
     1
290
     0
176
     1
290
     1
176
     1
290
     1
176
     1
290
     0
176
     1
290
     0
176
     1
290
     0
176
     1
290
     0
176
     1
290
     0
176
     1
290
     0
176
     1
 90
       50
176
     1
 40
0.0
176
     1
 40
1.0
176
     1
 90
        0
176
     1
 62
    18
420
        0
176
     1
 90
       50
176
     1
 90
        3
176
     1
 62
     5
420
      255
176
     1
290
     0
176
     1
 90
       50
176
     1
 90
       50
176
     1
 90
       50
176
     1
290
     0
176
     1
 90
       50
176
     1
 62
   256
176
     0
 40
1.0
176
     0
 90
        2
176
     1
  1
strokes_ogs.tif
176
     1
290
     0
176
     1
 40
1.0
176
     1
 40
1.0
176
     1
  0
VISUALSTYLE
  5
2A
102
{ACAD_REACTORS
330
29
102
}
330
29
100
AcDbVisualStyle
  2
Flat
 70
     0
177
     3
291
     1
 70
    58
 90
        2
176
     1
 90
        1
176
     1
 90
        1
176
     1
 90
        2
176
     1
 40
0.6
176
     1
 40
30.0
176
     1
 62
     7
420
 16777215
176
     1
 90
        0
176
     1
 90
        0
176
     1
 62
     7
176
     1
 62
   257
176
     1
 90
        1
176
     1
 90
        1
176
     1
 40
1.0
176
     1
 90
        8
176
     1
 62
     7
176
     1
 40
1.0
176
     1
 90
        1
176
     1
 90
        6
176
     1
 90
        2
176
     1
 62
     7
176
     1
 90
        5
176
     1
 90
        0
176
     1
 90
        0
176
     1
290
     0
176
     1
 90
       13
176
     1
 40
0.0
176
     1
 90
        0
176
     1
290
     0
176
     1
290
     1
176
     1
290
     1
176
     1
290
     0
176
     1
290
     0
176
     1
290
     0
176
     1
290
     0
176
     1
290
     0
176
     1
290
     0
176
     1
 90
       50
176
     1
 40
0.0
176
     1
 40
1.0
176
     1
 90
        0
176
     1
 62
    18
420
        0
176
     1
 90
       50
176
     1
 90
        3
176
     1
 62
     5
420
      255
176
     1
290
     0
176
     1
 90
       50
176
     1
 90
       50
176
     1
 90
       50
176
     1
290
     0
176
     1
 90
       50
176
     1
 62
   256
176
     0
 40
1.0
176
     0
 90
        2
176
     1
  1
strokes_ogs.tif
176
     1
290
     0
176
     1
 40
1.0
176
     1
 40
1.0
176
     1
  0
VISUALSTYLE
  5
2B
102
{ACAD_REACTORS
330
29
102
}
330
29
100
AcDbVisualStyle
  2
FlatWithEdges
 70
     1
177
     3
291
     1
 70
    58
 90
        2
176
     1
 90
        1
176
     1
 90
        1
176
     1
 90
        2
176
     1
 40
0.6
176
     1
 40
30.0
176
     1
 62
     7
420
 16777215
176
     1
 90
        1
176
     1
 90
        0
176
     1
 62
     7
176
     1
 62
   257
176
     1
 90
        1
176
     1
 90
        1
176
     1
 40
1.0
176
     1
 90
        0
176
     1
 62
   257
176
     1
 40
1.0
176
     1
 90
        1
176
     1
 90
        6
176
     1
 90
        2
176
     1
 62
     7
176
     1
 90
        5
176
     1
 90
        0
176
     1
 90
        0
176
     1
290
     0
176
     1
 90
       13
176
     1
 40
0.0
176
     1
 90
        0
176
     1
290
     0
176
     1
290
     1
176
     1
290
     1
176
     1
290
     0
176
     1
290
     0
176
     1
290
     0
176
     1
290
     0
176
     1
290
     0
176
     1
290
     0
176
     1
 90
       50
176
     1
 40
0.0
176
     1
 40
1.0
176
     1
 90
        0
176
     1
 62
    18
420
        0
176
     1
 90
       50
176
     1
 90
        3
176
     1
 62
     5
420
      255
176
     1
290
     0
176
     1
 90
       50
176
     1
 90
       50
176
     1
 90
       50
176
     1
290
     0
176
     1
 90
       50
176
     1
 62
   256
176
     0
 40
1.0
176
     0
 90
        2
176
     1
  1
strokes_ogs.tif
176
     1
290
     0
176
     1
 40
1.0
176
     1
 40
1.0
176
     1
  0
VISUALSTYLE
  5
2C
102
{ACAD_REACTORS
330
29
102
}
330
29
100
AcDbVisualStyle
  2
Gouraud
 70
     2
177
     3
291
     1
 70
    58
 90
        2
176
     1
 90
        2
176
     1
 90
        1
176
     1
 90
        2
176
     1
 40
0.6
176
     1
 40
30.0
176
     1
 62
     7
420
 16777215
176
     1
 90
        0
176
     1
 90
        0
176
     1
 62
     7
176
     1
 62
   257
176
     1
 90
        1
176
     1
 90
        1
176
     1
 40
1.0
176
     1
 90
        0
176
     1
 62
     7
176
     1
 40
1.0
176
     1
 90
        1
176
     1
 90
        6
176
     1
 90
        2
176
     1
 62
     7
176
     1
 90
        5
176
     1
 90
        0
176
     1
 90
        0
176
     1
290
     0
176
     1
 90
       13
176
     1
 40
0.0
176
     1
 90
        0
176
     1
290
     0
176
     1
290
     1
176
     1
290
     1
176
     1
290
     0
176
     1
290
     0
176
     1
290
     0
176
     1
290
     0
176
     1
290
     0
176
     1
290
     0
176
     1
 90
       50
176
     1
 40
0.0
176
     1
 40
1.0
176
     1
 90
        0
176
     1
 62
    18
420
        0
176
     1
 90
       50
176
     1
 90
        3
176
     1
 62
     5
420
      255
176
     1
290
     0
176
     1
 90
       50
176
     1
 90
       50
176
     1
 90
       50
176
     1
290
     0
176
     1
 90
       50
176
     1
 62
   256
176
     0
 40
1.0
176
     0
 90
        2
176
     1
  1
strokes_ogs.tif
176
     1
290
     0
176
     1
 40
1.0
176
     1
 40
1.0
176
     1
  0
VISUALSTYLE
  5
2D
102
{ACAD_REACTORS
330
29
102
}
330
29
100
AcDbVisualStyle
  2
GouraudWithEdges
 70
     3
177
     3
291
     1
 70
    58
 90
        2
176
     1
 90
        2
176
     1
 90
        1
176
     1
 90
        2
176
     1
 40
0.6
176
     1
 40
30.0
176
     1
 62
     7
420
 16777215
176
     1
 90
        1
176
     1
 90
        0
176
     1
 62
     7
176
     1
 62
   257
176
     1
 90
        1
176
     1
 90
        1
176
     1
 40
1.0
176
     1
 90
        0
176
     1
 62
   257
176
     1
 40
1.0
176
     1
 90
        1
176
     1
 90
        6
176
     1
 90
        2
176
     1
 62
     7
176
     1
 90
        5
176
     1
 90
        0
176
     1
 90
        0
176
     1
290
     0
176
     1
 90
       13
176
     1
 40
0.0
176
     1
 90
        0
176
     1
290
     0
176
     1
290
     1
176
     1
290
     1
176
     1
290
     0
176
     1
290
     0
176
     1
290
     0
176
     1
290
     0
176
     1
290
     0
176
     1
290
     0
176
     1
 90
       50
176
     1
 40
0.0
176
     1
 40
1.0
176
     1
 90
        0
176
     1
 62
    18
420
        0
176
     1
 90
       50
176
     1
 90
        3
176
     1
 62
     5
420
      255
176
     1
290
     0
176
     1
 90
       50
176
     1
 90
       50
176
     1
 90
       50
176
     1
290
     0
176
     1
 90
       50
176
     1
 62
   256
176
     0
 40
1.0
176
     0
 90
        2
176
     1
  1
strokes_ogs.tif
176
     1
290
     0
176
     1
 40
1.0
176
     1
 40
1.0
176
     1
  0
VISUALSTYLE
  5
31
102
{ACAD_REACTORS
330
29
102
}
330
29
100
AcDbVisualStyle
  2
Hidden
 70
     6
177
     3
291
     0
 70
    58
 90
        1
176
     1
 90
        2
176
     1
 90
        2
176
     1
 90
        0
176
     1
 40
0.6
176
     1
 40
30.0
176
     1
 62
     7
420
 16777215
176
     1
 90
        2
176
     1
 90
        2
176
     1
 62
     7
176
     1
 62
   257
176
     1
 90
        2
176
     1
 90
        1
176
     1
 40
40.0
176
     1
 90
        0
176
     1
 62
   257
176
     1
 40
1.0
176
     1
 90
        1
176
     1
 90
        6
176
     1
 90
        2
176
     1
 62
     7
176
     1
 90
        3
176
     1
 90
        0
176
     1
 90
        0
176
     1
290
     0
176
     1
 90
        1
176
     1
 40
0.0
176
     1
 90
        0
176
     1
290
     0
176
     1
290
     1
176
     1
290
     1
176
     1
290
     0
176
     1
290
     0
176
     1
290
     0
176
     1
290
     0
176
     1
290
     0
176
     1
290
     0
176
     1
 90
       50
176
     1
 40
0.0
176
     1
 40
1.0
176
     1
 90
        0
176
     1
 62
    18
420
        0
176
     1
 90
       50
176
     1
 90
        3
176
     1
 62
     5
420
      255
176
     1
290
     0
176
     1
 90
       50
176
     1
 90
       50
176
     1
 90
       50
176
     1
290
     0
176
     1
 90
       50
176
     1
 62
   256
176
     0
 40
1.0
176
     0
 90
        2
176
     1
  1
strokes_ogs.tif
176
     1
290
     0
176
     1
 40
1.0
176
     1
 40
1.0
176
     1
  0
VISUALSTYLE
  5
3F
102
{ACAD_REACTORS
330
29
102
}
330
29
100
AcDbVisualStyle
  2
JitterOff
 70
    20
177
     3
291
     1
 70
    58
 90
        2
176
     0
 90
        2
176
     0
 90
        0
176
     0
 90
        0
176
     0
 40
0.6
176
     0
 40
30.0
176
     0
 62
     7
420
 16777215
176
     0
 90
        1
176
     0
 90
        4
176
     0
 62
     7
176
     0
 62
   257
176
     0
 90
        1
176
     0
 90
        1
176
     0
 40
1.0
176
     0
 90
       10
176
     2
 62
     7
176
     0
 40
1.0
176
     0
 90
        1
176
     0
 90
        6
176
     0
 90
        2
176
     0
 62
     7
176
     0
 90
        5
176
     0
 90
        0
176
     0
 90
        0
176
     0
290
     0
176
     0
 90
        1
176
     0
 40
0.0
176
     0
 90
        0
176
     0
290
     0
176
     0
290
     1
176
     0
290
     1
176
     0
290
     0
176
     0
290
     0
176
     0
290
     0
176
     0
290
     0
176
     0
290
     0
176
     0
290
     0
176
     0
 90
       50
176
     0
 40
0.0
176
     0
 40
1.0
176
     0
 90
        0
176
     0
 62
    18
420
        0
176
     0
 90
       50
176
     0
 90
        3
176
     0
 62
     5
420
      255
176
     0
290
     0
176
     0
 90
       50
176
     0
 90
       50
176
     0
 90
       50
176
     0
290
     0
176
     0
 90
       50
176
     0
 62
   256
176
     0
 40
1.0
176
     0
 90
        2
176
     0
  1
strokes_ogs.tif
176
     0
290
     0
176
     0
 40
1.0
176
     0
 40
1.0
176
     0
  0
VISUALSTYLE
  5
37
102
{ACAD_REACTORS
330
29
102
}
330
29
100
AcDbVisualStyle
  2
Linepattern
 70
    14
177
     3
291
     1
 70
    58
 90
        2
176
     1
 90
        2
176
     1
 90
        0
176
     1
 90
        0
176
     1
 40
0.6
176
     1
 40
30.0
176
     1
 62
     7
420
 16777215
176
     1
 90
        1
176
     1
 90
        4
176
     1
 62
     7
176
     1
 62
   257
176
     1
 90
        7
176
     1
 90
        7
176
     1
 40
1.0
176
     1
 90
        8
176
     1
 62
     7
176
     1
 40
1.0
176
     1
 90
        1
176
     1
 90
        6
176
     1
 90
        2
176
     1
 62
     7
176
     1
 90
        5
176
     1
 90
        0
176
     1
 90
        0
176
     1
290
     0
176
     1
 90
        1
176
     1
 40
0.0
176
     1
 90
        0
176
     1
290
     0
176
     1
290
     1
176
     1
290
     1
176
     1
290
     0
176
     1
290
     0
176
     1
290
     0
176
     1
290
     0
176
     1
290
     0
176
     1
290
     0
176
     1
 90
       50
176
     1
 40
0.0
176
     1
 40
1.0
176
     1
 90
        0
176
     1
 62
    18
420
        0
176
     1
 90
       50
176
     1
 90
        3
176
     1
 62
     5
420
      255
176
     1
290
     0
176
     1
 90
       50
176
     1
 90
       50
176
     1
 90
       50
176
     1
290
     0
176
     1
 90
       50
176
     1
 62
   256
176
     0
 40
1.0
176
     0
 90
        2
176
     1
  1
strokes_ogs.tif
176
     1
290
     0
176
     1
 40
1.0
176
     1
 40
1.0
176
     1
  0
VISUALSTYLE
  5
40
102
{ACAD_REACTORS
330
29
102
}
330
29
100
AcDbVisualStyle
  2
OverhangOff
 70
    21
177
     3
291
     1
 70
    58
 90
        2
176
     0
 90
        2
176
     0
 90
        0
176
     0
 90
        0
176
     0
 40
0.6
176
     0
 40
30.0
176
     0
 62
     7
420
 16777215
176
     0
 90
        1
176
     0
 90
        4
176
     0
 62
     7
176
     0
 62
   257
176
     0
 90
        1
176
     0
 90
        1
176
     0
 40
1.0
176
     0
 90
        9
176
     2
 62
     7
176
     0
 40
1.0
176
     0
 90
        1
176
     0
 90
        6
176
     0
 90
        2
176
     0
 62
     7
176
     0
 90
        5
176
     0
 90
        0
176
     0
 90
        0
176
     0
290
     0
176
     0
 90
        1
176
     0
 40
0.0
176
     0
 90
        0
176
     0
290
     0
176
     0
290
     1
176
     0
290
     1
176
     0
290
     0
176
     0
290
     0
176
     0
290
     0
176
     0
290
     0
176
     0
290
     0
176
     0
290
     0
176
     0
 90
       50
176
     0
 40
0.0
176
     0
 40
1.0
176
     0
 90
        0
176
     0
 62
    18
420
        0
176
     0
 90
       50
176
     0
 90
        3
176
     0
 62
     5
420
      255
176
     0
290
     0
176
     0
 90
       50
176
     0
 90
       50
176
     0
 90
       50
176
     0
290
     0
176
     0
 90
       50
176
     0
 62
   256
176
     0
 40
1.0
176
     0
 90
        2
176
     0
  1
strokes_ogs.tif
176
     0
290
     0
176
     0
 40
1.0
176
     0
 40
1.0
176
     0
  0
VISUALSTYLE
  5
33
102
{ACAD_REACTORS
330
29
102
}
330
29
100
AcDbVisualStyle
  2
Realistic
 70
     8
177
     3
291
     0
 70
    58
 90
        2
176
     1
 90
        3
176
     1
 90
        0
176
     1
 90
        2
176
     1
 40
0.6
176
     1
 40
30.0
176
     1
 62
     7
420
 16777215
176
     1
 90
        0
176
     1
 90
        0
176
     1
 62
     7
176
     1
 62
   257
176
     1
 90
        1
176
     1
 90
        1
176
     1
 40
1.0
176
     1
 90
        8
176
     1
 62
   257
176
     1
 40
1.0
176
     1
 90
        1
176
     1
 90
        6
176
     1
 90
        2
176
     1
 62
     7
176
     1
 90
        3
176
     1
 90
        0
176
     1
 90
        0
176
     1
290
     0
176
     1
 90
       13
176
     1
 40
0.0
176
     1
 90
        0
176
     1
290
     0
176
     1
290
     1
176
     1
290
     1
176
     1
290
     0
176
     1
290
     0
176
     1
290
     0
176
     1
290
     0
176
     1
290
     0
176
     1
290
     0
176
     1
 90
       50
176
     1
 40
0.0
176
     1
 40
1.0
176
     1
 90
        0
176
     1
 62
    18
420
        0
176
     1
 90
       50
176
     1
 90
        3
176
     1
 62
     5
420
      255
176
     1
290
     0
176
     1
 90
       50
176
     1
 90
       50
176
     1
 90
       50
176
     1
290
     0
176
     1
 90
       50
176
     1
 62
   256
176
     0
 40
1.0
176
     0
 90
        2
176
     1
  1
strokes_ogs.tif
176
     1
290
     0
176
     1
 40
1.0
176
     1
 40
1.0
176
     1
  0
VISUALSTYLE
  5
3E
102
{ACAD_REACTORS
330
29
102
}
330
29
100
AcDbVisualStyle
  2
Shaded
 70
    27
177
     3
291
     0
 70
    58
 90
        2
176
     1
 90
        2
176
     1
 90
        1
176
     1
 90
        2
176
     1
 40
0.6
176
     1
 40
30.0
176
     1
 62
     7
420
 16777215
176
     1
 90
        0
176
     1
 90
        4
176
     1
 62
     7
176
     1
 62
   257
176
     1
 90
        1
176
     1
 90
        1
176
     1
 40
1.0
176
     1
 90
        8
176
     1
 62
   257
176
     1
 40
1.0
176
     1
 90
        1
176
     1
 90
        6
176
     1
 90
        2
176
     1
 62
     8
420
  7895160
176
     1
 90
        3
176
     1
 90
        0
176
     1
 90
        0
176
     1
290
     0
176
     1
 90
        5
176
     1
 40
0.0
176
     1
 90
        0
176
     1
290
     0
176
     1
290
     1
176
     1
290
     1
176
     1
290
     0
176
     1
290
     0
176
     1
290
     0
176
     1
290
     0
176
     1
290
     0
176
     1
290
     0
176
     1
 90
       50
176
     1
 40
0.0
176
     1
 40
1.0
176
     1
 90
        0
176
     1
 62
    18
420
        0
176
     1
 90
       50
176
     1
 90
        3
176
     1
 62
     5
420
      255
176
     1
290
     0
176
     1
 90
       50
176
     1
 90
       50
176
     1
 90
       50
176
     1
290
     0
176
     1
 90
       50
176
     1
 62
   256
176
     0
 40
1.0
176
     0
 90
        2
176
     1
  1
strokes_ogs.tif
176
     1
290
     0
176
     1
 40
1.0
176
     1
 40
1.0
176
     1
  0
VISUALSTYLE
  5
3D
102
{ACAD_REACTORS
330
29
102
}
330
29
100
AcDbVisualStyle
  2
Shaded with edges
 70
    26
177
     3
291
     0
 70
    58
 90
        2
176
     1
 90
        2
176
     1
 90
        1
176
     1
 90
        2
176
     1
 40
0.6
176
     1
 40
30.0
176
     1
 62
     7
420
 16777215
176
     1
 90
        1
176
     1
 90
        2
176
     1
 62
     7
176
     1
 62
   257
176
     1
 90
        2
176
     1
 90
        1
176
     1
 40
1.0
176
     1
 90
        8
176
     1
 62
   257
176
     1
 40
1.0
176
     1
 90
        1
176
     1
 90
        6
176
     1
 90
        2
176
     1
 62
     7
176
     1
 90
        3
176
     1
 90
        0
176
     1
 90
        0
176
     1
290
     0
176
     1
 90
        5
176
     1
 40
0.0
176
     1
 90
        0
176
     1
290
     0
176
     1
290
     1
176
     1
290
     1
176
     1
290
     0
176
     1
290
     0
176
     1
290
     0
176
     1
290
     0
176
     1
290
     0
176
     1
290
     0
176
     1
 90
       50
176
     1
 40
0.0
176
     1
 40
1.0
176
     1
 90
        0
176
     1
 62
    18
420
        0
176
     1
 90
       50
176
     1
 90
        3
176
     1
 62
     5
420
      255
176
     1
290
     0
176
     1
 90
       50
176
     1
 90
       50
176
     1
 90
       50
176
     1
290
     0
176
     1
 90
       50
176
     1
 62
   256
176
     0
 40
1.0
176
     0
 90
        2
176
     1
  1
strokes_ogs.tif
176
     1
290
     0
176
     1
 40
1.0
176
     1
 40
1.0
176
     1
  0
VISUALSTYLE
  5
3A
102
{ACAD_REACTORS
330
29
102
}
330
29
100
AcDbVisualStyle
  2
Shades of Gray
 70
    23
177
     3
291
     0
 70
    58
 90
        2
176
     1
 90
        2
176
     1
 90
        3
176
     1
 90
        0
176
     1
 40
0.6
176
     1
 40
30.0
176
     1
 62
     7
420
 16777215
176
     1
 90
        2
176
     1
 90
        2
176
     1
 62
     7
176
     1
 62
     7
176
     1
 90
        1
176
     1
 90
        1
176
     1
 40
40.0
176
     1
 90
        8
176
     1
 62
     7
176
     1
 40
1.0
176
     1
 90
        1
176
     1
 90
        6
176
     1
 90
        2
176
     1
 62
     7
176
     1
 90
        3
176
     1
 90
        0
176
     1
 90
        0
176
     1
290
     0
176
     1
 90
        1
176
     1
 40
0.0
176
     1
 90
        0
176
     1
290
     0
176
     1
290
     1
176
     1
290
     1
176
     1
290
     0
176
     1
290
     0
176
     1
290
     0
176
     1
290
     0
176
     1
290
     0
176
     1
290
     0
176
     1
 90
       50
176
     1
 40
0.0
176
     1
 40
1.0
176
     1
 90
        0
176
     1
 62
    18
420
        0
176
     1
 90
       50
176
     1
 90
        3
176
     1
 62
     5
420
      255
176
     1
290
     0
176
     1
 90
       50
176
     1
 90
       50
176
     1
 90
       50
176
     1
290
     0
176
     1
 90
       50
176
     1
 62
   256
176
     0
 40
1.0
176
     0
 90
        2
176
     1
  1
strokes_ogs.tif
176
     1
290
     0
176
     1
 40
1.0
176
     1
 40
1.0
176
     1
  0
VISUALSTYLE
  5
3B
102
{ACAD_REACTORS
330
29
102
}
330
29
100
AcDbVisualStyle
  2
Sketchy
 70
    24
177
     3
291
     0
 70
    58
 90
        1
176
     1
 90
        2
176
     1
 90
        2
176
     1
 90
        0
176
     1
 40
0.6
176
     1
 40
30.0
176
     1
 62
     7
420
 16777215
176
     1
 90
        2
176
     1
 90
        2
176
     1
 62
     7
176
     1
 62
     7
176
     1
 90
        1
176
     1
 90
        1
176
     1
 40
40.0
176
     1
 90
       11
176
     1
 62
     7
176
     1
 40
1.0
176
     1
 90
        1
176
     1
 90
        6
176
     1
 90
        2
176
     1
 62
     7
176
     1
 90
        6
176
     1
 90
        0
176
     1
 90
        0
176
     1
290
     0
176
     1
 90
        1
176
     1
 40
0.0
176
     1
 90
        0
176
     1
290
     0
176
     1
290
     1
176
     1
290
     1
176
     1
290
     0
176
     1
290
     0
176
     1
290
     0
176
     1
290
     0
176
     1
290
     0
176
     1
290
     0
176
     1
 90
       50
176
     1
 40
0.0
176
     1
 40
1.0
176
     1
 90
        0
176
     1
 62
    18
420
        0
176
     1
 90
       50
176
     1
 90
        3
176
     1
 62
     5
420
      255
176
     1
290
     0
176
     1
 90
       50
176
     1
 90
       50
176
     1
 90
       50
176
     1
290
     0
176
     1
 90
       50
176
     1
 62
   256
176
     0
 40
1.0
176
     0
 90
        2
176
     1
  1
strokes_ogs.tif
176
     1
290
     0
176
     1
 40
1.0
176
     1
 40
1.0
176
     1
  0
VISUALSTYLE
  5
36
102
{ACAD_REACTORS
330
29
102
}
330
29
100
AcDbVisualStyle
  2
Thicken
 70
    13
177
     3
291
     1
 70
    58
 90
        2
176
     1
 90
        2
176
     1
 90
        0
176
     1
 90
        0
176
     1
 40
0.6
176
     1
 40
30.0
176
     1
 62
     7
420
 16777215
176
     1
 90
        1
176
     1
 90
        4
176
     1
 62
     7
176
     1
 62
   257
176
     1
 90
        1
176
     1
 90
        1
176
     1
 40
1.0
176
     1
 90
       12
176
     1
 62
     7
176
     1
 40
1.0
176
     1
 90
        1
176
     1
 90
        6
176
     1
 90
        2
176
     1
 62
     7
176
     1
 90
        5
176
     1
 90
        0
176
     1
 90
        0
176
     1
290
     0
176
     1
 90
        1
176
     1
 40
0.0
176
     1
 90
        0
176
     1
290
     0
176
     1
290
     1
176
     1
290
     1
176
     1
290
     0
176
     1
290
     0
176
     1
290
     0
176
     1
290
     0
176
     1
290
     0
176
     1
290
     0
176
     1
 90
       50
176
     1
 40
0.0
176
     1
 40
1.0
176
     1
 90
        0
176
     1
 62
    18
420
        0
176
     1
 90
       50
176
     1
 90
        3
176
     1
 62
     5
420
      255
176
     1
290
     0
176
     1
 90
       50
176
     1
 90
       50
176
     1
 90
       50
176
     1
290
     0
176
     1
 90
       50
176
     1
 62
   256
176
     0
 40
1.0
176
     0
 90
        2
176
     1
  1
strokes_ogs.tif
176
     1
290
     0
176
     1
 40
1.0
176
     1
 40
1.0
176
     1
  0
VISUALSTYLE
  5
30
102
{ACAD_REACTORS
330
29
102
}
330
29
100
AcDbVisualStyle
  2
Wireframe
 70
     5
177
     3
291
     0
 70
    58
 90
        0
176
     1
 90
        2
176
     1
 90
        0
176
     1
 90
        0
176
     1
 40
0.6
176
     1
 40
30.0
176
     1
 62
     7
420
 16777215
176
     1
 90
        1
176
     1
 90
        4
176
     1
 62
     7
176
     1
 62
   257
176
     1
 90
        1
176
     1
 90
        1
176
     1
 40
1.0
176
     1
 90
        0
176
     1
 62
   257
176
     1
 40
1.0
176
     1
 90
        1
176
     1
 90
        6
176
     1
 90
        2
176
     1
 62
     7
176
     1
 90
        3
176
     1
 90
        0
176
     1
 90
        0
176
     1
290
     0
176
     1
 90
        1
176
     1
 40
0.0
176
     1
 90
        0
176
     1
290
     0
176
     1
290
     1
176
     1
290
     1
176
     1
290
     0
176
     1
290
     0
176
     1
290
     0
176
     1
290
     0
176
     1
290
     0
176
     1
290
     0
176
     1
 90
       50
176
     1
 40
0.0
176
     1
 40
1.0
176
     1
 90
        0
176
     1
 62
    18
420
        0
176
     1
 90
       50
176
     1
 90
        3
176
     1
 62
     5
420
      255
176
     1
290
     0
176
     1
 90
       50
176
     1
 90
       50
176
     1
 90
       50
176
     1
290
     0
176
     1
 90
       50
176
     1
 62
   256
176
     0
 40
1.0
176
     0
 90
        2
176
     1
  1
strokes_ogs.tif
176
     1
290
     0
176
     1
 40
1.0
176
     1
 40
1.0
176
     1
  0
VISUALSTYLE
  5
3C
102
{ACAD_REACTORS
330
29
102
}
330
29
100
AcDbVisualStyle
  2
X-Ray
 70
    25
177
     3
291
     0
 70
    58
 90
        2
176
     1
 90
        2
176
     1
 90
        1
176
     1
 90
        1
176
     1
 40
0.5
176
     1
 40
30.0
176
     1
 62
     7
420
 16777215
176
     1
 90
        1
176
     1
 90
        0
176
     1
 62
     7
176
     1
 62
   257
176
     1
 90
        1
176
     1
 90
        1
176
     1
 40
1.0
176
     1
 90
        8
176
     1
 62
     7
176
     1
 40
1.0
176
     1
 90
        1
176
     1
 90
        6
176
     1
 90
        2
176
     1
 62
     7
176
     1
 90
        3
176
     1
 90
        0
176
     1
 90
        0
176
     1
290
     0
176
     1
 90
       13
176
     1
 40
0.0
176
     1
 90
        0
176
     1
290
     0
176
     1
290
     1
176
     1
290
     1
176
     1
290
     0
176
     1
290
     0
176
     1
290
     0
176
     1
290
     0
176
     1
290
     0
176
     1
290
     0
176
     1
 90
       50
176
     1
 40
0.0
176
     1
 40
1.0
176
     1
 90
        0
176
     1
 62
    18
420
        0
176
     1
 90
       50
176
     1
 90
        3
176
     1
 62
     5
420
      255
176
     1
290
     0
176
     1
 90
       50
176
     1
 90
       50
176
     1
 90
       50
176
     1
290
     0
176
     1
 90
       50
176
     1
 62
   256
176
     0
 40
1.0
176
     0
 90
        2
176
     1
  1
strokes_ogs.tif
176
     1
290
     0
176
     1
 40
1.0
176
     1
 40
1.0
176
     1
  0
DICTIONARYVAR
  5
207
102
{ACAD_REACTORS
330
202
102
}
330
202
100
DictionaryVariables
280
     0
  1
1:1
  0
DICTIONARYVAR
  5
204
102
{ACAD_REACTORS
330
202
102
}
330
202
100
DictionaryVariables
280
     0
  1
STANDARD
  0
DICTIONARYVAR
  5
203
102
{ACAD_REACTORS
330
202
102
}
330
202
100
DictionaryVariables
280
     0
  1
STANDARD
  0
DICTIONARYVAR
  5
205
102
{ACAD_REACTORS
330
202
102
}
330
202
100
DictionaryVariables
280
     0
  1
Imperial24
  0
DICTIONARYVAR
  5
206
102
{ACAD_REACTORS
330
202
102
}
330
202
100
DictionaryVariables
280
     0
  1
Imperial24
  0
DICTIONARY
  5
1A
330
19
100
AcDbDictionary
280
     1
281
     1
  3
BUMPTILE
360
1C
  3
DIFFUSETILE
360
1B
  3
OPACITYTILE
360
1F
  3
REFLECTIONTILE
360
1E
  3
REFRACTIONTILE
360
20
  3
SPECULARTILE
360
1D
  0
DICTIONARY
  5
12
330
11
100
AcDbDictionary
280
     1
281
     1
  3
BUMPTILE
360
14
  3
DIFFUSETILE
360
13
  3
OPACITYTILE
360
17
  3
REFLECTIONTILE
360
16
  3
REFRACTIONTILE
360
18
  3
SPECULARTILE
360
15
  0
DICTIONARY
  5
22
330
21
100
AcDbDictionary
280
     1
281
     1
  3
BUMPTILE
360
24
  3
DIFFUSETILE
360
23
  3
OPACITYTILE
360
27
  3
REFLECTIONTILE
360
26
  3
REFRACTIONTILE
360
28
  3
SPECULARTILE
360
25
  0
DICTIONARY
  5
208
330
65
100
AcDbDictionary
280
     1
281
     1
  3
ACAD_ROUNDTRIP_2008_TABLESTYLE_CELLSTYLEMAP
360
209
  0
XRECORD
  5
1C
102
{ACAD_REACTORS
330
1A
102
}
330
1A
100
AcDbXrecord
280
     1
270
     1
271
     1
  0
XRECORD
  5
1B
102
{ACAD_REACTORS
330
1A
102
}
330
1A
100
AcDbXrecord
280
     1
270
     1
271
     1
  0
XRECORD
  5
1F
102
{ACAD_REACTORS
330
1A
102
}
330
1A
100
AcDbXrecord
280
     1
270
     1
271
     1
  0
XRECORD
  5
1E
102
{ACAD_REACTORS
330
1A
102
}
330
1A
100
AcDbXrecord
280
     1
270
     1
271
     1
  0
XRECORD
  5
20
102
{ACAD_REACTORS
330
1A
102
}
330
1A
100
AcDbXrecord
280
     1
270
     1
271
     1
  0
XRECORD
  5
1D
102
{ACAD_REACTORS
330
1A
102
}
330
1A
100
AcDbXrecord
280
     1
270
     1
271
     1
  0
XRECORD
  5
14
102
{ACAD_REACTORS
330
12
102
}
330
12
100
AcDbXrecord
280
     1
270
     1
271
     1
  0
XRECORD
  5
13
102
{ACAD_REACTORS
330
12
102
}
330
12
100
AcDbXrecord
280
     1
270
     1
271
     1
  0
XRECORD
  5
17
102
{ACAD_REACTORS
330
12
102
}
330
12
100
AcDbXrecord
280
     1
270
     1
271
     1
  0
XRECORD
  5
16
102
{ACAD_REACTORS
330
12
102
}
330
12
100
AcDbXrecord
280
     1
270
     1
271
     1
  0
XRECORD
  5
18
102
{ACAD_REACTORS
330
12
102
}
330
12
100
AcDbXrecord
280
     1
270
     1
271
     1
  0
XRECORD
  5
15
102
{ACAD_REACTORS
330
12
102
}
330
12
100
AcDbXrecord
280
     1
270
     1
271
     1
  0
XRECORD
  5
24
102
{ACAD_REACTORS
330
22
102
}
330
22
100
AcDbXrecord
280
     1
270
     1
271
     1
  0
XRECORD
  5
23
102
{ACAD_REACTORS
330
22
102
}
330
22
100
AcDbXrecord
280
     1
270
     1
271
     1
  0
XRECORD
  5
27
102
{ACAD_REACTORS
330
22
102
}
330
22
100
AcDbXrecord
280
     1
270
     1
271
     1
  0
XRECORD
  5
26
102
{ACAD_REACTORS
330
22
102
}
330
22
100
AcDbXrecord
280
     1
270
     1
271
     1
  0
XRECORD
  5
28
102
{ACAD_REACTORS
330
22
102
}
330
22
100
AcDbXrecord
280
     1
270
     1
271
     1
  0
XRECORD
  5
25
102
{ACAD_REACTORS
330
22
102
}
330
22
100
AcDbXrecord
280
     1
270
     1
271
     1
  0
CELLSTYLEMAP
  5
209
102
{ACAD_REACTORS
330
208
102
}
330
208
100
AcDbCellStyleMap
 90
        3
300
CELLSTYLE
  1
TABLEFORMAT_BEGIN
 90
        5
170
     1
 91
        0
 92
    32768
 62
   257
 93
        1
300
CONTENTFORMAT
  1
CONTENTFORMAT_BEGIN
 90
        0
 91
        0
 92
      512
 93
        0
300

 40
0.0
140
1.0
 94
        5
 62
     0
340
55
144
0.25
309
CONTENTFORMAT_END
171
     0
 94
        0
309
TABLEFORMAT_END
  1
CELLSTYLE_BEGIN
 90
        1
 91
        1
300
_TITLE
309
CELLSTYLE_END
300
CELLSTYLE
  1
TABLEFORMAT_BEGIN
 90
        5
170
     1
 91
        0
 92
        0
 62
   257
 93
        1
300
CONTENTFORMAT
  1
CONTENTFORMAT_BEGIN
 90
        0
 91
        0
 92
      512
 93
        0
300

 40
0.0
140
1.0
 94
        5
 62
     0
340
55
144
0.18
309
CONTENTFORMAT_END
171
     0
 94
        0
309
TABLEFORMAT_END
  1
CELLSTYLE_BEGIN
 90
        2
 91
        1
300
_HEADER
309
CELLSTYLE_END
300
CELLSTYLE
  1
TABLEFORMAT_BEGIN
 90
        5
170
     1
 91
        0
 92
        0
 62
   257
 93
        1
300
CONTENTFORMAT
  1
CONTENTFORMAT_BEGIN
 90
        0
 91
        0
 92
      512
 93
        0
300

 40
0.0
140
1.0
 94
        2
 62
     0
340
55
144
0.18
309
CONTENTFORMAT_END
171
     0
 94
        0
309
TABLEFORMAT_END
  1
CELLSTYLE_BEGIN
 90
        3
 91
        2
300
_DATA
309
CELLSTYLE_END
  0
ENDSEC
  0
EOF
