  0
SECTION
  2
HEADER
  9
$ACADVER
  1
AC1015
  9
$ACADMAINTVER
 70
    20
  9
$DWGCODEPAGE
  3
ANSI_932
  9
$INSBASE
 10
0.0
 20
0.0
 30
0.0
  9
$EXTMIN
 10
170.2336525762608
 20
12.4020998985531
 30
-0.0000000000112498
  9
$EXTMAX
 10
260.2389177838619
 20
117.4094241021776
 30
0.0000000000002956
  9
$LIMMIN
 10
0.0
 20
0.0
  9
$LIMMAX
 10
100.0
 20
118.0
  9
$ORTHOMODE
 70
     1
  9
$REGENMODE
 70
     1
  9
$FILLMODE
 70
     1
  9
$QTEXTMODE
 70
     0
  9
$MIRRTEXT
 70
     1
  9
$LTSCALE
 40
0.3973063973063973
  9
$ATTMODE
 70
     1
  9
$TEXTSIZE
 40
3.0
  9
$TRACEWID
 40
1.0
  9
$TEXTSTYLE
  7
STANDARD
  9
$CLAYER
  8
0
  9
$CELTYPE
  6
BYLAYER
  9
$CECOLOR
 62
   256
  9
$CELTSCALE
 40
1.0
  9
$DISPSILH
 70
     0
  9
$DIMSCALE
 40
1.0
  9
$DIMASZ
 40
2.0
  9
$DIMEXO
 40
1.0
  9
$DIMDLI
 40
5.0
  9
$DIMRND
 40
0.0
  9
$DIMDLE
 40
0.0
  9
$DIMEXE
 40
0.5
  9
$DIMTP
 40
0.0
  9
$DIMTM
 40
0.0
  9
$DIMTXT
 40
2.5
  9
$DIMCEN
 40
0.09
  9
$DIMTSZ
 40
0.0
  9
$DIMTOL
 70
     0
  9
$DIMLIM
 70
     0
  9
$DIMTIH
 70
     0
  9
$DIMTOH
 70
     1
  9
$DIMSE1
 70
     0
  9
$DIMSE2
 70
     0
  9
$DIMTAD
 70
     0
  9
$DIMZIN
 70
     8
  9
$DIMBLK
  1

  9
$DIMASO
 70
     1
  9
$DIMSHO
 70
     1
  9
$DIMPOST
  1

  9
$DIMAPOST
  1

  9
$DIMALT
 70
     0
  9
$DIMALTD
 70
     2
  9
$DIMALTF
 40
25.4
  9
$DIMLFAC
 40
1.0
  9
$DIMTOFL
 70
     0
  9
$DIMTVP
 40
0.0
  9
$DIMTIX
 70
     0
  9
$DIMSOXD
 70
     0
  9
$DIMSAH
 70
     0
  9
$DIMBLK1
  1

  9
$DIMBLK2
  1

  9
$DIMSTYLE
  2
STANDARD
  9
$DIMCLRD
 70
     0
  9
$DIMCLRE
 70
     0
  9
$DIMCLRT
 70
     9
  9
$DIMTFAC
 40
1.0
  9
$DIMGAP
 40
0.5
  9
$DIMJUST
 70
     0
  9
$DIMSD1
 70
     0
  9
$DIMSD2
 70
     0
  9
$DIMTOLJ
 70
     1
  9
$DIMTZIN
 70
     0
  9
$DIMALTZ
 70
     0
  9
$DIMALTTZ
 70
     0
  9
$DIMUPT
 70
     0
  9
$DIMDEC
 70
     2
  9
$DIMTDEC
 70
     4
  9
$DIMALTU
 70
     2
  9
$DIMALTTD
 70
     2
  9
$DIMTXSTY
  7
STANDARD
  9
$DIMAUNIT
 70
     0
  9
$DIMADEC
 70
     0
  9
$DIMALTRND
 40
0.0
  9
$DIMAZIN
 70
     0
  9
$DIMDSEP
 70
    46
  9
$DIMATFIT
 70
     3
  9
$DIMFRAC
 70
     0
  9
$DIMLDRBLK
  1

  9
$DIMLUNIT
 70
     2
  9
$DIMLWD
 70
    -2
  9
$DIMLWE
 70
    -2
  9
$DIMTMOVE
 70
     0
  9
$LUNITS
 70
     2
  9
$LUPREC
 70
     4
  9
$SKETCHINC
 40
1.0
  9
$FILLETRAD
 40
3.973063973063973
  9
$AUNITS
 70
     0
  9
$AUPREC
 70
     0
  9
$MENU
  1
acad
  9
$ELEVATION
 40
0.0
  9
$PELEVATION
 40
0.0
  9
$THICKNESS
 40
0.0
  9
$LIMCHECK
 70
     0
  9
$CHAMFERA
 40
0.0
  9
$CHAMFERB
 40
0.0
  9
$CHAMFERC
 40
7.946127946127946
  9
$CHAMFERD
 40
0.0
  9
$SKPOLY
 70
     0
  9
$TDCREATE
 40
2451379.622546296
  9
$TDUCREATE
 40
2451379.247549885
  9
$TDUPDATE
 40
2459040.624247685
  9
$TDUUPDATE
 40
2459040.249247685
  9
$TDINDWG
 40
0.2018797454
  9
$TDUSRTIMER
 40
0.2018797454
  9
$USRTIMER
 70
     1
  9
$ANGBASE
 50
0.0
  9
$ANGDIR
 70
     0
  9
$PDMODE
 70
     0
  9
$PDSIZE
 40
0.0
  9
$PLINEWID
 40
0.0
  9
$SPLFRAME
 70
     0
  9
$SPLINETYPE
 70
     6
  9
$SPLINESEGS
 70
     8
  9
$HANDSEED
  5
82BE
  9
$SURFTAB1
 70
     6
  9
$SURFTAB2
 70
     6
  9
$SURFTYPE
 70
     6
  9
$SURFU
 70
     6
  9
$SURFV
 70
     6
  9
$UCSBASE
  2

  9
$UCSNAME
  2

  9
$UCSORG
 10
0.0
 20
0.0
 30
0.0
  9
$UCSXDIR
 10
1.0
 20
0.0
 30
0.0
  9
$UCSYDIR
 10
0.0
 20
1.0
 30
0.0
  9
$UCSORTHOREF
  2

  9
$UCSORTHOVIEW
 70
     0
  9
$UCSORGTOP
 10
0.0
 20
0.0
 30
0.0
  9
$UCSORGBOTTOM
 10
0.0
 20
0.0
 30
0.0
  9
$UCSORGLEFT
 10
0.0
 20
0.0
 30
0.0
  9
$UCSORGRIGHT
 10
0.0
 20
0.0
 30
0.0
  9
$UCSORGFRONT
 10
0.0
 20
0.0
 30
0.0
  9
$UCSORGBACK
 10
0.0
 20
0.0
 30
0.0
  9
$PUCSBASE
  2

  9
$PUCSNAME
  2

  9
$PUCSORG
 10
0.0
 20
0.0
 30
0.0
  9
$PUCSXDIR
 10
1.0
 20
0.0
 30
0.0
  9
$PUCSYDIR
 10
0.0
 20
1.0
 30
0.0
  9
$PUCSORTHOREF
  2

  9
$PUCSORTHOVIEW
 70
     0
  9
$PUCSORGTOP
 10
0.0
 20
0.0
 30
0.0
  9
$PUCSORGBOTTOM
 10
0.0
 20
0.0
 30
0.0
  9
$PUCSORGLEFT
 10
0.0
 20
0.0
 30
0.0
  9
$PUCSORGRIGHT
 10
0.0
 20
0.0
 30
0.0
  9
$PUCSORGFRONT
 10
0.0
 20
0.0
 30
0.0
  9
$PUCSORGBACK
 10
0.0
 20
0.0
 30
0.0
  9
$USERI1
 70
     0
  9
$USERI2
 70
     0
  9
$USERI3
 70
     0
  9
$USERI4
 70
     0
  9
$USERI5
 70
     0
  9
$USERR1
 40
0.0
  9
$USERR2
 40
0.0
  9
$USERR3
 40
0.0
  9
$USERR4
 40
0.0
  9
$USERR5
 40
0.0
  9
$WORLDVIEW
 70
     1
  9
$SHADEDGE
 70
     3
  9
$SHADEDIF
 70
    70
  9
$TILEMODE
 70
     1
  9
$MAXACTVP
 70
    48
  9
$PINSBASE
 10
0.0
 20
0.0
 30
0.0
  9
$PLIMCHECK
 70
     0
  9
$PEXTMIN
 10
40.98924856185914
 20
28.28924942016602
 30
0.0
  9
$PEXTMAX
 10
368.9032370567322
 20
254.6032447814941
 30
0.0
  9
$PLIMMIN
 10
-5.873749732971191
 20
-8.286766052246091
  9
$PLIMMAX
 10
414.1152334213257
 20
288.7027359008789
  9
$UNITMODE
 70
     0
  9
$VISRETAIN
 70
     1
  9
$PLINEGEN
 70
     0
  9
$PSLTSCALE
 70
     1
  9
$TREEDEPTH
 70
  3020
  9
$CMLSTYLE
  2
STANDARD
  9
$CMLJUST
 70
     0
  9
$CMLSCALE
 40
20.0
  9
$PROXYGRAPHICS
 70
     1
  9
$MEASUREMENT
 70
     1
  9
$CELWEIGHT
370
    -1
  9
$ENDCAPS
280
     0
  9
$JOINSTYLE
280
     0
  9
$LWDISPLAY
290
     0
  9
$INSUNITS
 70
     0
  9
$HYPERLINKBASE
  1

  9
$STYLESHEET
  1

  9
$XEDIT
290
     1
  9
$CEPSNTYPE
380
     0
  9
$PSTYLEMODE
290
     1
  9
$FINGERPRINTGUID
  2
{584A8C4C-C69E-11D4-BBE8-00A0C93D4840}
  9
$VERSIONGUID
  2
{299AD538-BAB2-AA4B-8A51-F45D953DEFBC}
  9
$EXTNAMES
290
     1
  9
$PSVPSCALE
 40
0.0
  9
$OLESTARTUP
290
     0
  0
ENDSEC
  0
SECTION
  2
CLASSES
  0
CLASS
  1
DICTIONARYVAR
  2
AcDbDictionaryVar
  3
ObjectDBX Classes
 90
        0
280
     0
281
     0
  0
CLASS
  1
ACDBDICTIONARYWDFLT
  2
AcDbDictionaryWithDefault
  3
ObjectDBX Classes
 90
        0
280
     0
281
     0
  0
CLASS
  1
ACDBPLACEHOLDER
  2
AcDbPlaceHolder
  3
ObjectDBX Classes
 90
        0
280
     0
281
     0
  0
CLASS
  1
LAYOUT
  2
AcDbLayout
  3
ObjectDBX Classes
 90
        0
280
     0
281
     0
  0
CLASS
  1
MATERIAL
  2
AcDbMaterial
  3
ObjectDBX Classes
 90
     1153
280
     0
281
     0
  0
CLASS
  1
VISUALSTYLE
  2
AcDbVisualStyle
  3
ObjectDBX Classes
 90
     4095
280
     0
281
     0
  0
CLASS
  1
TABLESTYLE
  2
AcDbTableStyle
  3
ObjectDBX Classes
 90
     4095
280
     0
281
     0
  0
CLASS
  1
SCALE
  2
AcDbScale
  3
ObjectDBX Classes
 90
     1153
280
     0
281
     0
  0
CLASS
  1
MLEADERSTYLE
  2
AcDbMLeaderStyle
  3
ACDB_MLEADERSTYLE_CLASS
 90
     4095
280
     0
281
     0
  0
CLASS
  1
ACDBSECTIONVIEWSTYLE
  2
AcDbSectionViewStyle
  3
ObjectDBX Classes
 90
     1025
280
     0
281
     0
  0
CLASS
  1
ACDBDETAILVIEWSTYLE
  2
AcDbDetailViewStyle
  3
ObjectDBX Classes
 90
     1025
280
     0
281
     0
  0
CLASS
  1
CELLSTYLEMAP
  2
AcDbCellStyleMap
  3
ObjectDBX Classes
 90
     1152
280
     0
281
     0
  0
CLASS
  1
SORTENTSTABLE
  2
AcDbSortentsTable
  3
ObjectDBX Classes
 90
    32768
280
     0
281
     0
  0
CLASS
  1
MULTILEADER
  2
AcDbMLeader
  3
ACDB_MLEADER_CLASS
 90
    33793
280
     0
281
     1
  0
ENDSEC
  0
SECTION
  2
TABLES
  0
TABLE
  2
VPORT
  5
8
102
{ACAD_XDICTIONARY
360
4EE8
102
}
330
0
100
AcDbSymbolTable
 70
     1
  0
VPORT
  5
4E62
330
8
100
AcDbSymbolTableRecord
100
AcDbViewportTableRecord
  2
*Active
 70
     0
 10
0.0
 20
0.0
 11
1.0
 21
1.0
 12
215.2362851800614
 22
64.90576200036537
 13
0.0
 23
0.0
 14
5.0
 24
5.0
 15
5.0
 25
5.0
 16
0.0
 26
0.0
 36
1.0
 17
0.0
 27
0.0
 37
0.0
 40
105.9230857519119
 41
2.270742358078602
 42
50.0
 43
0.0
 44
0.0
 50
0.0
 51
0.0
 71
     0
 72
   100
 73
     1
 74
     1
 75
     0
 76
     0
 77
     0
 78
     0
281
     0
 65
     1
110
0.0
120
0.0
130
0.0
111
1.0
121
0.0
131
0.0
112
0.0
122
1.0
132
0.0
 79
     0
146
0.0
1001
ACAD_NAV_VCDISPLAY
1070
     3
  0
ENDTAB
  0
TABLE
  2
LTYPE
  5
5
330
0
100
AcDbSymbolTable
 70
     7
  0
LTYPE
  5
12
330
5
100
AcDbSymbolTableRecord
100
AcDbLinetypeTableRecord
  2
BYBLOCK
 70
     0
  3

 72
    65
 73
     0
 40
0.0
  0
LTYPE
  5
13
330
5
100
AcDbSymbolTableRecord
100
AcDbLinetypeTableRecord
  2
BYLAYER
 70
     0
  3

 72
    65
 73
     0
 40
0.0
  0
LTYPE
  5
14
330
5
100
AcDbSymbolTableRecord
100
AcDbLinetypeTableRecord
  2
CONTINUOUS
 70
     0
  3
Solid line
 72
    65
 73
     0
 40
0.0
  0
LTYPE
  5
560D
330
5
100
AcDbSymbolTableRecord
100
AcDbLinetypeTableRecord
  2
DASHED2
 70
     0
  3
_ _ _ _ _ _ _ _ _ _ _ _ _ _ _ _ _ _ _ _ _ _ _ _
 72
    65
 73
     2
 40
0.375
 49
0.25
 74
     0
 49
-0.125
 74
     0
  0
LTYPE
  5
560E
330
5
100
AcDbSymbolTableRecord
100
AcDbLinetypeTableRecord
  2
PHANTOM2
 70
     0
  3
--------  -  -  --------  -  -  
 72
    65
 73
     6
 40
20.0
 49
10.0
 74
     0
 49
-2.5
 74
     0
 49
1.25
 74
     0
 49
-2.5
 74
     0
 49
1.25
 74
     0
 49
-2.5
 74
     0
  0
LTYPE
  5
560F
330
5
100
AcDbSymbolTableRecord
100
AcDbLinetypeTableRecord
  2
CENTERX3
 70
     0
  3
________  _  ________  _  ________  _  ________
 72
    65
 73
     4
 40
13.25
 49
12.5
 74
     0
 49
-0.25
 74
     0
 49
0.25
 74
     0
 49
-0.25
 74
     0
  0
LTYPE
  5
5610
330
5
100
AcDbSymbolTableRecord
100
AcDbLinetypeTableRecord
  2
PHANTOM
 70
     0
  3
______  __  __  ______  __  __  ______  __  __ 
 72
    65
 73
     6
 40
2.5
 49
1.25
 74
     0
 49
-0.25
 74
     0
 49
0.25
 74
     0
 49
-0.25
 74
     0
 49
0.25
 74
     0
 49
-0.25
 74
     0
  0
LTYPE
  5
5611
330
5
100
AcDbSymbolTableRecord
100
AcDbLinetypeTableRecord
  2
LC
 70
     0
  3
LC
 72
    65
 73
     0
 40
0.0
  0
ENDTAB
  0
TABLE
  2
LAYER
  5
2
102
{ACAD_XDICTIONARY
360
4F40
102
}
330
0
100
AcDbSymbolTable
 70
    18
  0
LAYER
  5
E
102
{ACAD_XDICTIONARY
360
4EDD
102
}
330
2
100
AcDbSymbolTableRecord
100
AcDbLayerTableRecord
  2
0
 70
     0
 62
     7
  6
CONTINUOUS
370
    -3
390
4DF9
  0
LAYER
  5
36
102
{ACAD_XDICTIONARY
360
4EDF
102
}
330
2
100
AcDbSymbolTableRecord
100
AcDbLayerTableRecord
  2
FLAME
 70
     0
 62
     2
  6
CONTINUOUS
370
    -3
390
4DF9
  0
LAYER
  5
37
102
{ACAD_XDICTIONARY
360
4EE1
102
}
330
2
100
AcDbSymbolTableRecord
100
AcDbLayerTableRecord
  2
SPEC
 70
     0
 62
     9
  6
CONTINUOUS
370
    -3
390
4DF9
  0
LAYER
  5
52
330
2
100
AcDbSymbolTableRecord
100
AcDbLayerTableRecord
  2
DEFPOINTS
 70
     0
 62
     7
  6
CONTINUOUS
290
     0
370
    -3
390
4DF9
  0
LAYER
  5
4F3A
330
2
100
AcDbSymbolTableRecord
100
AcDbLayerTableRecord
  2
HONTAI
 70
     0
 62
     2
  6
CONTINUOUS
370
    -3
390
4DF9
  0
LAYER
  5
4F3B
330
2
100
AcDbSymbolTableRecord
100
AcDbLayerTableRecord
  2
HON
 70
     0
 62
     9
  6
CONTINUOUS
370
    -3
390
4DF9
  0
LAYER
  5
4F3C
102
{ACAD_XDICTIONARY
360
4F3D
102
}
330
2
100
AcDbSymbolTableRecord
100
AcDbLayerTableRecord
  2
OTHER
 70
     0
 62
     7
  6
CONTINUOUS
370
    -3
390
4DF9
  0
LAYER
  5
5142
330
2
100
AcDbSymbolTableRecord
100
AcDbLayerTableRecord
  2
1_HONTAI
 70
     0
 62
     7
  6
CONTINUOUS
370
    -3
390
4DF9
  0
LAYER
  5
5143
330
2
100
AcDbSymbolTableRecord
100
AcDbLayerTableRecord
  2
_HONTAI
 70
     0
 62
     7
  6
CONTINUOUS
370
    -3
390
4DF9
  0
LAYER
  5
5612
102
{ACAD_XDICTIONARY
360
5613
102
}
330
2
100
AcDbSymbolTableRecord
100
AcDbLayerTableRecord
  2
CL
 70
     0
 62
     9
  6
CENTERX3
370
    -3
390
4DF9
  0
LAYER
  5
5614
102
{ACAD_XDICTIONARY
360
5615
102
}
330
2
100
AcDbSymbolTableRecord
100
AcDbLayerTableRecord
  2
DIM
 70
     0
 62
     9
  6
CONTINUOUS
370
    -3
390
4DF9
  0
LAYER
  5
5616
102
{ACAD_XDICTIONARY
360
5617
102
}
330
2
100
AcDbSymbolTableRecord
100
AcDbLayerTableRecord
  2
TOUGU
 70
     0
 62
     3
  6
CONTINUOUS
370
    -3
390
4DF9
  0
LAYER
  5
5618
330
2
100
AcDbSymbolTableRecord
100
AcDbLayerTableRecord
  2
kakure
 70
     0
 62
     1
  6
DASHED2
370
    -3
390
4DF9
  0
LAYER
  5
5619
330
2
100
AcDbSymbolTableRecord
100
AcDbLayerTableRecord
  2
KENCHIKU
 70
     0
 62
     9
  6
PHANTOM2
370
    -3
390
4DF9
  0
LAYER
  5
561A
330
2
100
AcDbSymbolTableRecord
100
AcDbLayerTableRecord
  2
HYOUDAI
 70
     0
 62
     7
  6
CONTINUOUS
370
    -3
390
4DF9
  0
LAYER
  5
561B
330
2
100
AcDbSymbolTableRecord
100
AcDbLayerTableRecord
  2
SOUZOU
 70
     0
 62
     8
  6
PHANTOM
370
    -3
390
4DF9
  0
LAYER
  5
561C
330
2
100
AcDbSymbolTableRecord
100
AcDbLayerTableRecord
  2
VIEW
 70
     0
 62
     1
  6
CONTINUOUS
290
     0
370
    -3
390
4DF9
  0
LAYER
  5
7D32
330
2
100
AcDbSymbolTableRecord
100
AcDbLayerTableRecord
  2
SHADE
 70
     0
 62
     4
  6
CONTINUOUS
370
    -3
390
4DF9
  0
ENDTAB
  0
TABLE
  2
STYLE
  5
3
330
0
100
AcDbSymbolTable
 70
     4
  0
STYLE
  5
F
330
3
100
AcDbSymbolTableRecord
100
AcDbTextStyleTableRecord
  2
STANDARD
 70
     0
 40
0.0
 41
1.0
 50
0.0
 71
     0
 42
3.0
  3
txt.shx
  4
bigfont.shx
  0
STYLE
  5
5144
330
3
100
AcDbSymbolTableRecord
100
AcDbTextStyleTableRecord
  2
スタイル3
 70
     0
 40
0.0
 41
1.0
 50
0.0
 71
     0
 42
2.5
  3
acaderef.shx
  4
bigfont.shx
  0
STYLE
  5
561D
330
3
100
AcDbSymbolTableRecord
100
AcDbTextStyleTableRecord
  2
\U+FF7D\U+FF80\U+FF72\U+FF992
 70
     0
 40
0.0
 41
1.0
 50
0.0
 71
     0
 42
3.0
  3
HGSGothicM.ttf
  4

1001
ACAD
1000
HGSGothicM
1071
    32818
  0
STYLE
  5
561E
330
3
100
AcDbSymbolTableRecord
100
AcDbTextStyleTableRecord
  2
ゴシック
 70
     0
 40
0.0
 41
1.0
 50
0.0
 71
     0
 42
6.0
  3

  4

1001
ACAD
1000
MS PGothic
1071
    32818
  0
ENDTAB
  0
TABLE
  2
VIEW
  5
6
330
0
100
AcDbSymbolTable
 70
     0
  0
ENDTAB
  0
TABLE
  2
UCS
  5
7
330
0
100
AcDbSymbolTable
 70
     0
  0
ENDTAB
  0
TABLE
  2
APPID
  5
9
330
0
100
AcDbSymbolTable
 70
    10
  0
APPID
  5
10
330
9
100
AcDbSymbolTableRecord
100
AcDbRegAppTableRecord
  2
ACAD
 70
     0
  0
APPID
  5
24
330
9
100
AcDbSymbolTableRecord
100
AcDbRegAppTableRecord
  2
CONTENTTABDATA
 70
     0
  0
APPID
  5
25
330
9
100
AcDbSymbolTableRecord
100
AcDbRegAppTableRecord
  2
CONTENTCURRENTTAB
 70
     0
  0
APPID
  5
4EE3
330
9
100
AcDbSymbolTableRecord
100
AcDbRegAppTableRecord
  2
ACAD_NAV_VCDISPLAY
 70
     0
  0
APPID
  5
4F26
330
9
100
AcDbSymbolTableRecord
100
AcDbRegAppTableRecord
  2
ACAD_MLEADERVER
 70
     0
  0
APPID
  5
4F3F
330
9
100
AcDbSymbolTableRecord
100
AcDbRegAppTableRecord
  2
ACAD_PSEXT
 70
     0
  0
APPID
  5
50AA
330
9
100
AcDbSymbolTableRecord
100
AcDbRegAppTableRecord
  2
ACAD_EXEMPT_FROM_CAD_STANDARDS
 70
     0
  0
APPID
  5
5146
330
9
100
AcDbSymbolTableRecord
100
AcDbRegAppTableRecord
  2
ACAD_DSTYLE_DIMJAG
 70
     0
  0
APPID
  5
5147
330
9
100
AcDbSymbolTableRecord
100
AcDbRegAppTableRecord
  2
ACAD_DSTYLE_DIMTALN
 70
     0
  0
APPID
  5
5622
330
9
100
AcDbSymbolTableRecord
100
AcDbRegAppTableRecord
  2
AcadAnnotative
 70
     0
  0
ENDTAB
  0
TABLE
  2
DIMSTYLE
  5
A
330
0
100
AcDbSymbolTable
 70
     7
100
AcDbDimStyleTable
 71
     1
340
1D
  0
DIMSTYLE
105
1D
330
A
100
AcDbSymbolTableRecord
100
AcDbDimStyleTableRecord
  2
STANDARD
 70
     0
340
F
  0
DIMSTYLE
105
4F3E
330
A
100
AcDbSymbolTableRecord
100
AcDbDimStyleTableRecord
  2
S10
 70
     0
 40
10.0
 41
3.0
 42
1.0
 43
7.0
 44
1.0
 73
     0
 74
     0
 77
     1
 78
     8
 79
     2
140
3.0
141
0.1
144
-1.0
147
1.0
172
     1
176
     8
177
     8
178
     2
179
     4
279
     1
284
     8
340
F
  0
DIMSTYLE
105
5145
330
A
100
AcDbSymbolTableRecord
100
AcDbDimStyleTableRecord
  2
S4
 70
     0
 40
4.0
 41
2.5
 42
2.0
 43
7.0
 44
2.0
 73
     0
 74
     0
 77
     1
 78
     8
 79
     2
140
2.5
141
0.1875
144
-1.0
147
1.0
171
     1
172
     1
176
     9
177
     9
178
     2
179
     4
274
     1
283
     0
288
     1
289
     1
340
F
1001
ACAD_DSTYLE_DIMJAG
1070
   388
1040
1.5
1001
ACAD_DSTYLE_DIMTALN
1070
   392
1070
     0
  0
DIMSTYLE
105
561F
330
A
100
AcDbSymbolTableRecord
100
AcDbDimStyleTableRecord
  2
S2
 70
     0
 40
2.0
 41
2.0
 42
2.0
 43
7.0
 44
2.0
 73
     0
 74
     0
 77
     1
 78
     8
 79
     2
140
3.0
141
0.1875
147
1.0
171
     1
172
     1
176
     8
177
     8
178
     2
179
     4
271
     2
272
     2
274
     1
283
     0
289
     1
340
F
  0
DIMSTYLE
105
5620
330
A
100
AcDbSymbolTableRecord
100
AcDbDimStyleTableRecord
  2
ARCH
 70
     0
 41
2.0
 42
2.0
 43
7.0
 44
2.0
 73
     0
 74
     0
 77
     1
140
2.5
141
0.1875
144
-1.0
147
1.0
171
     1
172
     1
176
     9
177
     9
178
     2
271
     0
272
     0
274
     1
283
     0
288
     1
289
     1
340
F
1001
ACAD_DSTYLE_DIMJAG
1070
   388
1040
1.5
1001
ACAD_DSTYLE_DIMTALN
1070
   392
1070
     0
  0
DIMSTYLE
105
5621
330
A
100
AcDbSymbolTableRecord
100
AcDbDimStyleTableRecord
  2
S6
 70
     0
 40
6.0
 41
2.0
 42
2.0
 43
7.0
 44
2.0
 73
     0
 74
     0
 77
     1
 78
     8
 79
     2
140
3.0
141
0.1875
144
-1.0
147
1.0
171
     1
172
     1
176
     8
177
     8
178
     2
179
     4
274
     1
283
     0
289
     1
340
F
1001
ACAD_DSTYLE_DIMJAG
1070
   388
1040
1.5
1001
ACAD_DSTYLE_DIMTALN
1070
   392
1070
     0
  0
DIMSTYLE
105
7D33
330
A
100
AcDbSymbolTableRecord
100
AcDbDimStyleTableRecord
  2
S3
 70
     0
 40
3.0
 41
2.0
 42
2.0
 43
7.0
 44
2.0
 73
     0
 74
     0
 77
     1
 78
     8
 79
     2
140
3.0
141
0.1875
144
-1.0
147
1.0
171
     1
172
     1
176
     8
177
     8
178
     2
179
     4
274
     1
283
     0
288
     1
289
     1
340
F
1001
ACAD_DSTYLE_DIMJAG
1070
   388
1040
1.5
1001
ACAD_DSTYLE_DIMTALN
1070
   392
1070
     0
  0
ENDTAB
  0
TABLE
  2
BLOCK_RECORD
  5
1
330
0
100
AcDbSymbolTable
 70
     0
  0
BLOCK_RECORD
  5
18
102
{ACAD_XDICTIONARY
360
4E52
102
}
330
1
100
AcDbSymbolTableRecord
100
AcDbBlockTableRecord
  2
*MODEL_SPACE
340
4DFC
  0
BLOCK_RECORD
  5
15
102
{ACAD_XDICTIONARY
360
4E50
102
}
330
1
100
AcDbSymbolTableRecord
100
AcDbBlockTableRecord
  2
*PAPER_SPACE
340
4DFD
  0
ENDTAB
  0
ENDSEC
  0
SECTION
  2
BLOCKS
  0
BLOCK
  5
19
330
18
100
AcDbEntity
  8
0
100
AcDbBlockBegin
  2
*MODEL_SPACE
 70
     0
 10
0.0
 20
0.0
 30
0.0
  3
*MODEL_SPACE
  1

  0
ENDBLK
  5
1A
330
18
100
AcDbEntity
  8
0
100
AcDbBlockEnd
  0
BLOCK
  5
16
330
15
100
AcDbEntity
 67
     1
  8
0
100
AcDbBlockBegin
  2
*PAPER_SPACE
 70
     0
 10
0.0
 20
0.0
 30
0.0
  3
*PAPER_SPACE
  1

  0
ENDBLK
  5
17
330
15
100
AcDbEntity
 67
     1
  8
0
100
AcDbBlockEnd
  0
ENDSEC
  0
SECTION
  2
ENTITIES
  0
LINE
  5
7F13
330
18
100
AcDbEntity
  8
FLAME
100
AcDbLine
 10
260.2349455807137
 20
117.403656561182
 30
0.0
 11
260.2349455807137
 21
12.40365656118206
 31
0.0
  0
LINE
  5
7F14
330
18
100
AcDbEntity
  8
FLAME
100
AcDbLine
 10
170.2349455807136
 20
12.40365656118206
 30
0.0
 11
170.2349455807136
 21
117.403656561182
 31
0.0
  0
LINE
  5
7F15
330
18
100
AcDbEntity
  8
FLAME
100
AcDbLine
 10
260.2349455807137
 20
12.40365656118206
 30
0.0
 11
170.2349455807136
 21
12.40365656118206
 31
0.0
  0
TEXT
  5
7F16
330
18
100
AcDbEntity
  8
SPEC
100
AcDbText
 10
173.6120283952943
 20
23.75348840749189
 30
0.0
 40
2.5
  1
KC3655
100
AcDbText
  0
TEXT
  5
7F17
330
18
100
AcDbEntity
  8
SPEC
100
AcDbText
 10
173.6120283952943
 20
18.75348840749188
 30
0.0
 40
2.5
  1
E17 電球型LED\U+FF97\U+FF9D\U+FF8C\U+FF9F LDA8L×2灯
100
AcDbText
  0
LINE
  5
7F18
330
18
100
AcDbEntity
  8
FLAME
100
AcDbLine
 10
260.2349455807137
 20
17.40365656118206
 30
0.0
 11
170.2349455807136
 21
17.40365656118206
 31
0.0
  0
LINE
  5
7F19
330
18
100
AcDbEntity
  8
FLAME
100
AcDbLine
 10
260.2349455807137
 20
22.40365656118206
 30
0.0
 11
170.2349455807136
 21
22.40365656118206
 31
0.0
  0
LINE
  5
7F1A
330
18
100
AcDbEntity
  8
FLAME
100
AcDbLine
 10
260.2349455807137
 20
27.40365656118206
 30
0.0
 11
170.2349455807136
 21
27.40365656118206
 31
0.0
  0
LINE
  5
7F1B
330
18
100
AcDbEntity
  8
FLAME
100
AcDbLine
 10
260.2349455807137
 20
117.403656561182
 30
0.0
 11
170.2349455807136
 21
117.403656561182
 31
0.0
  0
LINE
  5
7F1C
330
18
100
AcDbEntity
  8
HON
100
AcDbLine
 10
181.1219707278699
 20
88.9569926904403
 30
0.0
 11
180.8796997490674
 21
86.23687092463729
 31
0.0
  0
LINE
  5
7F1D
330
18
100
AcDbEntity
  8
HON
100
AcDbLine
 10
181.5733627276033
 20
84.42726013378957
 30
0.0
 11
189.232268196137
 21
79.13195378051273
 31
0.0
  0
LINE
  5
7F1E
330
18
100
AcDbEntity
  8
HON
100
AcDbLine
 10
215.1700017820488
 20
94.84376126017991
 30
0.0
 11
213.7306491066695
 21
94.20002184714098
 31
0.0
  0
LINE
  5
7F1F
330
18
100
AcDbEntity
  8
HON
100
AcDbLine
 10
213.7306491066695
 20
94.20002184714098
 30
0.0
 11
212.4188753569026
 21
94.82566055123403
 31
0.0
  0
LINE
  5
7F20
330
18
100
AcDbEntity
  8
HON
100
AcDbLine
 10
212.4188753569026
 20
94.82566055123403
 30
0.0
 11
211.0318838888645
 21
94.14849342083357
 31
0.0
  0
LINE
  5
7F21
330
18
100
AcDbEntity
  8
HON
100
AcDbLine
 10
211.0318838888645
 20
94.14849342083357
 30
0.0
 11
209.6846896484578
 21
94.77144832203135
 31
0.0
  0
LINE
  5
7F22
330
18
100
AcDbEntity
  8
HON
100
AcDbLine
 10
209.6846896484578
 20
94.77144832203135
 30
0.0
 11
208.3405304694982
 21
94.10644946357729
 31
0.0
  0
LINE
  5
7F23
330
18
100
AcDbEntity
  8
HON
100
AcDbLine
 10
208.3405304694982
 20
94.10644946357729
 30
0.0
 11
206.9842767241946
 21
94.68139190824217
 31
0.0
  0
LINE
  5
7F24
330
18
100
AcDbEntity
  8
HON
100
AcDbLine
 10
206.9842767241946
 20
94.68139190824217
 30
0.0
 11
205.6536547475346
 21
93.99043821424015
 31
0.0
  0
LINE
  5
7F25
330
18
100
AcDbEntity
  8
HON
100
AcDbLine
 10
205.6536547475346
 20
93.99043821424015
 30
0.0
 11
204.3342599411219
 21
94.55592917985336
 31
0.0
  0
LINE
  5
7F26
330
18
100
AcDbEntity
  8
HON
100
AcDbLine
 10
204.3342599411219
 20
94.55592917985336
 30
0.0
 11
202.9696751248787
 21
93.86183727834009
 31
0.0
  0
LINE
  5
7F27
330
18
100
AcDbEntity
  8
HON
100
AcDbLine
 10
202.9696751248787
 20
93.86183727834009
 30
0.0
 11
201.7509484517643
 21
94.39565603983352
 31
0.0
  0
LINE
  5
7F28
330
18
100
AcDbEntity
  8
HON
100
AcDbLine
 10
201.7509484517643
 20
94.39565603983352
 30
0.0
 11
200.5213263456146
 21
93.66987472717005
 31
0.0
  0
LINE
  5
7F29
330
18
100
AcDbEntity
  8
HON
100
AcDbLine
 10
200.5213263456146
 20
93.66987472717005
 30
0.0
 11
199.2502347660295
 21
94.20130669466265
 31
0.0
  0
LINE
  5
7F2A
330
18
100
AcDbEntity
  8
HON
100
AcDbLine
 10
199.2502347660295
 20
94.20130669466265
 30
0.0
 11
198.1726905657899
 21
93.4905372973742
 31
0.0
  0
LINE
  5
7F2B
330
18
100
AcDbEntity
  8
HON
100
AcDbLine
 10
198.1726905657899
 20
93.4905372973742
 30
0.0
 11
196.8474940303342
 21
93.97372364476064
 31
0.0
  0
LINE
  5
7F2C
330
18
100
AcDbEntity
  8
HON
100
AcDbLine
 10
196.8474940303342
 20
93.97372364476064
 30
0.0
 11
195.8404731531184
 21
93.22537698920291
 31
0.0
  0
LINE
  5
7F2D
330
18
100
AcDbEntity
  8
HON
100
AcDbLine
 10
195.8404731531184
 20
93.22537698920291
 30
0.0
 11
194.5574850076166
 21
93.71381184220513
 31
0.0
  0
LINE
  5
7F2E
330
18
100
AcDbEntity
  8
HON
100
AcDbLine
 10
194.5574850076166
 20
93.71381184220513
 30
0.0
 11
193.5557355960784
 21
92.94992256219552
 31
0.0
  0
LINE
  5
7F2F
330
18
100
AcDbEntity
  8
HON
100
AcDbLine
 10
193.5557355960784
 20
92.94992256219552
 30
0.0
 11
192.3942510664158
 21
93.42246643376961
 31
0.0
  0
LINE
  5
7F30
330
18
100
AcDbEntity
  8
HON
100
AcDbLine
 10
192.3942510664158
 20
93.42246643376961
 30
0.0
 11
191.4724171200189
 21
92.65295458346896
 31
0.0
  0
LINE
  5
7F31
330
18
100
AcDbEntity
  8
HON
100
AcDbLine
 10
191.4724171200189
 20
92.65295458346896
 30
0.0
 11
190.371027111117
 21
93.10045463896745
 31
0.0
  0
LINE
  5
7F32
330
18
100
AcDbEntity
  8
HON
100
AcDbLine
 10
190.371027111117
 20
93.10045463896745
 30
0.0
 11
189.5348837397989
 21
92.33597668835022
 31
0.0
  0
LINE
  5
7F33
330
18
100
AcDbEntity
  8
HON
100
AcDbLine
 10
189.5348837397989
 20
92.33597668835022
 30
0.0
 11
188.5001243774579
 21
92.74820474162948
 31
0.0
  0
LINE
  5
7F34
330
18
100
AcDbEntity
  8
HON
100
AcDbLine
 10
188.5001243774579
 20
92.74820474162948
 30
0.0
 11
187.7229693110669
 21
91.94884842164242
 31
0.0
  0
LINE
  5
7F35
330
18
100
AcDbEntity
  8
HON
100
AcDbLine
 10
187.7229693110669
 20
91.94884842164242
 30
0.0
 11
186.7928192591819
 21
92.36540660484456
 31
0.0
  0
LINE
  5
7F36
330
18
100
AcDbEntity
  8
HON
100
AcDbLine
 10
186.7928192591819
 20
92.36540660484456
 30
0.0
 11
186.111610344283
 21
91.58225056046353
 31
0.0
  0
LINE
  5
7F37
330
18
100
AcDbEntity
  8
HON
100
AcDbLine
 10
186.111610344283
 20
91.58225056046353
 30
0.0
 11
185.2591702241818
 21
91.95015176600714
 31
0.0
  0
LINE
  5
7F38
330
18
100
AcDbEntity
  8
HON
100
AcDbLine
 10
185.2591702241818
 20
91.95015176600714
 30
0.0
 11
184.7218792346041
 21
91.15666392844081
 31
0.0
  0
LINE
  5
7F39
330
18
100
AcDbEntity
  8
HON
100
AcDbLine
 10
184.7218792346041
 20
91.15666392844081
 30
0.0
 11
183.9076549155754
 21
91.49678023757292
 31
0.0
  0
LINE
  5
7F3A
330
18
100
AcDbEntity
  8
HON
100
AcDbLine
 10
183.9076549155754
 20
91.49678023757292
 30
0.0
 11
183.5545099364055
 21
90.73917379436966
 31
0.0
  0
LINE
  5
7F3B
330
18
100
AcDbEntity
  8
HON
100
AcDbLine
 10
183.5545099364055
 20
90.73917379436966
 30
0.0
 11
182.7365212757388
 21
91.0182315638301
 31
0.0
  0
LINE
  5
7F3C
330
18
100
AcDbEntity
  8
HON
100
AcDbLine
 10
182.7365212757388
 20
91.0182315638301
 30
0.0
 11
182.4939970926818
 21
90.25246811600004
 31
0.0
  0
LINE
  5
7F3D
330
18
100
AcDbEntity
  8
HON
100
AcDbLine
 10
182.4939970926818
 20
90.25246811600004
 30
0.0
 11
181.7628124269915
 21
90.36126820895038
 31
0.0
  0
LINE
  5
7F3E
330
18
100
AcDbEntity
  8
HON
100
AcDbLine
 10
181.7628124269915
 20
90.36126820895038
 30
0.0
 11
181.9540325130431
 21
89.8457830766763
 31
0.0
  0
LINE
  5
7F3F
330
18
100
AcDbEntity
  8
HON
100
AcDbLine
 10
181.9540325130431
 20
89.8457830766763
 30
0.0
 11
181.4888962977868
 21
90.09509431124184
 31
0.0
  0
LINE
  5
7F40
330
18
100
AcDbEntity
  8
HON
100
AcDbLine
 10
181.4888962977868
 20
90.09509431124184
 30
0.0
 11
181.5893088193545
 21
89.57495521993473
 31
0.0
  0
LINE
  5
7F41
330
18
100
AcDbEntity
  8
HON
100
AcDbLine
 10
181.5893088193545
 20
89.57495521993473
 30
0.0
 11
181.2625400222161
 21
89.72837171051537
 31
0.0
  0
LINE
  5
7F42
330
18
100
AcDbEntity
  8
HON
100
AcDbLine
 10
181.2625400222161
 20
89.72837171051537
 30
0.0
 11
181.4074651942458
 21
89.35300759680172
 31
0.0
  0
LINE
  5
7F43
330
18
100
AcDbEntity
  8
HON
100
AcDbLine
 10
181.4074651942458
 20
89.35300759680172
 30
0.0
 11
181.1501944214917
 21
89.30049379191473
 31
0.0
  0
LINE
  5
7F44
330
18
100
AcDbEntity
  8
HON
100
AcDbLine
 10
181.1501944214917
 20
89.30049379191473
 30
0.0
 11
181.2916678435115
 21
89.12969351853803
 31
0.0
  0
LINE
  5
7F45
330
18
100
AcDbEntity
  8
HON
100
AcDbLine
 10
215.1700017820488
 20
91.66707795964862
 30
0.0
 11
213.50502396667
 21
89.67043687049022
 31
0.0
  0
LINE
  5
7F46
330
18
100
AcDbEntity
  8
HON
100
AcDbLine
 10
213.50502396667
 20
89.67043687049022
 30
0.0
 11
212.4296330846694
 21
91.65928319749832
 31
0.0
  0
LINE
  5
7F47
330
18
100
AcDbEntity
  8
HON
100
AcDbLine
 10
212.4296330846694
 20
91.65928319749832
 30
0.0
 11
210.5872733395492
 21
89.68502336414053
 31
0.0
  0
LINE
  5
7F48
330
18
100
AcDbEntity
  8
HON
100
AcDbLine
 10
210.5872733395492
 20
89.68502336414053
 30
0.0
 11
209.6934900585231
 21
91.58167248134191
 31
0.0
  0
LINE
  5
7F49
330
18
100
AcDbEntity
  8
HON
100
AcDbLine
 10
209.6934900585231
 20
91.58167248134191
 30
0.0
 11
208.0260235256603
 21
89.21425775471083
 31
0.0
  0
LINE
  5
7F4A
330
18
100
AcDbEntity
  8
HON
100
AcDbLine
 10
208.0260235256603
 20
89.21425775471083
 30
0.0
 11
207.0165095504974
 21
91.51381200115769
 31
0.0
  0
LINE
  5
7F4B
330
18
100
AcDbEntity
  8
HON
100
AcDbLine
 10
207.0165095504974
 20
91.51381200115769
 30
0.0
 11
205.4375200947772
 21
89.42193292736623
 31
0.0
  0
LINE
  5
7F4C
330
18
100
AcDbEntity
  8
HON
100
AcDbLine
 10
205.4375200947772
 20
89.42193292736623
 30
0.0
 11
204.3718166353858
 21
91.5018638411791
 31
0.0
  0
LINE
  5
7F4D
330
18
100
AcDbEntity
  8
HON
100
AcDbLine
 10
204.3718166353858
 20
91.5018638411791
 30
0.0
 11
202.7788236914087
 21
89.28481295121015
 31
0.0
  0
LINE
  5
7F4E
330
18
100
AcDbEntity
  8
HON
100
AcDbLine
 10
202.7788236914087
 20
89.28481295121015
 30
0.0
 11
201.8049290447027
 21
91.24434301531506
 31
0.0
  0
LINE
  5
7F4F
330
18
100
AcDbEntity
  8
HON
100
AcDbLine
 10
201.8049290447027
 20
91.24434301531506
 30
0.0
 11
200.487329088631
 21
89.12855054060287
 31
0.0
  0
LINE
  5
7F50
330
18
100
AcDbEntity
  8
HON
100
AcDbLine
 10
200.487329088631
 20
89.12855054060287
 30
0.0
 11
199.3152876385768
 21
91.06126511337311
 31
0.0
  0
LINE
  5
7F51
330
18
100
AcDbEntity
  8
HON
100
AcDbLine
 10
199.3152876385768
 20
91.06126511337311
 30
0.0
 11
197.9626314684785
 21
88.92972368356163
 31
0.0
  0
LINE
  5
7F52
330
18
100
AcDbEntity
  8
HON
100
AcDbLine
 10
197.9626314684785
 20
88.92972368356163
 30
0.0
 11
196.9869659906101
 21
90.79075981064011
 31
0.0
  0
LINE
  5
7F53
330
18
100
AcDbEntity
  8
HON
100
AcDbLine
 10
196.9869659906101
 20
90.79075981064011
 30
0.0
 11
195.5001127819134
 21
88.68012021789832
 31
0.0
  0
LINE
  5
7F54
330
18
100
AcDbEntity
  8
HON
100
AcDbLine
 10
195.5001127819134
 20
88.68012021789832
 30
0.0
 11
194.6455014399828
 21
90.6029677820759
 31
0.0
  0
LINE
  5
7F55
330
18
100
AcDbEntity
  8
HON
100
AcDbLine
 10
194.6455014399828
 20
90.6029677820759
 30
0.0
 11
193.3092231662097
 21
88.40784655794482
 31
0.0
  0
LINE
  5
7F56
330
18
100
AcDbEntity
  8
HON
100
AcDbLine
 10
193.3092231662097
 20
88.40784655794482
 30
0.0
 11
192.4944623302065
 21
90.32987514340925
 31
0.0
  0
LINE
  5
7F57
330
18
100
AcDbEntity
  8
HON
100
AcDbLine
 10
192.4944623302065
 20
90.32987514340925
 30
0.0
 11
191.3721058218536
 21
88.14725498790608
 31
0.0
  0
LINE
  5
7F58
330
18
100
AcDbEntity
  8
HON
100
AcDbLine
 10
191.3721058218536
 20
88.14725498790608
 30
0.0
 11
190.4842541360369
 21
90.02897098346943
 31
0.0
  0
LINE
  5
7F59
330
18
100
AcDbEntity
  8
HON
100
AcDbLine
 10
190.4842541360369
 20
90.02897098346943
 30
0.0
 11
189.6137366932373
 21
87.85219546942494
 31
0.0
  0
LINE
  5
7F5A
330
18
100
AcDbEntity
  8
HON
100
AcDbLine
 10
189.6137366932373
 20
87.85219546942494
 30
0.0
 11
188.6276351849149
 21
89.70129664199863
 31
0.0
  0
LINE
  5
7F5B
330
18
100
AcDbEntity
  8
HON
100
AcDbLine
 10
188.6276351849149
 20
89.70129664199863
 30
0.0
 11
188.0364421178194
 21
87.52451863057173
 31
0.0
  0
LINE
  5
7F5C
330
18
100
AcDbEntity
  8
HON
100
AcDbLine
 10
188.0364421178194
 20
87.52451863057173
 30
0.0
 11
186.9366369240972
 21
89.34766861644197
 31
0.0
  0
LINE
  5
7F5D
330
18
100
AcDbEntity
  8
HON
100
AcDbLine
 10
186.9366369240972
 20
89.34766861644197
 30
0.0
 11
186.4621828193187
 21
87.17174264806704
 31
0.0
  0
LINE
  5
7F5E
330
18
100
AcDbEntity
  8
HON
100
AcDbLine
 10
186.4621828193187
 20
87.17174264806704
 30
0.0
 11
185.4226599143323
 21
88.96840613007929
 31
0.0
  0
LINE
  5
7F5F
330
18
100
AcDbEntity
  8
HON
100
AcDbLine
 10
185.4226599143323
 20
88.96840613007929
 30
0.0
 11
185.1832336458694
 21
86.80236884472174
 31
0.0
  0
LINE
  5
7F60
330
18
100
AcDbEntity
  8
HON
100
AcDbLine
 10
185.1832336458694
 20
86.80236884472174
 30
0.0
 11
184.0968565146443
 21
88.56282507179889
 31
0.0
  0
LINE
  5
7F61
330
18
100
AcDbEntity
  8
HON
100
AcDbLine
 10
184.0968565146443
 20
88.56282507179889
 30
0.0
 11
183.9829012277725
 21
86.42848413537809
 31
0.0
  0
LINE
  5
7F62
330
18
100
AcDbEntity
  8
HON
100
AcDbLine
 10
183.9829012277725
 20
86.42848413537809
 30
0.0
 11
182.975487204015
 21
88.13010936468776
 31
0.0
  0
LINE
  5
7F63
330
18
100
AcDbEntity
  8
HON
100
AcDbLine
 10
182.975487204015
 20
88.13010936468776
 30
0.0
 11
183.03259492648
 21
86.01265746841887
 31
0.0
  0
LINE
  5
7F64
330
18
100
AcDbEntity
  8
HON
100
AcDbLine
 10
183.03259492648
 20
86.01265746841887
 30
0.0
 11
182.063742228612
 21
87.65897281620414
 31
0.0
  0
LINE
  5
7F65
330
18
100
AcDbEntity
  8
HON
100
AcDbLine
 10
182.063742228612
 20
87.65897281620414
 30
0.0
 11
182.3530801643621
 21
85.61021735232566
 31
0.0
  0
LINE
  5
7F66
330
18
100
AcDbEntity
  8
HON
100
AcDbLine
 10
182.3530801643621
 20
85.61021735232566
 30
0.0
 11
181.5426619076654
 21
87.27062192279005
 31
0.0
  0
LINE
  5
7F67
330
18
100
AcDbEntity
  8
HON
100
AcDbLine
 10
181.5426619076654
 20
87.27062192279005
 30
0.0
 11
181.9422081028363
 21
85.25512808467897
 31
0.0
  0
LINE
  5
7F68
330
18
100
AcDbEntity
  8
HON
100
AcDbLine
 10
181.9422081028363
 20
85.25512808467897
 30
0.0
 11
181.2627274056751
 21
86.94566801135783
 31
0.0
  0
LINE
  5
7F69
330
18
100
AcDbEntity
  8
HON
100
AcDbLine
 10
181.2627274056751
 20
86.94566801135783
 30
0.0
 11
181.6578556382221
 21
84.84382598833395
 31
0.0
  0
LINE
  5
7F6A
330
18
100
AcDbEntity
  8
HON
100
AcDbLine
 10
181.6578556382221
 20
84.84382598833395
 30
0.0
 11
181.049396864709
 21
86.40957175273502
 31
0.0
  0
LINE
  5
7F6B
330
18
100
AcDbEntity
  8
HON
100
AcDbLine
 10
181.049396864709
 20
86.40957175273502
 30
0.0
 11
181.5992588704914
 21
84.42726116832886
 31
0.0
  0
LINE
  5
7F6C
330
18
100
AcDbEntity
  8
HON
100
AcDbLine
 10
215.1700017820488
 20
91.66707795964862
 30
0.0
 11
213.7306491066695
 21
94.20002184714098
 31
0.0
  0
LINE
  5
7F6D
330
18
100
AcDbEntity
  8
HON
100
AcDbLine
 10
213.7306491066695
 20
94.20002184714098
 30
0.0
 11
212.4296330846694
 21
91.65928319749832
 31
0.0
  0
LINE
  5
7F6E
330
18
100
AcDbEntity
  8
HON
100
AcDbLine
 10
212.4296330846694
 20
91.65928319749832
 30
0.0
 11
211.0318838888645
 21
94.14849342083357
 31
0.0
  0
LINE
  5
7F6F
330
18
100
AcDbEntity
  8
HON
100
AcDbLine
 10
211.0318838888645
 20
94.14849342083357
 30
0.0
 11
209.6934900585231
 21
91.58167248134191
 31
0.0
  0
LINE
  5
7F70
330
18
100
AcDbEntity
  8
HON
100
AcDbLine
 10
209.6934900585231
 20
91.58167248134191
 30
0.0
 11
208.3405304694982
 21
94.10644946357729
 31
0.0
  0
LINE
  5
7F71
330
18
100
AcDbEntity
  8
HON
100
AcDbLine
 10
208.3405304694982
 20
94.10644946357729
 30
0.0
 11
207.0165095504974
 21
91.51381200115769
 31
0.0
  0
LINE
  5
7F72
330
18
100
AcDbEntity
  8
HON
100
AcDbLine
 10
207.0165095504974
 20
91.51381200115769
 30
0.0
 11
205.6536547475346
 21
93.99043821424015
 31
0.0
  0
LINE
  5
7F73
330
18
100
AcDbEntity
  8
HON
100
AcDbLine
 10
205.6536547475346
 20
93.99043821424015
 30
0.0
 11
204.3718166353858
 21
91.5018638411791
 31
0.0
  0
LINE
  5
7F74
330
18
100
AcDbEntity
  8
HON
100
AcDbLine
 10
204.3718166353858
 20
91.5018638411791
 30
0.0
 11
202.9696751248787
 21
93.86183727834009
 31
0.0
  0
LINE
  5
7F75
330
18
100
AcDbEntity
  8
HON
100
AcDbLine
 10
202.9696751248787
 20
93.86183727834009
 30
0.0
 11
201.8049290447027
 21
91.24434301531506
 31
0.0
  0
LINE
  5
7F76
330
18
100
AcDbEntity
  8
HON
100
AcDbLine
 10
201.8049290447027
 20
91.24434301531506
 30
0.0
 11
200.5213263456146
 21
93.66987472717005
 31
0.0
  0
LINE
  5
7F77
330
18
100
AcDbEntity
  8
HON
100
AcDbLine
 10
200.5213263456146
 20
93.66987472717005
 30
0.0
 11
199.3152876385768
 21
91.06126511337311
 31
0.0
  0
LINE
  5
7F78
330
18
100
AcDbEntity
  8
HON
100
AcDbLine
 10
199.3152876385768
 20
91.06126511337311
 30
0.0
 11
198.1726905657899
 21
93.4905372973742
 31
0.0
  0
LINE
  5
7F79
330
18
100
AcDbEntity
  8
HON
100
AcDbLine
 10
198.1726905657899
 20
93.4905372973742
 30
0.0
 11
196.9869659906101
 21
90.79075981064011
 31
0.0
  0
LINE
  5
7F7A
330
18
100
AcDbEntity
  8
HON
100
AcDbLine
 10
196.9869659906101
 20
90.79075981064011
 30
0.0
 11
195.8404731531184
 21
93.22537698920291
 31
0.0
  0
LINE
  5
7F7B
330
18
100
AcDbEntity
  8
HON
100
AcDbLine
 10
195.8404731531184
 20
93.22537698920291
 30
0.0
 11
194.6455014399828
 21
90.6029677820759
 31
0.0
  0
LINE
  5
7F7C
330
18
100
AcDbEntity
  8
HON
100
AcDbLine
 10
194.6455014399828
 20
90.6029677820759
 30
0.0
 11
193.5557355960784
 21
92.94992256219552
 31
0.0
  0
LINE
  5
7F7D
330
18
100
AcDbEntity
  8
HON
100
AcDbLine
 10
193.5557355960784
 20
92.94992256219552
 30
0.0
 11
192.4944623302065
 21
90.32987514340925
 31
0.0
  0
LINE
  5
7F7E
330
18
100
AcDbEntity
  8
HON
100
AcDbLine
 10
192.4944623302065
 20
90.32987514340925
 30
0.0
 11
191.4724171200189
 21
92.65295458346896
 31
0.0
  0
LINE
  5
7F7F
330
18
100
AcDbEntity
  8
HON
100
AcDbLine
 10
191.4724171200189
 20
92.65295458346896
 30
0.0
 11
190.4842541360369
 21
90.02897098346943
 31
0.0
  0
LINE
  5
7F80
330
18
100
AcDbEntity
  8
HON
100
AcDbLine
 10
190.4842541360369
 20
90.02897098346943
 30
0.0
 11
189.5348837397989
 21
92.33597668835022
 31
0.0
  0
LINE
  5
7F81
330
18
100
AcDbEntity
  8
HON
100
AcDbLine
 10
189.5348837397989
 20
92.33597668835022
 30
0.0
 11
188.6276351849149
 21
89.70129664199863
 31
0.0
  0
LINE
  5
7F82
330
18
100
AcDbEntity
  8
HON
100
AcDbLine
 10
188.6276351849149
 20
89.70129664199863
 30
0.0
 11
187.7229693110669
 21
91.94884842164242
 31
0.0
  0
LINE
  5
7F83
330
18
100
AcDbEntity
  8
HON
100
AcDbLine
 10
187.7229693110669
 20
91.94884842164242
 30
0.0
 11
186.9366369240972
 21
89.34766861644197
 31
0.0
  0
LINE
  5
7F84
330
18
100
AcDbEntity
  8
HON
100
AcDbLine
 10
186.9366369240972
 20
89.34766861644197
 30
0.0
 11
186.111610344283
 21
91.58225056046353
 31
0.0
  0
LINE
  5
7F85
330
18
100
AcDbEntity
  8
HON
100
AcDbLine
 10
186.111610344283
 20
91.58225056046353
 30
0.0
 11
185.4226599143323
 21
88.96840613007929
 31
0.0
  0
LINE
  5
7F86
330
18
100
AcDbEntity
  8
HON
100
AcDbLine
 10
185.4226599143323
 20
88.96840613007929
 30
0.0
 11
184.7218792346041
 21
91.15666392844081
 31
0.0
  0
LINE
  5
7F87
330
18
100
AcDbEntity
  8
HON
100
AcDbLine
 10
184.7218792346041
 20
91.15666392844081
 30
0.0
 11
184.0968565146443
 21
88.56282507179889
 31
0.0
  0
LINE
  5
7F88
330
18
100
AcDbEntity
  8
HON
100
AcDbLine
 10
184.0968565146443
 20
88.56282507179889
 30
0.0
 11
183.5545099364055
 21
90.73917379436966
 31
0.0
  0
LINE
  5
7F89
330
18
100
AcDbEntity
  8
HON
100
AcDbLine
 10
183.5545099364055
 20
90.73917379436966
 30
0.0
 11
182.975487204015
 21
88.13010936468776
 31
0.0
  0
LINE
  5
7F8A
330
18
100
AcDbEntity
  8
HON
100
AcDbLine
 10
182.975487204015
 20
88.13010936468776
 30
0.0
 11
182.4939970926818
 21
90.25246811600004
 31
0.0
  0
LINE
  5
7F8B
330
18
100
AcDbEntity
  8
HON
100
AcDbLine
 10
182.4939970926818
 20
90.25246811600004
 30
0.0
 11
182.063742228612
 21
87.65897281620414
 31
0.0
  0
LINE
  5
7F8C
330
18
100
AcDbEntity
  8
HON
100
AcDbLine
 10
182.063742228612
 20
87.65897281620414
 30
0.0
 11
181.9540325130431
 21
89.8457830766763
 31
0.0
  0
LINE
  5
7F8D
330
18
100
AcDbEntity
  8
HON
100
AcDbLine
 10
181.9540325130431
 20
89.8457830766763
 30
0.0
 11
181.5426619076654
 21
87.27062192279005
 31
0.0
  0
LINE
  5
7F8E
330
18
100
AcDbEntity
  8
HON
100
AcDbLine
 10
181.5426619076654
 20
87.27062192279005
 30
0.0
 11
181.5893088193545
 21
89.57495521993473
 31
0.0
  0
LINE
  5
7F8F
330
18
100
AcDbEntity
  8
HON
100
AcDbLine
 10
181.5893088193545
 20
89.57495521993473
 30
0.0
 11
181.2627274056751
 21
86.94566801135783
 31
0.0
  0
LINE
  5
7F90
330
18
100
AcDbEntity
  8
HON
100
AcDbLine
 10
181.2627274056751
 20
86.94566801135783
 30
0.0
 11
181.4074651942458
 21
89.35300759680172
 31
0.0
  0
LINE
  5
7F91
330
18
100
AcDbEntity
  8
HON
100
AcDbLine
 10
181.4074651942458
 20
89.35300759680172
 30
0.0
 11
181.049396864709
 21
86.40957175273502
 31
0.0
  0
LINE
  5
7F92
330
18
100
AcDbEntity
  8
HON
100
AcDbLine
 10
213.50502396667
 20
89.67043687049022
 30
0.0
 11
212.826213884565
 21
84.95716329514721
 31
0.0
  0
LINE
  5
7F93
330
18
100
AcDbEntity
  8
HON
100
AcDbLine
 10
210.5872733395492
 20
89.68502336414053
 30
0.0
 11
212.826213884565
 21
84.95716329514721
 31
0.0
  0
LINE
  5
7F94
330
18
100
AcDbEntity
  8
HON
100
AcDbLine
 10
213.50502396667
 20
89.67043687049022
 30
0.0
 11
215.1700017820488
 21
85.04985150458082
 31
0.0
  0
LINE
  5
7F95
330
18
100
AcDbEntity
  8
HON
100
AcDbLine
 10
210.5872733395492
 20
89.68502336414053
 30
0.0
 11
210.5051985739221
 21
84.93361613500088
 31
0.0
  0
LINE
  5
7F96
330
18
100
AcDbEntity
  8
HON
100
AcDbLine
 10
208.1940823018842
 20
84.87817761882865
 30
0.0
 11
208.0260235256603
 21
89.21425775471083
 31
0.0
  0
LINE
  5
7F97
330
18
100
AcDbEntity
  8
HON
100
AcDbLine
 10
208.0260235256603
 20
89.21425775471083
 30
0.0
 11
210.5051985739221
 21
84.93361613500088
 31
0.0
  0
LINE
  5
7F98
330
18
100
AcDbEntity
  8
HON
100
AcDbLine
 10
205.4375200947772
 20
89.42193292736623
 30
0.0
 11
206.0496427718165
 21
84.6936801187037
 31
0.0
  0
LINE
  5
7F99
330
18
100
AcDbEntity
  8
HON
100
AcDbLine
 10
205.4375200947772
 20
89.42193292736623
 30
0.0
 11
208.1940823018842
 21
84.87817761882865
 31
0.0
  0
LINE
  5
7F9A
330
18
100
AcDbEntity
  8
HON
100
AcDbLine
 10
202.7788236914087
 20
89.28481295121015
 30
0.0
 11
206.0496427718165
 21
84.6936801187037
 31
0.0
  0
LINE
  5
7F9B
330
18
100
AcDbEntity
  8
HON
100
AcDbLine
 10
202.7788236914087
 20
89.28481295121015
 30
0.0
 11
203.9241032413258
 21
84.52937904224995
 31
0.0
  0
LINE
  5
7F9C
330
18
100
AcDbEntity
  8
HON
100
AcDbLine
 10
200.487329088631
 20
89.12855054060287
 30
0.0
 11
203.9241032413258
 21
84.52937904224995
 31
0.0
  0
LINE
  5
7F9D
330
18
100
AcDbEntity
  8
HON
100
AcDbLine
 10
200.487329088631
 20
89.12855054060287
 30
0.0
 11
201.9083115099813
 21
84.39833143956162
 31
0.0
  0
LINE
  5
7F9E
330
18
100
AcDbEntity
  8
HON
100
AcDbLine
 10
197.9626314684785
 20
88.92972368356163
 30
0.0
 11
201.9083115099813
 21
84.39833143956162
 31
0.0
  0
LINE
  5
7F9F
330
18
100
AcDbEntity
  8
HON
100
AcDbLine
 10
197.9626314684785
 20
88.92972368356163
 30
0.0
 11
199.7425698999316
 21
84.0715220826503
 31
0.0
  0
LINE
  5
7FA0
330
18
100
AcDbEntity
  8
HON
100
AcDbLine
 10
195.5001127819134
 20
88.68012021789832
 30
0.0
 11
199.7425698999316
 21
84.0715220826503
 31
0.0
  0
LINE
  5
7FA1
330
18
100
AcDbEntity
  8
HON
100
AcDbLine
 10
195.5001127819134
 20
88.68012021789832
 30
0.0
 11
197.7585778842506
 21
83.81885351418054
 31
0.0
  0
LINE
  5
7FA2
330
18
100
AcDbEntity
  8
HON
100
AcDbLine
 10
193.3092231662097
 20
88.40784655794482
 30
0.0
 11
197.7585778842506
 21
83.81885351418054
 31
0.0
  0
LINE
  5
7FA3
330
18
100
AcDbEntity
  8
HON
100
AcDbLine
 10
193.3092231662097
 20
88.40784655794482
 30
0.0
 11
196.0015789607762
 21
83.5325266470652
 31
0.0
  0
LINE
  5
7FA4
330
18
100
AcDbEntity
  8
HON
100
AcDbLine
 10
191.3721058218536
 20
88.14725498790608
 30
0.0
 11
196.0015789607762
 21
83.5325266470652
 31
0.0
  0
LINE
  5
7FA5
330
18
100
AcDbEntity
  8
HON
100
AcDbLine
 10
191.3721058218536
 20
88.14725498790608
 30
0.0
 11
194.4601976215083
 21
83.23729363218149
 31
0.0
  0
LINE
  5
7FA6
330
18
100
AcDbEntity
  8
HON
100
AcDbLine
 10
189.6137366932373
 20
87.85219546942494
 30
0.0
 11
194.4601976215083
 21
83.23729363218149
 31
0.0
  0
LINE
  5
7FA7
330
18
100
AcDbEntity
  8
HON
100
AcDbLine
 10
189.6137366932373
 20
87.85219546942494
 30
0.0
 11
193.12887537955
 21
82.95917892727516
 31
0.0
  0
LINE
  5
7FA8
330
18
100
AcDbEntity
  8
HON
100
AcDbLine
 10
188.0364421178194
 20
87.52451863057173
 30
0.0
 11
193.12887537955
 21
82.95917892727516
 31
0.0
  0
LINE
  5
7FA9
330
18
100
AcDbEntity
  8
HON
100
AcDbLine
 10
191.8977351686073
 20
82.58997862032243
 30
0.0
 11
188.0364421178194
 21
87.52451863057173
 31
0.0
  0
LINE
  5
7FAA
330
18
100
AcDbEntity
  8
HON
100
AcDbLine
 10
186.4621828193187
 20
87.17174264806704
 30
0.0
 11
191.8977351686073
 21
82.58997862032243
 31
0.0
  0
LINE
  5
7FAB
330
18
100
AcDbEntity
  8
HON
100
AcDbLine
 10
186.4621828193187
 20
87.17174264806704
 30
0.0
 11
190.8006449785364
 21
82.23726046993283
 31
0.0
  0
LINE
  5
7FAC
330
18
100
AcDbEntity
  8
HON
100
AcDbLine
 10
185.1832336458694
 20
86.80236884472174
 30
0.0
 11
189.968423151787
 21
81.8664408633947
 31
0.0
  0
LINE
  5
7FAD
330
18
100
AcDbEntity
  8
HON
100
AcDbLine
 10
185.1832336458694
 20
86.80236884472174
 30
0.0
 11
190.8006449785364
 21
82.23726046993283
 31
0.0
  0
LINE
  5
7FAE
330
18
100
AcDbEntity
  8
HON
100
AcDbLine
 10
183.9829012277725
 20
86.42848413537809
 30
0.0
 11
189.968423151787
 21
81.8664408633947
 31
0.0
  0
LINE
  5
7FAF
330
18
100
AcDbEntity
  8
HON
100
AcDbLine
 10
183.9829012277725
 20
86.42848413537809
 30
0.0
 11
189.3108412268514
 21
81.49325013958947
 31
0.0
  0
LINE
  5
7FB0
330
18
100
AcDbEntity
  8
HON
100
AcDbLine
 10
189.3108412268514
 20
81.49325013958947
 30
0.0
 11
183.03259492648
 21
86.01265746841887
 31
0.0
  0
LINE
  5
7FB1
330
18
100
AcDbEntity
  8
HON
100
AcDbLine
 10
183.03259492648
 20
86.01265746841887
 30
0.0
 11
188.757707148464
 21
81.08998670908363
 31
0.0
  0
LINE
  5
7FB2
330
18
100
AcDbEntity
  8
HON
100
AcDbLine
 10
188.757707148464
 20
81.08998670908363
 30
0.0
 11
182.3530801643621
 21
85.61021735232566
 31
0.0
  0
LINE
  5
7FB3
330
18
100
AcDbEntity
  8
HON
100
AcDbLine
 10
182.3530801643621
 20
85.61021735232566
 30
0.0
 11
188.4704755704817
 21
80.60240403554667
 31
0.0
  0
LINE
  5
7FB4
330
18
100
AcDbEntity
  8
HON
100
AcDbLine
 10
188.4704755704817
 20
80.60240403554667
 30
0.0
 11
181.9422081028363
 21
85.25512808467897
 31
0.0
  0
LINE
  5
7FB5
330
18
100
AcDbEntity
  8
HON
100
AcDbLine
 10
181.9422081028363
 20
85.25512808467897
 30
0.0
 11
188.3600814356553
 21
80.22597471256336
 31
0.0
  0
LINE
  5
7FB6
330
18
100
AcDbEntity
  8
HON
100
AcDbLine
 10
188.3600814356553
 20
80.22597471256336
 30
0.0
 11
181.6578556382221
 21
84.84382598833395
 31
0.0
  0
LINE
  5
7FB7
330
18
100
AcDbEntity
  8
HON
100
AcDbLine
 10
181.6578556382221
 20
84.84382598833395
 30
0.0
 11
188.566262518859
 21
79.76476348951724
 31
0.0
  0
LINE
  5
7FB8
330
18
100
AcDbEntity
  8
HON
100
AcDbLine
 10
188.566262518859
 20
79.76476348951724
 30
0.0
 11
181.5992588704914
 21
84.42726116832886
 31
0.0
  0
LINE
  5
7FB9
330
18
100
AcDbEntity
  8
HON
100
AcDbLine
 10
215.1700017820488
 20
85.04985150458082
 30
0.0
 11
214.7880248734975
 21
64.72932956898034
 31
0.0
  0
LINE
  5
7FBA
330
18
100
AcDbEntity
  8
HON
100
AcDbLine
 10
214.7880248734975
 20
64.72932956898034
 30
0.0
 11
212.826213884565
 21
84.95716329514721
 31
0.0
  0
LINE
  5
7FBB
330
18
100
AcDbEntity
  8
HON
100
AcDbLine
 10
212.826213884565
 20
84.95716329514721
 30
0.0
 11
214.3014972866979
 21
64.71570690797739
 31
0.0
  0
LINE
  5
7FBC
330
18
100
AcDbEntity
  8
HON
100
AcDbLine
 10
214.3014972866979
 20
64.71570690797739
 30
0.0
 11
210.5051985739221
 21
84.93361613500088
 31
0.0
  0
LINE
  5
7FBD
330
18
100
AcDbEntity
  8
HON
100
AcDbLine
 10
210.5051985739221
 20
84.93361613500088
 30
0.0
 11
213.8091838055782
 21
64.69073509980876
 31
0.0
  0
LINE
  5
7FBE
330
18
100
AcDbEntity
  8
HON
100
AcDbLine
 10
213.8091838055782
 20
64.69073509980876
 30
0.0
 11
208.1940823018842
 21
84.87817761882865
 31
0.0
  0
LINE
  5
7FBF
330
18
100
AcDbEntity
  8
HON
100
AcDbLine
 10
208.1940823018842
 20
84.87817761882865
 30
0.0
 11
213.3024111499592
 21
64.65249850527266
 31
0.0
  0
LINE
  5
7FC0
330
18
100
AcDbEntity
  8
HON
100
AcDbLine
 10
213.3024111499592
 20
64.65249850527266
 30
0.0
 11
206.0496427718165
 21
84.6936801187037
 31
0.0
  0
LINE
  5
7FC1
330
18
100
AcDbEntity
  8
HON
100
AcDbLine
 10
206.0496427718165
 20
84.6936801187037
 30
0.0
 11
212.818315459491
 21
64.60288918030233
 31
0.0
  0
LINE
  5
7FC2
330
18
100
AcDbEntity
  8
HON
100
AcDbLine
 10
212.818315459491
 20
64.60288918030233
 30
0.0
 11
203.9241032413258
 21
84.52937904224995
 31
0.0
  0
LINE
  5
7FC3
330
18
100
AcDbEntity
  8
HON
100
AcDbLine
 10
203.9241032413258
 20
84.52937904224995
 30
0.0
 11
212.3626794527384
 21
64.54285648166001
 31
0.0
  0
LINE
  5
7FC4
330
18
100
AcDbEntity
  8
HON
100
AcDbLine
 10
212.3626794527384
 20
64.54285648166001
 30
0.0
 11
201.9083115099813
 21
84.39833143956162
 31
0.0
  0
LINE
  5
7FC5
330
18
100
AcDbEntity
  8
HON
100
AcDbLine
 10
201.9083115099813
 20
84.39833143956162
 30
0.0
 11
211.9404852810942
 21
64.47355470462913
 31
0.0
  0
LINE
  5
7FC6
330
18
100
AcDbEntity
  8
HON
100
AcDbLine
 10
211.9404852810942
 20
64.47355470462913
 30
0.0
 11
199.7425698999316
 21
84.0715220826503
 31
0.0
  0
LINE
  5
7FC7
330
18
100
AcDbEntity
  8
HON
100
AcDbLine
 10
199.7425698999316
 20
84.0715220826503
 30
0.0
 11
211.5557746643965
 21
64.39630319414823
 31
0.0
  0
LINE
  5
7FC8
330
18
100
AcDbEntity
  8
HON
100
AcDbLine
 10
211.5557746643965
 20
64.39630319414823
 30
0.0
 11
197.7585778842506
 21
83.81885351418054
 31
0.0
  0
LINE
  5
7FC9
330
18
100
AcDbEntity
  8
HON
100
AcDbLine
 10
197.7585778842506
 20
83.81885351418054
 30
0.0
 11
211.2115770908906
 21
64.31254829458589
 31
0.0
  0
LINE
  5
7FCA
330
18
100
AcDbEntity
  8
HON
100
AcDbLine
 10
211.2115770908906
 20
64.31254829458589
 30
0.0
 11
196.0015789607762
 21
83.5325266470652
 31
0.0
  0
LINE
  5
7FCB
330
18
100
AcDbEntity
  8
HON
100
AcDbLine
 10
196.0015789607762
 20
83.5325266470652
 30
0.0
 11
210.9098781970163
 21
64.22382989480297
 31
0.0
  0
LINE
  5
7FCC
330
18
100
AcDbEntity
  8
HON
100
AcDbLine
 10
210.9098781970163
 20
64.22382989480297
 30
0.0
 11
194.4601976215083
 21
83.23729363218149
 31
0.0
  0
LINE
  5
7FCD
330
18
100
AcDbEntity
  8
HON
100
AcDbLine
 10
194.4601976215083
 20
83.23729363218149
 30
0.0
 11
210.6516229053952
 21
64.1317583137195
 31
0.0
  0
LINE
  5
7FCE
330
18
100
AcDbEntity
  8
HON
100
AcDbLine
 10
210.6516229053952
 20
64.1317583137195
 30
0.0
 11
193.12887537955
 21
82.95917892727516
 31
0.0
  0
LINE
  5
7FCF
330
18
100
AcDbEntity
  8
HON
100
AcDbLine
 10
193.12887537955
 20
82.95917892727516
 30
0.0
 11
210.4367302587755
 21
64.03800351426866
 31
0.0
  0
LINE
  5
7FD0
330
18
100
AcDbEntity
  8
HON
100
AcDbLine
 10
210.4367302587755
 20
64.03800351426866
 30
0.0
 11
191.8977351686073
 21
82.58997862032243
 31
0.0
  0
LINE
  5
7FD1
330
18
100
AcDbEntity
  8
HON
100
AcDbLine
 10
191.8977351686073
 20
82.58997862032243
 30
0.0
 11
210.2641627742316
 21
63.9443349612909
 31
0.0
  0
LINE
  5
7FD2
330
18
100
AcDbEntity
  8
HON
100
AcDbLine
 10
210.2641627742316
 20
63.9443349612909
 30
0.0
 11
190.8006449785364
 21
82.23726046993283
 31
0.0
  0
LINE
  5
7FD3
330
18
100
AcDbEntity
  8
HON
100
AcDbLine
 10
190.8006449785364
 20
82.23726046993283
 30
0.0
 11
210.1318737031208
 21
63.85266073230446
 31
0.0
  0
LINE
  5
7FD4
330
18
100
AcDbEntity
  8
HON
100
AcDbLine
 10
210.1318737031208
 20
63.85266073230446
 30
0.0
 11
189.968423151787
 21
81.8664408633947
 31
0.0
  0
LINE
  5
7FD5
330
18
100
AcDbEntity
  8
HON
100
AcDbLine
 10
189.968423151787
 20
81.8664408633947
 30
0.0
 11
210.0407516859479
 21
63.76944082363365
 31
0.0
  0
LINE
  5
7FD6
330
18
100
AcDbEntity
  8
HON
100
AcDbLine
 10
210.0407516859479
 20
63.76944082363365
 30
0.0
 11
189.3108412268514
 21
81.49325013958947
 31
0.0
  0
LINE
  5
7FD7
330
18
100
AcDbEntity
  8
HON
100
AcDbLine
 10
189.3108412268514
 20
81.49325013958947
 30
0.0
 11
209.9797911528342
 21
63.69262463433074
 31
0.0
  0
LINE
  5
7FD8
330
18
100
AcDbEntity
  8
HON
100
AcDbLine
 10
209.9797911528342
 20
63.69262463433074
 30
0.0
 11
188.757707148464
 21
81.08998670908363
 31
0.0
  0
LINE
  5
7FD9
330
18
100
AcDbEntity
  8
HON
100
AcDbLine
 10
188.757707148464
 20
81.08998670908363
 30
0.0
 11
209.9326554681859
 21
63.59334123760959
 31
0.0
  0
LINE
  5
7FDA
330
18
100
AcDbEntity
  8
HON
100
AcDbLine
 10
209.9326554681859
 20
63.59334123760959
 30
0.0
 11
188.4704755704817
 21
80.60240403554667
 31
0.0
  0
LINE
  5
7FDB
330
18
100
AcDbEntity
  8
HON
100
AcDbLine
 10
188.4704755704817
 20
80.60240403554667
 30
0.0
 11
209.9205184812174
 21
63.49122398710711
 31
0.0
  0
LINE
  5
7FDC
330
18
100
AcDbEntity
  8
HON
100
AcDbLine
 10
209.9205184812174
 20
63.49122398710711
 30
0.0
 11
188.3600814356553
 21
80.22597471256336
 31
0.0
  0
LINE
  5
7FDD
330
18
100
AcDbEntity
  8
HON
100
AcDbLine
 10
188.3600814356553
 20
80.22597471256336
 30
0.0
 11
209.9484616234215
 21
63.38110521240992
 31
0.0
  0
LINE
  5
7FDE
330
18
100
AcDbEntity
  8
HON
100
AcDbLine
 10
209.9484616234215
 20
63.38110521240992
 30
0.0
 11
188.566262518859
 21
79.76476348951724
 31
0.0
  0
LINE
  5
7FDF
330
18
100
AcDbEntity
  8
HON
100
AcDbLine
 10
188.566262518859
 20
79.76476348951724
 30
0.0
 11
210.0078570893359
 21
63.28538135933354
 31
0.0
  0
LINE
  5
7FE0
330
18
100
AcDbEntity
  8
HON
100
AcDbLine
 10
210.135411765724
 20
63.16133365345263
 30
0.0
 11
189.0869119846531
 21
79.23746497095521
 31
0.0
  0
ELLIPSE
  5
7FE1
330
18
100
AcDbEntity
  8
HON
100
AcDbEllipse
 10
215.1700017820488
 20
63.76794920149109
 30
0.0
 11
2.650992622317789
 21
-0.0000000000006366
 31
0.0
210
0.0
220
0.0
230
1.0
 40
0.2003631314828119
 41
6.082489591942351
 42
9.629420816767186
  0
LINE
  5
7FE4
330
18
100
AcDbEntity
  8
HON
100
AcDbLine
 10
214.7880248734975
 20
64.72932956898034
 30
0.0
 11
214.9534369292153
 21
64.29733504441969
 31
0.0
  0
LINE
  5
7FE5
330
18
100
AcDbEntity
  8
HON
100
AcDbLine
 10
214.3014972866979
 20
64.71570690797739
 30
0.0
 11
214.540714759941
 21
64.28392841026357
 31
0.0
  0
LINE
  5
7FE6
330
18
100
AcDbEntity
  8
HON
100
AcDbLine
 10
213.8091838055782
 20
64.69073509980876
 30
0.0
 11
214.1259813520276
 21
64.25618540498795
 31
0.0
  0
LINE
  5
7FE7
330
18
100
AcDbEntity
  8
HON
100
AcDbLine
 10
213.3024111499592
 20
64.65249850527266
 30
0.0
 11
213.6710680382159
 21
64.20605131038041
 31
0.0
  0
LINE
  5
7FE8
330
18
100
AcDbEntity
  8
HON
100
AcDbLine
 10
212.818315459491
 20
64.60288918030233
 30
0.0
 11
213.2367693713779
 21
64.1313956796464
 31
0.0
  0
LINE
  5
7FE9
330
18
100
AcDbEntity
  8
HON
100
AcDbLine
 10
212.3626794527384
 20
64.54285648166001
 30
0.0
 11
212.8983368450365
 21
64.04174381126608
 31
0.0
  0
LINE
  5
7FEA
330
18
100
AcDbEntity
  8
HON
100
AcDbLine
 10
211.9404852810942
 20
64.47355470462913
 30
0.0
 11
212.6724527687723
 21
63.94603706656813
 31
0.0
  0
LINE
  5
7FEB
330
18
100
AcDbEntity
  8
HON
100
AcDbLine
 10
211.5557746643965
 20
64.39630319414823
 30
0.0
 11
212.5431987584463
 21
63.83954020133637
 31
0.0
  0
LINE
  5
7FEC
330
18
100
AcDbEntity
  8
HON
100
AcDbLine
 10
211.2115770908906
 20
64.31254829458589
 30
0.0
 11
212.5241517014412
 21
63.73488064327443
 31
0.0
  0
LINE
  5
7FED
330
18
100
AcDbEntity
  8
HON
100
AcDbLine
 10
210.9098781970163
 20
64.22382989480297
 30
0.0
 11
212.5829457055092
 21
63.64877231637795
 31
0.0
  0
LINE
  5
7FEE
330
18
100
AcDbEntity
  8
HON
100
AcDbLine
 10
209.9205184812174
 20
63.49122398710711
 30
0.0
 11
212.7123945500726
 21
63.49122398710711
 31
0.0
  0
LINE
  5
7FEF
330
18
100
AcDbEntity
  8
HON
100
AcDbLine
 10
210.6516229053952
 20
64.1317583137195
 30
0.0
 11
212.609266192705
 21
63.61507690311718
 31
0.0
  0
LINE
  5
7FF0
330
18
100
AcDbEntity
  8
HON
100
AcDbLine
 10
210.4367302587755
 20
64.03800351426866
 30
0.0
 11
212.6413739009792
 21
63.57516958905954
 31
0.0
  0
LINE
  5
7FF1
330
18
100
AcDbEntity
  8
HON
100
AcDbLine
 10
210.2641627742316
 20
63.9443349612909
 30
0.0
 11
212.6657430528413
 21
63.54571564126797
 31
0.0
  0
LINE
  5
7FF2
330
18
100
AcDbEntity
  8
HON
100
AcDbLine
 10
210.1318737031208
 20
63.85266073230446
 30
0.0
 11
212.6853010131098
 21
63.52257531768597
 31
0.0
  0
LINE
  5
7FF3
330
18
100
AcDbEntity
  8
HON
100
AcDbLine
 10
210.0407516859479
 20
63.76944082363365
 30
0.0
 11
212.69256100196
 21
63.51409529571238
 31
0.0
  0
LINE
  5
7FF4
330
18
100
AcDbEntity
  8
HON
100
AcDbLine
 10
209.9797911528342
 20
63.69262463433074
 30
0.0
 11
212.7021913224235
 21
63.50293647472833
 31
0.0
  0
LINE
  5
7FF5
330
18
100
AcDbEntity
  8
HON
100
AcDbLine
 10
209.9326554681859
 20
63.59334123760959
 30
0.0
 11
212.7064043315746
 21
63.49808664076322
 31
0.0
  0
LINE
  5
7FF6
330
18
100
AcDbEntity
  8
HON
100
AcDbLine
 10
211.5996632925719
 20
62.61089155718014
 30
0.0
 11
212.8676280250537
 21
63.3258385019528
 31
0.0
  0
LINE
  5
7FF7
330
18
100
AcDbEntity
  8
HON
100
AcDbLine
 10
211.260369835639
 20
62.69137349912376
 30
0.0
 11
212.8175612143606
 21
63.37669765453304
 31
0.0
  0
LINE
  5
7FF8
330
18
100
AcDbEntity
  8
HON
100
AcDbLine
 10
210.9617784822197
 20
62.77645696049489
 30
0.0
 11
212.7905849371741
 21
63.40504427454826
 31
0.0
  0
LINE
  5
7FF9
330
18
100
AcDbEntity
  8
HON
100
AcDbLine
 10
210.7045147127749
 20
62.8646494119082
 30
0.0
 11
212.7829352074045
 21
63.4132075889519
 31
0.0
  0
LINE
  5
7FFA
330
18
100
AcDbEntity
  8
HON
100
AcDbLine
 10
210.4870461366238
 20
62.9550075708255
 30
0.0
 11
212.7644894050688
 21
63.43312475366459
 31
0.0
  0
LINE
  5
7FFB
330
18
100
AcDbEntity
  8
HON
100
AcDbLine
 10
210.309547362712
 20
63.04564604188704
 30
0.0
 11
212.7486519451843
 21
63.4504937243866
 31
0.0
  0
LINE
  5
7FFC
330
18
100
AcDbEntity
  8
HON
100
AcDbLine
 10
210.1704897956254
 20
63.13477920265791
 30
0.0
 11
212.7344970059215
 21
63.4662322970095
 31
0.0
  0
LINE
  5
7FFD
330
18
100
AcDbEntity
  8
HON
100
AcDbLine
 10
210.0719481330536
 20
63.21601108951631
 30
0.0
 11
212.7294410809057
 21
63.4719039003671
 31
0.0
  0
LINE
  5
7FFE
330
18
100
AcDbEntity
  8
HON
100
AcDbLine
 10
210.0031045852495
 20
63.29144774548581
 30
0.0
 11
212.7215075169415
 21
63.48085739030249
 31
0.0
  0
LINE
  5
7FFF
330
18
100
AcDbEntity
  8
HON
100
AcDbLine
 10
209.9448128738615
 20
63.38952423971363
 30
0.0
 11
212.7180661316849
 21
63.48476181673962
 31
0.0
  0
LINE
  5
8000
330
18
100
AcDbEntity
  8
HON
100
AcDbLine
 10
213.8331425286317
 20
62.32457694140134
 30
0.0
 11
214.0358927944192
 21
62.60268852121384
 31
0.0
  0
LINE
  5
8001
330
18
100
AcDbEntity
  8
HON
100
AcDbLine
 10
213.3288530530456
 20
62.36197087919094
 30
0.0
 11
213.6503779119946
 21
62.75134071314566
 31
0.0
  0
LINE
  5
8002
330
18
100
AcDbEntity
  8
HON
100
AcDbLine
 10
212.8459558323532
 20
62.41070262072094
 30
0.0
 11
213.3232708920354
 21
62.94851799778682
 31
0.0
  0
LINE
  5
8003
330
18
100
AcDbEntity
  8
HON
100
AcDbLine
 10
212.3944284695911
 20
62.46929300483748
 30
0.0
 11
213.0924209534764
 21
63.12227172322128
 31
0.0
  0
LINE
  5
8004
330
18
100
AcDbEntity
  8
HON
100
AcDbLine
 10
211.9786129437537
 20
62.53637128587502
 30
0.0
 11
212.9562916960816
 21
63.2409692289444
 31
0.0
  0
LINE
  5
8005
330
18
100
AcDbEntity
  8
HON
100
AcDbLine
 10
249.048335720586
 20
89.12969351853803
 30
0.0
 11
249.2906066993885
 21
86.40957175273502
 31
0.0
  0
LINE
  5
8006
330
18
100
AcDbEntity
  8
HON
100
AcDbLine
 10
248.7666408364942
 20
84.42726013378957
 30
0.0
 11
241.1077353679605
 21
79.13195378051273
 31
0.0
  0
LINE
  5
8007
330
18
100
AcDbEntity
  8
HON
100
AcDbLine
 10
215.1700017820488
 20
94.84376126017991
 30
0.0
 11
216.609354457428
 21
94.20002184714098
 31
0.0
  0
LINE
  5
8008
330
18
100
AcDbEntity
  8
HON
100
AcDbLine
 10
216.609354457428
 20
94.20002184714098
 30
0.0
 11
217.9211282071949
 21
94.82566055123403
 31
0.0
  0
LINE
  5
8009
330
18
100
AcDbEntity
  8
HON
100
AcDbLine
 10
217.9211282071949
 20
94.82566055123403
 30
0.0
 11
219.308119675233
 21
94.14849342083357
 31
0.0
  0
LINE
  5
800A
330
18
100
AcDbEntity
  8
HON
100
AcDbLine
 10
219.308119675233
 20
94.14849342083357
 30
0.0
 11
220.6553139156397
 21
94.77144832203135
 31
0.0
  0
LINE
  5
800B
330
18
100
AcDbEntity
  8
HON
100
AcDbLine
 10
220.6553139156397
 20
94.77144832203135
 30
0.0
 11
221.9994730945994
 21
94.10644946357729
 31
0.0
  0
LINE
  5
800C
330
18
100
AcDbEntity
  8
HON
100
AcDbLine
 10
221.9994730945994
 20
94.10644946357729
 30
0.0
 11
223.3557268399029
 21
94.68139190824217
 31
0.0
  0
LINE
  5
800D
330
18
100
AcDbEntity
  8
HON
100
AcDbLine
 10
223.3557268399029
 20
94.68139190824217
 30
0.0
 11
224.6863488165629
 21
93.99043821424015
 31
0.0
  0
LINE
  5
800E
330
18
100
AcDbEntity
  8
HON
100
AcDbLine
 10
224.6863488165629
 20
93.99043821424015
 30
0.0
 11
226.0057436229756
 21
94.55592917985336
 31
0.0
  0
LINE
  5
800F
330
18
100
AcDbEntity
  8
HON
100
AcDbLine
 10
226.0057436229756
 20
94.55592917985336
 30
0.0
 11
227.3703284392188
 21
93.86183727834009
 31
0.0
  0
LINE
  5
8010
330
18
100
AcDbEntity
  8
HON
100
AcDbLine
 10
227.3703284392188
 20
93.86183727834009
 30
0.0
 11
228.5890551123332
 21
94.39565603983352
 31
0.0
  0
LINE
  5
8011
330
18
100
AcDbEntity
  8
HON
100
AcDbLine
 10
228.5890551123332
 20
94.39565603983352
 30
0.0
 11
229.8186772184829
 21
93.66987472717005
 31
0.0
  0
LINE
  5
8012
330
18
100
AcDbEntity
  8
HON
100
AcDbLine
 10
229.8186772184829
 20
93.66987472717005
 30
0.0
 11
231.089768798068
 21
94.20130669466265
 31
0.0
  0
LINE
  5
8013
330
18
100
AcDbEntity
  8
HON
100
AcDbLine
 10
231.089768798068
 20
94.20130669466265
 30
0.0
 11
232.1673129983076
 21
93.4905372973742
 31
0.0
  0
LINE
  5
8014
330
18
100
AcDbEntity
  8
HON
100
AcDbLine
 10
232.1673129983076
 20
93.4905372973742
 30
0.0
 11
233.4925095337633
 21
93.97372364476064
 31
0.0
  0
LINE
  5
8015
330
18
100
AcDbEntity
  8
HON
100
AcDbLine
 10
233.4925095337633
 20
93.97372364476064
 30
0.0
 11
234.4995304109791
 21
93.22537698920291
 31
0.0
  0
LINE
  5
8016
330
18
100
AcDbEntity
  8
HON
100
AcDbLine
 10
234.4995304109791
 20
93.22537698920291
 30
0.0
 11
235.7825185564809
 21
93.71381184220513
 31
0.0
  0
LINE
  5
8017
330
18
100
AcDbEntity
  8
HON
100
AcDbLine
 10
235.7825185564809
 20
93.71381184220513
 30
0.0
 11
236.7842679680191
 21
92.94992256219552
 31
0.0
  0
LINE
  5
8018
330
18
100
AcDbEntity
  8
HON
100
AcDbLine
 10
236.7842679680191
 20
92.94992256219552
 30
0.0
 11
237.9457524976817
 21
93.42246643376961
 31
0.0
  0
LINE
  5
8019
330
18
100
AcDbEntity
  8
HON
100
AcDbLine
 10
237.9457524976817
 20
93.42246643376961
 30
0.0
 11
238.8675864440786
 21
92.65295458346896
 31
0.0
  0
LINE
  5
801A
330
18
100
AcDbEntity
  8
HON
100
AcDbLine
 10
238.8675864440786
 20
92.65295458346896
 30
0.0
 11
239.9689764529806
 21
93.10045463896745
 31
0.0
  0
LINE
  5
801B
330
18
100
AcDbEntity
  8
HON
100
AcDbLine
 10
239.9689764529806
 20
93.10045463896745
 30
0.0
 11
240.8051198242986
 21
92.33597668835022
 31
0.0
  0
LINE
  5
801C
330
18
100
AcDbEntity
  8
HON
100
AcDbLine
 10
240.8051198242986
 20
92.33597668835022
 30
0.0
 11
241.8398791866396
 21
92.74820474162948
 31
0.0
  0
LINE
  5
801D
330
18
100
AcDbEntity
  8
HON
100
AcDbLine
 10
241.8398791866396
 20
92.74820474162948
 30
0.0
 11
242.6170342530288
 21
91.94884842164242
 31
0.0
  0
LINE
  5
801E
330
18
100
AcDbEntity
  8
HON
100
AcDbLine
 10
242.6170342530288
 20
91.94884842164242
 30
0.0
 11
243.5471843049156
 21
92.36540660484456
 31
0.0
  0
LINE
  5
801F
330
18
100
AcDbEntity
  8
HON
100
AcDbLine
 10
243.5471843049156
 20
92.36540660484456
 30
0.0
 11
244.2283932198127
 21
91.58225056046353
 31
0.0
  0
LINE
  5
8020
330
18
100
AcDbEntity
  8
HON
100
AcDbLine
 10
244.2283932198127
 20
91.58225056046353
 30
0.0
 11
245.0808333399157
 21
91.95015176600714
 31
0.0
  0
LINE
  5
8021
330
18
100
AcDbEntity
  8
HON
100
AcDbLine
 10
245.0808333399157
 20
91.95015176600714
 30
0.0
 11
245.6181243294934
 21
91.15666392844081
 31
0.0
  0
LINE
  5
8022
330
18
100
AcDbEntity
  8
HON
100
AcDbLine
 10
245.6181243294934
 20
91.15666392844081
 30
0.0
 11
246.4323486485221
 21
91.49678023757292
 31
0.0
  0
LINE
  5
8023
330
18
100
AcDbEntity
  8
HON
100
AcDbLine
 10
246.4323486485221
 20
91.49678023757292
 30
0.0
 11
246.7854936276919
 21
90.73917379436966
 31
0.0
  0
LINE
  5
8024
330
18
100
AcDbEntity
  8
HON
100
AcDbLine
 10
246.7854936276919
 20
90.73917379436966
 30
0.0
 11
247.6034822883587
 21
91.0182315638301
 31
0.0
  0
LINE
  5
8025
330
18
100
AcDbEntity
  8
HON
100
AcDbLine
 10
247.6034822883587
 20
91.0182315638301
 30
0.0
 11
247.8460064714156
 21
90.25246811600004
 31
0.0
  0
LINE
  5
8026
330
18
100
AcDbEntity
  8
HON
100
AcDbLine
 10
247.8460064714156
 20
90.25246811600004
 30
0.0
 11
248.577191137106
 21
90.36126820895038
 31
0.0
  0
LINE
  5
8027
330
18
100
AcDbEntity
  8
HON
100
AcDbLine
 10
248.577191137106
 20
90.36126820895038
 30
0.0
 11
248.3859710510544
 21
89.8457830766763
 31
0.0
  0
LINE
  5
8028
330
18
100
AcDbEntity
  8
HON
100
AcDbLine
 10
248.3859710510544
 20
89.8457830766763
 30
0.0
 11
248.8511072663107
 21
90.09509431124184
 31
0.0
  0
LINE
  5
8029
330
18
100
AcDbEntity
  8
HON
100
AcDbLine
 10
248.8511072663107
 20
90.09509431124184
 30
0.0
 11
248.750694744743
 21
89.57495521993473
 31
0.0
  0
LINE
  5
802A
330
18
100
AcDbEntity
  8
HON
100
AcDbLine
 10
248.750694744743
 20
89.57495521993473
 30
0.0
 11
249.0774635418814
 21
89.72837171051537
 31
0.0
  0
LINE
  5
802B
330
18
100
AcDbEntity
  8
HON
100
AcDbLine
 10
249.0774635418814
 20
89.72837171051537
 30
0.0
 11
248.9325383698517
 21
89.35300759680172
 31
0.0
  0
LINE
  5
802C
330
18
100
AcDbEntity
  8
HON
100
AcDbLine
 10
248.9325383698517
 20
89.35300759680172
 30
0.0
 11
249.1898091426058
 21
89.3495125066372
 31
0.0
  0
LINE
  5
802D
330
18
100
AcDbEntity
  8
HON
100
AcDbLine
 10
249.1898091426058
 20
89.3495125066372
 30
0.0
 11
249.048335720586
 21
89.12969351853803
 31
0.0
  0
LINE
  5
802E
330
18
100
AcDbEntity
  8
HON
100
AcDbLine
 10
217.9103704794282
 20
91.65928319749832
 30
0.0
 11
219.7527302245482
 21
89.68502336414053
 31
0.0
  0
LINE
  5
802F
330
18
100
AcDbEntity
  8
HON
100
AcDbLine
 10
219.7527302245482
 20
89.68502336414053
 30
0.0
 11
220.6465135055744
 21
91.58167248134191
 31
0.0
  0
LINE
  5
8030
330
18
100
AcDbEntity
  8
HON
100
AcDbLine
 10
220.6465135055744
 20
91.58167248134191
 30
0.0
 11
222.3139800384372
 21
89.21425775471083
 31
0.0
  0
LINE
  5
8031
330
18
100
AcDbEntity
  8
HON
100
AcDbLine
 10
222.3139800384372
 20
89.21425775471083
 30
0.0
 11
223.3234940136001
 21
91.51381200115769
 31
0.0
  0
LINE
  5
8032
330
18
100
AcDbEntity
  8
HON
100
AcDbLine
 10
223.3234940136001
 20
91.51381200115769
 30
0.0
 11
224.9024834693202
 21
89.42193292736623
 31
0.0
  0
LINE
  5
8033
330
18
100
AcDbEntity
  8
HON
100
AcDbLine
 10
224.9024834693202
 20
89.42193292736623
 30
0.0
 11
225.9681869287117
 21
91.5018638411791
 31
0.0
  0
LINE
  5
8034
330
18
100
AcDbEntity
  8
HON
100
AcDbLine
 10
225.9681869287117
 20
91.5018638411791
 30
0.0
 11
227.5611798726889
 21
89.28481295121015
 31
0.0
  0
LINE
  5
8035
330
18
100
AcDbEntity
  8
HON
100
AcDbLine
 10
227.5611798726889
 20
89.28481295121015
 30
0.0
 11
228.5350745193948
 21
91.24434301531506
 31
0.0
  0
LINE
  5
8036
330
18
100
AcDbEntity
  8
HON
100
AcDbLine
 10
228.5350745193948
 20
91.24434301531506
 30
0.0
 11
229.8526744754665
 21
89.12855054060287
 31
0.0
  0
LINE
  5
8037
330
18
100
AcDbEntity
  8
HON
100
AcDbLine
 10
229.8526744754665
 20
89.12855054060287
 30
0.0
 11
231.0247159255207
 21
91.06126511337311
 31
0.0
  0
LINE
  5
8038
330
18
100
AcDbEntity
  8
HON
100
AcDbLine
 10
231.0247159255207
 20
91.06126511337311
 30
0.0
 11
232.3773720956189
 21
88.92972368356163
 31
0.0
  0
LINE
  5
8039
330
18
100
AcDbEntity
  8
HON
100
AcDbLine
 10
232.3773720956189
 20
88.92972368356163
 30
0.0
 11
233.3530375734874
 21
90.79075981064011
 31
0.0
  0
LINE
  5
803A
330
18
100
AcDbEntity
  8
HON
100
AcDbLine
 10
233.3530375734874
 20
90.79075981064011
 30
0.0
 11
234.8398907821841
 21
88.68012021789832
 31
0.0
  0
LINE
  5
803B
330
18
100
AcDbEntity
  8
HON
100
AcDbLine
 10
234.8398907821841
 20
88.68012021789832
 30
0.0
 11
235.6945021241147
 21
90.6029677820759
 31
0.0
  0
LINE
  5
803C
330
18
100
AcDbEntity
  8
HON
100
AcDbLine
 10
235.6945021241147
 20
90.6029677820759
 30
0.0
 11
237.0307803978878
 21
88.40784655794482
 31
0.0
  0
LINE
  5
803D
330
18
100
AcDbEntity
  8
HON
100
AcDbLine
 10
237.0307803978878
 20
88.40784655794482
 30
0.0
 11
237.845541233891
 21
90.32987514340925
 31
0.0
  0
LINE
  5
803E
330
18
100
AcDbEntity
  8
HON
100
AcDbLine
 10
237.845541233891
 20
90.32987514340925
 30
0.0
 11
238.9678977422438
 21
88.14725498790608
 31
0.0
  0
LINE
  5
803F
330
18
100
AcDbEntity
  8
HON
100
AcDbLine
 10
238.9678977422438
 20
88.14725498790608
 30
0.0
 11
239.8557494280606
 21
90.02897098346943
 31
0.0
  0
LINE
  5
8040
330
18
100
AcDbEntity
  8
HON
100
AcDbLine
 10
239.8557494280606
 20
90.02897098346943
 30
0.0
 11
240.7262668708602
 21
87.85219546942494
 31
0.0
  0
LINE
  5
8041
330
18
100
AcDbEntity
  8
HON
100
AcDbLine
 10
240.7262668708602
 20
87.85219546942494
 30
0.0
 11
241.7123683791826
 21
89.70129664199863
 31
0.0
  0
LINE
  5
8042
330
18
100
AcDbEntity
  8
HON
100
AcDbLine
 10
241.7123683791826
 20
89.70129664199863
 30
0.0
 11
242.3035614462762
 21
87.52451863057173
 31
0.0
  0
LINE
  5
8043
330
18
100
AcDbEntity
  8
HON
100
AcDbLine
 10
242.3035614462762
 20
87.52451863057173
 30
0.0
 11
243.4033666400003
 21
89.34766861644197
 31
0.0
  0
LINE
  5
8044
330
18
100
AcDbEntity
  8
HON
100
AcDbLine
 10
243.4033666400003
 20
89.34766861644197
 30
0.0
 11
243.8778207447788
 21
87.17174264806704
 31
0.0
  0
LINE
  5
8045
330
18
100
AcDbEntity
  8
HON
100
AcDbLine
 10
243.8778207447788
 20
87.17174264806704
 30
0.0
 11
244.9173436497651
 21
88.96840613007929
 31
0.0
  0
LINE
  5
8046
330
18
100
AcDbEntity
  8
HON
100
AcDbLine
 10
244.9173436497651
 20
88.96840613007929
 30
0.0
 11
245.1567699182281
 21
86.80236884472174
 31
0.0
  0
LINE
  5
8047
330
18
100
AcDbEntity
  8
HON
100
AcDbLine
 10
245.1567699182281
 20
86.80236884472174
 30
0.0
 11
246.2431470494532
 21
88.56282507179889
 31
0.0
  0
LINE
  5
8048
330
18
100
AcDbEntity
  8
HON
100
AcDbLine
 10
246.2431470494532
 20
88.56282507179889
 30
0.0
 11
246.3571023363249
 21
86.42848413537809
 31
0.0
  0
LINE
  5
8049
330
18
100
AcDbEntity
  8
HON
100
AcDbLine
 10
246.3571023363249
 20
86.42848413537809
 30
0.0
 11
247.3645163600825
 21
88.13010936468776
 31
0.0
  0
LINE
  5
804A
330
18
100
AcDbEntity
  8
HON
100
AcDbLine
 10
247.3645163600825
 20
88.13010936468776
 30
0.0
 11
247.3074086376175
 21
86.01265746841887
 31
0.0
  0
LINE
  5
804B
330
18
100
AcDbEntity
  8
HON
100
AcDbLine
 10
247.3074086376175
 20
86.01265746841887
 30
0.0
 11
248.2762613354855
 21
87.65897281620414
 31
0.0
  0
LINE
  5
804C
330
18
100
AcDbEntity
  8
HON
100
AcDbLine
 10
248.2762613354855
 20
87.65897281620414
 30
0.0
 11
247.9869233997354
 21
85.61021735232566
 31
0.0
  0
LINE
  5
804D
330
18
100
AcDbEntity
  8
HON
100
AcDbLine
 10
247.9869233997354
 20
85.61021735232566
 30
0.0
 11
248.7973416564321
 21
87.27062192279005
 31
0.0
  0
LINE
  5
804E
330
18
100
AcDbEntity
  8
HON
100
AcDbLine
 10
248.7973416564321
 20
87.27062192279005
 30
0.0
 11
248.3977954612612
 21
85.25512808467897
 31
0.0
  0
LINE
  5
804F
330
18
100
AcDbEntity
  8
HON
100
AcDbLine
 10
248.3977954612612
 20
85.25512808467897
 30
0.0
 11
249.0772761584224
 21
86.94566801135783
 31
0.0
  0
LINE
  5
8050
330
18
100
AcDbEntity
  8
HON
100
AcDbLine
 10
249.0772761584224
 20
86.94566801135783
 30
0.0
 11
248.6821479258736
 21
84.84382598833395
 31
0.0
  0
LINE
  5
8051
330
18
100
AcDbEntity
  8
HON
100
AcDbLine
 10
248.6821479258736
 20
84.84382598833395
 30
0.0
 11
249.2906066993885
 21
86.40957175273502
 31
0.0
  0
LINE
  5
8052
330
18
100
AcDbEntity
  8
HON
100
AcDbLine
 10
249.2906066993885
 20
86.40957175273502
 30
0.0
 11
248.7407446936061
 21
84.42726116832886
 31
0.0
  0
LINE
  5
8053
330
18
100
AcDbEntity
  8
HON
100
AcDbLine
 10
215.1700017820488
 20
91.66707795964862
 30
0.0
 11
216.609354457428
 21
94.20002184714098
 31
0.0
  0
LINE
  5
8054
330
18
100
AcDbEntity
  8
HON
100
AcDbLine
 10
216.609354457428
 20
94.20002184714098
 30
0.0
 11
217.9103704794282
 21
91.65928319749832
 31
0.0
  0
LINE
  5
8055
330
18
100
AcDbEntity
  8
HON
100
AcDbLine
 10
217.9103704794282
 20
91.65928319749832
 30
0.0
 11
219.308119675233
 21
94.14849342083357
 31
0.0
  0
LINE
  5
8056
330
18
100
AcDbEntity
  8
HON
100
AcDbLine
 10
219.308119675233
 20
94.14849342083357
 30
0.0
 11
220.6465135055744
 21
91.58167248134191
 31
0.0
  0
LINE
  5
8057
330
18
100
AcDbEntity
  8
HON
100
AcDbLine
 10
220.6465135055744
 20
91.58167248134191
 30
0.0
 11
221.9994730945994
 21
94.10644946357729
 31
0.0
  0
LINE
  5
8058
330
18
100
AcDbEntity
  8
HON
100
AcDbLine
 10
221.9994730945994
 20
94.10644946357729
 30
0.0
 11
223.3234940136001
 21
91.51381200115769
 31
0.0
  0
LINE
  5
8059
330
18
100
AcDbEntity
  8
HON
100
AcDbLine
 10
223.3234940136001
 20
91.51381200115769
 30
0.0
 11
224.6863488165629
 21
93.99043821424015
 31
0.0
  0
LINE
  5
805A
330
18
100
AcDbEntity
  8
HON
100
AcDbLine
 10
224.6863488165629
 20
93.99043821424015
 30
0.0
 11
225.9681869287117
 21
91.5018638411791
 31
0.0
  0
LINE
  5
805B
330
18
100
AcDbEntity
  8
HON
100
AcDbLine
 10
225.9681869287117
 20
91.5018638411791
 30
0.0
 11
227.3703284392188
 21
93.86183727834009
 31
0.0
  0
LINE
  5
805C
330
18
100
AcDbEntity
  8
HON
100
AcDbLine
 10
227.3703284392188
 20
93.86183727834009
 30
0.0
 11
228.5350745193948
 21
91.24434301531506
 31
0.0
  0
LINE
  5
805D
330
18
100
AcDbEntity
  8
HON
100
AcDbLine
 10
228.5350745193948
 20
91.24434301531506
 30
0.0
 11
229.8186772184829
 21
93.66987472717005
 31
0.0
  0
LINE
  5
805E
330
18
100
AcDbEntity
  8
HON
100
AcDbLine
 10
229.8186772184829
 20
93.66987472717005
 30
0.0
 11
231.0247159255207
 21
91.06126511337311
 31
0.0
  0
LINE
  5
805F
330
18
100
AcDbEntity
  8
HON
100
AcDbLine
 10
231.0247159255207
 20
91.06126511337311
 30
0.0
 11
232.1673129983076
 21
93.4905372973742
 31
0.0
  0
LINE
  5
8060
330
18
100
AcDbEntity
  8
HON
100
AcDbLine
 10
232.1673129983076
 20
93.4905372973742
 30
0.0
 11
233.3530375734874
 21
90.79075981064011
 31
0.0
  0
LINE
  5
8061
330
18
100
AcDbEntity
  8
HON
100
AcDbLine
 10
233.3530375734874
 20
90.79075981064011
 30
0.0
 11
234.4995304109791
 21
93.22537698920291
 31
0.0
  0
LINE
  5
8062
330
18
100
AcDbEntity
  8
HON
100
AcDbLine
 10
234.4995304109791
 20
93.22537698920291
 30
0.0
 11
235.6945021241147
 21
90.6029677820759
 31
0.0
  0
LINE
  5
8063
330
18
100
AcDbEntity
  8
HON
100
AcDbLine
 10
235.6945021241147
 20
90.6029677820759
 30
0.0
 11
236.7842679680191
 21
92.94992256219552
 31
0.0
  0
LINE
  5
8064
330
18
100
AcDbEntity
  8
HON
100
AcDbLine
 10
236.7842679680191
 20
92.94992256219552
 30
0.0
 11
237.845541233891
 21
90.32987514340925
 31
0.0
  0
LINE
  5
8065
330
18
100
AcDbEntity
  8
HON
100
AcDbLine
 10
237.845541233891
 20
90.32987514340925
 30
0.0
 11
238.8675864440786
 21
92.65295458346896
 31
0.0
  0
LINE
  5
8066
330
18
100
AcDbEntity
  8
HON
100
AcDbLine
 10
238.8675864440786
 20
92.65295458346896
 30
0.0
 11
239.8557494280606
 21
90.02897098346943
 31
0.0
  0
LINE
  5
8067
330
18
100
AcDbEntity
  8
HON
100
AcDbLine
 10
239.8557494280606
 20
90.02897098346943
 30
0.0
 11
240.8051198242986
 21
92.33597668835022
 31
0.0
  0
LINE
  5
8068
330
18
100
AcDbEntity
  8
HON
100
AcDbLine
 10
240.8051198242986
 20
92.33597668835022
 30
0.0
 11
241.7123683791826
 21
89.70129664199863
 31
0.0
  0
LINE
  5
8069
330
18
100
AcDbEntity
  8
HON
100
AcDbLine
 10
241.7123683791826
 20
89.70129664199863
 30
0.0
 11
242.6170342530288
 21
91.94884842164242
 31
0.0
  0
LINE
  5
806A
330
18
100
AcDbEntity
  8
HON
100
AcDbLine
 10
242.6170342530288
 20
91.94884842164242
 30
0.0
 11
243.4033666400003
 21
89.34766861644197
 31
0.0
  0
LINE
  5
806B
330
18
100
AcDbEntity
  8
HON
100
AcDbLine
 10
243.4033666400003
 20
89.34766861644197
 30
0.0
 11
244.2283932198127
 21
91.58225056046353
 31
0.0
  0
LINE
  5
806C
330
18
100
AcDbEntity
  8
HON
100
AcDbLine
 10
244.2283932198127
 20
91.58225056046353
 30
0.0
 11
244.9173436497651
 21
88.96840613007929
 31
0.0
  0
LINE
  5
806D
330
18
100
AcDbEntity
  8
HON
100
AcDbLine
 10
244.9173436497651
 20
88.96840613007929
 30
0.0
 11
245.6181243294934
 21
91.15666392844081
 31
0.0
  0
LINE
  5
806E
330
18
100
AcDbEntity
  8
HON
100
AcDbLine
 10
245.6181243294934
 20
91.15666392844081
 30
0.0
 11
246.2431470494532
 21
88.56282507179889
 31
0.0
  0
LINE
  5
806F
330
18
100
AcDbEntity
  8
HON
100
AcDbLine
 10
246.2431470494532
 20
88.56282507179889
 30
0.0
 11
246.7854936276919
 21
90.73917379436966
 31
0.0
  0
LINE
  5
8070
330
18
100
AcDbEntity
  8
HON
100
AcDbLine
 10
246.7854936276919
 20
90.73917379436966
 30
0.0
 11
247.3645163600825
 21
88.13010936468776
 31
0.0
  0
LINE
  5
8071
330
18
100
AcDbEntity
  8
HON
100
AcDbLine
 10
247.3645163600825
 20
88.13010936468776
 30
0.0
 11
247.8460064714156
 21
90.25246811600004
 31
0.0
  0
LINE
  5
8072
330
18
100
AcDbEntity
  8
HON
100
AcDbLine
 10
247.8460064714156
 20
90.25246811600004
 30
0.0
 11
248.2762613354855
 21
87.65897281620414
 31
0.0
  0
LINE
  5
8073
330
18
100
AcDbEntity
  8
HON
100
AcDbLine
 10
248.2762613354855
 20
87.65897281620414
 30
0.0
 11
248.3859710510544
 21
89.8457830766763
 31
0.0
  0
LINE
  5
8074
330
18
100
AcDbEntity
  8
HON
100
AcDbLine
 10
248.3859710510544
 20
89.8457830766763
 30
0.0
 11
248.7973416564321
 21
87.27062192279005
 31
0.0
  0
LINE
  5
8075
330
18
100
AcDbEntity
  8
HON
100
AcDbLine
 10
248.7973416564321
 20
87.27062192279005
 30
0.0
 11
248.750694744743
 21
89.57495521993473
 31
0.0
  0
LINE
  5
8076
330
18
100
AcDbEntity
  8
HON
100
AcDbLine
 10
248.750694744743
 20
89.57495521993473
 30
0.0
 11
249.0772761584224
 21
86.94566801135783
 31
0.0
  0
LINE
  5
8077
330
18
100
AcDbEntity
  8
HON
100
AcDbLine
 10
249.0772761584224
 20
86.94566801135783
 30
0.0
 11
248.9325383698517
 21
89.35300759680172
 31
0.0
  0
LINE
  5
8078
330
18
100
AcDbEntity
  8
HON
100
AcDbLine
 10
248.9325383698517
 20
89.35300759680172
 30
0.0
 11
249.2906066993885
 21
86.40957175273502
 31
0.0
  0
LINE
  5
8079
330
18
100
AcDbEntity
  8
HON
100
AcDbLine
 10
219.7527302245482
 20
89.68502336414053
 30
0.0
 11
217.5137896795324
 21
84.95716329514721
 31
0.0
  0
LINE
  5
807A
330
18
100
AcDbEntity
  8
HON
100
AcDbLine
 10
219.7527302245482
 20
89.68502336414053
 30
0.0
 11
219.8348049901754
 21
84.93361613500088
 31
0.0
  0
LINE
  5
807B
330
18
100
AcDbEntity
  8
HON
100
AcDbLine
 10
222.1459212622133
 20
84.87817761882865
 30
0.0
 11
222.3139800384372
 21
89.21425775471083
 31
0.0
  0
LINE
  5
807C
330
18
100
AcDbEntity
  8
HON
100
AcDbLine
 10
222.3139800384372
 20
89.21425775471083
 30
0.0
 11
219.8348049901754
 21
84.93361613500088
 31
0.0
  0
LINE
  5
807D
330
18
100
AcDbEntity
  8
HON
100
AcDbLine
 10
224.9024834693202
 20
89.42193292736623
 30
0.0
 11
224.290360792281
 21
84.6936801187037
 31
0.0
  0
LINE
  5
807E
330
18
100
AcDbEntity
  8
HON
100
AcDbLine
 10
224.9024834693202
 20
89.42193292736623
 30
0.0
 11
222.1459212622133
 21
84.87817761882865
 31
0.0
  0
LINE
  5
807F
330
18
100
AcDbEntity
  8
HON
100
AcDbLine
 10
227.5611798726889
 20
89.28481295121015
 30
0.0
 11
224.290360792281
 21
84.6936801187037
 31
0.0
  0
LINE
  5
8080
330
18
100
AcDbEntity
  8
HON
100
AcDbLine
 10
227.5611798726889
 20
89.28481295121015
 30
0.0
 11
226.4159003227717
 21
84.52937904224995
 31
0.0
  0
LINE
  5
8081
330
18
100
AcDbEntity
  8
HON
100
AcDbLine
 10
229.8526744754665
 20
89.12855054060287
 30
0.0
 11
226.4159003227717
 21
84.52937904224995
 31
0.0
  0
LINE
  5
8082
330
18
100
AcDbEntity
  8
HON
100
AcDbLine
 10
229.8526744754665
 20
89.12855054060287
 30
0.0
 11
228.4316920541162
 21
84.39833143956162
 31
0.0
  0
LINE
  5
8083
330
18
100
AcDbEntity
  8
HON
100
AcDbLine
 10
232.3773720956189
 20
88.92972368356163
 30
0.0
 11
228.4316920541162
 21
84.39833143956162
 31
0.0
  0
LINE
  5
8084
330
18
100
AcDbEntity
  8
HON
100
AcDbLine
 10
232.3773720956189
 20
88.92972368356163
 30
0.0
 11
230.5974336641659
 21
84.0715220826503
 31
0.0
  0
LINE
  5
8085
330
18
100
AcDbEntity
  8
HON
100
AcDbLine
 10
234.8398907821841
 20
88.68012021789832
 30
0.0
 11
230.5974336641659
 21
84.0715220826503
 31
0.0
  0
LINE
  5
8086
330
18
100
AcDbEntity
  8
HON
100
AcDbLine
 10
234.8398907821841
 20
88.68012021789832
 30
0.0
 11
232.5814256798469
 21
83.81885351418054
 31
0.0
  0
LINE
  5
8087
330
18
100
AcDbEntity
  8
HON
100
AcDbLine
 10
237.0307803978878
 20
88.40784655794482
 30
0.0
 11
232.5814256798469
 21
83.81885351418054
 31
0.0
  0
LINE
  5
8088
330
18
100
AcDbEntity
  8
HON
100
AcDbLine
 10
237.0307803978878
 20
88.40784655794482
 30
0.0
 11
234.3384246033213
 21
83.5325266470652
 31
0.0
  0
LINE
  5
8089
330
18
100
AcDbEntity
  8
HON
100
AcDbLine
 10
238.9678977422438
 20
88.14725498790608
 30
0.0
 11
234.3384246033213
 21
83.5325266470652
 31
0.0
  0
LINE
  5
808A
330
18
100
AcDbEntity
  8
HON
100
AcDbLine
 10
238.9678977422438
 20
88.14725498790608
 30
0.0
 11
235.8798059425892
 21
83.23729363218149
 31
0.0
  0
LINE
  5
808B
330
18
100
AcDbEntity
  8
HON
100
AcDbLine
 10
240.7262668708602
 20
87.85219546942494
 30
0.0
 11
235.8798059425892
 21
83.23729363218149
 31
0.0
  0
LINE
  5
808C
330
18
100
AcDbEntity
  8
HON
100
AcDbLine
 10
240.7262668708602
 20
87.85219546942494
 30
0.0
 11
237.2111281845475
 21
82.95917892727516
 31
0.0
  0
LINE
  5
808D
330
18
100
AcDbEntity
  8
HON
100
AcDbLine
 10
242.3035614462762
 20
87.52451863057173
 30
0.0
 11
237.2111281845475
 21
82.95917892727516
 31
0.0
  0
LINE
  5
808E
330
18
100
AcDbEntity
  8
HON
100
AcDbLine
 10
238.4422683954901
 20
82.58997862032243
 30
0.0
 11
242.3035614462762
 21
87.52451863057173
 31
0.0
  0
LINE
  5
808F
330
18
100
AcDbEntity
  8
HON
100
AcDbLine
 10
243.8778207447788
 20
87.17174264806704
 30
0.0
 11
238.4422683954901
 21
82.58997862032243
 31
0.0
  0
LINE
  5
8090
330
18
100
AcDbEntity
  8
HON
100
AcDbLine
 10
243.8778207447788
 20
87.17174264806704
 30
0.0
 11
239.5393585855611
 21
82.23726046993283
 31
0.0
  0
LINE
  5
8091
330
18
100
AcDbEntity
  8
HON
100
AcDbLine
 10
245.1567699182281
 20
86.80236884472174
 30
0.0
 11
240.3715804123105
 21
81.8664408633947
 31
0.0
  0
LINE
  5
8092
330
18
100
AcDbEntity
  8
HON
100
AcDbLine
 10
245.1567699182281
 20
86.80236884472174
 30
0.0
 11
239.5393585855611
 21
82.23726046993283
 31
0.0
  0
LINE
  5
8093
330
18
100
AcDbEntity
  8
HON
100
AcDbLine
 10
246.3571023363249
 20
86.42848413537809
 30
0.0
 11
240.3715804123105
 21
81.8664408633947
 31
0.0
  0
LINE
  5
8094
330
18
100
AcDbEntity
  8
HON
100
AcDbLine
 10
246.3571023363249
 20
86.42848413537809
 30
0.0
 11
241.0291623372462
 21
81.49325013958947
 31
0.0
  0
LINE
  5
8095
330
18
100
AcDbEntity
  8
HON
100
AcDbLine
 10
241.0291623372462
 20
81.49325013958947
 30
0.0
 11
247.3074086376175
 21
86.01265746841887
 31
0.0
  0
LINE
  5
8096
330
18
100
AcDbEntity
  8
HON
100
AcDbLine
 10
247.3074086376175
 20
86.01265746841887
 30
0.0
 11
241.5822964156334
 21
81.08998670908363
 31
0.0
  0
LINE
  5
8097
330
18
100
AcDbEntity
  8
HON
100
AcDbLine
 10
241.5822964156334
 20
81.08998670908363
 30
0.0
 11
247.9869233997354
 21
85.61021735232566
 31
0.0
  0
LINE
  5
8098
330
18
100
AcDbEntity
  8
HON
100
AcDbLine
 10
247.9869233997354
 20
85.61021735232566
 30
0.0
 11
241.8695279936157
 21
80.60240403554667
 31
0.0
  0
LINE
  5
8099
330
18
100
AcDbEntity
  8
HON
100
AcDbLine
 10
241.8695279936157
 20
80.60240403554667
 30
0.0
 11
248.3977954612612
 21
85.25512808467897
 31
0.0
  0
LINE
  5
809A
330
18
100
AcDbEntity
  8
HON
100
AcDbLine
 10
248.3977954612612
 20
85.25512808467897
 30
0.0
 11
241.9799221284423
 21
80.22597471256336
 31
0.0
  0
LINE
  5
809B
330
18
100
AcDbEntity
  8
HON
100
AcDbLine
 10
241.9799221284423
 20
80.22597471256336
 30
0.0
 11
248.6821479258736
 21
84.84382598833395
 31
0.0
  0
LINE
  5
809C
330
18
100
AcDbEntity
  8
HON
100
AcDbLine
 10
248.6821479258736
 20
84.84382598833395
 30
0.0
 11
241.7737410452385
 21
79.76476348951724
 31
0.0
  0
LINE
  5
809D
330
18
100
AcDbEntity
  8
HON
100
AcDbLine
 10
241.7737410452385
 20
79.76476348951724
 30
0.0
 11
248.7407446936061
 21
84.42726116832886
 31
0.0
  0
LINE
  5
809E
330
18
100
AcDbEntity
  8
HON
100
AcDbLine
 10
215.1700017820488
 20
85.04985150458082
 30
0.0
 11
215.5519786906
 21
64.72932956898034
 31
0.0
  0
LINE
  5
809F
330
18
100
AcDbEntity
  8
HON
100
AcDbLine
 10
215.5519786906
 20
64.72932956898034
 30
0.0
 11
217.5137896795324
 21
84.95716329514721
 31
0.0
  0
LINE
  5
80A0
330
18
100
AcDbEntity
  8
HON
100
AcDbLine
 10
217.5137896795324
 20
84.95716329514721
 30
0.0
 11
216.0385062773996
 21
64.71570690797739
 31
0.0
  0
LINE
  5
80A1
330
18
100
AcDbEntity
  8
HON
100
AcDbLine
 10
216.0385062773996
 20
64.71570690797739
 30
0.0
 11
219.8348049901754
 21
84.93361613500088
 31
0.0
  0
LINE
  5
80A2
330
18
100
AcDbEntity
  8
HON
100
AcDbLine
 10
219.8348049901754
 20
84.93361613500088
 30
0.0
 11
216.5308197585193
 21
64.69073509980876
 31
0.0
  0
LINE
  5
80A3
330
18
100
AcDbEntity
  8
HON
100
AcDbLine
 10
216.5308197585193
 20
64.69073509980876
 30
0.0
 11
222.1459212622133
 21
84.87817761882865
 31
0.0
  0
LINE
  5
80A4
330
18
100
AcDbEntity
  8
HON
100
AcDbLine
 10
222.1459212622133
 20
84.87817761882865
 30
0.0
 11
217.0375924141383
 21
64.65249850527266
 31
0.0
  0
LINE
  5
80A5
330
18
100
AcDbEntity
  8
HON
100
AcDbLine
 10
217.0375924141383
 20
64.65249850527266
 30
0.0
 11
224.290360792281
 21
84.6936801187037
 31
0.0
  0
LINE
  5
80A6
330
18
100
AcDbEntity
  8
HON
100
AcDbLine
 10
224.290360792281
 20
84.6936801187037
 30
0.0
 11
217.5216881046065
 21
64.60288918030233
 31
0.0
  0
LINE
  5
80A7
330
18
100
AcDbEntity
  8
HON
100
AcDbLine
 10
217.5216881046065
 20
64.60288918030233
 30
0.0
 11
226.4159003227717
 21
84.52937904224995
 31
0.0
  0
LINE
  5
80A8
330
18
100
AcDbEntity
  8
HON
100
AcDbLine
 10
226.4159003227717
 20
84.52937904224995
 30
0.0
 11
217.9773241113592
 21
64.54285648166001
 31
0.0
  0
LINE
  5
80A9
330
18
100
AcDbEntity
  8
HON
100
AcDbLine
 10
217.9773241113592
 20
64.54285648166001
 30
0.0
 11
228.4316920541162
 21
84.39833143956162
 31
0.0
  0
LINE
  5
80AA
330
18
100
AcDbEntity
  8
HON
100
AcDbLine
 10
228.4316920541162
 20
84.39833143956162
 30
0.0
 11
218.3995182830033
 21
64.47355470462913
 31
0.0
  0
LINE
  5
80AB
330
18
100
AcDbEntity
  8
HON
100
AcDbLine
 10
218.3995182830033
 20
64.47355470462913
 30
0.0
 11
230.5974336641659
 21
84.0715220826503
 31
0.0
  0
LINE
  5
80AC
330
18
100
AcDbEntity
  8
HON
100
AcDbLine
 10
230.5974336641659
 20
84.0715220826503
 30
0.0
 11
218.7842288996992
 21
64.39630319414823
 31
0.0
  0
LINE
  5
80AD
330
18
100
AcDbEntity
  8
HON
100
AcDbLine
 10
218.7842288996992
 20
64.39630319414823
 30
0.0
 11
232.5814256798469
 21
83.81885351418054
 31
0.0
  0
LINE
  5
80AE
330
18
100
AcDbEntity
  8
HON
100
AcDbLine
 10
232.5814256798469
 20
83.81885351418054
 30
0.0
 11
219.1284264732069
 21
64.31254829458589
 31
0.0
  0
LINE
  5
80AF
330
18
100
AcDbEntity
  8
HON
100
AcDbLine
 10
219.1284264732069
 20
64.31254829458589
 30
0.0
 11
234.3384246033213
 21
83.5325266470652
 31
0.0
  0
LINE
  5
80B0
330
18
100
AcDbEntity
  8
HON
100
AcDbLine
 10
234.3384246033213
 20
83.5325266470652
 30
0.0
 11
219.4301253670813
 21
64.22382989480297
 31
0.0
  0
LINE
  5
80B1
330
18
100
AcDbEntity
  8
HON
100
AcDbLine
 10
219.4301253670813
 20
64.22382989480297
 30
0.0
 11
235.8798059425892
 21
83.23729363218149
 31
0.0
  0
LINE
  5
80B2
330
18
100
AcDbEntity
  8
HON
100
AcDbLine
 10
235.8798059425892
 20
83.23729363218149
 30
0.0
 11
219.6883806587023
 21
64.1317583137195
 31
0.0
  0
LINE
  5
80B3
330
18
100
AcDbEntity
  8
HON
100
AcDbLine
 10
219.6883806587023
 20
64.1317583137195
 30
0.0
 11
237.2111281845475
 21
82.95917892727516
 31
0.0
  0
LINE
  5
80B4
330
18
100
AcDbEntity
  8
HON
100
AcDbLine
 10
237.2111281845475
 20
82.95917892727516
 30
0.0
 11
219.9032733053221
 21
64.03800351426866
 31
0.0
  0
LINE
  5
80B5
330
18
100
AcDbEntity
  8
HON
100
AcDbLine
 10
219.9032733053221
 20
64.03800351426866
 30
0.0
 11
238.4422683954901
 21
82.58997862032243
 31
0.0
  0
LINE
  5
80B6
330
18
100
AcDbEntity
  8
HON
100
AcDbLine
 10
238.4422683954901
 20
82.58997862032243
 30
0.0
 11
220.0758407898659
 21
63.9443349612909
 31
0.0
  0
LINE
  5
80B7
330
18
100
AcDbEntity
  8
HON
100
AcDbLine
 10
220.0758407898659
 20
63.9443349612909
 30
0.0
 11
239.5393585855611
 21
82.23726046993283
 31
0.0
  0
LINE
  5
80B8
330
18
100
AcDbEntity
  8
HON
100
AcDbLine
 10
239.5393585855611
 20
82.23726046993283
 30
0.0
 11
220.2081298609767
 21
63.85266073230446
 31
0.0
  0
LINE
  5
80B9
330
18
100
AcDbEntity
  8
HON
100
AcDbLine
 10
220.2081298609767
 20
63.85266073230446
 30
0.0
 11
240.3715804123105
 21
81.8664408633947
 31
0.0
  0
LINE
  5
80BA
330
18
100
AcDbEntity
  8
HON
100
AcDbLine
 10
240.3715804123105
 20
81.8664408633947
 30
0.0
 11
220.2992518781496
 21
63.76944082363365
 31
0.0
  0
LINE
  5
80BB
330
18
100
AcDbEntity
  8
HON
100
AcDbLine
 10
220.2992518781496
 20
63.76944082363365
 30
0.0
 11
241.0291623372462
 21
81.49325013958947
 31
0.0
  0
LINE
  5
80BC
330
18
100
AcDbEntity
  8
HON
100
AcDbLine
 10
241.0291623372462
 20
81.49325013958947
 30
0.0
 11
220.3602124112633
 21
63.69262463433074
 31
0.0
  0
LINE
  5
80BD
330
18
100
AcDbEntity
  8
HON
100
AcDbLine
 10
220.3602124112633
 20
63.69262463433074
 30
0.0
 11
241.5822964156334
 21
81.08998670908363
 31
0.0
  0
LINE
  5
80BE
330
18
100
AcDbEntity
  8
HON
100
AcDbLine
 10
241.5822964156334
 20
81.08998670908363
 30
0.0
 11
220.4073480959116
 21
63.59334123760959
 31
0.0
  0
LINE
  5
80BF
330
18
100
AcDbEntity
  8
HON
100
AcDbLine
 10
220.4073480959116
 20
63.59334123760959
 30
0.0
 11
241.8695279936157
 21
80.60240403554667
 31
0.0
  0
LINE
  5
80C0
330
18
100
AcDbEntity
  8
HON
100
AcDbLine
 10
241.8695279936157
 20
80.60240403554667
 30
0.0
 11
220.4194850828783
 21
63.49122398710711
 31
0.0
  0
LINE
  5
80C1
330
18
100
AcDbEntity
  8
HON
100
AcDbLine
 10
220.4194850828783
 20
63.49122398710711
 30
0.0
 11
241.9799221284423
 21
80.22597471256336
 31
0.0
  0
LINE
  5
80C2
330
18
100
AcDbEntity
  8
HON
100
AcDbLine
 10
241.9799221284423
 20
80.22597471256336
 30
0.0
 11
220.391541940676
 21
63.38110521240992
 31
0.0
  0
LINE
  5
80C3
330
18
100
AcDbEntity
  8
HON
100
AcDbLine
 10
220.391541940676
 20
63.38110521240992
 30
0.0
 11
241.7737410452385
 21
79.76476348951724
 31
0.0
  0
LINE
  5
80C4
330
18
100
AcDbEntity
  8
HON
100
AcDbLine
 10
241.7737410452385
 20
79.76476348951724
 30
0.0
 11
220.3321464747617
 21
63.28538135933354
 31
0.0
  0
LINE
  5
80C5
330
18
100
AcDbEntity
  8
HON
100
AcDbLine
 10
220.2045917983735
 20
63.16133365345263
 30
0.0
 11
241.2530915794444
 21
79.23746497095521
 31
0.0
  0
LINE
  5
80C6
330
18
100
AcDbEntity
  8
HON
100
AcDbLine
 10
215.5519786906
 20
64.72932956898034
 30
0.0
 11
215.3865666348822
 21
64.29733504441969
 31
0.0
  0
LINE
  5
80C7
330
18
100
AcDbEntity
  8
HON
100
AcDbLine
 10
216.0385062773996
 20
64.71570690797739
 30
0.0
 11
215.7992888041565
 21
64.28392841026357
 31
0.0
  0
LINE
  5
80C8
330
18
100
AcDbEntity
  8
HON
100
AcDbLine
 10
216.5308197585193
 20
64.69073509980876
 30
0.0
 11
216.21402221207
 21
64.25618540498795
 31
0.0
  0
LINE
  5
80C9
330
18
100
AcDbEntity
  8
HON
100
AcDbLine
 10
217.0375924141383
 20
64.65249850527266
 30
0.0
 11
216.6689355258816
 21
64.20605131038041
 31
0.0
  0
LINE
  5
80CA
330
18
100
AcDbEntity
  8
HON
100
AcDbLine
 10
217.5216881046065
 20
64.60288918030233
 30
0.0
 11
217.1032341927196
 21
64.1313956796464
 31
0.0
  0
LINE
  5
80CB
330
18
100
AcDbEntity
  8
HON
100
AcDbLine
 10
217.9773241113592
 20
64.54285648166001
 30
0.0
 11
217.441666719061
 21
64.04174381126608
 31
0.0
  0
LINE
  5
80CC
330
18
100
AcDbEntity
  8
HON
100
AcDbLine
 10
218.3995182830033
 20
64.47355470462913
 30
0.0
 11
217.6675507953253
 21
63.94603706656813
 31
0.0
  0
LINE
  5
80CD
330
18
100
AcDbEntity
  8
HON
100
AcDbLine
 10
218.7842288996992
 20
64.39630319414823
 30
0.0
 11
217.7968048056512
 21
63.83954020133637
 31
0.0
  0
LINE
  5
80CE
330
18
100
AcDbEntity
  8
HON
100
AcDbLine
 10
219.1284264732069
 20
64.31254829458589
 30
0.0
 11
217.8158518626562
 21
63.73488064327443
 31
0.0
  0
LINE
  5
80CF
330
18
100
AcDbEntity
  8
HON
100
AcDbLine
 10
219.4301253670813
 20
64.22382989480297
 30
0.0
 11
217.7577910468739
 21
63.64902432383039
 31
0.0
  0
LINE
  5
80D0
330
18
100
AcDbEntity
  8
HON
100
AcDbLine
 10
220.4194850828783
 20
63.49122398710711
 30
0.0
 11
217.6281480136164
 21
63.49122398710711
 31
0.0
  0
LINE
  5
80D1
330
18
100
AcDbEntity
  8
HON
100
AcDbLine
 10
219.6883806587023
 20
64.1317583137195
 30
0.0
 11
217.731418738929
 21
63.61525673666545
 31
0.0
  0
LINE
  5
80D2
330
18
100
AcDbEntity
  8
HON
100
AcDbLine
 10
219.9032733053221
 20
64.03800351426866
 30
0.0
 11
217.6992803338479
 21
63.57530618822817
 31
0.0
  0
LINE
  5
80D3
330
18
100
AcDbEntity
  8
HON
100
AcDbLine
 10
220.0758407898659
 20
63.9443349612909
 30
0.0
 11
217.6748865022775
 21
63.54581954456637
 31
0.0
  0
LINE
  5
80D4
330
18
100
AcDbEntity
  8
HON
100
AcDbLine
 10
220.2081298609767
 20
63.85266073230446
 30
0.0
 11
217.6553083640496
 21
63.52265363205746
 31
0.0
  0
LINE
  5
80D5
330
18
100
AcDbEntity
  8
HON
100
AcDbLine
 10
220.2992518781496
 20
63.76944082363365
 30
0.0
 11
217.6480301692772
 21
63.51415187702518
 31
0.0
  0
LINE
  5
80D6
330
18
100
AcDbEntity
  8
HON
100
AcDbLine
 10
220.3602124112633
 20
63.69262463433074
 30
0.0
 11
217.6383858935921
 21
63.50297644496283
 31
0.0
  0
LINE
  5
80D7
330
18
100
AcDbEntity
  8
HON
100
AcDbLine
 10
220.4073480959116
 20
63.59334123760959
 30
0.0
 11
217.6341548398882
 21
63.49810572113357
 31
0.0
  0
LINE
  5
80D8
330
18
100
AcDbEntity
  8
HON
100
AcDbLine
 10
218.7403402715256
 20
62.61089155718014
 30
0.0
 11
217.4727194250037
 21
63.32564460048982
 31
0.0
  0
LINE
  5
80D9
330
18
100
AcDbEntity
  8
HON
100
AcDbLine
 10
219.0796337284585
 20
62.69137349912376
 30
0.0
 11
217.5228208847217
 21
63.37653106025719
 31
0.0
  0
LINE
  5
80DA
330
18
100
AcDbEntity
  8
HON
100
AcDbLine
 10
219.378225081876
 20
62.77645696049489
 30
0.0
 11
217.5498259673846
 21
63.40490426572227
 31
0.0
  0
LINE
  5
80DB
330
18
100
AcDbEntity
  8
HON
100
AcDbLine
 10
219.6354888513208
 20
62.8646494119082
 30
0.0
 11
217.5575007706584
 21
63.4130934617977
 31
0.0
  0
LINE
  5
80DC
330
18
100
AcDbEntity
  8
HON
100
AcDbLine
 10
219.8529574274737
 20
62.9550075708255
 30
0.0
 11
217.5759660289072
 21
63.43302988993876
 31
0.0
  0
LINE
  5
80DD
330
18
100
AcDbEntity
  8
HON
100
AcDbLine
 10
220.0304562013855
 20
63.04564604188704
 30
0.0
 11
217.5918202077392
 21
63.45041594703257
 31
0.0
  0
LINE
  5
80DE
330
18
100
AcDbEntity
  8
HON
100
AcDbLine
 10
220.1695137684721
 20
63.13477920265791
 30
0.0
 11
217.6059897441859
 21
63.4661698348232
 31
0.0
  0
LINE
  5
80DF
330
18
100
AcDbEntity
  8
HON
100
AcDbLine
 10
220.2680554310439
 20
63.21601108951631
 30
0.0
 11
217.6110589645471
 21
63.47185609365201
 31
0.0
  0
LINE
  5
80E0
330
18
100
AcDbEntity
  8
HON
100
AcDbLine
 10
220.336898978848
 20
63.29144774548581
 30
0.0
 11
217.6190038124952
 21
63.4808220108329
 31
0.0
  0
LINE
  5
80E1
330
18
100
AcDbEntity
  8
HON
100
AcDbLine
 10
220.3951906902359
 20
63.38952423971363
 30
0.0
 11
217.6224606210239
 21
63.48474384967609
 31
0.0
  0
LINE
  5
80E2
330
18
100
AcDbEntity
  8
HON
100
AcDbLine
 10
216.5068610354658
 20
62.32457694140134
 30
0.0
 11
216.3257276206107
 21
62.57303678911807
 31
0.0
  0
LINE
  5
80E3
330
18
100
AcDbEntity
  8
HON
100
AcDbLine
 10
217.0111505110519
 20
62.36197087919094
 30
0.0
 11
216.6897887823388
 21
62.75114316079065
 31
0.0
  0
LINE
  5
80E4
330
18
100
AcDbEntity
  8
HON
100
AcDbLine
 10
217.4940477317443
 20
62.41070262072094
 30
0.0
 11
217.0169365468757
 21
62.94828828156997
 31
0.0
  0
LINE
  5
80E5
330
18
100
AcDbEntity
  8
HON
100
AcDbLine
 10
217.9455750945065
 20
62.46929300483748
 30
0.0
 11
217.2478350819267
 21
63.12203553387327
 31
0.0
  0
LINE
  5
80E6
330
18
100
AcDbEntity
  8
HON
100
AcDbLine
 10
218.3613906203439
 20
62.53637128587502
 30
0.0
 11
217.3840143587071
 21
63.24075122858491
 31
0.0
  0
LINE
  5
80E7
330
18
100
AcDbEntity
  8
HON
100
AcDbLine
 10
215.1700017820488
 20
91.66707795964862
 30
0.0
 11
216.8349795974275
 21
89.67043687049022
 31
0.0
  0
LINE
  5
80E8
330
18
100
AcDbEntity
  8
HON
100
AcDbLine
 10
216.8349795974275
 20
89.67043687049022
 30
0.0
 11
217.9103704794282
 21
91.65928319749832
 31
0.0
  0
LINE
  5
80E9
330
18
100
AcDbEntity
  8
HON
100
AcDbLine
 10
216.8349795974275
 20
89.67043687049022
 30
0.0
 11
217.5137896795324
 21
84.95716329514721
 31
0.0
  0
LINE
  5
80EA
330
18
100
AcDbEntity
  8
HON
100
AcDbLine
 10
216.8349795974275
 20
89.67043687049022
 30
0.0
 11
215.1700017820488
 21
85.04985150458082
 31
0.0
  0
LINE
  5
80EB
330
18
100
AcDbEntity
  8
SHADE
 62
     8
100
AcDbLine
 10
215.1700017820488
 20
64.29911038483692
 30
0.0
 11
215.1700017820488
 21
85.04985150458082
 31
0.0
  0
ARC
  5
8142
330
18
100
AcDbEntity
  8
0
100
AcDbCircle
 10
215.1702712818445
 20
65.64268153847097
 30
0.0
 40
3.266485515643144
100
AcDbArc
 50
217.3710632326181
 51
322.6742498489894
  0
VIEWPORT
  5
4E5F
102
{ACAD_XDICTIONARY
360
827E
102
}
330
15
100
AcDbEntity
 67
     1
  8
0
100
AcDbViewport
 10
204.1207418441771
 20
140.2079849243164
 30
0.0
 40
656.4358961669921
 41
314.2148930664063
 68
     1
 69
     1
 12
204.1207418441771
 22
140.2079849243164
 13
0.0
 23
0.0
 14
10.0
 24
10.0
 15
10.0
 25
10.0
 16
0.0
 26
0.0
 36
1.0
 17
0.0
 27
0.0
 37
0.0
 42
50.0
 43
0.0
 44
0.0
 45
314.2148930664063
 50
0.0
 51
0.0
 72
   100
 90
    32800
  1

281
     0
 71
     1
 74
     0
110
0.0
120
0.0
130
0.0
111
1.0
121
0.0
131
0.0
112
0.0
122
1.0
132
0.0
 79
     0
146
0.0
  0
VIEWPORT
  5
4E61
102
{ACAD_XDICTIONARY
360
8280
102
}
330
15
100
AcDbEntity
 67
     1
  8
0
100
AcDbViewport
 10
204.9462428092957
 20
141.4462471008301
 30
0.0
 40
327.913988494873
 41
226.3139953613281
 68
     2
 69
     2
 12
50.0
 22
62.5
 13
0.0
 23
0.0
 14
5.0
 24
5.0
 15
5.0
 25
5.0
 16
0.0
 26
0.0
 36
1.0
 17
0.0
 27
0.0
 37
0.0
 42
50.0
 43
0.0
 44
0.0
 45
106.9090909090909
 50
0.0
 51
0.0
 72
   100
 90
    32800
  1

281
     0
 71
     1
 74
     0
110
0.0
120
0.0
130
0.0
111
1.0
121
0.0
131
0.0
112
0.0
122
1.0
132
0.0
 79
     0
146
0.0
  0
ENDSEC
  0
SECTION
  2
OBJECTS
  0
DICTIONARY
  5
C
330
0
100
AcDbDictionary
281
     1
  3
ACAD_CIP_PREVIOUS_PRODUCT_INFO
350
4EDC
  3
ACAD_COLOR
350
4EC2
  3
ACAD_DETAILVIEWSTYLE
350
4ED7
  3
ACAD_GROUP
350
D
  3
ACAD_LAYOUT
350
4DFA
  3
ACAD_MATERIAL
350
4E90
  3
ACAD_MLEADERSTYLE
350
4ED3
  3
ACAD_MLINESTYLE
350
1B
  3
ACAD_PLOTSETTINGS
350
4DFB
  3
ACAD_PLOTSTYLENAME
350
4DF8
  3
ACAD_SCALELIST
350
4EC5
  3
ACAD_SECTIONVIEWSTYLE
350
4ED5
  3
ACAD_TABLESTYLE
350
4EC3
  3
ACAD_VISUALSTYLE
350
4EA9
  3
ACDB_RECOMPOSE_DATA
350
8278
  3
ACDBVARIABLEDICTIONARY
350
33
  3
CONTENTDICTIONARY
350
23
  3
DWGPROPS
350
8279
  0
DICTIONARY
  5
4EE8
330
8
100
AcDbDictionary
280
     1
281
     1
  0
DICTIONARY
  5
4F40
330
2
100
AcDbDictionary
280
     1
281
     1
  3
ACAD_LAYERSTATES
360
4F41
  0
DICTIONARY
  5
4EDD
330
E
100
AcDbDictionary
280
     1
281
     1
  3
ADSK_XREC_LAYER_RECONCILED
360
4EDE
  0
DICTIONARY
  5
4EDF
330
36
100
AcDbDictionary
280
     1
281
     1
  3
ADSK_XREC_LAYER_RECONCILED
360
4EE0
  0
DICTIONARY
  5
4EE1
330
37
100
AcDbDictionary
280
     1
281
     1
  3
ADSK_XREC_LAYER_RECONCILED
360
4EE2
  0
DICTIONARY
  5
4F3D
330
4F3C
100
AcDbDictionary
280
     1
281
     1
  0
DICTIONARY
  5
5613
330
5612
100
AcDbDictionary
280
     1
281
     1
  0
DICTIONARY
  5
5615
330
5614
100
AcDbDictionary
280
     1
281
     1
  0
DICTIONARY
  5
5617
330
5616
100
AcDbDictionary
280
     1
281
     1
  0
DICTIONARY
  5
4E52
330
18
100
AcDbDictionary
280
     1
281
     1
  3
ACAD_LAYOUTSELFREF
360
4E86
  0
DICTIONARY
  5
4E50
330
15
100
AcDbDictionary
280
     1
281
     1
  3
ACAD_LAYOUTSELFREF
360
4E85
  0
DICTIONARY
  5
827E
330
4E5F
100
AcDbDictionary
280
     1
281
     1
  3
ACAD_XREC_ROUNDTRIP
360
827F
  0
DICTIONARY
  5
8280
330
4E61
100
AcDbDictionary
280
     1
281
     1
  3
ACAD_XREC_ROUNDTRIP
360
8281
  0
XRECORD
  5
4EDC
102
{ACAD_REACTORS
330
C
102
}
330
C
100
AcDbXrecord
280
     1
300
ACDLT
300
2019
300
ACDLT_F_S
  0
DICTIONARY
  5
4EC2
102
{ACAD_REACTORS
330
C
102
}
330
C
100
AcDbDictionary
281
     1
  0
DICTIONARY
  5
4ED7
102
{ACAD_REACTORS
330
C
102
}
330
C
100
AcDbDictionary
281
     1
  3
Metric50
350
4ED8
  0
DICTIONARY
  5
D
102
{ACAD_REACTORS
330
C
102
}
330
C
100
AcDbDictionary
281
     1
  0
DICTIONARY
  5
4DFA
102
{ACAD_REACTORS
330
C
102
}
330
C
100
AcDbDictionary
281
     1
  3
Model
350
4DFC
  3
\U+FF9A\U+FF72\U+FF71\U+FF73\U+FF841
350
4DFD
  0
DICTIONARY
  5
4E90
102
{ACAD_REACTORS
330
C
102
}
330
C
100
AcDbDictionary
281
     1
  3
ByBlock
350
4E99
  3
ByLayer
350
4E91
  3
Global
350
4EA1
  0
DICTIONARY
  5
4ED3
102
{ACAD_REACTORS
330
C
102
}
330
C
100
AcDbDictionary
281
     1
  3
S2
350
5623
  3
Standard
350
4ED4
  0
DICTIONARY
  5
1B
102
{ACAD_REACTORS
330
C
102
}
330
C
100
AcDbDictionary
281
     1
  3
STANDARD
350
1C
  0
DICTIONARY
  5
4DFB
102
{ACAD_REACTORS
330
C
102
}
330
C
100
AcDbDictionary
281
     1
  0
ACDBDICTIONARYWDFLT
  5
4DF8
102
{ACAD_REACTORS
330
C
102
}
330
C
100
AcDbDictionary
281
     1
  3
Normal
350
4DF9
100
AcDbDictionaryWithDefault
340
4DF9
  0
DICTIONARY
  5
4EC5
102
{ACAD_REACTORS
330
C
102
}
330
C
100
AcDbDictionary
281
     1
  3
A0
350
4EC6
  3
A1
350
4EC7
  3
A2
350
4EC8
  3
A3
350
4EC9
  3
A4
350
4ECA
  3
A5
350
4ECB
  3
A6
350
4ECC
  3
A7
350
4ECD
  3
A8
350
4ECE
  3
A9
350
4ECF
  3
B0
350
4ED0
  3
B1
350
4ED1
  3
B2
350
4ED2
  0
DICTIONARY
  5
4ED5
102
{ACAD_REACTORS
330
C
102
}
330
C
100
AcDbDictionary
281
     1
  3
Metric50
350
4ED6
  0
DICTIONARY
  5
4EC3
102
{ACAD_REACTORS
330
C
102
}
330
C
100
AcDbDictionary
281
     1
  3
Standard
350
4EC4
  0
DICTIONARY
  5
4EA9
102
{ACAD_REACTORS
330
C
102
}
330
C
100
AcDbDictionary
281
     1
  3
2dWireframe
350
4EAF
  3
Basic
350
4EAE
  3
Brighten
350
4EB5
  3
ColorChange
350
4EB9
  3
Conceptual
350
4EB2
  3
Dim
350
4EB4
  3
EdgeColorOff
350
4EC1
  3
Facepattern
350
4EB8
  3
Flat
350
4EAA
  3
FlatWithEdges
350
4EAB
  3
Gouraud
350
4EAC
  3
GouraudWithEdges
350
4EAD
  3
Hidden
350
4EB1
  3
JitterOff
350
4EBF
  3
Linepattern
350
4EB7
  3
OverhangOff
350
4EC0
  3
Realistic
350
4EB3
  3
Shaded
350
4EBE
  3
Shaded with edges
350
4EBD
  3
Shades of Gray
350
4EBA
  3
Sketchy
350
4EBB
  3
Thicken
350
4EB6
  3
Wireframe
350
4EB0
  3
X-Ray
350
4EBC
  0
XRECORD
  5
8278
102
{ACAD_REACTORS
330
C
102
}
330
C
100
AcDbXrecord
280
     1
 90
        1
330
4EC4
  0
DICTIONARY
  5
33
102
{ACAD_REACTORS
330
C
102
}
330
C
100
AcDbDictionary
281
     1
  3
CANNOSCALE
350
4F31
  3
CMLEADERSTYLE
350
4F2E
  3
CTABLESTYLE
350
4F2D
  3
CVIEWDETAILSTYLE
350
4F2F
  3
CVIEWSECTIONSTYLE
350
4F30
  3
DIMADEC
350
34
  3
DIMASSOC
350
4F34
  3
INDEXCTL
350
4F33
  3
SORTENTS
350
4F32
  3
XCLIPFRAME
350
8276
  0
DICTIONARY
  5
23
102
{ACAD_REACTORS
330
C
102
}
330
C
100
AcDbDictionary
281
     1
  0
XRECORD
  5
8279
102
{ACAD_REACTORS
330
C
102
}
330
C
100
AcDbXrecord
280
     1
  1
DWGPROPS COOKIE
  2

  3

  4

  6

  7

  8
arai
  9

300
=
301
=
302
=
303
=
304
=
305
=
306
=
307
=
308
=
309
=
 40
0.2018681712962963
 41
2451379.622546296
 42
2459040.624247685
  1

 90
        0
  0
DICTIONARY
  5
4F41
102
{ACAD_REACTORS
330
4F40
102
}
330
4F40
100
AcDbDictionary
281
     1
  0
XRECORD
  5
4EDE
102
{ACAD_REACTORS
330
4EDD
102
}
330
4EDD
100
AcDbXrecord
280
     1
290
     1
  0
XRECORD
  5
4EE0
102
{ACAD_REACTORS
330
4EDF
102
}
330
4EDF
100
AcDbXrecord
280
     1
290
     1
  0
XRECORD
  5
4EE2
102
{ACAD_REACTORS
330
4EE1
102
}
330
4EE1
100
AcDbXrecord
280
     1
290
     1
  0
XRECORD
  5
4E86
102
{ACAD_REACTORS
330
4E52
102
}
330
4E52
100
AcDbXrecord
280
     1
340
18
  0
XRECORD
  5
4E85
102
{ACAD_REACTORS
330
4E50
102
}
330
4E50
100
AcDbXrecord
280
     1
340
15
  0
XRECORD
  5
827F
102
{ACAD_REACTORS
330
827E
102
}
330
827E
100
AcDbXrecord
280
     1
102
SHADEPLOT
 70
     0
  0
XRECORD
  5
8281
102
{ACAD_REACTORS
330
8280
102
}
330
8280
100
AcDbXrecord
280
     1
102
SHADEPLOT
 70
     0
  0
ACDBDETAILVIEWSTYLE
  5
4ED8
102
{ACAD_XDICTIONARY
360
82BA
102
}
102
{ACAD_REACTORS
330
4ED7
102
}
330
4ED7
100
AcDbModelDocViewStyle
 70
     0
  3
Metric50
290
     0
100
AcDbDetailViewStyle
 70
     0
 71
     0
 90
        3
 71
     1
340
F
 40
5.0
340
0
 40
5.0
300

 40
0.0
280
     1
 71
     2
340
14
 90
       25
 71
     3
340
F
 40
5.0
 90
        0
 40
15.0
 90
        1
300
%<\AcVar ViewDetailId>% (%<\AcVar ViewScale \f "%sn">%)
 71
     4
340
14
 90
       25
340
14
 90
       25
280
     0
  0
LAYOUT
  5
4DFC
102
{ACAD_XDICTIONARY
360
827A
102
}
102
{ACAD_REACTORS
330
4DFA
102
}
330
4DFA
100
AcDbPlotSettings
  1

  2
RICOH imagio MF4570
  4

  6

 40
0.0
 41
0.0
 42
0.0
 43
0.0
 44
0.0
 45
0.0
 46
0.0
 47
0.0
 48
0.0
 49
0.0
140
0.0
141
0.0
142
1.0
143
1.0
 70
  1712
 72
     0
 73
     0
 74
     0
  7
suzuki.ctb
 75
     0
147
1.0
148
0.0
149
0.0
100
AcDbLayout
  1
Model
 70
     1
 71
     0
 10
0.0
 20
0.0
 11
12.0
 21
9.0
 12
0.0
 22
0.0
 32
0.0
 14
0.0
 24
0.0
 34
0.0
 15
0.0
 25
0.0
 35
0.0
146
0.0
 13
0.0
 23
0.0
 33
0.0
 16
1.0
 26
0.0
 36
0.0
 17
0.0
 27
1.0
 37
0.0
 76
     0
330
18
331
4E62
  0
LAYOUT
  5
4DFD
102
{ACAD_XDICTIONARY
360
827C
102
}
102
{ACAD_REACTORS
330
4DFA
102
}
330
4DFA
100
AcDbPlotSettings
  1

  2
RICOH imagio MF4570
  4
A3
  6

 40
5.873749732971191
 41
8.286766052246091
 42
4.222747802734375
 43
5.81024169921875
 44
419.9889831542968
 45
296.989501953125
 46
0.0
 47
0.0
 48
0.0
 49
0.0
140
0.0
141
0.0
142
1.0
143
1.0
 70
   688
 72
     1
 73
     0
 74
     5
  7
suzuki.ctb
 75
    16
147
1.0
148
0.0
149
0.0
100
AcDbLayout
  1
\U+FF9A\U+FF72\U+FF71\U+FF73\U+FF841
 70
     1
 71
     1
 10
-5.873749732971191
 20
-8.286766052246091
 11
414.1152334213257
 21
288.7027359008789
 12
0.0
 22
0.0
 32
0.0
 14
40.98924856185914
 24
28.28924942016602
 34
0.0
 15
368.9032370567322
 25
254.6032447814941
 35
0.0
146
0.0
 13
0.0
 23
0.0
 33
0.0
 16
1.0
 26
0.0
 36
0.0
 17
0.0
 27
1.0
 37
0.0
 76
     0
330
15
331
4E5F
  0
MATERIAL
  5
4E99
102
{ACAD_XDICTIONARY
360
4E9A
102
}
102
{ACAD_REACTORS
330
4E90
102
}
330
4E90
100
AcDbMaterial
  1
ByBlock
 72
     0
 43
0.0208333333333333
 43
0.0
 43
0.0
 43
0.0
 43
0.0
 43
0.0208333333333333
 43
0.0
 43
0.0
 43
0.0
 43
0.0
 43
1.0
 43
0.0
 43
0.0
 43
0.0
 43
0.0
 43
1.0
 77
     0
 47
0.0208333333333333
 47
0.0
 47
0.0
 47
0.0
 47
0.0
 47
0.0208333333333333
 47
0.0
 47
0.0
 47
0.0
 47
0.0
 47
1.0
 47
0.0
 47
0.0
 47
0.0
 47
0.0
 47
1.0
171
     0
 49
0.0208333333333333
 49
0.0
 49
0.0
 49
0.0
 49
0.0
 49
0.0208333333333333
 49
0.0
 49
0.0
 49
0.0
 49
0.0
 49
1.0
 49
0.0
 49
0.0
 49
0.0
 49
0.0
 49
1.0
175
     0
142
0.0208333333333333
142
0.0
142
0.0
142
0.0
142
0.0
142
0.0208333333333333
142
0.0
142
0.0
142
0.0
142
0.0
142
1.0
142
0.0
142
0.0
142
0.0
142
0.0
142
1.0
179
     0
144
0.0208333333333333
144
0.0
144
0.0
144
0.0
144
0.0
144
0.0208333333333333
144
0.0
144
0.0
144
0.0
144
0.0
144
1.0
144
0.0
144
0.0
144
0.0
144
0.0
144
1.0
147
0.0208333333333333
147
0.0
147
0.0
147
0.0
147
0.0
147
0.0208333333333333
147
0.0
147
0.0
147
0.0
147
0.0
147
1.0
147
0.0
147
0.0
147
0.0
147
0.0
147
1.0
  0
MATERIAL
  5
4E91
102
{ACAD_XDICTIONARY
360
4E92
102
}
102
{ACAD_REACTORS
330
4E90
102
}
330
4E90
100
AcDbMaterial
  1
ByLayer
 72
     0
 43
0.0208333333333333
 43
0.0
 43
0.0
 43
0.0
 43
0.0
 43
0.0208333333333333
 43
0.0
 43
0.0
 43
0.0
 43
0.0
 43
1.0
 43
0.0
 43
0.0
 43
0.0
 43
0.0
 43
1.0
 77
     0
 47
0.0208333333333333
 47
0.0
 47
0.0
 47
0.0
 47
0.0
 47
0.0208333333333333
 47
0.0
 47
0.0
 47
0.0
 47
0.0
 47
1.0
 47
0.0
 47
0.0
 47
0.0
 47
0.0
 47
1.0
171
     0
 49
0.0208333333333333
 49
0.0
 49
0.0
 49
0.0
 49
0.0
 49
0.0208333333333333
 49
0.0
 49
0.0
 49
0.0
 49
0.0
 49
1.0
 49
0.0
 49
0.0
 49
0.0
 49
0.0
 49
1.0
175
     0
142
0.0208333333333333
142
0.0
142
0.0
142
0.0
142
0.0
142
0.0208333333333333
142
0.0
142
0.0
142
0.0
142
0.0
142
1.0
142
0.0
142
0.0
142
0.0
142
0.0
142
1.0
179
     0
144
0.0208333333333333
144
0.0
144
0.0
144
0.0
144
0.0
144
0.0208333333333333
144
0.0
144
0.0
144
0.0
144
0.0
144
1.0
144
0.0
144
0.0
144
0.0
144
0.0
144
1.0
147
0.0208333333333333
147
0.0
147
0.0
147
0.0
147
0.0
147
0.0208333333333333
147
0.0
147
0.0
147
0.0
147
0.0
147
1.0
147
0.0
147
0.0
147
0.0
147
0.0
147
1.0
  0
MATERIAL
  5
4EA1
102
{ACAD_XDICTIONARY
360
4EA2
102
}
102
{ACAD_REACTORS
330
4E90
102
}
330
4E90
100
AcDbMaterial
  1
Global
 72
     0
 43
0.0208333333333333
 43
0.0
 43
0.0
 43
0.0
 43
0.0
 43
0.0208333333333333
 43
0.0
 43
0.0
 43
0.0
 43
0.0
 43
1.0
 43
0.0
 43
0.0
 43
0.0
 43
0.0
 43
1.0
 77
     0
 47
0.0208333333333333
 47
0.0
 47
0.0
 47
0.0
 47
0.0
 47
0.0208333333333333
 47
0.0
 47
0.0
 47
0.0
 47
0.0
 47
1.0
 47
0.0
 47
0.0
 47
0.0
 47
0.0
 47
1.0
171
     0
 49
0.0208333333333333
 49
0.0
 49
0.0
 49
0.0
 49
0.0
 49
0.0208333333333333
 49
0.0
 49
0.0
 49
0.0
 49
0.0
 49
1.0
 49
0.0
 49
0.0
 49
0.0
 49
0.0
 49
1.0
175
     0
142
0.0208333333333333
142
0.0
142
0.0
142
0.0
142
0.0
142
0.0208333333333333
142
0.0
142
0.0
142
0.0
142
0.0
142
1.0
142
0.0
142
0.0
142
0.0
142
0.0
142
1.0
179
     0
144
0.0208333333333333
144
0.0
144
0.0
144
0.0
144
0.0
144
0.0208333333333333
144
0.0
144
0.0
144
0.0
144
0.0
144
1.0
144
0.0
144
0.0
144
0.0
144
0.0
144
1.0
147
0.0208333333333333
147
0.0
147
0.0
147
0.0
147
0.0
147
0.0208333333333333
147
0.0
147
0.0
147
0.0
147
0.0
147
1.0
147
0.0
147
0.0
147
0.0
147
0.0
147
1.0
  0
MLEADERSTYLE
  5
5623
102
{ACAD_XDICTIONARY
360
82BC
102
}
102
{ACAD_REACTORS
330
4ED3
102
}
330
4ED3
100
AcDbMLeaderStyle
170
     2
171
     1
172
     0
 90
        2
 40
0.0
 41
0.0
173
     1
 91
-1023410167
340
12
 92
       -2
290
     1
 42
1.0
291
     1
 43
0.36
  3
Standard
 44
2.5
300

342
F
174
     6
178
     6
175
     1
176
     0
 93
-1023410172
 45
2.5
292
     0
297
     0
 46
0.18
 94
-1056964608
 47
1.0
 49
1.0
140
1.0
293
     1
141
0.0
294
     1
177
     0
142
2.0
295
     0
296
     0
143
0.125
1001
ACAD_MLEADERVER
1070
     2
  0
MLEADERSTYLE
  5
4ED4
102
{ACAD_XDICTIONARY
360
82B6
102
}
102
{ACAD_REACTORS
330
4ED3
102
}
330
4ED3
100
AcDbMLeaderStyle
170
     2
171
     1
172
     0
 90
        2
 40
0.0
 41
0.0
173
     1
 91
-1056964608
340
12
 92
       -2
290
     1
 42
2.0
291
     1
 43
0.36
  3
Standard
 44
4.0
300

342
F
174
     1
178
     6
175
     1
176
     0
 93
-1056964608
 45
4.0
292
     0
297
     0
 46
4.0
 94
-1056964608
 47
1.0
 49
1.0
140
1.0
293
     1
141
0.0
294
     1
177
     0
142
1.0
295
     0
296
     0
143
0.125
1001
ACAD_MLEADERVER
1070
     2
  0
MLINESTYLE
  5
1C
102
{ACAD_REACTORS
330
1B
102
}
330
1B
100
AcDbMlineStyle
  2
STANDARD
 70
     0
  3

 62
   256
 51
90.0
 52
90.0
 71
     2
 49
0.5
 62
   256
  6
BYLAYER
 49
-0.5
 62
   256
  6
BYLAYER
  0
ACDBPLACEHOLDER
  5
4DF9
102
{ACAD_REACTORS
330
4DF8
102
}
330
4DF8
  0
SCALE
  5
4EC6
102
{ACAD_REACTORS
330
4EC5
102
}
330
4EC5
100
AcDbScale
 70
     0
300
1:1
140
1.0
141
1.0
290
     1
  0
SCALE
  5
4EC7
102
{ACAD_REACTORS
330
4EC5
102
}
330
4EC5
100
AcDbScale
 70
     0
300
1:2
140
1.0
141
2.0
290
     0
  0
SCALE
  5
4EC8
102
{ACAD_REACTORS
330
4EC5
102
}
330
4EC5
100
AcDbScale
 70
     0
300
1:3
140
1.0
141
3.0
290
     0
  0
SCALE
  5
4EC9
102
{ACAD_REACTORS
330
4EC5
102
}
330
4EC5
100
AcDbScale
 70
     0
300
1:4
140
1.0
141
4.0
290
     0
  0
SCALE
  5
4ECA
102
{ACAD_REACTORS
330
4EC5
102
}
330
4EC5
100
AcDbScale
 70
     0
300
1:5
140
1.0
141
5.0
290
     0
  0
SCALE
  5
4ECB
102
{ACAD_REACTORS
330
4EC5
102
}
330
4EC5
100
AcDbScale
 70
     0
300
1:6
140
1.0
141
6.0
290
     0
  0
SCALE
  5
4ECC
102
{ACAD_REACTORS
330
4EC5
102
}
330
4EC5
100
AcDbScale
 70
     0
300
1:10
140
1.0
141
10.0
290
     0
  0
SCALE
  5
4ECD
102
{ACAD_REACTORS
330
4EC5
102
}
330
4EC5
100
AcDbScale
 70
     0
300
1:20
140
1.0
141
20.0
290
     0
  0
SCALE
  5
4ECE
102
{ACAD_REACTORS
330
4EC5
102
}
330
4EC5
100
AcDbScale
 70
     0
300
1:30
140
1.0
141
30.0
290
     0
  0
SCALE
  5
4ECF
102
{ACAD_REACTORS
330
4EC5
102
}
330
4EC5
100
AcDbScale
 70
     0
300
1:40
140
1.0
141
40.0
290
     0
  0
SCALE
  5
4ED0
102
{ACAD_REACTORS
330
4EC5
102
}
330
4EC5
100
AcDbScale
 70
     0
300
1:50
140
1.0
141
50.0
290
     0
  0
SCALE
  5
4ED1
102
{ACAD_REACTORS
330
4EC5
102
}
330
4EC5
100
AcDbScale
 70
     0
300
1:100
140
1.0
141
100.0
290
     0
  0
SCALE
  5
4ED2
102
{ACAD_REACTORS
330
4EC5
102
}
330
4EC5
100
AcDbScale
 70
     0
300
2:1
140
2.0
141
1.0
290
     0
  0
ACDBSECTIONVIEWSTYLE
  5
4ED6
102
{ACAD_XDICTIONARY
360
82B8
102
}
102
{ACAD_REACTORS
330
4ED5
102
}
330
4ED5
100
AcDbModelDocViewStyle
 70
     0
  3
Metric50
290
     0
100
AcDbSectionViewStyle
 70
     0
 71
     0
 90
      102
 71
     1
340
F
 40
5.0
340
0
340
0
 40
5.0
300
I, O, Q, S, X, Z
 40
10.0
 90
        0
 40
2.5
 90
        0
 71
     2
340
14
 90
       25
340
14
 90
       50
 40
5.0
 40
2.5
 40
5.0
 71
     3
340
F
 40
5.0
 90
        0
 40
15.0
 90
        1
300
%<\AcVar ViewSectionStartId>%-%<\AcVar ViewSectionEndId>% (%<\AcVar ViewScale \f "%sn">%)
 71
     4
300
ANSI31
 40
1.0
 90
        0
290
     0
290
     0
 90
        6
 40
0.0
 40
1.570796326794896
 40
0.2617993877991494
 40
1.308996938995747
 40
-0.2617993877991494
 40
1.832595714594045
  0
TABLESTYLE
  5
4EC4
102
{ACAD_XDICTIONARY
360
4EE4
102
}
102
{ACAD_REACTORS
330
4EC3
102
}
330
4EC3
100
AcDbTableStyle
  3
Standard
 70
     0
 71
     0
 40
1.5
 41
1.5
280
     0
281
     0
  7
STANDARD
140
4.5
170
     2
 62
     0
 63
     7
283
     0
274
    -2
284
     1
 64
     0
275
    -2
285
     1
 65
     0
276
    -2
286
     1
 66
     0
277
    -2
287
     1
 67
     0
278
    -2
288
     1
 68
     0
279
    -2
289
     1
 69
     0
  7
STANDARD
140
6.0
170
     5
 62
     0
 63
     7
283
     0
274
    -2
284
     1
 64
     0
275
    -2
285
     1
 65
     0
276
    -2
286
     1
 66
     0
277
    -2
287
     1
 67
     0
278
    -2
288
     1
 68
     0
279
    -2
289
     1
 69
     0
  7
STANDARD
140
4.5
170
     5
 62
     0
 63
     7
283
     0
274
    -2
284
     1
 64
     0
275
    -2
285
     1
 65
     0
276
    -2
286
     1
 66
     0
277
    -2
287
     1
 67
     0
278
    -2
288
     1
 68
     0
279
    -2
289
     1
 69
     0
  0
VISUALSTYLE
  5
4EAF
102
{ACAD_XDICTIONARY
360
828F
102
}
102
{ACAD_REACTORS
330
4EA9
102
}
330
4EA9
100
AcDbVisualStyle
  2

 70
     4
 71
     0
 72
     2
 73
     0
 90
        0
 40
-0.6
 41
-30.0
 62
     5
 63
     7
 74
     1
 91
        4
 64
     7
 65
   257
 75
     1
175
     1
 42
1.0
 92
        0
 66
   257
 43
1.0
 76
     1
 77
     6
 78
     2
 67
     7
 79
     5
170
     0
171
     0
290
     0
174
     0
 93
        1
 44
0.0
173
     0
291
     0
 45
0.0
1001
ACAD
1000
AcDbSavedByObjectVersion
1070
     0
  0
VISUALSTYLE
  5
4EAE
102
{ACAD_XDICTIONARY
360
828D
102
}
102
{ACAD_REACTORS
330
4EA9
102
}
330
4EA9
100
AcDbVisualStyle
  2

 70
     7
 71
     1
 72
     0
 73
     1
 90
        0
 40
-0.6
 41
-30.0
 62
     5
 63
     7
 74
     0
 91
        4
 64
     7
 65
   257
 75
     1
175
     1
 42
1.0
 92
        8
 66
     7
 43
1.0
 76
     1
 77
     6
 78
     2
 67
     7
 79
     5
170
     0
171
     0
290
     0
174
     0
 93
        1
 44
0.0
173
     0
291
     1
 45
0.0
1001
ACAD
1000
AcDbSavedByObjectVersion
1070
     0
  0
VISUALSTYLE
  5
4EB5
102
{ACAD_XDICTIONARY
360
829B
102
}
102
{ACAD_REACTORS
330
4EA9
102
}
330
4EA9
100
AcDbVisualStyle
  2

 70
    12
 71
     2
 72
     2
 73
     0
 90
        0
 40
-0.6
 41
-30.0
 62
     5
 63
     7
 74
     1
 91
        4
 64
     7
 65
   257
 75
     1
175
     1
 42
1.0
 92
        8
 66
     7
 43
1.0
 76
     1
 77
     6
 78
     2
 67
     7
 79
     5
170
     0
171
     0
290
     0
174
     0
 93
        1
 44
50.0
173
     0
291
     1
 45
0.0
1001
ACAD
1000
AcDbSavedByObjectVersion
1070
     0
  0
VISUALSTYLE
  5
4EB9
102
{ACAD_XDICTIONARY
360
82A3
102
}
102
{ACAD_REACTORS
330
4EA9
102
}
330
4EA9
100
AcDbVisualStyle
  2

 70
    16
 71
     2
 72
     2
 73
     3
 90
        0
 40
-0.6
 41
-30.0
 62
     5
 63
     8
 74
     1
 91
        4
 64
     7
 65
   257
 75
     1
175
     1
 42
1.0
 92
        8
 66
     8
 43
1.0
 76
     1
 77
     6
 78
     2
 67
     7
 79
     5
170
     0
171
     0
290
     0
174
     0
 93
        1
 44
0.0
173
     0
291
     1
 45
0.0
1001
ACAD
1000
AcDbSavedByObjectVersion
1070
     0
  0
VISUALSTYLE
  5
4EB2
102
{ACAD_XDICTIONARY
360
8295
102
}
102
{ACAD_REACTORS
330
4EA9
102
}
330
4EA9
100
AcDbVisualStyle
  2

 70
     9
 71
     3
 72
     2
 73
     0
 90
        0
 40
-0.6
 41
-30.0
 62
     5
 63
     7
 74
     2
 91
        2
 64
     7
 65
   257
 75
     1
175
     1
 42
179.0
 92
        8
 66
     7
 43
1.0
 76
     1
 77
     6
 78
     2
 67
     7
 79
     3
170
     0
171
     0
290
     0
174
     0
 93
        1
 44
0.0
173
     0
291
     0
 45
0.0
1001
ACAD
1000
AcDbSavedByObjectVersion
1070
     0
  0
VISUALSTYLE
  5
4EB4
102
{ACAD_XDICTIONARY
360
8299
102
}
102
{ACAD_REACTORS
330
4EA9
102
}
330
4EA9
100
AcDbVisualStyle
  2

 70
    11
 71
     2
 72
     2
 73
     0
 90
        0
 40
-0.6
 41
-30.0
 62
     5
 63
     7
 74
     1
 91
        4
 64
     7
 65
   257
 75
     1
175
     1
 42
1.0
 92
        8
 66
     7
 43
1.0
 76
     1
 77
     6
 78
     2
 67
     7
 79
     5
170
     0
171
     0
290
     0
174
     0
 93
        1
 44
-50.0
173
     0
291
     1
 45
0.0
1001
ACAD
1000
AcDbSavedByObjectVersion
1070
     0
  0
VISUALSTYLE
  5
4EC1
102
{ACAD_XDICTIONARY
360
82B3
102
}
102
{ACAD_REACTORS
330
4EA9
102
}
330
4EA9
100
AcDbVisualStyle
  2

 70
    22
 71
     2
 72
     2
 73
     0
 90
        0
 40
-0.6
 41
-30.0
 62
     5
 63
     7
 74
     1
 91
        4
 64
     7
 65
   257
 75
     1
175
     1
 42
1.0
 92
        8
 66
     7
 43
1.0
 76
     1
 77
     6
 78
     2
 67
     7
 79
     5
170
     0
171
     0
290
     0
174
     0
 93
        1
 44
0.0
173
     0
291
     1
 45
0.0
1001
ACAD
1000
AcDbSavedByObjectVersion
1070
     0
  0
VISUALSTYLE
  5
4EB8
102
{ACAD_XDICTIONARY
360
82A1
102
}
102
{ACAD_REACTORS
330
4EA9
102
}
330
4EA9
100
AcDbVisualStyle
  2

 70
    15
 71
     2
 72
     2
 73
     0
 90
        0
 40
-0.6
 41
-30.0
 62
     5
 63
     7
 74
     1
 91
        4
 64
     7
 65
   257
 75
     1
175
     1
 42
1.0
 92
        8
 66
     7
 43
1.0
 76
     1
 77
     6
 78
     2
 67
     7
 79
     5
170
     0
171
     0
290
     0
174
     0
 93
        1
 44
0.0
173
     0
291
     1
 45
0.0
1001
ACAD
1000
AcDbSavedByObjectVersion
1070
     0
  0
VISUALSTYLE
  5
4EAA
102
{ACAD_XDICTIONARY
360
8285
102
}
102
{ACAD_REACTORS
330
4EA9
102
}
330
4EA9
100
AcDbVisualStyle
  2

 70
     0
 71
     2
 72
     1
 73
     1
 90
        2
 40
-0.6
 41
30.0
 62
     5
 63
     7
 74
     0
 91
        0
 64
     7
 65
   257
 75
     1
175
     1
 42
1.0
 92
        8
 66
     7
 43
1.0
 76
     1
 77
     6
 78
     2
 67
     7
 79
     5
170
     0
171
     0
290
     0
174
     0
 93
       13
 44
0.0
173
     0
291
     1
 45
0.0
1001
ACAD
1000
AcDbSavedByObjectVersion
1070
     0
  0
VISUALSTYLE
  5
4EAB
102
{ACAD_XDICTIONARY
360
8287
102
}
102
{ACAD_REACTORS
330
4EA9
102
}
330
4EA9
100
AcDbVisualStyle
  2

 70
     1
 71
     2
 72
     1
 73
     1
 90
        2
 40
-0.6
 41
30.0
 62
     5
 63
     7
 74
     1
 91
        0
 64
     7
 65
   257
 75
     1
175
     1
 42
1.0
 92
        0
 66
   257
 43
1.0
 76
     1
 77
     6
 78
     2
 67
     7
 79
     5
170
     0
171
     0
290
     0
174
     0
 93
       13
 44
0.0
173
     0
291
     1
 45
0.0
1001
ACAD
1000
AcDbSavedByObjectVersion
1070
     0
  0
VISUALSTYLE
  5
4EAC
102
{ACAD_XDICTIONARY
360
8289
102
}
102
{ACAD_REACTORS
330
4EA9
102
}
330
4EA9
100
AcDbVisualStyle
  2

 70
     2
 71
     2
 72
     2
 73
     1
 90
        2
 40
-0.6
 41
30.0
 62
     5
 63
     7
 74
     0
 91
        0
 64
     7
 65
   257
 75
     1
175
     1
 42
1.0
 92
        0
 66
     7
 43
1.0
 76
     1
 77
     6
 78
     2
 67
     7
 79
     5
170
     0
171
     0
290
     0
174
     0
 93
       13
 44
0.0
173
     0
291
     1
 45
0.0
1001
ACAD
1000
AcDbSavedByObjectVersion
1070
     0
  0
VISUALSTYLE
  5
4EAD
102
{ACAD_XDICTIONARY
360
828B
102
}
102
{ACAD_REACTORS
330
4EA9
102
}
330
4EA9
100
AcDbVisualStyle
  2

 70
     3
 71
     2
 72
     2
 73
     1
 90
        2
 40
-0.6
 41
30.0
 62
     5
 63
     7
 74
     1
 91
        0
 64
     7
 65
   257
 75
     1
175
     1
 42
1.0
 92
        0
 66
   257
 43
1.0
 76
     1
 77
     6
 78
     2
 67
     7
 79
     5
170
     0
171
     0
290
     0
174
     0
 93
       13
 44
0.0
173
     0
291
     1
 45
0.0
1001
ACAD
1000
AcDbSavedByObjectVersion
1070
     0
  0
VISUALSTYLE
  5
4EB1
102
{ACAD_XDICTIONARY
360
8293
102
}
102
{ACAD_REACTORS
330
4EA9
102
}
330
4EA9
100
AcDbVisualStyle
  2

 70
     6
 71
     1
 72
     2
 73
     2
 90
        0
 40
-0.6
 41
-30.0
 62
     5
 63
     7
 74
     2
 91
        2
 64
     7
 65
   257
 75
     2
175
     1
 42
40.0
 92
        0
 66
   257
 43
1.0
 76
     1
 77
     6
 78
     2
 67
     7
 79
     3
170
     0
171
     0
290
     0
174
     0
 93
        1
 44
0.0
173
     0
291
     0
 45
0.0
1001
ACAD
1000
AcDbSavedByObjectVersion
1070
     0
  0
VISUALSTYLE
  5
4EBF
102
{ACAD_XDICTIONARY
360
82AF
102
}
102
{ACAD_REACTORS
330
4EA9
102
}
330
4EA9
100
AcDbVisualStyle
  2

 70
    20
 71
     2
 72
     2
 73
     0
 90
        0
 40
-0.6
 41
-30.0
 62
     5
 63
     7
 74
     1
 91
        4
 64
     7
 65
   257
 75
     1
175
     1
 42
1.0
 92
       10
 66
     7
 43
1.0
 76
     1
 77
     6
 78
     2
 67
     7
 79
     5
170
     0
171
     0
290
     0
174
     0
 93
        1
 44
0.0
173
     0
291
     1
 45
0.0
1001
ACAD
1000
AcDbSavedByObjectVersion
1070
     0
  0
VISUALSTYLE
  5
4EB7
102
{ACAD_XDICTIONARY
360
829F
102
}
102
{ACAD_REACTORS
330
4EA9
102
}
330
4EA9
100
AcDbVisualStyle
  2

 70
    14
 71
     2
 72
     2
 73
     0
 90
        0
 40
-0.6
 41
-30.0
 62
     5
 63
     7
 74
     1
 91
        4
 64
     7
 65
   257
 75
     7
175
     7
 42
1.0
 92
        8
 66
     7
 43
1.0
 76
     1
 77
     6
 78
     2
 67
     7
 79
     5
170
     0
171
     0
290
     0
174
     0
 93
        1
 44
0.0
173
     0
291
     1
 45
0.0
1001
ACAD
1000
AcDbSavedByObjectVersion
1070
     0
  0
VISUALSTYLE
  5
4EC0
102
{ACAD_XDICTIONARY
360
82B1
102
}
102
{ACAD_REACTORS
330
4EA9
102
}
330
4EA9
100
AcDbVisualStyle
  2

 70
    21
 71
     2
 72
     2
 73
     0
 90
        0
 40
-0.6
 41
-30.0
 62
     5
 63
     7
 74
     1
 91
        4
 64
     7
 65
   257
 75
     1
175
     1
 42
1.0
 92
        9
 66
     7
 43
1.0
 76
     1
 77
     6
 78
     2
 67
     7
 79
     5
170
     0
171
     0
290
     0
174
     0
 93
        1
 44
0.0
173
     0
291
     1
 45
0.0
1001
ACAD
1000
AcDbSavedByObjectVersion
1070
     0
  0
VISUALSTYLE
  5
4EB3
102
{ACAD_XDICTIONARY
360
8297
102
}
102
{ACAD_REACTORS
330
4EA9
102
}
330
4EA9
100
AcDbVisualStyle
  2

 70
     8
 71
     2
 72
     2
 73
     0
 90
        2
 40
-0.6
 41
30.0
 62
     5
 63
     7
 74
     0
 91
        0
 64
     7
 65
   257
 75
     1
175
     1
 42
1.0
 92
        8
 66
   257
 43
1.0
 76
     1
 77
     6
 78
     2
 67
     7
 79
     3
170
     0
171
     0
290
     0
174
     0
 93
       13
 44
0.0
173
     0
291
     0
 45
0.0
1001
ACAD
1000
AcDbSavedByObjectVersion
1070
     0
  0
VISUALSTYLE
  5
4EBE
102
{ACAD_XDICTIONARY
360
82AD
102
}
102
{ACAD_REACTORS
330
4EA9
102
}
330
4EA9
100
AcDbVisualStyle
  2

 70
    27
 71
     2
 72
     2
 73
     1
 90
        2
 40
-0.6
 41
30.0
 62
     5
 63
     7
 74
     0
 91
        4
 64
     7
 65
   257
 75
     1
175
     1
 42
1.0
 92
        8
 66
   257
 43
1.0
 76
     1
 77
     6
 78
     2
 67
     8
 79
     3
170
     0
171
     0
290
     0
174
     0
 93
        5
 44
0.0
173
     0
291
     0
 45
0.0
1001
ACAD
1000
AcDbSavedByObjectVersion
1070
     0
  0
VISUALSTYLE
  5
4EBD
102
{ACAD_XDICTIONARY
360
82AB
102
}
102
{ACAD_REACTORS
330
4EA9
102
}
330
4EA9
100
AcDbVisualStyle
  2

 70
    26
 71
     2
 72
     2
 73
     1
 90
        2
 40
-0.6
 41
30.0
 62
     5
 63
     7
 74
     1
 91
        2
 64
     7
 65
   257
 75
     2
175
     1
 42
1.0
 92
        8
 66
   257
 43
1.0
 76
     1
 77
     6
 78
     2
 67
     7
 79
     3
170
     0
171
     0
290
     0
174
     0
 93
        5
 44
0.0
173
     0
291
     0
 45
0.0
1001
ACAD
1000
AcDbSavedByObjectVersion
1070
     0
  0
VISUALSTYLE
  5
4EBA
102
{ACAD_XDICTIONARY
360
82A5
102
}
102
{ACAD_REACTORS
330
4EA9
102
}
330
4EA9
100
AcDbVisualStyle
  2

 70
    23
 71
     2
 72
     2
 73
     3
 90
        0
 40
-0.6
 41
-30.0
 62
     5
 63
     7
 74
     2
 91
        2
 64
     7
 65
     7
 75
     1
175
     1
 42
40.0
 92
        8
 66
     7
 43
1.0
 76
     1
 77
     6
 78
     2
 67
     7
 79
     3
170
     0
171
     0
290
     0
174
     0
 93
        1
 44
0.0
173
     0
291
     0
 45
0.0
1001
ACAD
1000
AcDbSavedByObjectVersion
1070
     0
  0
VISUALSTYLE
  5
4EBB
102
{ACAD_XDICTIONARY
360
82A7
102
}
102
{ACAD_REACTORS
330
4EA9
102
}
330
4EA9
100
AcDbVisualStyle
  2

 70
    24
 71
     1
 72
     2
 73
     2
 90
        0
 40
-0.6
 41
-30.0
 62
     5
 63
     7
 74
     2
 91
        2
 64
     7
 65
     7
 75
     1
175
     1
 42
40.0
 92
       11
 66
     7
 43
1.0
 76
     1
 77
     6
 78
     2
 67
     7
 79
     6
170
     0
171
     0
290
     0
174
     0
 93
        1
 44
0.0
173
     0
291
     0
 45
0.0
1001
ACAD
1000
AcDbSavedByObjectVersion
1070
     0
  0
VISUALSTYLE
  5
4EB6
102
{ACAD_XDICTIONARY
360
829D
102
}
102
{ACAD_REACTORS
330
4EA9
102
}
330
4EA9
100
AcDbVisualStyle
  2

 70
    13
 71
     2
 72
     2
 73
     0
 90
        0
 40
-0.6
 41
-30.0
 62
     5
 63
     7
 74
     1
 91
        4
 64
     7
 65
   257
 75
     1
175
     1
 42
1.0
 92
       12
 66
     7
 43
1.0
 76
     1
 77
     6
 78
     2
 67
     7
 79
     5
170
     0
171
     0
290
     0
174
     0
 93
        1
 44
0.0
173
     0
291
     1
 45
0.0
1001
ACAD
1000
AcDbSavedByObjectVersion
1070
     0
  0
VISUALSTYLE
  5
4EB0
102
{ACAD_XDICTIONARY
360
8291
102
}
102
{ACAD_REACTORS
330
4EA9
102
}
330
4EA9
100
AcDbVisualStyle
  2

 70
     5
 71
     0
 72
     2
 73
     0
 90
        0
 40
-0.6
 41
-30.0
 62
     5
 63
     7
 74
     1
 91
        4
 64
     7
 65
   257
 75
     1
175
     1
 42
1.0
 92
        0
 66
   257
 43
1.0
 76
     1
 77
     6
 78
     2
 67
     7
 79
     3
170
     0
171
     0
290
     0
174
     0
 93
        1
 44
0.0
173
     0
291
     0
 45
0.0
1001
ACAD
1000
AcDbSavedByObjectVersion
1070
     0
  0
VISUALSTYLE
  5
4EBC
102
{ACAD_XDICTIONARY
360
82A9
102
}
102
{ACAD_REACTORS
330
4EA9
102
}
330
4EA9
100
AcDbVisualStyle
  2

 70
    25
 71
     2
 72
     2
 73
     1
 90
        1
 40
0.5
 41
-30.0
 62
     5
 63
     7
 74
     1
 91
        0
 64
     7
 65
   257
 75
     1
175
     1
 42
1.0
 92
        8
 66
     7
 43
1.0
 76
     1
 77
     6
 78
     2
 67
     7
 79
     3
170
     0
171
     0
290
     0
174
     0
 93
       13
 44
0.0
173
     0
291
     0
 45
0.0
1001
ACAD
1000
AcDbSavedByObjectVersion
1070
     0
  0
DICTIONARYVAR
  5
4F31
102
{ACAD_REACTORS
330
33
102
}
330
33
100
DictionaryVariables
280
     0
  1
1:1
  0
DICTIONARYVAR
  5
4F2E
102
{ACAD_REACTORS
330
33
102
}
330
33
100
DictionaryVariables
280
     0
  1
STANDARD
  0
DICTIONARYVAR
  5
4F2D
102
{ACAD_REACTORS
330
33
102
}
330
33
100
DictionaryVariables
280
     0
  1
STANDARD
  0
DICTIONARYVAR
  5
4F2F
102
{ACAD_REACTORS
330
33
102
}
330
33
100
DictionaryVariables
280
     0
  1
Metric50
  0
DICTIONARYVAR
  5
4F30
102
{ACAD_REACTORS
330
33
102
}
330
33
100
DictionaryVariables
280
     0
  1
Metric50
  0
DICTIONARYVAR
  5
34
102
{ACAD_REACTORS
330
33
102
}
330
33
100
DictionaryVariables
280
     0
  1
0
  0
DICTIONARYVAR
  5
4F34
102
{ACAD_REACTORS
330
33
102
}
330
33
100
DictionaryVariables
280
     0
  1
1
  0
DICTIONARYVAR
  5
4F33
102
{ACAD_REACTORS
330
33
102
}
330
33
100
DictionaryVariables
280
     0
  1
0
  0
DICTIONARYVAR
  5
4F32
102
{ACAD_REACTORS
330
33
102
}
330
33
100
DictionaryVariables
280
     0
  1
127
  0
DICTIONARYVAR
  5
8276
102
{ACAD_REACTORS
330
33
102
}
330
33
100
DictionaryVariables
280
     0
  1
2
  0
DICTIONARY
  5
82BA
330
4ED8
100
AcDbDictionary
280
     1
281
     1
  3
ACAD_XREC_ROUNDTRIP
360
82BB
  0
DICTIONARY
  5
827A
330
4DFC
100
AcDbDictionary
280
     1
281
     1
  3
ACAD_XREC_ROUNDTRIP
360
827B
  0
DICTIONARY
  5
827C
330
4DFD
100
AcDbDictionary
280
     1
281
     1
  3
ACAD_XREC_ROUNDTRIP
360
827D
  0
DICTIONARY
  5
4E9A
330
4E99
100
AcDbDictionary
280
     1
281
     1
  3
ACAD_XREC_ROUNDTRIP
360
8283
  3
BUMPTILE
360
4E9C
  3
DIFFUSETILE
360
4E9B
  3
OPACITYTILE
360
4E9F
  3
REFLECTIONTILE
360
4E9E
  3
REFRACTIONTILE
360
4EA0
  3
SPECULARTILE
360
4E9D
  0
DICTIONARY
  5
4E92
330
4E91
100
AcDbDictionary
280
     1
281
     1
  3
ACAD_XREC_ROUNDTRIP
360
8282
  3
BUMPTILE
360
4E94
  3
DIFFUSETILE
360
4E93
  3
OPACITYTILE
360
4E97
  3
REFLECTIONTILE
360
4E96
  3
REFRACTIONTILE
360
4E98
  3
SPECULARTILE
360
4E95
  0
DICTIONARY
  5
4EA2
330
4EA1
100
AcDbDictionary
280
     1
281
     1
  3
ACAD_XREC_ROUNDTRIP
360
8284
  3
BUMPTILE
360
4EA4
  3
DIFFUSETILE
360
4EA3
  3
OPACITYTILE
360
4EA7
  3
REFLECTIONTILE
360
4EA6
  3
REFRACTIONTILE
360
4EA8
  3
SPECULARTILE
360
4EA5
  0
DICTIONARY
  5
82BC
330
5623
100
AcDbDictionary
280
     1
281
     1
  3
ACAD_XREC_ROUNDTRIP
360
82BD
  0
DICTIONARY
  5
82B6
330
4ED4
100
AcDbDictionary
280
     1
281
     1
  3
ACAD_XREC_ROUNDTRIP
360
82B7
  0
DICTIONARY
  5
82B8
330
4ED6
100
AcDbDictionary
280
     1
281
     1
  3
ACAD_XREC_ROUNDTRIP
360
82B9
  0
DICTIONARY
  5
4EE4
330
4EC4
100
AcDbDictionary
280
     1
281
     1
  3
ACAD_ROUNDTRIP_2008_TABLESTYLE_CELLSTYLEMAP
360
8277
  3
ACAD_XREC_ROUNDTRIP
360
82B5
  0
DICTIONARY
  5
828F
330
4EAF
100
AcDbDictionary
280
     1
281
     1
  3
ACAD_XREC_ROUNDTRIP
360
8290
  0
DICTIONARY
  5
828D
330
4EAE
100
AcDbDictionary
280
     1
281
     1
  3
ACAD_XREC_ROUNDTRIP
360
828E
  0
DICTIONARY
  5
829B
330
4EB5
100
AcDbDictionary
280
     1
281
     1
  3
ACAD_XREC_ROUNDTRIP
360
829C
  0
DICTIONARY
  5
82A3
330
4EB9
100
AcDbDictionary
280
     1
281
     1
  3
ACAD_XREC_ROUNDTRIP
360
82A4
  0
DICTIONARY
  5
8295
330
4EB2
100
AcDbDictionary
280
     1
281
     1
  3
ACAD_XREC_ROUNDTRIP
360
8296
  0
DICTIONARY
  5
8299
330
4EB4
100
AcDbDictionary
280
     1
281
     1
  3
ACAD_XREC_ROUNDTRIP
360
829A
  0
DICTIONARY
  5
82B3
330
4EC1
100
AcDbDictionary
280
     1
281
     1
  3
ACAD_XREC_ROUNDTRIP
360
82B4
  0
DICTIONARY
  5
82A1
330
4EB8
100
AcDbDictionary
280
     1
281
     1
  3
ACAD_XREC_ROUNDTRIP
360
82A2
  0
DICTIONARY
  5
8285
330
4EAA
100
AcDbDictionary
280
     1
281
     1
  3
ACAD_XREC_ROUNDTRIP
360
8286
  0
DICTIONARY
  5
8287
330
4EAB
100
AcDbDictionary
280
     1
281
     1
  3
ACAD_XREC_ROUNDTRIP
360
8288
  0
DICTIONARY
  5
8289
330
4EAC
100
AcDbDictionary
280
     1
281
     1
  3
ACAD_XREC_ROUNDTRIP
360
828A
  0
DICTIONARY
  5
828B
330
4EAD
100
AcDbDictionary
280
     1
281
     1
  3
ACAD_XREC_ROUNDTRIP
360
828C
  0
DICTIONARY
  5
8293
330
4EB1
100
AcDbDictionary
280
     1
281
     1
  3
ACAD_XREC_ROUNDTRIP
360
8294
  0
DICTIONARY
  5
82AF
330
4EBF
100
AcDbDictionary
280
     1
281
     1
  3
ACAD_XREC_ROUNDTRIP
360
82B0
  0
DICTIONARY
  5
829F
330
4EB7
100
AcDbDictionary
280
     1
281
     1
  3
ACAD_XREC_ROUNDTRIP
360
82A0
  0
DICTIONARY
  5
82B1
330
4EC0
100
AcDbDictionary
280
     1
281
     1
  3
ACAD_XREC_ROUNDTRIP
360
82B2
  0
DICTIONARY
  5
8297
330
4EB3
100
AcDbDictionary
280
     1
281
     1
  3
ACAD_XREC_ROUNDTRIP
360
8298
  0
DICTIONARY
  5
82AD
330
4EBE
100
AcDbDictionary
280
     1
281
     1
  3
ACAD_XREC_ROUNDTRIP
360
82AE
  0
DICTIONARY
  5
82AB
330
4EBD
100
AcDbDictionary
280
     1
281
     1
  3
ACAD_XREC_ROUNDTRIP
360
82AC
  0
DICTIONARY
  5
82A5
330
4EBA
100
AcDbDictionary
280
     1
281
     1
  3
ACAD_XREC_ROUNDTRIP
360
82A6
  0
DICTIONARY
  5
82A7
330
4EBB
100
AcDbDictionary
280
     1
281
     1
  3
ACAD_XREC_ROUNDTRIP
360
82A8
  0
DICTIONARY
  5
829D
330
4EB6
100
AcDbDictionary
280
     1
281
     1
  3
ACAD_XREC_ROUNDTRIP
360
829E
  0
DICTIONARY
  5
8291
330
4EB0
100
AcDbDictionary
280
     1
281
     1
  3
ACAD_XREC_ROUNDTRIP
360
8292
  0
DICTIONARY
  5
82A9
330
4EBC
100
AcDbDictionary
280
     1
281
     1
  3
ACAD_XREC_ROUNDTRIP
360
82AA
  0
XRECORD
  5
82BB
102
{ACAD_REACTORS
330
82BA
102
}
330
82BA
100
AcDbXrecord
280
     1
102
DISPLAYNAME
  1
Metric50
102
FLAGS
 90
        0
  0
XRECORD
  5
827B
102
{ACAD_REACTORS
330
827A
102
}
330
827A
100
AcDbXrecord
280
     1
102
SHADEPLOT
 70
     0
102
SHADEPLOTRESLEVEL
 70
     2
102
SHADEPLOTCUSTOMDPI
 70
   300
  0
XRECORD
  5
827D
102
{ACAD_REACTORS
330
827C
102
}
330
827C
100
AcDbXrecord
280
     1
102
SHADEPLOT
 70
     0
102
SHADEPLOTRESLEVEL
 70
     2
102
SHADEPLOTCUSTOMDPI
 70
   300
  0
XRECORD
  5
8283
102
{ACAD_REACTORS
330
4E9A
102
}
330
4E9A
100
AcDbXrecord
280
     1
102
MATERIAL
148
0.0
149
0.0
149
0.0
 93
        0
 94
      127
282
     0
 72
     0
 77
     0
171
     0
175
     0
179
     0
273
     0
  0
XRECORD
  5
4E9C
102
{ACAD_REACTORS
330
4E9A
102
}
330
4E9A
100
AcDbXrecord
280
     1
270
     1
271
     1
  0
XRECORD
  5
4E9B
102
{ACAD_REACTORS
330
4E9A
102
}
330
4E9A
100
AcDbXrecord
280
     1
270
     1
271
     1
  0
XRECORD
  5
4E9F
102
{ACAD_REACTORS
330
4E9A
102
}
330
4E9A
100
AcDbXrecord
280
     1
270
     1
271
     1
  0
XRECORD
  5
4E9E
102
{ACAD_REACTORS
330
4E9A
102
}
330
4E9A
100
AcDbXrecord
280
     1
270
     1
271
     1
  0
XRECORD
  5
4EA0
102
{ACAD_REACTORS
330
4E9A
102
}
330
4E9A
100
AcDbXrecord
280
     1
270
     1
271
     1
  0
XRECORD
  5
4E9D
102
{ACAD_REACTORS
330
4E9A
102
}
330
4E9A
100
AcDbXrecord
280
     1
270
     1
271
     1
  0
XRECORD
  5
8282
102
{ACAD_REACTORS
330
4E92
102
}
330
4E92
100
AcDbXrecord
280
     1
102
MATERIAL
148
0.0
149
0.0
149
0.0
 93
        0
 94
      127
282
     0
 72
     0
 77
     0
171
     0
175
     0
179
     0
273
     0
  0
XRECORD
  5
4E94
102
{ACAD_REACTORS
330
4E92
102
}
330
4E92
100
AcDbXrecord
280
     1
270
     1
271
     1
  0
XRECORD
  5
4E93
102
{ACAD_REACTORS
330
4E92
102
}
330
4E92
100
AcDbXrecord
280
     1
270
     1
271
     1
  0
XRECORD
  5
4E97
102
{ACAD_REACTORS
330
4E92
102
}
330
4E92
100
AcDbXrecord
280
     1
270
     1
271
     1
  0
XRECORD
  5
4E96
102
{ACAD_REACTORS
330
4E92
102
}
330
4E92
100
AcDbXrecord
280
     1
270
     1
271
     1
  0
XRECORD
  5
4E98
102
{ACAD_REACTORS
330
4E92
102
}
330
4E92
100
AcDbXrecord
280
     1
270
     1
271
     1
  0
XRECORD
  5
4E95
102
{ACAD_REACTORS
330
4E92
102
}
330
4E92
100
AcDbXrecord
280
     1
270
     1
271
     1
  0
XRECORD
  5
8284
102
{ACAD_REACTORS
330
4EA2
102
}
330
4EA2
100
AcDbXrecord
280
     1
102
MATERIAL
148
0.0
149
0.0
149
0.0
 93
        0
 94
      127
282
     0
 72
     0
 77
     0
171
     0
175
     0
179
     0
273
     0
  0
XRECORD
  5
4EA4
102
{ACAD_REACTORS
330
4EA2
102
}
330
4EA2
100
AcDbXrecord
280
     1
270
     1
271
     1
  0
XRECORD
  5
4EA3
102
{ACAD_REACTORS
330
4EA2
102
}
330
4EA2
100
AcDbXrecord
280
     1
270
     1
271
     1
  0
XRECORD
  5
4EA7
102
{ACAD_REACTORS
330
4EA2
102
}
330
4EA2
100
AcDbXrecord
280
     1
270
     1
271
     1
  0
XRECORD
  5
4EA6
102
{ACAD_REACTORS
330
4EA2
102
}
330
4EA2
100
AcDbXrecord
280
     1
270
     1
271
     1
  0
XRECORD
  5
4EA8
102
{ACAD_REACTORS
330
4EA2
102
}
330
4EA2
100
AcDbXrecord
280
     1
270
     1
271
     1
  0
XRECORD
  5
4EA5
102
{ACAD_REACTORS
330
4EA2
102
}
330
4EA2
100
AcDbXrecord
280
     1
270
     1
271
     1
  0
XRECORD
  5
82BD
102
{ACAD_REACTORS
330
82BC
102
}
330
82BC
100
AcDbXrecord
280
     1
102
ACAD_ROUNDTRIP_2012_MLEADER_STYLE
298
     1
  0
XRECORD
  5
82B7
102
{ACAD_REACTORS
330
82B6
102
}
330
82B6
100
AcDbXrecord
280
     1
102
ACAD_ROUNDTRIP_2012_MLEADER_STYLE
298
     1
  0
XRECORD
  5
82B9
102
{ACAD_REACTORS
330
82B8
102
}
330
82B8
100
AcDbXrecord
280
     1
102
DISPLAYNAME
  1
Metric50
102
FLAGS
 90
        0
  0
CELLSTYLEMAP
  5
8277
102
{ACAD_REACTORS
330
4EE4
102
}
330
4EE4
100
AcDbCellStyleMap
 90
        3
300
CELLSTYLE
  1
TABLEFORMAT_BEGIN
 90
        5
170
     1
 91
        0
 92
    32768
 62
   257
 93
        1
300
CONTENTFORMAT
  1
CONTENTFORMAT_BEGIN
 90
        0
 91
        0
 92
      512
 93
        0
300

 40
0.0
140
1.0
 94
        5
 62
     0
340
F
144
6.0
309
CONTENTFORMAT_END
171
     1
301
MARGIN
  1
CELLMARGIN_BEGIN
 40
1.5
 40
1.5
 40
1.5
 40
1.5
 40
0.18
 40
0.18
309
CELLMARGIN_END
 94
        6
 95
        1
302
GRIDFORMAT
  1
GRIDFORMAT_BEGIN
 90
        0
 91
        1
 62
     0
 92
       -2
340
0
 93
        0
 40
1.125
309
GRIDFORMAT_END
 95
        2
302
GRIDFORMAT
  1
GRIDFORMAT_BEGIN
 90
        0
 91
        1
 62
     0
 92
       -2
340
0
 93
        0
 40
1.125
309
GRIDFORMAT_END
 95
        4
302
GRIDFORMAT
  1
GRIDFORMAT_BEGIN
 90
        0
 91
        1
 62
     0
 92
       -2
340
0
 93
        0
 40
1.125
309
GRIDFORMAT_END
 95
        8
302
GRIDFORMAT
  1
GRIDFORMAT_BEGIN
 90
        0
 91
        1
 62
     0
 92
       -2
340
0
 93
        0
 40
1.125
309
GRIDFORMAT_END
 95
       16
302
GRIDFORMAT
  1
GRIDFORMAT_BEGIN
 90
        0
 91
        1
 62
     0
 92
       -2
340
0
 93
        0
 40
1.125
309
GRIDFORMAT_END
 95
       32
302
GRIDFORMAT
  1
GRIDFORMAT_BEGIN
 90
        0
 91
        1
 62
     0
 92
       -2
340
0
 93
        0
 40
1.125
309
GRIDFORMAT_END
309
TABLEFORMAT_END
  1
CELLSTYLE_BEGIN
 90
        1
 91
        1
300
_TITLE
309
CELLSTYLE_END
300
CELLSTYLE
  1
TABLEFORMAT_BEGIN
 90
        5
170
     1
 91
        0
 92
        0
 62
   257
 93
        1
300
CONTENTFORMAT
  1
CONTENTFORMAT_BEGIN
 90
        0
 91
        0
 92
      512
 93
        0
300

 40
0.0
140
1.0
 94
        5
 62
     0
340
F
144
4.5
309
CONTENTFORMAT_END
171
     1
301
MARGIN
  1
CELLMARGIN_BEGIN
 40
1.5
 40
1.5
 40
1.5
 40
1.5
 40
0.18
 40
0.18
309
CELLMARGIN_END
 94
        6
 95
        1
302
GRIDFORMAT
  1
GRIDFORMAT_BEGIN
 90
        0
 91
        1
 62
     0
 92
       -2
340
0
 93
        0
 40
1.125
309
GRIDFORMAT_END
 95
        2
302
GRIDFORMAT
  1
GRIDFORMAT_BEGIN
 90
        0
 91
        1
 62
     0
 92
       -2
340
0
 93
        0
 40
1.125
309
GRIDFORMAT_END
 95
        4
302
GRIDFORMAT
  1
GRIDFORMAT_BEGIN
 90
        0
 91
        1
 62
     0
 92
       -2
340
0
 93
        0
 40
1.125
309
GRIDFORMAT_END
 95
        8
302
GRIDFORMAT
  1
GRIDFORMAT_BEGIN
 90
        0
 91
        1
 62
     0
 92
       -2
340
0
 93
        0
 40
1.125
309
GRIDFORMAT_END
 95
       16
302
GRIDFORMAT
  1
GRIDFORMAT_BEGIN
 90
        0
 91
        1
 62
     0
 92
       -2
340
0
 93
        0
 40
1.125
309
GRIDFORMAT_END
 95
       32
302
GRIDFORMAT
  1
GRIDFORMAT_BEGIN
 90
        0
 91
        1
 62
     0
 92
       -2
340
0
 93
        0
 40
1.125
309
GRIDFORMAT_END
309
TABLEFORMAT_END
  1
CELLSTYLE_BEGIN
 90
        2
 91
        1
300
_HEADER
309
CELLSTYLE_END
300
CELLSTYLE
  1
TABLEFORMAT_BEGIN
 90
        5
170
     1
 91
        0
 92
        0
 62
   257
 93
        1
300
CONTENTFORMAT
  1
CONTENTFORMAT_BEGIN
 90
        0
 91
        0
 92
      512
 93
        0
300

 40
0.0
140
1.0
 94
        2
 62
     0
340
F
144
4.5
309
CONTENTFORMAT_END
171
     1
301
MARGIN
  1
CELLMARGIN_BEGIN
 40
1.5
 40
1.5
 40
1.5
 40
1.5
 40
0.18
 40
0.18
309
CELLMARGIN_END
 94
        6
 95
        1
302
GRIDFORMAT
  1
GRIDFORMAT_BEGIN
 90
        0
 91
        1
 62
     0
 92
       -2
340
0
 93
        0
 40
1.125
309
GRIDFORMAT_END
 95
        2
302
GRIDFORMAT
  1
GRIDFORMAT_BEGIN
 90
        0
 91
        1
 62
     0
 92
       -2
340
0
 93
        0
 40
1.125
309
GRIDFORMAT_END
 95
        4
302
GRIDFORMAT
  1
GRIDFORMAT_BEGIN
 90
        0
 91
        1
 62
     0
 92
       -2
340
0
 93
        0
 40
1.125
309
GRIDFORMAT_END
 95
        8
302
GRIDFORMAT
  1
GRIDFORMAT_BEGIN
 90
        0
 91
        1
 62
     0
 92
       -2
340
0
 93
        0
 40
1.125
309
GRIDFORMAT_END
 95
       16
302
GRIDFORMAT
  1
GRIDFORMAT_BEGIN
 90
        0
 91
        1
 62
     0
 92
       -2
340
0
 93
        0
 40
1.125
309
GRIDFORMAT_END
 95
       32
302
GRIDFORMAT
  1
GRIDFORMAT_BEGIN
 90
        0
 91
        1
 62
     0
 92
       -2
340
0
 93
        0
 40
1.125
309
GRIDFORMAT_END
309
TABLEFORMAT_END
  1
CELLSTYLE_BEGIN
 90
        3
 91
        2
300
_DATA
309
CELLSTYLE_END
  0
XRECORD
  5
82B5
102
{ACAD_REACTORS
330
4EE4
102
}
330
4EE4
100
AcDbXrecord
280
     1
102
ACAD_ROUNDTRIP_PRE2007_TABLESTYLE
 90
      512
 91
        0
  1

 92
      512
 93
        0
  2

 94
      512
 95
        0
  3

  0
XRECORD
  5
8290
102
{ACAD_REACTORS
330
828F
102
}
330
828F
100
AcDbXrecord
280
     1
102
RTVSPost2010Prop28
280
     1
102
RTVSPost2010PropOp28
 70
     1
102
RTVSPost2010Prop29
280
     1
102
RTVSPost2010PropOp29
 70
     1
102
RTVSPost2010Prop30
280
     0
102
RTVSPost2010PropOp30
 70
     1
102
RTVSPost2010Prop31
280
     0
102
RTVSPost2010PropOp31
 70
     1
102
RTVSPost2010Prop32
280
     0
102
RTVSPost2010PropOp32
 70
     1
102
RTVSPost2010Prop33
280
     0
102
RTVSPost2010PropOp33
 70
     1
102
RTVSPost2010Prop34
280
     0
102
RTVSPost2010PropOp34
 70
     1
102
RTVSPost2010Prop35
280
     0
102
RTVSPost2010PropOp35
 70
     1
102
RTVSPost2010Prop36
280
     0
102
RTVSPost2010PropOp36
 70
     1
102
RTVSPost2010Prop37
 90
       50
102
RTVSPost2010PropOp37
 70
     1
102
RTVSPost2010Prop38
140
0.0
102
RTVSPost2010PropOp38
 70
     1
102
RTVSPost2010Prop39
140
1.0
102
RTVSPost2010PropOp39
 70
     1
102
RTVSPost2010Prop40
 90
        0
102
RTVSPost2010PropOp40
 70
     1
102
RTVSPost2010Prop41ColorIndex
 90
       18
102
RTVSPost2010Prop41ColorRGB
 90
        0
102
RTVSPost2010PropOp41
 70
     1
102
RTVSPost2010Prop42
 90
       50
102
RTVSPost2010PropOp42
 70
     1
102
RTVSPost2010Prop43
 90
        3
102
RTVSPost2010PropOp43
 70
     1
102
RTVSPost2010Prop44ColorIndex
 90
        5
102
RTVSPost2010Prop44ColorRGB
 90
      255
102
RTVSPost2010PropOp44
 70
     1
102
RTVSPost2010Prop45
280
     0
102
RTVSPost2010PropOp45
 70
     1
102
RTVSPost2010Prop46
 90
       50
102
RTVSPost2010PropOp46
 70
     1
102
RTVSPost2010Prop47
 90
       50
102
RTVSPost2010PropOp47
 70
     1
102
RTVSPost2010Prop48
 90
       50
102
RTVSPost2010PropOp48
 70
     1
102
RTVSPost2010Prop49
280
     0
102
RTVSPost2010PropOp49
 70
     1
102
RTVSPost2010Prop50
 90
       50
102
RTVSPost2010PropOp50
 70
     1
102
RTVSPost2010Prop51ColorIndex
 90
      256
102
RTVSPost2010Prop51ColorRGB
 90
-16777216
102
RTVSPost2010PropOp51
 70
     0
102
RTVSPost2010Prop52
140
1.0
102
RTVSPost2010PropOp52
 70
     0
102
RTVSPost2010Prop53
 90
        2
102
RTVSPost2010PropOp53
 70
     1
102
RTVSPost2010Prop54
  1
strokes_ogs.tif
102
RTVSPost2010PropOp54
 70
     1
102
RTVSPost2010Prop55
280
     0
102
RTVSPost2010PropOp55
 70
     1
102
RTVSPost2010Prop56
140
1.0
102
RTVSPost2010PropOp56
 70
     1
102
RTVSPost2010Prop57
140
1.0
102
RTVSPost2010PropOp57
 70
     1
102
RTVSPropertyOp0
 70
     1
102
RTVSPropertyOp1
 70
     1
102
RTVSPropertyOp2
 70
     1
102
RTVSPropertyOp3
 70
     1
102
RTVSPropertyOp4
 70
     1
102
RTVSPropertyOp5
 70
     1
102
RTVSPropertyOp6
 70
     1
102
RTVSPropertyOp7
 70
     1
102
RTVSPropertyOp8
 70
     1
102
RTVSPropertyOp9
 70
     1
102
RTVSPropertyOp10
 70
     1
102
RTVSPropertyOp11
 70
     1
102
RTVSPropertyOp12
 70
     1
102
RTVSPropertyOp13
 70
     1
102
RTVSPropertyOp14
 70
     1
102
RTVSPropertyOp15
 70
     1
102
RTVSPropertyOp16
 70
     1
102
RTVSPropertyOp17
 70
     1
102
RTVSPropertyOp18
 70
     1
102
RTVSPropertyOp19
 70
     1
102
RTVSPropertyOp20
 70
     1
102
RTVSPropertyOp21
 70
     1
102
RTVSPropertyOp22
 70
     1
102
RTVSPropertyOp23
 70
     1
102
RTVSPropertyOp24
 70
     1
102
RTVSPropertyOp25
 70
     1
102
RTVSPropertyOp26
 70
     1
102
RTVSPropertyOp27
 70
     1
102
RTVSPropertyOp28
 70
     1
102
RTVSPropertyOp29
 70
     1
102
RTVSPropertyOp30
 70
     1
102
RTVSPropertyOp31
 70
     1
102
RTVSPropertyOp32
 70
     1
102
RTVSPropertyOp33
 70
     1
102
RTVSPropertyOp34
 70
     1
102
RTVSPropertyOp35
 70
     1
102
RTVSPropertyOp36
 70
     1
102
RTVSPropertyOp37
 70
     1
102
RTVSPropertyOp38
 70
     1
102
RTVSPropertyOp39
 70
     1
102
RTVSPropertyOp40
 70
     1
102
RTVSPropertyOp41
 70
     1
102
RTVSPropertyOp42
 70
     1
102
RTVSPropertyOp43
 70
     1
102
RTVSPropertyOp44
 70
     1
102
RTVSPropertyOp45
 70
     1
102
RTVSPropertyOp46
 70
     1
102
RTVSPropertyOp47
 70
     1
102
RTVSPropertyOp48
 70
     1
102
RTVSPropertyOp49
 70
     1
102
RTVSPropertyOp50
 70
     1
102
RTVSPropertyOp51
 70
     0
102
RTVSPropertyOp52
 70
     0
102
RTVSPropertyOp53
 70
     1
102
RTVSPropertyOp54
 70
     1
102
RTVSPropertyOp55
 70
     1
102
RTVSPropertyOp56
 70
     1
102
RTVSPropertyOp57
 70
     1
102
RTVSPropertyOp58
 70
     1
102
RTVSPropertyOp59
 70
     1
102
RTVSPropertyOp60
 70
     1
102
RTVSPropertyOp61
 70
     1
102
RTVSPropertyOp62
 70
     1
  0
XRECORD
  5
828E
102
{ACAD_REACTORS
330
828D
102
}
330
828D
100
AcDbXrecord
280
     1
102
RTVSPost2010Prop28
280
     0
102
RTVSPost2010PropOp28
 70
     1
102
RTVSPost2010Prop29
280
     1
102
RTVSPost2010PropOp29
 70
     1
102
RTVSPost2010Prop30
280
     1
102
RTVSPost2010PropOp30
 70
     1
102
RTVSPost2010Prop31
280
     0
102
RTVSPost2010PropOp31
 70
     1
102
RTVSPost2010Prop32
280
     0
102
RTVSPost2010PropOp32
 70
     1
102
RTVSPost2010Prop33
280
     0
102
RTVSPost2010PropOp33
 70
     1
102
RTVSPost2010Prop34
280
     0
102
RTVSPost2010PropOp34
 70
     1
102
RTVSPost2010Prop35
280
     0
102
RTVSPost2010PropOp35
 70
     1
102
RTVSPost2010Prop36
280
     0
102
RTVSPost2010PropOp36
 70
     1
102
RTVSPost2010Prop37
 90
       50
102
RTVSPost2010PropOp37
 70
     1
102
RTVSPost2010Prop38
140
0.0
102
RTVSPost2010PropOp38
 70
     1
102
RTVSPost2010Prop39
140
1.0
102
RTVSPost2010PropOp39
 70
     1
102
RTVSPost2010Prop40
 90
        0
102
RTVSPost2010PropOp40
 70
     1
102
RTVSPost2010Prop41ColorIndex
 90
       18
102
RTVSPost2010Prop41ColorRGB
 90
        0
102
RTVSPost2010PropOp41
 70
     1
102
RTVSPost2010Prop42
 90
       50
102
RTVSPost2010PropOp42
 70
     1
102
RTVSPost2010Prop43
 90
        3
102
RTVSPost2010PropOp43
 70
     1
102
RTVSPost2010Prop44ColorIndex
 90
        5
102
RTVSPost2010Prop44ColorRGB
 90
      255
102
RTVSPost2010PropOp44
 70
     1
102
RTVSPost2010Prop45
280
     0
102
RTVSPost2010PropOp45
 70
     1
102
RTVSPost2010Prop46
 90
       50
102
RTVSPost2010PropOp46
 70
     1
102
RTVSPost2010Prop47
 90
       50
102
RTVSPost2010PropOp47
 70
     1
102
RTVSPost2010Prop48
 90
       50
102
RTVSPost2010PropOp48
 70
     1
102
RTVSPost2010Prop49
280
     0
102
RTVSPost2010PropOp49
 70
     1
102
RTVSPost2010Prop50
 90
       50
102
RTVSPost2010PropOp50
 70
     1
102
RTVSPost2010Prop51ColorIndex
 90
      256
102
RTVSPost2010Prop51ColorRGB
 90
-16777216
102
RTVSPost2010PropOp51
 70
     0
102
RTVSPost2010Prop52
140
1.0
102
RTVSPost2010PropOp52
 70
     0
102
RTVSPost2010Prop53
 90
        2
102
RTVSPost2010PropOp53
 70
     1
102
RTVSPost2010Prop54
  1
strokes_ogs.tif
102
RTVSPost2010PropOp54
 70
     1
102
RTVSPost2010Prop55
280
     0
102
RTVSPost2010PropOp55
 70
     1
102
RTVSPost2010Prop56
140
1.0
102
RTVSPost2010PropOp56
 70
     1
102
RTVSPost2010Prop57
140
1.0
102
RTVSPost2010PropOp57
 70
     1
102
RTVSPropertyOp0
 70
     1
102
RTVSPropertyOp1
 70
     1
102
RTVSPropertyOp2
 70
     1
102
RTVSPropertyOp3
 70
     1
102
RTVSPropertyOp4
 70
     1
102
RTVSPropertyOp5
 70
     1
102
RTVSPropertyOp6
 70
     1
102
RTVSPropertyOp7
 70
     1
102
RTVSPropertyOp8
 70
     1
102
RTVSPropertyOp9
 70
     1
102
RTVSPropertyOp10
 70
     1
102
RTVSPropertyOp11
 70
     1
102
RTVSPropertyOp12
 70
     1
102
RTVSPropertyOp13
 70
     1
102
RTVSPropertyOp14
 70
     1
102
RTVSPropertyOp15
 70
     1
102
RTVSPropertyOp16
 70
     1
102
RTVSPropertyOp17
 70
     1
102
RTVSPropertyOp18
 70
     1
102
RTVSPropertyOp19
 70
     1
102
RTVSPropertyOp20
 70
     1
102
RTVSPropertyOp21
 70
     1
102
RTVSPropertyOp22
 70
     1
102
RTVSPropertyOp23
 70
     1
102
RTVSPropertyOp24
 70
     1
102
RTVSPropertyOp25
 70
     1
102
RTVSPropertyOp26
 70
     1
102
RTVSPropertyOp27
 70
     1
102
RTVSPropertyOp28
 70
     1
102
RTVSPropertyOp29
 70
     1
102
RTVSPropertyOp30
 70
     1
102
RTVSPropertyOp31
 70
     1
102
RTVSPropertyOp32
 70
     1
102
RTVSPropertyOp33
 70
     1
102
RTVSPropertyOp34
 70
     1
102
RTVSPropertyOp35
 70
     1
102
RTVSPropertyOp36
 70
     1
102
RTVSPropertyOp37
 70
     1
102
RTVSPropertyOp38
 70
     1
102
RTVSPropertyOp39
 70
     1
102
RTVSPropertyOp40
 70
     1
102
RTVSPropertyOp41
 70
     1
102
RTVSPropertyOp42
 70
     1
102
RTVSPropertyOp43
 70
     1
102
RTVSPropertyOp44
 70
     1
102
RTVSPropertyOp45
 70
     1
102
RTVSPropertyOp46
 70
     1
102
RTVSPropertyOp47
 70
     1
102
RTVSPropertyOp48
 70
     1
102
RTVSPropertyOp49
 70
     1
102
RTVSPropertyOp50
 70
     1
102
RTVSPropertyOp51
 70
     0
102
RTVSPropertyOp52
 70
     0
102
RTVSPropertyOp53
 70
     1
102
RTVSPropertyOp54
 70
     1
102
RTVSPropertyOp55
 70
     1
102
RTVSPropertyOp56
 70
     1
102
RTVSPropertyOp57
 70
     1
102
RTVSPropertyOp58
 70
     1
102
RTVSPropertyOp59
 70
     1
102
RTVSPropertyOp60
 70
     1
102
RTVSPropertyOp61
 70
     1
102
RTVSPropertyOp62
 70
     1
  0
XRECORD
  5
829C
102
{ACAD_REACTORS
330
829B
102
}
330
829B
100
AcDbXrecord
280
     1
102
RTVSPost2010Prop28
280
     0
102
RTVSPost2010PropOp28
 70
     1
102
RTVSPost2010Prop29
280
     1
102
RTVSPost2010PropOp29
 70
     1
102
RTVSPost2010Prop30
280
     1
102
RTVSPost2010PropOp30
 70
     1
102
RTVSPost2010Prop31
280
     0
102
RTVSPost2010PropOp31
 70
     1
102
RTVSPost2010Prop32
280
     0
102
RTVSPost2010PropOp32
 70
     1
102
RTVSPost2010Prop33
280
     0
102
RTVSPost2010PropOp33
 70
     1
102
RTVSPost2010Prop34
280
     0
102
RTVSPost2010PropOp34
 70
     1
102
RTVSPost2010Prop35
280
     0
102
RTVSPost2010PropOp35
 70
     1
102
RTVSPost2010Prop36
280
     0
102
RTVSPost2010PropOp36
 70
     1
102
RTVSPost2010Prop37
 90
       50
102
RTVSPost2010PropOp37
 70
     1
102
RTVSPost2010Prop38
140
0.0
102
RTVSPost2010PropOp38
 70
     1
102
RTVSPost2010Prop39
140
1.0
102
RTVSPost2010PropOp39
 70
     1
102
RTVSPost2010Prop40
 90
        0
102
RTVSPost2010PropOp40
 70
     1
102
RTVSPost2010Prop41ColorIndex
 90
       18
102
RTVSPost2010Prop41ColorRGB
 90
        0
102
RTVSPost2010PropOp41
 70
     1
102
RTVSPost2010Prop42
 90
       50
102
RTVSPost2010PropOp42
 70
     1
102
RTVSPost2010Prop43
 90
        3
102
RTVSPost2010PropOp43
 70
     1
102
RTVSPost2010Prop44ColorIndex
 90
        5
102
RTVSPost2010Prop44ColorRGB
 90
      255
102
RTVSPost2010PropOp44
 70
     1
102
RTVSPost2010Prop45
280
     0
102
RTVSPost2010PropOp45
 70
     1
102
RTVSPost2010Prop46
 90
       50
102
RTVSPost2010PropOp46
 70
     1
102
RTVSPost2010Prop47
 90
       50
102
RTVSPost2010PropOp47
 70
     1
102
RTVSPost2010Prop48
 90
       50
102
RTVSPost2010PropOp48
 70
     1
102
RTVSPost2010Prop49
280
     0
102
RTVSPost2010PropOp49
 70
     1
102
RTVSPost2010Prop50
 90
       50
102
RTVSPost2010PropOp50
 70
     1
102
RTVSPost2010Prop51ColorIndex
 90
      256
102
RTVSPost2010Prop51ColorRGB
 90
-16777216
102
RTVSPost2010PropOp51
 70
     0
102
RTVSPost2010Prop52
140
1.0
102
RTVSPost2010PropOp52
 70
     0
102
RTVSPost2010Prop53
 90
        2
102
RTVSPost2010PropOp53
 70
     1
102
RTVSPost2010Prop54
  1
strokes_ogs.tif
102
RTVSPost2010PropOp54
 70
     1
102
RTVSPost2010Prop55
280
     0
102
RTVSPost2010PropOp55
 70
     1
102
RTVSPost2010Prop56
140
1.0
102
RTVSPost2010PropOp56
 70
     1
102
RTVSPost2010Prop57
140
1.0
102
RTVSPost2010PropOp57
 70
     1
102
RTVSPropertyOp0
 70
     1
102
RTVSPropertyOp1
 70
     1
102
RTVSPropertyOp2
 70
     1
102
RTVSPropertyOp3
 70
     1
102
RTVSPropertyOp4
 70
     1
102
RTVSPropertyOp5
 70
     1
102
RTVSPropertyOp6
 70
     1
102
RTVSPropertyOp7
 70
     1
102
RTVSPropertyOp8
 70
     1
102
RTVSPropertyOp9
 70
     1
102
RTVSPropertyOp10
 70
     1
102
RTVSPropertyOp11
 70
     1
102
RTVSPropertyOp12
 70
     1
102
RTVSPropertyOp13
 70
     1
102
RTVSPropertyOp14
 70
     1
102
RTVSPropertyOp15
 70
     1
102
RTVSPropertyOp16
 70
     1
102
RTVSPropertyOp17
 70
     1
102
RTVSPropertyOp18
 70
     1
102
RTVSPropertyOp19
 70
     1
102
RTVSPropertyOp20
 70
     1
102
RTVSPropertyOp21
 70
     1
102
RTVSPropertyOp22
 70
     1
102
RTVSPropertyOp23
 70
     1
102
RTVSPropertyOp24
 70
     1
102
RTVSPropertyOp25
 70
     1
102
RTVSPropertyOp26
 70
     1
102
RTVSPropertyOp27
 70
     1
102
RTVSPropertyOp28
 70
     1
102
RTVSPropertyOp29
 70
     1
102
RTVSPropertyOp30
 70
     1
102
RTVSPropertyOp31
 70
     1
102
RTVSPropertyOp32
 70
     1
102
RTVSPropertyOp33
 70
     1
102
RTVSPropertyOp34
 70
     1
102
RTVSPropertyOp35
 70
     1
102
RTVSPropertyOp36
 70
     1
102
RTVSPropertyOp37
 70
     1
102
RTVSPropertyOp38
 70
     1
102
RTVSPropertyOp39
 70
     1
102
RTVSPropertyOp40
 70
     1
102
RTVSPropertyOp41
 70
     1
102
RTVSPropertyOp42
 70
     1
102
RTVSPropertyOp43
 70
     1
102
RTVSPropertyOp44
 70
     1
102
RTVSPropertyOp45
 70
     1
102
RTVSPropertyOp46
 70
     1
102
RTVSPropertyOp47
 70
     1
102
RTVSPropertyOp48
 70
     1
102
RTVSPropertyOp49
 70
     1
102
RTVSPropertyOp50
 70
     1
102
RTVSPropertyOp51
 70
     0
102
RTVSPropertyOp52
 70
     0
102
RTVSPropertyOp53
 70
     1
102
RTVSPropertyOp54
 70
     1
102
RTVSPropertyOp55
 70
     1
102
RTVSPropertyOp56
 70
     1
102
RTVSPropertyOp57
 70
     1
102
RTVSPropertyOp58
 70
     1
102
RTVSPropertyOp59
 70
     1
102
RTVSPropertyOp60
 70
     1
102
RTVSPropertyOp61
 70
     1
102
RTVSPropertyOp62
 70
     1
  0
XRECORD
  5
82A4
102
{ACAD_REACTORS
330
82A3
102
}
330
82A3
100
AcDbXrecord
280
     1
102
RTVSPost2010Prop28
280
     0
102
RTVSPost2010PropOp28
 70
     1
102
RTVSPost2010Prop29
280
     1
102
RTVSPost2010PropOp29
 70
     1
102
RTVSPost2010Prop30
280
     1
102
RTVSPost2010PropOp30
 70
     1
102
RTVSPost2010Prop31
280
     0
102
RTVSPost2010PropOp31
 70
     1
102
RTVSPost2010Prop32
280
     0
102
RTVSPost2010PropOp32
 70
     1
102
RTVSPost2010Prop33
280
     0
102
RTVSPost2010PropOp33
 70
     1
102
RTVSPost2010Prop34
280
     0
102
RTVSPost2010PropOp34
 70
     1
102
RTVSPost2010Prop35
280
     0
102
RTVSPost2010PropOp35
 70
     1
102
RTVSPost2010Prop36
280
     0
102
RTVSPost2010PropOp36
 70
     1
102
RTVSPost2010Prop37
 90
       50
102
RTVSPost2010PropOp37
 70
     1
102
RTVSPost2010Prop38
140
0.0
102
RTVSPost2010PropOp38
 70
     1
102
RTVSPost2010Prop39
140
1.0
102
RTVSPost2010PropOp39
 70
     1
102
RTVSPost2010Prop40
 90
        0
102
RTVSPost2010PropOp40
 70
     1
102
RTVSPost2010Prop41ColorIndex
 90
       18
102
RTVSPost2010Prop41ColorRGB
 90
        0
102
RTVSPost2010PropOp41
 70
     1
102
RTVSPost2010Prop42
 90
       50
102
RTVSPost2010PropOp42
 70
     1
102
RTVSPost2010Prop43
 90
        3
102
RTVSPost2010PropOp43
 70
     1
102
RTVSPost2010Prop44ColorIndex
 90
        5
102
RTVSPost2010Prop44ColorRGB
 90
      255
102
RTVSPost2010PropOp44
 70
     1
102
RTVSPost2010Prop45
280
     0
102
RTVSPost2010PropOp45
 70
     1
102
RTVSPost2010Prop46
 90
       50
102
RTVSPost2010PropOp46
 70
     1
102
RTVSPost2010Prop47
 90
       50
102
RTVSPost2010PropOp47
 70
     1
102
RTVSPost2010Prop48
 90
       50
102
RTVSPost2010PropOp48
 70
     1
102
RTVSPost2010Prop49
280
     0
102
RTVSPost2010PropOp49
 70
     1
102
RTVSPost2010Prop50
 90
       50
102
RTVSPost2010PropOp50
 70
     1
102
RTVSPost2010Prop51ColorIndex
 90
      256
102
RTVSPost2010Prop51ColorRGB
 90
-16777216
102
RTVSPost2010PropOp51
 70
     0
102
RTVSPost2010Prop52
140
1.0
102
RTVSPost2010PropOp52
 70
     0
102
RTVSPost2010Prop53
 90
        2
102
RTVSPost2010PropOp53
 70
     1
102
RTVSPost2010Prop54
  1
strokes_ogs.tif
102
RTVSPost2010PropOp54
 70
     1
102
RTVSPost2010Prop55
280
     0
102
RTVSPost2010PropOp55
 70
     1
102
RTVSPost2010Prop56
140
1.0
102
RTVSPost2010PropOp56
 70
     1
102
RTVSPost2010Prop57
140
1.0
102
RTVSPost2010PropOp57
 70
     1
102
RTVSPropertyOp0
 70
     1
102
RTVSPropertyOp1
 70
     1
102
RTVSPropertyOp2
 70
     1
102
RTVSPropertyOp3
 70
     1
102
RTVSPropertyOp4
 70
     1
102
RTVSPropertyOp5
 70
     1
102
RTVSPropertyOp6
 70
     1
102
RTVSPropertyOp7
 70
     1
102
RTVSPropertyOp8
 70
     1
102
RTVSPropertyOp9
 70
     1
102
RTVSPropertyOp10
 70
     1
102
RTVSPropertyOp11
 70
     1
102
RTVSPropertyOp12
 70
     1
102
RTVSPropertyOp13
 70
     1
102
RTVSPropertyOp14
 70
     1
102
RTVSPropertyOp15
 70
     1
102
RTVSPropertyOp16
 70
     1
102
RTVSPropertyOp17
 70
     1
102
RTVSPropertyOp18
 70
     1
102
RTVSPropertyOp19
 70
     1
102
RTVSPropertyOp20
 70
     1
102
RTVSPropertyOp21
 70
     1
102
RTVSPropertyOp22
 70
     1
102
RTVSPropertyOp23
 70
     1
102
RTVSPropertyOp24
 70
     1
102
RTVSPropertyOp25
 70
     1
102
RTVSPropertyOp26
 70
     1
102
RTVSPropertyOp27
 70
     1
102
RTVSPropertyOp28
 70
     1
102
RTVSPropertyOp29
 70
     1
102
RTVSPropertyOp30
 70
     1
102
RTVSPropertyOp31
 70
     1
102
RTVSPropertyOp32
 70
     1
102
RTVSPropertyOp33
 70
     1
102
RTVSPropertyOp34
 70
     1
102
RTVSPropertyOp35
 70
     1
102
RTVSPropertyOp36
 70
     1
102
RTVSPropertyOp37
 70
     1
102
RTVSPropertyOp38
 70
     1
102
RTVSPropertyOp39
 70
     1
102
RTVSPropertyOp40
 70
     1
102
RTVSPropertyOp41
 70
     1
102
RTVSPropertyOp42
 70
     1
102
RTVSPropertyOp43
 70
     1
102
RTVSPropertyOp44
 70
     1
102
RTVSPropertyOp45
 70
     1
102
RTVSPropertyOp46
 70
     1
102
RTVSPropertyOp47
 70
     1
102
RTVSPropertyOp48
 70
     1
102
RTVSPropertyOp49
 70
     1
102
RTVSPropertyOp50
 70
     1
102
RTVSPropertyOp51
 70
     0
102
RTVSPropertyOp52
 70
     0
102
RTVSPropertyOp53
 70
     1
102
RTVSPropertyOp54
 70
     1
102
RTVSPropertyOp55
 70
     1
102
RTVSPropertyOp56
 70
     1
102
RTVSPropertyOp57
 70
     1
102
RTVSPropertyOp58
 70
     1
102
RTVSPropertyOp59
 70
     1
102
RTVSPropertyOp60
 70
     1
102
RTVSPropertyOp61
 70
     1
102
RTVSPropertyOp62
 70
     1
  0
XRECORD
  5
8296
102
{ACAD_REACTORS
330
8295
102
}
330
8295
100
AcDbXrecord
280
     1
102
RTVSPost2010Prop28
280
     0
102
RTVSPost2010PropOp28
 70
     1
102
RTVSPost2010Prop29
280
     1
102
RTVSPost2010PropOp29
 70
     1
102
RTVSPost2010Prop30
280
     1
102
RTVSPost2010PropOp30
 70
     1
102
RTVSPost2010Prop31
280
     0
102
RTVSPost2010PropOp31
 70
     1
102
RTVSPost2010Prop32
280
     0
102
RTVSPost2010PropOp32
 70
     1
102
RTVSPost2010Prop33
280
     0
102
RTVSPost2010PropOp33
 70
     1
102
RTVSPost2010Prop34
280
     0
102
RTVSPost2010PropOp34
 70
     1
102
RTVSPost2010Prop35
280
     0
102
RTVSPost2010PropOp35
 70
     1
102
RTVSPost2010Prop36
280
     0
102
RTVSPost2010PropOp36
 70
     1
102
RTVSPost2010Prop37
 90
       50
102
RTVSPost2010PropOp37
 70
     1
102
RTVSPost2010Prop38
140
0.0
102
RTVSPost2010PropOp38
 70
     1
102
RTVSPost2010Prop39
140
1.0
102
RTVSPost2010PropOp39
 70
     1
102
RTVSPost2010Prop40
 90
        0
102
RTVSPost2010PropOp40
 70
     1
102
RTVSPost2010Prop41ColorIndex
 90
       18
102
RTVSPost2010Prop41ColorRGB
 90
        0
102
RTVSPost2010PropOp41
 70
     1
102
RTVSPost2010Prop42
 90
       50
102
RTVSPost2010PropOp42
 70
     1
102
RTVSPost2010Prop43
 90
        3
102
RTVSPost2010PropOp43
 70
     1
102
RTVSPost2010Prop44ColorIndex
 90
        5
102
RTVSPost2010Prop44ColorRGB
 90
      255
102
RTVSPost2010PropOp44
 70
     1
102
RTVSPost2010Prop45
280
     0
102
RTVSPost2010PropOp45
 70
     1
102
RTVSPost2010Prop46
 90
       50
102
RTVSPost2010PropOp46
 70
     1
102
RTVSPost2010Prop47
 90
       50
102
RTVSPost2010PropOp47
 70
     1
102
RTVSPost2010Prop48
 90
       50
102
RTVSPost2010PropOp48
 70
     1
102
RTVSPost2010Prop49
280
     0
102
RTVSPost2010PropOp49
 70
     1
102
RTVSPost2010Prop50
 90
       50
102
RTVSPost2010PropOp50
 70
     1
102
RTVSPost2010Prop51ColorIndex
 90
      256
102
RTVSPost2010Prop51ColorRGB
 90
-16777216
102
RTVSPost2010PropOp51
 70
     0
102
RTVSPost2010Prop52
140
1.0
102
RTVSPost2010PropOp52
 70
     0
102
RTVSPost2010Prop53
 90
        2
102
RTVSPost2010PropOp53
 70
     1
102
RTVSPost2010Prop54
  1
strokes_ogs.tif
102
RTVSPost2010PropOp54
 70
     1
102
RTVSPost2010Prop55
280
     0
102
RTVSPost2010PropOp55
 70
     1
102
RTVSPost2010Prop56
140
1.0
102
RTVSPost2010PropOp56
 70
     1
102
RTVSPost2010Prop57
140
1.0
102
RTVSPost2010PropOp57
 70
     1
102
RTVSPropertyOp0
 70
     1
102
RTVSPropertyOp1
 70
     1
102
RTVSPropertyOp2
 70
     1
102
RTVSPropertyOp3
 70
     1
102
RTVSPropertyOp4
 70
     1
102
RTVSPropertyOp5
 70
     1
102
RTVSPropertyOp6
 70
     1
102
RTVSPropertyOp7
 70
     1
102
RTVSPropertyOp8
 70
     1
102
RTVSPropertyOp9
 70
     1
102
RTVSPropertyOp10
 70
     1
102
RTVSPropertyOp11
 70
     1
102
RTVSPropertyOp12
 70
     1
102
RTVSPropertyOp13
 70
     1
102
RTVSPropertyOp14
 70
     1
102
RTVSPropertyOp15
 70
     1
102
RTVSPropertyOp16
 70
     1
102
RTVSPropertyOp17
 70
     1
102
RTVSPropertyOp18
 70
     1
102
RTVSPropertyOp19
 70
     1
102
RTVSPropertyOp20
 70
     1
102
RTVSPropertyOp21
 70
     1
102
RTVSPropertyOp22
 70
     1
102
RTVSPropertyOp23
 70
     1
102
RTVSPropertyOp24
 70
     1
102
RTVSPropertyOp25
 70
     1
102
RTVSPropertyOp26
 70
     1
102
RTVSPropertyOp27
 70
     1
102
RTVSPropertyOp28
 70
     1
102
RTVSPropertyOp29
 70
     1
102
RTVSPropertyOp30
 70
     1
102
RTVSPropertyOp31
 70
     1
102
RTVSPropertyOp32
 70
     1
102
RTVSPropertyOp33
 70
     1
102
RTVSPropertyOp34
 70
     1
102
RTVSPropertyOp35
 70
     1
102
RTVSPropertyOp36
 70
     1
102
RTVSPropertyOp37
 70
     1
102
RTVSPropertyOp38
 70
     1
102
RTVSPropertyOp39
 70
     1
102
RTVSPropertyOp40
 70
     1
102
RTVSPropertyOp41
 70
     1
102
RTVSPropertyOp42
 70
     1
102
RTVSPropertyOp43
 70
     1
102
RTVSPropertyOp44
 70
     1
102
RTVSPropertyOp45
 70
     1
102
RTVSPropertyOp46
 70
     1
102
RTVSPropertyOp47
 70
     1
102
RTVSPropertyOp48
 70
     1
102
RTVSPropertyOp49
 70
     1
102
RTVSPropertyOp50
 70
     1
102
RTVSPropertyOp51
 70
     0
102
RTVSPropertyOp52
 70
     0
102
RTVSPropertyOp53
 70
     1
102
RTVSPropertyOp54
 70
     1
102
RTVSPropertyOp55
 70
     1
102
RTVSPropertyOp56
 70
     1
102
RTVSPropertyOp57
 70
     1
102
RTVSPropertyOp58
 70
     1
102
RTVSPropertyOp59
 70
     1
102
RTVSPropertyOp60
 70
     1
102
RTVSPropertyOp61
 70
     1
102
RTVSPropertyOp62
 70
     1
  0
XRECORD
  5
829A
102
{ACAD_REACTORS
330
8299
102
}
330
8299
100
AcDbXrecord
280
     1
102
RTVSPost2010Prop28
280
     0
102
RTVSPost2010PropOp28
 70
     1
102
RTVSPost2010Prop29
280
     1
102
RTVSPost2010PropOp29
 70
     1
102
RTVSPost2010Prop30
280
     1
102
RTVSPost2010PropOp30
 70
     1
102
RTVSPost2010Prop31
280
     0
102
RTVSPost2010PropOp31
 70
     1
102
RTVSPost2010Prop32
280
     0
102
RTVSPost2010PropOp32
 70
     1
102
RTVSPost2010Prop33
280
     0
102
RTVSPost2010PropOp33
 70
     1
102
RTVSPost2010Prop34
280
     0
102
RTVSPost2010PropOp34
 70
     1
102
RTVSPost2010Prop35
280
     0
102
RTVSPost2010PropOp35
 70
     1
102
RTVSPost2010Prop36
280
     0
102
RTVSPost2010PropOp36
 70
     1
102
RTVSPost2010Prop37
 90
       50
102
RTVSPost2010PropOp37
 70
     1
102
RTVSPost2010Prop38
140
0.0
102
RTVSPost2010PropOp38
 70
     1
102
RTVSPost2010Prop39
140
1.0
102
RTVSPost2010PropOp39
 70
     1
102
RTVSPost2010Prop40
 90
        0
102
RTVSPost2010PropOp40
 70
     1
102
RTVSPost2010Prop41ColorIndex
 90
       18
102
RTVSPost2010Prop41ColorRGB
 90
        0
102
RTVSPost2010PropOp41
 70
     1
102
RTVSPost2010Prop42
 90
       50
102
RTVSPost2010PropOp42
 70
     1
102
RTVSPost2010Prop43
 90
        3
102
RTVSPost2010PropOp43
 70
     1
102
RTVSPost2010Prop44ColorIndex
 90
        5
102
RTVSPost2010Prop44ColorRGB
 90
      255
102
RTVSPost2010PropOp44
 70
     1
102
RTVSPost2010Prop45
280
     0
102
RTVSPost2010PropOp45
 70
     1
102
RTVSPost2010Prop46
 90
       50
102
RTVSPost2010PropOp46
 70
     1
102
RTVSPost2010Prop47
 90
       50
102
RTVSPost2010PropOp47
 70
     1
102
RTVSPost2010Prop48
 90
       50
102
RTVSPost2010PropOp48
 70
     1
102
RTVSPost2010Prop49
280
     0
102
RTVSPost2010PropOp49
 70
     1
102
RTVSPost2010Prop50
 90
       50
102
RTVSPost2010PropOp50
 70
     1
102
RTVSPost2010Prop51ColorIndex
 90
      256
102
RTVSPost2010Prop51ColorRGB
 90
-16777216
102
RTVSPost2010PropOp51
 70
     0
102
RTVSPost2010Prop52
140
1.0
102
RTVSPost2010PropOp52
 70
     0
102
RTVSPost2010Prop53
 90
        2
102
RTVSPost2010PropOp53
 70
     1
102
RTVSPost2010Prop54
  1
strokes_ogs.tif
102
RTVSPost2010PropOp54
 70
     1
102
RTVSPost2010Prop55
280
     0
102
RTVSPost2010PropOp55
 70
     1
102
RTVSPost2010Prop56
140
1.0
102
RTVSPost2010PropOp56
 70
     1
102
RTVSPost2010Prop57
140
1.0
102
RTVSPost2010PropOp57
 70
     1
102
RTVSPropertyOp0
 70
     1
102
RTVSPropertyOp1
 70
     1
102
RTVSPropertyOp2
 70
     1
102
RTVSPropertyOp3
 70
     1
102
RTVSPropertyOp4
 70
     1
102
RTVSPropertyOp5
 70
     1
102
RTVSPropertyOp6
 70
     1
102
RTVSPropertyOp7
 70
     1
102
RTVSPropertyOp8
 70
     1
102
RTVSPropertyOp9
 70
     1
102
RTVSPropertyOp10
 70
     1
102
RTVSPropertyOp11
 70
     1
102
RTVSPropertyOp12
 70
     1
102
RTVSPropertyOp13
 70
     1
102
RTVSPropertyOp14
 70
     1
102
RTVSPropertyOp15
 70
     1
102
RTVSPropertyOp16
 70
     1
102
RTVSPropertyOp17
 70
     1
102
RTVSPropertyOp18
 70
     1
102
RTVSPropertyOp19
 70
     1
102
RTVSPropertyOp20
 70
     1
102
RTVSPropertyOp21
 70
     1
102
RTVSPropertyOp22
 70
     1
102
RTVSPropertyOp23
 70
     1
102
RTVSPropertyOp24
 70
     1
102
RTVSPropertyOp25
 70
     1
102
RTVSPropertyOp26
 70
     1
102
RTVSPropertyOp27
 70
     1
102
RTVSPropertyOp28
 70
     1
102
RTVSPropertyOp29
 70
     1
102
RTVSPropertyOp30
 70
     1
102
RTVSPropertyOp31
 70
     1
102
RTVSPropertyOp32
 70
     1
102
RTVSPropertyOp33
 70
     1
102
RTVSPropertyOp34
 70
     1
102
RTVSPropertyOp35
 70
     1
102
RTVSPropertyOp36
 70
     1
102
RTVSPropertyOp37
 70
     1
102
RTVSPropertyOp38
 70
     1
102
RTVSPropertyOp39
 70
     1
102
RTVSPropertyOp40
 70
     1
102
RTVSPropertyOp41
 70
     1
102
RTVSPropertyOp42
 70
     1
102
RTVSPropertyOp43
 70
     1
102
RTVSPropertyOp44
 70
     1
102
RTVSPropertyOp45
 70
     1
102
RTVSPropertyOp46
 70
     1
102
RTVSPropertyOp47
 70
     1
102
RTVSPropertyOp48
 70
     1
102
RTVSPropertyOp49
 70
     1
102
RTVSPropertyOp50
 70
     1
102
RTVSPropertyOp51
 70
     0
102
RTVSPropertyOp52
 70
     0
102
RTVSPropertyOp53
 70
     1
102
RTVSPropertyOp54
 70
     1
102
RTVSPropertyOp55
 70
     1
102
RTVSPropertyOp56
 70
     1
102
RTVSPropertyOp57
 70
     1
102
RTVSPropertyOp58
 70
     1
102
RTVSPropertyOp59
 70
     1
102
RTVSPropertyOp60
 70
     1
102
RTVSPropertyOp61
 70
     1
102
RTVSPropertyOp62
 70
     1
  0
XRECORD
  5
82B4
102
{ACAD_REACTORS
330
82B3
102
}
330
82B3
100
AcDbXrecord
280
     1
102
RTVSPost2010Prop28
280
     0
102
RTVSPost2010PropOp28
 70
     0
102
RTVSPost2010Prop29
280
     1
102
RTVSPost2010PropOp29
 70
     0
102
RTVSPost2010Prop30
280
     1
102
RTVSPost2010PropOp30
 70
     0
102
RTVSPost2010Prop31
280
     0
102
RTVSPost2010PropOp31
 70
     0
102
RTVSPost2010Prop32
280
     0
102
RTVSPost2010PropOp32
 70
     0
102
RTVSPost2010Prop33
280
     0
102
RTVSPost2010PropOp33
 70
     0
102
RTVSPost2010Prop34
280
     0
102
RTVSPost2010PropOp34
 70
     0
102
RTVSPost2010Prop35
280
     0
102
RTVSPost2010PropOp35
 70
     0
102
RTVSPost2010Prop36
280
     0
102
RTVSPost2010PropOp36
 70
     0
102
RTVSPost2010Prop37
 90
       50
102
RTVSPost2010PropOp37
 70
     0
102
RTVSPost2010Prop38
140
0.0
102
RTVSPost2010PropOp38
 70
     0
102
RTVSPost2010Prop39
140
1.0
102
RTVSPost2010PropOp39
 70
     0
102
RTVSPost2010Prop40
 90
        0
102
RTVSPost2010PropOp40
 70
     0
102
RTVSPost2010Prop41ColorIndex
 90
       18
102
RTVSPost2010Prop41ColorRGB
 90
        0
102
RTVSPost2010PropOp41
 70
     0
102
RTVSPost2010Prop42
 90
       50
102
RTVSPost2010PropOp42
 70
     0
102
RTVSPost2010Prop43
 90
        3
102
RTVSPost2010PropOp43
 70
     0
102
RTVSPost2010Prop44ColorIndex
 90
        5
102
RTVSPost2010Prop44ColorRGB
 90
      255
102
RTVSPost2010PropOp44
 70
     0
102
RTVSPost2010Prop45
280
     0
102
RTVSPost2010PropOp45
 70
     0
102
RTVSPost2010Prop46
 90
       50
102
RTVSPost2010PropOp46
 70
     0
102
RTVSPost2010Prop47
 90
       50
102
RTVSPost2010PropOp47
 70
     0
102
RTVSPost2010Prop48
 90
       50
102
RTVSPost2010PropOp48
 70
     0
102
RTVSPost2010Prop49
280
     0
102
RTVSPost2010PropOp49
 70
     0
102
RTVSPost2010Prop50
 90
       50
102
RTVSPost2010PropOp50
 70
     0
102
RTVSPost2010Prop51ColorIndex
 90
      256
102
RTVSPost2010Prop51ColorRGB
 90
-16777216
102
RTVSPost2010PropOp51
 70
     0
102
RTVSPost2010Prop52
140
1.0
102
RTVSPost2010PropOp52
 70
     0
102
RTVSPost2010Prop53
 90
        2
102
RTVSPost2010PropOp53
 70
     0
102
RTVSPost2010Prop54
  1
strokes_ogs.tif
102
RTVSPost2010PropOp54
 70
     0
102
RTVSPost2010Prop55
280
     0
102
RTVSPost2010PropOp55
 70
     0
102
RTVSPost2010Prop56
140
1.0
102
RTVSPost2010PropOp56
 70
     0
102
RTVSPost2010Prop57
140
1.0
102
RTVSPost2010PropOp57
 70
     0
102
RTVSPropertyOp0
 70
     0
102
RTVSPropertyOp1
 70
     0
102
RTVSPropertyOp2
 70
     0
102
RTVSPropertyOp3
 70
     0
102
RTVSPropertyOp4
 70
     0
102
RTVSPropertyOp5
 70
     0
102
RTVSPropertyOp6
 70
     0
102
RTVSPropertyOp7
 70
     0
102
RTVSPropertyOp8
 70
     0
102
RTVSPropertyOp9
 70
     0
102
RTVSPropertyOp10
 70
     0
102
RTVSPropertyOp11
 70
     0
102
RTVSPropertyOp12
 70
     0
102
RTVSPropertyOp13
 70
     0
102
RTVSPropertyOp14
 70
     2
102
RTVSPropertyOp15
 70
     0
102
RTVSPropertyOp16
 70
     0
102
RTVSPropertyOp17
 70
     0
102
RTVSPropertyOp18
 70
     0
102
RTVSPropertyOp19
 70
     0
102
RTVSPropertyOp20
 70
     0
102
RTVSPropertyOp21
 70
     0
102
RTVSPropertyOp22
 70
     0
102
RTVSPropertyOp23
 70
     0
102
RTVSPropertyOp24
 70
     0
102
RTVSPropertyOp25
 70
     0
102
RTVSPropertyOp26
 70
     0
102
RTVSPropertyOp27
 70
     0
102
RTVSPropertyOp28
 70
     0
102
RTVSPropertyOp29
 70
     0
102
RTVSPropertyOp30
 70
     0
102
RTVSPropertyOp31
 70
     0
102
RTVSPropertyOp32
 70
     0
102
RTVSPropertyOp33
 70
     0
102
RTVSPropertyOp34
 70
     0
102
RTVSPropertyOp35
 70
     0
102
RTVSPropertyOp36
 70
     0
102
RTVSPropertyOp37
 70
     0
102
RTVSPropertyOp38
 70
     0
102
RTVSPropertyOp39
 70
     0
102
RTVSPropertyOp40
 70
     0
102
RTVSPropertyOp41
 70
     0
102
RTVSPropertyOp42
 70
     0
102
RTVSPropertyOp43
 70
     0
102
RTVSPropertyOp44
 70
     0
102
RTVSPropertyOp45
 70
     0
102
RTVSPropertyOp46
 70
     0
102
RTVSPropertyOp47
 70
     0
102
RTVSPropertyOp48
 70
     0
102
RTVSPropertyOp49
 70
     0
102
RTVSPropertyOp50
 70
     0
102
RTVSPropertyOp51
 70
     0
102
RTVSPropertyOp52
 70
     0
102
RTVSPropertyOp53
 70
     0
102
RTVSPropertyOp54
 70
     0
102
RTVSPropertyOp55
 70
     0
102
RTVSPropertyOp56
 70
     0
102
RTVSPropertyOp57
 70
     0
102
RTVSPropertyOp58
 70
     0
102
RTVSPropertyOp59
 70
     0
102
RTVSPropertyOp60
 70
     0
102
RTVSPropertyOp61
 70
     0
102
RTVSPropertyOp62
 70
     0
  0
XRECORD
  5
82A2
102
{ACAD_REACTORS
330
82A1
102
}
330
82A1
100
AcDbXrecord
280
     1
102
RTVSPost2010Prop28
280
     0
102
RTVSPost2010PropOp28
 70
     1
102
RTVSPost2010Prop29
280
     1
102
RTVSPost2010PropOp29
 70
     1
102
RTVSPost2010Prop30
280
     1
102
RTVSPost2010PropOp30
 70
     1
102
RTVSPost2010Prop31
280
     0
102
RTVSPost2010PropOp31
 70
     1
102
RTVSPost2010Prop32
280
     0
102
RTVSPost2010PropOp32
 70
     1
102
RTVSPost2010Prop33
280
     0
102
RTVSPost2010PropOp33
 70
     1
102
RTVSPost2010Prop34
280
     0
102
RTVSPost2010PropOp34
 70
     1
102
RTVSPost2010Prop35
280
     0
102
RTVSPost2010PropOp35
 70
     1
102
RTVSPost2010Prop36
280
     0
102
RTVSPost2010PropOp36
 70
     1
102
RTVSPost2010Prop37
 90
       50
102
RTVSPost2010PropOp37
 70
     1
102
RTVSPost2010Prop38
140
0.0
102
RTVSPost2010PropOp38
 70
     1
102
RTVSPost2010Prop39
140
1.0
102
RTVSPost2010PropOp39
 70
     1
102
RTVSPost2010Prop40
 90
        0
102
RTVSPost2010PropOp40
 70
     1
102
RTVSPost2010Prop41ColorIndex
 90
       18
102
RTVSPost2010Prop41ColorRGB
 90
        0
102
RTVSPost2010PropOp41
 70
     1
102
RTVSPost2010Prop42
 90
       50
102
RTVSPost2010PropOp42
 70
     1
102
RTVSPost2010Prop43
 90
        3
102
RTVSPost2010PropOp43
 70
     1
102
RTVSPost2010Prop44ColorIndex
 90
        5
102
RTVSPost2010Prop44ColorRGB
 90
      255
102
RTVSPost2010PropOp44
 70
     1
102
RTVSPost2010Prop45
280
     0
102
RTVSPost2010PropOp45
 70
     1
102
RTVSPost2010Prop46
 90
       50
102
RTVSPost2010PropOp46
 70
     1
102
RTVSPost2010Prop47
 90
       50
102
RTVSPost2010PropOp47
 70
     1
102
RTVSPost2010Prop48
 90
       50
102
RTVSPost2010PropOp48
 70
     1
102
RTVSPost2010Prop49
280
     0
102
RTVSPost2010PropOp49
 70
     1
102
RTVSPost2010Prop50
 90
       50
102
RTVSPost2010PropOp50
 70
     1
102
RTVSPost2010Prop51ColorIndex
 90
      256
102
RTVSPost2010Prop51ColorRGB
 90
-16777216
102
RTVSPost2010PropOp51
 70
     0
102
RTVSPost2010Prop52
140
1.0
102
RTVSPost2010PropOp52
 70
     0
102
RTVSPost2010Prop53
 90
        2
102
RTVSPost2010PropOp53
 70
     1
102
RTVSPost2010Prop54
  1
strokes_ogs.tif
102
RTVSPost2010PropOp54
 70
     1
102
RTVSPost2010Prop55
280
     0
102
RTVSPost2010PropOp55
 70
     1
102
RTVSPost2010Prop56
140
1.0
102
RTVSPost2010PropOp56
 70
     1
102
RTVSPost2010Prop57
140
1.0
102
RTVSPost2010PropOp57
 70
     1
102
RTVSPropertyOp0
 70
     1
102
RTVSPropertyOp1
 70
     1
102
RTVSPropertyOp2
 70
     1
102
RTVSPropertyOp3
 70
     1
102
RTVSPropertyOp4
 70
     1
102
RTVSPropertyOp5
 70
     1
102
RTVSPropertyOp6
 70
     1
102
RTVSPropertyOp7
 70
     1
102
RTVSPropertyOp8
 70
     1
102
RTVSPropertyOp9
 70
     1
102
RTVSPropertyOp10
 70
     1
102
RTVSPropertyOp11
 70
     1
102
RTVSPropertyOp12
 70
     1
102
RTVSPropertyOp13
 70
     1
102
RTVSPropertyOp14
 70
     1
102
RTVSPropertyOp15
 70
     1
102
RTVSPropertyOp16
 70
     1
102
RTVSPropertyOp17
 70
     1
102
RTVSPropertyOp18
 70
     1
102
RTVSPropertyOp19
 70
     1
102
RTVSPropertyOp20
 70
     1
102
RTVSPropertyOp21
 70
     1
102
RTVSPropertyOp22
 70
     1
102
RTVSPropertyOp23
 70
     1
102
RTVSPropertyOp24
 70
     1
102
RTVSPropertyOp25
 70
     1
102
RTVSPropertyOp26
 70
     1
102
RTVSPropertyOp27
 70
     1
102
RTVSPropertyOp28
 70
     1
102
RTVSPropertyOp29
 70
     1
102
RTVSPropertyOp30
 70
     1
102
RTVSPropertyOp31
 70
     1
102
RTVSPropertyOp32
 70
     1
102
RTVSPropertyOp33
 70
     1
102
RTVSPropertyOp34
 70
     1
102
RTVSPropertyOp35
 70
     1
102
RTVSPropertyOp36
 70
     1
102
RTVSPropertyOp37
 70
     1
102
RTVSPropertyOp38
 70
     1
102
RTVSPropertyOp39
 70
     1
102
RTVSPropertyOp40
 70
     1
102
RTVSPropertyOp41
 70
     1
102
RTVSPropertyOp42
 70
     1
102
RTVSPropertyOp43
 70
     1
102
RTVSPropertyOp44
 70
     1
102
RTVSPropertyOp45
 70
     1
102
RTVSPropertyOp46
 70
     1
102
RTVSPropertyOp47
 70
     1
102
RTVSPropertyOp48
 70
     1
102
RTVSPropertyOp49
 70
     1
102
RTVSPropertyOp50
 70
     1
102
RTVSPropertyOp51
 70
     0
102
RTVSPropertyOp52
 70
     0
102
RTVSPropertyOp53
 70
     1
102
RTVSPropertyOp54
 70
     1
102
RTVSPropertyOp55
 70
     1
102
RTVSPropertyOp56
 70
     1
102
RTVSPropertyOp57
 70
     1
102
RTVSPropertyOp58
 70
     1
102
RTVSPropertyOp59
 70
     1
102
RTVSPropertyOp60
 70
     1
102
RTVSPropertyOp61
 70
     1
102
RTVSPropertyOp62
 70
     1
  0
XRECORD
  5
8286
102
{ACAD_REACTORS
330
8285
102
}
330
8285
100
AcDbXrecord
280
     1
102
RTVSPost2010Prop28
280
     0
102
RTVSPost2010PropOp28
 70
     1
102
RTVSPost2010Prop29
280
     1
102
RTVSPost2010PropOp29
 70
     1
102
RTVSPost2010Prop30
280
     1
102
RTVSPost2010PropOp30
 70
     1
102
RTVSPost2010Prop31
280
     0
102
RTVSPost2010PropOp31
 70
     1
102
RTVSPost2010Prop32
280
     0
102
RTVSPost2010PropOp32
 70
     1
102
RTVSPost2010Prop33
280
     0
102
RTVSPost2010PropOp33
 70
     1
102
RTVSPost2010Prop34
280
     0
102
RTVSPost2010PropOp34
 70
     1
102
RTVSPost2010Prop35
280
     0
102
RTVSPost2010PropOp35
 70
     1
102
RTVSPost2010Prop36
280
     0
102
RTVSPost2010PropOp36
 70
     1
102
RTVSPost2010Prop37
 90
       50
102
RTVSPost2010PropOp37
 70
     1
102
RTVSPost2010Prop38
140
0.0
102
RTVSPost2010PropOp38
 70
     1
102
RTVSPost2010Prop39
140
1.0
102
RTVSPost2010PropOp39
 70
     1
102
RTVSPost2010Prop40
 90
        0
102
RTVSPost2010PropOp40
 70
     1
102
RTVSPost2010Prop41ColorIndex
 90
       18
102
RTVSPost2010Prop41ColorRGB
 90
        0
102
RTVSPost2010PropOp41
 70
     1
102
RTVSPost2010Prop42
 90
       50
102
RTVSPost2010PropOp42
 70
     1
102
RTVSPost2010Prop43
 90
        3
102
RTVSPost2010PropOp43
 70
     1
102
RTVSPost2010Prop44ColorIndex
 90
        5
102
RTVSPost2010Prop44ColorRGB
 90
      255
102
RTVSPost2010PropOp44
 70
     1
102
RTVSPost2010Prop45
280
     0
102
RTVSPost2010PropOp45
 70
     1
102
RTVSPost2010Prop46
 90
       50
102
RTVSPost2010PropOp46
 70
     1
102
RTVSPost2010Prop47
 90
       50
102
RTVSPost2010PropOp47
 70
     1
102
RTVSPost2010Prop48
 90
       50
102
RTVSPost2010PropOp48
 70
     1
102
RTVSPost2010Prop49
280
     0
102
RTVSPost2010PropOp49
 70
     1
102
RTVSPost2010Prop50
 90
       50
102
RTVSPost2010PropOp50
 70
     1
102
RTVSPost2010Prop51ColorIndex
 90
      256
102
RTVSPost2010Prop51ColorRGB
 90
-16777216
102
RTVSPost2010PropOp51
 70
     0
102
RTVSPost2010Prop52
140
1.0
102
RTVSPost2010PropOp52
 70
     0
102
RTVSPost2010Prop53
 90
        2
102
RTVSPost2010PropOp53
 70
     1
102
RTVSPost2010Prop54
  1
strokes_ogs.tif
102
RTVSPost2010PropOp54
 70
     1
102
RTVSPost2010Prop55
280
     0
102
RTVSPost2010PropOp55
 70
     1
102
RTVSPost2010Prop56
140
1.0
102
RTVSPost2010PropOp56
 70
     1
102
RTVSPost2010Prop57
140
1.0
102
RTVSPost2010PropOp57
 70
     1
102
RTVSPropertyOp0
 70
     1
102
RTVSPropertyOp1
 70
     1
102
RTVSPropertyOp2
 70
     1
102
RTVSPropertyOp3
 70
     1
102
RTVSPropertyOp4
 70
     1
102
RTVSPropertyOp5
 70
     1
102
RTVSPropertyOp6
 70
     1
102
RTVSPropertyOp7
 70
     1
102
RTVSPropertyOp8
 70
     1
102
RTVSPropertyOp9
 70
     1
102
RTVSPropertyOp10
 70
     1
102
RTVSPropertyOp11
 70
     1
102
RTVSPropertyOp12
 70
     1
102
RTVSPropertyOp13
 70
     1
102
RTVSPropertyOp14
 70
     1
102
RTVSPropertyOp15
 70
     1
102
RTVSPropertyOp16
 70
     1
102
RTVSPropertyOp17
 70
     1
102
RTVSPropertyOp18
 70
     1
102
RTVSPropertyOp19
 70
     1
102
RTVSPropertyOp20
 70
     1
102
RTVSPropertyOp21
 70
     1
102
RTVSPropertyOp22
 70
     1
102
RTVSPropertyOp23
 70
     1
102
RTVSPropertyOp24
 70
     1
102
RTVSPropertyOp25
 70
     1
102
RTVSPropertyOp26
 70
     1
102
RTVSPropertyOp27
 70
     1
102
RTVSPropertyOp28
 70
     1
102
RTVSPropertyOp29
 70
     1
102
RTVSPropertyOp30
 70
     1
102
RTVSPropertyOp31
 70
     1
102
RTVSPropertyOp32
 70
     1
102
RTVSPropertyOp33
 70
     1
102
RTVSPropertyOp34
 70
     1
102
RTVSPropertyOp35
 70
     1
102
RTVSPropertyOp36
 70
     1
102
RTVSPropertyOp37
 70
     1
102
RTVSPropertyOp38
 70
     1
102
RTVSPropertyOp39
 70
     1
102
RTVSPropertyOp40
 70
     1
102
RTVSPropertyOp41
 70
     1
102
RTVSPropertyOp42
 70
     1
102
RTVSPropertyOp43
 70
     1
102
RTVSPropertyOp44
 70
     1
102
RTVSPropertyOp45
 70
     1
102
RTVSPropertyOp46
 70
     1
102
RTVSPropertyOp47
 70
     1
102
RTVSPropertyOp48
 70
     1
102
RTVSPropertyOp49
 70
     1
102
RTVSPropertyOp50
 70
     1
102
RTVSPropertyOp51
 70
     0
102
RTVSPropertyOp52
 70
     0
102
RTVSPropertyOp53
 70
     1
102
RTVSPropertyOp54
 70
     1
102
RTVSPropertyOp55
 70
     1
102
RTVSPropertyOp56
 70
     1
102
RTVSPropertyOp57
 70
     1
102
RTVSPropertyOp58
 70
     1
102
RTVSPropertyOp59
 70
     1
102
RTVSPropertyOp60
 70
     1
102
RTVSPropertyOp61
 70
     1
102
RTVSPropertyOp62
 70
     1
  0
XRECORD
  5
8288
102
{ACAD_REACTORS
330
8287
102
}
330
8287
100
AcDbXrecord
280
     1
102
RTVSPost2010Prop28
280
     0
102
RTVSPost2010PropOp28
 70
     1
102
RTVSPost2010Prop29
280
     1
102
RTVSPost2010PropOp29
 70
     1
102
RTVSPost2010Prop30
280
     1
102
RTVSPost2010PropOp30
 70
     1
102
RTVSPost2010Prop31
280
     0
102
RTVSPost2010PropOp31
 70
     1
102
RTVSPost2010Prop32
280
     0
102
RTVSPost2010PropOp32
 70
     1
102
RTVSPost2010Prop33
280
     0
102
RTVSPost2010PropOp33
 70
     1
102
RTVSPost2010Prop34
280
     0
102
RTVSPost2010PropOp34
 70
     1
102
RTVSPost2010Prop35
280
     0
102
RTVSPost2010PropOp35
 70
     1
102
RTVSPost2010Prop36
280
     0
102
RTVSPost2010PropOp36
 70
     1
102
RTVSPost2010Prop37
 90
       50
102
RTVSPost2010PropOp37
 70
     1
102
RTVSPost2010Prop38
140
0.0
102
RTVSPost2010PropOp38
 70
     1
102
RTVSPost2010Prop39
140
1.0
102
RTVSPost2010PropOp39
 70
     1
102
RTVSPost2010Prop40
 90
        0
102
RTVSPost2010PropOp40
 70
     1
102
RTVSPost2010Prop41ColorIndex
 90
       18
102
RTVSPost2010Prop41ColorRGB
 90
        0
102
RTVSPost2010PropOp41
 70
     1
102
RTVSPost2010Prop42
 90
       50
102
RTVSPost2010PropOp42
 70
     1
102
RTVSPost2010Prop43
 90
        3
102
RTVSPost2010PropOp43
 70
     1
102
RTVSPost2010Prop44ColorIndex
 90
        5
102
RTVSPost2010Prop44ColorRGB
 90
      255
102
RTVSPost2010PropOp44
 70
     1
102
RTVSPost2010Prop45
280
     0
102
RTVSPost2010PropOp45
 70
     1
102
RTVSPost2010Prop46
 90
       50
102
RTVSPost2010PropOp46
 70
     1
102
RTVSPost2010Prop47
 90
       50
102
RTVSPost2010PropOp47
 70
     1
102
RTVSPost2010Prop48
 90
       50
102
RTVSPost2010PropOp48
 70
     1
102
RTVSPost2010Prop49
280
     0
102
RTVSPost2010PropOp49
 70
     1
102
RTVSPost2010Prop50
 90
       50
102
RTVSPost2010PropOp50
 70
     1
102
RTVSPost2010Prop51ColorIndex
 90
      256
102
RTVSPost2010Prop51ColorRGB
 90
-16777216
102
RTVSPost2010PropOp51
 70
     0
102
RTVSPost2010Prop52
140
1.0
102
RTVSPost2010PropOp52
 70
     0
102
RTVSPost2010Prop53
 90
        2
102
RTVSPost2010PropOp53
 70
     1
102
RTVSPost2010Prop54
  1
strokes_ogs.tif
102
RTVSPost2010PropOp54
 70
     1
102
RTVSPost2010Prop55
280
     0
102
RTVSPost2010PropOp55
 70
     1
102
RTVSPost2010Prop56
140
1.0
102
RTVSPost2010PropOp56
 70
     1
102
RTVSPost2010Prop57
140
1.0
102
RTVSPost2010PropOp57
 70
     1
102
RTVSPropertyOp0
 70
     1
102
RTVSPropertyOp1
 70
     1
102
RTVSPropertyOp2
 70
     1
102
RTVSPropertyOp3
 70
     1
102
RTVSPropertyOp4
 70
     1
102
RTVSPropertyOp5
 70
     1
102
RTVSPropertyOp6
 70
     1
102
RTVSPropertyOp7
 70
     1
102
RTVSPropertyOp8
 70
     1
102
RTVSPropertyOp9
 70
     1
102
RTVSPropertyOp10
 70
     1
102
RTVSPropertyOp11
 70
     1
102
RTVSPropertyOp12
 70
     1
102
RTVSPropertyOp13
 70
     1
102
RTVSPropertyOp14
 70
     1
102
RTVSPropertyOp15
 70
     1
102
RTVSPropertyOp16
 70
     1
102
RTVSPropertyOp17
 70
     1
102
RTVSPropertyOp18
 70
     1
102
RTVSPropertyOp19
 70
     1
102
RTVSPropertyOp20
 70
     1
102
RTVSPropertyOp21
 70
     1
102
RTVSPropertyOp22
 70
     1
102
RTVSPropertyOp23
 70
     1
102
RTVSPropertyOp24
 70
     1
102
RTVSPropertyOp25
 70
     1
102
RTVSPropertyOp26
 70
     1
102
RTVSPropertyOp27
 70
     1
102
RTVSPropertyOp28
 70
     1
102
RTVSPropertyOp29
 70
     1
102
RTVSPropertyOp30
 70
     1
102
RTVSPropertyOp31
 70
     1
102
RTVSPropertyOp32
 70
     1
102
RTVSPropertyOp33
 70
     1
102
RTVSPropertyOp34
 70
     1
102
RTVSPropertyOp35
 70
     1
102
RTVSPropertyOp36
 70
     1
102
RTVSPropertyOp37
 70
     1
102
RTVSPropertyOp38
 70
     1
102
RTVSPropertyOp39
 70
     1
102
RTVSPropertyOp40
 70
     1
102
RTVSPropertyOp41
 70
     1
102
RTVSPropertyOp42
 70
     1
102
RTVSPropertyOp43
 70
     1
102
RTVSPropertyOp44
 70
     1
102
RTVSPropertyOp45
 70
     1
102
RTVSPropertyOp46
 70
     1
102
RTVSPropertyOp47
 70
     1
102
RTVSPropertyOp48
 70
     1
102
RTVSPropertyOp49
 70
     1
102
RTVSPropertyOp50
 70
     1
102
RTVSPropertyOp51
 70
     0
102
RTVSPropertyOp52
 70
     0
102
RTVSPropertyOp53
 70
     1
102
RTVSPropertyOp54
 70
     1
102
RTVSPropertyOp55
 70
     1
102
RTVSPropertyOp56
 70
     1
102
RTVSPropertyOp57
 70
     1
102
RTVSPropertyOp58
 70
     1
102
RTVSPropertyOp59
 70
     1
102
RTVSPropertyOp60
 70
     1
102
RTVSPropertyOp61
 70
     1
102
RTVSPropertyOp62
 70
     1
  0
XRECORD
  5
828A
102
{ACAD_REACTORS
330
8289
102
}
330
8289
100
AcDbXrecord
280
     1
102
RTVSPost2010Prop28
280
     0
102
RTVSPost2010PropOp28
 70
     1
102
RTVSPost2010Prop29
280
     1
102
RTVSPost2010PropOp29
 70
     1
102
RTVSPost2010Prop30
280
     1
102
RTVSPost2010PropOp30
 70
     1
102
RTVSPost2010Prop31
280
     0
102
RTVSPost2010PropOp31
 70
     1
102
RTVSPost2010Prop32
280
     0
102
RTVSPost2010PropOp32
 70
     1
102
RTVSPost2010Prop33
280
     0
102
RTVSPost2010PropOp33
 70
     1
102
RTVSPost2010Prop34
280
     0
102
RTVSPost2010PropOp34
 70
     1
102
RTVSPost2010Prop35
280
     0
102
RTVSPost2010PropOp35
 70
     1
102
RTVSPost2010Prop36
280
     0
102
RTVSPost2010PropOp36
 70
     1
102
RTVSPost2010Prop37
 90
       50
102
RTVSPost2010PropOp37
 70
     1
102
RTVSPost2010Prop38
140
0.0
102
RTVSPost2010PropOp38
 70
     1
102
RTVSPost2010Prop39
140
1.0
102
RTVSPost2010PropOp39
 70
     1
102
RTVSPost2010Prop40
 90
        0
102
RTVSPost2010PropOp40
 70
     1
102
RTVSPost2010Prop41ColorIndex
 90
       18
102
RTVSPost2010Prop41ColorRGB
 90
        0
102
RTVSPost2010PropOp41
 70
     1
102
RTVSPost2010Prop42
 90
       50
102
RTVSPost2010PropOp42
 70
     1
102
RTVSPost2010Prop43
 90
        3
102
RTVSPost2010PropOp43
 70
     1
102
RTVSPost2010Prop44ColorIndex
 90
        5
102
RTVSPost2010Prop44ColorRGB
 90
      255
102
RTVSPost2010PropOp44
 70
     1
102
RTVSPost2010Prop45
280
     0
102
RTVSPost2010PropOp45
 70
     1
102
RTVSPost2010Prop46
 90
       50
102
RTVSPost2010PropOp46
 70
     1
102
RTVSPost2010Prop47
 90
       50
102
RTVSPost2010PropOp47
 70
     1
102
RTVSPost2010Prop48
 90
       50
102
RTVSPost2010PropOp48
 70
     1
102
RTVSPost2010Prop49
280
     0
102
RTVSPost2010PropOp49
 70
     1
102
RTVSPost2010Prop50
 90
       50
102
RTVSPost2010PropOp50
 70
     1
102
RTVSPost2010Prop51ColorIndex
 90
      256
102
RTVSPost2010Prop51ColorRGB
 90
-16777216
102
RTVSPost2010PropOp51
 70
     0
102
RTVSPost2010Prop52
140
1.0
102
RTVSPost2010PropOp52
 70
     0
102
RTVSPost2010Prop53
 90
        2
102
RTVSPost2010PropOp53
 70
     1
102
RTVSPost2010Prop54
  1
strokes_ogs.tif
102
RTVSPost2010PropOp54
 70
     1
102
RTVSPost2010Prop55
280
     0
102
RTVSPost2010PropOp55
 70
     1
102
RTVSPost2010Prop56
140
1.0
102
RTVSPost2010PropOp56
 70
     1
102
RTVSPost2010Prop57
140
1.0
102
RTVSPost2010PropOp57
 70
     1
102
RTVSPropertyOp0
 70
     1
102
RTVSPropertyOp1
 70
     1
102
RTVSPropertyOp2
 70
     1
102
RTVSPropertyOp3
 70
     1
102
RTVSPropertyOp4
 70
     1
102
RTVSPropertyOp5
 70
     1
102
RTVSPropertyOp6
 70
     1
102
RTVSPropertyOp7
 70
     1
102
RTVSPropertyOp8
 70
     1
102
RTVSPropertyOp9
 70
     1
102
RTVSPropertyOp10
 70
     1
102
RTVSPropertyOp11
 70
     1
102
RTVSPropertyOp12
 70
     1
102
RTVSPropertyOp13
 70
     1
102
RTVSPropertyOp14
 70
     1
102
RTVSPropertyOp15
 70
     1
102
RTVSPropertyOp16
 70
     1
102
RTVSPropertyOp17
 70
     1
102
RTVSPropertyOp18
 70
     1
102
RTVSPropertyOp19
 70
     1
102
RTVSPropertyOp20
 70
     1
102
RTVSPropertyOp21
 70
     1
102
RTVSPropertyOp22
 70
     1
102
RTVSPropertyOp23
 70
     1
102
RTVSPropertyOp24
 70
     1
102
RTVSPropertyOp25
 70
     1
102
RTVSPropertyOp26
 70
     1
102
RTVSPropertyOp27
 70
     1
102
RTVSPropertyOp28
 70
     1
102
RTVSPropertyOp29
 70
     1
102
RTVSPropertyOp30
 70
     1
102
RTVSPropertyOp31
 70
     1
102
RTVSPropertyOp32
 70
     1
102
RTVSPropertyOp33
 70
     1
102
RTVSPropertyOp34
 70
     1
102
RTVSPropertyOp35
 70
     1
102
RTVSPropertyOp36
 70
     1
102
RTVSPropertyOp37
 70
     1
102
RTVSPropertyOp38
 70
     1
102
RTVSPropertyOp39
 70
     1
102
RTVSPropertyOp40
 70
     1
102
RTVSPropertyOp41
 70
     1
102
RTVSPropertyOp42
 70
     1
102
RTVSPropertyOp43
 70
     1
102
RTVSPropertyOp44
 70
     1
102
RTVSPropertyOp45
 70
     1
102
RTVSPropertyOp46
 70
     1
102
RTVSPropertyOp47
 70
     1
102
RTVSPropertyOp48
 70
     1
102
RTVSPropertyOp49
 70
     1
102
RTVSPropertyOp50
 70
     1
102
RTVSPropertyOp51
 70
     0
102
RTVSPropertyOp52
 70
     0
102
RTVSPropertyOp53
 70
     1
102
RTVSPropertyOp54
 70
     1
102
RTVSPropertyOp55
 70
     1
102
RTVSPropertyOp56
 70
     1
102
RTVSPropertyOp57
 70
     1
102
RTVSPropertyOp58
 70
     1
102
RTVSPropertyOp59
 70
     1
102
RTVSPropertyOp60
 70
     1
102
RTVSPropertyOp61
 70
     1
102
RTVSPropertyOp62
 70
     1
  0
XRECORD
  5
828C
102
{ACAD_REACTORS
330
828B
102
}
330
828B
100
AcDbXrecord
280
     1
102
RTVSPost2010Prop28
280
     0
102
RTVSPost2010PropOp28
 70
     1
102
RTVSPost2010Prop29
280
     1
102
RTVSPost2010PropOp29
 70
     1
102
RTVSPost2010Prop30
280
     1
102
RTVSPost2010PropOp30
 70
     1
102
RTVSPost2010Prop31
280
     0
102
RTVSPost2010PropOp31
 70
     1
102
RTVSPost2010Prop32
280
     0
102
RTVSPost2010PropOp32
 70
     1
102
RTVSPost2010Prop33
280
     0
102
RTVSPost2010PropOp33
 70
     1
102
RTVSPost2010Prop34
280
     0
102
RTVSPost2010PropOp34
 70
     1
102
RTVSPost2010Prop35
280
     0
102
RTVSPost2010PropOp35
 70
     1
102
RTVSPost2010Prop36
280
     0
102
RTVSPost2010PropOp36
 70
     1
102
RTVSPost2010Prop37
 90
       50
102
RTVSPost2010PropOp37
 70
     1
102
RTVSPost2010Prop38
140
0.0
102
RTVSPost2010PropOp38
 70
     1
102
RTVSPost2010Prop39
140
1.0
102
RTVSPost2010PropOp39
 70
     1
102
RTVSPost2010Prop40
 90
        0
102
RTVSPost2010PropOp40
 70
     1
102
RTVSPost2010Prop41ColorIndex
 90
       18
102
RTVSPost2010Prop41ColorRGB
 90
        0
102
RTVSPost2010PropOp41
 70
     1
102
RTVSPost2010Prop42
 90
       50
102
RTVSPost2010PropOp42
 70
     1
102
RTVSPost2010Prop43
 90
        3
102
RTVSPost2010PropOp43
 70
     1
102
RTVSPost2010Prop44ColorIndex
 90
        5
102
RTVSPost2010Prop44ColorRGB
 90
      255
102
RTVSPost2010PropOp44
 70
     1
102
RTVSPost2010Prop45
280
     0
102
RTVSPost2010PropOp45
 70
     1
102
RTVSPost2010Prop46
 90
       50
102
RTVSPost2010PropOp46
 70
     1
102
RTVSPost2010Prop47
 90
       50
102
RTVSPost2010PropOp47
 70
     1
102
RTVSPost2010Prop48
 90
       50
102
RTVSPost2010PropOp48
 70
     1
102
RTVSPost2010Prop49
280
     0
102
RTVSPost2010PropOp49
 70
     1
102
RTVSPost2010Prop50
 90
       50
102
RTVSPost2010PropOp50
 70
     1
102
RTVSPost2010Prop51ColorIndex
 90
      256
102
RTVSPost2010Prop51ColorRGB
 90
-16777216
102
RTVSPost2010PropOp51
 70
     0
102
RTVSPost2010Prop52
140
1.0
102
RTVSPost2010PropOp52
 70
     0
102
RTVSPost2010Prop53
 90
        2
102
RTVSPost2010PropOp53
 70
     1
102
RTVSPost2010Prop54
  1
strokes_ogs.tif
102
RTVSPost2010PropOp54
 70
     1
102
RTVSPost2010Prop55
280
     0
102
RTVSPost2010PropOp55
 70
     1
102
RTVSPost2010Prop56
140
1.0
102
RTVSPost2010PropOp56
 70
     1
102
RTVSPost2010Prop57
140
1.0
102
RTVSPost2010PropOp57
 70
     1
102
RTVSPropertyOp0
 70
     1
102
RTVSPropertyOp1
 70
     1
102
RTVSPropertyOp2
 70
     1
102
RTVSPropertyOp3
 70
     1
102
RTVSPropertyOp4
 70
     1
102
RTVSPropertyOp5
 70
     1
102
RTVSPropertyOp6
 70
     1
102
RTVSPropertyOp7
 70
     1
102
RTVSPropertyOp8
 70
     1
102
RTVSPropertyOp9
 70
     1
102
RTVSPropertyOp10
 70
     1
102
RTVSPropertyOp11
 70
     1
102
RTVSPropertyOp12
 70
     1
102
RTVSPropertyOp13
 70
     1
102
RTVSPropertyOp14
 70
     1
102
RTVSPropertyOp15
 70
     1
102
RTVSPropertyOp16
 70
     1
102
RTVSPropertyOp17
 70
     1
102
RTVSPropertyOp18
 70
     1
102
RTVSPropertyOp19
 70
     1
102
RTVSPropertyOp20
 70
     1
102
RTVSPropertyOp21
 70
     1
102
RTVSPropertyOp22
 70
     1
102
RTVSPropertyOp23
 70
     1
102
RTVSPropertyOp24
 70
     1
102
RTVSPropertyOp25
 70
     1
102
RTVSPropertyOp26
 70
     1
102
RTVSPropertyOp27
 70
     1
102
RTVSPropertyOp28
 70
     1
102
RTVSPropertyOp29
 70
     1
102
RTVSPropertyOp30
 70
     1
102
RTVSPropertyOp31
 70
     1
102
RTVSPropertyOp32
 70
     1
102
RTVSPropertyOp33
 70
     1
102
RTVSPropertyOp34
 70
     1
102
RTVSPropertyOp35
 70
     1
102
RTVSPropertyOp36
 70
     1
102
RTVSPropertyOp37
 70
     1
102
RTVSPropertyOp38
 70
     1
102
RTVSPropertyOp39
 70
     1
102
RTVSPropertyOp40
 70
     1
102
RTVSPropertyOp41
 70
     1
102
RTVSPropertyOp42
 70
     1
102
RTVSPropertyOp43
 70
     1
102
RTVSPropertyOp44
 70
     1
102
RTVSPropertyOp45
 70
     1
102
RTVSPropertyOp46
 70
     1
102
RTVSPropertyOp47
 70
     1
102
RTVSPropertyOp48
 70
     1
102
RTVSPropertyOp49
 70
     1
102
RTVSPropertyOp50
 70
     1
102
RTVSPropertyOp51
 70
     0
102
RTVSPropertyOp52
 70
     0
102
RTVSPropertyOp53
 70
     1
102
RTVSPropertyOp54
 70
     1
102
RTVSPropertyOp55
 70
     1
102
RTVSPropertyOp56
 70
     1
102
RTVSPropertyOp57
 70
     1
102
RTVSPropertyOp58
 70
     1
102
RTVSPropertyOp59
 70
     1
102
RTVSPropertyOp60
 70
     1
102
RTVSPropertyOp61
 70
     1
102
RTVSPropertyOp62
 70
     1
  0
XRECORD
  5
8294
102
{ACAD_REACTORS
330
8293
102
}
330
8293
100
AcDbXrecord
280
     1
102
RTVSPost2010Prop28
280
     0
102
RTVSPost2010PropOp28
 70
     1
102
RTVSPost2010Prop29
280
     1
102
RTVSPost2010PropOp29
 70
     1
102
RTVSPost2010Prop30
280
     1
102
RTVSPost2010PropOp30
 70
     1
102
RTVSPost2010Prop31
280
     0
102
RTVSPost2010PropOp31
 70
     1
102
RTVSPost2010Prop32
280
     0
102
RTVSPost2010PropOp32
 70
     1
102
RTVSPost2010Prop33
280
     0
102
RTVSPost2010PropOp33
 70
     1
102
RTVSPost2010Prop34
280
     0
102
RTVSPost2010PropOp34
 70
     1
102
RTVSPost2010Prop35
280
     0
102
RTVSPost2010PropOp35
 70
     1
102
RTVSPost2010Prop36
280
     0
102
RTVSPost2010PropOp36
 70
     1
102
RTVSPost2010Prop37
 90
       50
102
RTVSPost2010PropOp37
 70
     1
102
RTVSPost2010Prop38
140
0.0
102
RTVSPost2010PropOp38
 70
     1
102
RTVSPost2010Prop39
140
1.0
102
RTVSPost2010PropOp39
 70
     1
102
RTVSPost2010Prop40
 90
        0
102
RTVSPost2010PropOp40
 70
     1
102
RTVSPost2010Prop41ColorIndex
 90
       18
102
RTVSPost2010Prop41ColorRGB
 90
        0
102
RTVSPost2010PropOp41
 70
     1
102
RTVSPost2010Prop42
 90
       50
102
RTVSPost2010PropOp42
 70
     1
102
RTVSPost2010Prop43
 90
        3
102
RTVSPost2010PropOp43
 70
     1
102
RTVSPost2010Prop44ColorIndex
 90
        5
102
RTVSPost2010Prop44ColorRGB
 90
      255
102
RTVSPost2010PropOp44
 70
     1
102
RTVSPost2010Prop45
280
     0
102
RTVSPost2010PropOp45
 70
     1
102
RTVSPost2010Prop46
 90
       50
102
RTVSPost2010PropOp46
 70
     1
102
RTVSPost2010Prop47
 90
       50
102
RTVSPost2010PropOp47
 70
     1
102
RTVSPost2010Prop48
 90
       50
102
RTVSPost2010PropOp48
 70
     1
102
RTVSPost2010Prop49
280
     0
102
RTVSPost2010PropOp49
 70
     1
102
RTVSPost2010Prop50
 90
       50
102
RTVSPost2010PropOp50
 70
     1
102
RTVSPost2010Prop51ColorIndex
 90
      256
102
RTVSPost2010Prop51ColorRGB
 90
-16777216
102
RTVSPost2010PropOp51
 70
     0
102
RTVSPost2010Prop52
140
1.0
102
RTVSPost2010PropOp52
 70
     0
102
RTVSPost2010Prop53
 90
        2
102
RTVSPost2010PropOp53
 70
     1
102
RTVSPost2010Prop54
  1
strokes_ogs.tif
102
RTVSPost2010PropOp54
 70
     1
102
RTVSPost2010Prop55
280
     0
102
RTVSPost2010PropOp55
 70
     1
102
RTVSPost2010Prop56
140
1.0
102
RTVSPost2010PropOp56
 70
     1
102
RTVSPost2010Prop57
140
1.0
102
RTVSPost2010PropOp57
 70
     1
102
RTVSPropertyOp0
 70
     1
102
RTVSPropertyOp1
 70
     1
102
RTVSPropertyOp2
 70
     1
102
RTVSPropertyOp3
 70
     1
102
RTVSPropertyOp4
 70
     1
102
RTVSPropertyOp5
 70
     1
102
RTVSPropertyOp6
 70
     1
102
RTVSPropertyOp7
 70
     1
102
RTVSPropertyOp8
 70
     1
102
RTVSPropertyOp9
 70
     1
102
RTVSPropertyOp10
 70
     1
102
RTVSPropertyOp11
 70
     1
102
RTVSPropertyOp12
 70
     1
102
RTVSPropertyOp13
 70
     1
102
RTVSPropertyOp14
 70
     1
102
RTVSPropertyOp15
 70
     1
102
RTVSPropertyOp16
 70
     1
102
RTVSPropertyOp17
 70
     1
102
RTVSPropertyOp18
 70
     1
102
RTVSPropertyOp19
 70
     1
102
RTVSPropertyOp20
 70
     1
102
RTVSPropertyOp21
 70
     1
102
RTVSPropertyOp22
 70
     1
102
RTVSPropertyOp23
 70
     1
102
RTVSPropertyOp24
 70
     1
102
RTVSPropertyOp25
 70
     1
102
RTVSPropertyOp26
 70
     1
102
RTVSPropertyOp27
 70
     1
102
RTVSPropertyOp28
 70
     1
102
RTVSPropertyOp29
 70
     1
102
RTVSPropertyOp30
 70
     1
102
RTVSPropertyOp31
 70
     1
102
RTVSPropertyOp32
 70
     1
102
RTVSPropertyOp33
 70
     1
102
RTVSPropertyOp34
 70
     1
102
RTVSPropertyOp35
 70
     1
102
RTVSPropertyOp36
 70
     1
102
RTVSPropertyOp37
 70
     1
102
RTVSPropertyOp38
 70
     1
102
RTVSPropertyOp39
 70
     1
102
RTVSPropertyOp40
 70
     1
102
RTVSPropertyOp41
 70
     1
102
RTVSPropertyOp42
 70
     1
102
RTVSPropertyOp43
 70
     1
102
RTVSPropertyOp44
 70
     1
102
RTVSPropertyOp45
 70
     1
102
RTVSPropertyOp46
 70
     1
102
RTVSPropertyOp47
 70
     1
102
RTVSPropertyOp48
 70
     1
102
RTVSPropertyOp49
 70
     1
102
RTVSPropertyOp50
 70
     1
102
RTVSPropertyOp51
 70
     0
102
RTVSPropertyOp52
 70
     0
102
RTVSPropertyOp53
 70
     1
102
RTVSPropertyOp54
 70
     1
102
RTVSPropertyOp55
 70
     1
102
RTVSPropertyOp56
 70
     1
102
RTVSPropertyOp57
 70
     1
102
RTVSPropertyOp58
 70
     1
102
RTVSPropertyOp59
 70
     1
102
RTVSPropertyOp60
 70
     1
102
RTVSPropertyOp61
 70
     1
102
RTVSPropertyOp62
 70
     1
  0
XRECORD
  5
82B0
102
{ACAD_REACTORS
330
82AF
102
}
330
82AF
100
AcDbXrecord
280
     1
102
RTVSPost2010Prop28
280
     0
102
RTVSPost2010PropOp28
 70
     0
102
RTVSPost2010Prop29
280
     1
102
RTVSPost2010PropOp29
 70
     0
102
RTVSPost2010Prop30
280
     1
102
RTVSPost2010PropOp30
 70
     0
102
RTVSPost2010Prop31
280
     0
102
RTVSPost2010PropOp31
 70
     0
102
RTVSPost2010Prop32
280
     0
102
RTVSPost2010PropOp32
 70
     0
102
RTVSPost2010Prop33
280
     0
102
RTVSPost2010PropOp33
 70
     0
102
RTVSPost2010Prop34
280
     0
102
RTVSPost2010PropOp34
 70
     0
102
RTVSPost2010Prop35
280
     0
102
RTVSPost2010PropOp35
 70
     0
102
RTVSPost2010Prop36
280
     0
102
RTVSPost2010PropOp36
 70
     0
102
RTVSPost2010Prop37
 90
       50
102
RTVSPost2010PropOp37
 70
     0
102
RTVSPost2010Prop38
140
0.0
102
RTVSPost2010PropOp38
 70
     0
102
RTVSPost2010Prop39
140
1.0
102
RTVSPost2010PropOp39
 70
     0
102
RTVSPost2010Prop40
 90
        0
102
RTVSPost2010PropOp40
 70
     0
102
RTVSPost2010Prop41ColorIndex
 90
       18
102
RTVSPost2010Prop41ColorRGB
 90
        0
102
RTVSPost2010PropOp41
 70
     0
102
RTVSPost2010Prop42
 90
       50
102
RTVSPost2010PropOp42
 70
     0
102
RTVSPost2010Prop43
 90
        3
102
RTVSPost2010PropOp43
 70
     0
102
RTVSPost2010Prop44ColorIndex
 90
        5
102
RTVSPost2010Prop44ColorRGB
 90
      255
102
RTVSPost2010PropOp44
 70
     0
102
RTVSPost2010Prop45
280
     0
102
RTVSPost2010PropOp45
 70
     0
102
RTVSPost2010Prop46
 90
       50
102
RTVSPost2010PropOp46
 70
     0
102
RTVSPost2010Prop47
 90
       50
102
RTVSPost2010PropOp47
 70
     0
102
RTVSPost2010Prop48
 90
       50
102
RTVSPost2010PropOp48
 70
     0
102
RTVSPost2010Prop49
280
     0
102
RTVSPost2010PropOp49
 70
     0
102
RTVSPost2010Prop50
 90
       50
102
RTVSPost2010PropOp50
 70
     0
102
RTVSPost2010Prop51ColorIndex
 90
      256
102
RTVSPost2010Prop51ColorRGB
 90
-16777216
102
RTVSPost2010PropOp51
 70
     0
102
RTVSPost2010Prop52
140
1.0
102
RTVSPost2010PropOp52
 70
     0
102
RTVSPost2010Prop53
 90
        2
102
RTVSPost2010PropOp53
 70
     0
102
RTVSPost2010Prop54
  1
strokes_ogs.tif
102
RTVSPost2010PropOp54
 70
     0
102
RTVSPost2010Prop55
280
     0
102
RTVSPost2010PropOp55
 70
     0
102
RTVSPost2010Prop56
140
1.0
102
RTVSPost2010PropOp56
 70
     0
102
RTVSPost2010Prop57
140
1.0
102
RTVSPost2010PropOp57
 70
     0
102
RTVSPropertyOp0
 70
     0
102
RTVSPropertyOp1
 70
     0
102
RTVSPropertyOp2
 70
     0
102
RTVSPropertyOp3
 70
     0
102
RTVSPropertyOp4
 70
     0
102
RTVSPropertyOp5
 70
     0
102
RTVSPropertyOp6
 70
     0
102
RTVSPropertyOp7
 70
     0
102
RTVSPropertyOp8
 70
     0
102
RTVSPropertyOp9
 70
     0
102
RTVSPropertyOp10
 70
     0
102
RTVSPropertyOp11
 70
     0
102
RTVSPropertyOp12
 70
     0
102
RTVSPropertyOp13
 70
     0
102
RTVSPropertyOp14
 70
     2
102
RTVSPropertyOp15
 70
     0
102
RTVSPropertyOp16
 70
     0
102
RTVSPropertyOp17
 70
     0
102
RTVSPropertyOp18
 70
     0
102
RTVSPropertyOp19
 70
     0
102
RTVSPropertyOp20
 70
     0
102
RTVSPropertyOp21
 70
     0
102
RTVSPropertyOp22
 70
     0
102
RTVSPropertyOp23
 70
     0
102
RTVSPropertyOp24
 70
     0
102
RTVSPropertyOp25
 70
     0
102
RTVSPropertyOp26
 70
     0
102
RTVSPropertyOp27
 70
     0
102
RTVSPropertyOp28
 70
     0
102
RTVSPropertyOp29
 70
     0
102
RTVSPropertyOp30
 70
     0
102
RTVSPropertyOp31
 70
     0
102
RTVSPropertyOp32
 70
     0
102
RTVSPropertyOp33
 70
     0
102
RTVSPropertyOp34
 70
     0
102
RTVSPropertyOp35
 70
     0
102
RTVSPropertyOp36
 70
     0
102
RTVSPropertyOp37
 70
     0
102
RTVSPropertyOp38
 70
     0
102
RTVSPropertyOp39
 70
     0
102
RTVSPropertyOp40
 70
     0
102
RTVSPropertyOp41
 70
     0
102
RTVSPropertyOp42
 70
     0
102
RTVSPropertyOp43
 70
     0
102
RTVSPropertyOp44
 70
     0
102
RTVSPropertyOp45
 70
     0
102
RTVSPropertyOp46
 70
     0
102
RTVSPropertyOp47
 70
     0
102
RTVSPropertyOp48
 70
     0
102
RTVSPropertyOp49
 70
     0
102
RTVSPropertyOp50
 70
     0
102
RTVSPropertyOp51
 70
     0
102
RTVSPropertyOp52
 70
     0
102
RTVSPropertyOp53
 70
     0
102
RTVSPropertyOp54
 70
     0
102
RTVSPropertyOp55
 70
     0
102
RTVSPropertyOp56
 70
     0
102
RTVSPropertyOp57
 70
     0
102
RTVSPropertyOp58
 70
     0
102
RTVSPropertyOp59
 70
     0
102
RTVSPropertyOp60
 70
     0
102
RTVSPropertyOp61
 70
     0
102
RTVSPropertyOp62
 70
     0
  0
XRECORD
  5
82A0
102
{ACAD_REACTORS
330
829F
102
}
330
829F
100
AcDbXrecord
280
     1
102
RTVSPost2010Prop28
280
     0
102
RTVSPost2010PropOp28
 70
     1
102
RTVSPost2010Prop29
280
     1
102
RTVSPost2010PropOp29
 70
     1
102
RTVSPost2010Prop30
280
     1
102
RTVSPost2010PropOp30
 70
     1
102
RTVSPost2010Prop31
280
     0
102
RTVSPost2010PropOp31
 70
     1
102
RTVSPost2010Prop32
280
     0
102
RTVSPost2010PropOp32
 70
     1
102
RTVSPost2010Prop33
280
     0
102
RTVSPost2010PropOp33
 70
     1
102
RTVSPost2010Prop34
280
     0
102
RTVSPost2010PropOp34
 70
     1
102
RTVSPost2010Prop35
280
     0
102
RTVSPost2010PropOp35
 70
     1
102
RTVSPost2010Prop36
280
     0
102
RTVSPost2010PropOp36
 70
     1
102
RTVSPost2010Prop37
 90
       50
102
RTVSPost2010PropOp37
 70
     1
102
RTVSPost2010Prop38
140
0.0
102
RTVSPost2010PropOp38
 70
     1
102
RTVSPost2010Prop39
140
1.0
102
RTVSPost2010PropOp39
 70
     1
102
RTVSPost2010Prop40
 90
        0
102
RTVSPost2010PropOp40
 70
     1
102
RTVSPost2010Prop41ColorIndex
 90
       18
102
RTVSPost2010Prop41ColorRGB
 90
        0
102
RTVSPost2010PropOp41
 70
     1
102
RTVSPost2010Prop42
 90
       50
102
RTVSPost2010PropOp42
 70
     1
102
RTVSPost2010Prop43
 90
        3
102
RTVSPost2010PropOp43
 70
     1
102
RTVSPost2010Prop44ColorIndex
 90
        5
102
RTVSPost2010Prop44ColorRGB
 90
      255
102
RTVSPost2010PropOp44
 70
     1
102
RTVSPost2010Prop45
280
     0
102
RTVSPost2010PropOp45
 70
     1
102
RTVSPost2010Prop46
 90
       50
102
RTVSPost2010PropOp46
 70
     1
102
RTVSPost2010Prop47
 90
       50
102
RTVSPost2010PropOp47
 70
     1
102
RTVSPost2010Prop48
 90
       50
102
RTVSPost2010PropOp48
 70
     1
102
RTVSPost2010Prop49
280
     0
102
RTVSPost2010PropOp49
 70
     1
102
RTVSPost2010Prop50
 90
       50
102
RTVSPost2010PropOp50
 70
     1
102
RTVSPost2010Prop51ColorIndex
 90
      256
102
RTVSPost2010Prop51ColorRGB
 90
-16777216
102
RTVSPost2010PropOp51
 70
     0
102
RTVSPost2010Prop52
140
1.0
102
RTVSPost2010PropOp52
 70
     0
102
RTVSPost2010Prop53
 90
        2
102
RTVSPost2010PropOp53
 70
     1
102
RTVSPost2010Prop54
  1
strokes_ogs.tif
102
RTVSPost2010PropOp54
 70
     1
102
RTVSPost2010Prop55
280
     0
102
RTVSPost2010PropOp55
 70
     1
102
RTVSPost2010Prop56
140
1.0
102
RTVSPost2010PropOp56
 70
     1
102
RTVSPost2010Prop57
140
1.0
102
RTVSPost2010PropOp57
 70
     1
102
RTVSPropertyOp0
 70
     1
102
RTVSPropertyOp1
 70
     1
102
RTVSPropertyOp2
 70
     1
102
RTVSPropertyOp3
 70
     1
102
RTVSPropertyOp4
 70
     1
102
RTVSPropertyOp5
 70
     1
102
RTVSPropertyOp6
 70
     1
102
RTVSPropertyOp7
 70
     1
102
RTVSPropertyOp8
 70
     1
102
RTVSPropertyOp9
 70
     1
102
RTVSPropertyOp10
 70
     1
102
RTVSPropertyOp11
 70
     1
102
RTVSPropertyOp12
 70
     1
102
RTVSPropertyOp13
 70
     1
102
RTVSPropertyOp14
 70
     1
102
RTVSPropertyOp15
 70
     1
102
RTVSPropertyOp16
 70
     1
102
RTVSPropertyOp17
 70
     1
102
RTVSPropertyOp18
 70
     1
102
RTVSPropertyOp19
 70
     1
102
RTVSPropertyOp20
 70
     1
102
RTVSPropertyOp21
 70
     1
102
RTVSPropertyOp22
 70
     1
102
RTVSPropertyOp23
 70
     1
102
RTVSPropertyOp24
 70
     1
102
RTVSPropertyOp25
 70
     1
102
RTVSPropertyOp26
 70
     1
102
RTVSPropertyOp27
 70
     1
102
RTVSPropertyOp28
 70
     1
102
RTVSPropertyOp29
 70
     1
102
RTVSPropertyOp30
 70
     1
102
RTVSPropertyOp31
 70
     1
102
RTVSPropertyOp32
 70
     1
102
RTVSPropertyOp33
 70
     1
102
RTVSPropertyOp34
 70
     1
102
RTVSPropertyOp35
 70
     1
102
RTVSPropertyOp36
 70
     1
102
RTVSPropertyOp37
 70
     1
102
RTVSPropertyOp38
 70
     1
102
RTVSPropertyOp39
 70
     1
102
RTVSPropertyOp40
 70
     1
102
RTVSPropertyOp41
 70
     1
102
RTVSPropertyOp42
 70
     1
102
RTVSPropertyOp43
 70
     1
102
RTVSPropertyOp44
 70
     1
102
RTVSPropertyOp45
 70
     1
102
RTVSPropertyOp46
 70
     1
102
RTVSPropertyOp47
 70
     1
102
RTVSPropertyOp48
 70
     1
102
RTVSPropertyOp49
 70
     1
102
RTVSPropertyOp50
 70
     1
102
RTVSPropertyOp51
 70
     0
102
RTVSPropertyOp52
 70
     0
102
RTVSPropertyOp53
 70
     1
102
RTVSPropertyOp54
 70
     1
102
RTVSPropertyOp55
 70
     1
102
RTVSPropertyOp56
 70
     1
102
RTVSPropertyOp57
 70
     1
102
RTVSPropertyOp58
 70
     1
102
RTVSPropertyOp59
 70
     1
102
RTVSPropertyOp60
 70
     1
102
RTVSPropertyOp61
 70
     1
102
RTVSPropertyOp62
 70
     1
  0
XRECORD
  5
82B2
102
{ACAD_REACTORS
330
82B1
102
}
330
82B1
100
AcDbXrecord
280
     1
102
RTVSPost2010Prop28
280
     0
102
RTVSPost2010PropOp28
 70
     0
102
RTVSPost2010Prop29
280
     1
102
RTVSPost2010PropOp29
 70
     0
102
RTVSPost2010Prop30
280
     1
102
RTVSPost2010PropOp30
 70
     0
102
RTVSPost2010Prop31
280
     0
102
RTVSPost2010PropOp31
 70
     0
102
RTVSPost2010Prop32
280
     0
102
RTVSPost2010PropOp32
 70
     0
102
RTVSPost2010Prop33
280
     0
102
RTVSPost2010PropOp33
 70
     0
102
RTVSPost2010Prop34
280
     0
102
RTVSPost2010PropOp34
 70
     0
102
RTVSPost2010Prop35
280
     0
102
RTVSPost2010PropOp35
 70
     0
102
RTVSPost2010Prop36
280
     0
102
RTVSPost2010PropOp36
 70
     0
102
RTVSPost2010Prop37
 90
       50
102
RTVSPost2010PropOp37
 70
     0
102
RTVSPost2010Prop38
140
0.0
102
RTVSPost2010PropOp38
 70
     0
102
RTVSPost2010Prop39
140
1.0
102
RTVSPost2010PropOp39
 70
     0
102
RTVSPost2010Prop40
 90
        0
102
RTVSPost2010PropOp40
 70
     0
102
RTVSPost2010Prop41ColorIndex
 90
       18
102
RTVSPost2010Prop41ColorRGB
 90
        0
102
RTVSPost2010PropOp41
 70
     0
102
RTVSPost2010Prop42
 90
       50
102
RTVSPost2010PropOp42
 70
     0
102
RTVSPost2010Prop43
 90
        3
102
RTVSPost2010PropOp43
 70
     0
102
RTVSPost2010Prop44ColorIndex
 90
        5
102
RTVSPost2010Prop44ColorRGB
 90
      255
102
RTVSPost2010PropOp44
 70
     0
102
RTVSPost2010Prop45
280
     0
102
RTVSPost2010PropOp45
 70
     0
102
RTVSPost2010Prop46
 90
       50
102
RTVSPost2010PropOp46
 70
     0
102
RTVSPost2010Prop47
 90
       50
102
RTVSPost2010PropOp47
 70
     0
102
RTVSPost2010Prop48
 90
       50
102
RTVSPost2010PropOp48
 70
     0
102
RTVSPost2010Prop49
280
     0
102
RTVSPost2010PropOp49
 70
     0
102
RTVSPost2010Prop50
 90
       50
102
RTVSPost2010PropOp50
 70
     0
102
RTVSPost2010Prop51ColorIndex
 90
      256
102
RTVSPost2010Prop51ColorRGB
 90
-16777216
102
RTVSPost2010PropOp51
 70
     0
102
RTVSPost2010Prop52
140
1.0
102
RTVSPost2010PropOp52
 70
     0
102
RTVSPost2010Prop53
 90
        2
102
RTVSPost2010PropOp53
 70
     0
102
RTVSPost2010Prop54
  1
strokes_ogs.tif
102
RTVSPost2010PropOp54
 70
     0
102
RTVSPost2010Prop55
280
     0
102
RTVSPost2010PropOp55
 70
     0
102
RTVSPost2010Prop56
140
1.0
102
RTVSPost2010PropOp56
 70
     0
102
RTVSPost2010Prop57
140
1.0
102
RTVSPost2010PropOp57
 70
     0
102
RTVSPropertyOp0
 70
     0
102
RTVSPropertyOp1
 70
     0
102
RTVSPropertyOp2
 70
     0
102
RTVSPropertyOp3
 70
     0
102
RTVSPropertyOp4
 70
     0
102
RTVSPropertyOp5
 70
     0
102
RTVSPropertyOp6
 70
     0
102
RTVSPropertyOp7
 70
     0
102
RTVSPropertyOp8
 70
     0
102
RTVSPropertyOp9
 70
     0
102
RTVSPropertyOp10
 70
     0
102
RTVSPropertyOp11
 70
     0
102
RTVSPropertyOp12
 70
     0
102
RTVSPropertyOp13
 70
     0
102
RTVSPropertyOp14
 70
     2
102
RTVSPropertyOp15
 70
     0
102
RTVSPropertyOp16
 70
     0
102
RTVSPropertyOp17
 70
     0
102
RTVSPropertyOp18
 70
     0
102
RTVSPropertyOp19
 70
     0
102
RTVSPropertyOp20
 70
     0
102
RTVSPropertyOp21
 70
     0
102
RTVSPropertyOp22
 70
     0
102
RTVSPropertyOp23
 70
     0
102
RTVSPropertyOp24
 70
     0
102
RTVSPropertyOp25
 70
     0
102
RTVSPropertyOp26
 70
     0
102
RTVSPropertyOp27
 70
     0
102
RTVSPropertyOp28
 70
     0
102
RTVSPropertyOp29
 70
     0
102
RTVSPropertyOp30
 70
     0
102
RTVSPropertyOp31
 70
     0
102
RTVSPropertyOp32
 70
     0
102
RTVSPropertyOp33
 70
     0
102
RTVSPropertyOp34
 70
     0
102
RTVSPropertyOp35
 70
     0
102
RTVSPropertyOp36
 70
     0
102
RTVSPropertyOp37
 70
     0
102
RTVSPropertyOp38
 70
     0
102
RTVSPropertyOp39
 70
     0
102
RTVSPropertyOp40
 70
     0
102
RTVSPropertyOp41
 70
     0
102
RTVSPropertyOp42
 70
     0
102
RTVSPropertyOp43
 70
     0
102
RTVSPropertyOp44
 70
     0
102
RTVSPropertyOp45
 70
     0
102
RTVSPropertyOp46
 70
     0
102
RTVSPropertyOp47
 70
     0
102
RTVSPropertyOp48
 70
     0
102
RTVSPropertyOp49
 70
     0
102
RTVSPropertyOp50
 70
     0
102
RTVSPropertyOp51
 70
     0
102
RTVSPropertyOp52
 70
     0
102
RTVSPropertyOp53
 70
     0
102
RTVSPropertyOp54
 70
     0
102
RTVSPropertyOp55
 70
     0
102
RTVSPropertyOp56
 70
     0
102
RTVSPropertyOp57
 70
     0
102
RTVSPropertyOp58
 70
     0
102
RTVSPropertyOp59
 70
     0
102
RTVSPropertyOp60
 70
     0
102
RTVSPropertyOp61
 70
     0
102
RTVSPropertyOp62
 70
     0
  0
XRECORD
  5
8298
102
{ACAD_REACTORS
330
8297
102
}
330
8297
100
AcDbXrecord
280
     1
102
RTVSPost2010Prop28
280
     0
102
RTVSPost2010PropOp28
 70
     1
102
RTVSPost2010Prop29
280
     1
102
RTVSPost2010PropOp29
 70
     1
102
RTVSPost2010Prop30
280
     1
102
RTVSPost2010PropOp30
 70
     1
102
RTVSPost2010Prop31
280
     0
102
RTVSPost2010PropOp31
 70
     1
102
RTVSPost2010Prop32
280
     0
102
RTVSPost2010PropOp32
 70
     1
102
RTVSPost2010Prop33
280
     0
102
RTVSPost2010PropOp33
 70
     1
102
RTVSPost2010Prop34
280
     0
102
RTVSPost2010PropOp34
 70
     1
102
RTVSPost2010Prop35
280
     0
102
RTVSPost2010PropOp35
 70
     1
102
RTVSPost2010Prop36
280
     0
102
RTVSPost2010PropOp36
 70
     1
102
RTVSPost2010Prop37
 90
       50
102
RTVSPost2010PropOp37
 70
     1
102
RTVSPost2010Prop38
140
0.0
102
RTVSPost2010PropOp38
 70
     1
102
RTVSPost2010Prop39
140
1.0
102
RTVSPost2010PropOp39
 70
     1
102
RTVSPost2010Prop40
 90
        0
102
RTVSPost2010PropOp40
 70
     1
102
RTVSPost2010Prop41ColorIndex
 90
       18
102
RTVSPost2010Prop41ColorRGB
 90
        0
102
RTVSPost2010PropOp41
 70
     1
102
RTVSPost2010Prop42
 90
       50
102
RTVSPost2010PropOp42
 70
     1
102
RTVSPost2010Prop43
 90
        3
102
RTVSPost2010PropOp43
 70
     1
102
RTVSPost2010Prop44ColorIndex
 90
        5
102
RTVSPost2010Prop44ColorRGB
 90
      255
102
RTVSPost2010PropOp44
 70
     1
102
RTVSPost2010Prop45
280
     0
102
RTVSPost2010PropOp45
 70
     1
102
RTVSPost2010Prop46
 90
       50
102
RTVSPost2010PropOp46
 70
     1
102
RTVSPost2010Prop47
 90
       50
102
RTVSPost2010PropOp47
 70
     1
102
RTVSPost2010Prop48
 90
       50
102
RTVSPost2010PropOp48
 70
     1
102
RTVSPost2010Prop49
280
     0
102
RTVSPost2010PropOp49
 70
     1
102
RTVSPost2010Prop50
 90
       50
102
RTVSPost2010PropOp50
 70
     1
102
RTVSPost2010Prop51ColorIndex
 90
      256
102
RTVSPost2010Prop51ColorRGB
 90
-16777216
102
RTVSPost2010PropOp51
 70
     0
102
RTVSPost2010Prop52
140
1.0
102
RTVSPost2010PropOp52
 70
     0
102
RTVSPost2010Prop53
 90
        2
102
RTVSPost2010PropOp53
 70
     1
102
RTVSPost2010Prop54
  1
strokes_ogs.tif
102
RTVSPost2010PropOp54
 70
     1
102
RTVSPost2010Prop55
280
     0
102
RTVSPost2010PropOp55
 70
     1
102
RTVSPost2010Prop56
140
1.0
102
RTVSPost2010PropOp56
 70
     1
102
RTVSPost2010Prop57
140
1.0
102
RTVSPost2010PropOp57
 70
     1
102
RTVSPropertyOp0
 70
     1
102
RTVSPropertyOp1
 70
     1
102
RTVSPropertyOp2
 70
     1
102
RTVSPropertyOp3
 70
     1
102
RTVSPropertyOp4
 70
     1
102
RTVSPropertyOp5
 70
     1
102
RTVSPropertyOp6
 70
     1
102
RTVSPropertyOp7
 70
     1
102
RTVSPropertyOp8
 70
     1
102
RTVSPropertyOp9
 70
     1
102
RTVSPropertyOp10
 70
     1
102
RTVSPropertyOp11
 70
     1
102
RTVSPropertyOp12
 70
     1
102
RTVSPropertyOp13
 70
     1
102
RTVSPropertyOp14
 70
     1
102
RTVSPropertyOp15
 70
     1
102
RTVSPropertyOp16
 70
     1
102
RTVSPropertyOp17
 70
     1
102
RTVSPropertyOp18
 70
     1
102
RTVSPropertyOp19
 70
     1
102
RTVSPropertyOp20
 70
     1
102
RTVSPropertyOp21
 70
     1
102
RTVSPropertyOp22
 70
     1
102
RTVSPropertyOp23
 70
     1
102
RTVSPropertyOp24
 70
     1
102
RTVSPropertyOp25
 70
     1
102
RTVSPropertyOp26
 70
     1
102
RTVSPropertyOp27
 70
     1
102
RTVSPropertyOp28
 70
     1
102
RTVSPropertyOp29
 70
     1
102
RTVSPropertyOp30
 70
     1
102
RTVSPropertyOp31
 70
     1
102
RTVSPropertyOp32
 70
     1
102
RTVSPropertyOp33
 70
     1
102
RTVSPropertyOp34
 70
     1
102
RTVSPropertyOp35
 70
     1
102
RTVSPropertyOp36
 70
     1
102
RTVSPropertyOp37
 70
     1
102
RTVSPropertyOp38
 70
     1
102
RTVSPropertyOp39
 70
     1
102
RTVSPropertyOp40
 70
     1
102
RTVSPropertyOp41
 70
     1
102
RTVSPropertyOp42
 70
     1
102
RTVSPropertyOp43
 70
     1
102
RTVSPropertyOp44
 70
     1
102
RTVSPropertyOp45
 70
     1
102
RTVSPropertyOp46
 70
     1
102
RTVSPropertyOp47
 70
     1
102
RTVSPropertyOp48
 70
     1
102
RTVSPropertyOp49
 70
     1
102
RTVSPropertyOp50
 70
     1
102
RTVSPropertyOp51
 70
     0
102
RTVSPropertyOp52
 70
     0
102
RTVSPropertyOp53
 70
     1
102
RTVSPropertyOp54
 70
     1
102
RTVSPropertyOp55
 70
     1
102
RTVSPropertyOp56
 70
     1
102
RTVSPropertyOp57
 70
     1
102
RTVSPropertyOp58
 70
     1
102
RTVSPropertyOp59
 70
     1
102
RTVSPropertyOp60
 70
     1
102
RTVSPropertyOp61
 70
     1
102
RTVSPropertyOp62
 70
     1
  0
XRECORD
  5
82AE
102
{ACAD_REACTORS
330
82AD
102
}
330
82AD
100
AcDbXrecord
280
     1
102
RTVSPost2010Prop28
280
     0
102
RTVSPost2010PropOp28
 70
     1
102
RTVSPost2010Prop29
280
     1
102
RTVSPost2010PropOp29
 70
     1
102
RTVSPost2010Prop30
280
     1
102
RTVSPost2010PropOp30
 70
     1
102
RTVSPost2010Prop31
280
     0
102
RTVSPost2010PropOp31
 70
     1
102
RTVSPost2010Prop32
280
     0
102
RTVSPost2010PropOp32
 70
     1
102
RTVSPost2010Prop33
280
     0
102
RTVSPost2010PropOp33
 70
     1
102
RTVSPost2010Prop34
280
     0
102
RTVSPost2010PropOp34
 70
     1
102
RTVSPost2010Prop35
280
     0
102
RTVSPost2010PropOp35
 70
     1
102
RTVSPost2010Prop36
280
     0
102
RTVSPost2010PropOp36
 70
     1
102
RTVSPost2010Prop37
 90
       50
102
RTVSPost2010PropOp37
 70
     1
102
RTVSPost2010Prop38
140
0.0
102
RTVSPost2010PropOp38
 70
     1
102
RTVSPost2010Prop39
140
1.0
102
RTVSPost2010PropOp39
 70
     1
102
RTVSPost2010Prop40
 90
        0
102
RTVSPost2010PropOp40
 70
     1
102
RTVSPost2010Prop41ColorIndex
 90
       18
102
RTVSPost2010Prop41ColorRGB
 90
        0
102
RTVSPost2010PropOp41
 70
     1
102
RTVSPost2010Prop42
 90
       50
102
RTVSPost2010PropOp42
 70
     1
102
RTVSPost2010Prop43
 90
        3
102
RTVSPost2010PropOp43
 70
     1
102
RTVSPost2010Prop44ColorIndex
 90
        5
102
RTVSPost2010Prop44ColorRGB
 90
      255
102
RTVSPost2010PropOp44
 70
     1
102
RTVSPost2010Prop45
280
     0
102
RTVSPost2010PropOp45
 70
     1
102
RTVSPost2010Prop46
 90
       50
102
RTVSPost2010PropOp46
 70
     1
102
RTVSPost2010Prop47
 90
       50
102
RTVSPost2010PropOp47
 70
     1
102
RTVSPost2010Prop48
 90
       50
102
RTVSPost2010PropOp48
 70
     1
102
RTVSPost2010Prop49
280
     0
102
RTVSPost2010PropOp49
 70
     1
102
RTVSPost2010Prop50
 90
       50
102
RTVSPost2010PropOp50
 70
     1
102
RTVSPost2010Prop51ColorIndex
 90
      256
102
RTVSPost2010Prop51ColorRGB
 90
-16777216
102
RTVSPost2010PropOp51
 70
     0
102
RTVSPost2010Prop52
140
1.0
102
RTVSPost2010PropOp52
 70
     0
102
RTVSPost2010Prop53
 90
        2
102
RTVSPost2010PropOp53
 70
     1
102
RTVSPost2010Prop54
  1
strokes_ogs.tif
102
RTVSPost2010PropOp54
 70
     1
102
RTVSPost2010Prop55
280
     0
102
RTVSPost2010PropOp55
 70
     1
102
RTVSPost2010Prop56
140
1.0
102
RTVSPost2010PropOp56
 70
     1
102
RTVSPost2010Prop57
140
1.0
102
RTVSPost2010PropOp57
 70
     1
102
RTVSPropertyOp0
 70
     1
102
RTVSPropertyOp1
 70
     1
102
RTVSPropertyOp2
 70
     1
102
RTVSPropertyOp3
 70
     1
102
RTVSPropertyOp4
 70
     1
102
RTVSPropertyOp5
 70
     1
102
RTVSPropertyOp6
 70
     1
102
RTVSPropertyOp7
 70
     1
102
RTVSPropertyOp8
 70
     1
102
RTVSPropertyOp9
 70
     1
102
RTVSPropertyOp10
 70
     1
102
RTVSPropertyOp11
 70
     1
102
RTVSPropertyOp12
 70
     1
102
RTVSPropertyOp13
 70
     1
102
RTVSPropertyOp14
 70
     1
102
RTVSPropertyOp15
 70
     1
102
RTVSPropertyOp16
 70
     1
102
RTVSPropertyOp17
 70
     1
102
RTVSPropertyOp18
 70
     1
102
RTVSPropertyOp19
 70
     1
102
RTVSPropertyOp20
 70
     1
102
RTVSPropertyOp21
 70
     1
102
RTVSPropertyOp22
 70
     1
102
RTVSPropertyOp23
 70
     1
102
RTVSPropertyOp24
 70
     1
102
RTVSPropertyOp25
 70
     1
102
RTVSPropertyOp26
 70
     1
102
RTVSPropertyOp27
 70
     1
102
RTVSPropertyOp28
 70
     1
102
RTVSPropertyOp29
 70
     1
102
RTVSPropertyOp30
 70
     1
102
RTVSPropertyOp31
 70
     1
102
RTVSPropertyOp32
 70
     1
102
RTVSPropertyOp33
 70
     1
102
RTVSPropertyOp34
 70
     1
102
RTVSPropertyOp35
 70
     1
102
RTVSPropertyOp36
 70
     1
102
RTVSPropertyOp37
 70
     1
102
RTVSPropertyOp38
 70
     1
102
RTVSPropertyOp39
 70
     1
102
RTVSPropertyOp40
 70
     1
102
RTVSPropertyOp41
 70
     1
102
RTVSPropertyOp42
 70
     1
102
RTVSPropertyOp43
 70
     1
102
RTVSPropertyOp44
 70
     1
102
RTVSPropertyOp45
 70
     1
102
RTVSPropertyOp46
 70
     1
102
RTVSPropertyOp47
 70
     1
102
RTVSPropertyOp48
 70
     1
102
RTVSPropertyOp49
 70
     1
102
RTVSPropertyOp50
 70
     1
102
RTVSPropertyOp51
 70
     0
102
RTVSPropertyOp52
 70
     0
102
RTVSPropertyOp53
 70
     1
102
RTVSPropertyOp54
 70
     1
102
RTVSPropertyOp55
 70
     1
102
RTVSPropertyOp56
 70
     1
102
RTVSPropertyOp57
 70
     1
102
RTVSPropertyOp58
 70
     1
102
RTVSPropertyOp59
 70
     1
102
RTVSPropertyOp60
 70
     1
102
RTVSPropertyOp61
 70
     1
102
RTVSPropertyOp62
 70
     1
  0
XRECORD
  5
82AC
102
{ACAD_REACTORS
330
82AB
102
}
330
82AB
100
AcDbXrecord
280
     1
102
RTVSPost2010Prop28
280
     0
102
RTVSPost2010PropOp28
 70
     1
102
RTVSPost2010Prop29
280
     1
102
RTVSPost2010PropOp29
 70
     1
102
RTVSPost2010Prop30
280
     1
102
RTVSPost2010PropOp30
 70
     1
102
RTVSPost2010Prop31
280
     0
102
RTVSPost2010PropOp31
 70
     1
102
RTVSPost2010Prop32
280
     0
102
RTVSPost2010PropOp32
 70
     1
102
RTVSPost2010Prop33
280
     0
102
RTVSPost2010PropOp33
 70
     1
102
RTVSPost2010Prop34
280
     0
102
RTVSPost2010PropOp34
 70
     1
102
RTVSPost2010Prop35
280
     0
102
RTVSPost2010PropOp35
 70
     1
102
RTVSPost2010Prop36
280
     0
102
RTVSPost2010PropOp36
 70
     1
102
RTVSPost2010Prop37
 90
       50
102
RTVSPost2010PropOp37
 70
     1
102
RTVSPost2010Prop38
140
0.0
102
RTVSPost2010PropOp38
 70
     1
102
RTVSPost2010Prop39
140
1.0
102
RTVSPost2010PropOp39
 70
     1
102
RTVSPost2010Prop40
 90
        0
102
RTVSPost2010PropOp40
 70
     1
102
RTVSPost2010Prop41ColorIndex
 90
       18
102
RTVSPost2010Prop41ColorRGB
 90
        0
102
RTVSPost2010PropOp41
 70
     1
102
RTVSPost2010Prop42
 90
       50
102
RTVSPost2010PropOp42
 70
     1
102
RTVSPost2010Prop43
 90
        3
102
RTVSPost2010PropOp43
 70
     1
102
RTVSPost2010Prop44ColorIndex
 90
        5
102
RTVSPost2010Prop44ColorRGB
 90
      255
102
RTVSPost2010PropOp44
 70
     1
102
RTVSPost2010Prop45
280
     0
102
RTVSPost2010PropOp45
 70
     1
102
RTVSPost2010Prop46
 90
       50
102
RTVSPost2010PropOp46
 70
     1
102
RTVSPost2010Prop47
 90
       50
102
RTVSPost2010PropOp47
 70
     1
102
RTVSPost2010Prop48
 90
       50
102
RTVSPost2010PropOp48
 70
     1
102
RTVSPost2010Prop49
280
     0
102
RTVSPost2010PropOp49
 70
     1
102
RTVSPost2010Prop50
 90
       50
102
RTVSPost2010PropOp50
 70
     1
102
RTVSPost2010Prop51ColorIndex
 90
      256
102
RTVSPost2010Prop51ColorRGB
 90
-16777216
102
RTVSPost2010PropOp51
 70
     0
102
RTVSPost2010Prop52
140
1.0
102
RTVSPost2010PropOp52
 70
     0
102
RTVSPost2010Prop53
 90
        2
102
RTVSPost2010PropOp53
 70
     1
102
RTVSPost2010Prop54
  1
strokes_ogs.tif
102
RTVSPost2010PropOp54
 70
     1
102
RTVSPost2010Prop55
280
     0
102
RTVSPost2010PropOp55
 70
     1
102
RTVSPost2010Prop56
140
1.0
102
RTVSPost2010PropOp56
 70
     1
102
RTVSPost2010Prop57
140
1.0
102
RTVSPost2010PropOp57
 70
     1
102
RTVSPropertyOp0
 70
     1
102
RTVSPropertyOp1
 70
     1
102
RTVSPropertyOp2
 70
     1
102
RTVSPropertyOp3
 70
     1
102
RTVSPropertyOp4
 70
     1
102
RTVSPropertyOp5
 70
     1
102
RTVSPropertyOp6
 70
     1
102
RTVSPropertyOp7
 70
     1
102
RTVSPropertyOp8
 70
     1
102
RTVSPropertyOp9
 70
     1
102
RTVSPropertyOp10
 70
     1
102
RTVSPropertyOp11
 70
     1
102
RTVSPropertyOp12
 70
     1
102
RTVSPropertyOp13
 70
     1
102
RTVSPropertyOp14
 70
     1
102
RTVSPropertyOp15
 70
     1
102
RTVSPropertyOp16
 70
     1
102
RTVSPropertyOp17
 70
     1
102
RTVSPropertyOp18
 70
     1
102
RTVSPropertyOp19
 70
     1
102
RTVSPropertyOp20
 70
     1
102
RTVSPropertyOp21
 70
     1
102
RTVSPropertyOp22
 70
     1
102
RTVSPropertyOp23
 70
     1
102
RTVSPropertyOp24
 70
     1
102
RTVSPropertyOp25
 70
     1
102
RTVSPropertyOp26
 70
     1
102
RTVSPropertyOp27
 70
     1
102
RTVSPropertyOp28
 70
     1
102
RTVSPropertyOp29
 70
     1
102
RTVSPropertyOp30
 70
     1
102
RTVSPropertyOp31
 70
     1
102
RTVSPropertyOp32
 70
     1
102
RTVSPropertyOp33
 70
     1
102
RTVSPropertyOp34
 70
     1
102
RTVSPropertyOp35
 70
     1
102
RTVSPropertyOp36
 70
     1
102
RTVSPropertyOp37
 70
     1
102
RTVSPropertyOp38
 70
     1
102
RTVSPropertyOp39
 70
     1
102
RTVSPropertyOp40
 70
     1
102
RTVSPropertyOp41
 70
     1
102
RTVSPropertyOp42
 70
     1
102
RTVSPropertyOp43
 70
     1
102
RTVSPropertyOp44
 70
     1
102
RTVSPropertyOp45
 70
     1
102
RTVSPropertyOp46
 70
     1
102
RTVSPropertyOp47
 70
     1
102
RTVSPropertyOp48
 70
     1
102
RTVSPropertyOp49
 70
     1
102
RTVSPropertyOp50
 70
     1
102
RTVSPropertyOp51
 70
     0
102
RTVSPropertyOp52
 70
     0
102
RTVSPropertyOp53
 70
     1
102
RTVSPropertyOp54
 70
     1
102
RTVSPropertyOp55
 70
     1
102
RTVSPropertyOp56
 70
     1
102
RTVSPropertyOp57
 70
     1
102
RTVSPropertyOp58
 70
     1
102
RTVSPropertyOp59
 70
     1
102
RTVSPropertyOp60
 70
     1
102
RTVSPropertyOp61
 70
     1
102
RTVSPropertyOp62
 70
     1
  0
XRECORD
  5
82A6
102
{ACAD_REACTORS
330
82A5
102
}
330
82A5
100
AcDbXrecord
280
     1
102
RTVSPost2010Prop28
280
     0
102
RTVSPost2010PropOp28
 70
     1
102
RTVSPost2010Prop29
280
     1
102
RTVSPost2010PropOp29
 70
     1
102
RTVSPost2010Prop30
280
     1
102
RTVSPost2010PropOp30
 70
     1
102
RTVSPost2010Prop31
280
     0
102
RTVSPost2010PropOp31
 70
     1
102
RTVSPost2010Prop32
280
     0
102
RTVSPost2010PropOp32
 70
     1
102
RTVSPost2010Prop33
280
     0
102
RTVSPost2010PropOp33
 70
     1
102
RTVSPost2010Prop34
280
     0
102
RTVSPost2010PropOp34
 70
     1
102
RTVSPost2010Prop35
280
     0
102
RTVSPost2010PropOp35
 70
     1
102
RTVSPost2010Prop36
280
     0
102
RTVSPost2010PropOp36
 70
     1
102
RTVSPost2010Prop37
 90
       50
102
RTVSPost2010PropOp37
 70
     1
102
RTVSPost2010Prop38
140
0.0
102
RTVSPost2010PropOp38
 70
     1
102
RTVSPost2010Prop39
140
1.0
102
RTVSPost2010PropOp39
 70
     1
102
RTVSPost2010Prop40
 90
        0
102
RTVSPost2010PropOp40
 70
     1
102
RTVSPost2010Prop41ColorIndex
 90
       18
102
RTVSPost2010Prop41ColorRGB
 90
        0
102
RTVSPost2010PropOp41
 70
     1
102
RTVSPost2010Prop42
 90
       50
102
RTVSPost2010PropOp42
 70
     1
102
RTVSPost2010Prop43
 90
        3
102
RTVSPost2010PropOp43
 70
     1
102
RTVSPost2010Prop44ColorIndex
 90
        5
102
RTVSPost2010Prop44ColorRGB
 90
      255
102
RTVSPost2010PropOp44
 70
     1
102
RTVSPost2010Prop45
280
     0
102
RTVSPost2010PropOp45
 70
     1
102
RTVSPost2010Prop46
 90
       50
102
RTVSPost2010PropOp46
 70
     1
102
RTVSPost2010Prop47
 90
       50
102
RTVSPost2010PropOp47
 70
     1
102
RTVSPost2010Prop48
 90
       50
102
RTVSPost2010PropOp48
 70
     1
102
RTVSPost2010Prop49
280
     0
102
RTVSPost2010PropOp49
 70
     1
102
RTVSPost2010Prop50
 90
       50
102
RTVSPost2010PropOp50
 70
     1
102
RTVSPost2010Prop51ColorIndex
 90
      256
102
RTVSPost2010Prop51ColorRGB
 90
-16777216
102
RTVSPost2010PropOp51
 70
     0
102
RTVSPost2010Prop52
140
1.0
102
RTVSPost2010PropOp52
 70
     0
102
RTVSPost2010Prop53
 90
        2
102
RTVSPost2010PropOp53
 70
     1
102
RTVSPost2010Prop54
  1
strokes_ogs.tif
102
RTVSPost2010PropOp54
 70
     1
102
RTVSPost2010Prop55
280
     0
102
RTVSPost2010PropOp55
 70
     1
102
RTVSPost2010Prop56
140
1.0
102
RTVSPost2010PropOp56
 70
     1
102
RTVSPost2010Prop57
140
1.0
102
RTVSPost2010PropOp57
 70
     1
102
RTVSPropertyOp0
 70
     1
102
RTVSPropertyOp1
 70
     1
102
RTVSPropertyOp2
 70
     1
102
RTVSPropertyOp3
 70
     1
102
RTVSPropertyOp4
 70
     1
102
RTVSPropertyOp5
 70
     1
102
RTVSPropertyOp6
 70
     1
102
RTVSPropertyOp7
 70
     1
102
RTVSPropertyOp8
 70
     1
102
RTVSPropertyOp9
 70
     1
102
RTVSPropertyOp10
 70
     1
102
RTVSPropertyOp11
 70
     1
102
RTVSPropertyOp12
 70
     1
102
RTVSPropertyOp13
 70
     1
102
RTVSPropertyOp14
 70
     1
102
RTVSPropertyOp15
 70
     1
102
RTVSPropertyOp16
 70
     1
102
RTVSPropertyOp17
 70
     1
102
RTVSPropertyOp18
 70
     1
102
RTVSPropertyOp19
 70
     1
102
RTVSPropertyOp20
 70
     1
102
RTVSPropertyOp21
 70
     1
102
RTVSPropertyOp22
 70
     1
102
RTVSPropertyOp23
 70
     1
102
RTVSPropertyOp24
 70
     1
102
RTVSPropertyOp25
 70
     1
102
RTVSPropertyOp26
 70
     1
102
RTVSPropertyOp27
 70
     1
102
RTVSPropertyOp28
 70
     1
102
RTVSPropertyOp29
 70
     1
102
RTVSPropertyOp30
 70
     1
102
RTVSPropertyOp31
 70
     1
102
RTVSPropertyOp32
 70
     1
102
RTVSPropertyOp33
 70
     1
102
RTVSPropertyOp34
 70
     1
102
RTVSPropertyOp35
 70
     1
102
RTVSPropertyOp36
 70
     1
102
RTVSPropertyOp37
 70
     1
102
RTVSPropertyOp38
 70
     1
102
RTVSPropertyOp39
 70
     1
102
RTVSPropertyOp40
 70
     1
102
RTVSPropertyOp41
 70
     1
102
RTVSPropertyOp42
 70
     1
102
RTVSPropertyOp43
 70
     1
102
RTVSPropertyOp44
 70
     1
102
RTVSPropertyOp45
 70
     1
102
RTVSPropertyOp46
 70
     1
102
RTVSPropertyOp47
 70
     1
102
RTVSPropertyOp48
 70
     1
102
RTVSPropertyOp49
 70
     1
102
RTVSPropertyOp50
 70
     1
102
RTVSPropertyOp51
 70
     0
102
RTVSPropertyOp52
 70
     0
102
RTVSPropertyOp53
 70
     1
102
RTVSPropertyOp54
 70
     1
102
RTVSPropertyOp55
 70
     1
102
RTVSPropertyOp56
 70
     1
102
RTVSPropertyOp57
 70
     1
102
RTVSPropertyOp58
 70
     1
102
RTVSPropertyOp59
 70
     1
102
RTVSPropertyOp60
 70
     1
102
RTVSPropertyOp61
 70
     1
102
RTVSPropertyOp62
 70
     1
  0
XRECORD
  5
82A8
102
{ACAD_REACTORS
330
82A7
102
}
330
82A7
100
AcDbXrecord
280
     1
102
RTVSPost2010Prop28
280
     0
102
RTVSPost2010PropOp28
 70
     1
102
RTVSPost2010Prop29
280
     1
102
RTVSPost2010PropOp29
 70
     1
102
RTVSPost2010Prop30
280
     1
102
RTVSPost2010PropOp30
 70
     1
102
RTVSPost2010Prop31
280
     0
102
RTVSPost2010PropOp31
 70
     1
102
RTVSPost2010Prop32
280
     0
102
RTVSPost2010PropOp32
 70
     1
102
RTVSPost2010Prop33
280
     0
102
RTVSPost2010PropOp33
 70
     1
102
RTVSPost2010Prop34
280
     0
102
RTVSPost2010PropOp34
 70
     1
102
RTVSPost2010Prop35
280
     0
102
RTVSPost2010PropOp35
 70
     1
102
RTVSPost2010Prop36
280
     0
102
RTVSPost2010PropOp36
 70
     1
102
RTVSPost2010Prop37
 90
       50
102
RTVSPost2010PropOp37
 70
     1
102
RTVSPost2010Prop38
140
0.0
102
RTVSPost2010PropOp38
 70
     1
102
RTVSPost2010Prop39
140
1.0
102
RTVSPost2010PropOp39
 70
     1
102
RTVSPost2010Prop40
 90
        0
102
RTVSPost2010PropOp40
 70
     1
102
RTVSPost2010Prop41ColorIndex
 90
       18
102
RTVSPost2010Prop41ColorRGB
 90
        0
102
RTVSPost2010PropOp41
 70
     1
102
RTVSPost2010Prop42
 90
       50
102
RTVSPost2010PropOp42
 70
     1
102
RTVSPost2010Prop43
 90
        3
102
RTVSPost2010PropOp43
 70
     1
102
RTVSPost2010Prop44ColorIndex
 90
        5
102
RTVSPost2010Prop44ColorRGB
 90
      255
102
RTVSPost2010PropOp44
 70
     1
102
RTVSPost2010Prop45
280
     0
102
RTVSPost2010PropOp45
 70
     1
102
RTVSPost2010Prop46
 90
       50
102
RTVSPost2010PropOp46
 70
     1
102
RTVSPost2010Prop47
 90
       50
102
RTVSPost2010PropOp47
 70
     1
102
RTVSPost2010Prop48
 90
       50
102
RTVSPost2010PropOp48
 70
     1
102
RTVSPost2010Prop49
280
     0
102
RTVSPost2010PropOp49
 70
     1
102
RTVSPost2010Prop50
 90
       50
102
RTVSPost2010PropOp50
 70
     1
102
RTVSPost2010Prop51ColorIndex
 90
      256
102
RTVSPost2010Prop51ColorRGB
 90
-16777216
102
RTVSPost2010PropOp51
 70
     0
102
RTVSPost2010Prop52
140
1.0
102
RTVSPost2010PropOp52
 70
     0
102
RTVSPost2010Prop53
 90
        2
102
RTVSPost2010PropOp53
 70
     1
102
RTVSPost2010Prop54
  1
strokes_ogs.tif
102
RTVSPost2010PropOp54
 70
     1
102
RTVSPost2010Prop55
280
     0
102
RTVSPost2010PropOp55
 70
     1
102
RTVSPost2010Prop56
140
1.0
102
RTVSPost2010PropOp56
 70
     1
102
RTVSPost2010Prop57
140
1.0
102
RTVSPost2010PropOp57
 70
     1
102
RTVSPropertyOp0
 70
     1
102
RTVSPropertyOp1
 70
     1
102
RTVSPropertyOp2
 70
     1
102
RTVSPropertyOp3
 70
     1
102
RTVSPropertyOp4
 70
     1
102
RTVSPropertyOp5
 70
     1
102
RTVSPropertyOp6
 70
     1
102
RTVSPropertyOp7
 70
     1
102
RTVSPropertyOp8
 70
     1
102
RTVSPropertyOp9
 70
     1
102
RTVSPropertyOp10
 70
     1
102
RTVSPropertyOp11
 70
     1
102
RTVSPropertyOp12
 70
     1
102
RTVSPropertyOp13
 70
     1
102
RTVSPropertyOp14
 70
     1
102
RTVSPropertyOp15
 70
     1
102
RTVSPropertyOp16
 70
     1
102
RTVSPropertyOp17
 70
     1
102
RTVSPropertyOp18
 70
     1
102
RTVSPropertyOp19
 70
     1
102
RTVSPropertyOp20
 70
     1
102
RTVSPropertyOp21
 70
     1
102
RTVSPropertyOp22
 70
     1
102
RTVSPropertyOp23
 70
     1
102
RTVSPropertyOp24
 70
     1
102
RTVSPropertyOp25
 70
     1
102
RTVSPropertyOp26
 70
     1
102
RTVSPropertyOp27
 70
     1
102
RTVSPropertyOp28
 70
     1
102
RTVSPropertyOp29
 70
     1
102
RTVSPropertyOp30
 70
     1
102
RTVSPropertyOp31
 70
     1
102
RTVSPropertyOp32
 70
     1
102
RTVSPropertyOp33
 70
     1
102
RTVSPropertyOp34
 70
     1
102
RTVSPropertyOp35
 70
     1
102
RTVSPropertyOp36
 70
     1
102
RTVSPropertyOp37
 70
     1
102
RTVSPropertyOp38
 70
     1
102
RTVSPropertyOp39
 70
     1
102
RTVSPropertyOp40
 70
     1
102
RTVSPropertyOp41
 70
     1
102
RTVSPropertyOp42
 70
     1
102
RTVSPropertyOp43
 70
     1
102
RTVSPropertyOp44
 70
     1
102
RTVSPropertyOp45
 70
     1
102
RTVSPropertyOp46
 70
     1
102
RTVSPropertyOp47
 70
     1
102
RTVSPropertyOp48
 70
     1
102
RTVSPropertyOp49
 70
     1
102
RTVSPropertyOp50
 70
     1
102
RTVSPropertyOp51
 70
     0
102
RTVSPropertyOp52
 70
     0
102
RTVSPropertyOp53
 70
     1
102
RTVSPropertyOp54
 70
     1
102
RTVSPropertyOp55
 70
     1
102
RTVSPropertyOp56
 70
     1
102
RTVSPropertyOp57
 70
     1
102
RTVSPropertyOp58
 70
     1
102
RTVSPropertyOp59
 70
     1
102
RTVSPropertyOp60
 70
     1
102
RTVSPropertyOp61
 70
     1
102
RTVSPropertyOp62
 70
     1
  0
XRECORD
  5
829E
102
{ACAD_REACTORS
330
829D
102
}
330
829D
100
AcDbXrecord
280
     1
102
RTVSPost2010Prop28
280
     0
102
RTVSPost2010PropOp28
 70
     1
102
RTVSPost2010Prop29
280
     1
102
RTVSPost2010PropOp29
 70
     1
102
RTVSPost2010Prop30
280
     1
102
RTVSPost2010PropOp30
 70
     1
102
RTVSPost2010Prop31
280
     0
102
RTVSPost2010PropOp31
 70
     1
102
RTVSPost2010Prop32
280
     0
102
RTVSPost2010PropOp32
 70
     1
102
RTVSPost2010Prop33
280
     0
102
RTVSPost2010PropOp33
 70
     1
102
RTVSPost2010Prop34
280
     0
102
RTVSPost2010PropOp34
 70
     1
102
RTVSPost2010Prop35
280
     0
102
RTVSPost2010PropOp35
 70
     1
102
RTVSPost2010Prop36
280
     0
102
RTVSPost2010PropOp36
 70
     1
102
RTVSPost2010Prop37
 90
       50
102
RTVSPost2010PropOp37
 70
     1
102
RTVSPost2010Prop38
140
0.0
102
RTVSPost2010PropOp38
 70
     1
102
RTVSPost2010Prop39
140
1.0
102
RTVSPost2010PropOp39
 70
     1
102
RTVSPost2010Prop40
 90
        0
102
RTVSPost2010PropOp40
 70
     1
102
RTVSPost2010Prop41ColorIndex
 90
       18
102
RTVSPost2010Prop41ColorRGB
 90
        0
102
RTVSPost2010PropOp41
 70
     1
102
RTVSPost2010Prop42
 90
       50
102
RTVSPost2010PropOp42
 70
     1
102
RTVSPost2010Prop43
 90
        3
102
RTVSPost2010PropOp43
 70
     1
102
RTVSPost2010Prop44ColorIndex
 90
        5
102
RTVSPost2010Prop44ColorRGB
 90
      255
102
RTVSPost2010PropOp44
 70
     1
102
RTVSPost2010Prop45
280
     0
102
RTVSPost2010PropOp45
 70
     1
102
RTVSPost2010Prop46
 90
       50
102
RTVSPost2010PropOp46
 70
     1
102
RTVSPost2010Prop47
 90
       50
102
RTVSPost2010PropOp47
 70
     1
102
RTVSPost2010Prop48
 90
       50
102
RTVSPost2010PropOp48
 70
     1
102
RTVSPost2010Prop49
280
     0
102
RTVSPost2010PropOp49
 70
     1
102
RTVSPost2010Prop50
 90
       50
102
RTVSPost2010PropOp50
 70
     1
102
RTVSPost2010Prop51ColorIndex
 90
      256
102
RTVSPost2010Prop51ColorRGB
 90
-16777216
102
RTVSPost2010PropOp51
 70
     0
102
RTVSPost2010Prop52
140
1.0
102
RTVSPost2010PropOp52
 70
     0
102
RTVSPost2010Prop53
 90
        2
102
RTVSPost2010PropOp53
 70
     1
102
RTVSPost2010Prop54
  1
strokes_ogs.tif
102
RTVSPost2010PropOp54
 70
     1
102
RTVSPost2010Prop55
280
     0
102
RTVSPost2010PropOp55
 70
     1
102
RTVSPost2010Prop56
140
1.0
102
RTVSPost2010PropOp56
 70
     1
102
RTVSPost2010Prop57
140
1.0
102
RTVSPost2010PropOp57
 70
     1
102
RTVSPropertyOp0
 70
     1
102
RTVSPropertyOp1
 70
     1
102
RTVSPropertyOp2
 70
     1
102
RTVSPropertyOp3
 70
     1
102
RTVSPropertyOp4
 70
     1
102
RTVSPropertyOp5
 70
     1
102
RTVSPropertyOp6
 70
     1
102
RTVSPropertyOp7
 70
     1
102
RTVSPropertyOp8
 70
     1
102
RTVSPropertyOp9
 70
     1
102
RTVSPropertyOp10
 70
     1
102
RTVSPropertyOp11
 70
     1
102
RTVSPropertyOp12
 70
     1
102
RTVSPropertyOp13
 70
     1
102
RTVSPropertyOp14
 70
     1
102
RTVSPropertyOp15
 70
     1
102
RTVSPropertyOp16
 70
     1
102
RTVSPropertyOp17
 70
     1
102
RTVSPropertyOp18
 70
     1
102
RTVSPropertyOp19
 70
     1
102
RTVSPropertyOp20
 70
     1
102
RTVSPropertyOp21
 70
     1
102
RTVSPropertyOp22
 70
     1
102
RTVSPropertyOp23
 70
     1
102
RTVSPropertyOp24
 70
     1
102
RTVSPropertyOp25
 70
     1
102
RTVSPropertyOp26
 70
     1
102
RTVSPropertyOp27
 70
     1
102
RTVSPropertyOp28
 70
     1
102
RTVSPropertyOp29
 70
     1
102
RTVSPropertyOp30
 70
     1
102
RTVSPropertyOp31
 70
     1
102
RTVSPropertyOp32
 70
     1
102
RTVSPropertyOp33
 70
     1
102
RTVSPropertyOp34
 70
     1
102
RTVSPropertyOp35
 70
     1
102
RTVSPropertyOp36
 70
     1
102
RTVSPropertyOp37
 70
     1
102
RTVSPropertyOp38
 70
     1
102
RTVSPropertyOp39
 70
     1
102
RTVSPropertyOp40
 70
     1
102
RTVSPropertyOp41
 70
     1
102
RTVSPropertyOp42
 70
     1
102
RTVSPropertyOp43
 70
     1
102
RTVSPropertyOp44
 70
     1
102
RTVSPropertyOp45
 70
     1
102
RTVSPropertyOp46
 70
     1
102
RTVSPropertyOp47
 70
     1
102
RTVSPropertyOp48
 70
     1
102
RTVSPropertyOp49
 70
     1
102
RTVSPropertyOp50
 70
     1
102
RTVSPropertyOp51
 70
     0
102
RTVSPropertyOp52
 70
     0
102
RTVSPropertyOp53
 70
     1
102
RTVSPropertyOp54
 70
     1
102
RTVSPropertyOp55
 70
     1
102
RTVSPropertyOp56
 70
     1
102
RTVSPropertyOp57
 70
     1
102
RTVSPropertyOp58
 70
     1
102
RTVSPropertyOp59
 70
     1
102
RTVSPropertyOp60
 70
     1
102
RTVSPropertyOp61
 70
     1
102
RTVSPropertyOp62
 70
     1
  0
XRECORD
  5
8292
102
{ACAD_REACTORS
330
8291
102
}
330
8291
100
AcDbXrecord
280
     1
102
RTVSPost2010Prop28
280
     0
102
RTVSPost2010PropOp28
 70
     1
102
RTVSPost2010Prop29
280
     1
102
RTVSPost2010PropOp29
 70
     1
102
RTVSPost2010Prop30
280
     1
102
RTVSPost2010PropOp30
 70
     1
102
RTVSPost2010Prop31
280
     0
102
RTVSPost2010PropOp31
 70
     1
102
RTVSPost2010Prop32
280
     0
102
RTVSPost2010PropOp32
 70
     1
102
RTVSPost2010Prop33
280
     0
102
RTVSPost2010PropOp33
 70
     1
102
RTVSPost2010Prop34
280
     0
102
RTVSPost2010PropOp34
 70
     1
102
RTVSPost2010Prop35
280
     0
102
RTVSPost2010PropOp35
 70
     1
102
RTVSPost2010Prop36
280
     0
102
RTVSPost2010PropOp36
 70
     1
102
RTVSPost2010Prop37
 90
       50
102
RTVSPost2010PropOp37
 70
     1
102
RTVSPost2010Prop38
140
0.0
102
RTVSPost2010PropOp38
 70
     1
102
RTVSPost2010Prop39
140
1.0
102
RTVSPost2010PropOp39
 70
     1
102
RTVSPost2010Prop40
 90
        0
102
RTVSPost2010PropOp40
 70
     1
102
RTVSPost2010Prop41ColorIndex
 90
       18
102
RTVSPost2010Prop41ColorRGB
 90
        0
102
RTVSPost2010PropOp41
 70
     1
102
RTVSPost2010Prop42
 90
       50
102
RTVSPost2010PropOp42
 70
     1
102
RTVSPost2010Prop43
 90
        3
102
RTVSPost2010PropOp43
 70
     1
102
RTVSPost2010Prop44ColorIndex
 90
        5
102
RTVSPost2010Prop44ColorRGB
 90
      255
102
RTVSPost2010PropOp44
 70
     1
102
RTVSPost2010Prop45
280
     0
102
RTVSPost2010PropOp45
 70
     1
102
RTVSPost2010Prop46
 90
       50
102
RTVSPost2010PropOp46
 70
     1
102
RTVSPost2010Prop47
 90
       50
102
RTVSPost2010PropOp47
 70
     1
102
RTVSPost2010Prop48
 90
       50
102
RTVSPost2010PropOp48
 70
     1
102
RTVSPost2010Prop49
280
     0
102
RTVSPost2010PropOp49
 70
     1
102
RTVSPost2010Prop50
 90
       50
102
RTVSPost2010PropOp50
 70
     1
102
RTVSPost2010Prop51ColorIndex
 90
      256
102
RTVSPost2010Prop51ColorRGB
 90
-16777216
102
RTVSPost2010PropOp51
 70
     0
102
RTVSPost2010Prop52
140
1.0
102
RTVSPost2010PropOp52
 70
     0
102
RTVSPost2010Prop53
 90
        2
102
RTVSPost2010PropOp53
 70
     1
102
RTVSPost2010Prop54
  1
strokes_ogs.tif
102
RTVSPost2010PropOp54
 70
     1
102
RTVSPost2010Prop55
280
     0
102
RTVSPost2010PropOp55
 70
     1
102
RTVSPost2010Prop56
140
1.0
102
RTVSPost2010PropOp56
 70
     1
102
RTVSPost2010Prop57
140
1.0
102
RTVSPost2010PropOp57
 70
     1
102
RTVSPropertyOp0
 70
     1
102
RTVSPropertyOp1
 70
     1
102
RTVSPropertyOp2
 70
     1
102
RTVSPropertyOp3
 70
     1
102
RTVSPropertyOp4
 70
     1
102
RTVSPropertyOp5
 70
     1
102
RTVSPropertyOp6
 70
     1
102
RTVSPropertyOp7
 70
     1
102
RTVSPropertyOp8
 70
     1
102
RTVSPropertyOp9
 70
     1
102
RTVSPropertyOp10
 70
     1
102
RTVSPropertyOp11
 70
     1
102
RTVSPropertyOp12
 70
     1
102
RTVSPropertyOp13
 70
     1
102
RTVSPropertyOp14
 70
     1
102
RTVSPropertyOp15
 70
     1
102
RTVSPropertyOp16
 70
     1
102
RTVSPropertyOp17
 70
     1
102
RTVSPropertyOp18
 70
     1
102
RTVSPropertyOp19
 70
     1
102
RTVSPropertyOp20
 70
     1
102
RTVSPropertyOp21
 70
     1
102
RTVSPropertyOp22
 70
     1
102
RTVSPropertyOp23
 70
     1
102
RTVSPropertyOp24
 70
     1
102
RTVSPropertyOp25
 70
     1
102
RTVSPropertyOp26
 70
     1
102
RTVSPropertyOp27
 70
     1
102
RTVSPropertyOp28
 70
     1
102
RTVSPropertyOp29
 70
     1
102
RTVSPropertyOp30
 70
     1
102
RTVSPropertyOp31
 70
     1
102
RTVSPropertyOp32
 70
     1
102
RTVSPropertyOp33
 70
     1
102
RTVSPropertyOp34
 70
     1
102
RTVSPropertyOp35
 70
     1
102
RTVSPropertyOp36
 70
     1
102
RTVSPropertyOp37
 70
     1
102
RTVSPropertyOp38
 70
     1
102
RTVSPropertyOp39
 70
     1
102
RTVSPropertyOp40
 70
     1
102
RTVSPropertyOp41
 70
     1
102
RTVSPropertyOp42
 70
     1
102
RTVSPropertyOp43
 70
     1
102
RTVSPropertyOp44
 70
     1
102
RTVSPropertyOp45
 70
     1
102
RTVSPropertyOp46
 70
     1
102
RTVSPropertyOp47
 70
     1
102
RTVSPropertyOp48
 70
     1
102
RTVSPropertyOp49
 70
     1
102
RTVSPropertyOp50
 70
     1
102
RTVSPropertyOp51
 70
     0
102
RTVSPropertyOp52
 70
     0
102
RTVSPropertyOp53
 70
     1
102
RTVSPropertyOp54
 70
     1
102
RTVSPropertyOp55
 70
     1
102
RTVSPropertyOp56
 70
     1
102
RTVSPropertyOp57
 70
     1
102
RTVSPropertyOp58
 70
     1
102
RTVSPropertyOp59
 70
     1
102
RTVSPropertyOp60
 70
     1
102
RTVSPropertyOp61
 70
     1
102
RTVSPropertyOp62
 70
     1
  0
XRECORD
  5
82AA
102
{ACAD_REACTORS
330
82A9
102
}
330
82A9
100
AcDbXrecord
280
     1
102
RTVSPost2010Prop28
280
     0
102
RTVSPost2010PropOp28
 70
     1
102
RTVSPost2010Prop29
280
     1
102
RTVSPost2010PropOp29
 70
     1
102
RTVSPost2010Prop30
280
     1
102
RTVSPost2010PropOp30
 70
     1
102
RTVSPost2010Prop31
280
     0
102
RTVSPost2010PropOp31
 70
     1
102
RTVSPost2010Prop32
280
     0
102
RTVSPost2010PropOp32
 70
     1
102
RTVSPost2010Prop33
280
     0
102
RTVSPost2010PropOp33
 70
     1
102
RTVSPost2010Prop34
280
     0
102
RTVSPost2010PropOp34
 70
     1
102
RTVSPost2010Prop35
280
     0
102
RTVSPost2010PropOp35
 70
     1
102
RTVSPost2010Prop36
280
     0
102
RTVSPost2010PropOp36
 70
     1
102
RTVSPost2010Prop37
 90
       50
102
RTVSPost2010PropOp37
 70
     1
102
RTVSPost2010Prop38
140
0.0
102
RTVSPost2010PropOp38
 70
     1
102
RTVSPost2010Prop39
140
1.0
102
RTVSPost2010PropOp39
 70
     1
102
RTVSPost2010Prop40
 90
        0
102
RTVSPost2010PropOp40
 70
     1
102
RTVSPost2010Prop41ColorIndex
 90
       18
102
RTVSPost2010Prop41ColorRGB
 90
        0
102
RTVSPost2010PropOp41
 70
     1
102
RTVSPost2010Prop42
 90
       50
102
RTVSPost2010PropOp42
 70
     1
102
RTVSPost2010Prop43
 90
        3
102
RTVSPost2010PropOp43
 70
     1
102
RTVSPost2010Prop44ColorIndex
 90
        5
102
RTVSPost2010Prop44ColorRGB
 90
      255
102
RTVSPost2010PropOp44
 70
     1
102
RTVSPost2010Prop45
280
     0
102
RTVSPost2010PropOp45
 70
     1
102
RTVSPost2010Prop46
 90
       50
102
RTVSPost2010PropOp46
 70
     1
102
RTVSPost2010Prop47
 90
       50
102
RTVSPost2010PropOp47
 70
     1
102
RTVSPost2010Prop48
 90
       50
102
RTVSPost2010PropOp48
 70
     1
102
RTVSPost2010Prop49
280
     0
102
RTVSPost2010PropOp49
 70
     1
102
RTVSPost2010Prop50
 90
       50
102
RTVSPost2010PropOp50
 70
     1
102
RTVSPost2010Prop51ColorIndex
 90
      256
102
RTVSPost2010Prop51ColorRGB
 90
-16777216
102
RTVSPost2010PropOp51
 70
     0
102
RTVSPost2010Prop52
140
1.0
102
RTVSPost2010PropOp52
 70
     0
102
RTVSPost2010Prop53
 90
        2
102
RTVSPost2010PropOp53
 70
     1
102
RTVSPost2010Prop54
  1
strokes_ogs.tif
102
RTVSPost2010PropOp54
 70
     1
102
RTVSPost2010Prop55
280
     0
102
RTVSPost2010PropOp55
 70
     1
102
RTVSPost2010Prop56
140
1.0
102
RTVSPost2010PropOp56
 70
     1
102
RTVSPost2010Prop57
140
1.0
102
RTVSPost2010PropOp57
 70
     1
102
RTVSPropertyOp0
 70
     1
102
RTVSPropertyOp1
 70
     1
102
RTVSPropertyOp2
 70
     1
102
RTVSPropertyOp3
 70
     1
102
RTVSPropertyOp4
 70
     1
102
RTVSPropertyOp5
 70
     1
102
RTVSPropertyOp6
 70
     1
102
RTVSPropertyOp7
 70
     1
102
RTVSPropertyOp8
 70
     1
102
RTVSPropertyOp9
 70
     1
102
RTVSPropertyOp10
 70
     1
102
RTVSPropertyOp11
 70
     1
102
RTVSPropertyOp12
 70
     1
102
RTVSPropertyOp13
 70
     1
102
RTVSPropertyOp14
 70
     1
102
RTVSPropertyOp15
 70
     1
102
RTVSPropertyOp16
 70
     1
102
RTVSPropertyOp17
 70
     1
102
RTVSPropertyOp18
 70
     1
102
RTVSPropertyOp19
 70
     1
102
RTVSPropertyOp20
 70
     1
102
RTVSPropertyOp21
 70
     1
102
RTVSPropertyOp22
 70
     1
102
RTVSPropertyOp23
 70
     1
102
RTVSPropertyOp24
 70
     1
102
RTVSPropertyOp25
 70
     1
102
RTVSPropertyOp26
 70
     1
102
RTVSPropertyOp27
 70
     1
102
RTVSPropertyOp28
 70
     1
102
RTVSPropertyOp29
 70
     1
102
RTVSPropertyOp30
 70
     1
102
RTVSPropertyOp31
 70
     1
102
RTVSPropertyOp32
 70
     1
102
RTVSPropertyOp33
 70
     1
102
RTVSPropertyOp34
 70
     1
102
RTVSPropertyOp35
 70
     1
102
RTVSPropertyOp36
 70
     1
102
RTVSPropertyOp37
 70
     1
102
RTVSPropertyOp38
 70
     1
102
RTVSPropertyOp39
 70
     1
102
RTVSPropertyOp40
 70
     1
102
RTVSPropertyOp41
 70
     1
102
RTVSPropertyOp42
 70
     1
102
RTVSPropertyOp43
 70
     1
102
RTVSPropertyOp44
 70
     1
102
RTVSPropertyOp45
 70
     1
102
RTVSPropertyOp46
 70
     1
102
RTVSPropertyOp47
 70
     1
102
RTVSPropertyOp48
 70
     1
102
RTVSPropertyOp49
 70
     1
102
RTVSPropertyOp50
 70
     1
102
RTVSPropertyOp51
 70
     0
102
RTVSPropertyOp52
 70
     0
102
RTVSPropertyOp53
 70
     1
102
RTVSPropertyOp54
 70
     1
102
RTVSPropertyOp55
 70
     1
102
RTVSPropertyOp56
 70
     1
102
RTVSPropertyOp57
 70
     1
102
RTVSPropertyOp58
 70
     1
102
RTVSPropertyOp59
 70
     1
102
RTVSPropertyOp60
 70
     1
102
RTVSPropertyOp61
 70
     1
102
RTVSPropertyOp62
 70
     1
  0
ENDSEC
  0
EOF
