  0
SECTION
  2
HEADER
  9
$ACADVER
  1
AC1032
  9
$ACADMAINTVER
 90
      228
  9
$DWGCODEPAGE
  3
ANSI_932
  9
$REQUIREDVERSIONS
160
                 0
  9
$INSBASE
 10
0.0
 20
0.0
 30
0.0
  9
$EXTMIN
 10
1.000000000000000E+20
 20
1.000000000000000E+20
 30
1.000000000000000E+20
  9
$EXTMAX
 10
-1.000000000000000E+20
 20
-1.000000000000000E+20
 30
-1.000000000000000E+20
  9
$LIMMIN
 10
0.0
 20
0.0
  9
$LIMMAX
 10
12.0
 20
9.0
  9
$ORTHOMODE
 70
     0
  9
$REGENMODE
 70
     1
  9
$FILLMODE
 70
     1
  9
$QTEXTMODE
 70
     0
  9
$MIRRTEXT
 70
     0
  9
$LTSCALE
 40
1.0
  9
$ATTMODE
 70
     1
  9
$TEXTSIZE
 40
0.2
  9
$TRACEWID
 40
0.05
  9
$TEXTSTYLE
  7
Standard
  9
$CLAYER
  8
0
  9
$CELTYPE
  6
ByLayer
  9
$CECOLOR
 62
   256
  9
$CELTSCALE
 40
1.0
  9
$DISPSILH
 70
     0
  9
$DIMSCALE
 40
1.0
  9
$DIMASZ
 40
0.18
  9
$DIMEXO
 40
0.0625
  9
$DIMDLI
 40
0.38
  9
$DIMRND
 40
0.0
  9
$DIMDLE
 40
0.0
  9
$DIMEXE
 40
0.18
  9
$DIMTP
 40
0.0
  9
$DIMTM
 40
0.0
  9
$DIMTXT
 40
0.18
  9
$DIMCEN
 40
0.09
  9
$DIMTSZ
 40
0.0
  9
$DIMTOL
 70
     0
  9
$DIMLIM
 70
     0
  9
$DIMTIH
 70
     1
  9
$DIMTOH
 70
     1
  9
$DIMSE1
 70
     0
  9
$DIMSE2
 70
     0
  9
$DIMTAD
 70
     0
  9
$DIMZIN
 70
     0
  9
$DIMBLK
  1

  9
$DIMASO
 70
     1
  9
$DIMSHO
 70
     1
  9
$DIMPOST
  1

  9
$DIMAPOST
  1

  9
$DIMALT
 70
     0
  9
$DIMALTD
 70
     2
  9
$DIMALTF
 40
25.4
  9
$DIMLFAC
 40
1.0
  9
$DIMTOFL
 70
     0
  9
$DIMTVP
 40
0.0
  9
$DIMTIX
 70
     0
  9
$DIMSOXD
 70
     0
  9
$DIMSAH
 70
     0
  9
$DIMBLK1
  1

  9
$DIMBLK2
  1

  9
$DIMSTYLE
  2
Standard
  9
$DIMCLRD
 70
     0
  9
$DIMCLRE
 70
     0
  9
$DIMCLRT
 70
     0
  9
$DIMTFAC
 40
1.0
  9
$DIMGAP
 40
0.09
  9
$DIMJUST
 70
     0
  9
$DIMSD1
 70
     0
  9
$DIMSD2
 70
     0
  9
$DIMTOLJ
 70
     1
  9
$DIMTZIN
 70
     0
  9
$DIMALTZ
 70
     0
  9
$DIMALTTZ
 70
     0
  9
$DIMUPT
 70
     0
  9
$DIMDEC
 70
     4
  9
$DIMTDEC
 70
     4
  9
$DIMALTU
 70
     2
  9
$DIMALTTD
 70
     2
  9
$DIMTXSTY
  7
Standard
  9
$DIMAUNIT
 70
     0
  9
$DIMADEC
 70
     0
  9
$DIMALTRND
 40
0.0
  9
$DIMAZIN
 70
     0
  9
$DIMDSEP
 70
    46
  9
$DIMATFIT
 70
     3
  9
$DIMFRAC
 70
     0
  9
$DIMLDRBLK
  1

  9
$DIMLUNIT
 70
     2
  9
$DIMLWD
 70
    -2
  9
$DIMLWE
 70
    -2
  9
$DIMTMOVE
 70
     0
  9
$DIMFXL
 40
1.0
  9
$DIMFXLON
 70
     0
  9
$DIMJOGANG
 40
0.7853981633974483
  9
$DIMTFILL
 70
     0
  9
$DIMTFILLCLR
 70
     0
  9
$DIMARCSYM
 70
     0
  9
$DIMLTYPE
  6

  9
$DIMLTEX1
  6

  9
$DIMLTEX2
  6

  9
$DIMTXTDIRECTION
 70
     0
  9
$LUNITS
 70
     2
  9
$LUPREC
 70
     4
  9
$SKETCHINC
 40
0.1
  9
$FILLETRAD
 40
0.0
  9
$AUNITS
 70
     0
  9
$AUPREC
 70
     0
  9
$MENU
  1
.
  9
$ELEVATION
 40
0.0
  9
$PELEVATION
 40
0.0
  9
$THICKNESS
 40
0.0
  9
$LIMCHECK
 70
     0
  9
$CHAMFERA
 40
0.0
  9
$CHAMFERB
 40
0.0
  9
$CHAMFERC
 40
0.0
  9
$CHAMFERD
 40
0.0
  9
$SKPOLY
 70
     0
  9
$TDCREATE
 40
2460062.655312500
  9
$TDUCREATE
 40
2460062.280312500
  9
$TDUPDATE
 40
2460062.655312500
  9
$TDUUPDATE
 40
2460062.280312500
  9
$TDINDWG
 40
0.0000000000
  9
$TDUSRTIMER
 40
0.0000000000
  9
$USRTIMER
 70
     1
  9
$ANGBASE
 50
0.0
  9
$ANGDIR
 70
     0
  9
$PDMODE
 70
     0
  9
$PDSIZE
 40
0.0
  9
$PLINEWID
 40
0.0
  9
$SPLFRAME
 70
     0
  9
$SPLINETYPE
 70
     6
  9
$SPLINESEGS
 70
     8
  9
$HANDSEED
  5
25D
  9
$SURFTAB1
 70
     6
  9
$SURFTAB2
 70
     6
  9
$SURFTYPE
 70
     6
  9
$SURFU
 70
     6
  9
$SURFV
 70
     6
  9
$UCSBASE
  2

  9
$UCSNAME
  2

  9
$UCSORG
 10
0.0
 20
0.0
 30
0.0
  9
$UCSXDIR
 10
1.0
 20
0.0
 30
0.0
  9
$UCSYDIR
 10
0.0
 20
1.0
 30
0.0
  9
$UCSORTHOREF
  2

  9
$UCSORTHOVIEW
 70
     0
  9
$UCSORGTOP
 10
0.0
 20
0.0
 30
0.0
  9
$UCSORGBOTTOM
 10
0.0
 20
0.0
 30
0.0
  9
$UCSORGLEFT
 10
0.0
 20
0.0
 30
0.0
  9
$UCSORGRIGHT
 10
0.0
 20
0.0
 30
0.0
  9
$UCSORGFRONT
 10
0.0
 20
0.0
 30
0.0
  9
$UCSORGBACK
 10
0.0
 20
0.0
 30
0.0
  9
$PUCSBASE
  2

  9
$PUCSNAME
  2

  9
$PUCSORG
 10
0.0
 20
0.0
 30
0.0
  9
$PUCSXDIR
 10
1.0
 20
0.0
 30
0.0
  9
$PUCSYDIR
 10
0.0
 20
1.0
 30
0.0
  9
$PUCSORTHOREF
  2

  9
$PUCSORTHOVIEW
 70
     0
  9
$PUCSORGTOP
 10
0.0
 20
0.0
 30
0.0
  9
$PUCSORGBOTTOM
 10
0.0
 20
0.0
 30
0.0
  9
$PUCSORGLEFT
 10
0.0
 20
0.0
 30
0.0
  9
$PUCSORGRIGHT
 10
0.0
 20
0.0
 30
0.0
  9
$PUCSORGFRONT
 10
0.0
 20
0.0
 30
0.0
  9
$PUCSORGBACK
 10
0.0
 20
0.0
 30
0.0
  9
$USERI1
 70
     0
  9
$USERI2
 70
     0
  9
$USERI3
 70
     0
  9
$USERI4
 70
     0
  9
$USERI5
 70
     0
  9
$USERR1
 40
0.0
  9
$USERR2
 40
0.0
  9
$USERR3
 40
0.0
  9
$USERR4
 40
0.0
  9
$USERR5
 40
0.0
  9
$WORLDVIEW
 70
     1
  9
$SHADEDGE
 70
     3
  9
$SHADEDIF
 70
    70
  9
$TILEMODE
 70
     1
  9
$MAXACTVP
 70
    64
  9
$PINSBASE
 10
0.0
 20
0.0
 30
0.0
  9
$PLIMCHECK
 70
     0
  9
$PEXTMIN
 10
1.000000000000000E+20
 20
1.000000000000000E+20
 30
1.000000000000000E+20
  9
$PEXTMAX
 10
-1.000000000000000E+20
 20
-1.000000000000000E+20
 30
-1.000000000000000E+20
  9
$PLIMMIN
 10
0.0
 20
0.0
  9
$PLIMMAX
 10
12.0
 20
9.0
  9
$UNITMODE
 70
     0
  9
$VISRETAIN
 70
     1
  9
$PLINEGEN
 70
     0
  9
$PSLTSCALE
 70
     1
  9
$TREEDEPTH
 70
  3020
  9
$CMLSTYLE
  2
Standard
  9
$CMLJUST
 70
     0
  9
$CMLSCALE
 40
1.0
  9
$PROXYGRAPHICS
 70
     1
  9
$MEASUREMENT
 70
     0
  9
$CELWEIGHT
370
    -1
  9
$ENDCAPS
280
     0
  9
$JOINSTYLE
280
     0
  9
$LWDISPLAY
290
     1
  9
$INSUNITS
 70
     4
  9
$HYPERLINKBASE
  1

  9
$STYLESHEET
  1

  9
$XEDIT
290
     1
  9
$CEPSNTYPE
380
     0
  9
$PSTYLEMODE
290
     1
  9
$FINGERPRINTGUID
  2
{AEA35D25-D614-2742-BB7B-B6B3042248B1}
  9
$VERSIONGUID
  2
{9E3CB7C5-C943-3A4F-ABC7-4B3C1BBF446C}
  9
$EXTNAMES
290
     1
  9
$PSVPSCALE
 40
0.0
  9
$OLESTARTUP
290
     0
  9
$SORTENTS
280
   127
  9
$INDEXCTL
280
     0
  9
$HIDETEXT
280
     1
  9
$XCLIPFRAME
280
     2
  9
$HALOGAP
280
     0
  9
$OBSCOLOR
 70
   257
  9
$OBSLTYPE
280
     0
  9
$INTERSECTIONDISPLAY
280
     0
  9
$INTERSECTIONCOLOR
 70
   257
  9
$DIMASSOC
280
     2
  9
$PROJECTNAME
  1

  9
$CAMERADISPLAY
290
     0
  9
$LENSLENGTH
 40
50.0
  9
$CAMERAHEIGHT
 40
0.0
  9
$STEPSPERSEC
 40
2.0
  9
$STEPSIZE
 40
6.0
  9
$3DDWFPREC
 40
2.0
  9
$PSOLWIDTH
 40
0.25
  9
$PSOLHEIGHT
 40
4.0
  9
$LOFTANG1
 40
1.570796326794896
  9
$LOFTANG2
 40
1.570796326794896
  9
$LOFTMAG1
 40
0.0
  9
$LOFTMAG2
 40
0.0
  9
$LOFTPARAM
 70
     7
  9
$LOFTNORMALS
280
     1
  9
$LATITUDE
 40
37.795
  9
$LONGITUDE
 40
-122.394
  9
$NORTHDIRECTION
 40
0.0
  9
$TIMEZONE
 70
 -8000
  9
$LIGHTGLYPHDISPLAY
280
     1
  9
$TILEMODELIGHTSYNCH
280
     1
  9
$CMATERIAL
347
11
  9
$SOLIDHIST
280
     0
  9
$SHOWHIST
280
     1
  9
$DWFFRAME
280
     2
  9
$DGNFRAME
280
     0
  9
$REALWORLDSCALE
290
     1
  9
$INTERFERECOLOR
 62
     1
  9
$INTERFEREOBJVS
345
33
  9
$INTERFEREVPVS
346
30
  9
$CSHADOW
280
     0
  9
$SHADOWPLANELOCATION
 40
0.0
  0
ENDSEC
  0
SECTION
  2
CLASSES
  0
CLASS
  1
ACDBDICTIONARYWDFLT
  2
AcDbDictionaryWithDefault
  3
ObjectDBX Classes
 90
        0
 91
        1
280
     0
281
     0
  0
CLASS
  1
MATERIAL
  2
AcDbMaterial
  3
ObjectDBX Classes
 90
     1153
 91
        3
280
     0
281
     0
  0
CLASS
  1
VISUALSTYLE
  2
AcDbVisualStyle
  3
ObjectDBX Classes
 90
     4095
 91
       24
280
     0
281
     0
  0
CLASS
  1
SCALE
  2
AcDbScale
  3
ObjectDBX Classes
 90
     1153
 91
       17
280
     0
281
     0
  0
CLASS
  1
TABLESTYLE
  2
AcDbTableStyle
  3
ObjectDBX Classes
 90
     4095
 91
        1
280
     0
281
     0
  0
CLASS
  1
MLEADERSTYLE
  2
AcDbMLeaderStyle
  3
ACDB_MLEADERSTYLE_CLASS
 90
     4095
 91
        1
280
     0
281
     0
  0
CLASS
  1
ACDBSECTIONVIEWSTYLE
  2
AcDbSectionViewStyle
  3
ObjectDBX Classes
 90
     1025
 91
        1
280
     0
281
     0
  0
CLASS
  1
ACDBDETAILVIEWSTYLE
  2
AcDbDetailViewStyle
  3
ObjectDBX Classes
 90
     1025
 91
        1
280
     0
281
     0
  0
CLASS
  1
DICTIONARYVAR
  2
AcDbDictionaryVar
  3
ObjectDBX Classes
 90
        0
 91
        5
280
     0
281
     0
  0
CLASS
  1
CELLSTYLEMAP
  2
AcDbCellStyleMap
  3
ObjectDBX Classes
 90
     1152
 91
        1
280
     0
281
     0
  0
ENDSEC
  0
SECTION
  2
TABLES
  0
TABLE
  2
VPORT
  5
8
330
0
100
AcDbSymbolTable
 70
     1
  0
VPORT
  5
57
330
8
100
AcDbSymbolTableRecord
100
AcDbViewportTableRecord
  2
*Active
 70
     0
 10
0.0
 20
0.0
 11
1.0
 21
1.0
 12
0.0
 22
0.0
 13
0.0
 23
0.0
 14
1.0
 24
1.0
 15
0.0
 25
0.0
 16
0.0
 26
0.0
 36
1.0
 17
338.666666582
 27
190.4999999523751
 37
0.0
 40
388.8749999028449
 41
1.776612021857632
 42
50.0
 43
0.0
 44
0.0
 50
0.0
 51
0.0
 71
     0
 72
   100
 73
     1
 74
     1
 75
     0
 76
     0
 77
     0
 78
     0
281
     0
 65
     1
110
0.0
120
0.0
130
0.0
111
1.0
121
0.0
131
0.0
112
0.0
122
1.0
132
0.0
 79
     0
146
0.0
 60
     3
 61
     5
292
     1
282
     1
141
0.0
142
0.0
 63
   250
421
  3355443
  0
ENDTAB
  0
TABLE
  2
LTYPE
  5
5
330
0
100
AcDbSymbolTable
 70
     1
  0
LTYPE
  5
5B
330
5
100
AcDbSymbolTableRecord
100
AcDbLinetypeTableRecord
  2
ByBlock
 70
     0
  3

 72
    65
 73
     0
 40
0.0
  0
LTYPE
  5
5C
330
5
100
AcDbSymbolTableRecord
100
AcDbLinetypeTableRecord
  2
ByLayer
 70
     0
  3

 72
    65
 73
     0
 40
0.0
  0
LTYPE
  5
5D
330
5
100
AcDbSymbolTableRecord
100
AcDbLinetypeTableRecord
  2
Continuous
 70
     0
  3
Solid line
 72
    65
 73
     0
 40
0.0
  0
ENDTAB
  0
TABLE
  2
LAYER
  5
2
330
0
100
AcDbSymbolTable
 70
     5
  0
LAYER
  5
54
330
2
100
AcDbSymbolTableRecord
100
AcDbLayerTableRecord
  2
0
 70
     0
 62
     7
  6
Continuous
370
     0
390
F
347
21
348
0
  0
LAYER
  5
78
330
2
100
AcDbSymbolTableRecord
100
AcDbLayerTableRecord
  2
FLAME
 70
     0
 62
     7
  6
Continuous
370
     0
390
F
347
21
348
0
  0
LAYER
  5
80
330
2
100
AcDbSymbolTableRecord
100
AcDbLayerTableRecord
  2
SPEC
 70
     0
 62
     7
  6
Continuous
370
     0
390
F
347
21
348
0
  0
LAYER
  5
83
330
2
100
AcDbSymbolTableRecord
100
AcDbLayerTableRecord
  2
HON
 70
     0
 62
     7
  6
Continuous
370
     0
390
F
347
21
348
0
  0
LAYER
  5
251
330
2
100
AcDbSymbolTableRecord
100
AcDbLayerTableRecord
  2
SHADE
 70
     0
 62
     7
  6
Continuous
370
     0
390
F
347
21
348
0
  0
ENDTAB
  0
TABLE
  2
STYLE
  5
3
330
0
100
AcDbSymbolTable
 70
     2
  0
STYLE
  5
55
330
3
100
AcDbSymbolTableRecord
100
AcDbTextStyleTableRecord
  2
Standard
 70
     0
 40
0.0
 41
1.0
 50
0.0
 71
     0
 42
0.2
  3
txt
  4

  0
STYLE
  5
5A
330
3
100
AcDbSymbolTableRecord
100
AcDbTextStyleTableRecord
  2
Annotative
 70
     0
 40
0.0
 41
1.0
 50
0.0
 71
     0
 42
0.2
  3
txt
  4

1001
AcadAnnotative
1000
AnnotativeData
1002
{
1070
     1
1070
     1
1002
}
  0
ENDTAB
  0
TABLE
  2
VIEW
  5
6
330
0
100
AcDbSymbolTable
 70
     0
  0
ENDTAB
  0
TABLE
  2
UCS
  5
7
330
0
100
AcDbSymbolTable
 70
     0
  0
ENDTAB
  0
TABLE
  2
APPID
  5
9
330
0
100
AcDbSymbolTable
 70
     2
  0
APPID
  5
56
330
9
100
AcDbSymbolTableRecord
100
AcDbRegAppTableRecord
  2
ACAD
 70
     0
  0
APPID
  5
5E
330
9
100
AcDbSymbolTableRecord
100
AcDbRegAppTableRecord
  2
AcadAnnotative
 70
     0
  0
ENDTAB
  0
TABLE
  2
DIMSTYLE
  5
A
330
0
100
AcDbSymbolTable
 70
     2
100
AcDbDimStyleTable
 71
     0
  0
DIMSTYLE
105
58
330
A
100
AcDbSymbolTableRecord
100
AcDbDimStyleTableRecord
  2
Standard
 70
     0
340
55
  0
DIMSTYLE
105
59
330
A
100
AcDbSymbolTableRecord
100
AcDbDimStyleTableRecord
  2
Annotative
 70
     0
340
55
1001
AcadAnnotative
1000
AnnotativeData
1002
{
1070
     1
1070
     1
1002
}
  0
ENDTAB
  0
TABLE
  2
BLOCK_RECORD
  5
1
330
0
100
AcDbSymbolTable
 70
     1
  0
BLOCK_RECORD
  5
70
330
1
100
AcDbSymbolTableRecord
100
AcDbBlockTableRecord
  2
*Model_Space
340
73
 70
     0
280
     1
281
     0
  0
BLOCK_RECORD
  5
6C
330
1
100
AcDbSymbolTableRecord
100
AcDbBlockTableRecord
  2
*Paper_Space
340
6F
 70
     0
280
     1
281
     0
  0
BLOCK_RECORD
  5
74
330
1
100
AcDbSymbolTableRecord
100
AcDbBlockTableRecord
  2
*Paper_Space0
340
77
 70
     0
280
     1
281
     0
  0
ENDTAB
  0
ENDSEC
  0
SECTION
  2
BLOCKS
  0
BLOCK
  5
71
330
70
100
AcDbEntity
  8
0
100
AcDbBlockBegin
  2
*Model_Space
 70
     0
 10
0.0
 20
0.0
 30
0.0
  3
*Model_Space
  1

  0
ENDBLK
  5
72
330
70
100
AcDbEntity
  8
0
100
AcDbBlockEnd
  0
BLOCK
  5
6D
330
6C
100
AcDbEntity
 67
     1
  8
0
100
AcDbBlockBegin
  2
*Paper_Space
 70
     0
 10
0.0
 20
0.0
 30
0.0
  3
*Paper_Space
  1

  0
ENDBLK
  5
6E
330
6C
100
AcDbEntity
 67
     1
  8
0
100
AcDbBlockEnd
  0
BLOCK
  5
75
330
74
100
AcDbEntity
 67
     1
  8
0
100
AcDbBlockBegin
  2
*Paper_Space0
 70
     0
 10
0.0
 20
0.0
 30
0.0
  3
*Paper_Space0
  1

  0
ENDBLK
  5
76
330
74
100
AcDbEntity
 67
     1
  8
0
100
AcDbBlockEnd
  0
ENDSEC
  0
SECTION
  2
ENTITIES
  0
LINE
  5
79
330
70
100
AcDbEntity
  8
FLAME
 62
     2
420
 16776960
370
    25
100
AcDbLine
 10
501.9523808268929
 20
380.9999999047501
 30
0.0
 11
501.9523808268929
 21
0.0
 31
0.0
  0
LINE
  5
7A
330
70
100
AcDbEntity
  8
FLAME
 62
     2
420
 16776960
370
    25
100
AcDbLine
 10
175.380952337107
 20
0.0
 30
0.0
 11
175.380952337107
 21
380.9999999047501
 31
0.0
  0
LINE
  5
7B
330
70
100
AcDbEntity
  8
FLAME
 62
     2
420
 16776960
370
    25
100
AcDbLine
 10
501.9523808268929
 20
0.0
 30
0.0
 11
175.380952337107
 21
0.0
 31
0.0
  0
LINE
  5
7C
330
70
100
AcDbEntity
  8
FLAME
 62
     2
420
 16776960
370
    25
100
AcDbLine
 10
501.9523808268929
 20
18.14285713832115
 30
0.0
 11
175.380952337107
 21
18.14285713832115
 31
0.0
  0
LINE
  5
7D
330
70
100
AcDbEntity
  8
FLAME
 62
     2
420
 16776960
370
    25
100
AcDbLine
 10
501.9523808268929
 20
36.28571427664295
 30
0.0
 11
175.380952337107
 21
36.28571427664295
 31
0.0
  0
LINE
  5
7E
330
70
100
AcDbEntity
  8
FLAME
 62
     2
420
 16776960
370
    25
100
AcDbLine
 10
501.9523808268929
 20
54.42857141496411
 30
0.0
 11
175.380952337107
 21
54.42857141496411
 31
0.0
  0
LINE
  5
7F
330
70
100
AcDbEntity
  8
FLAME
 62
     2
420
 16776960
370
    25
100
AcDbLine
 10
501.9523808268929
 20
380.9999999047501
 30
0.0
 11
175.380952337107
 21
380.9999999047501
 31
0.0
  0
MTEXT
  5
81
330
70
100
AcDbEntity
  8
SPEC
100
AcDbMText
 10
187.6349293557605
 20
41.1836753530328
 30
0.0
 40
0.2
 41
0.0
 46
0.0
 71
     7
 72
     1
  1
\C9;\c12632256;\FKozuka Gothic Pr6N R|b0|i0|c128;\H9.071429;\W1.000000;KC3665
 73
     1
 44
1.0
  0
MTEXT
  5
82
330
70
100
AcDbEntity
  8
SPEC
100
AcDbMText
 10
187.6349293557605
 20
23.04081744571685
 30
0.0
 40
0.2
 41
0.0
 46
0.0
 71
     7
 72
     1
  1
\C9;\c12632256;\FKozuka Gothic Pr6N R|b0|i0|c128;\H7.992533;\W1.000000;E26 LED電球（100W相当 電球色 全方向/広配光タイプ）ｘ2灯
 73
     1
 44
1.0
  0
LINE
  5
84
330
70
100
AcDbEntity
  8
HON
 62
     9
420
 12632256
370
    25
100
AcDbLine
 10
214.8853007183407
 20
277.7792481710064
 30
0.0
 11
214.006203166906
 21
267.909092051846
 31
0.0
  0
LINE
  5
85
330
70
100
AcDbEntity
  8
HON
 62
     9
420
 12632256
370
    25
100
AcDbLine
 10
216.5232088312498
 20
261.3427900409829
 30
0.0
 11
244.3140943815532
 21
242.1283927067534
 31
0.0
  0
LINE
  5
86
330
70
100
AcDbEntity
  8
HON
 62
     9
420
 12632256
370
    25
100
AcDbLine
 10
338.4310133697606
 20
299.1398084044357
 30
0.0
 11
333.2082193775474
 21
296.8039539634215
 31
0.0
  0
LINE
  5
87
330
70
100
AcDbEntity
  8
HON
 62
     9
420
 12632256
370
    25
100
AcDbLine
 10
333.2082193775474
 20
296.8039539634215
 30
0.0
 11
328.448354629583
 21
299.0741286891342
 31
0.0
  0
LINE
  5
88
330
70
100
AcDbEntity
  8
HON
 62
     9
420
 12632256
370
    25
100
AcDbLine
 10
328.448354629583
 20
299.0741286891342
 30
0.0
 11
323.4155570182459
 21
296.61697938801
 31
0.0
  0
LINE
  5
89
330
70
100
AcDbEntity
  8
HON
 62
     9
420
 12632256
370
    25
100
AcDbLine
 10
323.4155570182459
 20
296.61697938801
 30
0.0
 11
318.5271664899922
 21
298.8774157432194
 31
0.0
  0
LINE
  5
8A
330
70
100
AcDbEntity
  8
HON
 62
     9
420
 12632256
370
    25
100
AcDbLine
 10
318.5271664899922
 20
298.8774157432194
 30
0.0
 11
313.6497888989865
 21
296.4644198860037
 31
0.0
  0
LINE
  5
8B
330
70
100
AcDbEntity
  8
HON
 62
     9
420
 12632256
370
    25
100
AcDbLine
 10
313.6497888989865
 20
296.4644198860037
 30
0.0
 11
308.7285253101153
 21
298.5506396132661
 31
0.0
  0
LINE
  5
8C
330
70
100
AcDbEntity
  8
HON
 62
     9
420
 12632256
370
    25
100
AcDbLine
 10
308.7285253101153
 20
298.5506396132661
 30
0.0
 11
303.9002684245847
 21
296.0434647813715
 31
0.0
  0
LINE
  5
8D
330
70
100
AcDbEntity
  8
HON
 62
     9
420
 12632256
370
    25
100
AcDbLine
 10
303.9002684245847
 20
296.0434647813715
 30
0.0
 11
299.112750128227
 21
298.0953891417977
 31
0.0
  0
LINE
  5
8E
330
70
100
AcDbEntity
  8
HON
 62
     9
420
 12632256
370
    25
100
AcDbLine
 10
299.112750128227
 20
298.0953891417977
 30
0.0
 11
294.1612566533822
 21
295.5768270997935
 31
0.0
  0
LINE
  5
8F
330
70
100
AcDbEntity
  8
HON
 62
     9
420
 12632256
370
    25
100
AcDbLine
 10
294.1612566533822
 20
295.5768270997935
 30
0.0
 11
289.7390198691872
 21
297.5138266052996
 31
0.0
  0
LINE
  5
90
330
70
100
AcDbEntity
  8
HON
 62
     9
420
 12632256
370
    25
100
AcDbLine
 10
289.7390198691872
 20
297.5138266052996
 30
0.0
 11
285.2772482279879
 21
294.8802772714364
 31
0.0
  0
LINE
  5
91
330
70
100
AcDbEntity
  8
HON
 62
     9
420
 12632256
370
    25
100
AcDbLine
 10
285.2772482279879
 20
294.8802772714364
 30
0.0
 11
280.6650016403607
 21
296.8086161244276
 31
0.0
  0
LINE
  5
92
330
70
100
AcDbEntity
  8
HON
 62
     9
420
 12632256
370
    25
100
AcDbLine
 10
280.6650016403607
 20
296.8086161244276
 30
0.0
 11
276.7550555433262
 21
294.2295385977683
 31
0.0
  0
LINE
  5
93
330
70
100
AcDbEntity
  8
HON
 62
     9
420
 12632256
370
    25
100
AcDbLine
 10
276.7550555433262
 20
294.2295385977683
 30
0.0
 11
271.9464852587318
 21
295.9828147721323
 31
0.0
  0
LINE
  5
94
330
70
100
AcDbEntity
  8
HON
 62
     9
420
 12632256
370
    25
100
AcDbLine
 10
271.9464852587318
 20
295.9828147721323
 30
0.0
 11
268.292438076605
 21
293.2673854797873
 31
0.0
  0
LINE
  5
95
330
70
100
AcDbEntity
  8
HON
 62
     9
420
 12632256
370
    25
100
AcDbLine
 10
268.292438076605
 20
293.2673854797873
 30
0.0
 11
263.6370239498053
 21
295.0397062316665
 31
0.0
  0
LINE
  5
96
330
70
100
AcDbEntity
  8
HON
 62
     9
420
 12632256
370
    25
100
AcDbLine
 10
263.6370239498053
 20
295.0397062316665
 30
0.0
 11
260.0021046574181
 21
292.2678794163248
 31
0.0
  0
LINE
  5
97
330
70
100
AcDbEntity
  8
HON
 62
     9
420
 12632256
370
    25
100
AcDbLine
 10
260.0021046574181
 20
292.2678794163248
 30
0.0
 11
255.7875750794104
 21
293.9825386070364
 31
0.0
  0
LINE
  5
98
330
70
100
AcDbEntity
  8
HON
 62
     9
420
 12632256
370
    25
100
AcDbLine
 10
255.7875750794104
 20
293.9825386070364
 30
0.0
 11
252.4426347604638
 21
291.1903098937862
 31
0.0
  0
LINE
  5
99
330
70
100
AcDbEntity
  8
HON
 62
     9
420
 12632256
370
    25
100
AcDbLine
 10
252.4426347604638
 20
291.1903098937862
 30
0.0
 11
248.4461624434472
 21
292.8140958090462
 31
0.0
  0
LINE
  5
9A
330
70
100
AcDbEntity
  8
HON
 62
     9
420
 12632256
370
    25
100
AcDbLine
 10
248.4461624434472
 20
292.8140958090462
 30
0.0
 11
245.4121564968515
 21
290.0401329603574
 31
0.0
  0
LINE
  5
9B
330
70
100
AcDbEntity
  8
HON
 62
     9
420
 12632256
370
    25
100
AcDbLine
 10
245.4121564968515
 20
290.0401329603574
 30
0.0
 11
241.6574582401529
 21
291.535931896168
 31
0.0
  0
LINE
  5
9C
330
70
100
AcDbEntity
  8
HON
 62
     9
420
 12632256
370
    25
100
AcDbLine
 10
241.6574582401529
 20
291.535931896168
 30
0.0
 11
238.837495571382
 21
288.63541039294
 31
0.0
  0
LINE
  5
9D
330
70
100
AcDbEntity
  8
HON
 62
     9
420
 12632256
370
    25
100
AcDbLine
 10
238.837495571382
 20
288.63541039294
 30
0.0
 11
235.4623796696714
 21
290.146921514467
 31
0.0
  0
LINE
  5
9E
330
70
100
AcDbEntity
  8
HON
 62
     9
420
 12632256
370
    25
100
AcDbLine
 10
235.4623796696714
 20
290.146921514467
 30
0.0
 11
232.9905644647993
 21
287.3051838684237
 31
0.0
  0
LINE
  5
9F
330
70
100
AcDbEntity
  8
HON
 62
     9
420
 12632256
370
    25
100
AcDbLine
 10
232.9905644647993
 20
287.3051838684237
 30
0.0
 11
229.8974246012055
 21
288.6401396710624
 31
0.0
  0
LINE
  5
A0
330
70
100
AcDbEntity
  8
HON
 62
     9
420
 12632256
370
    25
100
AcDbLine
 10
229.8974246012055
 20
288.6401396710624
 30
0.0
 11
227.9478258680822
 21
285.7609123754701
 31
0.0
  0
LINE
  5
A1
330
70
100
AcDbEntity
  8
HON
 62
     9
420
 12632256
370
    25
100
AcDbLine
 10
227.9478258680822
 20
285.7609123754701
 30
0.0
 11
224.9933547683453
 21
286.9950486968696
 31
0.0
  0
LINE
  5
A2
330
70
100
AcDbEntity
  8
HON
 62
     9
420
 12632256
370
    25
100
AcDbLine
 10
224.9933547683453
 20
286.9950486968696
 30
0.0
 11
223.7119429871063
 21
284.2460196036476
 31
0.0
  0
LINE
  5
A3
330
70
100
AcDbEntity
  8
HON
 62
     9
420
 12632256
370
    25
100
AcDbLine
 10
223.7119429871063
 20
284.2460196036476
 30
0.0
 11
220.7438127048576
 21
285.2586006525796
 31
0.0
  0
LINE
  5
A4
330
70
100
AcDbEntity
  8
HON
 62
     9
420
 12632256
370
    25
100
AcDbLine
 10
220.7438127048576
 20
285.2586006525796
 30
0.0
 11
219.8637963836995
 21
282.4799732854337
 31
0.0
  0
LINE
  5
A5
330
70
100
AcDbEntity
  8
HON
 62
     9
420
 12632256
370
    25
100
AcDbLine
 10
219.8637963836995
 20
282.4799732854337
 30
0.0
 11
217.2106405974295
 21
282.8747621940405
 31
0.0
  0
LINE
  5
A6
330
70
100
AcDbEntity
  8
HON
 62
     9
420
 12632256
370
    25
100
AcDbLine
 10
217.2106405974295
 20
282.8747621940405
 30
0.0
 11
217.9044963380718
 21
281.0042875716851
 31
0.0
  0
LINE
  5
A7
330
70
100
AcDbEntity
  8
HON
 62
     9
420
 12632256
370
    25
100
AcDbLine
 10
217.9044963380718
 20
281.0042875716851
 30
0.0
 11
216.2167163574209
 21
281.9089311940255
 31
0.0
  0
LINE
  5
A8
330
70
100
AcDbEntity
  8
HON
 62
     9
420
 12632256
370
    25
100
AcDbLine
 10
216.2167163574209
 20
281.9089311940255
 30
0.0
 11
216.5810703641612
 21
280.0215693488971
 31
0.0
  0
LINE
  5
A9
330
70
100
AcDbEntity
  8
HON
 62
     9
420
 12632256
370
    25
100
AcDbLine
 10
216.5810703641612
 20
280.0215693488971
 30
0.0
 11
215.3953664434126
 21
280.5782520431506
 31
0.0
  0
LINE
  5
AA
330
70
100
AcDbEntity
  8
HON
 62
     9
420
 12632256
370
    25
100
AcDbLine
 10
215.3953664434126
 20
280.5782520431506
 30
0.0
 11
215.9212377817886
 21
279.2162165451586
 31
0.0
  0
LINE
  5
AB
330
70
100
AcDbEntity
  8
HON
 62
     9
420
 12632256
370
    25
100
AcDbLine
 10
215.9212377817886
 20
279.2162165451586
 30
0.0
 11
214.9877124066001
 21
279.0256664531879
 31
0.0
  0
LINE
  5
AC
330
70
100
AcDbEntity
  8
HON
 62
     9
420
 12632256
370
    25
100
AcDbLine
 10
214.9877124066001
 20
279.0256664531879
 30
0.0
 11
215.5010588235149
 21
278.4059054613758
 31
0.0
  0
LINE
  5
AD
330
70
100
AcDbEntity
  8
HON
 62
     9
420
 12632256
370
    25
100
AcDbLine
 10
338.4310133697606
 20
287.6129861453896
 30
0.0
 11
332.3895224411824
 21
280.3680313379691
 31
0.0
  0
LINE
  5
AE
330
70
100
AcDbEntity
  8
HON
 62
     9
420
 12632256
370
    25
100
AcDbLine
 10
332.3895224411824
 20
280.3680313379691
 30
0.0
 11
328.4873898131842
 21
287.5847022941658
 31
0.0
  0
LINE
  5
AF
330
70
100
AcDbEntity
  8
HON
 62
     9
420
 12632256
370
    25
100
AcDbLine
 10
328.4873898131842
 20
287.5847022941658
 30
0.0
 11
321.8022558825623
 21
280.4209594720583
 31
0.0
  0
LINE
  5
B0
330
70
100
AcDbEntity
  8
HON
 62
     9
420
 12632256
370
    25
100
AcDbLine
 10
321.8022558825623
 20
280.4209594720583
 30
0.0
 11
318.559099406507
 21
287.3030862670399
 31
0.0
  0
LINE
  5
B1
330
70
100
AcDbEntity
  8
HON
 62
     9
420
 12632256
370
    25
100
AcDbLine
 10
318.559099406507
 20
287.3030862670399
 30
0.0
 11
312.5085779887746
 21
278.7127528325549
 31
0.0
  0
LINE
  5
B2
330
70
100
AcDbEntity
  8
HON
 62
     9
420
 12632256
370
    25
100
AcDbLine
 10
312.5085779887746
 20
278.7127528325549
 30
0.0
 11
308.8454844226705
 21
287.0568496675761
 31
0.0
  0
LINE
  5
B3
330
70
100
AcDbEntity
  8
HON
 62
     9
420
 12632256
370
    25
100
AcDbLine
 10
308.8454844226705
 20
287.0568496675761
 30
0.0
 11
303.1160083990613
 21
279.4663170302873
 31
0.0
  0
LINE
  5
B4
330
70
100
AcDbEntity
  8
HON
 62
     9
420
 12632256
370
    25
100
AcDbLine
 10
303.1160083990613
 20
279.4663170302873
 30
0.0
 11
299.2490272759504
 21
287.0134949156645
 31
0.0
  0
LINE
  5
B5
330
70
100
AcDbEntity
  8
HON
 62
     9
420
 12632256
370
    25
100
AcDbLine
 10
299.2490272759504
 20
287.0134949156645
 30
0.0
 11
293.468738594964
 21
278.9687674026453
 31
0.0
  0
LINE
  5
B6
330
70
100
AcDbEntity
  8
HON
 62
     9
420
 12632256
370
    25
100
AcDbLine
 10
293.468738594964
 20
278.9687674026453
 30
0.0
 11
289.9348923063718
 21
286.0790622049056
 31
0.0
  0
LINE
  5
B7
330
70
100
AcDbEntity
  8
HON
 62
     9
420
 12632256
370
    25
100
AcDbLine
 10
289.9348923063718
 20
286.0790622049056
 30
0.0
 11
285.1538867526782
 21
278.401758084298
 31
0.0
  0
LINE
  5
B8
330
70
100
AcDbEntity
  8
HON
 62
     9
420
 12632256
370
    25
100
AcDbLine
 10
285.1538867526782
 20
278.401758084298
 30
0.0
 11
280.9010506349732
 21
285.4147509608825
 31
0.0
  0
LINE
  5
B9
330
70
100
AcDbEntity
  8
HON
 62
     9
420
 12632256
370
    25
100
AcDbLine
 10
280.9010506349732
 20
285.4147509608825
 30
0.0
 11
275.9928411047009
 21
277.6803006317857
 31
0.0
  0
LINE
  5
BA
330
70
100
AcDbEntity
  8
HON
 62
     9
420
 12632256
370
    25
100
AcDbLine
 10
275.9928411047009
 20
277.6803006317857
 30
0.0
 11
272.452569228749
 21
284.4332031483536
 31
0.0
  0
LINE
  5
BB
330
70
100
AcDbEntity
  8
HON
 62
     9
420
 12632256
370
    25
100
AcDbLine
 10
272.452569228749
 20
284.4332031483536
 30
0.0
 11
267.0574161585415
 21
276.7745966280339
 31
0.0
  0
LINE
  5
BC
330
70
100
AcDbEntity
  8
HON
 62
     9
420
 12632256
370
    25
100
AcDbLine
 10
267.0574161585415
 20
276.7745966280339
 30
0.0
 11
263.9563978614542
 21
283.7517863591626
 31
0.0
  0
LINE
  5
BD
330
70
100
AcDbEntity
  8
HON
 62
     9
420
 12632256
370
    25
100
AcDbLine
 10
263.9563978614542
 20
283.7517863591626
 30
0.0
 11
259.1076166978323
 21
275.7866322050211
 31
0.0
  0
LINE
  5
BE
330
70
100
AcDbEntity
  8
HON
 62
     9
420
 12632256
370
    25
100
AcDbLine
 10
259.1076166978323
 20
275.7866322050211
 30
0.0
 11
256.1511988079314
 21
282.7608502133913
 31
0.0
  0
LINE
  5
BF
330
70
100
AcDbEntity
  8
HON
 62
     9
420
 12632256
370
    25
100
AcDbLine
 10
256.1511988079314
 20
282.7608502133913
 30
0.0
 11
252.0786480500693
 21
274.8410570796884
 31
0.0
  0
LINE
  5
C0
330
70
100
AcDbEntity
  8
HON
 62
     9
420
 12632256
370
    25
100
AcDbLine
 10
252.0786480500693
 20
274.8410570796884
 30
0.0
 11
248.8570147909111
 21
281.6689979761683
 31
0.0
  0
LINE
  5
C1
330
70
100
AcDbEntity
  8
HON
 62
     9
420
 12632256
370
    25
100
AcDbLine
 10
248.8570147909111
 20
281.6689979761683
 30
0.0
 11
245.6982800706853
 21
273.7704125414674
 31
0.0
  0
LINE
  5
C2
330
70
100
AcDbEntity
  8
HON
 62
     9
420
 12632256
370
    25
100
AcDbLine
 10
245.6982800706853
 20
273.7704125414674
 30
0.0
 11
242.1201403128095
 21
280.4800082231286
 31
0.0
  0
LINE
  5
C3
330
70
100
AcDbEntity
  8
HON
 62
     9
420
 12632256
370
    25
100
AcDbLine
 10
242.1201403128095
 20
280.4800082231286
 30
0.0
 11
239.974954041314
 21
272.5814137264972
 31
0.0
  0
LINE
  5
C4
330
70
100
AcDbEntity
  8
HON
 62
     9
420
 12632256
370
    25
100
AcDbLine
 10
239.974954041314
 20
272.5814137264972
 30
0.0
 11
235.9842323393765
 21
279.1968436735723
 31
0.0
  0
LINE
  5
C5
330
70
100
AcDbEntity
  8
HON
 62
     9
420
 12632256
370
    25
100
AcDbLine
 10
235.9842323393765
 20
279.1968436735723
 30
0.0
 11
234.2626417310393
 21
271.3013408760144
 31
0.0
  0
LINE
  5
C6
330
70
100
AcDbEntity
  8
HON
 62
     9
420
 12632256
370
    25
100
AcDbLine
 10
234.2626417310393
 20
271.3013408760144
 30
0.0
 11
230.4906586196033
 21
277.8206626519719
 31
0.0
  0
LINE
  5
C7
330
70
100
AcDbEntity
  8
HON
 62
     9
420
 12632256
370
    25
100
AcDbLine
 10
230.4906586196033
 20
277.8206626519719
 30
0.0
 11
229.6218833028265
 21
269.961041647068
 31
0.0
  0
LINE
  5
C8
330
70
100
AcDbEntity
  8
HON
 62
     9
420
 12632256
370
    25
100
AcDbLine
 10
229.6218833028265
 20
269.961041647068
 30
0.0
 11
225.6798862847948
 21
276.3489828122939
 31
0.0
  0
LINE
  5
C9
330
70
100
AcDbEntity
  8
HON
 62
     9
420
 12632256
370
    25
100
AcDbLine
 10
225.6798862847948
 20
276.3489828122939
 30
0.0
 11
225.2663913868209
 21
268.6043742735031
 31
0.0
  0
LINE
  5
CA
330
70
100
AcDbEntity
  8
HON
 62
     9
420
 12632256
370
    25
100
AcDbLine
 10
225.2663913868209
 20
268.6043742735031
 30
0.0
 11
221.6109176443862
 21
274.7788429611689
 31
0.0
  0
LINE
  5
CB
330
70
100
AcDbEntity
  8
HON
 62
     9
420
 12632256
370
    25
100
AcDbLine
 10
221.6109176443862
 20
274.7788429611689
 30
0.0
 11
221.8181370944213
 21
267.0955175109141
 31
0.0
  0
LINE
  5
CC
330
70
100
AcDbEntity
  8
HON
 62
     9
420
 12632256
370
    25
100
AcDbLine
 10
221.8181370944213
 20
267.0955175109141
 30
0.0
 11
218.3025858773222
 21
273.0692903428129
 31
0.0
  0
LINE
  5
CD
330
70
100
AcDbEntity
  8
HON
 62
     9
420
 12632256
370
    25
100
AcDbLine
 10
218.3025858773222
 20
273.0692903428129
 30
0.0
 11
219.3524692439245
 21
265.6352348043123
 31
0.0
  0
LINE
  5
CE
330
70
100
AcDbEntity
  8
HON
 62
     9
420
 12632256
370
    25
100
AcDbLine
 10
219.3524692439245
 20
265.6352348043123
 30
0.0
 11
216.4118087132171
 21
271.6601313870626
 31
0.0
  0
LINE
  5
CF
330
70
100
AcDbEntity
  8
HON
 62
     9
420
 12632256
370
    25
100
AcDbLine
 10
216.4118087132171
 20
271.6601313870626
 30
0.0
 11
217.8615906210461
 21
264.3467680334591
 31
0.0
  0
LINE
  5
D0
330
70
100
AcDbEntity
  8
HON
 62
     9
420
 12632256
370
    25
100
AcDbLine
 10
217.8615906210461
 20
264.3467680334591
 30
0.0
 11
215.396046377678
 21
270.481012908732
 31
0.0
  0
LINE
  5
D1
330
70
100
AcDbEntity
  8
HON
 62
     9
420
 12632256
370
    25
100
AcDbLine
 10
215.396046377678
 20
270.481012908732
 30
0.0
 11
216.8297973925616
 21
262.8543289985233
 31
0.0
  0
LINE
  5
D2
330
70
100
AcDbEntity
  8
HON
 62
     9
420
 12632256
370
    25
100
AcDbLine
 10
216.8297973925616
 20
262.8543289985233
 30
0.0
 11
214.6219612720802
 21
268.5357493422154
 31
0.0
  0
LINE
  5
D3
330
70
100
AcDbEntity
  8
HON
 62
     9
420
 12632256
370
    25
100
AcDbLine
 10
214.6219612720802
 20
268.5357493422154
 30
0.0
 11
216.6171748354203
 21
261.3427937948828
 31
0.0
  0
LINE
  5
D4
330
70
100
AcDbEntity
  8
HON
 62
     9
420
 12632256
370
    25
100
AcDbLine
 10
338.4310133697606
 20
287.6129861453896
 30
0.0
 11
333.2082193775474
 21
296.8039539634215
 31
0.0
  0
LINE
  5
D5
330
70
100
AcDbEntity
  8
HON
 62
     9
420
 12632256
370
    25
100
AcDbLine
 10
333.2082193775474
 20
296.8039539634215
 30
0.0
 11
328.4873898131842
 21
287.5847022941658
 31
0.0
  0
LINE
  5
D6
330
70
100
AcDbEntity
  8
HON
 62
     9
420
 12632256
370
    25
100
AcDbLine
 10
328.4873898131842
 20
287.5847022941658
 30
0.0
 11
323.4155570182459
 21
296.61697938801
 31
0.0
  0
LINE
  5
D7
330
70
100
AcDbEntity
  8
HON
 62
     9
420
 12632256
370
    25
100
AcDbLine
 10
323.4155570182459
 20
296.61697938801
 30
0.0
 11
318.559099406507
 21
287.3030862670399
 31
0.0
  0
LINE
  5
D8
330
70
100
AcDbEntity
  8
HON
 62
     9
420
 12632256
370
    25
100
AcDbLine
 10
318.559099406507
 20
287.3030862670399
 30
0.0
 11
313.6497888989865
 21
296.4644198860037
 31
0.0
  0
LINE
  5
D9
330
70
100
AcDbEntity
  8
HON
 62
     9
420
 12632256
370
    25
100
AcDbLine
 10
313.6497888989865
 20
296.4644198860037
 30
0.0
 11
308.8454844226705
 21
287.0568496675761
 31
0.0
  0
LINE
  5
DA
330
70
100
AcDbEntity
  8
HON
 62
     9
420
 12632256
370
    25
100
AcDbLine
 10
308.8454844226705
 20
287.0568496675761
 30
0.0
 11
303.9002684245847
 21
296.0434647813715
 31
0.0
  0
LINE
  5
DB
330
70
100
AcDbEntity
  8
HON
 62
     9
420
 12632256
370
    25
100
AcDbLine
 10
303.9002684245847
 20
296.0434647813715
 30
0.0
 11
299.2490272759504
 21
287.0134949156645
 31
0.0
  0
LINE
  5
DC
330
70
100
AcDbEntity
  8
HON
 62
     9
420
 12632256
370
    25
100
AcDbLine
 10
299.2490272759504
 20
287.0134949156645
 30
0.0
 11
294.1612566533822
 21
295.5768270997935
 31
0.0
  0
LINE
  5
DD
330
70
100
AcDbEntity
  8
HON
 62
     9
420
 12632256
370
    25
100
AcDbLine
 10
294.1612566533822
 20
295.5768270997935
 30
0.0
 11
289.9348923063718
 21
286.0790622049056
 31
0.0
  0
LINE
  5
DE
330
70
100
AcDbEntity
  8
HON
 62
     9
420
 12632256
370
    25
100
AcDbLine
 10
289.9348923063718
 20
286.0790622049056
 30
0.0
 11
285.2772482279879
 21
294.8802772714364
 31
0.0
  0
LINE
  5
DF
330
70
100
AcDbEntity
  8
HON
 62
     9
420
 12632256
370
    25
100
AcDbLine
 10
285.2772482279879
 20
294.8802772714364
 30
0.0
 11
280.9010506349732
 21
285.4147509608825
 31
0.0
  0
LINE
  5
E0
330
70
100
AcDbEntity
  8
HON
 62
     9
420
 12632256
370
    25
100
AcDbLine
 10
280.9010506349732
 20
285.4147509608825
 30
0.0
 11
276.7550555433262
 21
294.2295385977683
 31
0.0
  0
LINE
  5
E1
330
70
100
AcDbEntity
  8
HON
 62
     9
420
 12632256
370
    25
100
AcDbLine
 10
276.7550555433262
 20
294.2295385977683
 30
0.0
 11
272.452569228749
 21
284.4332031483536
 31
0.0
  0
LINE
  5
E2
330
70
100
AcDbEntity
  8
HON
 62
     9
420
 12632256
370
    25
100
AcDbLine
 10
272.452569228749
 20
284.4332031483536
 30
0.0
 11
268.292438076605
 21
293.2673854797873
 31
0.0
  0
LINE
  5
E3
330
70
100
AcDbEntity
  8
HON
 62
     9
420
 12632256
370
    25
100
AcDbLine
 10
268.292438076605
 20
293.2673854797873
 30
0.0
 11
263.9563978614542
 21
283.7517863591626
 31
0.0
  0
LINE
  5
E4
330
70
100
AcDbEntity
  8
HON
 62
     9
420
 12632256
370
    25
100
AcDbLine
 10
263.9563978614542
 20
283.7517863591626
 30
0.0
 11
260.0021046574181
 21
292.2678794163248
 31
0.0
  0
LINE
  5
E5
330
70
100
AcDbEntity
  8
HON
 62
     9
420
 12632256
370
    25
100
AcDbLine
 10
260.0021046574181
 20
292.2678794163248
 30
0.0
 11
256.1511988079314
 21
282.7608502133913
 31
0.0
  0
LINE
  5
E6
330
70
100
AcDbEntity
  8
HON
 62
     9
420
 12632256
370
    25
100
AcDbLine
 10
256.1511988079314
 20
282.7608502133913
 30
0.0
 11
252.4426347604638
 21
291.1903098937862
 31
0.0
  0
LINE
  5
E7
330
70
100
AcDbEntity
  8
HON
 62
     9
420
 12632256
370
    25
100
AcDbLine
 10
252.4426347604638
 20
291.1903098937862
 30
0.0
 11
248.8570147909111
 21
281.6689979761683
 31
0.0
  0
LINE
  5
E8
330
70
100
AcDbEntity
  8
HON
 62
     9
420
 12632256
370
    25
100
AcDbLine
 10
248.8570147909111
 20
281.6689979761683
 30
0.0
 11
245.4121564968515
 21
290.0401329603574
 31
0.0
  0
LINE
  5
E9
330
70
100
AcDbEntity
  8
HON
 62
     9
420
 12632256
370
    25
100
AcDbLine
 10
245.4121564968515
 20
290.0401329603574
 30
0.0
 11
242.1201403128095
 21
280.4800082231286
 31
0.0
  0
LINE
  5
EA
330
70
100
AcDbEntity
  8
HON
 62
     9
420
 12632256
370
    25
100
AcDbLine
 10
242.1201403128095
 20
280.4800082231286
 30
0.0
 11
238.837495571382
 21
288.63541039294
 31
0.0
  0
LINE
  5
EB
330
70
100
AcDbEntity
  8
HON
 62
     9
420
 12632256
370
    25
100
AcDbLine
 10
238.837495571382
 20
288.63541039294
 30
0.0
 11
235.9842323393765
 21
279.1968436735723
 31
0.0
  0
LINE
  5
EC
330
70
100
AcDbEntity
  8
HON
 62
     9
420
 12632256
370
    25
100
AcDbLine
 10
235.9842323393765
 20
279.1968436735723
 30
0.0
 11
232.9905644647993
 21
287.3051838684237
 31
0.0
  0
LINE
  5
ED
330
70
100
AcDbEntity
  8
HON
 62
     9
420
 12632256
370
    25
100
AcDbLine
 10
232.9905644647993
 20
287.3051838684237
 30
0.0
 11
230.4906586196033
 21
277.8206626519719
 31
0.0
  0
LINE
  5
EE
330
70
100
AcDbEntity
  8
HON
 62
     9
420
 12632256
370
    25
100
AcDbLine
 10
230.4906586196033
 20
277.8206626519719
 30
0.0
 11
227.9478258680822
 21
285.7609123754701
 31
0.0
  0
LINE
  5
EF
330
70
100
AcDbEntity
  8
HON
 62
     9
420
 12632256
370
    25
100
AcDbLine
 10
227.9478258680822
 20
285.7609123754701
 30
0.0
 11
225.6798862847948
 21
276.3489828122939
 31
0.0
  0
LINE
  5
F0
330
70
100
AcDbEntity
  8
HON
 62
     9
420
 12632256
370
    25
100
AcDbLine
 10
225.6798862847948
 20
276.3489828122939
 30
0.0
 11
223.7119429871063
 21
284.2460196036476
 31
0.0
  0
LINE
  5
F1
330
70
100
AcDbEntity
  8
HON
 62
     9
420
 12632256
370
    25
100
AcDbLine
 10
223.7119429871063
 20
284.2460196036476
 30
0.0
 11
221.6109176443862
 21
274.7788429611689
 31
0.0
  0
LINE
  5
F2
330
70
100
AcDbEntity
  8
HON
 62
     9
420
 12632256
370
    25
100
AcDbLine
 10
221.6109176443862
 20
274.7788429611689
 30
0.0
 11
219.8637963836995
 21
282.4799732854337
 31
0.0
  0
LINE
  5
F3
330
70
100
AcDbEntity
  8
HON
 62
     9
420
 12632256
370
    25
100
AcDbLine
 10
219.8637963836995
 20
282.4799732854337
 30
0.0
 11
218.3025858773222
 21
273.0692903428129
 31
0.0
  0
LINE
  5
F4
330
70
100
AcDbEntity
  8
HON
 62
     9
420
 12632256
370
    25
100
AcDbLine
 10
218.3025858773222
 20
273.0692903428129
 30
0.0
 11
217.9044963380718
 21
281.0042875716851
 31
0.0
  0
LINE
  5
F5
330
70
100
AcDbEntity
  8
HON
 62
     9
420
 12632256
370
    25
100
AcDbLine
 10
217.9044963380718
 20
281.0042875716851
 30
0.0
 11
216.4118087132171
 21
271.6601313870626
 31
0.0
  0
LINE
  5
F6
330
70
100
AcDbEntity
  8
HON
 62
     9
420
 12632256
370
    25
100
AcDbLine
 10
216.4118087132171
 20
271.6601313870626
 30
0.0
 11
216.5810703641612
 21
280.0215693488971
 31
0.0
  0
LINE
  5
F7
330
70
100
AcDbEntity
  8
HON
 62
     9
420
 12632256
370
    25
100
AcDbLine
 10
216.5810703641612
 20
280.0215693488971
 30
0.0
 11
215.396046377678
 21
270.481012908732
 31
0.0
  0
LINE
  5
F8
330
70
100
AcDbEntity
  8
HON
 62
     9
420
 12632256
370
    25
100
AcDbLine
 10
215.396046377678
 20
270.481012908732
 30
0.0
 11
215.9212377817886
 21
279.2162165451586
 31
0.0
  0
LINE
  5
F9
330
70
100
AcDbEntity
  8
HON
 62
     9
420
 12632256
370
    25
100
AcDbLine
 10
215.9212377817886
 20
279.2162165451586
 30
0.0
 11
214.6219612720802
 21
268.5357493422154
 31
0.0
  0
LINE
  5
FA
330
70
100
AcDbEntity
  8
HON
 62
     9
420
 12632256
370
    25
100
AcDbLine
 10
332.3895224411824
 20
280.3680313379691
 30
0.0
 11
329.9264115724457
 21
263.2655815117143
 31
0.0
  0
LINE
  5
FB
330
70
100
AcDbEntity
  8
HON
 62
     9
420
 12632256
370
    25
100
AcDbLine
 10
321.8022558825623
 20
280.4209594720583
 30
0.0
 11
329.9264115724457
 21
263.2655815117143
 31
0.0
  0
LINE
  5
FC
330
70
100
AcDbEntity
  8
HON
 62
     9
420
 12632256
370
    25
100
AcDbLine
 10
332.3895224411824
 20
280.3680313379691
 30
0.0
 11
338.4310133697606
 21
263.6019073001463
 31
0.0
  0
LINE
  5
FD
330
70
100
AcDbEntity
  8
HON
 62
     9
420
 12632256
370
    25
100
AcDbLine
 10
321.8022558825623
 20
280.4209594720583
 30
0.0
 11
321.5044417330755
 21
263.1801389592047
 31
0.0
  0
LINE
  5
FE
330
70
100
AcDbEntity
  8
HON
 62
     9
420
 12632256
370
    25
100
AcDbLine
 10
313.1183912623488
 20
262.9789763434301
 30
0.0
 11
312.5085779887746
 21
278.7127528325549
 31
0.0
  0
LINE
  5
FF
330
70
100
AcDbEntity
  8
HON
 62
     9
420
 12632256
370
    25
100
AcDbLine
 10
312.5085779887746
 20
278.7127528325549
 30
0.0
 11
321.5044417330755
 21
263.1801389592047
 31
0.0
  0
LINE
  5
100
330
70
100
AcDbEntity
  8
HON
 62
     9
420
 12632256
370
    25
100
AcDbLine
 10
303.1160083990613
 20
279.4663170302873
 30
0.0
 11
305.3371392551911
 21
262.309513986001
 31
0.0
  0
LINE
  5
101
330
70
100
AcDbEntity
  8
HON
 62
     9
420
 12632256
370
    25
100
AcDbLine
 10
303.1160083990613
 20
279.4663170302873
 30
0.0
 11
313.1183912623488
 21
262.9789763434301
 31
0.0
  0
LINE
  5
102
330
70
100
AcDbEntity
  8
HON
 62
     9
420
 12632256
370
    25
100
AcDbLine
 10
293.468738594964
 20
278.9687674026453
 30
0.0
 11
305.3371392551911
 21
262.309513986001
 31
0.0
  0
LINE
  5
103
330
70
100
AcDbEntity
  8
HON
 62
     9
420
 12632256
370
    25
100
AcDbLine
 10
293.468738594964
 20
278.9687674026453
 30
0.0
 11
297.6244672464818
 21
261.7133357944467
 31
0.0
  0
LINE
  5
104
330
70
100
AcDbEntity
  8
HON
 62
     9
420
 12632256
370
    25
100
AcDbLine
 10
285.1538867526782
 20
278.401758084298
 30
0.0
 11
297.6244672464818
 21
261.7133357944467
 31
0.0
  0
LINE
  5
105
330
70
100
AcDbEntity
  8
HON
 62
     9
420
 12632256
370
    25
100
AcDbLine
 10
285.1538867526782
 20
278.401758084298
 30
0.0
 11
290.3100229660034
 21
261.2378202076676
 31
0.0
  0
LINE
  5
106
330
70
100
AcDbEntity
  8
HON
 62
     9
420
 12632256
370
    25
100
AcDbLine
 10
275.9928411047009
 20
277.6803006317857
 30
0.0
 11
290.3100229660034
 21
261.2378202076676
 31
0.0
  0
LINE
  5
107
330
70
100
AcDbEntity
  8
HON
 62
     9
420
 12632256
370
    25
100
AcDbLine
 10
275.9928411047009
 20
277.6803006317857
 30
0.0
 11
282.4514748400733
 21
260.051969112886
 31
0.0
  0
LINE
  5
108
330
70
100
AcDbEntity
  8
HON
 62
     9
420
 12632256
370
    25
100
AcDbLine
 10
267.0574161585415
 20
276.7745966280339
 30
0.0
 11
282.4514748400733
 21
260.051969112886
 31
0.0
  0
LINE
  5
109
330
70
100
AcDbEntity
  8
HON
 62
     9
420
 12632256
370
    25
100
AcDbLine
 10
267.0574161585415
 20
276.7745966280339
 30
0.0
 11
275.2524180992592
 21
259.1351431646679
 31
0.0
  0
LINE
  5
10A
330
70
100
AcDbEntity
  8
HON
 62
     9
420
 12632256
370
    25
100
AcDbLine
 10
259.1076166978323
 20
275.7866322050211
 30
0.0
 11
275.2524180992592
 21
259.1351431646679
 31
0.0
  0
LINE
  5
10B
330
70
100
AcDbEntity
  8
HON
 62
     9
420
 12632256
370
    25
100
AcDbLine
 10
259.1076166978323
 20
275.7866322050211
 30
0.0
 11
268.8770220071028
 21
258.0961856756804
 31
0.0
  0
LINE
  5
10C
330
70
100
AcDbEntity
  8
HON
 62
     9
420
 12632256
370
    25
100
AcDbLine
 10
252.0786480500693
 20
274.8410570796884
 30
0.0
 11
268.8770220071028
 21
258.0961856756804
 31
0.0
  0
LINE
  5
10D
330
70
100
AcDbEntity
  8
HON
 62
     9
420
 12632256
370
    25
100
AcDbLine
 10
252.0786480500693
 20
274.8410570796884
 30
0.0
 11
263.2840097203007
 21
257.0249115933702
 31
0.0
  0
LINE
  5
10E
330
70
100
AcDbEntity
  8
HON
 62
     9
420
 12632256
370
    25
100
AcDbLine
 10
245.6982800706853
 20
273.7704125414674
 30
0.0
 11
263.2840097203007
 21
257.0249115933702
 31
0.0
  0
LINE
  5
10F
330
70
100
AcDbEntity
  8
HON
 62
     9
420
 12632256
370
    25
100
AcDbLine
 10
245.6982800706853
 20
273.7704125414674
 30
0.0
 11
258.4532118721165
 21
256.015752521534
 31
0.0
  0
LINE
  5
110
330
70
100
AcDbEntity
  8
HON
 62
     9
420
 12632256
370
    25
100
AcDbLine
 10
239.974954041314
 20
272.5814137264972
 30
0.0
 11
258.4532118721165
 21
256.015752521534
 31
0.0
  0
LINE
  5
111
330
70
100
AcDbEntity
  8
HON
 62
     9
420
 12632256
370
    25
100
AcDbLine
 10
253.9859316792417
 20
254.6760828366402
 30
0.0
 11
239.974954041314
 21
272.5814137264972
 31
0.0
  0
LINE
  5
112
330
70
100
AcDbEntity
  8
HON
 62
     9
420
 12632256
370
    25
100
AcDbLine
 10
234.2626417310393
 20
271.3013408760144
 30
0.0
 11
253.9859316792417
 21
254.6760828366402
 31
0.0
  0
LINE
  5
113
330
70
100
AcDbEntity
  8
HON
 62
     9
420
 12632256
370
    25
100
AcDbLine
 10
234.2626417310393
 20
271.3013408760144
 30
0.0
 11
250.0050615619792
 21
253.3962198341181
 31
0.0
  0
LINE
  5
114
330
70
100
AcDbEntity
  8
HON
 62
     9
420
 12632256
370
    25
100
AcDbLine
 10
229.6218833028265
 20
269.961041647068
 30
0.0
 11
246.9852852199577
 21
252.0506744050159
 31
0.0
  0
LINE
  5
115
330
70
100
AcDbEntity
  8
HON
 62
     9
420
 12632256
370
    25
100
AcDbLine
 10
229.6218833028265
 20
269.961041647068
 30
0.0
 11
250.0050615619792
 21
253.3962198341181
 31
0.0
  0
LINE
  5
116
330
70
100
AcDbEntity
  8
HON
 62
     9
420
 12632256
370
    25
100
AcDbLine
 10
225.2663913868209
 20
268.6043742735031
 30
0.0
 11
246.9852852199577
 21
252.0506744050159
 31
0.0
  0
LINE
  5
117
330
70
100
AcDbEntity
  8
HON
 62
     9
420
 12632256
370
    25
100
AcDbLine
 10
225.2663913868209
 20
268.6043742735031
 30
0.0
 11
244.5992022357881
 21
250.6965252075471
 31
0.0
  0
LINE
  5
118
330
70
100
AcDbEntity
  8
HON
 62
     9
420
 12632256
370
    25
100
AcDbLine
 10
244.5992022357881
 20
250.6965252075471
 30
0.0
 11
221.8181370944213
 21
267.0955175109141
 31
0.0
  0
LINE
  5
119
330
70
100
AcDbEntity
  8
HON
 62
     9
420
 12632256
370
    25
100
AcDbLine
 10
221.8181370944213
 20
267.0955175109141
 30
0.0
 11
242.5921157232845
 21
249.2332550457917
 31
0.0
  0
LINE
  5
11A
330
70
100
AcDbEntity
  8
HON
 62
     9
420
 12632256
370
    25
100
AcDbLine
 10
242.5921157232845
 20
249.2332550457917
 30
0.0
 11
219.3524692439245
 21
265.6352348043123
 31
0.0
  0
LINE
  5
11B
330
70
100
AcDbEntity
  8
HON
 62
     9
420
 12632256
370
    25
100
AcDbLine
 10
219.3524692439245
 20
265.6352348043123
 30
0.0
 11
241.5498754262949
 21
247.4640264879714
 31
0.0
  0
LINE
  5
11C
330
70
100
AcDbEntity
  8
HON
 62
     9
420
 12632256
370
    25
100
AcDbLine
 10
241.5498754262949
 20
247.4640264879714
 30
0.0
 11
217.8615906210461
 21
264.3467680334591
 31
0.0
  0
LINE
  5
11D
330
70
100
AcDbEntity
  8
HON
 62
     9
420
 12632256
370
    25
100
AcDbLine
 10
217.8615906210461
 20
264.3467680334591
 30
0.0
 11
241.1493024228818
 21
246.0981258020591
 31
0.0
  0
LINE
  5
11E
330
70
100
AcDbEntity
  8
HON
 62
     9
420
 12632256
370
    25
100
AcDbLine
 10
241.1493024228818
 20
246.0981258020591
 30
0.0
 11
216.8297973925616
 21
262.8543289985233
 31
0.0
  0
LINE
  5
11F
330
70
100
AcDbEntity
  8
HON
 62
     9
420
 12632256
370
    25
100
AcDbLine
 10
216.8297973925616
 20
262.8543289985233
 30
0.0
 11
241.89744521032
 21
244.4245879359959
 31
0.0
  0
LINE
  5
120
330
70
100
AcDbEntity
  8
HON
 62
     9
420
 12632256
370
    25
100
AcDbLine
 10
241.89744521032
 20
244.4245879359959
 30
0.0
 11
216.6171748354203
 21
261.3427937948828
 31
0.0
  0
LINE
  5
121
330
70
100
AcDbEntity
  8
HON
 62
     9
420
 12632256
370
    25
100
AcDbLine
 10
338.4310133697606
 20
263.6019073001463
 30
0.0
 11
337.044982873364
 21
189.8674420094013
 31
0.0
  0
LINE
  5
122
330
70
100
AcDbEntity
  8
HON
 62
     9
420
 12632256
370
    25
100
AcDbLine
 10
337.044982873364
 20
189.8674420094013
 30
0.0
 11
329.9264115724457
 21
263.2655815117143
 31
0.0
  0
LINE
  5
123
330
70
100
AcDbEntity
  8
HON
 62
     9
420
 12632256
370
    25
100
AcDbLine
 10
329.9264115724457
 20
263.2655815117143
 30
0.0
 11
335.2795827731323
 21
189.8180112109168
 31
0.0
  0
LINE
  5
124
330
70
100
AcDbEntity
  8
HON
 62
     9
420
 12632256
370
    25
100
AcDbLine
 10
335.2795827731323
 20
189.8180112109168
 30
0.0
 11
321.5044417330755
 21
263.1801389592047
 31
0.0
  0
LINE
  5
125
330
70
100
AcDbEntity
  8
HON
 62
     9
420
 12632256
370
    25
100
AcDbLine
 10
321.5044417330755
 20
263.1801389592047
 30
0.0
 11
333.4931881420875
 21
189.727399221299
 31
0.0
  0
LINE
  5
126
330
70
100
AcDbEntity
  8
HON
 62
     9
420
 12632256
370
    25
100
AcDbLine
 10
333.4931881420875
 20
189.727399221299
 30
0.0
 11
313.1183912623488
 21
262.9789763434301
 31
0.0
  0
LINE
  5
127
330
70
100
AcDbEntity
  8
HON
 62
     9
420
 12632256
370
    25
100
AcDbLine
 10
313.1183912623488
 20
262.9789763434301
 30
0.0
 11
331.6543273635869
 21
189.5886550068746
 31
0.0
  0
LINE
  5
128
330
70
100
AcDbEntity
  8
HON
 62
     9
420
 12632256
370
    25
100
AcDbLine
 10
331.6543273635869
 20
189.5886550068746
 30
0.0
 11
305.3371392551911
 21
262.309513986001
 31
0.0
  0
LINE
  5
129
330
70
100
AcDbEntity
  8
HON
 62
     9
420
 12632256
370
    25
100
AcDbLine
 10
305.3371392551911
 20
262.309513986001
 30
0.0
 11
329.8977515728986
 21
189.4086440277416
 31
0.0
  0
LINE
  5
12A
330
70
100
AcDbEntity
  8
HON
 62
     9
420
 12632256
370
    25
100
AcDbLine
 10
329.8977515728986
 20
189.4086440277416
 30
0.0
 11
297.6244672464818
 21
261.7133357944467
 31
0.0
  0
LINE
  5
12B
330
70
100
AcDbEntity
  8
HON
 62
     9
420
 12632256
370
    25
100
AcDbLine
 10
297.6244672464818
 20
261.7133357944467
 30
0.0
 11
328.2444437773808
 21
189.1908110927223
 31
0.0
  0
LINE
  5
12C
330
70
100
AcDbEntity
  8
HON
 62
     9
420
 12632256
370
    25
100
AcDbLine
 10
328.2444437773808
 20
189.1908110927223
 30
0.0
 11
290.3100229660034
 21
261.2378202076676
 31
0.0
  0
LINE
  5
12D
330
70
100
AcDbEntity
  8
HON
 62
     9
420
 12632256
370
    25
100
AcDbLine
 10
290.3100229660034
 20
261.2378202076676
 30
0.0
 11
326.7124820692264
 21
188.9393446447016
 31
0.0
  0
LINE
  5
12E
330
70
100
AcDbEntity
  8
HON
 62
     9
420
 12632256
370
    25
100
AcDbLine
 10
326.7124820692264
 20
188.9393446447016
 30
0.0
 11
282.4514748400733
 21
260.051969112886
 31
0.0
  0
LINE
  5
12F
330
70
100
AcDbEntity
  8
HON
 62
     9
420
 12632256
370
    25
100
AcDbLine
 10
282.4514748400733
 20
260.051969112886
 30
0.0
 11
325.3165321175582
 21
188.6590320210266
 31
0.0
  0
LINE
  5
130
330
70
100
AcDbEntity
  8
HON
 62
     9
420
 12632256
370
    25
100
AcDbLine
 10
325.3165321175582
 20
188.6590320210266
 30
0.0
 11
275.2524180992592
 21
259.1351431646679
 31
0.0
  0
LINE
  5
131
330
70
100
AcDbEntity
  8
HON
 62
     9
420
 12632256
370
    25
100
AcDbLine
 10
275.2524180992592
 20
259.1351431646679
 30
0.0
 11
324.0675866368632
 21
188.355121385548
 31
0.0
  0
LINE
  5
132
330
70
100
AcDbEntity
  8
HON
 62
     9
420
 12632256
370
    25
100
AcDbLine
 10
324.0675866368632
 20
188.355121385548
 30
0.0
 11
268.8770220071028
 21
258.0961856756804
 31
0.0
  0
LINE
  5
133
330
70
100
AcDbEntity
  8
HON
 62
     9
420
 12632256
370
    25
100
AcDbLine
 10
268.8770220071028
 20
258.0961856756804
 30
0.0
 11
322.9728506507929
 21
188.0332003349873
 31
0.0
  0
LINE
  5
134
330
70
100
AcDbEntity
  8
HON
 62
     9
420
 12632256
370
    25
100
AcDbLine
 10
322.9728506507929
 20
188.0332003349873
 30
0.0
 11
263.2840097203007
 21
257.0249115933702
 31
0.0
  0
LINE
  5
135
330
70
100
AcDbEntity
  8
HON
 62
     9
420
 12632256
370
    25
100
AcDbLine
 10
263.2840097203007
 20
257.0249115933702
 30
0.0
 11
322.0357528785739
 21
187.6991120265684
 31
0.0
  0
LINE
  5
136
330
70
100
AcDbEntity
  8
HON
 62
     9
420
 12632256
370
    25
100
AcDbLine
 10
322.0357528785739
 20
187.6991120265684
 30
0.0
 11
258.4532118721165
 21
256.015752521534
 31
0.0
  0
LINE
  5
137
330
70
100
AcDbEntity
  8
HON
 62
     9
420
 12632256
370
    25
100
AcDbLine
 10
258.4532118721165
 20
256.015752521534
 30
0.0
 11
321.255999561034
 21
187.3589160400742
 31
0.0
  0
LINE
  5
138
330
70
100
AcDbEntity
  8
HON
 62
     9
420
 12632256
370
    25
100
AcDbLine
 10
321.255999561034
 20
187.3589160400742
 30
0.0
 11
253.9859316792417
 21
254.6760828366402
 31
0.0
  0
LINE
  5
139
330
70
100
AcDbEntity
  8
HON
 62
     9
420
 12632256
370
    25
100
AcDbLine
 10
253.9859316792417
 20
254.6760828366402
 30
0.0
 11
320.6298261172743
 21
187.0190330050687
 31
0.0
  0
LINE
  5
13A
330
70
100
AcDbEntity
  8
HON
 62
     9
420
 12632256
370
    25
100
AcDbLine
 10
320.6298261172743
 20
187.0190330050687
 30
0.0
 11
250.0050615619792
 21
253.3962198341181
 31
0.0
  0
LINE
  5
13B
330
70
100
AcDbEntity
  8
HON
 62
     9
420
 12632256
370
    25
100
AcDbLine
 10
250.0050615619792
 20
253.3962198341181
 30
0.0
 11
320.1498057736495
 21
186.6863865171153
 31
0.0
  0
LINE
  5
13C
330
70
100
AcDbEntity
  8
HON
 62
     9
420
 12632256
370
    25
100
AcDbLine
 10
320.1498057736495
 20
186.6863865171153
 30
0.0
 11
246.9852852199577
 21
252.0506744050159
 31
0.0
  0
LINE
  5
13D
330
70
100
AcDbEntity
  8
HON
 62
     9
420
 12632256
370
    25
100
AcDbLine
 10
246.9852852199577
 20
252.0506744050159
 30
0.0
 11
319.8191630257047
 21
186.3844171342997
 31
0.0
  0
LINE
  5
13E
330
70
100
AcDbEntity
  8
HON
 62
     9
420
 12632256
370
    25
100
AcDbLine
 10
319.8191630257047
 20
186.3844171342997
 30
0.0
 11
244.5992022357881
 21
250.6965252075471
 31
0.0
  0
LINE
  5
13F
330
70
100
AcDbEntity
  8
HON
 62
     9
420
 12632256
370
    25
100
AcDbLine
 10
244.5992022357881
 20
250.6965252075471
 30
0.0
 11
319.5979633770329
 21
186.1056841046133
 31
0.0
  0
LINE
  5
140
330
70
100
AcDbEntity
  8
HON
 62
     9
420
 12632256
370
    25
100
AcDbLine
 10
319.5979633770329
 20
186.1056841046133
 30
0.0
 11
242.5921157232845
 21
249.2332550457917
 31
0.0
  0
LINE
  5
141
330
70
100
AcDbEntity
  8
HON
 62
     9
420
 12632256
370
    25
100
AcDbLine
 10
242.5921157232845
 20
249.2332550457917
 30
0.0
 11
319.4269281784946
 21
185.7454272080289
 31
0.0
  0
LINE
  5
142
330
70
100
AcDbEntity
  8
HON
 62
     9
420
 12632256
370
    25
100
AcDbLine
 10
319.4269281784946
 20
185.7454272080289
 30
0.0
 11
241.5498754262949
 21
247.4640264879714
 31
0.0
  0
LINE
  5
143
330
70
100
AcDbEntity
  8
HON
 62
     9
420
 12632256
370
    25
100
AcDbLine
 10
241.5498754262949
 20
247.4640264879714
 30
0.0
 11
319.3828882543633
 21
185.3748874705842
 31
0.0
  0
LINE
  5
144
330
70
100
AcDbEntity
  8
HON
 62
     9
420
 12632256
370
    25
100
AcDbLine
 10
319.3828882543633
 20
185.3748874705842
 30
0.0
 11
241.1493024228818
 21
246.0981258020591
 31
0.0
  0
LINE
  5
145
330
70
100
AcDbEntity
  8
HON
 62
     9
420
 12632256
370
    25
100
AcDbLine
 10
241.1493024228818
 20
246.0981258020591
 30
0.0
 11
319.4842819417639
 21
184.9753136310684
 31
0.0
  0
LINE
  5
146
330
70
100
AcDbEntity
  8
HON
 62
     9
420
 12632256
370
    25
100
AcDbLine
 10
319.4842819417639
 20
184.9753136310684
 30
0.0
 11
241.89744521032
 21
244.4245879359959
 31
0.0
  0
LINE
  5
147
330
70
100
AcDbEntity
  8
HON
 62
     9
420
 12632256
370
    25
100
AcDbLine
 10
241.89744521032
 20
244.4245879359959
 30
0.0
 11
319.6998026323137
 21
184.6279727928495
 31
0.0
  0
LINE
  5
148
330
70
100
AcDbEntity
  8
HON
 62
     9
420
 12632256
370
    25
100
AcDbLine
 10
320.1626438865206
 20
184.1778568316232
 30
0.0
 11
243.7866589857291
 21
242.5112475976919
 31
0.0
  0
SPLINE
  5
149
330
70
100
AcDbEntity
  8
HON
 62
     9
420
 12632256
370
    25
100
AcDbSpline
210
0.0
220
0.0
230
1.0
 70
     8
 71
     3
 72
    14
 73
    10
 74
     0
 42
0.0000000001
 43
0.0000000001
 40
0.0
 40
0.0
 40
0.0
 40
0.0
 40
1.0
 40
1.0
 40
1.0
 40
2.0
 40
2.0
 40
2.0
 40
3.0
 40
3.0
 40
3.0
 40
3.0
 10
347.8572517284967
 20
185.9947840219837
 30
0.0
 10
348.9163248556746
 20
187.0378680115114
 30
0.0
 10
345.5546025939437
 20
188.0554761042398
 30
0.0
 10
340.3486349001433
 20
188.2676753124716
 30
0.0
 10
335.1426672063432
 20
188.4798745207034
 30
0.0
 10
330.0638481382017
 20
187.8063093211686
 30
0.0
 10
329.0047750110241
 20
186.763225331641
 30
0.0
 10
328.7447891710664
 20
186.5071645741681
 30
0.0
 10
328.7473893614199
 20
186.2431853360756
 30
0.0
 10
329.0124175434006
 20
185.9873321855563
 30
0.0
  0
LINE
  5
14A
330
70
100
AcDbEntity
  8
HON
 62
     9
420
 12632256
370
    25
100
AcDbLine
 10
337.044982873364
 20
189.8674420094013
 30
0.0
 11
337.6451923325328
 21
188.2999190206728
 31
0.0
  0
LINE
  5
14B
330
70
100
AcDbEntity
  8
HON
 62
     9
420
 12632256
370
    25
100
AcDbLine
 10
335.2795827731323
 20
189.8180112109168
 30
0.0
 11
336.1476004615405
 21
188.2512720910328
 31
0.0
  0
LINE
  5
14C
330
70
100
AcDbEntity
  8
HON
 62
     9
420
 12632256
370
    25
100
AcDbLine
 10
333.4931881420875
 20
189.727399221299
 30
0.0
 11
334.6427106674878
 21
188.150604614772
 31
0.0
  0
LINE
  5
14D
330
70
100
AcDbEntity
  8
HON
 62
     9
420
 12632256
370
    25
100
AcDbLine
 10
331.6543273635869
 20
189.5886550068746
 30
0.0
 11
332.9920252149269
 21
187.9686894715276
 31
0.0
  0
LINE
  5
14E
330
70
100
AcDbEntity
  8
HON
 62
     9
420
 12632256
370
    25
100
AcDbLine
 10
329.8977515728986
 20
189.4086440277416
 30
0.0
 11
331.4161414813658
 21
187.6977961829316
 31
0.0
  0
LINE
  5
14F
330
70
100
AcDbEntity
  8
HON
 62
     9
420
 12632256
370
    25
100
AcDbLine
 10
328.2444437773808
 20
189.1908110927223
 30
0.0
 11
330.1881148860911
 21
187.3724879748903
 31
0.0
  0
LINE
  5
150
330
70
100
AcDbEntity
  8
HON
 62
     9
420
 12632256
370
    25
100
AcDbLine
 10
326.7124820692264
 20
188.9393446447016
 30
0.0
 11
329.3684783809942
 21
187.0252092156445
 31
0.0
  0
LINE
  5
151
330
70
100
AcDbEntity
  8
HON
 62
     9
420
 12632256
370
    25
100
AcDbLine
 10
325.3165321175582
 20
188.6590320210266
 30
0.0
 11
328.8994709722147
 21
186.6387777333291
 31
0.0
  0
LINE
  5
152
330
70
100
AcDbEntity
  8
HON
 62
     9
420
 12632256
370
    25
100
AcDbLine
 10
324.0675866368632
 20
188.355121385548
 30
0.0
 11
328.8303573653851
 21
186.2590130513133
 31
0.0
  0
LINE
  5
153
330
70
100
AcDbEntity
  8
HON
 62
     9
420
 12632256
370
    25
100
AcDbLine
 10
322.9728506507929
 20
188.0332003349873
 30
0.0
 11
329.0436956086638
 21
185.9465628366528
 31
0.0
  0
LINE
  5
154
330
70
100
AcDbEntity
  8
HON
 62
     9
420
 12632256
370
    25
100
AcDbLine
 10
319.3828882543633
 20
185.3748874705842
 30
0.0
 11
329.5134099873907
 21
185.3748874705842
 31
0.0
  0
LINE
  5
155
330
70
100
AcDbEntity
  8
HON
 62
     9
420
 12632256
370
    25
100
AcDbLine
 10
322.0357528785739
 20
187.6991120265684
 30
0.0
 11
329.1392013764648
 21
185.8242966228512
 31
0.0
  0
LINE
  5
156
330
70
100
AcDbEntity
  8
HON
 62
     9
420
 12632256
370
    25
100
AcDbLine
 10
321.255999561034
 20
187.3589160400742
 30
0.0
 11
329.2557064893161
 21
185.6794900833071
 31
0.0
  0
LINE
  5
157
330
70
100
AcDbEntity
  8
HON
 62
     9
420
 12632256
370
    25
100
AcDbLine
 10
320.6298261172743
 20
187.0190330050687
 30
0.0
 11
329.3441316974793
 21
185.5726143299184
 31
0.0
  0
LINE
  5
158
330
70
100
AcDbEntity
  8
HON
 62
     9
420
 12632256
370
    25
100
AcDbLine
 10
320.1498057736495
 20
186.6863865171153
 30
0.0
 11
329.4150991532932
 21
185.4886480129417
 31
0.0
  0
LINE
  5
159
330
70
100
AcDbEntity
  8
HON
 62
     9
420
 12632256
370
    25
100
AcDbLine
 10
319.8191630257047
 20
186.3844171342997
 30
0.0
 11
329.4414425414
 21
185.4578776475029
 31
0.0
  0
LINE
  5
15A
330
70
100
AcDbEntity
  8
HON
 62
     9
420
 12632256
370
    25
100
AcDbLine
 10
319.5979633770329
 20
186.1056841046133
 30
0.0
 11
329.476386847073
 21
185.4173870685134
 31
0.0
  0
LINE
  5
15B
330
70
100
AcDbEntity
  8
HON
 62
     9
420
 12632256
370
    25
100
AcDbLine
 10
319.4269281784946
 20
185.7454272080289
 30
0.0
 11
329.4916740517032
 21
185.3997890995589
 31
0.0
  0
LINE
  5
15C
330
70
100
AcDbEntity
  8
HON
 62
     9
420
 12632256
370
    25
100
AcDbLine
 10
325.4757851397546
 20
182.180538368505
 30
0.0
 11
330.0766857393246
 21
184.7747744246032
 31
0.0
  0
LINE
  5
15D
330
70
100
AcDbEntity
  8
HON
 62
     9
420
 12632256
370
    25
100
AcDbLine
 10
324.2446345963348
 20
182.4725728434848
 30
0.0
 11
329.8950147405691
 21
184.9593204924908
 31
0.0
  0
LINE
  5
15E
330
70
100
AcDbEntity
  8
HON
 62
     9
420
 12632256
370
    25
100
AcDbLine
 10
323.1611745427696
 20
182.7813042603826
 30
0.0
 11
329.7971293919449
 21
185.0621782279487
 31
0.0
  0
LINE
  5
15F
330
70
100
AcDbEntity
  8
HON
 62
     9
420
 12632256
370
    25
100
AcDbLine
 10
322.2276745795892
 20
183.1013168697165
 30
0.0
 11
329.769371801074
 21
185.0917993973492
 31
0.0
  0
LINE
  5
160
330
70
100
AcDbEntity
  8
HON
 62
     9
420
 12632256
370
    25
100
AcDbLine
 10
321.4385743177524
 20
183.42918790342
 30
0.0
 11
329.7024398897583
 21
185.1640702521459
 31
0.0
  0
LINE
  5
161
330
70
100
AcDbEntity
  8
HON
 62
     9
420
 12632256
370
    25
100
AcDbLine
 10
320.7945073382908
 20
183.7580760697613
 30
0.0
 11
329.6449725353346
 21
185.2270948030352
 31
0.0
  0
LINE
  5
162
330
70
100
AcDbEntity
  8
HON
 62
     9
420
 12632256
370
    25
100
AcDbLine
 10
320.2899270235596
 20
184.0815021101922
 30
0.0
 11
329.5936103271651
 21
185.2842033379673
 31
0.0
  0
LINE
  5
163
330
70
100
AcDbEntity
  8
HON
 62
     9
420
 12632256
370
    25
100
AcDbLine
 10
319.9323615623171
 20
184.3762578138615
 30
0.0
 11
329.5752645421128
 21
185.3047831558598
 31
0.0
  0
LINE
  5
164
330
70
100
AcDbEntity
  8
HON
 62
     9
420
 12632256
370
    25
100
AcDbLine
 10
319.6825578317761
 20
184.6499851083114
 30
0.0
 11
329.5464770385923
 21
185.337271533617
 31
0.0
  0
LINE
  5
165
330
70
100
AcDbEntity
  8
HON
 62
     9
420
 12632256
370
    25
100
AcDbLine
 10
319.4710421933639
 20
185.0058626729916
 30
0.0
 11
329.5339897263786
 21
185.3514390238282
 31
0.0
  0
LINE
  5
166
330
70
100
AcDbEntity
  8
HON
 62
     9
420
 12632256
370
    25
100
AcDbLine
 10
333.5801240800026
 20
181.1416253343671
 30
0.0
 11
334.3158179013905
 21
182.1507730665777
 31
0.0
  0
LINE
  5
167
330
70
100
AcDbEntity
  8
HON
 62
     9
420
 12632256
370
    25
100
AcDbLine
 10
331.7502736976193
 20
181.2773119085983
 30
0.0
 11
332.9169496140854
 21
182.6901681628812
 31
0.0
  0
LINE
  5
168
330
70
100
AcDbEntity
  8
HON
 62
     9
420
 12632256
370
    25
100
AcDbLine
 10
329.9980466401162
 20
181.4541385135346
 30
0.0
 11
331.7300184276732
 21
183.4056400241145
 31
0.0
  0
LINE
  5
169
330
70
100
AcDbEntity
  8
HON
 62
     9
420
 12632256
370
    25
100
AcDbLine
 10
328.3596473527889
 20
181.6667379072758
 30
0.0
 11
330.8923629365395
 21
184.0361178276764
 31
0.0
  0
LINE
  5
16A
330
70
100
AcDbEntity
  8
HON
 62
     9
420
 12632256
370
    25
100
AcDbLine
 10
326.850831016556
 20
181.9101362412654
 30
0.0
 11
330.3984082026877
 21
184.4668202054781
 31
0.0
  0
LINE
  5
16B
330
70
100
AcDbEntity
  8
HON
 62
     9
420
 12632256
370
    25
100
AcDbLine
 10
461.360967916006
 20
278.4059054613758
 30
0.0
 11
462.2400654674409
 21
268.5357493422154
 31
0.0
  0
LINE
  5
16C
330
70
100
AcDbEntity
  8
HON
 62
     9
420
 12632256
370
    25
100
AcDbLine
 10
460.338817908271
 20
261.3427900409829
 30
0.0
 11
432.547932357968
 21
242.1283927067534
 31
0.0
  0
LINE
  5
16D
330
70
100
AcDbEntity
  8
HON
 62
     9
420
 12632256
370
    25
100
AcDbLine
 10
338.4310133697606
 20
299.1398084044357
 30
0.0
 11
343.6538073619737
 21
296.8039539634215
 31
0.0
  0
LINE
  5
16E
330
70
100
AcDbEntity
  8
HON
 62
     9
420
 12632256
370
    25
100
AcDbLine
 10
343.6538073619737
 20
296.8039539634215
 30
0.0
 11
348.4136721099379
 21
299.0741286891342
 31
0.0
  0
LINE
  5
16F
330
70
100
AcDbEntity
  8
HON
 62
     9
420
 12632256
370
    25
100
AcDbLine
 10
348.4136721099379
 20
299.0741286891342
 30
0.0
 11
353.4464697212753
 21
296.61697938801
 31
0.0
  0
LINE
  5
170
330
70
100
AcDbEntity
  8
HON
 62
     9
420
 12632256
370
    25
100
AcDbLine
 10
353.4464697212753
 20
296.61697938801
 30
0.0
 11
358.3348602495289
 21
298.8774157432194
 31
0.0
  0
LINE
  5
171
330
70
100
AcDbEntity
  8
HON
 62
     9
420
 12632256
370
    25
100
AcDbLine
 10
358.3348602495289
 20
298.8774157432194
 30
0.0
 11
363.2122378405347
 21
296.4644198860037
 31
0.0
  0
LINE
  5
172
330
70
100
AcDbEntity
  8
HON
 62
     9
420
 12632256
370
    25
100
AcDbLine
 10
363.2122378405347
 20
296.4644198860037
 30
0.0
 11
368.1335014294058
 21
298.5506396132661
 31
0.0
  0
LINE
  5
173
330
70
100
AcDbEntity
  8
HON
 62
     9
420
 12632256
370
    25
100
AcDbLine
 10
368.1335014294058
 20
298.5506396132661
 30
0.0
 11
372.9617583149365
 21
296.0434647813715
 31
0.0
  0
LINE
  5
174
330
70
100
AcDbEntity
  8
HON
 62
     9
420
 12632256
370
    25
100
AcDbLine
 10
372.9617583149365
 20
296.0434647813715
 30
0.0
 11
377.7492766112942
 21
298.0953891417977
 31
0.0
  0
LINE
  5
175
330
70
100
AcDbEntity
  8
HON
 62
     9
420
 12632256
370
    25
100
AcDbLine
 10
377.7492766112942
 20
298.0953891417977
 30
0.0
 11
382.700770086139
 21
295.5768270997935
 31
0.0
  0
LINE
  5
176
330
70
100
AcDbEntity
  8
HON
 62
     9
420
 12632256
370
    25
100
AcDbLine
 10
382.700770086139
 20
295.5768270997935
 30
0.0
 11
387.1230068703339
 21
297.5138266052996
 31
0.0
  0
LINE
  5
177
330
70
100
AcDbEntity
  8
HON
 62
     9
420
 12632256
370
    25
100
AcDbLine
 10
387.1230068703339
 20
297.5138266052996
 30
0.0
 11
391.5847785115333
 21
294.8802772714364
 31
0.0
  0
LINE
  5
178
330
70
100
AcDbEntity
  8
HON
 62
     9
420
 12632256
370
    25
100
AcDbLine
 10
391.5847785115333
 20
294.8802772714364
 30
0.0
 11
396.1970250991602
 21
296.8086161244276
 31
0.0
  0
LINE
  5
179
330
70
100
AcDbEntity
  8
HON
 62
     9
420
 12632256
370
    25
100
AcDbLine
 10
396.1970250991602
 20
296.8086161244276
 30
0.0
 11
400.1069711961949
 21
294.2295385977683
 31
0.0
  0
LINE
  5
17A
330
70
100
AcDbEntity
  8
HON
 62
     9
420
 12632256
370
    25
100
AcDbLine
 10
400.1069711961949
 20
294.2295385977683
 30
0.0
 11
404.915541480789
 21
295.9828147721323
 31
0.0
  0
LINE
  5
17B
330
70
100
AcDbEntity
  8
HON
 62
     9
420
 12632256
370
    25
100
AcDbLine
 10
404.915541480789
 20
295.9828147721323
 30
0.0
 11
408.5695886629158
 21
293.2673854797873
 31
0.0
  0
LINE
  5
17C
330
70
100
AcDbEntity
  8
HON
 62
     9
420
 12632256
370
    25
100
AcDbLine
 10
408.5695886629158
 20
293.2673854797873
 30
0.0
 11
413.2250027897159
 21
295.0397062316665
 31
0.0
  0
LINE
  5
17D
330
70
100
AcDbEntity
  8
HON
 62
     9
420
 12632256
370
    25
100
AcDbLine
 10
413.2250027897159
 20
295.0397062316665
 30
0.0
 11
416.859922082103
 21
292.2678794163248
 31
0.0
  0
LINE
  5
17E
330
70
100
AcDbEntity
  8
HON
 62
     9
420
 12632256
370
    25
100
AcDbLine
 10
416.859922082103
 20
292.2678794163248
 30
0.0
 11
421.0744516601107
 21
293.9825386070364
 31
0.0
  0
LINE
  5
17F
330
70
100
AcDbEntity
  8
HON
 62
     9
420
 12632256
370
    25
100
AcDbLine
 10
421.0744516601107
 20
293.9825386070364
 30
0.0
 11
424.4193919790571
 21
291.1903098937862
 31
0.0
  0
LINE
  5
180
330
70
100
AcDbEntity
  8
HON
 62
     9
420
 12632256
370
    25
100
AcDbLine
 10
424.4193919790571
 20
291.1903098937862
 30
0.0
 11
428.415864296074
 21
292.8140958090462
 31
0.0
  0
LINE
  5
181
330
70
100
AcDbEntity
  8
HON
 62
     9
420
 12632256
370
    25
100
AcDbLine
 10
428.415864296074
 20
292.8140958090462
 30
0.0
 11
431.4498702426693
 21
290.0401329603574
 31
0.0
  0
LINE
  5
182
330
70
100
AcDbEntity
  8
HON
 62
     9
420
 12632256
370
    25
100
AcDbLine
 10
431.4498702426693
 20
290.0401329603574
 30
0.0
 11
435.2045684993682
 21
291.535931896168
 31
0.0
  0
LINE
  5
183
330
70
100
AcDbEntity
  8
HON
 62
     9
420
 12632256
370
    25
100
AcDbLine
 10
435.2045684993682
 20
291.535931896168
 30
0.0
 11
438.0245311681327
 21
288.63541039294
 31
0.0
  0
LINE
  5
184
330
70
100
AcDbEntity
  8
HON
 62
     9
420
 12632256
370
    25
100
AcDbLine
 10
438.0245311681327
 20
288.63541039294
 30
0.0
 11
441.3996470698497
 21
290.146921514467
 31
0.0
  0
LINE
  5
185
330
70
100
AcDbEntity
  8
HON
 62
     9
420
 12632256
370
    25
100
AcDbLine
 10
441.3996470698497
 20
290.146921514467
 30
0.0
 11
443.8714622747154
 21
287.3051838684237
 31
0.0
  0
LINE
  5
186
330
70
100
AcDbEntity
  8
HON
 62
     9
420
 12632256
370
    25
100
AcDbLine
 10
443.8714622747154
 20
287.3051838684237
 30
0.0
 11
446.9646021383153
 21
288.6401396710624
 31
0.0
  0
LINE
  5
187
330
70
100
AcDbEntity
  8
HON
 62
     9
420
 12632256
370
    25
100
AcDbLine
 10
446.9646021383153
 20
288.6401396710624
 30
0.0
 11
448.9142008714389
 21
285.7609123754701
 31
0.0
  0
LINE
  5
188
330
70
100
AcDbEntity
  8
HON
 62
     9
420
 12632256
370
    25
100
AcDbLine
 10
448.9142008714389
 20
285.7609123754701
 30
0.0
 11
451.8686719711755
 21
286.9950486968696
 31
0.0
  0
LINE
  5
189
330
70
100
AcDbEntity
  8
HON
 62
     9
420
 12632256
370
    25
100
AcDbLine
 10
451.8686719711755
 20
286.9950486968696
 30
0.0
 11
453.1500837524145
 21
284.2460196036476
 31
0.0
  0
LINE
  5
18A
330
70
100
AcDbEntity
  8
HON
 62
     9
420
 12632256
370
    25
100
AcDbLine
 10
453.1500837524145
 20
284.2460196036476
 30
0.0
 11
456.1182140346631
 21
285.2586006525796
 31
0.0
  0
LINE
  5
18B
330
70
100
AcDbEntity
  8
HON
 62
     9
420
 12632256
370
    25
100
AcDbLine
 10
456.1182140346631
 20
285.2586006525796
 30
0.0
 11
456.9982303558217
 21
282.4799732854337
 31
0.0
  0
LINE
  5
18C
330
70
100
AcDbEntity
  8
HON
 62
     9
420
 12632256
370
    25
100
AcDbLine
 10
456.9982303558217
 20
282.4799732854337
 30
0.0
 11
459.6513861420915
 21
282.8747621940405
 31
0.0
  0
LINE
  5
18D
330
70
100
AcDbEntity
  8
HON
 62
     9
420
 12632256
370
    25
100
AcDbLine
 10
459.6513861420915
 20
282.8747621940405
 30
0.0
 11
458.957530401449
 21
281.0042875716851
 31
0.0
  0
LINE
  5
18E
330
70
100
AcDbEntity
  8
HON
 62
     9
420
 12632256
370
    25
100
AcDbLine
 10
458.957530401449
 20
281.0042875716851
 30
0.0
 11
460.6453103821003
 21
281.9089311940255
 31
0.0
  0
LINE
  5
18F
330
70
100
AcDbEntity
  8
HON
 62
     9
420
 12632256
370
    25
100
AcDbLine
 10
460.6453103821003
 20
281.9089311940255
 30
0.0
 11
460.2809563753596
 21
280.0215693488971
 31
0.0
  0
LINE
  5
190
330
70
100
AcDbEntity
  8
HON
 62
     9
420
 12632256
370
    25
100
AcDbLine
 10
460.2809563753596
 20
280.0215693488971
 30
0.0
 11
461.4666602961086
 21
280.5782520431506
 31
0.0
  0
LINE
  5
191
330
70
100
AcDbEntity
  8
HON
 62
     9
420
 12632256
370
    25
100
AcDbLine
 10
461.4666602961086
 20
280.5782520431506
 30
0.0
 11
460.9407889577322
 21
279.2162165451586
 31
0.0
  0
LINE
  5
192
330
70
100
AcDbEntity
  8
HON
 62
     9
420
 12632256
370
    25
100
AcDbLine
 10
460.9407889577322
 20
279.2162165451586
 30
0.0
 11
461.874314332921
 21
279.2035343608505
 31
0.0
  0
LINE
  5
193
330
70
100
AcDbEntity
  8
HON
 62
     9
420
 12632256
370
    25
100
AcDbLine
 10
461.874314332921
 20
279.2035343608505
 30
0.0
 11
461.360967916006
 21
278.4059054613758
 31
0.0
  0
LINE
  5
194
330
70
100
AcDbEntity
  8
HON
 62
     9
420
 12632256
370
    25
100
AcDbLine
 10
348.374636926337
 20
287.5847022941658
 30
0.0
 11
355.0597708569585
 21
280.4209594720583
 31
0.0
  0
LINE
  5
195
330
70
100
AcDbEntity
  8
HON
 62
     9
420
 12632256
370
    25
100
AcDbLine
 10
355.0597708569585
 20
280.4209594720583
 30
0.0
 11
358.3029273330139
 21
287.3030862670399
 31
0.0
  0
LINE
  5
196
330
70
100
AcDbEntity
  8
HON
 62
     9
420
 12632256
370
    25
100
AcDbLine
 10
358.3029273330139
 20
287.3030862670399
 30
0.0
 11
364.3534487507466
 21
278.7127528325549
 31
0.0
  0
LINE
  5
197
330
70
100
AcDbEntity
  8
HON
 62
     9
420
 12632256
370
    25
100
AcDbLine
 10
364.3534487507466
 20
278.7127528325549
 30
0.0
 11
368.0165423168503
 21
287.0568496675761
 31
0.0
  0
LINE
  5
198
330
70
100
AcDbEntity
  8
HON
 62
     9
420
 12632256
370
    25
100
AcDbLine
 10
368.0165423168503
 20
287.0568496675761
 30
0.0
 11
373.7460183404599
 21
279.4663170302873
 31
0.0
  0
LINE
  5
199
330
70
100
AcDbEntity
  8
HON
 62
     9
420
 12632256
370
    25
100
AcDbLine
 10
373.7460183404599
 20
279.4663170302873
 30
0.0
 11
377.6129994635708
 21
287.0134949156645
 31
0.0
  0
LINE
  5
19A
330
70
100
AcDbEntity
  8
HON
 62
     9
420
 12632256
370
    25
100
AcDbLine
 10
377.6129994635708
 20
287.0134949156645
 30
0.0
 11
383.3932881445568
 21
278.9687674026453
 31
0.0
  0
LINE
  5
19B
330
70
100
AcDbEntity
  8
HON
 62
     9
420
 12632256
370
    25
100
AcDbLine
 10
383.3932881445568
 20
278.9687674026453
 30
0.0
 11
386.9271344331491
 21
286.0790622049056
 31
0.0
  0
LINE
  5
19C
330
70
100
AcDbEntity
  8
HON
 62
     9
420
 12632256
370
    25
100
AcDbLine
 10
386.9271344331491
 20
286.0790622049056
 30
0.0
 11
391.708139986843
 21
278.401758084298
 31
0.0
  0
LINE
  5
19D
330
70
100
AcDbEntity
  8
HON
 62
     9
420
 12632256
370
    25
100
AcDbLine
 10
391.708139986843
 20
278.401758084298
 30
0.0
 11
395.9609761045474
 21
285.4147509608825
 31
0.0
  0
LINE
  5
19E
330
70
100
AcDbEntity
  8
HON
 62
     9
420
 12632256
370
    25
100
AcDbLine
 10
395.9609761045474
 20
285.4147509608825
 30
0.0
 11
400.8691856348202
 21
277.6803006317857
 31
0.0
  0
LINE
  5
19F
330
70
100
AcDbEntity
  8
HON
 62
     9
420
 12632256
370
    25
100
AcDbLine
 10
400.8691856348202
 20
277.6803006317857
 30
0.0
 11
404.409457510772
 21
284.4332031483536
 31
0.0
  0
LINE
  5
1A0
330
70
100
AcDbEntity
  8
HON
 62
     9
420
 12632256
370
    25
100
AcDbLine
 10
404.409457510772
 20
284.4332031483536
 30
0.0
 11
409.8046105809796
 21
276.7745966280339
 31
0.0
  0
LINE
  5
1A1
330
70
100
AcDbEntity
  8
HON
 62
     9
420
 12632256
370
    25
100
AcDbLine
 10
409.8046105809796
 20
276.7745966280339
 30
0.0
 11
412.9056288780667
 21
283.7517863591626
 31
0.0
  0
LINE
  5
1A2
330
70
100
AcDbEntity
  8
HON
 62
     9
420
 12632256
370
    25
100
AcDbLine
 10
412.9056288780667
 20
283.7517863591626
 30
0.0
 11
417.7544100416885
 21
275.7866322050211
 31
0.0
  0
LINE
  5
1A3
330
70
100
AcDbEntity
  8
HON
 62
     9
420
 12632256
370
    25
100
AcDbLine
 10
417.7544100416885
 20
275.7866322050211
 30
0.0
 11
420.7108279315894
 21
282.7608502133913
 31
0.0
  0
LINE
  5
1A4
330
70
100
AcDbEntity
  8
HON
 62
     9
420
 12632256
370
    25
100
AcDbLine
 10
420.7108279315894
 20
282.7608502133913
 30
0.0
 11
424.7833786894515
 21
274.8410570796884
 31
0.0
  0
LINE
  5
1A5
330
70
100
AcDbEntity
  8
HON
 62
     9
420
 12632256
370
    25
100
AcDbLine
 10
424.7833786894515
 20
274.8410570796884
 30
0.0
 11
428.0050119486097
 21
281.6689979761683
 31
0.0
  0
LINE
  5
1A6
330
70
100
AcDbEntity
  8
HON
 62
     9
420
 12632256
370
    25
100
AcDbLine
 10
428.0050119486097
 20
281.6689979761683
 30
0.0
 11
431.1637466688359
 21
273.7704125414674
 31
0.0
  0
LINE
  5
1A7
330
70
100
AcDbEntity
  8
HON
 62
     9
420
 12632256
370
    25
100
AcDbLine
 10
431.1637466688359
 20
273.7704125414674
 30
0.0
 11
434.7418864267116
 21
280.4800082231286
 31
0.0
  0
LINE
  5
1A8
330
70
100
AcDbEntity
  8
HON
 62
     9
420
 12632256
370
    25
100
AcDbLine
 10
434.7418864267116
 20
280.4800082231286
 30
0.0
 11
436.8870726982008
 21
272.5814137264972
 31
0.0
  0
LINE
  5
1A9
330
70
100
AcDbEntity
  8
HON
 62
     9
420
 12632256
370
    25
100
AcDbLine
 10
436.8870726982008
 20
272.5814137264972
 30
0.0
 11
440.8777944001446
 21
279.1968436735723
 31
0.0
  0
LINE
  5
1AA
330
70
100
AcDbEntity
  8
HON
 62
     9
420
 12632256
370
    25
100
AcDbLine
 10
440.8777944001446
 20
279.1968436735723
 30
0.0
 11
442.5993850084818
 21
271.3013408760144
 31
0.0
  0
LINE
  5
1AB
330
70
100
AcDbEntity
  8
HON
 62
     9
420
 12632256
370
    25
100
AcDbLine
 10
442.5993850084818
 20
271.3013408760144
 30
0.0
 11
446.3713681199175
 21
277.8206626519719
 31
0.0
  0
LINE
  5
1AC
330
70
100
AcDbEntity
  8
HON
 62
     9
420
 12632256
370
    25
100
AcDbLine
 10
446.3713681199175
 20
277.8206626519719
 30
0.0
 11
447.2401434366946
 21
269.961041647068
 31
0.0
  0
LINE
  5
1AD
330
70
100
AcDbEntity
  8
HON
 62
     9
420
 12632256
370
    25
100
AcDbLine
 10
447.2401434366946
 20
269.961041647068
 30
0.0
 11
451.1821404547263
 21
276.3489828122939
 31
0.0
  0
LINE
  5
1AE
330
70
100
AcDbEntity
  8
HON
 62
     9
420
 12632256
370
    25
100
AcDbLine
 10
451.1821404547263
 20
276.3489828122939
 30
0.0
 11
451.5956353526999
 21
268.6043742735031
 31
0.0
  0
LINE
  5
1AF
330
70
100
AcDbEntity
  8
HON
 62
     9
420
 12632256
370
    25
100
AcDbLine
 10
451.5956353526999
 20
268.6043742735031
 30
0.0
 11
455.2511090951348
 21
274.7788429611689
 31
0.0
  0
LINE
  5
1B0
330
70
100
AcDbEntity
  8
HON
 62
     9
420
 12632256
370
    25
100
AcDbLine
 10
455.2511090951348
 20
274.7788429611689
 30
0.0
 11
455.0438896450998
 21
267.0955175109141
 31
0.0
  0
LINE
  5
1B1
330
70
100
AcDbEntity
  8
HON
 62
     9
420
 12632256
370
    25
100
AcDbLine
 10
455.0438896450998
 20
267.0955175109141
 30
0.0
 11
458.5594408621989
 21
273.0692903428129
 31
0.0
  0
LINE
  5
1B2
330
70
100
AcDbEntity
  8
HON
 62
     9
420
 12632256
370
    25
100
AcDbLine
 10
458.5594408621989
 20
273.0692903428129
 30
0.0
 11
457.5095574955963
 21
265.6352348043123
 31
0.0
  0
LINE
  5
1B3
330
70
100
AcDbEntity
  8
HON
 62
     9
420
 12632256
370
    25
100
AcDbLine
 10
457.5095574955963
 20
265.6352348043123
 30
0.0
 11
460.450218026304
 21
271.6601313870626
 31
0.0
  0
LINE
  5
1B4
330
70
100
AcDbEntity
  8
HON
 62
     9
420
 12632256
370
    25
100
AcDbLine
 10
460.450218026304
 20
271.6601313870626
 30
0.0
 11
459.0004361184746
 21
264.3467680334591
 31
0.0
  0
LINE
  5
1B5
330
70
100
AcDbEntity
  8
HON
 62
     9
420
 12632256
370
    25
100
AcDbLine
 10
459.0004361184746
 20
264.3467680334591
 30
0.0
 11
461.4659803618431
 21
270.481012908732
 31
0.0
  0
LINE
  5
1B6
330
70
100
AcDbEntity
  8
HON
 62
     9
420
 12632256
370
    25
100
AcDbLine
 10
461.4659803618431
 20
270.481012908732
 30
0.0
 11
460.0322293469532
 21
262.8543289985233
 31
0.0
  0
LINE
  5
1B7
330
70
100
AcDbEntity
  8
HON
 62
     9
420
 12632256
370
    25
100
AcDbLine
 10
460.0322293469532
 20
262.8543289985233
 30
0.0
 11
462.2400654674409
 21
268.5357493422154
 31
0.0
  0
LINE
  5
1B8
330
70
100
AcDbEntity
  8
HON
 62
     9
420
 12632256
370
    25
100
AcDbLine
 10
462.2400654674409
 20
268.5357493422154
 30
0.0
 11
460.2448519041008
 21
261.3427937948828
 31
0.0
  0
LINE
  5
1B9
330
70
100
AcDbEntity
  8
HON
 62
     9
420
 12632256
370
    25
100
AcDbLine
 10
338.4310133697606
 20
287.6129861453896
 30
0.0
 11
343.6538073619737
 21
296.8039539634215
 31
0.0
  0
LINE
  5
1BA
330
70
100
AcDbEntity
  8
HON
 62
     9
420
 12632256
370
    25
100
AcDbLine
 10
343.6538073619737
 20
296.8039539634215
 30
0.0
 11
348.374636926337
 21
287.5847022941658
 31
0.0
  0
LINE
  5
1BB
330
70
100
AcDbEntity
  8
HON
 62
     9
420
 12632256
370
    25
100
AcDbLine
 10
348.374636926337
 20
287.5847022941658
 30
0.0
 11
353.4464697212753
 21
296.61697938801
 31
0.0
  0
LINE
  5
1BC
330
70
100
AcDbEntity
  8
HON
 62
     9
420
 12632256
370
    25
100
AcDbLine
 10
353.4464697212753
 20
296.61697938801
 30
0.0
 11
358.3029273330139
 21
287.3030862670399
 31
0.0
  0
LINE
  5
1BD
330
70
100
AcDbEntity
  8
HON
 62
     9
420
 12632256
370
    25
100
AcDbLine
 10
358.3029273330139
 20
287.3030862670399
 30
0.0
 11
363.2122378405347
 21
296.4644198860037
 31
0.0
  0
LINE
  5
1BE
330
70
100
AcDbEntity
  8
HON
 62
     9
420
 12632256
370
    25
100
AcDbLine
 10
363.2122378405347
 20
296.4644198860037
 30
0.0
 11
368.0165423168503
 21
287.0568496675761
 31
0.0
  0
LINE
  5
1BF
330
70
100
AcDbEntity
  8
HON
 62
     9
420
 12632256
370
    25
100
AcDbLine
 10
368.0165423168503
 20
287.0568496675761
 30
0.0
 11
372.9617583149365
 21
296.0434647813715
 31
0.0
  0
LINE
  5
1C0
330
70
100
AcDbEntity
  8
HON
 62
     9
420
 12632256
370
    25
100
AcDbLine
 10
372.9617583149365
 20
296.0434647813715
 30
0.0
 11
377.6129994635708
 21
287.0134949156645
 31
0.0
  0
LINE
  5
1C1
330
70
100
AcDbEntity
  8
HON
 62
     9
420
 12632256
370
    25
100
AcDbLine
 10
377.6129994635708
 20
287.0134949156645
 30
0.0
 11
382.700770086139
 21
295.5768270997935
 31
0.0
  0
LINE
  5
1C2
330
70
100
AcDbEntity
  8
HON
 62
     9
420
 12632256
370
    25
100
AcDbLine
 10
382.700770086139
 20
295.5768270997935
 30
0.0
 11
386.9271344331491
 21
286.0790622049056
 31
0.0
  0
LINE
  5
1C3
330
70
100
AcDbEntity
  8
HON
 62
     9
420
 12632256
370
    25
100
AcDbLine
 10
386.9271344331491
 20
286.0790622049056
 30
0.0
 11
391.5847785115333
 21
294.8802772714364
 31
0.0
  0
LINE
  5
1C4
330
70
100
AcDbEntity
  8
HON
 62
     9
420
 12632256
370
    25
100
AcDbLine
 10
391.5847785115333
 20
294.8802772714364
 30
0.0
 11
395.9609761045474
 21
285.4147509608825
 31
0.0
  0
LINE
  5
1C5
330
70
100
AcDbEntity
  8
HON
 62
     9
420
 12632256
370
    25
100
AcDbLine
 10
395.9609761045474
 20
285.4147509608825
 30
0.0
 11
400.1069711961949
 21
294.2295385977683
 31
0.0
  0
LINE
  5
1C6
330
70
100
AcDbEntity
  8
HON
 62
     9
420
 12632256
370
    25
100
AcDbLine
 10
400.1069711961949
 20
294.2295385977683
 30
0.0
 11
404.409457510772
 21
284.4332031483536
 31
0.0
  0
LINE
  5
1C7
330
70
100
AcDbEntity
  8
HON
 62
     9
420
 12632256
370
    25
100
AcDbLine
 10
404.409457510772
 20
284.4332031483536
 30
0.0
 11
408.5695886629158
 21
293.2673854797873
 31
0.0
  0
LINE
  5
1C8
330
70
100
AcDbEntity
  8
HON
 62
     9
420
 12632256
370
    25
100
AcDbLine
 10
408.5695886629158
 20
293.2673854797873
 30
0.0
 11
412.9056288780667
 21
283.7517863591626
 31
0.0
  0
LINE
  5
1C9
330
70
100
AcDbEntity
  8
HON
 62
     9
420
 12632256
370
    25
100
AcDbLine
 10
412.9056288780667
 20
283.7517863591626
 30
0.0
 11
416.859922082103
 21
292.2678794163248
 31
0.0
  0
LINE
  5
1CA
330
70
100
AcDbEntity
  8
HON
 62
     9
420
 12632256
370
    25
100
AcDbLine
 10
416.859922082103
 20
292.2678794163248
 30
0.0
 11
420.7108279315894
 21
282.7608502133913
 31
0.0
  0
LINE
  5
1CB
330
70
100
AcDbEntity
  8
HON
 62
     9
420
 12632256
370
    25
100
AcDbLine
 10
420.7108279315894
 20
282.7608502133913
 30
0.0
 11
424.4193919790571
 21
291.1903098937862
 31
0.0
  0
LINE
  5
1CC
330
70
100
AcDbEntity
  8
HON
 62
     9
420
 12632256
370
    25
100
AcDbLine
 10
424.4193919790571
 20
291.1903098937862
 30
0.0
 11
428.0050119486097
 21
281.6689979761683
 31
0.0
  0
LINE
  5
1CD
330
70
100
AcDbEntity
  8
HON
 62
     9
420
 12632256
370
    25
100
AcDbLine
 10
428.0050119486097
 20
281.6689979761683
 30
0.0
 11
431.4498702426693
 21
290.0401329603574
 31
0.0
  0
LINE
  5
1CE
330
70
100
AcDbEntity
  8
HON
 62
     9
420
 12632256
370
    25
100
AcDbLine
 10
431.4498702426693
 20
290.0401329603574
 30
0.0
 11
434.7418864267116
 21
280.4800082231286
 31
0.0
  0
LINE
  5
1CF
330
70
100
AcDbEntity
  8
HON
 62
     9
420
 12632256
370
    25
100
AcDbLine
 10
434.7418864267116
 20
280.4800082231286
 30
0.0
 11
438.0245311681327
 21
288.63541039294
 31
0.0
  0
LINE
  5
1D0
330
70
100
AcDbEntity
  8
HON
 62
     9
420
 12632256
370
    25
100
AcDbLine
 10
438.0245311681327
 20
288.63541039294
 30
0.0
 11
440.8777944001446
 21
279.1968436735723
 31
0.0
  0
LINE
  5
1D1
330
70
100
AcDbEntity
  8
HON
 62
     9
420
 12632256
370
    25
100
AcDbLine
 10
440.8777944001446
 20
279.1968436735723
 30
0.0
 11
443.8714622747154
 21
287.3051838684237
 31
0.0
  0
LINE
  5
1D2
330
70
100
AcDbEntity
  8
HON
 62
     9
420
 12632256
370
    25
100
AcDbLine
 10
443.8714622747154
 20
287.3051838684237
 30
0.0
 11
446.3713681199175
 21
277.8206626519719
 31
0.0
  0
LINE
  5
1D3
330
70
100
AcDbEntity
  8
HON
 62
     9
420
 12632256
370
    25
100
AcDbLine
 10
446.3713681199175
 20
277.8206626519719
 30
0.0
 11
448.9142008714389
 21
285.7609123754701
 31
0.0
  0
LINE
  5
1D4
330
70
100
AcDbEntity
  8
HON
 62
     9
420
 12632256
370
    25
100
AcDbLine
 10
448.9142008714389
 20
285.7609123754701
 30
0.0
 11
451.1821404547263
 21
276.3489828122939
 31
0.0
  0
LINE
  5
1D5
330
70
100
AcDbEntity
  8
HON
 62
     9
420
 12632256
370
    25
100
AcDbLine
 10
451.1821404547263
 20
276.3489828122939
 30
0.0
 11
453.1500837524145
 21
284.2460196036476
 31
0.0
  0
LINE
  5
1D6
330
70
100
AcDbEntity
  8
HON
 62
     9
420
 12632256
370
    25
100
AcDbLine
 10
453.1500837524145
 20
284.2460196036476
 30
0.0
 11
455.2511090951348
 21
274.7788429611689
 31
0.0
  0
LINE
  5
1D7
330
70
100
AcDbEntity
  8
HON
 62
     9
420
 12632256
370
    25
100
AcDbLine
 10
455.2511090951348
 20
274.7788429611689
 30
0.0
 11
456.9982303558217
 21
282.4799732854337
 31
0.0
  0
LINE
  5
1D8
330
70
100
AcDbEntity
  8
HON
 62
     9
420
 12632256
370
    25
100
AcDbLine
 10
456.9982303558217
 20
282.4799732854337
 30
0.0
 11
458.5594408621989
 21
273.0692903428129
 31
0.0
  0
LINE
  5
1D9
330
70
100
AcDbEntity
  8
HON
 62
     9
420
 12632256
370
    25
100
AcDbLine
 10
458.5594408621989
 20
273.0692903428129
 30
0.0
 11
458.957530401449
 21
281.0042875716851
 31
0.0
  0
LINE
  5
1DA
330
70
100
AcDbEntity
  8
HON
 62
     9
420
 12632256
370
    25
100
AcDbLine
 10
458.957530401449
 20
281.0042875716851
 30
0.0
 11
460.450218026304
 21
271.6601313870626
 31
0.0
  0
LINE
  5
1DB
330
70
100
AcDbEntity
  8
HON
 62
     9
420
 12632256
370
    25
100
AcDbLine
 10
460.450218026304
 20
271.6601313870626
 30
0.0
 11
460.2809563753596
 21
280.0215693488971
 31
0.0
  0
LINE
  5
1DC
330
70
100
AcDbEntity
  8
HON
 62
     9
420
 12632256
370
    25
100
AcDbLine
 10
460.2809563753596
 20
280.0215693488971
 30
0.0
 11
461.4659803618431
 21
270.481012908732
 31
0.0
  0
LINE
  5
1DD
330
70
100
AcDbEntity
  8
HON
 62
     9
420
 12632256
370
    25
100
AcDbLine
 10
461.4659803618431
 20
270.481012908732
 30
0.0
 11
460.9407889577322
 21
279.2162165451586
 31
0.0
  0
LINE
  5
1DE
330
70
100
AcDbEntity
  8
HON
 62
     9
420
 12632256
370
    25
100
AcDbLine
 10
460.9407889577322
 20
279.2162165451586
 30
0.0
 11
462.2400654674409
 21
268.5357493422154
 31
0.0
  0
LINE
  5
1DF
330
70
100
AcDbEntity
  8
HON
 62
     9
420
 12632256
370
    25
100
AcDbLine
 10
355.0597708569585
 20
280.4209594720583
 30
0.0
 11
346.9356151670755
 21
263.2655815117143
 31
0.0
  0
LINE
  5
1E0
330
70
100
AcDbEntity
  8
HON
 62
     9
420
 12632256
370
    25
100
AcDbLine
 10
355.0597708569585
 20
280.4209594720583
 30
0.0
 11
355.3575850064453
 21
263.1801389592047
 31
0.0
  0
LINE
  5
1E1
330
70
100
AcDbEntity
  8
HON
 62
     9
420
 12632256
370
    25
100
AcDbLine
 10
363.7436354771721
 20
262.9789763434301
 30
0.0
 11
364.3534487507466
 21
278.7127528325549
 31
0.0
  0
LINE
  5
1E2
330
70
100
AcDbEntity
  8
HON
 62
     9
420
 12632256
370
    25
100
AcDbLine
 10
364.3534487507466
 20
278.7127528325549
 30
0.0
 11
355.3575850064453
 21
263.1801389592047
 31
0.0
  0
LINE
  5
1E3
330
70
100
AcDbEntity
  8
HON
 62
     9
420
 12632256
370
    25
100
AcDbLine
 10
373.7460183404599
 20
279.4663170302873
 30
0.0
 11
371.5248874843301
 21
262.309513986001
 31
0.0
  0
LINE
  5
1E4
330
70
100
AcDbEntity
  8
HON
 62
     9
420
 12632256
370
    25
100
AcDbLine
 10
373.7460183404599
 20
279.4663170302873
 30
0.0
 11
363.7436354771721
 21
262.9789763434301
 31
0.0
  0
LINE
  5
1E5
330
70
100
AcDbEntity
  8
HON
 62
     9
420
 12632256
370
    25
100
AcDbLine
 10
383.3932881445568
 20
278.9687674026453
 30
0.0
 11
371.5248874843301
 21
262.309513986001
 31
0.0
  0
LINE
  5
1E6
330
70
100
AcDbEntity
  8
HON
 62
     9
420
 12632256
370
    25
100
AcDbLine
 10
383.3932881445568
 20
278.9687674026453
 30
0.0
 11
379.2375594930393
 21
261.7133357944467
 31
0.0
  0
LINE
  5
1E7
330
70
100
AcDbEntity
  8
HON
 62
     9
420
 12632256
370
    25
100
AcDbLine
 10
391.708139986843
 20
278.401758084298
 30
0.0
 11
379.2375594930393
 21
261.7133357944467
 31
0.0
  0
LINE
  5
1E8
330
70
100
AcDbEntity
  8
HON
 62
     9
420
 12632256
370
    25
100
AcDbLine
 10
391.708139986843
 20
278.401758084298
 30
0.0
 11
386.5520037735178
 21
261.2378202076676
 31
0.0
  0
LINE
  5
1E9
330
70
100
AcDbEntity
  8
HON
 62
     9
420
 12632256
370
    25
100
AcDbLine
 10
400.8691856348202
 20
277.6803006317857
 30
0.0
 11
386.5520037735178
 21
261.2378202076676
 31
0.0
  0
LINE
  5
1EA
330
70
100
AcDbEntity
  8
HON
 62
     9
420
 12632256
370
    25
100
AcDbLine
 10
400.8691856348202
 20
277.6803006317857
 30
0.0
 11
394.4105518994478
 21
260.051969112886
 31
0.0
  0
LINE
  5
1EB
330
70
100
AcDbEntity
  8
HON
 62
     9
420
 12632256
370
    25
100
AcDbLine
 10
409.8046105809796
 20
276.7745966280339
 30
0.0
 11
394.4105518994478
 21
260.051969112886
 31
0.0
  0
LINE
  5
1EC
330
70
100
AcDbEntity
  8
HON
 62
     9
420
 12632256
370
    25
100
AcDbLine
 10
409.8046105809796
 20
276.7745966280339
 30
0.0
 11
401.609608640262
 21
259.1351431646679
 31
0.0
  0
LINE
  5
1ED
330
70
100
AcDbEntity
  8
HON
 62
     9
420
 12632256
370
    25
100
AcDbLine
 10
417.7544100416885
 20
275.7866322050211
 30
0.0
 11
401.609608640262
 21
259.1351431646679
 31
0.0
  0
LINE
  5
1EE
330
70
100
AcDbEntity
  8
HON
 62
     9
420
 12632256
370
    25
100
AcDbLine
 10
417.7544100416885
 20
275.7866322050211
 30
0.0
 11
407.9850047324184
 21
258.0961856756804
 31
0.0
  0
LINE
  5
1EF
330
70
100
AcDbEntity
  8
HON
 62
     9
420
 12632256
370
    25
100
AcDbLine
 10
424.7833786894515
 20
274.8410570796884
 30
0.0
 11
407.9850047324184
 21
258.0961856756804
 31
0.0
  0
LINE
  5
1F0
330
70
100
AcDbEntity
  8
HON
 62
     9
420
 12632256
370
    25
100
AcDbLine
 10
424.7833786894515
 20
274.8410570796884
 30
0.0
 11
413.5780170192204
 21
257.0249115933702
 31
0.0
  0
LINE
  5
1F1
330
70
100
AcDbEntity
  8
HON
 62
     9
420
 12632256
370
    25
100
AcDbLine
 10
431.1637466688359
 20
273.7704125414674
 30
0.0
 11
413.5780170192204
 21
257.0249115933702
 31
0.0
  0
LINE
  5
1F2
330
70
100
AcDbEntity
  8
HON
 62
     9
420
 12632256
370
    25
100
AcDbLine
 10
431.1637466688359
 20
273.7704125414674
 30
0.0
 11
418.4088148674043
 21
256.015752521534
 31
0.0
  0
LINE
  5
1F3
330
70
100
AcDbEntity
  8
HON
 62
     9
420
 12632256
370
    25
100
AcDbLine
 10
436.8870726982008
 20
272.5814137264972
 30
0.0
 11
418.4088148674043
 21
256.015752521534
 31
0.0
  0
LINE
  5
1F4
330
70
100
AcDbEntity
  8
HON
 62
     9
420
 12632256
370
    25
100
AcDbLine
 10
422.8760950602794
 20
254.6760828366402
 30
0.0
 11
436.8870726982008
 21
272.5814137264972
 31
0.0
  0
LINE
  5
1F5
330
70
100
AcDbEntity
  8
HON
 62
     9
420
 12632256
370
    25
100
AcDbLine
 10
442.5993850084818
 20
271.3013408760144
 30
0.0
 11
422.8760950602794
 21
254.6760828366402
 31
0.0
  0
LINE
  5
1F6
330
70
100
AcDbEntity
  8
HON
 62
     9
420
 12632256
370
    25
100
AcDbLine
 10
442.5993850084818
 20
271.3013408760144
 30
0.0
 11
426.8569651775419
 21
253.3962198341181
 31
0.0
  0
LINE
  5
1F7
330
70
100
AcDbEntity
  8
HON
 62
     9
420
 12632256
370
    25
100
AcDbLine
 10
447.2401434366946
 20
269.961041647068
 30
0.0
 11
429.8767415195632
 21
252.0506744050159
 31
0.0
  0
LINE
  5
1F8
330
70
100
AcDbEntity
  8
HON
 62
     9
420
 12632256
370
    25
100
AcDbLine
 10
447.2401434366946
 20
269.961041647068
 30
0.0
 11
426.8569651775419
 21
253.3962198341181
 31
0.0
  0
LINE
  5
1F9
330
70
100
AcDbEntity
  8
HON
 62
     9
420
 12632256
370
    25
100
AcDbLine
 10
451.5956353526999
 20
268.6043742735031
 30
0.0
 11
429.8767415195632
 21
252.0506744050159
 31
0.0
  0
LINE
  5
1FA
330
70
100
AcDbEntity
  8
HON
 62
     9
420
 12632256
370
    25
100
AcDbLine
 10
451.5956353526999
 20
268.6043742735031
 30
0.0
 11
432.262824503733
 21
250.6965252075471
 31
0.0
  0
LINE
  5
1FB
330
70
100
AcDbEntity
  8
HON
 62
     9
420
 12632256
370
    25
100
AcDbLine
 10
432.262824503733
 20
250.6965252075471
 30
0.0
 11
455.0438896450998
 21
267.0955175109141
 31
0.0
  0
LINE
  5
1FC
330
70
100
AcDbEntity
  8
HON
 62
     9
420
 12632256
370
    25
100
AcDbLine
 10
455.0438896450998
 20
267.0955175109141
 30
0.0
 11
434.2699110162366
 21
249.2332550457917
 31
0.0
  0
LINE
  5
1FD
330
70
100
AcDbEntity
  8
HON
 62
     9
420
 12632256
370
    25
100
AcDbLine
 10
434.2699110162366
 20
249.2332550457917
 30
0.0
 11
457.5095574955963
 21
265.6352348043123
 31
0.0
  0
LINE
  5
1FE
330
70
100
AcDbEntity
  8
HON
 62
     9
420
 12632256
370
    25
100
AcDbLine
 10
457.5095574955963
 20
265.6352348043123
 30
0.0
 11
435.3121513132262
 21
247.4640264879714
 31
0.0
  0
LINE
  5
1FF
330
70
100
AcDbEntity
  8
HON
 62
     9
420
 12632256
370
    25
100
AcDbLine
 10
435.3121513132262
 20
247.4640264879714
 30
0.0
 11
459.0004361184746
 21
264.3467680334591
 31
0.0
  0
LINE
  5
200
330
70
100
AcDbEntity
  8
HON
 62
     9
420
 12632256
370
    25
100
AcDbLine
 10
459.0004361184746
 20
264.3467680334591
 30
0.0
 11
435.7127243166393
 21
246.0981258020591
 31
0.0
  0
LINE
  5
201
330
70
100
AcDbEntity
  8
HON
 62
     9
420
 12632256
370
    25
100
AcDbLine
 10
435.7127243166393
 20
246.0981258020591
 30
0.0
 11
460.0322293469532
 21
262.8543289985233
 31
0.0
  0
LINE
  5
202
330
70
100
AcDbEntity
  8
HON
 62
     9
420
 12632256
370
    25
100
AcDbLine
 10
460.0322293469532
 20
262.8543289985233
 30
0.0
 11
434.9645815292012
 21
244.4245879359959
 31
0.0
  0
LINE
  5
203
330
70
100
AcDbEntity
  8
HON
 62
     9
420
 12632256
370
    25
100
AcDbLine
 10
434.9645815292012
 20
244.4245879359959
 30
0.0
 11
460.2448519041008
 21
261.3427937948828
 31
0.0
  0
LINE
  5
204
330
70
100
AcDbEntity
  8
HON
 62
     9
420
 12632256
370
    25
100
AcDbLine
 10
338.4310133697606
 20
263.6019073001463
 30
0.0
 11
339.8170438661568
 21
189.8674420094013
 31
0.0
  0
LINE
  5
205
330
70
100
AcDbEntity
  8
HON
 62
     9
420
 12632256
370
    25
100
AcDbLine
 10
339.8170438661568
 20
189.8674420094013
 30
0.0
 11
346.9356151670755
 21
263.2655815117143
 31
0.0
  0
LINE
  5
206
330
70
100
AcDbEntity
  8
HON
 62
     9
420
 12632256
370
    25
100
AcDbLine
 10
346.9356151670755
 20
263.2655815117143
 30
0.0
 11
341.5824439663889
 21
189.8180112109168
 31
0.0
  0
LINE
  5
207
330
70
100
AcDbEntity
  8
HON
 62
     9
420
 12632256
370
    25
100
AcDbLine
 10
341.5824439663889
 20
189.8180112109168
 30
0.0
 11
355.3575850064453
 21
263.1801389592047
 31
0.0
  0
LINE
  5
208
330
70
100
AcDbEntity
  8
HON
 62
     9
420
 12632256
370
    25
100
AcDbLine
 10
355.3575850064453
 20
263.1801389592047
 30
0.0
 11
343.3688385974333
 21
189.727399221299
 31
0.0
  0
LINE
  5
209
330
70
100
AcDbEntity
  8
HON
 62
     9
420
 12632256
370
    25
100
AcDbLine
 10
343.3688385974333
 20
189.727399221299
 30
0.0
 11
363.7436354771721
 21
262.9789763434301
 31
0.0
  0
LINE
  5
20A
330
70
100
AcDbEntity
  8
HON
 62
     9
420
 12632256
370
    25
100
AcDbLine
 10
363.7436354771721
 20
262.9789763434301
 30
0.0
 11
345.2076993759342
 21
189.5886550068746
 31
0.0
  0
LINE
  5
20B
330
70
100
AcDbEntity
  8
HON
 62
     9
420
 12632256
370
    25
100
AcDbLine
 10
345.2076993759342
 20
189.5886550068746
 30
0.0
 11
371.5248874843301
 21
262.309513986001
 31
0.0
  0
LINE
  5
20C
330
70
100
AcDbEntity
  8
HON
 62
     9
420
 12632256
370
    25
100
AcDbLine
 10
371.5248874843301
 20
262.309513986001
 30
0.0
 11
346.9642751666226
 21
189.4086440277416
 31
0.0
  0
LINE
  5
20D
330
70
100
AcDbEntity
  8
HON
 62
     9
420
 12632256
370
    25
100
AcDbLine
 10
346.9642751666226
 20
189.4086440277416
 30
0.0
 11
379.2375594930393
 21
261.7133357944467
 31
0.0
  0
LINE
  5
20E
330
70
100
AcDbEntity
  8
HON
 62
     9
420
 12632256
370
    25
100
AcDbLine
 10
379.2375594930393
 20
261.7133357944467
 30
0.0
 11
348.6175829621404
 21
189.1908110927223
 31
0.0
  0
LINE
  5
20F
330
70
100
AcDbEntity
  8
HON
 62
     9
420
 12632256
370
    25
100
AcDbLine
 10
348.6175829621404
 20
189.1908110927223
 30
0.0
 11
386.5520037735178
 21
261.2378202076676
 31
0.0
  0
LINE
  5
210
330
70
100
AcDbEntity
  8
HON
 62
     9
420
 12632256
370
    25
100
AcDbLine
 10
386.5520037735178
 20
261.2378202076676
 30
0.0
 11
350.1495446702947
 21
188.9393446447016
 31
0.0
  0
LINE
  5
211
330
70
100
AcDbEntity
  8
HON
 62
     9
420
 12632256
370
    25
100
AcDbLine
 10
350.1495446702947
 20
188.9393446447016
 30
0.0
 11
394.4105518994478
 21
260.051969112886
 31
0.0
  0
LINE
  5
212
330
70
100
AcDbEntity
  8
HON
 62
     9
420
 12632256
370
    25
100
AcDbLine
 10
394.4105518994478
 20
260.051969112886
 30
0.0
 11
351.5454946219565
 21
188.6590320210266
 31
0.0
  0
LINE
  5
213
330
70
100
AcDbEntity
  8
HON
 62
     9
420
 12632256
370
    25
100
AcDbLine
 10
351.5454946219565
 20
188.6590320210266
 30
0.0
 11
401.609608640262
 21
259.1351431646679
 31
0.0
  0
LINE
  5
214
330
70
100
AcDbEntity
  8
HON
 62
     9
420
 12632256
370
    25
100
AcDbLine
 10
401.609608640262
 20
259.1351431646679
 30
0.0
 11
352.7944401026579
 21
188.355121385548
 31
0.0
  0
LINE
  5
215
330
70
100
AcDbEntity
  8
HON
 62
     9
420
 12632256
370
    25
100
AcDbLine
 10
352.7944401026579
 20
188.355121385548
 30
0.0
 11
407.9850047324184
 21
258.0961856756804
 31
0.0
  0
LINE
  5
216
330
70
100
AcDbEntity
  8
HON
 62
     9
420
 12632256
370
    25
100
AcDbLine
 10
407.9850047324184
 20
258.0961856756804
 30
0.0
 11
353.8891760887279
 21
188.0332003349873
 31
0.0
  0
LINE
  5
217
330
70
100
AcDbEntity
  8
HON
 62
     9
420
 12632256
370
    25
100
AcDbLine
 10
353.8891760887279
 20
188.0332003349873
 30
0.0
 11
413.5780170192204
 21
257.0249115933702
 31
0.0
  0
LINE
  5
218
330
70
100
AcDbEntity
  8
HON
 62
     9
420
 12632256
370
    25
100
AcDbLine
 10
413.5780170192204
 20
257.0249115933702
 30
0.0
 11
354.8262738609473
 21
187.6991120265684
 31
0.0
  0
LINE
  5
219
330
70
100
AcDbEntity
  8
HON
 62
     9
420
 12632256
370
    25
100
AcDbLine
 10
354.8262738609473
 20
187.6991120265684
 30
0.0
 11
418.4088148674043
 21
256.015752521534
 31
0.0
  0
LINE
  5
21A
330
70
100
AcDbEntity
  8
HON
 62
     9
420
 12632256
370
    25
100
AcDbLine
 10
418.4088148674043
 20
256.015752521534
 30
0.0
 11
355.6060271784872
 21
187.3589160400742
 31
0.0
  0
LINE
  5
21B
330
70
100
AcDbEntity
  8
HON
 62
     9
420
 12632256
370
    25
100
AcDbLine
 10
355.6060271784872
 20
187.3589160400742
 30
0.0
 11
422.8760950602794
 21
254.6760828366402
 31
0.0
  0
LINE
  5
21C
330
70
100
AcDbEntity
  8
HON
 62
     9
420
 12632256
370
    25
100
AcDbLine
 10
422.8760950602794
 20
254.6760828366402
 30
0.0
 11
356.2322006222469
 21
187.0190330050687
 31
0.0
  0
LINE
  5
21D
330
70
100
AcDbEntity
  8
HON
 62
     9
420
 12632256
370
    25
100
AcDbLine
 10
356.2322006222469
 20
187.0190330050687
 30
0.0
 11
426.8569651775419
 21
253.3962198341181
 31
0.0
  0
LINE
  5
21E
330
70
100
AcDbEntity
  8
HON
 62
     9
420
 12632256
370
    25
100
AcDbLine
 10
426.8569651775419
 20
253.3962198341181
 30
0.0
 11
356.7122209658714
 21
186.6863865171153
 31
0.0
  0
LINE
  5
21F
330
70
100
AcDbEntity
  8
HON
 62
     9
420
 12632256
370
    25
100
AcDbLine
 10
356.7122209658714
 20
186.6863865171153
 30
0.0
 11
429.8767415195632
 21
252.0506744050159
 31
0.0
  0
LINE
  5
220
330
70
100
AcDbEntity
  8
HON
 62
     9
420
 12632256
370
    25
100
AcDbLine
 10
429.8767415195632
 20
252.0506744050159
 30
0.0
 11
357.0428637138164
 21
186.3844171342997
 31
0.0
  0
LINE
  5
221
330
70
100
AcDbEntity
  8
HON
 62
     9
420
 12632256
370
    25
100
AcDbLine
 10
357.0428637138164
 20
186.3844171342997
 30
0.0
 11
432.262824503733
 21
250.6965252075471
 31
0.0
  0
LINE
  5
222
330
70
100
AcDbEntity
  8
HON
 62
     9
420
 12632256
370
    25
100
AcDbLine
 10
432.262824503733
 20
250.6965252075471
 30
0.0
 11
357.2640633624877
 21
186.1056841046133
 31
0.0
  0
LINE
  5
223
330
70
100
AcDbEntity
  8
HON
 62
     9
420
 12632256
370
    25
100
AcDbLine
 10
357.2640633624877
 20
186.1056841046133
 30
0.0
 11
434.2699110162366
 21
249.2332550457917
 31
0.0
  0
LINE
  5
224
330
70
100
AcDbEntity
  8
HON
 62
     9
420
 12632256
370
    25
100
AcDbLine
 10
434.2699110162366
 20
249.2332550457917
 30
0.0
 11
357.4350985610259
 21
185.7454272080289
 31
0.0
  0
LINE
  5
225
330
70
100
AcDbEntity
  8
HON
 62
     9
420
 12632256
370
    25
100
AcDbLine
 10
357.4350985610259
 20
185.7454272080289
 30
0.0
 11
435.3121513132262
 21
247.4640264879714
 31
0.0
  0
LINE
  5
226
330
70
100
AcDbEntity
  8
HON
 62
     9
420
 12632256
370
    25
100
AcDbLine
 10
435.3121513132262
 20
247.4640264879714
 30
0.0
 11
357.4791384851515
 21
185.3748874705842
 31
0.0
  0
LINE
  5
227
330
70
100
AcDbEntity
  8
HON
 62
     9
420
 12632256
370
    25
100
AcDbLine
 10
357.4791384851515
 20
185.3748874705842
 30
0.0
 11
435.7127243166393
 21
246.0981258020591
 31
0.0
  0
LINE
  5
228
330
70
100
AcDbEntity
  8
HON
 62
     9
420
 12632256
370
    25
100
AcDbLine
 10
435.7127243166393
 20
246.0981258020591
 30
0.0
 11
357.3777447977573
 21
184.9753136310684
 31
0.0
  0
LINE
  5
229
330
70
100
AcDbEntity
  8
HON
 62
     9
420
 12632256
370
    25
100
AcDbLine
 10
357.3777447977573
 20
184.9753136310684
 30
0.0
 11
434.9645815292012
 21
244.4245879359959
 31
0.0
  0
LINE
  5
22A
330
70
100
AcDbEntity
  8
HON
 62
     9
420
 12632256
370
    25
100
AcDbLine
 10
434.9645815292012
 20
244.4245879359959
 30
0.0
 11
357.1622241072072
 21
184.6279727928495
 31
0.0
  0
LINE
  5
22B
330
70
100
AcDbEntity
  8
HON
 62
     9
420
 12632256
370
    25
100
AcDbLine
 10
356.6993828530006
 20
184.1778568316232
 30
0.0
 11
433.0753677537917
 21
242.5112475976919
 31
0.0
  0
LINE
  5
22C
330
70
100
AcDbEntity
  8
HON
 62
     9
420
 12632256
370
    25
100
AcDbLine
 10
339.8170438661568
 20
189.8674420094013
 30
0.0
 11
339.2168344069883
 21
188.2999190206728
 31
0.0
  0
LINE
  5
22D
330
70
100
AcDbEntity
  8
HON
 62
     9
420
 12632256
370
    25
100
AcDbLine
 10
341.5824439663889
 20
189.8180112109168
 30
0.0
 11
340.7144262779804
 21
188.2512720910328
 31
0.0
  0
LINE
  5
22E
330
70
100
AcDbEntity
  8
HON
 62
     9
420
 12632256
370
    25
100
AcDbLine
 10
343.3688385974333
 20
189.727399221299
 30
0.0
 11
342.2193160720333
 21
188.150604614772
 31
0.0
  0
LINE
  5
22F
330
70
100
AcDbEntity
  8
HON
 62
     9
420
 12632256
370
    25
100
AcDbLine
 10
345.2076993759342
 20
189.5886550068746
 30
0.0
 11
343.8700015245943
 21
187.9686894715276
 31
0.0
  0
LINE
  5
230
330
70
100
AcDbEntity
  8
HON
 62
     9
420
 12632256
370
    25
100
AcDbLine
 10
346.9642751666226
 20
189.4086440277416
 30
0.0
 11
345.4458852581553
 21
187.6977961829316
 31
0.0
  0
LINE
  5
231
330
70
100
AcDbEntity
  8
HON
 62
     9
420
 12632256
370
    25
100
AcDbLine
 10
348.6175829621404
 20
189.1908110927223
 30
0.0
 11
346.6739118534297
 21
187.3724879748903
 31
0.0
  0
LINE
  5
232
330
70
100
AcDbEntity
  8
HON
 62
     9
420
 12632256
370
    25
100
AcDbLine
 10
350.1495446702947
 20
188.9393446447016
 30
0.0
 11
347.4935483585266
 21
187.0252092156445
 31
0.0
  0
LINE
  5
233
330
70
100
AcDbEntity
  8
HON
 62
     9
420
 12632256
370
    25
100
AcDbLine
 10
351.5454946219565
 20
188.6590320210266
 30
0.0
 11
347.9625557673064
 21
186.6387777333291
 31
0.0
  0
LINE
  5
234
330
70
100
AcDbEntity
  8
HON
 62
     9
420
 12632256
370
    25
100
AcDbLine
 10
352.7944401026579
 20
188.355121385548
 30
0.0
 11
348.0316693741361
 21
186.2590130513133
 31
0.0
  0
LINE
  5
235
330
70
100
AcDbEntity
  8
HON
 62
     9
420
 12632256
370
    25
100
AcDbLine
 10
353.8891760887279
 20
188.0332003349873
 30
0.0
 11
347.8209915569212
 21
185.947477263694
 31
0.0
  0
LINE
  5
236
330
70
100
AcDbEntity
  8
HON
 62
     9
420
 12632256
370
    25
100
AcDbLine
 10
357.4791384851515
 20
185.3748874705842
 30
0.0
 11
347.3505725506475
 21
185.3748874705842
 31
0.0
  0
LINE
  5
237
330
70
100
AcDbEntity
  8
HON
 62
     9
420
 12632256
370
    25
100
AcDbLine
 10
354.8262738609473
 20
187.6991120265684
 30
0.0
 11
347.7252977538311
 21
185.8249491617262
 31
0.0
  0
LINE
  5
238
330
70
100
AcDbEntity
  8
HON
 62
     9
420
 12632256
370
    25
100
AcDbLine
 10
355.6060271784872
 20
187.3589160400742
 30
0.0
 11
347.6086812554229
 21
185.6799857431476
 31
0.0
  0
LINE
  5
239
330
70
100
AcDbEntity
  8
HON
 62
     9
420
 12632256
370
    25
100
AcDbLine
 10
356.2322006222469
 20
187.0190330050687
 30
0.0
 11
347.5201664951755
 21
185.5729913504583
 31
0.0
  0
LINE
  5
23A
330
70
100
AcDbEntity
  8
HON
 62
     9
420
 12632256
370
    25
100
AcDbLine
 10
356.7122209658714
 20
186.6863865171153
 30
0.0
 11
347.4491258221946
 21
185.4889321822327
 31
0.0
  0
LINE
  5
23B
330
70
100
AcDbEntity
  8
HON
 62
     9
420
 12632256
370
    25
100
AcDbLine
 10
357.0428637138164
 20
186.3844171342997
 30
0.0
 11
347.4227163725989
 21
185.4580829568377
 31
0.0
  0
LINE
  5
23C
330
70
100
AcDbEntity
  8
HON
 62
     9
420
 12632256
370
    25
100
AcDbLine
 10
357.2640633624877
 20
186.1056841046133
 30
0.0
 11
347.3877214294073
 21
185.4175321033641
 31
0.0
  0
LINE
  5
23D
330
70
100
AcDbEntity
  8
HON
 62
     9
420
 12632256
370
    25
100
AcDbLine
 10
357.4350985610259
 20
185.7454272080289
 30
0.0
 11
347.3723687488282
 21
185.3998583340456
 31
0.0
  0
LINE
  5
23E
330
70
100
AcDbEntity
  8
HON
 62
     9
420
 12632256
370
    25
100
AcDbLine
 10
351.3862415997666
 20
182.180538368505
 30
0.0
 11
346.7865888149651
 21
184.7740708392947
 31
0.0
  0
LINE
  5
23F
330
70
100
AcDbEntity
  8
HON
 62
     9
420
 12632256
370
    25
100
AcDbLine
 10
352.6173921431863
 20
182.4725728434848
 30
0.0
 11
346.9683855401822
 21
184.9587159932612
 31
0.0
  0
LINE
  5
240
330
70
100
AcDbEntity
  8
HON
 62
     9
420
 12632256
370
    25
100
AcDbLine
 10
353.7008521967451
 20
182.7813042603826
 30
0.0
 11
347.0663754115347
 21
185.0616701959235
 31
0.0
  0
LINE
  5
241
330
70
100
AcDbEntity
  8
HON
 62
     9
420
 12632256
370
    25
100
AcDbLine
 10
354.6343521599256
 20
183.1013168697165
 30
0.0
 11
347.0942239834069
 21
185.0913852788184
 31
0.0
  0
LINE
  5
242
330
70
100
AcDbEntity
  8
HON
 62
     9
420
 12632256
370
    25
100
AcDbLine
 10
355.4234524217687
 20
183.42918790342
 30
0.0
 11
347.1612264918929
 21
185.1637260323405
 31
0.0
  0
LINE
  5
243
330
70
100
AcDbEntity
  8
HON
 62
     9
420
 12632256
370
    25
100
AcDbLine
 10
356.0675194012304
 20
183.7580760697613
 30
0.0
 11
347.2187545122114
 21
185.2268125823507
 31
0.0
  0
LINE
  5
244
330
70
100
AcDbEntity
  8
HON
 62
     9
420
 12632256
370
    25
100
AcDbLine
 10
356.5720997159615
 20
184.0815021101922
 30
0.0
 11
347.2701696873053
 21
185.2839766894623
 31
0.0
  0
LINE
  5
245
330
70
100
AcDbEntity
  8
HON
 62
     9
420
 12632256
370
    25
100
AcDbLine
 10
356.9296651772041
 20
184.3762578138615
 30
0.0
 11
347.2885637154691
 21
185.3046096857788
 31
0.0
  0
LINE
  5
246
330
70
100
AcDbEntity
  8
HON
 62
     9
420
 12632256
370
    25
100
AcDbLine
 10
357.179468907745
 20
184.6499851083114
 30
0.0
 11
347.3173921637304
 21
185.3371431566843
 31
0.0
  0
LINE
  5
247
330
70
100
AcDbEntity
  8
HON
 62
     9
420
 12632256
370
    25
100
AcDbLine
 10
357.3909845461566
 20
185.0058626729916
 30
0.0
 11
347.3299354403882
 21
185.3513738290545
 31
0.0
  0
LINE
  5
248
330
70
100
AcDbEntity
  8
HON
 62
     9
420
 12632256
370
    25
100
AcDbLine
 10
343.281902659518
 20
181.1416253343671
 30
0.0
 11
342.6246471257794
 21
182.043179638714
 31
0.0
  0
LINE
  5
249
330
70
100
AcDbEntity
  8
HON
 62
     9
420
 12632256
370
    25
100
AcDbLine
 10
345.1117530419019
 20
181.2773119085983
 30
0.0
 11
343.9456690551486
 21
182.6894513300502
 31
0.0
  0
LINE
  5
24A
330
70
100
AcDbEntity
  8
HON
 62
     9
420
 12632256
370
    25
100
AcDbLine
 10
346.8639800994047
 20
181.4541385135346
 30
0.0
 11
345.1327480861716
 21
183.4048064824133
 31
0.0
  0
LINE
  5
24B
330
70
100
AcDbEntity
  8
HON
 62
     9
420
 12632256
370
    25
100
AcDbLine
 10
348.5023793867319
 20
181.6667379072758
 30
0.0
 11
345.9705799131468
 21
184.0352607977561
 31
0.0
  0
LINE
  5
24C
330
70
100
AcDbEntity
  8
HON
 62
     9
420
 12632256
370
    25
100
AcDbLine
 10
350.0111957229645
 20
181.9101362412654
 30
0.0
 11
346.4647161459124
 21
184.4660291756021
 31
0.0
  0
LINE
  5
24D
330
70
100
AcDbEntity
  8
HON
 62
     9
420
 12632256
370
    25
100
AcDbLine
 10
338.4310133697606
 20
287.6129861453896
 30
0.0
 11
344.4725042983388
 21
280.3680313379691
 31
0.0
  0
LINE
  5
24E
330
70
100
AcDbEntity
  8
HON
 62
     9
420
 12632256
370
    25
100
AcDbLine
 10
344.4725042983388
 20
280.3680313379691
 30
0.0
 11
348.374636926337
 21
287.5847022941658
 31
0.0
  0
LINE
  5
24F
330
70
100
AcDbEntity
  8
HON
 62
     9
420
 12632256
370
    25
100
AcDbLine
 10
344.4725042983388
 20
280.3680313379691
 30
0.0
 11
346.9356151670755
 21
263.2655815117143
 31
0.0
  0
LINE
  5
250
330
70
100
AcDbEntity
  8
HON
 62
     9
420
 12632256
370
    25
100
AcDbLine
 10
344.4725042983388
 20
280.3680313379691
 30
0.0
 11
338.4310133697606
 21
263.6019073001463
 31
0.0
  0
LINE
  5
252
330
70
100
AcDbEntity
  8
SHADE
 62
     8
420
  8421504
370
    25
100
AcDbLine
 10
338.4310133697606
 20
188.3063609701854
 30
0.0
 11
338.4310133697606
 21
263.6019073001463
 31
0.0
  0
SPLINE
  5
253
330
70
100
AcDbEntity
  8
0
 62
    18
420
        0
370
    25
100
AcDbSpline
210
0.0
220
0.0
230
1.0
 70
     8
 71
     3
 72
    11
 73
     7
 74
     0
 42
0.0000000001
 43
0.0000000001
 40
0.0
 40
0.0
 40
0.0
 40
0.0
 40
1.0
 40
1.0
 40
1.0
 40
2.0
 40
2.0
 40
2.0
 40
2.0
 10
329.0124175434006
 20
185.9873321855563
 30
0.0
 10
332.9857046327543
 20
180.7850452669902
 30
0.0
 10
340.4239770341928
 20
179.7887440543238
 30
0.0
 10
345.6262639527583
 20
183.7620311436777
 30
0.0
 10
346.4661403132645
 20
184.4034932452662
 30
0.0
 10
347.2164540541358
 20
185.154400615885
 30
0.0
 10
347.8572517284974
 20
185.9947840219837
 30
0.0
  0
ENDSEC
  0
SECTION
  2
OBJECTS
  0
DICTIONARY
  5
C
330
0
100
AcDbDictionary
281
     1
  3
ACAD_COLOR
350
63
  3
ACAD_DETAILVIEWSTYLE
350
6A
  3
ACAD_GROUP
350
D
  3
ACAD_LAYOUT
350
62
  3
ACAD_MATERIAL
350
10
  3
ACAD_MLEADERSTYLE
350
66
  3
ACAD_MLINESTYLE
350
5F
  3
ACAD_PLOTSETTINGS
350
61
  3
ACAD_PLOTSTYLENAME
350
E
  3
ACAD_SCALELIST
350
42
  3
ACAD_SECTIONVIEWSTYLE
350
68
  3
ACAD_TABLESTYLE
350
64
  3
ACAD_VISUALSTYLE
350
29
  3
ACDB_RECOMPOSE_DATA
350
25C
  3
AcDbVariableDictionary
350
254
  0
DICTIONARY
  5
63
102
{ACAD_REACTORS
330
C
102
}
330
C
100
AcDbDictionary
281
     1
  0
DICTIONARY
  5
6A
102
{ACAD_REACTORS
330
C
102
}
330
C
100
AcDbDictionary
281
     1
  3
Imperial24
350
6B
  0
DICTIONARY
  5
D
102
{ACAD_REACTORS
330
C
102
}
330
C
100
AcDbDictionary
281
     1
  0
DICTIONARY
  5
62
102
{ACAD_REACTORS
330
C
102
}
330
C
100
AcDbDictionary
281
     1
  3
Layout1
350
6F
  3
Layout2
350
77
  3
Model
350
73
  0
DICTIONARY
  5
10
102
{ACAD_REACTORS
330
C
102
}
330
C
100
AcDbDictionary
281
     1
  3
ByBlock
350
19
  3
ByLayer
350
11
  3
Global
350
21
  0
DICTIONARY
  5
66
102
{ACAD_REACTORS
330
C
102
}
330
C
100
AcDbDictionary
281
     1
  3
Standard
350
67
  0
DICTIONARY
  5
5F
102
{ACAD_REACTORS
330
C
102
}
330
C
100
AcDbDictionary
281
     1
  3
Standard
350
60
  0
DICTIONARY
  5
61
102
{ACAD_REACTORS
330
C
102
}
330
C
100
AcDbDictionary
281
     1
  0
ACDBDICTIONARYWDFLT
  5
E
102
{ACAD_REACTORS
330
C
102
}
330
C
100
AcDbDictionary
281
     1
  3
Normal
350
F
100
AcDbDictionaryWithDefault
340
F
  0
DICTIONARY
  5
42
102
{ACAD_REACTORS
330
C
102
}
330
C
100
AcDbDictionary
281
     1
  3
A0
350
43
  3
A1
350
44
  3
A2
350
45
  3
A3
350
46
  3
A4
350
47
  3
A5
350
48
  3
A6
350
49
  3
A7
350
4A
  3
A8
350
4B
  3
A9
350
4C
  3
B0
350
4D
  3
B1
350
4E
  3
B2
350
4F
  3
B3
350
50
  3
B4
350
51
  3
B5
350
52
  3
B6
350
53
  0
DICTIONARY
  5
68
102
{ACAD_REACTORS
330
C
102
}
330
C
100
AcDbDictionary
281
     1
  3
Imperial24
350
69
  0
DICTIONARY
  5
64
102
{ACAD_REACTORS
330
C
102
}
330
C
100
AcDbDictionary
281
     1
  3
Standard
350
65
  0
DICTIONARY
  5
29
102
{ACAD_REACTORS
330
C
102
}
330
C
100
AcDbDictionary
281
     1
  3
2dWireframe
350
2F
  3
Basic
350
2E
  3
Brighten
350
35
  3
ColorChange
350
39
  3
Conceptual
350
32
  3
Dim
350
34
  3
EdgeColorOff
350
41
  3
Facepattern
350
38
  3
Flat
350
2A
  3
FlatWithEdges
350
2B
  3
Gouraud
350
2C
  3
GouraudWithEdges
350
2D
  3
Hidden
350
31
  3
JitterOff
350
3F
  3
Linepattern
350
37
  3
OverhangOff
350
40
  3
Realistic
350
33
  3
Shaded
350
3E
  3
Shaded with edges
350
3D
  3
Shades of Gray
350
3A
  3
Sketchy
350
3B
  3
Thicken
350
36
  3
Wireframe
350
30
  3
X-Ray
350
3C
  0
XRECORD
  5
25C
102
{ACAD_REACTORS
330
C
102
}
330
C
100
AcDbXrecord
280
     1
 90
        1
330
65
  0
DICTIONARY
  5
254
102
{ACAD_REACTORS
330
C
102
}
330
C
100
AcDbDictionary
281
     1
  3
CANNOSCALE
350
259
  3
CMLEADERSTYLE
350
256
  3
CTABLESTYLE
350
255
  3
CVIEWDETAILSTYLE
350
257
  3
CVIEWSECTIONSTYLE
350
258
  0
ACDBDETAILVIEWSTYLE
  5
6B
102
{ACAD_REACTORS
330
6A
102
}
330
6A
100
AcDbModelDocViewStyle
 70
     0
  3
Imperial24
290
     1
300
Imperial24
 90
        0
100
AcDbDetailViewStyle
 70
     0
 71
     0
 90
        3
 71
     1
340
55
 62
   256
 40
0.24
340
0
 62
   256
 40
0.24
300

 40
0.36
280
     3
 71
     2
340
5D
 90
       25
 62
   256
 71
     3
340
55
 62
   256
 40
0.24
 90
        1
 40
0.75
 90
        1
300
%<\AcVar ViewType \f "%tc1">% %<\AcVar ViewDetailId>%\PSCALE %<\AcVar ViewScale \f "%sn">%
 71
     4
340
5D
 90
       25
 62
   256
340
5D
 90
       25
 62
   256
280
     0
  0
LAYOUT
  5
6F
102
{ACAD_REACTORS
330
62
102
}
330
62
100
AcDbPlotSettings
  1

  2

  4

  6

 40
0.0
 41
0.0
 42
0.0
 43
0.0
 44
0.0
 45
0.0
 46
0.0
 47
0.0
 48
0.0
 49
0.0
140
0.0
141
0.0
142
1.0
143
1.0
 70
   688
 72
     0
 73
     0
 74
     5
  7

 75
    16
147
1.0
 76
     0
 77
     2
 78
   300
148
0.0
149
0.0
100
AcDbLayout
  1
Layout1
 70
     1
 71
     1
 10
0.0
 20
0.0
 11
12.0
 21
9.0
 12
0.0
 22
0.0
 32
0.0
 14
0.0
 24
0.0
 34
0.0
 15
0.0
 25
0.0
 35
0.0
146
0.0
 13
0.0
 23
0.0
 33
0.0
 16
1.0
 26
0.0
 36
0.0
 17
0.0
 27
1.0
 37
0.0
 76
     0
330
6C
  0
LAYOUT
  5
77
102
{ACAD_REACTORS
330
62
102
}
330
62
100
AcDbPlotSettings
  1

  2

  4

  6

 40
0.0
 41
0.0
 42
0.0
 43
0.0
 44
0.0
 45
0.0
 46
0.0
 47
0.0
 48
0.0
 49
0.0
140
0.0
141
0.0
142
1.0
143
1.0
 70
   688
 72
     0
 73
     0
 74
     5
  7

 75
    16
147
1.0
 76
     0
 77
     2
 78
   300
148
0.0
149
0.0
100
AcDbLayout
  1
Layout2
 70
     1
 71
     2
 10
0.0
 20
0.0
 11
12.0
 21
9.0
 12
0.0
 22
0.0
 32
0.0
 14
0.0
 24
0.0
 34
0.0
 15
0.0
 25
0.0
 35
0.0
146
0.0
 13
0.0
 23
0.0
 33
0.0
 16
1.0
 26
0.0
 36
0.0
 17
0.0
 27
1.0
 37
0.0
 76
     0
330
74
  0
LAYOUT
  5
73
102
{ACAD_REACTORS
330
62
102
}
330
62
100
AcDbPlotSettings
  1

  2

  4

  6

 40
0.0
 41
0.0
 42
0.0
 43
0.0
 44
0.0
 45
0.0
 46
0.0
 47
0.0
 48
0.0
 49
0.0
140
0.0
141
0.0
142
1.0
143
1.0
 70
  1712
 72
     0
 73
     0
 74
     0
  7

 75
     0
147
1.0
 76
     0
 77
     2
 78
   300
148
0.0
149
0.0
100
AcDbLayout
  1
Model
 70
     1
 71
     0
 10
0.0
 20
0.0
 11
12.0
 21
9.0
 12
0.0
 22
0.0
 32
0.0
 14
0.0
 24
0.0
 34
0.0
 15
0.0
 25
0.0
 35
0.0
146
0.0
 13
0.0
 23
0.0
 33
0.0
 16
1.0
 26
0.0
 36
0.0
 17
0.0
 27
1.0
 37
0.0
 76
     0
330
70
  0
MATERIAL
  5
19
102
{ACAD_XDICTIONARY
360
1A
102
}
102
{ACAD_REACTORS
330
10
102
}
330
10
100
AcDbMaterial
  1
ByBlock
 72
     0
 43
0.0208333333333333
 43
0.0
 43
0.0
 43
0.0
 43
0.0
 43
0.0208333333333333
 43
0.0
 43
0.0
 43
0.0
 43
0.0
 43
1.0
 43
0.0
 43
0.0
 43
0.0
 43
0.0
 43
1.0
 77
     0
 47
0.0208333333333333
 47
0.0
 47
0.0
 47
0.0
 47
0.0
 47
0.0208333333333333
 47
0.0
 47
0.0
 47
0.0
 47
0.0
 47
1.0
 47
0.0
 47
0.0
 47
0.0
 47
0.0
 47
1.0
171
     0
 49
0.0208333333333333
 49
0.0
 49
0.0
 49
0.0
 49
0.0
 49
0.0208333333333333
 49
0.0
 49
0.0
 49
0.0
 49
0.0
 49
1.0
 49
0.0
 49
0.0
 49
0.0
 49
0.0
 49
1.0
175
     0
142
0.0208333333333333
142
0.0
142
0.0
142
0.0
142
0.0
142
0.0208333333333333
142
0.0
142
0.0
142
0.0
142
0.0
142
1.0
142
0.0
142
0.0
142
0.0
142
0.0
142
1.0
179
     0
144
0.0208333333333333
144
0.0
144
0.0
144
0.0
144
0.0
144
0.0208333333333333
144
0.0
144
0.0
144
0.0
144
0.0
144
1.0
144
0.0
144
0.0
144
0.0
144
0.0
144
1.0
147
0.0208333333333333
147
0.0
147
0.0
147
0.0
147
0.0
147
0.0208333333333333
147
0.0
147
0.0
147
0.0
147
0.0
147
1.0
147
0.0
147
0.0
147
0.0
147
0.0
147
1.0
  0
MATERIAL
  5
11
102
{ACAD_XDICTIONARY
360
12
102
}
102
{ACAD_REACTORS
330
10
102
}
330
10
100
AcDbMaterial
  1
ByLayer
 72
     0
 43
0.0208333333333333
 43
0.0
 43
0.0
 43
0.0
 43
0.0
 43
0.0208333333333333
 43
0.0
 43
0.0
 43
0.0
 43
0.0
 43
1.0
 43
0.0
 43
0.0
 43
0.0
 43
0.0
 43
1.0
 77
     0
 47
0.0208333333333333
 47
0.0
 47
0.0
 47
0.0
 47
0.0
 47
0.0208333333333333
 47
0.0
 47
0.0
 47
0.0
 47
0.0
 47
1.0
 47
0.0
 47
0.0
 47
0.0
 47
0.0
 47
1.0
171
     0
 49
0.0208333333333333
 49
0.0
 49
0.0
 49
0.0
 49
0.0
 49
0.0208333333333333
 49
0.0
 49
0.0
 49
0.0
 49
0.0
 49
1.0
 49
0.0
 49
0.0
 49
0.0
 49
0.0
 49
1.0
175
     0
142
0.0208333333333333
142
0.0
142
0.0
142
0.0
142
0.0
142
0.0208333333333333
142
0.0
142
0.0
142
0.0
142
0.0
142
1.0
142
0.0
142
0.0
142
0.0
142
0.0
142
1.0
179
     0
144
0.0208333333333333
144
0.0
144
0.0
144
0.0
144
0.0
144
0.0208333333333333
144
0.0
144
0.0
144
0.0
144
0.0
144
1.0
144
0.0
144
0.0
144
0.0
144
0.0
144
1.0
147
0.0208333333333333
147
0.0
147
0.0
147
0.0
147
0.0
147
0.0208333333333333
147
0.0
147
0.0
147
0.0
147
0.0
147
1.0
147
0.0
147
0.0
147
0.0
147
0.0
147
1.0
  0
MATERIAL
  5
21
102
{ACAD_XDICTIONARY
360
22
102
}
102
{ACAD_REACTORS
330
10
102
}
330
10
100
AcDbMaterial
  1
Global
 72
     0
 43
0.0208333333333333
 43
0.0
 43
0.0
 43
0.0
 43
0.0
 43
0.0208333333333333
 43
0.0
 43
0.0
 43
0.0
 43
0.0
 43
1.0
 43
0.0
 43
0.0
 43
0.0
 43
0.0
 43
1.0
 77
     0
 47
0.0208333333333333
 47
0.0
 47
0.0
 47
0.0
 47
0.0
 47
0.0208333333333333
 47
0.0
 47
0.0
 47
0.0
 47
0.0
 47
1.0
 47
0.0
 47
0.0
 47
0.0
 47
0.0
 47
1.0
171
     0
 49
0.0208333333333333
 49
0.0
 49
0.0
 49
0.0
 49
0.0
 49
0.0208333333333333
 49
0.0
 49
0.0
 49
0.0
 49
0.0
 49
1.0
 49
0.0
 49
0.0
 49
0.0
 49
0.0
 49
1.0
175
     0
142
0.0208333333333333
142
0.0
142
0.0
142
0.0
142
0.0
142
0.0208333333333333
142
0.0
142
0.0
142
0.0
142
0.0
142
1.0
142
0.0
142
0.0
142
0.0
142
0.0
142
1.0
179
     0
144
0.0208333333333333
144
0.0
144
0.0
144
0.0
144
0.0
144
0.0208333333333333
144
0.0
144
0.0
144
0.0
144
0.0
144
1.0
144
0.0
144
0.0
144
0.0
144
0.0
144
1.0
147
0.0208333333333333
147
0.0
147
0.0
147
0.0
147
0.0
147
0.0208333333333333
147
0.0
147
0.0
147
0.0
147
0.0
147
1.0
147
0.0
147
0.0
147
0.0
147
0.0
147
1.0
  0
MLEADERSTYLE
  5
67
102
{ACAD_REACTORS
330
66
102
}
330
66
100
AcDbMLeaderStyle
179
     2
170
     2
171
     1
172
     0
 90
        2
 40
0.0
 41
0.0
173
     1
 91
-1056964608
340
5B
 92
       -2
290
     1
 42
0.09
291
     1
 43
0.36
  3
Standard
 44
0.18
300

342
55
174
     1
178
     6
175
     1
176
     0
 93
-1056964608
 45
0.18
292
     0
297
     0
 46
0.18
 94
-1056964608
 47
1.0
 49
1.0
140
1.0
293
     1
141
0.0
294
     1
177
     0
142
1.0
295
     1
296
     0
143
0.125
271
     0
272
     9
273
     9
298
     1
  0
MLINESTYLE
  5
60
102
{ACAD_REACTORS
330
5F
102
}
330
5F
100
AcDbMlineStyle
  2
STANDARD
 70
     0
  3

 62
   256
 51
90.0
 52
90.0
 71
     2
 49
0.5
 62
   256
  6
BYLAYER
 49
-0.5
 62
   256
  6
BYLAYER
  0
ACDBPLACEHOLDER
  5
F
102
{ACAD_REACTORS
330
E
102
}
330
E
  0
SCALE
  5
43
102
{ACAD_REACTORS
330
42
102
}
330
42
100
AcDbScale
 70
     0
300
1:1
140
1.0
141
1.0
290
     1
  0
SCALE
  5
44
102
{ACAD_REACTORS
330
42
102
}
330
42
100
AcDbScale
 70
     0
300
1/128" = 1'-0"
140
0.0078125
141
12.0
290
     0
  0
SCALE
  5
45
102
{ACAD_REACTORS
330
42
102
}
330
42
100
AcDbScale
 70
     0
300
1/64" = 1'-0"
140
0.015625
141
12.0
290
     0
  0
SCALE
  5
46
102
{ACAD_REACTORS
330
42
102
}
330
42
100
AcDbScale
 70
     0
300
1/32" = 1'-0"
140
0.03125
141
12.0
290
     0
  0
SCALE
  5
47
102
{ACAD_REACTORS
330
42
102
}
330
42
100
AcDbScale
 70
     0
300
1/16" = 1'-0"
140
0.0625
141
12.0
290
     0
  0
SCALE
  5
48
102
{ACAD_REACTORS
330
42
102
}
330
42
100
AcDbScale
 70
     0
300
3/32" = 1'-0"
140
0.09375
141
12.0
290
     0
  0
SCALE
  5
49
102
{ACAD_REACTORS
330
42
102
}
330
42
100
AcDbScale
 70
     0
300
1/8" = 1'-0"
140
0.125
141
12.0
290
     0
  0
SCALE
  5
4A
102
{ACAD_REACTORS
330
42
102
}
330
42
100
AcDbScale
 70
     0
300
3/16" = 1'-0"
140
0.1875
141
12.0
290
     0
  0
SCALE
  5
4B
102
{ACAD_REACTORS
330
42
102
}
330
42
100
AcDbScale
 70
     0
300
1/4" = 1'-0"
140
0.25
141
12.0
290
     0
  0
SCALE
  5
4C
102
{ACAD_REACTORS
330
42
102
}
330
42
100
AcDbScale
 70
     0
300
3/8" = 1'-0"
140
0.375
141
12.0
290
     0
  0
SCALE
  5
4D
102
{ACAD_REACTORS
330
42
102
}
330
42
100
AcDbScale
 70
     0
300
1/2" = 1'-0"
140
0.5
141
12.0
290
     0
  0
SCALE
  5
4E
102
{ACAD_REACTORS
330
42
102
}
330
42
100
AcDbScale
 70
     0
300
3/4" = 1'-0"
140
0.75
141
12.0
290
     0
  0
SCALE
  5
4F
102
{ACAD_REACTORS
330
42
102
}
330
42
100
AcDbScale
 70
     0
300
1" = 1'-0"
140
1.0
141
12.0
290
     0
  0
SCALE
  5
50
102
{ACAD_REACTORS
330
42
102
}
330
42
100
AcDbScale
 70
     0
300
1-1/2" = 1'-0"
140
1.5
141
12.0
290
     0
  0
SCALE
  5
51
102
{ACAD_REACTORS
330
42
102
}
330
42
100
AcDbScale
 70
     0
300
3" = 1'-0"
140
3.0
141
12.0
290
     0
  0
SCALE
  5
52
102
{ACAD_REACTORS
330
42
102
}
330
42
100
AcDbScale
 70
     0
300
6" = 1'-0"
140
6.0
141
12.0
290
     0
  0
SCALE
  5
53
102
{ACAD_REACTORS
330
42
102
}
330
42
100
AcDbScale
 70
     0
300
1'-0" = 1'-0"
140
12.0
141
12.0
290
     0
  0
ACDBSECTIONVIEWSTYLE
  5
69
102
{ACAD_REACTORS
330
68
102
}
330
68
100
AcDbModelDocViewStyle
 70
     0
  3
Imperial24
290
     1
300
Imperial24
 90
        0
100
AcDbSectionViewStyle
 70
     0
 71
     0
 90
       78
 71
     1
340
55
 62
   256
 40
0.24
340
0
340
0
 62
   256
 40
0.24
300
I, O, Q, S, X, Z
 40
0.48
 90
        3
 40
0.18
 90
        1
 71
     2
340
5D
 90
       25
 62
   256
340
5D
 90
       50
 62
   256
 40
0.24
 40
0.0
 40
0.24
 71
     3
340
55
 62
   256
 40
0.24
 90
        1
 40
0.75
 90
        1
300
%<\AcVar ViewType \f "%tc1">% %<\AcVar ViewSectionStartId>%-%<\AcVar ViewSectionEndId>%\PSCALE %<\AcVar ViewScale \f "%sn">%
 71
     4
 62
   256
 62
   257
300
ANSI31
 40
1.0
 90
        0
290
     0
290
     0
 90
        6
 40
0.0
 40
1.570796326794896
 40
0.2617993877991494
 40
1.308996938995747
 40
-0.2617993877991494
 40
1.832595714594046
  0
TABLESTYLE
  5
65
102
{ACAD_XDICTIONARY
360
25A
102
}
102
{ACAD_REACTORS
330
64
102
}
330
64
100
AcDbTableStyle
280
     0
  3
Standard
 70
     0
 71
     0
 40
0.06
 41
0.06
280
     0
281
     0
  7
Standard
140
0.18
170
     2
 62
     0
 63
     7
283
     0
 90
      512
 91
        0
  1

274
    -2
284
     1
 64
     0
275
    -2
285
     1
 65
     0
276
    -2
286
     1
 66
     0
277
    -2
287
     1
 67
     0
278
    -2
288
     1
 68
     0
279
    -2
289
     1
 69
     0
  7
Standard
140
0.25
170
     5
 62
     0
 63
     7
283
     0
 90
      512
 91
        0
  1

274
    -2
284
     1
 64
     0
275
    -2
285
     1
 65
     0
276
    -2
286
     1
 66
     0
277
    -2
287
     1
 67
     0
278
    -2
288
     1
 68
     0
279
    -2
289
     1
 69
     0
  7
Standard
140
0.18
170
     5
 62
     0
 63
     7
283
     0
 90
      512
 91
        0
  1

274
    -2
284
     1
 64
     0
275
    -2
285
     1
 65
     0
276
    -2
286
     1
 66
     0
277
    -2
287
     1
 67
     0
278
    -2
288
     1
 68
     0
279
    -2
289
     1
 69
     0
  0
VISUALSTYLE
  5
2F
102
{ACAD_REACTORS
330
29
102
}
330
29
100
AcDbVisualStyle
  2
2dWireframe
 70
     4
177
     3
291
     0
 70
    58
 90
        0
176
     1
 90
        2
176
     1
 90
        0
176
     1
 90
        0
176
     1
 40
0.6
176
     1
 40
30.0
176
     1
 62
     7
420
 16777215
176
     1
 90
        1
176
     1
 90
        4
176
     1
 62
     7
176
     1
 62
   257
176
     1
 90
        1
176
     1
 90
        1
176
     1
 40
1.0
176
     1
 90
        0
176
     1
 62
   257
176
     1
 40
1.0
176
     1
 90
        1
176
     1
 90
        6
176
     1
 90
        2
176
     1
 62
     7
176
     1
 90
        5
176
     1
 90
        0
176
     1
 90
        0
176
     1
290
     0
176
     1
 90
        1
176
     1
 40
0.0
176
     1
 90
        0
176
     1
290
     1
176
     1
290
     1
176
     1
290
     0
176
     1
290
     0
176
     1
290
     0
176
     1
290
     0
176
     1
290
     0
176
     1
290
     0
176
     1
290
     0
176
     1
 90
       50
176
     1
 40
0.0
176
     1
 40
1.0
176
     1
 90
        0
176
     1
 62
    18
420
        0
176
     1
 90
       50
176
     1
 90
        3
176
     1
 62
     5
420
      255
176
     1
290
     0
176
     1
 90
       50
176
     1
 90
       50
176
     1
 90
       50
176
     1
290
     0
176
     1
 90
       50
176
     1
 62
   256
176
     0
 40
1.0
176
     0
 90
        2
176
     1
  1
strokes_ogs.tif
176
     1
290
     0
176
     1
 40
1.0
176
     1
 40
1.0
176
     1
  0
VISUALSTYLE
  5
2E
102
{ACAD_REACTORS
330
29
102
}
330
29
100
AcDbVisualStyle
  2
Basic
 70
     7
177
     3
291
     1
 70
    58
 90
        1
176
     1
 90
        0
176
     1
 90
        1
176
     1
 90
        0
176
     1
 40
0.6
176
     1
 40
30.0
176
     1
 62
     7
420
 16777215
176
     1
 90
        0
176
     1
 90
        4
176
     1
 62
     7
176
     1
 62
   257
176
     1
 90
        1
176
     1
 90
        1
176
     1
 40
1.0
176
     1
 90
        8
176
     1
 62
     7
176
     1
 40
1.0
176
     1
 90
        1
176
     1
 90
        6
176
     1
 90
        2
176
     1
 62
     7
176
     1
 90
        5
176
     1
 90
        0
176
     1
 90
        0
176
     1
290
     0
176
     1
 90
        1
176
     1
 40
0.0
176
     1
 90
        0
176
     1
290
     0
176
     1
290
     1
176
     1
290
     1
176
     1
290
     0
176
     1
290
     0
176
     1
290
     0
176
     1
290
     0
176
     1
290
     0
176
     1
290
     0
176
     1
 90
       50
176
     1
 40
0.0
176
     1
 40
1.0
176
     1
 90
        0
176
     1
 62
    18
420
        0
176
     1
 90
       50
176
     1
 90
        3
176
     1
 62
     5
420
      255
176
     1
290
     0
176
     1
 90
       50
176
     1
 90
       50
176
     1
 90
       50
176
     1
290
     0
176
     1
 90
       50
176
     1
 62
   256
176
     0
 40
1.0
176
     0
 90
        2
176
     1
  1
strokes_ogs.tif
176
     1
290
     0
176
     1
 40
1.0
176
     1
 40
1.0
176
     1
  0
VISUALSTYLE
  5
35
102
{ACAD_REACTORS
330
29
102
}
330
29
100
AcDbVisualStyle
  2
Brighten
 70
    12
177
     3
291
     1
 70
    58
 90
        2
176
     1
 90
        2
176
     1
 90
        0
176
     1
 90
        0
176
     1
 40
0.6
176
     1
 40
30.0
176
     1
 62
     7
420
 16777215
176
     1
 90
        1
176
     1
 90
        4
176
     1
 62
     7
176
     1
 62
   257
176
     1
 90
        1
176
     1
 90
        1
176
     1
 40
1.0
176
     1
 90
        8
176
     1
 62
     7
176
     1
 40
1.0
176
     1
 90
        1
176
     1
 90
        6
176
     1
 90
        2
176
     1
 62
     7
176
     1
 90
        5
176
     1
 90
        0
176
     1
 90
        0
176
     1
290
     0
176
     1
 90
        1
176
     1
 40
50.0
176
     1
 90
        0
176
     1
290
     0
176
     1
290
     1
176
     1
290
     1
176
     1
290
     0
176
     1
290
     0
176
     1
290
     0
176
     1
290
     0
176
     1
290
     0
176
     1
290
     0
176
     1
 90
       50
176
     1
 40
0.0
176
     1
 40
1.0
176
     1
 90
        0
176
     1
 62
    18
420
        0
176
     1
 90
       50
176
     1
 90
        3
176
     1
 62
     5
420
      255
176
     1
290
     0
176
     1
 90
       50
176
     1
 90
       50
176
     1
 90
       50
176
     1
290
     0
176
     1
 90
       50
176
     1
 62
   256
176
     0
 40
1.0
176
     0
 90
        2
176
     1
  1
strokes_ogs.tif
176
     1
290
     0
176
     1
 40
1.0
176
     1
 40
1.0
176
     1
  0
VISUALSTYLE
  5
39
102
{ACAD_REACTORS
330
29
102
}
330
29
100
AcDbVisualStyle
  2
ColorChange
 70
    16
177
     3
291
     1
 70
    58
 90
        2
176
     1
 90
        2
176
     1
 90
        3
176
     1
 90
        0
176
     1
 40
0.6
176
     1
 40
30.0
176
     1
 62
     8
420
  8421504
176
     1
 90
        1
176
     1
 90
        4
176
     1
 62
     7
176
     1
 62
   257
176
     1
 90
        1
176
     1
 90
        1
176
     1
 40
1.0
176
     1
 90
        8
176
     1
 62
     8
420
  8421504
176
     1
 40
1.0
176
     1
 90
        1
176
     1
 90
        6
176
     1
 90
        2
176
     1
 62
     7
176
     1
 90
        5
176
     1
 90
        0
176
     1
 90
        0
176
     1
290
     0
176
     1
 90
        1
176
     1
 40
0.0
176
     1
 90
        0
176
     1
290
     0
176
     1
290
     1
176
     1
290
     1
176
     1
290
     0
176
     1
290
     0
176
     1
290
     0
176
     1
290
     0
176
     1
290
     0
176
     1
290
     0
176
     1
 90
       50
176
     1
 40
0.0
176
     1
 40
1.0
176
     1
 90
        0
176
     1
 62
    18
420
        0
176
     1
 90
       50
176
     1
 90
        3
176
     1
 62
     5
420
      255
176
     1
290
     0
176
     1
 90
       50
176
     1
 90
       50
176
     1
 90
       50
176
     1
290
     0
176
     1
 90
       50
176
     1
 62
   256
176
     0
 40
1.0
176
     0
 90
        2
176
     1
  1
strokes_ogs.tif
176
     1
290
     0
176
     1
 40
1.0
176
     1
 40
1.0
176
     1
  0
VISUALSTYLE
  5
32
102
{ACAD_REACTORS
330
29
102
}
330
29
100
AcDbVisualStyle
  2
Conceptual
 70
     9
177
     3
291
     0
 70
    58
 90
        3
176
     1
 90
        2
176
     1
 90
        0
176
     1
 90
        0
176
     1
 40
0.6
176
     1
 40
30.0
176
     1
 62
     7
420
 16777215
176
     1
 90
        2
176
     1
 90
        2
176
     1
 62
     7
176
     1
 62
   257
176
     1
 90
        1
176
     1
 90
        1
176
     1
 40
179.0
176
     1
 90
        8
176
     1
 62
     7
176
     1
 40
1.0
176
     1
 90
        1
176
     1
 90
        6
176
     1
 90
        2
176
     1
 62
     7
176
     1
 90
        3
176
     1
 90
        0
176
     1
 90
        0
176
     1
290
     0
176
     1
 90
        1
176
     1
 40
0.0
176
     1
 90
        0
176
     1
290
     0
176
     1
290
     1
176
     1
290
     1
176
     1
290
     0
176
     1
290
     0
176
     1
290
     0
176
     1
290
     0
176
     1
290
     0
176
     1
290
     0
176
     1
 90
       50
176
     1
 40
0.0
176
     1
 40
1.0
176
     1
 90
        0
176
     1
 62
    18
420
        0
176
     1
 90
       50
176
     1
 90
        3
176
     1
 62
     5
420
      255
176
     1
290
     0
176
     1
 90
       50
176
     1
 90
       50
176
     1
 90
       50
176
     1
290
     0
176
     1
 90
       50
176
     1
 62
   256
176
     0
 40
1.0
176
     0
 90
        2
176
     1
  1
strokes_ogs.tif
176
     1
290
     0
176
     1
 40
1.0
176
     1
 40
1.0
176
     1
  0
VISUALSTYLE
  5
34
102
{ACAD_REACTORS
330
29
102
}
330
29
100
AcDbVisualStyle
  2
Dim
 70
    11
177
     3
291
     1
 70
    58
 90
        2
176
     1
 90
        2
176
     1
 90
        0
176
     1
 90
        0
176
     1
 40
0.6
176
     1
 40
30.0
176
     1
 62
     7
420
 16777215
176
     1
 90
        1
176
     1
 90
        4
176
     1
 62
     7
176
     1
 62
   257
176
     1
 90
        1
176
     1
 90
        1
176
     1
 40
1.0
176
     1
 90
        8
176
     1
 62
     7
176
     1
 40
1.0
176
     1
 90
        1
176
     1
 90
        6
176
     1
 90
        2
176
     1
 62
     7
176
     1
 90
        5
176
     1
 90
        0
176
     1
 90
        0
176
     1
290
     0
176
     1
 90
        1
176
     1
 40
-50.0
176
     1
 90
        0
176
     1
290
     0
176
     1
290
     1
176
     1
290
     1
176
     1
290
     0
176
     1
290
     0
176
     1
290
     0
176
     1
290
     0
176
     1
290
     0
176
     1
290
     0
176
     1
 90
       50
176
     1
 40
0.0
176
     1
 40
1.0
176
     1
 90
        0
176
     1
 62
    18
420
        0
176
     1
 90
       50
176
     1
 90
        3
176
     1
 62
     5
420
      255
176
     1
290
     0
176
     1
 90
       50
176
     1
 90
       50
176
     1
 90
       50
176
     1
290
     0
176
     1
 90
       50
176
     1
 62
   256
176
     0
 40
1.0
176
     0
 90
        2
176
     1
  1
strokes_ogs.tif
176
     1
290
     0
176
     1
 40
1.0
176
     1
 40
1.0
176
     1
  0
VISUALSTYLE
  5
41
102
{ACAD_REACTORS
330
29
102
}
330
29
100
AcDbVisualStyle
  2
EdgeColorOff
 70
    22
177
     3
291
     1
 70
    58
 90
        2
176
     0
 90
        2
176
     0
 90
        0
176
     0
 90
        0
176
     0
 40
0.6
176
     0
 40
30.0
176
     0
 62
     7
420
 16777215
176
     0
 90
        1
176
     0
 90
        4
176
     0
 62
     7
176
     0
 62
   257
176
     0
 90
        1
176
     0
 90
        1
176
     0
 40
1.0
176
     0
 90
        8
176
     2
 62
     7
176
     0
 40
1.0
176
     0
 90
        1
176
     0
 90
        6
176
     0
 90
        2
176
     0
 62
     7
176
     0
 90
        5
176
     0
 90
        0
176
     0
 90
        0
176
     0
290
     0
176
     0
 90
        1
176
     0
 40
0.0
176
     0
 90
        0
176
     0
290
     0
176
     0
290
     1
176
     0
290
     1
176
     0
290
     0
176
     0
290
     0
176
     0
290
     0
176
     0
290
     0
176
     0
290
     0
176
     0
290
     0
176
     0
 90
       50
176
     0
 40
0.0
176
     0
 40
1.0
176
     0
 90
        0
176
     0
 62
    18
420
        0
176
     0
 90
       50
176
     0
 90
        3
176
     0
 62
     5
420
      255
176
     0
290
     0
176
     0
 90
       50
176
     0
 90
       50
176
     0
 90
       50
176
     0
290
     0
176
     0
 90
       50
176
     0
 62
   256
176
     0
 40
1.0
176
     0
 90
        2
176
     0
  1
strokes_ogs.tif
176
     0
290
     0
176
     0
 40
1.0
176
     0
 40
1.0
176
     0
  0
VISUALSTYLE
  5
38
102
{ACAD_REACTORS
330
29
102
}
330
29
100
AcDbVisualStyle
  2
Facepattern
 70
    15
177
     3
291
     1
 70
    58
 90
        2
176
     1
 90
        2
176
     1
 90
        0
176
     1
 90
        0
176
     1
 40
0.6
176
     1
 40
30.0
176
     1
 62
     7
420
 16777215
176
     1
 90
        1
176
     1
 90
        4
176
     1
 62
     7
176
     1
 62
   257
176
     1
 90
        1
176
     1
 90
        1
176
     1
 40
1.0
176
     1
 90
        8
176
     1
 62
     7
176
     1
 40
1.0
176
     1
 90
        1
176
     1
 90
        6
176
     1
 90
        2
176
     1
 62
     7
176
     1
 90
        5
176
     1
 90
        0
176
     1
 90
        0
176
     1
290
     0
176
     1
 90
        1
176
     1
 40
0.0
176
     1
 90
        0
176
     1
290
     0
176
     1
290
     1
176
     1
290
     1
176
     1
290
     0
176
     1
290
     0
176
     1
290
     0
176
     1
290
     0
176
     1
290
     0
176
     1
290
     0
176
     1
 90
       50
176
     1
 40
0.0
176
     1
 40
1.0
176
     1
 90
        0
176
     1
 62
    18
420
        0
176
     1
 90
       50
176
     1
 90
        3
176
     1
 62
     5
420
      255
176
     1
290
     0
176
     1
 90
       50
176
     1
 90
       50
176
     1
 90
       50
176
     1
290
     0
176
     1
 90
       50
176
     1
 62
   256
176
     0
 40
1.0
176
     0
 90
        2
176
     1
  1
strokes_ogs.tif
176
     1
290
     0
176
     1
 40
1.0
176
     1
 40
1.0
176
     1
  0
VISUALSTYLE
  5
2A
102
{ACAD_REACTORS
330
29
102
}
330
29
100
AcDbVisualStyle
  2
Flat
 70
     0
177
     3
291
     1
 70
    58
 90
        2
176
     1
 90
        1
176
     1
 90
        1
176
     1
 90
        2
176
     1
 40
0.6
176
     1
 40
30.0
176
     1
 62
     7
420
 16777215
176
     1
 90
        0
176
     1
 90
        0
176
     1
 62
     7
176
     1
 62
   257
176
     1
 90
        1
176
     1
 90
        1
176
     1
 40
1.0
176
     1
 90
        8
176
     1
 62
     7
176
     1
 40
1.0
176
     1
 90
        1
176
     1
 90
        6
176
     1
 90
        2
176
     1
 62
     7
176
     1
 90
        5
176
     1
 90
        0
176
     1
 90
        0
176
     1
290
     0
176
     1
 90
       13
176
     1
 40
0.0
176
     1
 90
        0
176
     1
290
     0
176
     1
290
     1
176
     1
290
     1
176
     1
290
     0
176
     1
290
     0
176
     1
290
     0
176
     1
290
     0
176
     1
290
     0
176
     1
290
     0
176
     1
 90
       50
176
     1
 40
0.0
176
     1
 40
1.0
176
     1
 90
        0
176
     1
 62
    18
420
        0
176
     1
 90
       50
176
     1
 90
        3
176
     1
 62
     5
420
      255
176
     1
290
     0
176
     1
 90
       50
176
     1
 90
       50
176
     1
 90
       50
176
     1
290
     0
176
     1
 90
       50
176
     1
 62
   256
176
     0
 40
1.0
176
     0
 90
        2
176
     1
  1
strokes_ogs.tif
176
     1
290
     0
176
     1
 40
1.0
176
     1
 40
1.0
176
     1
  0
VISUALSTYLE
  5
2B
102
{ACAD_REACTORS
330
29
102
}
330
29
100
AcDbVisualStyle
  2
FlatWithEdges
 70
     1
177
     3
291
     1
 70
    58
 90
        2
176
     1
 90
        1
176
     1
 90
        1
176
     1
 90
        2
176
     1
 40
0.6
176
     1
 40
30.0
176
     1
 62
     7
420
 16777215
176
     1
 90
        1
176
     1
 90
        0
176
     1
 62
     7
176
     1
 62
   257
176
     1
 90
        1
176
     1
 90
        1
176
     1
 40
1.0
176
     1
 90
        0
176
     1
 62
   257
176
     1
 40
1.0
176
     1
 90
        1
176
     1
 90
        6
176
     1
 90
        2
176
     1
 62
     7
176
     1
 90
        5
176
     1
 90
        0
176
     1
 90
        0
176
     1
290
     0
176
     1
 90
       13
176
     1
 40
0.0
176
     1
 90
        0
176
     1
290
     0
176
     1
290
     1
176
     1
290
     1
176
     1
290
     0
176
     1
290
     0
176
     1
290
     0
176
     1
290
     0
176
     1
290
     0
176
     1
290
     0
176
     1
 90
       50
176
     1
 40
0.0
176
     1
 40
1.0
176
     1
 90
        0
176
     1
 62
    18
420
        0
176
     1
 90
       50
176
     1
 90
        3
176
     1
 62
     5
420
      255
176
     1
290
     0
176
     1
 90
       50
176
     1
 90
       50
176
     1
 90
       50
176
     1
290
     0
176
     1
 90
       50
176
     1
 62
   256
176
     0
 40
1.0
176
     0
 90
        2
176
     1
  1
strokes_ogs.tif
176
     1
290
     0
176
     1
 40
1.0
176
     1
 40
1.0
176
     1
  0
VISUALSTYLE
  5
2C
102
{ACAD_REACTORS
330
29
102
}
330
29
100
AcDbVisualStyle
  2
Gouraud
 70
     2
177
     3
291
     1
 70
    58
 90
        2
176
     1
 90
        2
176
     1
 90
        1
176
     1
 90
        2
176
     1
 40
0.6
176
     1
 40
30.0
176
     1
 62
     7
420
 16777215
176
     1
 90
        0
176
     1
 90
        0
176
     1
 62
     7
176
     1
 62
   257
176
     1
 90
        1
176
     1
 90
        1
176
     1
 40
1.0
176
     1
 90
        0
176
     1
 62
     7
176
     1
 40
1.0
176
     1
 90
        1
176
     1
 90
        6
176
     1
 90
        2
176
     1
 62
     7
176
     1
 90
        5
176
     1
 90
        0
176
     1
 90
        0
176
     1
290
     0
176
     1
 90
       13
176
     1
 40
0.0
176
     1
 90
        0
176
     1
290
     0
176
     1
290
     1
176
     1
290
     1
176
     1
290
     0
176
     1
290
     0
176
     1
290
     0
176
     1
290
     0
176
     1
290
     0
176
     1
290
     0
176
     1
 90
       50
176
     1
 40
0.0
176
     1
 40
1.0
176
     1
 90
        0
176
     1
 62
    18
420
        0
176
     1
 90
       50
176
     1
 90
        3
176
     1
 62
     5
420
      255
176
     1
290
     0
176
     1
 90
       50
176
     1
 90
       50
176
     1
 90
       50
176
     1
290
     0
176
     1
 90
       50
176
     1
 62
   256
176
     0
 40
1.0
176
     0
 90
        2
176
     1
  1
strokes_ogs.tif
176
     1
290
     0
176
     1
 40
1.0
176
     1
 40
1.0
176
     1
  0
VISUALSTYLE
  5
2D
102
{ACAD_REACTORS
330
29
102
}
330
29
100
AcDbVisualStyle
  2
GouraudWithEdges
 70
     3
177
     3
291
     1
 70
    58
 90
        2
176
     1
 90
        2
176
     1
 90
        1
176
     1
 90
        2
176
     1
 40
0.6
176
     1
 40
30.0
176
     1
 62
     7
420
 16777215
176
     1
 90
        1
176
     1
 90
        0
176
     1
 62
     7
176
     1
 62
   257
176
     1
 90
        1
176
     1
 90
        1
176
     1
 40
1.0
176
     1
 90
        0
176
     1
 62
   257
176
     1
 40
1.0
176
     1
 90
        1
176
     1
 90
        6
176
     1
 90
        2
176
     1
 62
     7
176
     1
 90
        5
176
     1
 90
        0
176
     1
 90
        0
176
     1
290
     0
176
     1
 90
       13
176
     1
 40
0.0
176
     1
 90
        0
176
     1
290
     0
176
     1
290
     1
176
     1
290
     1
176
     1
290
     0
176
     1
290
     0
176
     1
290
     0
176
     1
290
     0
176
     1
290
     0
176
     1
290
     0
176
     1
 90
       50
176
     1
 40
0.0
176
     1
 40
1.0
176
     1
 90
        0
176
     1
 62
    18
420
        0
176
     1
 90
       50
176
     1
 90
        3
176
     1
 62
     5
420
      255
176
     1
290
     0
176
     1
 90
       50
176
     1
 90
       50
176
     1
 90
       50
176
     1
290
     0
176
     1
 90
       50
176
     1
 62
   256
176
     0
 40
1.0
176
     0
 90
        2
176
     1
  1
strokes_ogs.tif
176
     1
290
     0
176
     1
 40
1.0
176
     1
 40
1.0
176
     1
  0
VISUALSTYLE
  5
31
102
{ACAD_REACTORS
330
29
102
}
330
29
100
AcDbVisualStyle
  2
Hidden
 70
     6
177
     3
291
     0
 70
    58
 90
        1
176
     1
 90
        2
176
     1
 90
        2
176
     1
 90
        0
176
     1
 40
0.6
176
     1
 40
30.0
176
     1
 62
     7
420
 16777215
176
     1
 90
        2
176
     1
 90
        2
176
     1
 62
     7
176
     1
 62
   257
176
     1
 90
        2
176
     1
 90
        1
176
     1
 40
40.0
176
     1
 90
        0
176
     1
 62
   257
176
     1
 40
1.0
176
     1
 90
        1
176
     1
 90
        6
176
     1
 90
        2
176
     1
 62
     7
176
     1
 90
        3
176
     1
 90
        0
176
     1
 90
        0
176
     1
290
     0
176
     1
 90
        1
176
     1
 40
0.0
176
     1
 90
        0
176
     1
290
     0
176
     1
290
     1
176
     1
290
     1
176
     1
290
     0
176
     1
290
     0
176
     1
290
     0
176
     1
290
     0
176
     1
290
     0
176
     1
290
     0
176
     1
 90
       50
176
     1
 40
0.0
176
     1
 40
1.0
176
     1
 90
        0
176
     1
 62
    18
420
        0
176
     1
 90
       50
176
     1
 90
        3
176
     1
 62
     5
420
      255
176
     1
290
     0
176
     1
 90
       50
176
     1
 90
       50
176
     1
 90
       50
176
     1
290
     0
176
     1
 90
       50
176
     1
 62
   256
176
     0
 40
1.0
176
     0
 90
        2
176
     1
  1
strokes_ogs.tif
176
     1
290
     0
176
     1
 40
1.0
176
     1
 40
1.0
176
     1
  0
VISUALSTYLE
  5
3F
102
{ACAD_REACTORS
330
29
102
}
330
29
100
AcDbVisualStyle
  2
JitterOff
 70
    20
177
     3
291
     1
 70
    58
 90
        2
176
     0
 90
        2
176
     0
 90
        0
176
     0
 90
        0
176
     0
 40
0.6
176
     0
 40
30.0
176
     0
 62
     7
420
 16777215
176
     0
 90
        1
176
     0
 90
        4
176
     0
 62
     7
176
     0
 62
   257
176
     0
 90
        1
176
     0
 90
        1
176
     0
 40
1.0
176
     0
 90
       10
176
     2
 62
     7
176
     0
 40
1.0
176
     0
 90
        1
176
     0
 90
        6
176
     0
 90
        2
176
     0
 62
     7
176
     0
 90
        5
176
     0
 90
        0
176
     0
 90
        0
176
     0
290
     0
176
     0
 90
        1
176
     0
 40
0.0
176
     0
 90
        0
176
     0
290
     0
176
     0
290
     1
176
     0
290
     1
176
     0
290
     0
176
     0
290
     0
176
     0
290
     0
176
     0
290
     0
176
     0
290
     0
176
     0
290
     0
176
     0
 90
       50
176
     0
 40
0.0
176
     0
 40
1.0
176
     0
 90
        0
176
     0
 62
    18
420
        0
176
     0
 90
       50
176
     0
 90
        3
176
     0
 62
     5
420
      255
176
     0
290
     0
176
     0
 90
       50
176
     0
 90
       50
176
     0
 90
       50
176
     0
290
     0
176
     0
 90
       50
176
     0
 62
   256
176
     0
 40
1.0
176
     0
 90
        2
176
     0
  1
strokes_ogs.tif
176
     0
290
     0
176
     0
 40
1.0
176
     0
 40
1.0
176
     0
  0
VISUALSTYLE
  5
37
102
{ACAD_REACTORS
330
29
102
}
330
29
100
AcDbVisualStyle
  2
Linepattern
 70
    14
177
     3
291
     1
 70
    58
 90
        2
176
     1
 90
        2
176
     1
 90
        0
176
     1
 90
        0
176
     1
 40
0.6
176
     1
 40
30.0
176
     1
 62
     7
420
 16777215
176
     1
 90
        1
176
     1
 90
        4
176
     1
 62
     7
176
     1
 62
   257
176
     1
 90
        7
176
     1
 90
        7
176
     1
 40
1.0
176
     1
 90
        8
176
     1
 62
     7
176
     1
 40
1.0
176
     1
 90
        1
176
     1
 90
        6
176
     1
 90
        2
176
     1
 62
     7
176
     1
 90
        5
176
     1
 90
        0
176
     1
 90
        0
176
     1
290
     0
176
     1
 90
        1
176
     1
 40
0.0
176
     1
 90
        0
176
     1
290
     0
176
     1
290
     1
176
     1
290
     1
176
     1
290
     0
176
     1
290
     0
176
     1
290
     0
176
     1
290
     0
176
     1
290
     0
176
     1
290
     0
176
     1
 90
       50
176
     1
 40
0.0
176
     1
 40
1.0
176
     1
 90
        0
176
     1
 62
    18
420
        0
176
     1
 90
       50
176
     1
 90
        3
176
     1
 62
     5
420
      255
176
     1
290
     0
176
     1
 90
       50
176
     1
 90
       50
176
     1
 90
       50
176
     1
290
     0
176
     1
 90
       50
176
     1
 62
   256
176
     0
 40
1.0
176
     0
 90
        2
176
     1
  1
strokes_ogs.tif
176
     1
290
     0
176
     1
 40
1.0
176
     1
 40
1.0
176
     1
  0
VISUALSTYLE
  5
40
102
{ACAD_REACTORS
330
29
102
}
330
29
100
AcDbVisualStyle
  2
OverhangOff
 70
    21
177
     3
291
     1
 70
    58
 90
        2
176
     0
 90
        2
176
     0
 90
        0
176
     0
 90
        0
176
     0
 40
0.6
176
     0
 40
30.0
176
     0
 62
     7
420
 16777215
176
     0
 90
        1
176
     0
 90
        4
176
     0
 62
     7
176
     0
 62
   257
176
     0
 90
        1
176
     0
 90
        1
176
     0
 40
1.0
176
     0
 90
        9
176
     2
 62
     7
176
     0
 40
1.0
176
     0
 90
        1
176
     0
 90
        6
176
     0
 90
        2
176
     0
 62
     7
176
     0
 90
        5
176
     0
 90
        0
176
     0
 90
        0
176
     0
290
     0
176
     0
 90
        1
176
     0
 40
0.0
176
     0
 90
        0
176
     0
290
     0
176
     0
290
     1
176
     0
290
     1
176
     0
290
     0
176
     0
290
     0
176
     0
290
     0
176
     0
290
     0
176
     0
290
     0
176
     0
290
     0
176
     0
 90
       50
176
     0
 40
0.0
176
     0
 40
1.0
176
     0
 90
        0
176
     0
 62
    18
420
        0
176
     0
 90
       50
176
     0
 90
        3
176
     0
 62
     5
420
      255
176
     0
290
     0
176
     0
 90
       50
176
     0
 90
       50
176
     0
 90
       50
176
     0
290
     0
176
     0
 90
       50
176
     0
 62
   256
176
     0
 40
1.0
176
     0
 90
        2
176
     0
  1
strokes_ogs.tif
176
     0
290
     0
176
     0
 40
1.0
176
     0
 40
1.0
176
     0
  0
VISUALSTYLE
  5
33
102
{ACAD_REACTORS
330
29
102
}
330
29
100
AcDbVisualStyle
  2
Realistic
 70
     8
177
     3
291
     0
 70
    58
 90
        2
176
     1
 90
        3
176
     1
 90
        0
176
     1
 90
        2
176
     1
 40
0.6
176
     1
 40
30.0
176
     1
 62
     7
420
 16777215
176
     1
 90
        0
176
     1
 90
        0
176
     1
 62
     7
176
     1
 62
   257
176
     1
 90
        1
176
     1
 90
        1
176
     1
 40
1.0
176
     1
 90
        8
176
     1
 62
   257
176
     1
 40
1.0
176
     1
 90
        1
176
     1
 90
        6
176
     1
 90
        2
176
     1
 62
     7
176
     1
 90
        3
176
     1
 90
        0
176
     1
 90
        0
176
     1
290
     0
176
     1
 90
       13
176
     1
 40
0.0
176
     1
 90
        0
176
     1
290
     0
176
     1
290
     1
176
     1
290
     1
176
     1
290
     0
176
     1
290
     0
176
     1
290
     0
176
     1
290
     0
176
     1
290
     0
176
     1
290
     0
176
     1
 90
       50
176
     1
 40
0.0
176
     1
 40
1.0
176
     1
 90
        0
176
     1
 62
    18
420
        0
176
     1
 90
       50
176
     1
 90
        3
176
     1
 62
     5
420
      255
176
     1
290
     0
176
     1
 90
       50
176
     1
 90
       50
176
     1
 90
       50
176
     1
290
     0
176
     1
 90
       50
176
     1
 62
   256
176
     0
 40
1.0
176
     0
 90
        2
176
     1
  1
strokes_ogs.tif
176
     1
290
     0
176
     1
 40
1.0
176
     1
 40
1.0
176
     1
  0
VISUALSTYLE
  5
3E
102
{ACAD_REACTORS
330
29
102
}
330
29
100
AcDbVisualStyle
  2
Shaded
 70
    27
177
     3
291
     0
 70
    58
 90
        2
176
     1
 90
        2
176
     1
 90
        1
176
     1
 90
        2
176
     1
 40
0.6
176
     1
 40
30.0
176
     1
 62
     7
420
 16777215
176
     1
 90
        0
176
     1
 90
        4
176
     1
 62
     7
176
     1
 62
   257
176
     1
 90
        1
176
     1
 90
        1
176
     1
 40
1.0
176
     1
 90
        8
176
     1
 62
   257
176
     1
 40
1.0
176
     1
 90
        1
176
     1
 90
        6
176
     1
 90
        2
176
     1
 62
     8
420
  7895160
176
     1
 90
        3
176
     1
 90
        0
176
     1
 90
        0
176
     1
290
     0
176
     1
 90
        5
176
     1
 40
0.0
176
     1
 90
        0
176
     1
290
     0
176
     1
290
     1
176
     1
290
     1
176
     1
290
     0
176
     1
290
     0
176
     1
290
     0
176
     1
290
     0
176
     1
290
     0
176
     1
290
     0
176
     1
 90
       50
176
     1
 40
0.0
176
     1
 40
1.0
176
     1
 90
        0
176
     1
 62
    18
420
        0
176
     1
 90
       50
176
     1
 90
        3
176
     1
 62
     5
420
      255
176
     1
290
     0
176
     1
 90
       50
176
     1
 90
       50
176
     1
 90
       50
176
     1
290
     0
176
     1
 90
       50
176
     1
 62
   256
176
     0
 40
1.0
176
     0
 90
        2
176
     1
  1
strokes_ogs.tif
176
     1
290
     0
176
     1
 40
1.0
176
     1
 40
1.0
176
     1
  0
VISUALSTYLE
  5
3D
102
{ACAD_REACTORS
330
29
102
}
330
29
100
AcDbVisualStyle
  2
Shaded with edges
 70
    26
177
     3
291
     0
 70
    58
 90
        2
176
     1
 90
        2
176
     1
 90
        1
176
     1
 90
        2
176
     1
 40
0.6
176
     1
 40
30.0
176
     1
 62
     7
420
 16777215
176
     1
 90
        1
176
     1
 90
        2
176
     1
 62
     7
176
     1
 62
   257
176
     1
 90
        2
176
     1
 90
        1
176
     1
 40
1.0
176
     1
 90
        8
176
     1
 62
   257
176
     1
 40
1.0
176
     1
 90
        1
176
     1
 90
        6
176
     1
 90
        2
176
     1
 62
     7
176
     1
 90
        3
176
     1
 90
        0
176
     1
 90
        0
176
     1
290
     0
176
     1
 90
        5
176
     1
 40
0.0
176
     1
 90
        0
176
     1
290
     0
176
     1
290
     1
176
     1
290
     1
176
     1
290
     0
176
     1
290
     0
176
     1
290
     0
176
     1
290
     0
176
     1
290
     0
176
     1
290
     0
176
     1
 90
       50
176
     1
 40
0.0
176
     1
 40
1.0
176
     1
 90
        0
176
     1
 62
    18
420
        0
176
     1
 90
       50
176
     1
 90
        3
176
     1
 62
     5
420
      255
176
     1
290
     0
176
     1
 90
       50
176
     1
 90
       50
176
     1
 90
       50
176
     1
290
     0
176
     1
 90
       50
176
     1
 62
   256
176
     0
 40
1.0
176
     0
 90
        2
176
     1
  1
strokes_ogs.tif
176
     1
290
     0
176
     1
 40
1.0
176
     1
 40
1.0
176
     1
  0
VISUALSTYLE
  5
3A
102
{ACAD_REACTORS
330
29
102
}
330
29
100
AcDbVisualStyle
  2
Shades of Gray
 70
    23
177
     3
291
     0
 70
    58
 90
        2
176
     1
 90
        2
176
     1
 90
        3
176
     1
 90
        0
176
     1
 40
0.6
176
     1
 40
30.0
176
     1
 62
     7
420
 16777215
176
     1
 90
        2
176
     1
 90
        2
176
     1
 62
     7
176
     1
 62
     7
176
     1
 90
        1
176
     1
 90
        1
176
     1
 40
40.0
176
     1
 90
        8
176
     1
 62
     7
176
     1
 40
1.0
176
     1
 90
        1
176
     1
 90
        6
176
     1
 90
        2
176
     1
 62
     7
176
     1
 90
        3
176
     1
 90
        0
176
     1
 90
        0
176
     1
290
     0
176
     1
 90
        1
176
     1
 40
0.0
176
     1
 90
        0
176
     1
290
     0
176
     1
290
     1
176
     1
290
     1
176
     1
290
     0
176
     1
290
     0
176
     1
290
     0
176
     1
290
     0
176
     1
290
     0
176
     1
290
     0
176
     1
 90
       50
176
     1
 40
0.0
176
     1
 40
1.0
176
     1
 90
        0
176
     1
 62
    18
420
        0
176
     1
 90
       50
176
     1
 90
        3
176
     1
 62
     5
420
      255
176
     1
290
     0
176
     1
 90
       50
176
     1
 90
       50
176
     1
 90
       50
176
     1
290
     0
176
     1
 90
       50
176
     1
 62
   256
176
     0
 40
1.0
176
     0
 90
        2
176
     1
  1
strokes_ogs.tif
176
     1
290
     0
176
     1
 40
1.0
176
     1
 40
1.0
176
     1
  0
VISUALSTYLE
  5
3B
102
{ACAD_REACTORS
330
29
102
}
330
29
100
AcDbVisualStyle
  2
Sketchy
 70
    24
177
     3
291
     0
 70
    58
 90
        1
176
     1
 90
        2
176
     1
 90
        2
176
     1
 90
        0
176
     1
 40
0.6
176
     1
 40
30.0
176
     1
 62
     7
420
 16777215
176
     1
 90
        2
176
     1
 90
        2
176
     1
 62
     7
176
     1
 62
     7
176
     1
 90
        1
176
     1
 90
        1
176
     1
 40
40.0
176
     1
 90
       11
176
     1
 62
     7
176
     1
 40
1.0
176
     1
 90
        1
176
     1
 90
        6
176
     1
 90
        2
176
     1
 62
     7
176
     1
 90
        6
176
     1
 90
        0
176
     1
 90
        0
176
     1
290
     0
176
     1
 90
        1
176
     1
 40
0.0
176
     1
 90
        0
176
     1
290
     0
176
     1
290
     1
176
     1
290
     1
176
     1
290
     0
176
     1
290
     0
176
     1
290
     0
176
     1
290
     0
176
     1
290
     0
176
     1
290
     0
176
     1
 90
       50
176
     1
 40
0.0
176
     1
 40
1.0
176
     1
 90
        0
176
     1
 62
    18
420
        0
176
     1
 90
       50
176
     1
 90
        3
176
     1
 62
     5
420
      255
176
     1
290
     0
176
     1
 90
       50
176
     1
 90
       50
176
     1
 90
       50
176
     1
290
     0
176
     1
 90
       50
176
     1
 62
   256
176
     0
 40
1.0
176
     0
 90
        2
176
     1
  1
strokes_ogs.tif
176
     1
290
     0
176
     1
 40
1.0
176
     1
 40
1.0
176
     1
  0
VISUALSTYLE
  5
36
102
{ACAD_REACTORS
330
29
102
}
330
29
100
AcDbVisualStyle
  2
Thicken
 70
    13
177
     3
291
     1
 70
    58
 90
        2
176
     1
 90
        2
176
     1
 90
        0
176
     1
 90
        0
176
     1
 40
0.6
176
     1
 40
30.0
176
     1
 62
     7
420
 16777215
176
     1
 90
        1
176
     1
 90
        4
176
     1
 62
     7
176
     1
 62
   257
176
     1
 90
        1
176
     1
 90
        1
176
     1
 40
1.0
176
     1
 90
       12
176
     1
 62
     7
176
     1
 40
1.0
176
     1
 90
        1
176
     1
 90
        6
176
     1
 90
        2
176
     1
 62
     7
176
     1
 90
        5
176
     1
 90
        0
176
     1
 90
        0
176
     1
290
     0
176
     1
 90
        1
176
     1
 40
0.0
176
     1
 90
        0
176
     1
290
     0
176
     1
290
     1
176
     1
290
     1
176
     1
290
     0
176
     1
290
     0
176
     1
290
     0
176
     1
290
     0
176
     1
290
     0
176
     1
290
     0
176
     1
 90
       50
176
     1
 40
0.0
176
     1
 40
1.0
176
     1
 90
        0
176
     1
 62
    18
420
        0
176
     1
 90
       50
176
     1
 90
        3
176
     1
 62
     5
420
      255
176
     1
290
     0
176
     1
 90
       50
176
     1
 90
       50
176
     1
 90
       50
176
     1
290
     0
176
     1
 90
       50
176
     1
 62
   256
176
     0
 40
1.0
176
     0
 90
        2
176
     1
  1
strokes_ogs.tif
176
     1
290
     0
176
     1
 40
1.0
176
     1
 40
1.0
176
     1
  0
VISUALSTYLE
  5
30
102
{ACAD_REACTORS
330
29
102
}
330
29
100
AcDbVisualStyle
  2
Wireframe
 70
     5
177
     3
291
     0
 70
    58
 90
        0
176
     1
 90
        2
176
     1
 90
        0
176
     1
 90
        0
176
     1
 40
0.6
176
     1
 40
30.0
176
     1
 62
     7
420
 16777215
176
     1
 90
        1
176
     1
 90
        4
176
     1
 62
     7
176
     1
 62
   257
176
     1
 90
        1
176
     1
 90
        1
176
     1
 40
1.0
176
     1
 90
        0
176
     1
 62
   257
176
     1
 40
1.0
176
     1
 90
        1
176
     1
 90
        6
176
     1
 90
        2
176
     1
 62
     7
176
     1
 90
        3
176
     1
 90
        0
176
     1
 90
        0
176
     1
290
     0
176
     1
 90
        1
176
     1
 40
0.0
176
     1
 90
        0
176
     1
290
     0
176
     1
290
     1
176
     1
290
     1
176
     1
290
     0
176
     1
290
     0
176
     1
290
     0
176
     1
290
     0
176
     1
290
     0
176
     1
290
     0
176
     1
 90
       50
176
     1
 40
0.0
176
     1
 40
1.0
176
     1
 90
        0
176
     1
 62
    18
420
        0
176
     1
 90
       50
176
     1
 90
        3
176
     1
 62
     5
420
      255
176
     1
290
     0
176
     1
 90
       50
176
     1
 90
       50
176
     1
 90
       50
176
     1
290
     0
176
     1
 90
       50
176
     1
 62
   256
176
     0
 40
1.0
176
     0
 90
        2
176
     1
  1
strokes_ogs.tif
176
     1
290
     0
176
     1
 40
1.0
176
     1
 40
1.0
176
     1
  0
VISUALSTYLE
  5
3C
102
{ACAD_REACTORS
330
29
102
}
330
29
100
AcDbVisualStyle
  2
X-Ray
 70
    25
177
     3
291
     0
 70
    58
 90
        2
176
     1
 90
        2
176
     1
 90
        1
176
     1
 90
        1
176
     1
 40
0.5
176
     1
 40
30.0
176
     1
 62
     7
420
 16777215
176
     1
 90
        1
176
     1
 90
        0
176
     1
 62
     7
176
     1
 62
   257
176
     1
 90
        1
176
     1
 90
        1
176
     1
 40
1.0
176
     1
 90
        8
176
     1
 62
     7
176
     1
 40
1.0
176
     1
 90
        1
176
     1
 90
        6
176
     1
 90
        2
176
     1
 62
     7
176
     1
 90
        3
176
     1
 90
        0
176
     1
 90
        0
176
     1
290
     0
176
     1
 90
       13
176
     1
 40
0.0
176
     1
 90
        0
176
     1
290
     0
176
     1
290
     1
176
     1
290
     1
176
     1
290
     0
176
     1
290
     0
176
     1
290
     0
176
     1
290
     0
176
     1
290
     0
176
     1
290
     0
176
     1
 90
       50
176
     1
 40
0.0
176
     1
 40
1.0
176
     1
 90
        0
176
     1
 62
    18
420
        0
176
     1
 90
       50
176
     1
 90
        3
176
     1
 62
     5
420
      255
176
     1
290
     0
176
     1
 90
       50
176
     1
 90
       50
176
     1
 90
       50
176
     1
290
     0
176
     1
 90
       50
176
     1
 62
   256
176
     0
 40
1.0
176
     0
 90
        2
176
     1
  1
strokes_ogs.tif
176
     1
290
     0
176
     1
 40
1.0
176
     1
 40
1.0
176
     1
  0
DICTIONARYVAR
  5
259
102
{ACAD_REACTORS
330
254
102
}
330
254
100
DictionaryVariables
280
     0
  1
1:1
  0
DICTIONARYVAR
  5
256
102
{ACAD_REACTORS
330
254
102
}
330
254
100
DictionaryVariables
280
     0
  1
STANDARD
  0
DICTIONARYVAR
  5
255
102
{ACAD_REACTORS
330
254
102
}
330
254
100
DictionaryVariables
280
     0
  1
STANDARD
  0
DICTIONARYVAR
  5
257
102
{ACAD_REACTORS
330
254
102
}
330
254
100
DictionaryVariables
280
     0
  1
Imperial24
  0
DICTIONARYVAR
  5
258
102
{ACAD_REACTORS
330
254
102
}
330
254
100
DictionaryVariables
280
     0
  1
Imperial24
  0
DICTIONARY
  5
1A
330
19
100
AcDbDictionary
280
     1
281
     1
  3
BUMPTILE
360
1C
  3
DIFFUSETILE
360
1B
  3
OPACITYTILE
360
1F
  3
REFLECTIONTILE
360
1E
  3
REFRACTIONTILE
360
20
  3
SPECULARTILE
360
1D
  0
DICTIONARY
  5
12
330
11
100
AcDbDictionary
280
     1
281
     1
  3
BUMPTILE
360
14
  3
DIFFUSETILE
360
13
  3
OPACITYTILE
360
17
  3
REFLECTIONTILE
360
16
  3
REFRACTIONTILE
360
18
  3
SPECULARTILE
360
15
  0
DICTIONARY
  5
22
330
21
100
AcDbDictionary
280
     1
281
     1
  3
BUMPTILE
360
24
  3
DIFFUSETILE
360
23
  3
OPACITYTILE
360
27
  3
REFLECTIONTILE
360
26
  3
REFRACTIONTILE
360
28
  3
SPECULARTILE
360
25
  0
DICTIONARY
  5
25A
330
65
100
AcDbDictionary
280
     1
281
     1
  3
ACAD_ROUNDTRIP_2008_TABLESTYLE_CELLSTYLEMAP
360
25B
  0
XRECORD
  5
1C
102
{ACAD_REACTORS
330
1A
102
}
330
1A
100
AcDbXrecord
280
     1
270
     1
271
     1
  0
XRECORD
  5
1B
102
{ACAD_REACTORS
330
1A
102
}
330
1A
100
AcDbXrecord
280
     1
270
     1
271
     1
  0
XRECORD
  5
1F
102
{ACAD_REACTORS
330
1A
102
}
330
1A
100
AcDbXrecord
280
     1
270
     1
271
     1
  0
XRECORD
  5
1E
102
{ACAD_REACTORS
330
1A
102
}
330
1A
100
AcDbXrecord
280
     1
270
     1
271
     1
  0
XRECORD
  5
20
102
{ACAD_REACTORS
330
1A
102
}
330
1A
100
AcDbXrecord
280
     1
270
     1
271
     1
  0
XRECORD
  5
1D
102
{ACAD_REACTORS
330
1A
102
}
330
1A
100
AcDbXrecord
280
     1
270
     1
271
     1
  0
XRECORD
  5
14
102
{ACAD_REACTORS
330
12
102
}
330
12
100
AcDbXrecord
280
     1
270
     1
271
     1
  0
XRECORD
  5
13
102
{ACAD_REACTORS
330
12
102
}
330
12
100
AcDbXrecord
280
     1
270
     1
271
     1
  0
XRECORD
  5
17
102
{ACAD_REACTORS
330
12
102
}
330
12
100
AcDbXrecord
280
     1
270
     1
271
     1
  0
XRECORD
  5
16
102
{ACAD_REACTORS
330
12
102
}
330
12
100
AcDbXrecord
280
     1
270
     1
271
     1
  0
XRECORD
  5
18
102
{ACAD_REACTORS
330
12
102
}
330
12
100
AcDbXrecord
280
     1
270
     1
271
     1
  0
XRECORD
  5
15
102
{ACAD_REACTORS
330
12
102
}
330
12
100
AcDbXrecord
280
     1
270
     1
271
     1
  0
XRECORD
  5
24
102
{ACAD_REACTORS
330
22
102
}
330
22
100
AcDbXrecord
280
     1
270
     1
271
     1
  0
XRECORD
  5
23
102
{ACAD_REACTORS
330
22
102
}
330
22
100
AcDbXrecord
280
     1
270
     1
271
     1
  0
XRECORD
  5
27
102
{ACAD_REACTORS
330
22
102
}
330
22
100
AcDbXrecord
280
     1
270
     1
271
     1
  0
XRECORD
  5
26
102
{ACAD_REACTORS
330
22
102
}
330
22
100
AcDbXrecord
280
     1
270
     1
271
     1
  0
XRECORD
  5
28
102
{ACAD_REACTORS
330
22
102
}
330
22
100
AcDbXrecord
280
     1
270
     1
271
     1
  0
XRECORD
  5
25
102
{ACAD_REACTORS
330
22
102
}
330
22
100
AcDbXrecord
280
     1
270
     1
271
     1
  0
CELLSTYLEMAP
  5
25B
102
{ACAD_REACTORS
330
25A
102
}
330
25A
100
AcDbCellStyleMap
 90
        3
300
CELLSTYLE
  1
TABLEFORMAT_BEGIN
 90
        5
170
     1
 91
        0
 92
    32768
 62
   257
 93
        1
300
CONTENTFORMAT
  1
CONTENTFORMAT_BEGIN
 90
        0
 91
        0
 92
      512
 93
        0
300

 40
0.0
140
1.0
 94
        5
 62
     0
340
55
144
0.25
309
CONTENTFORMAT_END
171
     0
 94
        0
309
TABLEFORMAT_END
  1
CELLSTYLE_BEGIN
 90
        1
 91
        1
300
_TITLE
309
CELLSTYLE_END
300
CELLSTYLE
  1
TABLEFORMAT_BEGIN
 90
        5
170
     1
 91
        0
 92
        0
 62
   257
 93
        1
300
CONTENTFORMAT
  1
CONTENTFORMAT_BEGIN
 90
        0
 91
        0
 92
      512
 93
        0
300

 40
0.0
140
1.0
 94
        5
 62
     0
340
55
144
0.18
309
CONTENTFORMAT_END
171
     0
 94
        0
309
TABLEFORMAT_END
  1
CELLSTYLE_BEGIN
 90
        2
 91
        1
300
_HEADER
309
CELLSTYLE_END
300
CELLSTYLE
  1
TABLEFORMAT_BEGIN
 90
        5
170
     1
 91
        0
 92
        0
 62
   257
 93
        1
300
CONTENTFORMAT
  1
CONTENTFORMAT_BEGIN
 90
        0
 91
        0
 92
      512
 93
        0
300

 40
0.0
140
1.0
 94
        2
 62
     0
340
55
144
0.18
309
CONTENTFORMAT_END
171
     0
 94
        0
309
TABLEFORMAT_END
  1
CELLSTYLE_BEGIN
 90
        3
 91
        2
300
_DATA
309
CELLSTYLE_END
  0
ENDSEC
  0
EOF
