  0
SECTION
  2
HEADER
  9
$ACADVER
  1
AC1032
  9
$ACADMAINTVER
 90
      228
  9
$DWGCODEPAGE
  3
ANSI_932
  9
$REQUIREDVERSIONS
160
                 0
  9
$INSBASE
 10
0.0
 20
0.0
 30
0.0
  9
$EXTMIN
 10
1.000000000000000E+20
 20
1.000000000000000E+20
 30
1.000000000000000E+20
  9
$EXTMAX
 10
-1.000000000000000E+20
 20
-1.000000000000000E+20
 30
-1.000000000000000E+20
  9
$LIMMIN
 10
0.0
 20
0.0
  9
$LIMMAX
 10
12.0
 20
9.0
  9
$ORTHOMODE
 70
     0
  9
$REGENMODE
 70
     1
  9
$FILLMODE
 70
     1
  9
$QTEXTMODE
 70
     0
  9
$MIRRTEXT
 70
     0
  9
$LTSCALE
 40
1.0
  9
$ATTMODE
 70
     1
  9
$TEXTSIZE
 40
0.2
  9
$TRACEWID
 40
0.05
  9
$TEXTSTYLE
  7
Standard
  9
$CLAYER
  8
0
  9
$CELTYPE
  6
ByLayer
  9
$CECOLOR
 62
   256
  9
$CELTSCALE
 40
1.0
  9
$DISPSILH
 70
     0
  9
$DIMSCALE
 40
1.0
  9
$DIMASZ
 40
0.18
  9
$DIMEXO
 40
0.0625
  9
$DIMDLI
 40
0.38
  9
$DIMRND
 40
0.0
  9
$DIMDLE
 40
0.0
  9
$DIMEXE
 40
0.18
  9
$DIMTP
 40
0.0
  9
$DIMTM
 40
0.0
  9
$DIMTXT
 40
0.18
  9
$DIMCEN
 40
0.09
  9
$DIMTSZ
 40
0.0
  9
$DIMTOL
 70
     0
  9
$DIMLIM
 70
     0
  9
$DIMTIH
 70
     1
  9
$DIMTOH
 70
     1
  9
$DIMSE1
 70
     0
  9
$DIMSE2
 70
     0
  9
$DIMTAD
 70
     0
  9
$DIMZIN
 70
     0
  9
$DIMBLK
  1

  9
$DIMASO
 70
     1
  9
$DIMSHO
 70
     1
  9
$DIMPOST
  1

  9
$DIMAPOST
  1

  9
$DIMALT
 70
     0
  9
$DIMALTD
 70
     2
  9
$DIMALTF
 40
25.4
  9
$DIMLFAC
 40
1.0
  9
$DIMTOFL
 70
     0
  9
$DIMTVP
 40
0.0
  9
$DIMTIX
 70
     0
  9
$DIMSOXD
 70
     0
  9
$DIMSAH
 70
     0
  9
$DIMBLK1
  1

  9
$DIMBLK2
  1

  9
$DIMSTYLE
  2
Standard
  9
$DIMCLRD
 70
     0
  9
$DIMCLRE
 70
     0
  9
$DIMCLRT
 70
     0
  9
$DIMTFAC
 40
1.0
  9
$DIMGAP
 40
0.09
  9
$DIMJUST
 70
     0
  9
$DIMSD1
 70
     0
  9
$DIMSD2
 70
     0
  9
$DIMTOLJ
 70
     1
  9
$DIMTZIN
 70
     0
  9
$DIMALTZ
 70
     0
  9
$DIMALTTZ
 70
     0
  9
$DIMUPT
 70
     0
  9
$DIMDEC
 70
     4
  9
$DIMTDEC
 70
     4
  9
$DIMALTU
 70
     2
  9
$DIMALTTD
 70
     2
  9
$DIMTXSTY
  7
Standard
  9
$DIMAUNIT
 70
     0
  9
$DIMADEC
 70
     0
  9
$DIMALTRND
 40
0.0
  9
$DIMAZIN
 70
     0
  9
$DIMDSEP
 70
    46
  9
$DIMATFIT
 70
     3
  9
$DIMFRAC
 70
     0
  9
$DIMLDRBLK
  1

  9
$DIMLUNIT
 70
     2
  9
$DIMLWD
 70
    -2
  9
$DIMLWE
 70
    -2
  9
$DIMTMOVE
 70
     0
  9
$DIMFXL
 40
1.0
  9
$DIMFXLON
 70
     0
  9
$DIMJOGANG
 40
0.7853981633974483
  9
$DIMTFILL
 70
     0
  9
$DIMTFILLCLR
 70
     0
  9
$DIMARCSYM
 70
     0
  9
$DIMLTYPE
  6

  9
$DIMLTEX1
  6

  9
$DIMLTEX2
  6

  9
$DIMTXTDIRECTION
 70
     0
  9
$LUNITS
 70
     2
  9
$LUPREC
 70
     4
  9
$SKETCHINC
 40
0.1
  9
$FILLETRAD
 40
0.0
  9
$AUNITS
 70
     0
  9
$AUPREC
 70
     0
  9
$MENU
  1
.
  9
$ELEVATION
 40
0.0
  9
$PELEVATION
 40
0.0
  9
$THICKNESS
 40
0.0
  9
$LIMCHECK
 70
     0
  9
$CHAMFERA
 40
0.0
  9
$CHAMFERB
 40
0.0
  9
$CHAMFERC
 40
0.0
  9
$CHAMFERD
 40
0.0
  9
$SKPOLY
 70
     0
  9
$TDCREATE
 40
2460062.599409722
  9
$TDUCREATE
 40
2460062.224409722
  9
$TDUPDATE
 40
2460062.599409722
  9
$TDUUPDATE
 40
2460062.224409722
  9
$TDINDWG
 40
0.0000000000
  9
$TDUSRTIMER
 40
0.0000000000
  9
$USRTIMER
 70
     1
  9
$ANGBASE
 50
0.0
  9
$ANGDIR
 70
     0
  9
$PDMODE
 70
     0
  9
$PDSIZE
 40
0.0
  9
$PLINEWID
 40
0.0
  9
$SPLFRAME
 70
     0
  9
$SPLINETYPE
 70
     6
  9
$SPLINESEGS
 70
     8
  9
$HANDSEED
  5
1AD
  9
$SURFTAB1
 70
     6
  9
$SURFTAB2
 70
     6
  9
$SURFTYPE
 70
     6
  9
$SURFU
 70
     6
  9
$SURFV
 70
     6
  9
$UCSBASE
  2

  9
$UCSNAME
  2

  9
$UCSORG
 10
0.0
 20
0.0
 30
0.0
  9
$UCSXDIR
 10
1.0
 20
0.0
 30
0.0
  9
$UCSYDIR
 10
0.0
 20
1.0
 30
0.0
  9
$UCSORTHOREF
  2

  9
$UCSORTHOVIEW
 70
     0
  9
$UCSORGTOP
 10
0.0
 20
0.0
 30
0.0
  9
$UCSORGBOTTOM
 10
0.0
 20
0.0
 30
0.0
  9
$UCSORGLEFT
 10
0.0
 20
0.0
 30
0.0
  9
$UCSORGRIGHT
 10
0.0
 20
0.0
 30
0.0
  9
$UCSORGFRONT
 10
0.0
 20
0.0
 30
0.0
  9
$UCSORGBACK
 10
0.0
 20
0.0
 30
0.0
  9
$PUCSBASE
  2

  9
$PUCSNAME
  2

  9
$PUCSORG
 10
0.0
 20
0.0
 30
0.0
  9
$PUCSXDIR
 10
1.0
 20
0.0
 30
0.0
  9
$PUCSYDIR
 10
0.0
 20
1.0
 30
0.0
  9
$PUCSORTHOREF
  2

  9
$PUCSORTHOVIEW
 70
     0
  9
$PUCSORGTOP
 10
0.0
 20
0.0
 30
0.0
  9
$PUCSORGBOTTOM
 10
0.0
 20
0.0
 30
0.0
  9
$PUCSORGLEFT
 10
0.0
 20
0.0
 30
0.0
  9
$PUCSORGRIGHT
 10
0.0
 20
0.0
 30
0.0
  9
$PUCSORGFRONT
 10
0.0
 20
0.0
 30
0.0
  9
$PUCSORGBACK
 10
0.0
 20
0.0
 30
0.0
  9
$USERI1
 70
     0
  9
$USERI2
 70
     0
  9
$USERI3
 70
     0
  9
$USERI4
 70
     0
  9
$USERI5
 70
     0
  9
$USERR1
 40
0.0
  9
$USERR2
 40
0.0
  9
$USERR3
 40
0.0
  9
$USERR4
 40
0.0
  9
$USERR5
 40
0.0
  9
$WORLDVIEW
 70
     1
  9
$SHADEDGE
 70
     3
  9
$SHADEDIF
 70
    70
  9
$TILEMODE
 70
     1
  9
$MAXACTVP
 70
    64
  9
$PINSBASE
 10
0.0
 20
0.0
 30
0.0
  9
$PLIMCHECK
 70
     0
  9
$PEXTMIN
 10
1.000000000000000E+20
 20
1.000000000000000E+20
 30
1.000000000000000E+20
  9
$PEXTMAX
 10
-1.000000000000000E+20
 20
-1.000000000000000E+20
 30
-1.000000000000000E+20
  9
$PLIMMIN
 10
0.0
 20
0.0
  9
$PLIMMAX
 10
12.0
 20
9.0
  9
$UNITMODE
 70
     0
  9
$VISRETAIN
 70
     1
  9
$PLINEGEN
 70
     0
  9
$PSLTSCALE
 70
     1
  9
$TREEDEPTH
 70
  3020
  9
$CMLSTYLE
  2
Standard
  9
$CMLJUST
 70
     0
  9
$CMLSCALE
 40
1.0
  9
$PROXYGRAPHICS
 70
     1
  9
$MEASUREMENT
 70
     0
  9
$CELWEIGHT
370
    -1
  9
$ENDCAPS
280
     0
  9
$JOINSTYLE
280
     0
  9
$LWDISPLAY
290
     1
  9
$INSUNITS
 70
     4
  9
$HYPERLINKBASE
  1

  9
$STYLESHEET
  1

  9
$XEDIT
290
     1
  9
$CEPSNTYPE
380
     0
  9
$PSTYLEMODE
290
     1
  9
$FINGERPRINTGUID
  2
{E856B1A9-210B-A145-B169-E1556C5690DC}
  9
$VERSIONGUID
  2
{11DF0C26-A05B-794D-B0BF-BF2505DFCA92}
  9
$EXTNAMES
290
     1
  9
$PSVPSCALE
 40
0.0
  9
$OLESTARTUP
290
     0
  9
$SORTENTS
280
   127
  9
$INDEXCTL
280
     0
  9
$HIDETEXT
280
     1
  9
$XCLIPFRAME
280
     2
  9
$HALOGAP
280
     0
  9
$OBSCOLOR
 70
   257
  9
$OBSLTYPE
280
     0
  9
$INTERSECTIONDISPLAY
280
     0
  9
$INTERSECTIONCOLOR
 70
   257
  9
$DIMASSOC
280
     2
  9
$PROJECTNAME
  1

  9
$CAMERADISPLAY
290
     0
  9
$LENSLENGTH
 40
50.0
  9
$CAMERAHEIGHT
 40
0.0
  9
$STEPSPERSEC
 40
2.0
  9
$STEPSIZE
 40
6.0
  9
$3DDWFPREC
 40
2.0
  9
$PSOLWIDTH
 40
0.25
  9
$PSOLHEIGHT
 40
4.0
  9
$LOFTANG1
 40
1.570796326794896
  9
$LOFTANG2
 40
1.570796326794896
  9
$LOFTMAG1
 40
0.0
  9
$LOFTMAG2
 40
0.0
  9
$LOFTPARAM
 70
     7
  9
$LOFTNORMALS
280
     1
  9
$LATITUDE
 40
37.795
  9
$LONGITUDE
 40
-122.394
  9
$NORTHDIRECTION
 40
0.0
  9
$TIMEZONE
 70
 -8000
  9
$LIGHTGLYPHDISPLAY
280
     1
  9
$TILEMODELIGHTSYNCH
280
     1
  9
$CMATERIAL
347
11
  9
$SOLIDHIST
280
     0
  9
$SHOWHIST
280
     1
  9
$DWFFRAME
280
     2
  9
$DGNFRAME
280
     0
  9
$REALWORLDSCALE
290
     1
  9
$INTERFERECOLOR
 62
     1
  9
$INTERFEREOBJVS
345
33
  9
$INTERFEREVPVS
346
30
  9
$CSHADOW
280
     0
  9
$SHADOWPLANELOCATION
 40
0.0
  0
ENDSEC
  0
SECTION
  2
CLASSES
  0
CLASS
  1
ACDBDICTIONARYWDFLT
  2
AcDbDictionaryWithDefault
  3
ObjectDBX Classes
 90
        0
 91
        1
280
     0
281
     0
  0
CLASS
  1
MATERIAL
  2
AcDbMaterial
  3
ObjectDBX Classes
 90
     1153
 91
        3
280
     0
281
     0
  0
CLASS
  1
VISUALSTYLE
  2
AcDbVisualStyle
  3
ObjectDBX Classes
 90
     4095
 91
       24
280
     0
281
     0
  0
CLASS
  1
SCALE
  2
AcDbScale
  3
ObjectDBX Classes
 90
     1153
 91
       17
280
     0
281
     0
  0
CLASS
  1
TABLESTYLE
  2
AcDbTableStyle
  3
ObjectDBX Classes
 90
     4095
 91
        1
280
     0
281
     0
  0
CLASS
  1
MLEADERSTYLE
  2
AcDbMLeaderStyle
  3
ACDB_MLEADERSTYLE_CLASS
 90
     4095
 91
        1
280
     0
281
     0
  0
CLASS
  1
ACDBSECTIONVIEWSTYLE
  2
AcDbSectionViewStyle
  3
ObjectDBX Classes
 90
     1025
 91
        1
280
     0
281
     0
  0
CLASS
  1
ACDBDETAILVIEWSTYLE
  2
AcDbDetailViewStyle
  3
ObjectDBX Classes
 90
     1025
 91
        1
280
     0
281
     0
  0
CLASS
  1
DICTIONARYVAR
  2
AcDbDictionaryVar
  3
ObjectDBX Classes
 90
        0
 91
        5
280
     0
281
     0
  0
CLASS
  1
CELLSTYLEMAP
  2
AcDbCellStyleMap
  3
ObjectDBX Classes
 90
     1152
 91
        1
280
     0
281
     0
  0
ENDSEC
  0
SECTION
  2
TABLES
  0
TABLE
  2
VPORT
  5
8
330
0
100
AcDbSymbolTable
 70
     1
  0
VPORT
  5
57
330
8
100
AcDbSymbolTableRecord
100
AcDbViewportTableRecord
  2
*Active
 70
     0
 10
0.0
 20
0.0
 11
1.0
 21
1.0
 12
0.0
 22
0.0
 13
0.0
 23
0.0
 14
1.0
 24
1.0
 15
0.0
 25
0.0
 16
0.0
 26
0.0
 36
1.0
 17
338.666666582
 27
190.4999999523751
 37
0.0
 40
388.8749999028449
 41
1.776612021857632
 42
50.0
 43
0.0
 44
0.0
 50
0.0
 51
0.0
 71
     0
 72
   100
 73
     1
 74
     1
 75
     0
 76
     0
 77
     0
 78
     0
281
     0
 65
     1
110
0.0
120
0.0
130
0.0
111
1.0
121
0.0
131
0.0
112
0.0
122
1.0
132
0.0
 79
     0
146
0.0
 60
     3
 61
     5
292
     1
282
     1
141
0.0
142
0.0
 63
   250
421
  3355443
  0
ENDTAB
  0
TABLE
  2
LTYPE
  5
5
330
0
100
AcDbSymbolTable
 70
     1
  0
LTYPE
  5
5B
330
5
100
AcDbSymbolTableRecord
100
AcDbLinetypeTableRecord
  2
ByBlock
 70
     0
  3

 72
    65
 73
     0
 40
0.0
  0
LTYPE
  5
5C
330
5
100
AcDbSymbolTableRecord
100
AcDbLinetypeTableRecord
  2
ByLayer
 70
     0
  3

 72
    65
 73
     0
 40
0.0
  0
LTYPE
  5
5D
330
5
100
AcDbSymbolTableRecord
100
AcDbLinetypeTableRecord
  2
Continuous
 70
     0
  3
Solid line
 72
    65
 73
     0
 40
0.0
  0
ENDTAB
  0
TABLE
  2
LAYER
  5
2
330
0
100
AcDbSymbolTable
 70
     5
  0
LAYER
  5
54
330
2
100
AcDbSymbolTableRecord
100
AcDbLayerTableRecord
  2
0
 70
     0
 62
     7
  6
Continuous
370
    -3
390
F
347
21
348
0
  0
LAYER
  5
78
330
2
100
AcDbSymbolTableRecord
100
AcDbLayerTableRecord
  2
FLAME
 70
     0
 62
     7
  6
Continuous
370
     0
390
F
347
21
348
0
  0
LAYER
  5
7D
330
2
100
AcDbSymbolTableRecord
100
AcDbLayerTableRecord
  2
text
 70
     0
 62
     7
  6
Continuous
370
     0
390
F
347
21
348
0
  0
LAYER
  5
81
330
2
100
AcDbSymbolTableRecord
100
AcDbLayerTableRecord
  2
shade
 70
     0
 62
     7
  6
Continuous
370
     0
390
F
347
21
348
0
  0
LAYER
  5
1A2
330
2
100
AcDbSymbolTableRecord
100
AcDbLayerTableRecord
  2
Defpoints
 70
     0
 62
     7
  6
Continuous
290
     0
370
     0
390
F
347
21
348
0
  0
ENDTAB
  0
TABLE
  2
STYLE
  5
3
330
0
100
AcDbSymbolTable
 70
     2
  0
STYLE
  5
55
330
3
100
AcDbSymbolTableRecord
100
AcDbTextStyleTableRecord
  2
Standard
 70
     0
 40
0.0
 41
1.0
 50
0.0
 71
     0
 42
0.2
  3
txt
  4

  0
STYLE
  5
5A
330
3
100
AcDbSymbolTableRecord
100
AcDbTextStyleTableRecord
  2
Annotative
 70
     0
 40
0.0
 41
1.0
 50
0.0
 71
     0
 42
0.2
  3
txt
  4

1001
AcadAnnotative
1000
AnnotativeData
1002
{
1070
     1
1070
     1
1002
}
  0
ENDTAB
  0
TABLE
  2
VIEW
  5
6
330
0
100
AcDbSymbolTable
 70
     0
  0
ENDTAB
  0
TABLE
  2
UCS
  5
7
330
0
100
AcDbSymbolTable
 70
     0
  0
ENDTAB
  0
TABLE
  2
APPID
  5
9
330
0
100
AcDbSymbolTable
 70
     2
  0
APPID
  5
56
330
9
100
AcDbSymbolTableRecord
100
AcDbRegAppTableRecord
  2
ACAD
 70
     0
  0
APPID
  5
5E
330
9
100
AcDbSymbolTableRecord
100
AcDbRegAppTableRecord
  2
AcadAnnotative
 70
     0
  0
ENDTAB
  0
TABLE
  2
DIMSTYLE
  5
A
330
0
100
AcDbSymbolTable
 70
     2
100
AcDbDimStyleTable
 71
     0
  0
DIMSTYLE
105
58
330
A
100
AcDbSymbolTableRecord
100
AcDbDimStyleTableRecord
  2
Standard
 70
     0
340
55
  0
DIMSTYLE
105
59
330
A
100
AcDbSymbolTableRecord
100
AcDbDimStyleTableRecord
  2
Annotative
 70
     0
340
55
1001
AcadAnnotative
1000
AnnotativeData
1002
{
1070
     1
1070
     1
1002
}
  0
ENDTAB
  0
TABLE
  2
BLOCK_RECORD
  5
1
330
0
100
AcDbSymbolTable
 70
     1
  0
BLOCK_RECORD
  5
70
330
1
100
AcDbSymbolTableRecord
100
AcDbBlockTableRecord
  2
*Model_Space
340
73
 70
     0
280
     1
281
     0
  0
BLOCK_RECORD
  5
6C
330
1
100
AcDbSymbolTableRecord
100
AcDbBlockTableRecord
  2
*Paper_Space
340
6F
 70
     0
280
     1
281
     0
  0
BLOCK_RECORD
  5
74
330
1
100
AcDbSymbolTableRecord
100
AcDbBlockTableRecord
  2
*Paper_Space0
340
77
 70
     0
280
     1
281
     0
  0
ENDTAB
  0
ENDSEC
  0
SECTION
  2
BLOCKS
  0
BLOCK
  5
71
330
70
100
AcDbEntity
  8
0
100
AcDbBlockBegin
  2
*Model_Space
 70
     0
 10
0.0
 20
0.0
 30
0.0
  3
*Model_Space
  1

  0
ENDBLK
  5
72
330
70
100
AcDbEntity
  8
0
100
AcDbBlockEnd
  0
BLOCK
  5
6D
330
6C
100
AcDbEntity
 67
     1
  8
0
100
AcDbBlockBegin
  2
*Paper_Space
 70
     0
 10
0.0
 20
0.0
 30
0.0
  3
*Paper_Space
  1

  0
ENDBLK
  5
6E
330
6C
100
AcDbEntity
 67
     1
  8
0
100
AcDbBlockEnd
  0
BLOCK
  5
75
330
74
100
AcDbEntity
 67
     1
  8
0
100
AcDbBlockBegin
  2
*Paper_Space0
 70
     0
 10
0.0
 20
0.0
 30
0.0
  3
*Paper_Space0
  1

  0
ENDBLK
  5
76
330
74
100
AcDbEntity
 67
     1
  8
0
100
AcDbBlockEnd
  0
ENDSEC
  0
SECTION
  2
ENTITIES
  0
LINE
  5
79
330
70
100
AcDbEntity
  8
FLAME
 62
     2
420
 16776960
370
    25
100
AcDbLine
 10
396.3939392948366
 20
129.5656565332635
 30
0.0
 11
280.9393938691503
 21
129.5656565332635
 31
0.0
  0
LINE
  5
7A
330
70
100
AcDbEntity
  8
FLAME
 62
     2
420
 16776960
370
    25
100
AcDbLine
 10
396.3939392948366
 20
135.9797979458141
 30
0.0
 11
280.9393938691503
 21
135.9797979458141
 31
0.0
  0
LINE
  5
7B
330
70
100
AcDbEntity
  8
FLAME
 62
     2
420
 16776960
370
    25
100
AcDbLine
 10
396.3939392948366
 20
142.3939393583378
 30
0.0
 11
280.9393938691503
 21
142.3939393583378
 31
0.0
  0
LWPOLYLINE
  5
7C
330
70
100
AcDbEntity
  8
FLAME
 62
     2
420
 16776960
370
    25
100
AcDbPolyline
 90
        4
 70
     1
 43
0.0
 10
396.3939392948366
 20
123.1515151207256
 10
396.3939392948366
 20
257.8484847840244
 10
280.9393938691503
 20
257.8484847840244
 10
280.9393938691503
 20
123.1515151207256
  0
MTEXT
  5
7E
330
70
100
AcDbEntity
  8
text
100
AcDbMText
 10
285.1485293205314
 20
131.3884810225185
 30
0.0
 40
0.2
 41
0.0
 46
0.0
 71
     7
 72
     1
  1
\C4;\c16776960;\FMS PMincho|b0|i0|c128;\H3.207070;\W1.000000;KF320M/KF320MSW
 73
     1
 44
1.0
  0
MTEXT
  5
7F
330
70
100
AcDbEntity
  8
text
100
AcDbMText
 10
285.1226265088517
 20
125.3457404776967
 30
0.0
 40
0.2
 41
0.0
 46
0.0
 71
     7
 72
     1
  1
\C4;\c16776960;\FMS PMincho|b0|i0|c128;\H3.207070;\W0.856289;E26 LED電球(100W相当　電球色 全方向/広配光タイプ）
 73
     1
 44
1.0
  0
MTEXT
  5
80
330
70
100
AcDbEntity
  8
text
100
AcDbMText
 10
285.130528696621
 20
137.7999759753427
 30
0.0
 40
0.2
 41
0.0
 46
0.0
 71
     7
 72
     1
  1
\C4;\c16776960;\FMS PMincho|b0|i0|c128;\H3.207070;\W1.000000;フロアランプ　320M スノードロップ
 73
     1
 44
1.0
  0
LINE
  5
82
330
70
100
AcDbEntity
  8
shade
 62
     6
420
 16711935
370
    25
100
AcDbLine
 10
348.609953019771
 20
163.2515667600118
 30
0.0
 11
348.6816632738898
 21
163.2537941708586
 31
0.0
  0
SPLINE
  5
83
330
70
100
AcDbEntity
  8
shade
 62
     6
420
 16711935
370
    25
100
AcDbSpline
210
0.0
220
0.0
230
1.0
 70
     8
 71
     3
 72
     8
 73
     4
 74
     0
 42
0.0000000001
 43
0.0000000001
 40
0.0
 40
0.0
 40
0.0
 40
0.0
 40
1.0
 40
1.0
 40
1.0
 40
1.0
 10
348.6050032179373
 20
163.2461219779983
 30
0.0
 10
348.6050032179373
 20
163.2490918591011
 30
0.0
 10
348.6071687562416
 20
163.2513192699216
 30
0.0
 10
348.609953019771
 20
163.2515667600118
 30
0.0
  0
LINE
  5
84
330
70
100
AcDbEntity
  8
shade
 62
     6
420
 16711935
370
    25
100
AcDbLine
 10
348.6816014013608
 20
163.257011542051
 30
0.0
 11
348.6188626630798
 21
165.1010602162467
 31
0.0
  0
LINE
  5
85
330
70
100
AcDbEntity
  8
shade
 62
     6
420
 16711935
370
    25
100
AcDbLine
 10
349.4386735922647
 20
165.1290265966343
 30
0.0
 11
349.5063621323799
 21
163.1426711196171
 31
0.0
  0
SPLINE
  5
86
330
70
100
AcDbEntity
  8
shade
 62
     6
420
 16711935
370
    25
100
AcDbSpline
210
0.0
220
0.0
230
1.0
 70
     8
 71
     3
 72
     8
 73
     4
 74
     0
 42
0.0000000001
 43
0.0000000001
 40
0.0
 40
0.0
 40
0.0
 40
0.0
 40
1.0
 40
1.0
 40
1.0
 40
1.0
 10
349.3857107126187
 20
165.1785246149983
 30
0.0
 10
349.4141102006565
 20
165.1795145753702
 30
0.0
 10
349.4378073769508
 20
165.1572404670986
 30
0.0
 10
349.4386735922647
 20
165.1290265966343
 30
0.0
  0
SPLINE
  5
87
330
70
100
AcDbEntity
  8
shade
 62
     6
420
 16711935
370
    25
100
AcDbSpline
210
0.0
220
0.0
230
1.0
 70
     8
 71
     3
 72
     8
 73
     4
 74
     0
 42
0.0000000001
 43
0.0000000001
 40
0.0
 40
0.0
 40
0.0
 40
0.0
 40
1.0
 40
1.0
 40
1.0
 40
1.0
 10
348.6188626630798
 20
165.1010602162467
 30
0.0
 10
348.6178727027208
 20
165.1295215768141
 30
0.0
 10
348.6400230659338
 20
165.1530331355472
 30
0.0
 10
348.6684225539722
 20
165.1540230959062
 30
0.0
  0
SPLINE
  5
88
330
70
100
AcDbEntity
  8
shade
 62
     6
420
 16711935
370
    25
100
AcDbSpline
210
0.0
220
0.0
230
1.0
 70
     8
 71
     3
 72
    71
 73
    67
 74
     0
 42
0.0000000001
 43
0.0000000001
 40
0.0
 40
0.0
 40
0.0
 40
0.0
 40
1.0
 40
1.0
 40
1.0
 40
2.0
 40
2.0
 40
2.0
 40
3.0
 40
3.0
 40
3.0
 40
4.0
 40
4.0
 40
4.0
 40
5.0
 40
5.0
 40
5.0
 40
6.0
 40
6.0
 40
6.0
 40
7.0
 40
7.0
 40
7.0
 40
8.0
 40
8.0
 40
8.0
 40
9.0
 40
9.0
 40
9.0
 40
10.0
 40
10.0
 40
10.0
 40
11.0
 40
11.0
 40
11.0
 40
12.0
 40
12.0
 40
12.0
 40
13.0
 40
13.0
 40
13.0
 40
14.0
 40
14.0
 40
14.0
 40
15.0
 40
15.0
 40
15.0
 40
16.0
 40
16.0
 40
16.0
 40
17.0
 40
17.0
 40
17.0
 40
18.0
 40
18.0
 40
18.0
 40
19.0
 40
19.0
 40
19.0
 40
20.0
 40
20.0
 40
20.0
 40
21.0
 40
21.0
 40
21.0
 40
22.0
 40
22.0
 40
22.0
 40
22.0
 10
328.995002046805
 20
238.2639574177815
 30
0.0
 10
328.9125259737043
 20
238.2593788510822
 30
0.0
 10
328.8299261555591
 20
238.2548002843829
 30
0.0
 10
328.7478831901087
 20
238.245457533411
 30
0.0
 10
328.6773485139489
 20
238.2372284878554
 30
0.0
 10
328.6071232003811
 20
238.2255964535603
 30
0.0
 10
328.5375784845797
 20
238.211489518315
 30
0.0
 10
328.4745922562085
 20
238.1985581610157
 30
0.0
 10
328.411977262972
 20
238.1840181181201
 30
0.0
 10
328.3500428675016
 20
238.1673744094355
 30
0.0
 10
328.2944194693587
 20
238.1524631314056
 30
0.0
 10
328.2392910513949
 20
238.1360050402947
 30
0.0
 10
328.184533868579
 20
238.11824762622
 30
0.0
 10
328.137387006094
 20
238.102903240526
 30
0.0
 10
328.0906113787438
 20
238.0865688944602
 30
0.0
 10
328.0443926040886
 20
238.0689352254303
 30
0.0
 10
327.9822725910312
 20
238.045361794168
 30
0.0
 10
327.9207094306956
 20
238.0199321872461
 30
0.0
 10
327.8602599757769
 20
237.9923989145355
 30
0.0
 10
327.8018523140918
 20
237.9657937296545
 30
0.0
 10
327.744063377657
 20
237.9375179866481
 30
0.0
 10
327.6874500191553
 20
237.9073860679691
 30
0.0
 10
327.6297848277521
 20
237.8768210416398
 30
0.0
 10
327.5729858516763
 20
237.8445235846426
 30
0.0
 10
327.5172387084881
 20
237.8108030596365
 30
0.0
 10
327.4032076486864
 20
237.7415058339251
 30
0.0
 10
327.2931983028618
 20
237.6660213559314
 30
0.0
 10
327.1872725435571
 20
237.5850302233689
 30
0.0
 10
327.0808518040731
 20
237.5034203655824
 30
0.0
 10
326.9783290335348
 20
237.4164894708277
 30
0.0
 10
326.8803848296956
 20
237.3249800093867
 30
0.0
 10
326.7821931357667
 20
237.2334086754037
 30
0.0
 10
326.688641881053
 20
237.1370731571607
 30
0.0
 10
326.5995454479932
 20
237.0367159249139
 30
0.0
 10
326.5100777797993
 20
236.936111202591
 30
0.0
 10
326.4251886782909
 20
236.8312991486897
 30
0.0
 10
326.3446306534053
 20
236.7234553411964
 30
0.0
 10
326.2663000393404
 20
236.6184576697346
 30
0.0
 10
326.1919292667502
 20
236.5104901171699
 30
0.0
 10
326.121394590577
 20
236.400109536211
 30
0.0
 10
326.0567996766093
 20
236.2986385985738
 30
0.0
 10
325.9951746437447
 20
236.195187740166
 30
0.0
 10
325.9367669820727
 20
236.0900044511569
 30
0.0
 10
325.9152353440837
 20
236.0509010166403
 30
0.0
 10
325.8939511961839
 20
236.0117357096076
 30
0.0
 10
325.8731620284775
 20
235.9721991674408
 30
0.0
 10
325.8476705490132
 20
235.9233817468172
 30
0.0
 10
325.8226740497416
 20
235.8746261987361
 30
0.0
 10
325.7984200207394
 20
235.8251900528882
 30
0.0
 10
325.7692161899033
 20
235.7659161759155
 30
0.0
 10
325.7410023194261
 20
235.7060854461945
 30
0.0
 10
325.7137784093341
 20
235.6458834813657
 30
0.0
 10
325.6818521874847
 20
235.5754725502372
 30
0.0
 10
325.6511634160975
 20
235.5046285114583
 30
0.0
 10
325.6218358402166
 20
235.4331657474422
 30
0.0
 10
325.5881771877394
 20
235.3513083995658
 30
0.0
 10
325.5562509658771
 20
235.2686467089045
 30
0.0
 10
325.5259334296373
 20
235.1855519105667
 30
0.0
 10
325.4917797969676
 20
235.0913819306152
 30
0.0
 10
325.4594823399835
 20
234.9965932254527
 30
0.0
 10
325.4292885487755
 20
234.9010620500082
 30
0.0
 10
325.3953824061956
 20
234.7940225852733
 30
0.0
 10
325.3638274194808
 20
234.68617877778
 30
0.0
 10
325.3353660589272
 20
234.5774687549328
 30
0.0
 10
325.3036873271678
 20
234.4561986099479
 30
0.0
 10
325.2758446918382
 20
234.3338766320615
 30
0.0
 10
325.2480020565087
 20
234.2117402717226
 30
0.0
  0
SPLINE
  5
89
330
70
100
AcDbEntity
  8
shade
 62
     6
420
 16711935
370
    25
100
AcDbSpline
210
0.0
220
0.0
230
1.0
 70
     8
 71
     3
 72
    71
 73
    67
 74
     0
 42
0.0000000001
 43
0.0000000001
 40
0.0
 40
0.0
 40
0.0
 40
0.0
 40
1.0
 40
1.0
 40
1.0
 40
2.0
 40
2.0
 40
2.0
 40
3.0
 40
3.0
 40
3.0
 40
4.0
 40
4.0
 40
4.0
 40
5.0
 40
5.0
 40
5.0
 40
6.0
 40
6.0
 40
6.0
 40
7.0
 40
7.0
 40
7.0
 40
8.0
 40
8.0
 40
8.0
 40
9.0
 40
9.0
 40
9.0
 40
10.0
 40
10.0
 40
10.0
 40
11.0
 40
11.0
 40
11.0
 40
12.0
 40
12.0
 40
12.0
 40
13.0
 40
13.0
 40
13.0
 40
14.0
 40
14.0
 40
14.0
 40
15.0
 40
15.0
 40
15.0
 40
16.0
 40
16.0
 40
16.0
 40
17.0
 40
17.0
 40
17.0
 40
18.0
 40
18.0
 40
18.0
 40
19.0
 40
19.0
 40
19.0
 40
20.0
 40
20.0
 40
20.0
 40
21.0
 40
21.0
 40
21.0
 40
22.0
 40
22.0
 40
22.0
 40
22.0
 10
324.746710875507
 20
234.3187178639282
 30
0.0
 10
324.7761621964327
 20
234.4474745841996
 30
0.0
 10
324.8056135173585
 20
234.5762313044713
 30
0.0
 10
324.8392721698491
 20
234.7039361918548
 30
0.0
 10
324.8697134511467
 20
234.8196378097955
 30
0.0
 10
324.9036195937269
 20
234.9345350849247
 30
0.0
 10
324.9397531471407
 20
235.0488755073454
 30
0.0
 10
324.97167936899
 20
235.1490471220181
 30
0.0
 10
325.0053380214668
 20
235.2489093740858
 30
0.0
 10
325.0409765947014
 20
235.3479054107994
 30
0.0
 10
325.0715416210307
 20
235.4322995321148
 30
0.0
 10
325.10346784288
 20
235.5160749282063
 30
0.0
 10
325.1368790052806
 20
235.5992934715758
 30
0.0
 10
325.1643504054755
 20
235.6676007369285
 30
0.0
 10
325.1929355110742
 20
235.7355367671202
 30
0.0
 10
325.2223868319999
 20
235.8029159446301
 30
0.0
 10
325.2473833312844
 20
235.8598386657507
 30
0.0
 10
325.2731223008251
 20
235.9163282792079
 30
0.0
 10
325.2996037406613
 20
235.9725704025752
 30
0.0
 10
325.3262089255291
 20
236.0289981435165
 30
0.0
 10
325.3536803257239
 20
236.084992776794
 30
0.0
 10
325.3818941961878
 20
236.1406161749373
 30
0.0
 10
325.4489640110788
 20
236.2727758839751
 30
0.0
 10
325.5207361377138
 20
236.4025225646187
 30
0.0
 10
325.5970868310346
 20
236.5296705992939
 30
0.0
 10
325.6747987198757
 20
236.6589841722739
 30
0.0
 10
325.7572129204471
 20
236.7854516091823
 30
0.0
 10
325.8445769228657
 20
236.908516057351
 30
0.0
 10
325.9320646703289
 20
237.0317042505779
 30
0.0
 10
326.0245022196259
 20
237.1516750725856
 30
0.0
 10
326.1218895707565
 20
237.2675004355445
 30
0.0
 10
326.2191531768423
 20
237.3834495435748
 30
0.0
 10
326.3214903298197
 20
237.4949438299507
 30
0.0
 10
326.4289010296762
 20
237.6017976770984
 30
0.0
 10
326.5359404943845
 20
237.7082184165827
 30
0.0
 10
326.6480535059847
 20
237.8095656091748
 30
0.0
 10
326.7651163194317
 20
237.9050967846328
 30
0.0
 10
326.877167458503
 20
237.9963587559838
 30
0.0
 10
326.9936115467128
 20
238.0825471804695
 30
0.0
 10
327.1142629664737
 20
238.1621152449833
 30
0.0
 10
327.1569550073043
 20
238.1902053704155
 30
0.0
 10
327.2002039008564
 20
238.2177386431262
 30
0.0
 10
327.2438859020722
 20
238.2442200829492
 30
0.0
 10
327.2862067077683
 20
238.2699590525031
 30
0.0
 10
327.3290224936568
 20
238.2948936792586
 30
0.0
 10
327.3722713871961
 20
238.3188383456287
 30
0.0
 10
327.42127442538
 20
238.346371618366
 30
0.0
 10
327.4709580613174
 20
238.3726055680859
 30
0.0
 10
327.5212604224924
 20
238.3977876849448
 30
0.0
 10
327.585669718886
 20
238.4302707594891
 30
0.0
 10
327.6510071031225
 20
238.4607739133025
 30
0.0
 10
327.7171488301706
 20
238.4895446364885
 30
0.0
 10
327.7800113134838
 20
238.5167685465802
 30
0.0
 10
327.8434925220478
 20
238.5422600260445
 30
0.0
 10
327.9077780733966
 20
238.5659572023382
 30
0.0
 10
327.9808495230088
 20
238.5928098773091
 30
0.0
 10
328.0549728055091
 20
238.6173732689166
 30
0.0
 10
328.129776685763
 20
238.6392142695249
 30
0.0
 10
328.2142945521367
 20
238.6637776611325
 30
0.0
 10
328.299802378856
 20
238.684938063974
 30
0.0
 10
328.3859908033417
 20
238.7033142032996
 30
0.0
 10
328.4817694688762
 20
238.7236083908403
 30
0.0
 10
328.5783524772087
 20
238.7401902269826
 30
0.0
 10
328.6754923382497
 20
238.7515747712012
 30
0.0
 10
328.7758495704833
 20
238.7635161681419
 30
0.0
 10
328.8767636554384
 20
238.7699509105272
 30
0.0
 10
328.977739612896
 20
238.7764475254412
 30
0.0
  0
SPLINE
  5
8A
330
70
100
AcDbEntity
  8
shade
 62
     6
420
 16711935
370
    25
100
AcDbSpline
210
0.0
220
0.0
230
1.0
 70
     8
 71
     3
 72
   188
 73
   184
 74
     0
 42
0.0000000001
 43
0.0000000001
 40
0.0
 40
0.0
 40
0.0
 40
0.0
 40
1.0
 40
1.0
 40
1.0
 40
2.0
 40
2.0
 40
2.0
 40
3.0
 40
3.0
 40
3.0
 40
4.0
 40
4.0
 40
4.0
 40
5.0
 40
5.0
 40
5.0
 40
6.0
 40
6.0
 40
6.0
 40
7.0
 40
7.0
 40
7.0
 40
8.0
 40
8.0
 40
8.0
 40
9.0
 40
9.0
 40
9.0
 40
10.0
 40
10.0
 40
10.0
 40
11.0
 40
11.0
 40
11.0
 40
12.0
 40
12.0
 40
12.0
 40
13.0
 40
13.0
 40
13.0
 40
14.0
 40
14.0
 40
14.0
 40
15.0
 40
15.0
 40
15.0
 40
16.0
 40
16.0
 40
16.0
 40
17.0
 40
17.0
 40
17.0
 40
18.0
 40
18.0
 40
18.0
 40
19.0
 40
19.0
 40
19.0
 40
20.0
 40
20.0
 40
20.0
 40
21.0
 40
21.0
 40
21.0
 40
22.0
 40
22.0
 40
22.0
 40
23.0
 40
23.0
 40
23.0
 40
24.0
 40
24.0
 40
24.0
 40
25.0
 40
25.0
 40
25.0
 40
26.0
 40
26.0
 40
26.0
 40
27.0
 40
27.0
 40
27.0
 40
28.0
 40
28.0
 40
28.0
 40
29.0
 40
29.0
 40
29.0
 40
30.0
 40
30.0
 40
30.0
 40
31.0
 40
31.0
 40
31.0
 40
32.0
 40
32.0
 40
32.0
 40
33.0
 40
33.0
 40
33.0
 40
34.0
 40
34.0
 40
34.0
 40
35.0
 40
35.0
 40
35.0
 40
36.0
 40
36.0
 40
36.0
 40
37.0
 40
37.0
 40
37.0
 40
38.0
 40
38.0
 40
38.0
 40
39.0
 40
39.0
 40
39.0
 40
40.0
 40
40.0
 40
40.0
 40
41.0
 40
41.0
 40
41.0
 40
42.0
 40
42.0
 40
42.0
 40
43.0
 40
43.0
 40
43.0
 40
44.0
 40
44.0
 40
44.0
 40
45.0
 40
45.0
 40
45.0
 40
46.0
 40
46.0
 40
46.0
 40
47.0
 40
47.0
 40
47.0
 40
48.0
 40
48.0
 40
48.0
 40
49.0
 40
49.0
 40
49.0
 40
50.0
 40
50.0
 40
50.0
 40
51.0
 40
51.0
 40
51.0
 40
52.0
 40
52.0
 40
52.0
 40
53.0
 40
53.0
 40
53.0
 40
54.0
 40
54.0
 40
54.0
 40
55.0
 40
55.0
 40
55.0
 40
56.0
 40
56.0
 40
56.0
 40
57.0
 40
57.0
 40
57.0
 40
58.0
 40
58.0
 40
58.0
 40
59.0
 40
59.0
 40
59.0
 40
60.0
 40
60.0
 40
60.0
 40
61.0
 40
61.0
 40
61.0
 40
61.0
 10
348.747805000925
 20
165.8338783781616
 30
0.0
 10
348.7332030855137
 20
166.2506516928027
 30
0.0
 10
348.7185392975727
 20
166.6671775173543
 30
0.0
 10
348.7028236767315
 20
167.0837033418924
 30
0.0
 10
348.687603036096
 20
167.4833998401986
 30
0.0
 10
348.6715161801201
 20
167.8830963385049
 30
0.0
 10
348.6548105989192
 20
168.2825453467215
 30
0.0
 10
348.6387237429569
 20
168.6646700485008
 30
0.0
 10
348.6218325441954
 20
169.046794750293
 30
0.0
 10
348.604384492713
 20
169.4289194520845
 30
0.0
 10
348.5876170389967
 20
169.7929773771564
 30
0.0
 10
348.5704164776173
 20
170.1570353022284
 30
0.0
 10
348.5524115734395
 20
170.5213407174034
 30
0.0
 10
348.5352728845756
 20
170.8670843757053
 30
0.0
 10
348.5177010880481
 20
171.2130755240704
 30
0.0
 10
348.4993249487356
 20
171.5588191823588
 30
0.0
 10
348.4820625148266
 20
171.8860010837478
 30
0.0
 10
348.4643669732674
 20
172.2131829851638
 30
0.0
 10
348.4458670888969
 20
172.5406123766552
 30
0.0
 10
348.4294708703153
 20
172.8316607246441
 30
0.0
 10
348.4127652891152
 20
173.122956562722
 30
0.0
 10
348.3956884727803
 20
173.4140049107103
 30
0.0
 10
348.3795397442883
 20
173.688223932454
 30
0.0
 10
348.3629579081332
 20
173.962442954197
 30
0.0
 10
348.3460048368428
 20
174.2364144858504
 30
0.0
 10
348.33016547097
 20
174.4933092011824
 30
0.0
 10
348.313954869949
 20
174.7504514065911
 30
0.0
 10
348.2974349063223
 20
175.0074698669676
 30
0.0
 10
348.2820286480997
 20
175.2466690407006
 30
0.0
 10
348.2663130272714
 20
175.4862394495946
 30
0.0
 10
348.2503499163535
 20
175.7258098584886
 30
0.0
 10
348.235500510839
 20
175.9478084708558
 30
0.0
 10
348.220527360293
 20
176.1698070832222
 30
0.0
 10
348.2051829745994
 20
176.3918056956022
 30
0.0
 10
348.1910141668383
 20
176.5959850213515
 30
0.0
 10
348.1767216140327
 20
176.8004118372167
 30
0.0
 10
348.1622434436658
 20
177.0048386530691
 30
0.0
 10
348.1489408512321
 20
177.1911986922146
 30
0.0
 10
348.1355145137397
 20
177.3778062214364
 30
0.0
 10
348.1219644312164
 20
177.5644137506979
 30
0.0
 10
348.1090330739174
 20
177.7406266960732
 30
0.0
 10
348.0959779715726
 20
177.9170871315515
 30
0.0
 10
348.0829228692285
 20
178.0933000769261
 30
0.0
 10
348.0696202767948
 20
178.2703792376288
 30
0.0
 10
348.0561939393031
 20
178.4472109082412
 30
0.0
 10
348.0427676018242
 20
178.6244138139883
 30
0.0
 10
348.0289700292106
 20
178.8023591900176
 30
0.0
 10
348.0152343291132
 20
178.980304566047
 30
0.0
 10
348.0011892663973
 20
179.1582499420636
 30
0.0
 10
347.9456896133122
 20
179.8660716047065
 30
0.0
 10
347.8876531867746
 20
180.573893267336
 30
0.0
 10
347.8267087516633
 20
181.2812199497727
 30
0.0
 10
347.7639700133817
 20
182.0128006612255
 30
0.0
 10
347.6983232665262
 20
182.7441338825887
 30
0.0
 10
347.6298922561287
 20
183.4749721237457
 30
0.0
 10
347.5603475403277
 20
184.2166999289816
 30
0.0
 10
347.4880185609974
 20
184.9579327539986
 30
0.0
 10
347.4124722104612
 20
185.6990418339846
 30
0.0
 10
347.3369877324547
 20
186.4416358545216
 30
0.0
 10
347.2582858832551
 20
187.18410613
 30
0.0
 10
347.1766760254818
 20
187.9260814252993
 30
0.0
 10
347.0949424226499
 20
188.6680567205991
 30
0.0
 10
347.0101770661997
 20
189.4097845258216
 30
0.0
 10
346.9221943385572
 20
190.1510173508392
 30
0.0
 10
346.7965312444205
 20
191.2095324735907
 30
0.0
 10
346.6643715353824
 20
192.2673051260869
 30
0.0
 10
346.5253439762958
 20
193.3243353082874
 30
0.0
 10
346.3860689271196
 20
194.3823554508468
 30
0.0
 10
346.2399879004234
 20
195.4396331231503
 30
0.0
 10
346.0866677885306
 20
196.4956733449921
 30
0.0
 10
345.9334714216829
 20
197.5507236064617
 30
0.0
 10
345.7730359696656
 20
198.6047839075462
 30
0.0
 10
345.6049901973163
 20
199.6577305032401
 30
0.0
 10
345.4368825524387
 20
200.7117908043509
 30
0.0
 10
345.260855224624
 20
201.7648611450764
 30
0.0
 10
345.0765988512545
 20
202.8163228002058
 30
0.0
 10
344.8926518405035
 20
203.8664232598551
 30
0.0
 10
344.7004139116678
 20
204.9151625239713
 30
0.0
 10
344.4988951044027
 20
205.9620456124146
 30
0.0
 10
344.3557220862809
 20
206.7067432987138
 30
0.0
 10
344.2078467564144
 20
207.4504510246678
 30
0.0
 10
344.0551453697459
 20
208.1932925352944
 30
0.0
 10
343.9027533457101
 20
208.935082213033
 30
0.0
 10
343.7452259022659
 20
209.6757581853418
 30
0.0
 10
343.5826249119301
 20
210.415382324789
 30
0.0
 10
343.4200857941233
 20
211.1550064642098
 30
0.0
 10
343.2521637668198
 20
211.8933931531822
 30
0.0
 10
343.0785494673997
 20
212.6306042642085
 30
0.0
 10
342.9048732954507
 20
213.3684341004856
 30
0.0
 10
342.725319233838
 20
214.1049027412562
 30
0.0
 10
342.5396397924328
 20
214.8400101865067
 30
0.0
 10
342.354269713659
 20
215.5730758384977
 30
0.0
 10
342.1628361276219
 20
216.3045328049054
 30
0.0
 10
341.9644728190336
 20
217.034195468143
 30
0.0
 10
341.7656764027681
 20
217.7653430719321
 30
0.0
 10
341.5598883914092
 20
218.4946963725509
 30
0.0
 10
341.3464900597324
 20
219.221822262336
 30
0.0
 10
341.1334010906614
 20
219.9473394665513
 30
0.0
 10
340.9127636738015
 20
220.6706292599063
 30
0.0
 10
340.6831547411038
 20
221.3910110447007
 30
0.0
 10
340.4536695534505
 20
222.111764064643
 30
0.0
 10
340.215460340063
 20
222.829609075998
 30
0.0
 10
339.9669802878736
 20
223.5440510985869
 30
0.0
 10
339.8012237988744
 20
224.0204695253351
 30
0.0
 10
339.6311362332659
 20
224.4955267566038
 30
0.0
 10
339.4557895032046
 20
224.9686659396573
 30
0.0
 10
339.2814327335023
 20
225.4395777119035
 30
0.0
 10
339.1021261619663
 20
225.9085095633791
 30
0.0
 10
338.9171273183273
 20
226.3755233666794
 30
0.0
 10
338.731633494509
 20
226.8439602379889
 30
0.0
 10
338.5403855260459
 20
227.3100459534197
 30
0.0
 10
338.3428265602423
 20
227.7736567679535
 30
0.0
 10
338.1453294669676
 20
228.2368963472997
 30
0.0
 10
337.9415213763395
 20
228.6974135356859
 30
0.0
 10
337.7304123280125
 20
229.1544658627765
 30
0.0
 10
337.5203551125732
 20
229.6089814164279
 30
0.0
 10
337.3033063020269
 20
230.0600939812995
 30
0.0
 10
337.0774715932435
 20
230.507122959678
 30
0.0
 10
336.850646924075
 20
230.9563793488503
 30
0.0
 10
336.6153457192745
 20
231.4009952988341
 30
0.0
 10
336.369649930614
 20
231.8401045942627
 30
0.0
 10
336.2230739237251
 20
232.1023822190789
 30
0.0
 10
336.0727855654647
 20
232.3624943055901
 30
0.0
 10
335.9182898756394
 20
232.6203789812808
 30
0.0
 10
335.764722273657
 20
232.8765930988328
 30
0.0
 10
335.6071948302131
 20
233.1305179330486
 30
0.0
 10
335.445026947541
 20
233.3814110136589
 30
0.0
 10
335.2816834869361
 20
233.633974652355
 30
0.0
 10
335.1138852046639
 20
233.8833827924008
 30
0.0
 10
334.9408277579655
 20
234.1292023261195
 30
0.0
 10
334.7680796738594
 20
234.3744031346005
 30
0.0
 10
334.5900724253142
 20
234.6160153367544
 30
0.0
 10
334.4058160519446
 20
234.8528633546089
 30
0.0
 10
334.224220197072
 20
235.0864940013106
 30
0.0
 10
334.0365608349359
 20
235.3157316988605
 30
0.0
 10
333.8422192403249
 20
235.5390296342177
 30
0.0
 10
333.7630224109459
 20
235.6299822429633
 30
0.0
 10
333.6826500036212
 20
235.7199448913501
 30
0.0
 10
333.6010401458476
 20
235.8089175793517
 30
0.0
 10
333.5208533560835
 20
235.8962197092409
 30
0.0
 10
333.4394909883998
 20
235.9826556238297
 30
0.0
 10
333.3570149152994
 20
236.0677922154011
 30
0.0
 10
333.2757762926474
 20
236.1514438664478
 30
0.0
 10
333.1935477096363
 20
236.2337961945033
 30
0.0
 10
333.1100198036479
 20
236.3150348171419
 30
0.0
 10
333.0279149656819
 20
236.3947266267137
 30
0.0
 10
332.9448201673572
 20
236.472995368263
 30
0.0
 10
332.860302300997
 20
236.5499647868212
 30
0.0
 10
332.7775168652777
 20
236.6254492648284
 30
0.0
 10
332.6934939790963
 20
236.6995725473287
 30
0.0
 10
332.6081098974222
 20
236.7720871442328
 30
0.0
 10
332.5205602774299
 20
236.8465816618809
 30
0.0
 10
332.4315875894284
 20
236.9195912389642
 30
0.0
 10
332.3412537059071
 20
236.990620895317
 30
0.0
 10
332.258158907569
 20
237.055896407038
 30
0.0
 10
332.1737647862666
 20
237.1199344682837
 30
0.0
 10
332.0879475969153
 20
237.1822400989148
 30
0.0
 10
331.9882090899059
 20
237.2544453332003
 30
0.0
 10
331.8867381522688
 20
237.3245469017234
 30
0.0
 10
331.7835966564929
 20
237.391802334175
 30
0.0
 10
331.6678950385525
 20
237.4673486846976
 30
0.0
 10
331.5499041372889
 20
237.5394301739515
 30
0.0
 10
331.429809570223
 20
237.6076136942591
 30
0.0
 10
331.2987635666021
 20
237.6819844668493
 30
0.0
 10
331.1649951719678
 20
237.7517148002113
 30
0.0
 10
331.0287518764102
 20
237.8159384790443
 30
0.0
 10
330.8827945947591
 20
237.8844932344866
 30
0.0
 10
330.7337436869466
 20
237.9469844826652
 30
0.0
 10
330.5819703881348
 20
238.0016179204363
 30
0.0
 10
330.4206687207898
 20
238.0597780920187
 30
0.0
 10
330.256397172342
 20
238.1091523653373
 30
0.0
 10
330.0898982130603
 20
238.1491838876971
 30
0.0
 10
330.0040191511935
 20
238.169849310359
 30
0.0
 10
329.9175832366178
 20
238.1881017046399
 30
0.0
 10
329.8306523418765
 20
238.2036935804099
 30
0.0
 10
329.7429789768394
 20
238.2194092012382
 30
0.0
 10
329.654501269017
 20
238.2324643035824
 30
0.0
 10
329.5659616886529
 20
238.2424876523079
 30
0.0
 10
329.4746997172884
 20
238.253005981213
 30
0.0
 10
329.3830665107896
 20
238.2601831938671
 30
0.0
 10
329.2913714317617
 20
238.2635243101177
 30
0.0
 10
329.1927466301824
 20
238.2669272988842
 30
0.0
 10
329.0938124659712
 20
238.2653804858039
 30
0.0
 10
328.995002046805
 20
238.2640192903104
 30
0.0
  0
SPLINE
  5
8B
330
70
100
AcDbEntity
  8
shade
 62
     6
420
 16711935
370
    25
100
AcDbSpline
210
0.0
220
0.0
230
1.0
 70
     8
 71
     3
 72
   182
 73
   178
 74
     0
 42
0.0000000001
 43
0.0000000001
 40
0.0
 40
0.0
 40
0.0
 40
0.0
 40
1.0
 40
1.0
 40
1.0
 40
2.0
 40
2.0
 40
2.0
 40
3.0
 40
3.0
 40
3.0
 40
4.0
 40
4.0
 40
4.0
 40
5.0
 40
5.0
 40
5.0
 40
6.0
 40
6.0
 40
6.0
 40
7.0
 40
7.0
 40
7.0
 40
8.0
 40
8.0
 40
8.0
 40
9.0
 40
9.0
 40
9.0
 40
10.0
 40
10.0
 40
10.0
 40
11.0
 40
11.0
 40
11.0
 40
12.0
 40
12.0
 40
12.0
 40
13.0
 40
13.0
 40
13.0
 40
14.0
 40
14.0
 40
14.0
 40
15.0
 40
15.0
 40
15.0
 40
16.0
 40
16.0
 40
16.0
 40
17.0
 40
17.0
 40
17.0
 40
18.0
 40
18.0
 40
18.0
 40
19.0
 40
19.0
 40
19.0
 40
20.0
 40
20.0
 40
20.0
 40
21.0
 40
21.0
 40
21.0
 40
22.0
 40
22.0
 40
22.0
 40
23.0
 40
23.0
 40
23.0
 40
24.0
 40
24.0
 40
24.0
 40
25.0
 40
25.0
 40
25.0
 40
26.0
 40
26.0
 40
26.0
 40
27.0
 40
27.0
 40
27.0
 40
28.0
 40
28.0
 40
28.0
 40
29.0
 40
29.0
 40
29.0
 40
30.0
 40
30.0
 40
30.0
 40
31.0
 40
31.0
 40
31.0
 40
32.0
 40
32.0
 40
32.0
 40
33.0
 40
33.0
 40
33.0
 40
34.0
 40
34.0
 40
34.0
 40
35.0
 40
35.0
 40
35.0
 40
36.0
 40
36.0
 40
36.0
 40
37.0
 40
37.0
 40
37.0
 40
38.0
 40
38.0
 40
38.0
 40
39.0
 40
39.0
 40
39.0
 40
40.0
 40
40.0
 40
40.0
 40
41.0
 40
41.0
 40
41.0
 40
42.0
 40
42.0
 40
42.0
 40
43.0
 40
43.0
 40
43.0
 40
44.0
 40
44.0
 40
44.0
 40
45.0
 40
45.0
 40
45.0
 40
46.0
 40
46.0
 40
46.0
 40
47.0
 40
47.0
 40
47.0
 40
48.0
 40
48.0
 40
48.0
 40
49.0
 40
49.0
 40
49.0
 40
50.0
 40
50.0
 40
50.0
 40
51.0
 40
51.0
 40
51.0
 40
52.0
 40
52.0
 40
52.0
 40
53.0
 40
53.0
 40
53.0
 40
54.0
 40
54.0
 40
54.0
 40
55.0
 40
55.0
 40
55.0
 40
56.0
 40
56.0
 40
56.0
 40
57.0
 40
57.0
 40
57.0
 40
58.0
 40
58.0
 40
58.0
 40
59.0
 40
59.0
 40
59.0
 40
59.0
 10
328.9776777403805
 20
238.7763856529122
 30
0.0
 10
329.0948642988592
 20
238.7773756132709
 30
0.0
 10
329.2121127298536
 20
238.7785511912304
 30
0.0
 10
329.3289280531979
 20
238.7737251344149
 30
0.0
 10
329.4451246513179
 20
238.769022822684
 30
0.0
 10
329.5610737593347
 20
238.7588757289268
 30
0.0
 10
329.6767753772755
 20
238.7448306661973
 30
0.0
 10
329.7865991055259
 20
238.7315280737636
 30
0.0
 10
329.895989726113
 20
238.7145750024735
 30
0.0
 10
330.0046997489467
 20
238.6935383446771
 30
0.0
 10
330.1561018126242
 20
238.6641488962672
 30
0.0
 10
330.3058951906923
 20
238.6269635099789
 30
0.0
 10
330.4537705205716
 20
238.583281508763
 30
0.0
 10
330.5903850512507
 20
238.5428787512685
 30
0.0
 10
330.7249577886963
 20
238.4967218491426
 30
0.0
 10
330.8578599680033
 20
238.4456770176985
 30
0.0
 10
330.9795013481364
 20
238.3989013903483
 30
0.0
 10
331.0996577877313
 20
238.3478565589042
 30
0.0
 10
331.2180199241428
 20
238.2929756310435
 30
0.0
 10
331.3241931735372
 20
238.2437869752987
 30
0.0
 10
331.4288196098511
 20
238.1915665659221
 30
0.0
 10
331.5321467231876
 20
238.1365000204873
 30
0.0
 10
331.6222331166193
 20
238.0884250701595
 30
0.0
 10
331.7113295496787
 20
238.0382464540162
 30
0.0
 10
331.7992504048058
 20
237.9862116622134
 30
0.0
 10
331.8755392256107
 20
237.9409828479438
 30
0.0
 10
331.9510237036176
 20
237.8942072205933
 30
0.0
 10
332.0255182212526
 20
237.8461941427681
 30
0.0
 10
332.2230771870562
 20
237.7187986180033
 30
0.0
 10
332.4148201356988
 20
237.5822459598268
 30
0.0
 10
332.6008089397098
 20
237.4382685989066
 30
0.0
 10
332.7901388599581
 20
237.291816337076
 30
0.0
 10
332.9735290180007
 20
237.1378156274433
 30
0.0
 10
333.151536266559
 20
236.9778132830624
 30
0.0
 10
333.3322659061042
 20
236.8153360377849
 30
0.0
 10
333.5074888911205
 20
236.6467952852436
 30
0.0
 10
333.6775145842135
 20
236.4733666033973
 30
0.0
 10
333.8840450658415
 20
236.2627525352496
 30
0.0
 10
334.0832745897703
 20
236.0447756368738
 30
0.0
 10
334.276007498772
 20
235.8215395740322
 30
0.0
 10
334.4697303681587
 20
235.5966329530784
 30
0.0
 10
334.6570184951604
 20
235.3663434226409
 30
0.0
 10
334.8386143500194
 20
235.1314134529882
 30
0.0
 10
335.0195914796809
 20
234.8975353161966
 30
0.0
 10
335.1946907196523
 20
234.6590167401906
 30
0.0
 10
335.3650257753639
 20
234.4172807930051
 30
0.0
 10
335.5357939387125
 20
234.174740503008
 30
0.0
 10
335.701550427712
 20
233.928549734168
 30
0.0
 10
335.8627283500254
 20
233.6796365743149
 30
0.0
 10
336.024958105213
 20
233.4289909837944
 30
0.0
 10
336.1827949112757
 20
233.175561129771
 30
0.0
 10
336.3365481308319
 20
232.9196563748244
 30
0.0
 10
336.5774178626903
 20
232.5192174062358
 30
0.0
 10
336.8083879909079
 20
232.1128386754546
 30
0.0
 10
337.0311909460728
 20
231.702005123019
 30
0.0
 10
337.2539320287218
 20
231.2910478255254
 30
0.0
 10
337.4684440658152
 20
230.875573833875
 30
0.0
 10
337.6760263803309
 20
230.4568824710188
 30
0.0
 10
337.8845986552189
 20
230.0357162072653
 30
0.0
 10
338.0860555899685
 20
229.6109613371589
 30
0.0
 10
338.2813252724224
 20
229.1834222035095
 30
0.0
 10
338.475852484594
 20
228.7574298829544
 30
0.0
 10
338.6641305719544
 20
228.3287151713858
 30
0.0
 10
338.8472732399204
 20
227.8975255588936
 30
0.0
 10
339.0306015254343
 20
227.465407858572
 30
0.0
 10
339.2085469014638
 20
227.0311864924481
 30
0.0
 10
339.3816043481749
 20
226.5947995880195
 30
0.0
 10
339.5554661376846
 20
226.1569896155949
 30
0.0
 10
339.7242543803161
 20
225.7172615949288
 30
0.0
 10
339.8885878012797
 20
225.2759248886798
 30
0.0
 10
340.1463487319257
 20
224.5844375721026
 30
0.0
 10
340.3931582260028
 20
223.8890522865798
 30
0.0
 10
340.6308724591976
 20
223.1903258848193
 30
0.0
 10
340.8692672901591
 20
222.4894339447675
 30
0.0
 10
341.0983193701487
 20
221.7855721236127
 30
0.0
 10
341.3193280221561
 20
221.0789879114315
 30
0.0
 10
341.5403366741642
 20
220.3729605519721
 30
0.0
 10
341.7530544080742
 20
219.664334546531
 30
0.0
 10
341.9585949293436
 20
218.9534811302692
 30
0.0
 10
342.1791086011718
 20
218.1920778627698
 30
0.0
 10
342.391083864813
 20
217.4279522042438
 30
0.0
 10
342.5958819158001
 20
216.6619703700316
 30
0.0
 10
342.8008655843607
 20
215.8946892128287
 30
0.0
 10
342.9985482952226
 20
215.1254281349084
 30
0.0
 10
343.1895487735827
 20
214.3544964988758
 30
0.0
 10
343.3802398893376
 20
213.5849260583234
 30
0.0
 10
343.5641869000887
 20
212.8139944222776
 30
0.0
 10
343.7422560211631
 20
212.0417015907253
 30
0.0
 10
343.9205107597976
 20
211.2671813483258
 30
0.0
 10
344.0927638637111
 20
210.491609273065
 30
0.0
 10
344.2595103130827
 20
209.7146760022843
 30
0.0
 10
344.4260092723507
 20
208.9386708193736
 30
0.0
 10
344.5869397045748
 20
208.1615519310058
 30
0.0
 10
344.7425490998036
 20
207.3833812097769
 30
0.0
 10
344.9627534090133
 20
206.2822977912258
 30
0.0
 10
345.1727487519364
 20
205.1792344519574
 30
0.0
 10
345.3732157263142
 20
204.0743149369763
 30
0.0
 10
345.5735589556468
 20
202.9696429120851
 30
0.0
 10
345.7643738164463
 20
201.863362201624
 30
0.0
 10
345.946588396556
 20
200.7557202956432
 30
0.0
 10
346.1289267217109
 20
199.6475834094697
 30
0.0
 10
346.3025410211309
 20
198.538209072861
 30
0.0
 10
346.4678644024798
 20
197.4274735407192
 30
0.0
 10
346.6333734013894
 20
196.3174804788728
 30
0.0
 10
346.7906533547434
 20
195.2060024764618
 30
0.0
 10
346.9402611152511
 20
194.0937820037818
 30
0.0
 10
347.0900544933324
 20
192.981066550909
 30
0.0
 10
347.2319900609928
 20
191.8676086277807
 30
0.0
 10
347.3665627984384
 20
190.752913254177
 30
0.0
 10
347.5011355358577
 20
189.6394553310484
 30
0.0
 10
347.6283454430615
 20
188.5252549376114
 30
0.0
 10
347.7486875002171
 20
187.4100645838417
 30
0.0
 10
347.8064764366515
 20
186.8744960251251
 30
0.0
 10
347.8626566875033
 20
186.3389274663957
 30
0.0
 10
347.91735199779
 20
185.8031114175901
 30
0.0
 10
347.9699436423147
 20
185.2870945761185
 30
0.0
 10
348.0210503462743
 20
184.7710777346738
 30
0.0
 10
348.0707958547279
 20
184.2548134030997
 30
0.0
 10
348.1186233149789
 20
183.7588432590798
 30
0.0
 10
348.1649658346655
 20
183.2628731150465
 30
0.0
 10
348.2100709039041
 20
182.7666554809364
 30
0.0
 10
348.2249203094184
 20
182.6043019807037
 30
0.0
 10
348.2395840973588
 20
182.441948480471
 30
0.0
 10
348.254062267725
 20
182.2793474901352
 30
0.0
 10
348.2682310754861
 20
182.1192214007229
 30
0.0
 10
348.2825855008079
 20
181.9590953113107
 30
0.0
 10
348.2965068184794
 20
181.798969221885
 30
0.0
 10
348.3103043910923
 20
181.641070543294
 30
0.0
 10
348.3239782186742
 20
181.4829243746254
 30
0.0
 10
348.3375901737272
 20
181.3250256960202
 30
0.0
 10
348.3521302166095
 20
181.1554949831199
 30
0.0
 10
348.3666083869892
 20
180.9859642702202
 30
0.0
 10
348.3807771947504
 20
180.816681047423
 30
0.0
 10
348.3966165606231
 20
180.6280935974434
 30
0.0
 10
348.4123321814515
 20
180.4395061474773
 30
0.0
 10
348.4278003121902
 20
180.2506712074088
 30
0.0
 10
348.444877128525
 20
180.0430270203641
 30
0.0
 10
348.4617683272994
 20
179.8353828333058
 30
0.0
 10
348.478350163455
 20
179.6277386462605
 30
0.0
 10
348.4964788126773
 20
179.4010377221634
 30
0.0
 10
348.5142980992945
 20
179.1743367980395
 30
0.0
 10
348.5318080232795
 20
178.9473883838259
 30
0.0
 10
348.5509266328743
 20
178.7018782127392
 30
0.0
 10
348.5696121348054
 20
178.45612055155
 30
0.0
 10
348.5880501466475
 20
178.2106103804499
 30
0.0
 10
348.6079730990401
 20
177.9460434722974
 30
0.0
 10
348.6273391987379
 20
177.6817240542217
 30
0.0
 10
348.6466434258933
 20
177.4171571460429
 30
0.0
 10
348.6669994859495
 20
177.1340284810045
 30
0.0
 10
348.6871699284322
 20
176.8508998159391
 30
0.0
 10
348.7068453907358
 20
176.5677711509006
 30
0.0
 10
348.7276964309712
 20
176.2663282190389
 30
0.0
 10
348.7481143635436
 20
175.9646377971139
 30
0.0
 10
348.7682848060264
 20
175.6629473751626
 30
0.0
 10
348.7895689539255
 20
175.3431901765173
 30
0.0
 10
348.8102343765874
 20
175.0231854877825
 30
0.0
 10
348.8304666915992
 20
174.7031807990476
 30
0.0
 10
348.8517508394989
 20
174.3653568236956
 30
0.0
 10
348.8725400072054
 20
174.0272853582809
 30
0.0
 10
348.8928341947333
 20
173.6894613829289
 30
0.0
 10
348.9141183426323
 20
173.3338181209597
 30
0.0
 10
348.9346600202499
 20
172.9779273689138
 30
0.0
 10
348.954644845172
 20
172.6222841069446
 30
0.0
 10
348.9778470412858
 20
172.2109555743298
 30
0.0
 10
349.0001830220736
 20
171.7996270417015
 30
0.0
 10
349.0217146600629
 20
171.3880510190105
 30
0.0
 10
349.0441125133655
 20
170.9561808087519
 30
0.0
 10
349.0657678964
 20
170.5240631084165
 30
0.0
 10
349.0864333190748
 20
170.0921928981849
 30
0.0
 10
349.1081505746247
 20
169.640028500399
 30
0.0
 10
349.1287541247712
 20
169.1881115927156
 30
0.0
 10
349.1485533321192
 20
168.7359471949695
 30
0.0
 10
349.1690950097496
 20
168.2647260601044
 30
0.0
 10
349.1885848544791
 20
167.7932574351766
 30
0.0
 10
349.2067135037014
 20
167.3217888102482
 30
0.0
 10
349.2255846232065
 20
166.831758428421
 30
0.0
 10
349.242908929631
 20
166.3414805565035
 30
0.0
 10
349.26017136354
 20
165.8514501746757
 30
0.0
  0
LINE
  5
8C
330
70
100
AcDbEntity
  8
shade
 62
     6
420
 16711935
370
    25
100
AcDbLine
 10
324.6836193603085
 20
234.023466067319
 30
0.0
 11
324.746710875507
 21
234.3187178639282
 31
0.0
  0
LINE
  5
8D
330
70
100
AcDbEntity
  8
shade
 62
     6
420
 16711935
370
    25
100
AcDbLine
 10
325.2480020565087
 20
234.2116783992068
 30
0.0
 11
325.2078927751711
 21
234.023466067319
 31
0.0
  0
LINE
  5
8E
330
70
100
AcDbEntity
  8
shade
 62
     6
420
 16711935
370
    25
100
AcDbLine
 10
348.7708215794654
 20
165.1574879571881
 30
0.0
 11
348.7477431283961
 21
165.8338783781616
 31
0.0
  0
LINE
  5
8F
330
70
100
AcDbEntity
  8
shade
 62
     6
420
 16711935
370
    25
100
AcDbLine
 10
349.2602332360689
 20
165.8514501746757
 30
0.0
 11
349.2833116871255
 21
165.1750597537157
 31
0.0
  0
LINE
  5
90
330
70
100
AcDbEntity
  8
shade
 62
     6
420
 16711935
370
    25
100
AcDbLine
 10
340.398355517926
 20
161.8864114134875
 30
0.0
 11
340.398355517926
 21
161.9891198016
 31
0.0
  0
LINE
  5
91
330
70
100
AcDbEntity
  8
shade
 62
     6
420
 16711935
370
    25
100
AcDbLine
 10
357.8301963908827
 20
161.9891198016
 30
0.0
 11
357.8301963908827
 21
161.8864114134875
 31
0.0
  0
LINE
  5
92
330
70
100
AcDbEntity
  8
shade
 62
     6
420
 16711935
370
    25
100
AcDbLine
 10
340.1419557827874
 20
163.0657017010589
 30
0.0
 11
340.1419557827874
 21
163.1169321500635
 31
0.0
  0
LINE
  5
93
330
70
100
AcDbEntity
  8
shade
 62
     6
420
 16711935
370
    25
100
AcDbLine
 10
358.086472380964
 20
163.1169321500635
 30
0.0
 11
358.086472380964
 21
163.0657017010589
 31
0.0
  0
LINE
  5
94
330
70
100
AcDbEntity
  8
shade
 62
     6
420
 16711935
370
    25
100
AcDbLine
 10
358.086472380964
 20
163.0657017010589
 30
0.0
 11
358.0280647192918
 21
162.3969834729328
 31
0.0
  0
LINE
  5
95
330
70
100
AcDbEntity
  8
shade
 62
     6
420
 16711935
370
    25
100
AcDbLine
 10
340.2238750031927
 20
162.1294466836641
 30
0.0
 11
340.1420176553163
 21
163.0657017010589
 31
0.0
  0
SPLINE
  5
96
330
70
100
AcDbEntity
  8
shade
 62
     6
420
 16711935
370
    25
100
AcDbSpline
210
0.0
220
0.0
230
1.0
 70
     8
 71
     3
 72
     8
 73
     4
 74
     0
 42
0.0000000001
 43
0.0000000001
 40
0.0
 40
0.0
 40
0.0
 40
0.0
 40
1.0
 40
1.0
 40
1.0
 40
1.0
 10
340.377071370027
 20
161.9891198016
 30
0.0
 10
340.2982457757823
 20
161.9881298412281
 30
0.0
 10
340.2299385104427
 20
162.0507448344646
 30
0.0
 10
340.2238750031927
 20
162.1294466836641
 30
0.0
  0
LINE
  5
97
330
70
100
AcDbEntity
  8
shade
 62
     6
420
 16711935
370
    25
100
AcDbLine
 10
349.9313026200471
 20
163.1280692042058
 30
0.0
 11
349.9319213452849
 21
163.1169321500635
 31
0.0
  0
LINE
  5
98
330
70
100
AcDbEntity
  8
shade
 62
     6
420
 16711935
370
    25
100
AcDbLine
 10
348.2966305635245
 20
163.1169321500635
 30
0.0
 11
348.2971255437036
 21
163.1280692042058
 31
0.0
  0
SPLINE
  5
99
330
70
100
AcDbEntity
  8
shade
 62
     6
420
 16711935
370
    25
100
AcDbSpline
210
0.0
220
0.0
230
1.0
 70
     8
 71
     3
 72
     8
 73
     4
 74
     0
 42
0.0000000001
 43
0.0000000001
 40
0.0
 40
0.0
 40
0.0
 40
0.0
 40
1.0
 40
1.0
 40
1.0
 40
1.0
 10
349.915958234367
 20
163.1426711196171
 30
0.0
 10
349.9239397898189
 20
163.1426711196171
 30
0.0
 10
349.9309313849258
 20
163.1362363772189
 30
0.0
 10
349.9313026200471
 20
163.1280692042058
 30
0.0
  0
SPLINE
  5
9A
330
70
100
AcDbEntity
  8
shade
 62
     6
420
 16711935
370
    25
100
AcDbSpline
210
0.0
220
0.0
230
1.0
 70
     8
 71
     3
 72
     8
 73
     4
 74
     0
 42
0.0000000001
 43
0.0000000001
 40
0.0
 40
0.0
 40
0.0
 40
0.0
 40
1.0
 40
1.0
 40
1.0
 40
1.0
 10
348.2971255437036
 20
163.1280692042058
 30
0.0
 10
348.2974967788384
 20
163.1362363772189
 30
0.0
 10
348.3044883739448
 20
163.1426711196171
 30
0.0
 10
348.3125936744552
 20
163.1426711196171
 30
0.0
  0
LWPOLYLINE
  5
9B
330
70
100
AcDbEntity
  8
shade
 62
     6
420
 16711935
370
    25
100
AcDbPolyline
 90
        5
 70
     0
 43
0.0
 10
348.6050032179373
 20
163.2461219779983
 10
348.6053744530849
 20
163.2379548049589
 10
348.6063025409284
 20
163.2127108156108
 10
348.6075399913764
 20
163.1736073810945
 10
348.6085299517488
 20
163.1426711196171
  0
SPLINE
  5
9C
330
70
100
AcDbEntity
  8
shade
 62
     6
420
 16711935
370
    25
100
AcDbSpline
210
0.0
220
0.0
230
1.0
 70
     8
 71
     3
 72
    20
 73
    16
 74
     0
 42
0.0000000001
 43
0.0000000001
 40
0.0
 40
0.0
 40
0.0
 40
0.0
 40
1.0
 40
1.0
 40
1.0
 40
2.0
 40
2.0
 40
2.0
 40
3.0
 40
3.0
 40
3.0
 40
4.0
 40
4.0
 40
4.0
 40
5.0
 40
5.0
 40
5.0
 40
5.0
 10
348.7108052321969
 20
163.1426711196171
 30
0.0
 10
348.70969152678
 20
163.1523232331948
 30
0.0
 10
348.7086396938926
 20
163.1619753467725
 30
0.0
 10
348.7072784983989
 20
163.171132480171
 30
0.0
 10
348.7048654699914
 20
163.1854869054927
 30
0.0
 10
348.7014006087089
 20
163.1986038803524
 30
0.0
 10
348.6981213649875
 20
163.2099884245848
 30
0.0
 10
348.6947183762211
 20
163.2221154390989
 30
0.0
 10
348.6914391325126
 20
163.2322625328564
 30
0.0
 10
348.6885311239388
 20
163.2404297058959
 30
0.0
 10
348.6855612428361
 20
163.2488443690115
 30
0.0
 10
348.6829007243519
 20
163.2555266014864
 30
0.0
 10
348.6822819991141
 20
163.257011542051
 30
0.0
 10
348.6820345090245
 20
163.2577540123069
 30
0.0
 10
348.6821582540696
 20
163.2575065222308
 30
0.0
 10
348.6822819991141
 20
163.257011542051
 30
0.0
  0
LWPOLYLINE
  5
9D
330
70
100
AcDbEntity
  8
shade
 62
     6
420
 16711935
370
    25
100
AcDbPolyline
 90
       15
 70
     0
 43
0.0
 10
349.3857107126187
 20
165.1785246149983
 10
349.3768629418394
 20
165.1782771249081
 10
349.3502577569713
 20
165.1772871645497
 10
349.3075038435984
 20
165.1759259690296
 10
349.2507667400519
 20
165.1738223032671
 10
349.1825832197439
 20
165.1715948924338
 10
349.1069131241761
 20
165.1691199915102
 10
349.0270975695603
 20
165.1663976005099
 10
348.9472820149438
 20
165.1636752094839
 10
348.8713644292729
 20
165.1609528184707
 10
348.8033046540229
 20
165.1587254076631
 10
348.7465675504764
 20
165.1567454869193
 10
348.7038755096325
 20
165.1552605463677
 10
348.6773940698094
 20
165.1545180760854
 10
348.6683606814561
 20
165.1540230959062
  0
LINE
  5
9E
330
70
100
AcDbEntity
  8
shade
 62
     6
420
 16711935
370
    25
100
AcDbLine
 10
357.8301963908827
 20
161.8864114134875
 30
0.0
 11
340.3984173904557
 21
161.8864114134875
 31
0.0
  0
LINE
  5
9F
330
70
100
AcDbEntity
  8
shade
 62
     6
420
 16711935
370
    25
100
AcDbLine
 10
349.1142140818754
 20
163.1169321500635
 30
0.0
 11
340.1418939102712
 21
163.1169321500635
 31
0.0
  0
LINE
  5
A0
330
70
100
AcDbEntity
  8
shade
 62
     6
420
 16711935
370
    25
100
AcDbLine
 10
358.086472380964
 20
163.1169321500635
 30
0.0
 11
349.1141522093599
 21
163.1169321500635
 31
0.0
  0
LINE
  5
A1
330
70
100
AcDbEntity
  8
shade
 62
     6
420
 16711935
370
    25
100
AcDbLine
 10
349.1142140818754
 20
163.0657017010589
 30
0.0
 11
340.1418939102712
 21
163.0657017010589
 31
0.0
  0
LINE
  5
A2
330
70
100
AcDbEntity
  8
shade
 62
     6
420
 16711935
370
    25
100
AcDbLine
 10
358.086472380964
 20
163.0657017010589
 30
0.0
 11
349.1141522093599
 21
163.0657017010589
 31
0.0
  0
LINE
  5
A3
330
70
100
AcDbEntity
  8
shade
 62
     6
420
 16711935
370
    25
100
AcDbLine
 10
340.1419557827874
 20
163.0657017010589
 30
0.0
 11
358.086472380964
 21
163.0657017010589
 31
0.0
  0
SPLINE
  5
A4
330
70
100
AcDbEntity
  8
shade
 62
     6
420
 16711935
370
    25
100
AcDbSpline
210
0.0
220
0.0
230
1.0
 70
     8
 71
     3
 72
    20
 73
    16
 74
     0
 42
0.0000000001
 43
0.0000000001
 40
0.0
 40
0.0
 40
0.0
 40
0.0
 40
1.0
 40
1.0
 40
1.0
 40
2.0
 40
2.0
 40
2.0
 40
3.0
 40
3.0
 40
3.0
 40
4.0
 40
4.0
 40
4.0
 40
5.0
 40
5.0
 40
5.0
 40
5.0
 10
358.0279409742473
 20
162.3969834729328
 30
0.0
 10
358.0280647192918
 20
162.397478453112
 30
0.0
 10
358.0280647192918
 20
162.3977259432017
 30
0.0
 10
358.0279409742473
 20
162.3969834729328
 30
0.0
 10
358.0278172292022
 20
162.3952510422915
 30
0.0
 10
358.0270747589328
 20
162.3885688098166
 30
0.0
 10
358.0261466710764
 20
162.3799066565845
 30
0.0
 10
358.0252804557631
 20
162.3712445033921
 30
0.0
 10
358.0242904954041
 20
162.3603549393395
 30
0.0
 10
358.022991172413
 20
162.3477329446584
 30
0.0
 10
358.0216299769064
 20
162.3348634598749
 30
0.0
 10
358.0202069088843
 20
162.320014054374
 30
0.0
 10
358.0187838408488
 20
162.3039271983981
 30
0.0
 10
358.0171751552526
 20
162.2878403424351
 30
0.0
 10
358.0156283421848
 20
162.2705160360106
 30
0.0
 10
358.0141434016337
 20
162.2531917295861
 30
0.0
  0
SPLINE
  5
A5
330
70
100
AcDbEntity
  8
shade
 62
     6
420
 16711935
370
    25
100
AcDbSpline
210
0.0
220
0.0
230
1.0
 70
     8
 71
     3
 72
     8
 73
     4
 74
     0
 42
0.0000000001
 43
0.0000000001
 40
0.0
 40
0.0
 40
0.0
 40
0.0
 40
1.0
 40
1.0
 40
1.0
 40
1.0
 10
358.0140815291048
 20
162.2531917295861
 30
0.0
 10
358.0105547953067
 20
162.2118608842487
 30
0.0
 10
358.0067186988765
 20
162.1707775290144
 30
0.0
 10
358.003191965065
 20
162.1294466836641
 30
0.0
  0
LINE
  5
A6
330
70
100
AcDbEntity
  8
shade
 62
     6
420
 16711935
370
    25
100
AcDbLine
 10
340.377071370027
 20
161.9891198016
 30
0.0
 11
357.8498099806566
 21
161.9891198016
 31
0.0
  0
SPLINE
  5
A7
330
70
100
AcDbEntity
  8
shade
 62
     6
420
 16711935
370
    25
100
AcDbSpline
210
0.0
220
0.0
230
1.0
 70
     8
 71
     3
 72
    29
 73
    25
 74
     0
 42
0.0000000001
 43
0.0000000001
 40
0.0
 40
0.0
 40
0.0
 40
0.0
 40
1.0
 40
1.0
 40
1.0
 40
2.0
 40
2.0
 40
2.0
 40
3.0
 40
3.0
 40
3.0
 40
4.0
 40
4.0
 40
4.0
 40
5.0
 40
5.0
 40
5.0
 40
6.0
 40
6.0
 40
6.0
 40
7.0
 40
7.0
 40
7.0
 40
8.0
 40
8.0
 40
8.0
 40
8.0
 10
357.8497481081277
 20
161.9891198016
 30
0.0
 10
357.8594002217188
 20
161.9891198016
 30
0.0
 10
357.868742972678
 20
161.9898622718822
 30
0.0
 10
357.8781475961654
 20
161.991718447568
 30
0.0
 10
357.8873666020929
 20
161.9933271331648
 30
0.0
 10
357.8966474805365
 20
161.996049524178
 30
0.0
 10
357.9054952513157
 20
161.9995143854599
 30
0.0
 10
357.9144667671402
 20
162.0029792467425
 30
0.0
 10
357.9228814302692
 20
162.0071865783067
 30
0.0
 10
357.9309867307797
 20
162.0121363801404
 30
0.0
 10
357.9389682862323
 20
162.017086181974
 30
0.0
 10
357.9468260966532
 20
162.0230259441802
 30
0.0
 10
357.9536320741726
 20
162.0294606865648
 30
0.0
 10
357.960747414324
 20
162.0358954289502
 30
0.0
 10
357.9670584116649
 20
162.0428251515147
 30
0.0
 10
357.9729363013415
 20
162.0504973443615
 30
0.0
 10
357.9786285734574
 20
162.0579220471322
 30
0.0
 10
357.9837021203362
 20
162.0663367102613
 30
0.0
 10
357.9878475793714
 20
162.074751373364
 30
0.0
 10
357.9920549109362
 20
162.0831660364931
 30
0.0
 10
357.9953341546441
 20
162.0921994248465
 30
0.0
 10
357.9979946731417
 20
162.101232813187
 30
0.0
 10
358.0005314465814
 20
162.1103899465983
 30
0.0
 10
358.0023257497511
 20
162.1197945700864
 30
0.0
 10
358.003191965065
 20
162.1294466836641
 30
0.0
  0
LINE
  5
A8
330
70
100
AcDbEntity
  8
shade
 62
     6
420
 16711935
370
    25
100
AcDbLine
 10
348.857938091794
 20
163.1280692042058
 30
0.0
 11
349.3706138170147
 21
163.1280692042058
 31
0.0
  0
LINE
  5
A9
330
70
100
AcDbEntity
  8
shade
 62
     6
420
 16711935
370
    25
100
AcDbLine
 10
349.915958234367
 20
163.1426711196171
 30
0.0
 11
349.3706138170147
 21
163.1426711196171
 31
0.0
  0
LINE
  5
AA
330
70
100
AcDbEntity
  8
shade
 62
     6
420
 16711935
370
    25
100
AcDbLine
 10
349.3706138170147
 20
163.1280692042058
 30
0.0
 11
349.3706138170147
 21
163.1426711196171
 31
0.0
  0
LINE
  5
AB
330
70
100
AcDbEntity
  8
shade
 62
     6
420
 16711935
370
    25
100
AcDbLine
 10
348.857938091794
 20
163.1426711196171
 30
0.0
 11
348.3125936744552
 21
163.1426711196171
 31
0.0
  0
LINE
  5
AC
330
70
100
AcDbEntity
  8
shade
 62
     6
420
 16711935
370
    25
100
AcDbLine
 10
348.857938091794
 20
163.1280692042058
 30
0.0
 11
348.857938091794
 21
163.1426711196171
 31
0.0
  0
LINE
  5
AD
330
70
100
AcDbEntity
  8
shade
 62
     6
420
 16711935
370
    25
100
AcDbLine
 10
349.3706138170147
 20
163.1426711196171
 30
0.0
 11
348.857938091794
 21
163.1426711196171
 31
0.0
  0
LWPOLYLINE
  5
AE
330
70
100
AcDbEntity
  8
shade
 62
     6
420
 16711935
370
    25
100
AcDbPolyline
 90
        5
 70
     0
 43
0.0
 10
348.613665371156
 20
163.1426711196171
 10
348.612551665739
 20
163.1760822820046
 10
348.6111285977169
 20
163.2166706570591
 10
348.6103861274481
 20
163.2431520968956
 10
348.6100148922999
 20
163.2515667600118
  0
LWPOLYLINE
  5
AF
330
70
100
AcDbEntity
  8
shade
 62
     6
420
 16711935
370
    25
100
AcDbPolyline
 90
       16
 70
     0
 43
0.0
 10
348.6188626630798
 20
165.1010602162467
 10
348.6243074451061
 20
165.1013077063498
 10
348.6478808763547
 20
165.1020501766192
 10
348.6895829568268
 20
165.1035351171838
 10
348.7469387856111
 20
165.1055150379012
 10
348.817411589255
 20
165.1079899388382
 10
348.8979077416249
 20
165.1107123298379
 10
348.9845292737608
 20
165.113434720851
 10
349.0731307266411
 20
165.1166520920434
 10
349.159690386248
 20
165.1194982281017
 10
349.2401246661023
 20
165.1223443641465
 10
349.3107212147914
 20
165.1245717749933
 10
349.3681389161046
 20
165.1265516957113
 10
349.4095316339575
 20
165.1280366362759
 10
349.4333525552963
 20
165.1287791065318
 10
349.4386735922647
 20
165.1290265966343
  0
LINE
  5
B0
330
70
100
AcDbEntity
  8
shade
 62
     6
420
 16711935
370
    25
100
AcDbLine
 10
358.003191965065
 20
162.1294466836641
 30
0.0
 11
340.2238131306631
 21
162.1294466836641
 31
0.0
  0
LINE
  5
B1
330
70
100
AcDbEntity
  8
shade
 62
     6
420
 16711935
370
    25
100
AcDbLine
 10
349.3706138170147
 20
163.1280692042058
 30
0.0
 11
349.9313026200471
 21
163.1280692042058
 31
0.0
  0
LINE
  5
B2
330
70
100
AcDbEntity
  8
shade
 62
     6
420
 16711935
370
    25
100
AcDbLine
 10
349.3706138170147
 20
163.1169321500635
 30
0.0
 11
349.3706138170147
 21
163.1280692042058
 31
0.0
  0
LINE
  5
B3
330
70
100
AcDbEntity
  8
shade
 62
     6
420
 16711935
370
    25
100
AcDbLine
 10
348.857938091794
 20
163.1169321500635
 30
0.0
 11
348.857938091794
 21
163.1280692042058
 31
0.0
  0
LINE
  5
B4
330
70
100
AcDbEntity
  8
shade
 62
     6
420
 16711935
370
    25
100
AcDbLine
 10
348.2971255437036
 20
163.1280692042058
 30
0.0
 11
348.857938091794
 21
163.1280692042058
 31
0.0
  0
LINE
  5
B5
330
70
100
AcDbEntity
  8
shade
 62
     6
420
 16711935
370
    25
100
AcDbLine
 10
328.022329558325
 20
223.7608398072485
 30
0.0
 11
332.3118237029364
 21
223.7608398072485
 31
0.0
  0
LINE
  5
B6
330
70
100
AcDbEntity
  8
shade
 62
     6
420
 16711935
370
    25
100
AcDbLine
 10
330.5776391027336
 20
234.023466067319
 30
0.0
 11
331.0907704157477
 21
233.5103347543049
 31
0.0
  0
LINE
  5
B7
330
70
100
AcDbEntity
  8
shade
 62
     6
420
 16711935
370
    25
100
AcDbLine
 10
331.0907704157477
 20
233.5103347543049
 30
0.0
 11
332.6301643547503
 21
224.273971120236
 31
0.0
  0
LINE
  5
B8
330
70
100
AcDbEntity
  8
shade
 62
     6
420
 16711935
370
    25
100
AcDbLine
 10
332.6301643547503
 20
224.273971120236
 30
0.0
 11
332.3118237029364
 21
223.7608398072485
 31
0.0
  0
LINE
  5
B9
330
70
100
AcDbEntity
  8
shade
 62
     6
420
 16711935
370
    25
100
AcDbLine
 10
324.9331946596974
 20
224.273971120236
 30
0.0
 11
325.2228782764922
 21
223.7608398072485
 31
0.0
  0
LINE
  5
BA
330
70
100
AcDbEntity
  8
shade
 62
     6
420
 16711935
370
    25
100
AcDbLine
 10
325.2228782764922
 20
223.7608398072485
 30
0.0
 11
325.5370919418185
 21
224.273971120236
 31
0.0
  0
LINE
  5
BB
330
70
100
AcDbEntity
  8
shade
 62
     6
420
 16711935
370
    25
100
AcDbLine
 10
325.5370919418185
 20
224.273971120236
 30
0.0
 11
325.8004595142506
 21
223.7608398072485
 31
0.0
  0
LINE
  5
BC
330
70
100
AcDbEntity
  8
shade
 62
     6
420
 16711935
370
    25
100
AcDbLine
 10
325.8004595142506
 20
223.7608398072485
 30
0.0
 11
326.1372659963789
 21
224.273971120236
 31
0.0
  0
LINE
  5
BD
330
70
100
AcDbEntity
  8
shade
 62
     6
420
 16711935
370
    25
100
AcDbLine
 10
326.1372659963789
 20
224.273971120236
 30
0.0
 11
326.3738044337067
 21
223.7608398072485
 31
0.0
  0
LINE
  5
BE
330
70
100
AcDbEntity
  8
shade
 62
     6
420
 16711935
370
    25
100
AcDbLine
 10
326.3738044337067
 20
223.7608398072485
 30
0.0
 11
326.7300165507486
 21
224.273971120236
 31
0.0
  0
LINE
  5
BF
330
70
100
AcDbEntity
  8
shade
 62
     6
420
 16711935
370
    25
100
AcDbLine
 10
326.7300165507486
 20
224.273971120236
 30
0.0
 11
326.9360530465954
 21
223.7608398072485
 31
0.0
  0
LINE
  5
C0
330
70
100
AcDbEntity
  8
shade
 62
     6
420
 16711935
370
    25
100
AcDbLine
 10
326.9360530465954
 20
223.7608398072485
 30
0.0
 11
327.3116891006555
 21
224.273971120236
 31
0.0
  0
LINE
  5
C1
330
70
100
AcDbEntity
  8
shade
 62
     6
420
 16711935
370
    25
100
AcDbLine
 10
327.3116891006555
 20
224.273971120236
 30
0.0
 11
327.4890344892878
 21
223.7608398072485
 31
0.0
  0
LINE
  5
C2
330
70
100
AcDbEntity
  8
shade
 62
     6
420
 16711935
370
    25
100
AcDbLine
 10
327.4890344892878
 20
223.7608398072485
 30
0.0
 11
327.878697441416
 21
224.273971120236
 31
0.0
  0
LINE
  5
C3
330
70
100
AcDbEntity
  8
shade
 62
     6
420
 16711935
370
    25
100
AcDbLine
 10
327.878697441416
 20
224.273971120236
 30
0.0
 11
328.022329558325
 21
223.7608398072485
 31
0.0
  0
LINE
  5
C4
330
70
100
AcDbEntity
  8
shade
 62
     6
420
 16711935
370
    25
100
AcDbLine
 10
328.022329558325
 20
223.7608398072485
 30
0.0
 11
328.4275457780373
 21
224.273971120236
 31
0.0
  0
LINE
  5
C5
330
70
100
AcDbEntity
  8
shade
 62
     6
420
 16711935
370
    25
100
AcDbLine
 10
328.4275457780373
 20
224.273971120236
 30
0.0
 11
328.5413312859242
 21
223.7608398072485
 31
0.0
  0
LINE
  5
C6
330
70
100
AcDbEntity
  8
shade
 62
     6
420
 16711935
370
    25
100
AcDbLine
 10
328.5413312859242
 20
223.7608398072485
 30
0.0
 11
328.9548502780267
 21
224.273971120236
 31
0.0
  0
LINE
  5
C7
330
70
100
AcDbEntity
  8
shade
 62
     6
420
 16711935
370
    25
100
AcDbLine
 10
328.9548502780267
 20
224.273971120236
 30
0.0
 11
329.0325413166139
 21
223.7608398072485
 31
0.0
  0
LINE
  5
C8
330
70
100
AcDbEntity
  8
shade
 62
     6
420
 16711935
370
    25
100
AcDbLine
 10
329.0325413166139
 20
223.7608398072485
 30
0.0
 11
329.4573599337848
 21
224.273971120236
 31
0.0
  0
LINE
  5
C9
330
70
100
AcDbEntity
  8
shade
 62
     6
420
 16711935
370
    25
100
AcDbLine
 10
329.4573599337848
 20
224.273971120236
 30
0.0
 11
329.5012592545617
 21
223.7608398072485
 31
0.0
  0
LINE
  5
CA
330
70
100
AcDbEntity
  8
shade
 62
     6
420
 16711935
370
    25
100
AcDbLine
 10
329.5012592545617
 20
223.7608398072485
 30
0.0
 11
329.9319766062092
 21
224.273971120236
 31
0.0
  0
LINE
  5
CB
330
70
100
AcDbEntity
  8
shade
 62
     6
420
 16711935
370
    25
100
AcDbLine
 10
329.9319766062092
 20
224.273971120236
 30
0.0
 11
329.9456779982634
 21
223.7608398072485
 31
0.0
  0
LINE
  5
CC
330
70
100
AcDbEntity
  8
shade
 62
     6
420
 16711935
370
    25
100
AcDbLine
 10
329.9456779982634
 20
223.7608398072485
 30
0.0
 11
330.3757741256607
 21
224.273971120236
 31
0.0
  0
LINE
  5
CD
330
70
100
AcDbEntity
  8
shade
 62
     6
420
 16711935
370
    25
100
AcDbLine
 10
330.3757741256607
 20
224.273971120236
 30
0.0
 11
330.3556685858088
 21
223.7608398072485
 31
0.0
  0
LINE
  5
CE
330
70
100
AcDbEntity
  8
shade
 62
     6
420
 16711935
370
    25
100
AcDbLine
 10
330.3556685858088
 20
223.7608398072485
 30
0.0
 11
330.786016332862
 21
224.273971120236
 31
0.0
  0
LINE
  5
CF
330
70
100
AcDbEntity
  8
shade
 62
     6
420
 16711935
370
    25
100
AcDbLine
 10
330.786016332862
 20
224.273971120236
 30
0.0
 11
330.732227818444
 21
223.7608398072485
 31
0.0
  0
LINE
  5
D0
330
70
100
AcDbEntity
  8
shade
 62
     6
420
 16711935
370
    25
100
AcDbLine
 10
330.732227818444
 20
223.7608398072485
 30
0.0
 11
331.1601739481885
 21
224.273971120236
 31
0.0
  0
LINE
  5
D1
330
70
100
AcDbEntity
  8
shade
 62
     6
420
 16711935
370
    25
100
AcDbLine
 10
331.1601739481885
 20
224.273971120236
 30
0.0
 11
331.073034083289
 21
223.7608398072485
 31
0.0
  0
LINE
  5
D2
330
70
100
AcDbEntity
  8
shade
 62
     6
420
 16711935
370
    25
100
AcDbLine
 10
331.073034083289
 20
223.7608398072485
 30
0.0
 11
331.4959401655163
 21
224.273971120236
 31
0.0
  0
LINE
  5
D3
330
70
100
AcDbEntity
  8
shade
 62
     6
420
 16711935
370
    25
100
AcDbLine
 10
331.4959401655163
 20
224.273971120236
 30
0.0
 11
331.3759861963713
 21
223.7608398072485
 31
0.0
  0
LINE
  5
D4
330
70
100
AcDbEntity
  8
shade
 62
     6
420
 16711935
370
    25
100
AcDbLine
 10
331.3759861963713
 20
223.7608398072485
 30
0.0
 11
331.7912448744678
 21
224.273971120236
 31
0.0
  0
LINE
  5
D5
330
70
100
AcDbEntity
  8
shade
 62
     6
420
 16711935
370
    25
100
AcDbLine
 10
331.7912448744678
 20
224.273971120236
 30
0.0
 11
331.6392163572039
 21
223.7608398072485
 31
0.0
  0
LINE
  5
D6
330
70
100
AcDbEntity
  8
shade
 62
     6
420
 16711935
370
    25
100
AcDbLine
 10
331.6392163572039
 20
223.7608398072485
 30
0.0
 11
332.0442674233145
 21
224.273971120236
 31
0.0
  0
LINE
  5
D7
330
70
100
AcDbEntity
  8
shade
 62
     6
420
 16711935
370
    25
100
AcDbLine
 10
332.0442674233145
 20
224.273971120236
 30
0.0
 11
331.861101664275
 21
223.7608398072485
 31
0.0
  0
LINE
  5
D8
330
70
100
AcDbEntity
  8
shade
 62
     6
420
 16711935
370
    25
100
AcDbLine
 10
331.861101664275
 20
223.7608398072485
 30
0.0
 11
332.2534478439121
 21
224.273971120236
 31
0.0
  0
LINE
  5
D9
330
70
100
AcDbEntity
  8
shade
 62
     6
420
 16711935
370
    25
100
AcDbLine
 10
332.2534478439121
 20
224.273971120236
 30
0.0
 11
332.0347948202002
 21
223.7608398072485
 31
0.0
  0
LINE
  5
DA
330
70
100
AcDbEntity
  8
shade
 62
     6
420
 16711935
370
    25
100
AcDbLine
 10
332.0347948202002
 20
223.7608398072485
 30
0.0
 11
332.4174964693763
 21
224.273971120236
 31
0.0
  0
LINE
  5
DB
330
70
100
AcDbEntity
  8
shade
 62
     6
420
 16711935
370
    25
100
AcDbLine
 10
332.4174964693763
 20
224.273971120236
 30
0.0
 11
332.1756290693112
 21
223.7608398072485
 31
0.0
  0
LINE
  5
DC
330
70
100
AcDbEntity
  8
shade
 62
     6
420
 16711935
370
    25
100
AcDbLine
 10
332.1756290693112
 20
223.7608398072485
 30
0.0
 11
332.5354018854093
 21
224.273971120236
 31
0.0
  0
LINE
  5
DD
330
70
100
AcDbEntity
  8
shade
 62
     6
420
 16711935
370
    25
100
AcDbLine
 10
332.5354018854093
 20
224.273971120236
 30
0.0
 11
332.2663320012327
 21
223.7608398072485
 31
0.0
  0
LINE
  5
DE
330
70
100
AcDbEntity
  8
shade
 62
     6
420
 16711935
370
    25
100
AcDbLine
 10
332.2663320012327
 20
223.7608398072485
 30
0.0
 11
332.6064371659115
 21
224.273971120236
 31
0.0
  0
LINE
  5
DF
330
70
100
AcDbEntity
  8
shade
 62
     6
420
 16711935
370
    25
100
AcDbLine
 10
332.6064371659115
 20
224.273971120236
 30
0.0
 11
332.3061350473438
 21
223.7608398072485
 31
0.0
  0
LINE
  5
E0
330
70
100
AcDbEntity
  8
shade
 62
     6
420
 16711935
370
    25
100
AcDbLine
 10
332.3061350473438
 20
223.7608398072485
 30
0.0
 11
332.6301643547503
 21
224.273971120236
 31
0.0
  0
LINE
  5
E1
330
70
100
AcDbEntity
  8
shade
 62
     6
420
 16711935
370
    25
100
AcDbLine
 10
325.2228782764922
 20
223.7608398072485
 30
0.0
 11
325.1805056196634
 21
223.7608398072485
 31
0.0
  0
LINE
  5
E2
330
70
100
AcDbEntity
  8
shade
 62
     6
420
 16711935
370
    25
100
AcDbLine
 10
325.1805056196634
 20
223.7608398072485
 30
0.0
 11
324.9331946596974
 21
224.273971120236
 31
0.0
  0
LINE
  5
E3
330
70
100
AcDbEntity
  8
shade
 62
     6
420
 16711935
370
    25
100
AcDbLine
 10
325.8004595142506
 20
223.7608398072485
 30
0.0
 11
325.6749369510909
 21
223.7608398072485
 31
0.0
  0
LINE
  5
E4
330
70
100
AcDbEntity
  8
shade
 62
     6
420
 16711935
370
    25
100
AcDbLine
 10
325.6749369510909
 20
223.7608398072485
 30
0.0
 11
325.4592148578034
 21
224.1467927865727
 31
0.0
  0
LINE
  5
E5
330
70
100
AcDbEntity
  8
shade
 62
     6
420
 16711935
370
    25
100
AcDbLine
 10
326.3738044337067
 20
223.7608398072485
 30
0.0
 11
326.1638410370573
 21
223.7608398072485
 31
0.0
  0
LINE
  5
E6
330
70
100
AcDbEntity
  8
shade
 62
     6
420
 16711935
370
    25
100
AcDbLine
 10
326.1638410370573
 20
223.7608398072485
 30
0.0
 11
325.9857894456175
 21
224.0431936099898
 31
0.0
  0
LINE
  5
E7
330
70
100
AcDbEntity
  8
shade
 62
     6
420
 16711935
370
    25
100
AcDbLine
 10
326.9360530465954
 20
223.7608398072485
 30
0.0
 11
326.6457260256771
 21
223.7608398072485
 31
0.0
  0
LINE
  5
E8
330
70
100
AcDbEntity
  8
shade
 62
     6
420
 16711935
370
    25
100
AcDbLine
 10
326.6457260256771
 20
223.7608398072485
 30
0.0
 11
326.5092493579253
 21
223.9559511705925
 31
0.0
  0
LINE
  5
E9
330
70
100
AcDbEntity
  8
shade
 62
     6
420
 16711935
370
    25
100
AcDbLine
 10
327.4890344892878
 20
223.7608398072485
 30
0.0
 11
327.1170485634437
 21
223.7608398072485
 31
0.0
  0
LINE
  5
EA
330
70
100
AcDbEntity
  8
shade
 62
     6
420
 16711935
370
    25
100
AcDbLine
 10
327.1170485634437
 20
223.7608398072485
 30
0.0
 11
327.0246153175801
 21
223.8818188078048
 31
0.0
  0
LINE
  5
EB
330
70
100
AcDbEntity
  8
shade
 62
     6
420
 16711935
370
    25
100
AcDbLine
 10
328.022329558325
 20
223.7608398072485
 30
0.0
 11
327.576829639487
 21
223.7608398072485
 31
0.0
  0
LINE
  5
EC
330
70
100
AcDbEntity
  8
shade
 62
     6
420
 16711935
370
    25
100
AcDbLine
 10
327.576829639487
 20
223.7608398072485
 30
0.0
 11
327.5310439597305
 21
223.8161603724033
 31
0.0
  0
LINE
  5
ED
330
70
100
AcDbEntity
  8
shade
 62
     6
420
 16711935
370
    25
100
AcDbLine
 10
328.022329558325
 20
223.7608398072485
 30
0.0
 11
328.0183170665893
 21
223.7608398072485
 31
0.0
  0
LINE
  5
EE
330
70
100
AcDbEntity
  8
shade
 62
     6
420
 16711935
370
    25
100
AcDbLine
 10
325.5370919418185
 20
224.273971120236
 30
0.0
 11
325.4163124854021
 21
233.5103347543049
 31
0.0
  0
LINE
  5
EF
330
70
100
AcDbEntity
  8
shade
 62
     6
420
 16711935
370
    25
100
AcDbLine
 10
325.8964517290453
 20
233.5103347543049
 30
0.0
 11
326.1372659963789
 21
224.273971120236
 31
0.0
  0
LINE
  5
F0
330
70
100
AcDbEntity
  8
shade
 62
     6
420
 16711935
370
    25
100
AcDbLine
 10
326.7300165507486
 20
224.273971120236
 30
0.0
 11
326.3706521725437
 21
233.5103347543049
 31
0.0
  0
LINE
  5
F1
330
70
100
AcDbEntity
  8
shade
 62
     6
420
 16711935
370
    25
100
AcDbLine
 10
326.8359902124666
 20
233.5103347543049
 30
0.0
 11
327.3116891006555
 21
224.273971120236
 31
0.0
  0
LINE
  5
F2
330
70
100
AcDbEntity
  8
shade
 62
     6
420
 16711935
370
    25
100
AcDbLine
 10
327.878697441416
 20
224.273971120236
 30
0.0
 11
327.2895968850776
 21
233.5103347543049
 31
0.0
  0
LINE
  5
F3
330
70
100
AcDbEntity
  8
shade
 62
     6
420
 16711935
370
    25
100
AcDbLine
 10
327.7286755543639
 20
233.5103347543049
 30
0.0
 11
328.4275457780373
 21
224.273971120236
 31
0.0
  0
LINE
  5
F4
330
70
100
AcDbEntity
  8
shade
 62
     6
420
 16711935
370
    25
100
AcDbLine
 10
328.9548502780267
 20
224.273971120236
 30
0.0
 11
328.150519154366
 21
233.5103347543049
 31
0.0
  0
LINE
  5
F5
330
70
100
AcDbEntity
  8
shade
 62
     6
420
 16711935
370
    25
100
AcDbLine
 10
328.5525268789727
 20
233.5103347543049
 30
0.0
 11
329.4573599337848
 21
224.273971120236
 31
0.0
  0
LINE
  5
F6
330
70
100
AcDbEntity
  8
shade
 62
     6
420
 16711935
370
    25
100
AcDbLine
 10
329.9319766062092
 20
224.273971120236
 30
0.0
 11
328.932220216907
 21
233.5103347543049
 31
0.0
  0
LINE
  5
F7
330
70
100
AcDbEntity
  8
shade
 62
     6
420
 16711935
370
    25
100
AcDbLine
 10
329.2872582324734
 20
233.5103347543049
 30
0.0
 11
330.3757741256607
 21
224.273971120236
 31
0.0
  0
LINE
  5
F8
330
70
100
AcDbEntity
  8
shade
 62
     6
420
 16711935
370
    25
100
AcDbLine
 10
329.6154519982263
 20
233.5103347543049
 30
0.0
 11
330.786016332862
 21
224.273971120236
 31
0.0
  0
LINE
  5
F9
330
70
100
AcDbEntity
  8
shade
 62
     6
420
 16711935
370
    25
100
AcDbLine
 10
331.1601739481885
 20
224.273971120236
 30
0.0
 11
329.9147780904849
 21
233.5103347543049
 31
0.0
  0
LINE
  5
FA
330
70
100
AcDbEntity
  8
shade
 62
     6
420
 16711935
370
    25
100
AcDbLine
 10
330.1833910643472
 20
233.5103347543049
 30
0.0
 11
331.4959401655163
 21
224.273971120236
 31
0.0
  0
LINE
  5
FB
330
70
100
AcDbEntity
  8
shade
 62
     6
420
 16711935
370
    25
100
AcDbLine
 10
331.7912448744678
 20
224.273971120236
 30
0.0
 11
330.419634831511
 21
233.5103347543049
 31
0.0
  0
LINE
  5
FC
330
70
100
AcDbEntity
  8
shade
 62
     6
420
 16711935
370
    25
100
AcDbLine
 10
330.6220528705833
 20
233.5103347543049
 30
0.0
 11
332.0442674233145
 21
224.273971120236
 31
0.0
  0
LINE
  5
FD
330
70
100
AcDbEntity
  8
shade
 62
     6
420
 16711935
370
    25
100
AcDbLine
 10
332.2534478439121
 20
224.273971120236
 30
0.0
 11
330.7893972070531
 21
233.5103347543049
 31
0.0
  0
LINE
  5
FE
330
70
100
AcDbEntity
  8
shade
 62
     6
420
 16711935
370
    25
100
AcDbLine
 10
330.9206361074324
 20
233.5103347543049
 30
0.0
 11
332.4174964693763
 21
224.273971120236
 31
0.0
  0
LINE
  5
FF
330
70
100
AcDbEntity
  8
shade
 62
     6
420
 16711935
370
    25
100
AcDbLine
 10
332.5354018854093
 20
224.273971120236
 30
0.0
 11
331.014960440259
 21
233.5103347543049
 31
0.0
  0
LINE
  5
100
330
70
100
AcDbEntity
  8
shade
 62
     6
420
 16711935
370
    25
100
AcDbLine
 10
331.014960440259
 20
233.5103347543049
 30
0.0
 11
332.6064371659115
 21
224.273971120236
 31
0.0
  0
LINE
  5
101
330
70
100
AcDbEntity
  8
shade
 62
     6
420
 16711935
370
    25
100
AcDbLine
 10
332.6064371659115
 20
224.273971120236
 30
0.0
 11
331.0717886646632
 21
233.5103347543049
 31
0.0
  0
LINE
  5
102
330
70
100
AcDbEntity
  8
shade
 62
     6
420
 16711935
370
    25
100
AcDbLine
 10
324.9331946596974
 20
233.5103347543049
 30
0.0
 11
325.1547945086021
 21
234.023466067319
 31
0.0
  0
LINE
  5
103
330
70
100
AcDbEntity
  8
shade
 62
     6
420
 16711935
370
    25
100
AcDbLine
 10
325.1547945086021
 20
234.023466067319
 30
0.0
 11
325.4163124854021
 21
233.5103347543049
 31
0.0
  0
LINE
  5
104
330
70
100
AcDbEntity
  8
shade
 62
     6
420
 16711935
370
    25
100
AcDbLine
 10
325.4163124854021
 20
233.5103347543049
 30
0.0
 11
325.596627969635
 21
234.023466067319
 31
0.0
  0
LINE
  5
105
330
70
100
AcDbEntity
  8
shade
 62
     6
420
 16711935
370
    25
100
AcDbLine
 10
325.596627969635
 20
234.023466067319
 30
0.0
 11
325.8964517290453
 21
233.5103347543049
 31
0.0
  0
LINE
  5
106
330
70
100
AcDbEntity
  8
shade
 62
     6
420
 16711935
370
    25
100
AcDbLine
 10
325.8964517290453
 20
233.5103347543049
 30
0.0
 11
326.0343711436891
 21
234.023466067319
 31
0.0
  0
LINE
  5
107
330
70
100
AcDbEntity
  8
shade
 62
     6
420
 16711935
370
    25
100
AcDbLine
 10
326.0343711436891
 20
234.023466067319
 30
0.0
 11
326.3706521725437
 21
233.5103347543049
 31
0.0
  0
LINE
  5
108
330
70
100
AcDbEntity
  8
shade
 62
     6
420
 16711935
370
    25
100
AcDbLine
 10
326.3706521725437
 20
233.5103347543049
 30
0.0
 11
326.4653251985665
 21
234.023466067319
 31
0.0
  0
LINE
  5
109
330
70
100
AcDbEntity
  8
shade
 62
     6
420
 16711935
370
    25
100
AcDbLine
 10
326.4653251985665
 20
234.023466067319
 30
0.0
 11
326.8359902124666
 21
233.5103347543049
 31
0.0
  0
LINE
  5
10A
330
70
100
AcDbEntity
  8
shade
 62
     6
420
 16711935
370
    25
100
AcDbLine
 10
326.8359902124666
 20
233.5103347543049
 30
0.0
 11
326.8868331591658
 21
234.023466067319
 31
0.0
  0
LINE
  5
10B
330
70
100
AcDbEntity
  8
shade
 62
     6
420
 16711935
370
    25
100
AcDbLine
 10
326.8868331591658
 20
234.023466067319
 30
0.0
 11
327.2895968850776
 21
233.5103347543049
 31
0.0
  0
LINE
  5
10C
330
70
100
AcDbEntity
  8
shade
 62
     6
420
 16711935
370
    25
100
AcDbLine
 10
327.2895968850776
 20
233.5103347543049
 30
0.0
 11
327.2962962887707
 21
234.023466067319
 31
0.0
  0
LINE
  5
10D
330
70
100
AcDbEntity
  8
shade
 62
     6
420
 16711935
370
    25
100
AcDbLine
 10
327.2962962887707
 20
234.023466067319
 30
0.0
 11
327.7286755543639
 21
233.5103347543049
 31
0.0
  0
LINE
  5
10E
330
70
100
AcDbEntity
  8
shade
 62
     6
420
 16711935
370
    25
100
AcDbLine
 10
327.7286755543639
 20
233.5103347543049
 30
0.0
 11
327.6911901110165
 21
234.023466067319
 31
0.0
  0
LINE
  5
10F
330
70
100
AcDbEntity
  8
shade
 62
     6
420
 16711935
370
    25
100
AcDbLine
 10
327.6911901110165
 20
234.023466067319
 30
0.0
 11
328.150519154366
 21
233.5103347543049
 31
0.0
  0
LINE
  5
110
330
70
100
AcDbEntity
  8
shade
 62
     6
420
 16711935
370
    25
100
AcDbLine
 10
328.150519154366
 20
233.5103347543049
 30
0.0
 11
328.069079974174
 21
234.023466067319
 31
0.0
  0
LINE
  5
111
330
70
100
AcDbEntity
  8
shade
 62
     6
420
 16711935
370
    25
100
AcDbLine
 10
328.069079974174
 20
234.023466067319
 30
0.0
 11
328.5525268789727
 21
233.5103347543049
 31
0.0
  0
LINE
  5
112
330
70
100
AcDbEntity
  8
shade
 62
     6
420
 16711935
370
    25
100
AcDbLine
 10
328.5525268789727
 20
233.5103347543049
 30
0.0
 11
328.4276360616045
 21
234.023466067319
 31
0.0
  0
LINE
  5
113
330
70
100
AcDbEntity
  8
shade
 62
     6
420
 16711935
370
    25
100
AcDbLine
 10
328.4276360616045
 20
234.023466067319
 30
0.0
 11
328.932220216907
 21
233.5103347543049
 31
0.0
  0
LINE
  5
114
330
70
100
AcDbEntity
  8
shade
 62
     6
420
 16711935
370
    25
100
AcDbLine
 10
328.932220216907
 20
233.5103347543049
 30
0.0
 11
328.7646477557571
 21
234.023466067319
 31
0.0
  0
LINE
  5
115
330
70
100
AcDbEntity
  8
shade
 62
     6
420
 16711935
370
    25
100
AcDbLine
 10
328.7646477557571
 20
234.023466067319
 30
0.0
 11
329.2872582324734
 21
233.5103347543049
 31
0.0
  0
LINE
  5
116
330
70
100
AcDbEntity
  8
shade
 62
     6
420
 16711935
370
    25
100
AcDbLine
 10
329.2872582324734
 20
233.5103347543049
 30
0.0
 11
329.0780372674795
 21
234.023466067319
 31
0.0
  0
LINE
  5
117
330
70
100
AcDbEntity
  8
shade
 62
     6
420
 16711935
370
    25
100
AcDbLine
 10
329.0780372674795
 20
234.023466067319
 30
0.0
 11
329.6154519982263
 21
233.5103347543049
 31
0.0
  0
LINE
  5
118
330
70
100
AcDbEntity
  8
shade
 62
     6
420
 16711935
370
    25
100
AcDbLine
 10
329.6154519982263
 20
233.5103347543049
 30
0.0
 11
329.3658724462253
 21
234.023466067319
 31
0.0
  0
LINE
  5
119
330
70
100
AcDbEntity
  8
shade
 62
     6
420
 16711935
370
    25
100
AcDbLine
 10
329.3658724462253
 20
234.023466067319
 30
0.0
 11
329.9147780904849
 21
233.5103347543049
 31
0.0
  0
LINE
  5
11A
330
70
100
AcDbEntity
  8
shade
 62
     6
420
 16711935
370
    25
100
AcDbLine
 10
329.9147780904849
 20
233.5103347543049
 30
0.0
 11
329.6263786924151
 21
234.023466067319
 31
0.0
  0
LINE
  5
11B
330
70
100
AcDbEntity
  8
shade
 62
     6
420
 16711935
370
    25
100
AcDbLine
 10
329.6263786924151
 20
234.023466067319
 30
0.0
 11
330.1833910643472
 21
233.5103347543049
 31
0.0
  0
LINE
  5
11C
330
70
100
AcDbEntity
  8
shade
 62
     6
420
 16711935
370
    25
100
AcDbLine
 10
330.1833910643472
 20
233.5103347543049
 30
0.0
 11
329.8579498983915
 21
234.023466067319
 31
0.0
  0
LINE
  5
11D
330
70
100
AcDbEntity
  8
shade
 62
     6
420
 16711935
370
    25
100
AcDbLine
 10
329.8579498983915
 20
234.023466067319
 30
0.0
 11
330.419634831511
 21
233.5103347543049
 31
0.0
  0
LINE
  5
11E
330
70
100
AcDbEntity
  8
shade
 62
     6
420
 16711935
370
    25
100
AcDbLine
 10
330.419634831511
 20
233.5103347543049
 30
0.0
 11
330.0591583506697
 21
234.023466067319
 31
0.0
  0
LINE
  5
11F
330
70
100
AcDbEntity
  8
shade
 62
     6
420
 16711935
370
    25
100
AcDbLine
 10
330.0591583506697
 20
234.023466067319
 30
0.0
 11
330.6220528705833
 21
233.5103347543049
 31
0.0
  0
LINE
  5
120
330
70
100
AcDbEntity
  8
shade
 62
     6
420
 16711935
370
    25
100
AcDbLine
 10
330.6220528705833
 20
233.5103347543049
 30
0.0
 11
330.2287635322492
 21
234.023466067319
 31
0.0
  0
LINE
  5
121
330
70
100
AcDbEntity
  8
shade
 62
     6
420
 16711935
370
    25
100
AcDbLine
 10
330.2287635322492
 20
234.023466067319
 30
0.0
 11
330.7893972070531
 21
233.5103347543049
 31
0.0
  0
LINE
  5
122
330
70
100
AcDbEntity
  8
shade
 62
     6
420
 16711935
370
    25
100
AcDbLine
 10
330.7893972070531
 20
233.5103347543049
 30
0.0
 11
330.3657197707749
 21
234.023466067319
 31
0.0
  0
LINE
  5
123
330
70
100
AcDbEntity
  8
shade
 62
     6
420
 16711935
370
    25
100
AcDbLine
 10
330.3657197707749
 20
234.023466067319
 30
0.0
 11
330.9206361074324
 21
233.5103347543049
 31
0.0
  0
LINE
  5
124
330
70
100
AcDbEntity
  8
shade
 62
     6
420
 16711935
370
    25
100
AcDbLine
 10
330.9206361074324
 20
233.5103347543049
 30
0.0
 11
330.4691826854862
 21
234.023466067319
 31
0.0
  0
LINE
  5
125
330
70
100
AcDbEntity
  8
shade
 62
     6
420
 16711935
370
    25
100
AcDbLine
 10
330.4691826854862
 20
234.023466067319
 30
0.0
 11
331.014960440259
 21
233.5103347543049
 31
0.0
  0
LINE
  5
126
330
70
100
AcDbEntity
  8
shade
 62
     6
420
 16711935
370
    25
100
AcDbLine
 10
331.014960440259
 20
233.5103347543049
 30
0.0
 11
330.5081466252222
 21
234.023466067319
 31
0.0
  0
LINE
  5
127
330
70
100
AcDbEntity
  8
shade
 62
     6
420
 16711935
370
    25
100
AcDbLine
 10
330.5081466252222
 20
234.023466067319
 30
0.0
 11
331.0907704157477
 21
233.5103347543049
 31
0.0
  0
LINE
  5
128
330
70
100
AcDbEntity
  8
shade
 62
     6
420
 16711935
370
    25
100
AcDbLine
 10
331.0907704157477
 20
233.5103347543049
 30
0.0
 11
330.5385143931214
 21
234.023466067319
 31
0.0
  0
LINE
  5
129
330
70
100
AcDbEntity
  8
shade
 62
     6
420
 16711935
370
    25
100
AcDbLine
 10
330.5385143931214
 20
234.023466067319
 30
0.0
 11
331.0907704157477
 21
233.5103347543049
 31
0.0
  0
LINE
  5
12A
330
70
100
AcDbEntity
  8
shade
 62
     6
420
 16711935
370
    25
100
AcDbLine
 10
324.9331946596974
 20
234.023466067319
 30
0.0
 11
330.5776391027336
 21
234.023466067319
 31
0.0
  0
LINE
  5
12B
330
70
100
AcDbEntity
  8
shade
 62
     6
420
 16711935
370
    25
100
AcDbLine
 10
324.9331946596974
 20
234.023466067319
 30
0.0
 11
319.2887502166612
 21
234.023466067319
 31
0.0
  0
LINE
  5
12C
330
70
100
AcDbEntity
  8
shade
 62
     6
420
 16711935
370
    25
100
AcDbLine
 10
319.3278749262869
 20
234.023466067319
 30
0.0
 11
318.7756189036605
 21
233.5103347543049
 31
0.0
  0
LINE
  5
12D
330
70
100
AcDbEntity
  8
shade
 62
     6
420
 16711935
370
    25
100
AcDbLine
 10
318.7756189036605
 20
233.5103347543049
 30
0.0
 11
319.3278749262869
 21
234.023466067319
 31
0.0
  0
LINE
  5
12E
330
70
100
AcDbEntity
  8
shade
 62
     6
420
 16711935
370
    25
100
AcDbLine
 10
319.3582426941857
 20
234.023466067319
 30
0.0
 11
318.7756189036605
 21
233.5103347543049
 31
0.0
  0
LINE
  5
12F
330
70
100
AcDbEntity
  8
shade
 62
     6
420
 16711935
370
    25
100
AcDbLine
 10
318.8514288791355
 20
233.5103347543049
 30
0.0
 11
319.3582426941857
 21
234.023466067319
 31
0.0
  0
LINE
  5
130
330
70
100
AcDbEntity
  8
shade
 62
     6
420
 16711935
370
    25
100
AcDbLine
 10
319.3972066339221
 20
234.023466067319
 30
0.0
 11
318.8514288791355
 21
233.5103347543049
 31
0.0
  0
LINE
  5
131
330
70
100
AcDbEntity
  8
shade
 62
     6
420
 16711935
370
    25
100
AcDbLine
 10
318.9457532119756
 20
233.5103347543049
 30
0.0
 11
319.3972066339221
 21
234.023466067319
 31
0.0
  0
LINE
  5
132
330
70
100
AcDbEntity
  8
shade
 62
     6
420
 16711935
370
    25
100
AcDbLine
 10
319.5006695486334
 20
234.023466067319
 30
0.0
 11
318.9457532119756
 21
233.5103347543049
 31
0.0
  0
LINE
  5
133
330
70
100
AcDbEntity
  8
shade
 62
     6
420
 16711935
370
    25
100
AcDbLine
 10
319.0769921123548
 20
233.5103347543049
 30
0.0
 11
319.5006695486334
 21
234.023466067319
 31
0.0
  0
LINE
  5
134
330
70
100
AcDbEntity
  8
shade
 62
     6
420
 16711935
370
    25
100
AcDbLine
 10
319.6376257871588
 20
234.023466067319
 30
0.0
 11
319.0769921123548
 21
233.5103347543049
 31
0.0
  0
LINE
  5
135
330
70
100
AcDbEntity
  8
shade
 62
     6
420
 16711935
370
    25
100
AcDbLine
 10
319.244336448825
 20
233.5103347543049
 30
0.0
 11
319.6376257871588
 21
234.023466067319
 31
0.0
  0
LINE
  5
136
330
70
100
AcDbEntity
  8
shade
 62
     6
420
 16711935
370
    25
100
AcDbLine
 10
319.807230968725
 20
234.023466067319
 30
0.0
 11
319.244336448825
 21
233.5103347543049
 31
0.0
  0
LINE
  5
137
330
70
100
AcDbEntity
  8
shade
 62
     6
420
 16711935
370
    25
100
AcDbLine
 10
319.446754487897
 20
233.5103347543049
 30
0.0
 11
319.807230968725
 21
234.023466067319
 31
0.0
  0
LINE
  5
138
330
70
100
AcDbEntity
  8
shade
 62
     6
420
 16711935
370
    25
100
AcDbLine
 10
320.0084394210167
 20
234.023466067319
 30
0.0
 11
319.446754487897
 21
233.5103347543049
 31
0.0
  0
LINE
  5
139
330
70
100
AcDbEntity
  8
shade
 62
     6
420
 16711935
370
    25
100
AcDbLine
 10
319.6829982550476
 20
233.5103347543049
 30
0.0
 11
320.0084394210167
 21
234.023466067319
 31
0.0
  0
LINE
  5
13A
330
70
100
AcDbEntity
  8
shade
 62
     6
420
 16711935
370
    25
100
AcDbLine
 10
320.2400106269928
 20
234.023466067319
 30
0.0
 11
319.6829982550476
 21
233.5103347543049
 31
0.0
  0
LINE
  5
13B
330
70
100
AcDbEntity
  8
shade
 62
     6
420
 16711935
370
    25
100
AcDbLine
 10
319.9516112289231
 20
233.5103347543049
 30
0.0
 11
320.2400106269928
 21
234.023466067319
 31
0.0
  0
LINE
  5
13C
330
70
100
AcDbEntity
  8
shade
 62
     6
420
 16711935
370
    25
100
AcDbLine
 10
320.5005168731695
 20
234.023466067319
 30
0.0
 11
319.9516112289231
 21
233.5103347543049
 31
0.0
  0
LINE
  5
13D
330
70
100
AcDbEntity
  8
shade
 62
     6
420
 16711935
370
    25
100
AcDbLine
 10
320.2509373211816
 20
233.5103347543049
 30
0.0
 11
320.5005168731695
 21
234.023466067319
 31
0.0
  0
LINE
  5
13E
330
70
100
AcDbEntity
  8
shade
 62
     6
420
 16711935
370
    25
100
AcDbLine
 10
320.7883520519285
 20
234.023466067319
 30
0.0
 11
320.2509373211816
 21
233.5103347543049
 31
0.0
  0
LINE
  5
13F
330
70
100
AcDbEntity
  8
shade
 62
     6
420
 16711935
370
    25
100
AcDbLine
 10
320.579131086948
 20
233.5103347543049
 30
0.0
 11
320.7883520519285
 21
234.023466067319
 31
0.0
  0
LINE
  5
140
330
70
100
AcDbEntity
  8
shade
 62
     6
420
 16711935
370
    25
100
AcDbLine
 10
321.1017415636509
 20
234.023466067319
 30
0.0
 11
320.579131086948
 21
233.5103347543049
 31
0.0
  0
LINE
  5
141
330
70
100
AcDbEntity
  8
shade
 62
     6
420
 16711935
370
    25
100
AcDbLine
 10
320.9341691025013
 20
233.5103347543049
 30
0.0
 11
321.1017415636509
 21
234.023466067319
 31
0.0
  0
LINE
  5
142
330
70
100
AcDbEntity
  8
shade
 62
     6
420
 16711935
370
    25
100
AcDbLine
 10
321.4387532578034
 20
234.023466067319
 30
0.0
 11
320.9341691025013
 21
233.5103347543049
 31
0.0
  0
LINE
  5
143
330
70
100
AcDbEntity
  8
shade
 62
     6
420
 16711935
370
    25
100
AcDbLine
 10
321.3138624404353
 20
233.5103347543049
 30
0.0
 11
321.4387532578034
 21
234.023466067319
 31
0.0
  0
LINE
  5
144
330
70
100
AcDbEntity
  8
shade
 62
     6
420
 16711935
370
    25
100
AcDbLine
 10
321.7973093452207
 20
234.023466067319
 30
0.0
 11
321.3138624404353
 21
233.5103347543049
 31
0.0
  0
LINE
  5
145
330
70
100
AcDbEntity
  8
shade
 62
     6
420
 16711935
370
    25
100
AcDbLine
 10
321.7158701650419
 20
233.5103347543049
 30
0.0
 11
321.7973093452207
 21
234.023466067319
 31
0.0
  0
LINE
  5
146
330
70
100
AcDbEntity
  8
shade
 62
     6
420
 16711935
370
    25
100
AcDbLine
 10
322.1751992083918
 20
234.023466067319
 30
0.0
 11
321.7158701650419
 21
233.5103347543049
 31
0.0
  0
LINE
  5
147
330
70
100
AcDbEntity
  8
shade
 62
     6
420
 16711935
370
    25
100
AcDbLine
 10
322.1377137650305
 20
233.5103347543049
 30
0.0
 11
322.1751992083918
 21
234.023466067319
 31
0.0
  0
LINE
  5
148
330
70
100
AcDbEntity
  8
shade
 62
     6
420
 16711935
370
    25
100
AcDbLine
 10
322.5700930306372
 20
234.023466067319
 30
0.0
 11
322.1377137650305
 21
233.5103347543049
 31
0.0
  0
LINE
  5
149
330
70
100
AcDbEntity
  8
shade
 62
     6
420
 16711935
370
    25
100
AcDbLine
 10
322.5767924343438
 20
233.5103347543049
 30
0.0
 11
322.5700930306372
 21
234.023466067319
 31
0.0
  0
LINE
  5
14A
330
70
100
AcDbEntity
  8
shade
 62
     6
420
 16711935
370
    25
100
AcDbLine
 10
322.9795561602421
 20
234.023466067319
 30
0.0
 11
322.5767924343438
 21
233.5103347543049
 31
0.0
  0
LINE
  5
14B
330
70
100
AcDbEntity
  8
shade
 62
     6
420
 16711935
370
    25
100
AcDbLine
 10
323.0303991069281
 20
233.5103347543049
 30
0.0
 11
322.9795561602421
 21
234.023466067319
 31
0.0
  0
LINE
  5
14C
330
70
100
AcDbEntity
  8
shade
 62
     6
420
 16711935
370
    25
100
AcDbLine
 10
323.4010641208415
 20
234.023466067319
 30
0.0
 11
323.0303991069281
 21
233.5103347543049
 31
0.0
  0
LINE
  5
14D
330
70
100
AcDbEntity
  8
shade
 62
     6
420
 16711935
370
    25
100
AcDbLine
 10
323.4957371468647
 20
233.5103347543049
 30
0.0
 11
323.4010641208415
 21
234.023466067319
 31
0.0
  0
LINE
  5
14E
330
70
100
AcDbEntity
  8
shade
 62
     6
420
 16711935
370
    25
100
AcDbLine
 10
323.8320181757054
 20
234.023466067319
 30
0.0
 11
323.4957371468647
 21
233.5103347543049
 31
0.0
  0
LINE
  5
14F
330
70
100
AcDbEntity
  8
shade
 62
     6
420
 16711935
370
    25
100
AcDbLine
 10
323.9699375903629
 20
233.5103347543049
 30
0.0
 11
323.8320181757054
 21
234.023466067319
 31
0.0
  0
LINE
  5
150
330
70
100
AcDbEntity
  8
shade
 62
     6
420
 16711935
370
    25
100
AcDbLine
 10
324.269761349773
 20
234.023466067319
 30
0.0
 11
323.9699375903629
 21
233.5103347543049
 31
0.0
  0
LINE
  5
151
330
70
100
AcDbEntity
  8
shade
 62
     6
420
 16711935
370
    25
100
AcDbLine
 10
324.4500768340059
 20
233.5103347543049
 30
0.0
 11
324.269761349773
 21
234.023466067319
 31
0.0
  0
LINE
  5
152
330
70
100
AcDbEntity
  8
shade
 62
     6
420
 16711935
370
    25
100
AcDbLine
 10
324.7115948108058
 20
234.023466067319
 30
0.0
 11
324.4500768340059
 21
233.5103347543049
 31
0.0
  0
LINE
  5
153
330
70
100
AcDbEntity
  8
shade
 62
     6
420
 16711935
370
    25
100
AcDbLine
 10
324.9331946596974
 20
233.5103347543049
 30
0.0
 11
324.7115948108058
 21
234.023466067319
 31
0.0
  0
LINE
  5
154
330
70
100
AcDbEntity
  8
shade
 62
     6
420
 16711935
370
    25
100
AcDbLine
 10
317.2599521534968
 20
224.273971120236
 30
0.0
 11
318.7946006547316
 21
233.5103347543049
 31
0.0
  0
LINE
  5
155
330
70
100
AcDbEntity
  8
shade
 62
     6
420
 16711935
370
    25
100
AcDbLine
 10
318.8514288791355
 20
233.5103347543049
 30
0.0
 11
317.2599521534968
 21
224.273971120236
 31
0.0
  0
LINE
  5
156
330
70
100
AcDbEntity
  8
shade
 62
     6
420
 16711935
370
    25
100
AcDbLine
 10
317.3309874339986
 20
224.273971120236
 30
0.0
 11
318.8514288791355
 21
233.5103347543049
 31
0.0
  0
LINE
  5
157
330
70
100
AcDbEntity
  8
shade
 62
     6
420
 16711935
370
    25
100
AcDbLine
 10
318.9457532119756
 20
233.5103347543049
 30
0.0
 11
317.448892850032
 21
224.273971120236
 31
0.0
  0
LINE
  5
158
330
70
100
AcDbEntity
  8
shade
 62
     6
420
 16711935
370
    25
100
AcDbLine
 10
317.6129414755093
 20
224.273971120236
 30
0.0
 11
319.0769921123548
 21
233.5103347543049
 31
0.0
  0
LINE
  5
159
330
70
100
AcDbEntity
  8
shade
 62
     6
420
 16711935
370
    25
100
AcDbLine
 10
319.244336448825
 20
233.5103347543049
 30
0.0
 11
317.8221218960935
 21
224.273971120236
 31
0.0
  0
LINE
  5
15A
330
70
100
AcDbEntity
  8
shade
 62
     6
420
 16711935
370
    25
100
AcDbLine
 10
318.0751444449406
 20
224.273971120236
 30
0.0
 11
319.446754487897
 21
233.5103347543049
 31
0.0
  0
LINE
  5
15B
330
70
100
AcDbEntity
  8
shade
 62
     6
420
 16711935
370
    25
100
AcDbLine
 10
319.6829982550476
 20
233.5103347543049
 30
0.0
 11
318.3704491538916
 21
224.273971120236
 31
0.0
  0
LINE
  5
15C
330
70
100
AcDbEntity
  8
shade
 62
     6
420
 16711935
370
    25
100
AcDbLine
 10
318.7062153712198
 20
224.273971120236
 30
0.0
 11
319.9516112289231
 21
233.5103347543049
 31
0.0
  0
LINE
  5
15D
330
70
100
AcDbEntity
  8
shade
 62
     6
420
 16711935
370
    25
100
AcDbLine
 10
320.2509373211816
 20
233.5103347543049
 30
0.0
 11
319.0803729865463
 21
224.273971120236
 31
0.0
  0
LINE
  5
15E
330
70
100
AcDbEntity
  8
shade
 62
     6
420
 16711935
370
    25
100
AcDbLine
 10
320.579131086948
 20
233.5103347543049
 30
0.0
 11
319.4906151937475
 21
224.273971120236
 31
0.0
  0
LINE
  5
15F
330
70
100
AcDbEntity
  8
shade
 62
     6
420
 16711935
370
    25
100
AcDbLine
 10
319.9344127131988
 20
224.273971120236
 30
0.0
 11
320.9341691025013
 21
233.5103347543049
 31
0.0
  0
LINE
  5
160
330
70
100
AcDbEntity
  8
shade
 62
     6
420
 16711935
370
    25
100
AcDbLine
 10
321.3138624404353
 20
233.5103347543049
 30
0.0
 11
320.4090293856101
 21
224.273971120236
 31
0.0
  0
LINE
  5
161
330
70
100
AcDbEntity
  8
shade
 62
     6
420
 16711935
370
    25
100
AcDbLine
 10
320.9115390413816
 20
224.273971120236
 30
0.0
 11
321.7158701650419
 21
233.5103347543049
 31
0.0
  0
LINE
  5
162
330
70
100
AcDbEntity
  8
shade
 62
     6
420
 16711935
370
    25
100
AcDbLine
 10
322.1377137650305
 20
233.5103347543049
 30
0.0
 11
321.4388435413706
 21
224.273971120236
 31
0.0
  0
LINE
  5
163
330
70
100
AcDbEntity
  8
shade
 62
     6
420
 16711935
370
    25
100
AcDbLine
 10
321.9876918779923
 20
224.273971120236
 30
0.0
 11
322.5767924343438
 21
233.5103347543049
 31
0.0
  0
LINE
  5
164
330
70
100
AcDbEntity
  8
shade
 62
     6
420
 16711935
370
    25
100
AcDbLine
 10
323.0303991069281
 20
233.5103347543049
 30
0.0
 11
322.5547002187393
 21
224.273971120236
 31
0.0
  0
LINE
  5
165
330
70
100
AcDbEntity
  8
shade
 62
     6
420
 16711935
370
    25
100
AcDbLine
 10
323.1363727686597
 20
224.273971120236
 30
0.0
 11
323.4957371468647
 21
233.5103347543049
 31
0.0
  0
LINE
  5
166
330
70
100
AcDbEntity
  8
shade
 62
     6
420
 16711935
370
    25
100
AcDbLine
 10
323.9699375903629
 20
233.5103347543049
 30
0.0
 11
323.729123323029
 21
224.273971120236
 31
0.0
  0
LINE
  5
167
330
70
100
AcDbEntity
  8
shade
 62
     6
420
 16711935
370
    25
100
AcDbLine
 10
324.3292973775763
 20
224.273971120236
 30
0.0
 11
324.4500768340059
 21
233.5103347543049
 31
0.0
  0
LINE
  5
168
330
70
100
AcDbEntity
  8
shade
 62
     6
420
 16711935
370
    25
100
AcDbLine
 10
321.8440597610833
 20
223.7608398072485
 30
0.0
 11
321.8480722528187
 21
223.7608398072485
 31
0.0
  0
LINE
  5
169
330
70
100
AcDbEntity
  8
shade
 62
     6
420
 16711935
370
    25
100
AcDbLine
 10
322.2895596799209
 20
223.7608398072485
 30
0.0
 11
322.3353453596643
 21
223.8161603724033
 31
0.0
  0
LINE
  5
16A
330
70
100
AcDbEntity
  8
shade
 62
     6
420
 16711935
370
    25
100
AcDbLine
 10
321.8440597610833
 20
223.7608398072485
 30
0.0
 11
322.2895596799209
 21
223.7608398072485
 31
0.0
  0
LINE
  5
16B
330
70
100
AcDbEntity
  8
shade
 62
     6
420
 16711935
370
    25
100
AcDbLine
 10
322.7493407559643
 20
223.7608398072485
 30
0.0
 11
322.8417740018279
 21
223.8818188078048
 31
0.0
  0
LINE
  5
16C
330
70
100
AcDbEntity
  8
shade
 62
     6
420
 16711935
370
    25
100
AcDbLine
 10
322.377354830107
 20
223.7608398072485
 30
0.0
 11
322.7493407559643
 21
223.7608398072485
 31
0.0
  0
LINE
  5
16D
330
70
100
AcDbEntity
  8
shade
 62
     6
420
 16711935
370
    25
100
AcDbLine
 10
323.2206632937309
 20
223.7608398072485
 30
0.0
 11
323.357139961483
 21
223.9559511705925
 31
0.0
  0
LINE
  5
16E
330
70
100
AcDbEntity
  8
shade
 62
     6
420
 16711935
370
    25
100
AcDbLine
 10
322.930336272826
 20
223.7608398072485
 30
0.0
 11
323.2206632937309
 21
223.7608398072485
 31
0.0
  0
LINE
  5
16F
330
70
100
AcDbEntity
  8
shade
 62
     6
420
 16711935
370
    25
100
AcDbLine
 10
323.7025482823507
 20
223.7608398072485
 30
0.0
 11
323.8805998737905
 21
224.0431936099898
 31
0.0
  0
LINE
  5
170
330
70
100
AcDbEntity
  8
shade
 62
     6
420
 16711935
370
    25
100
AcDbLine
 10
323.4925848856881
 20
223.7608398072485
 30
0.0
 11
323.7025482823507
 21
223.7608398072485
 31
0.0
  0
LINE
  5
171
330
70
100
AcDbEntity
  8
shade
 62
     6
420
 16711935
370
    25
100
AcDbLine
 10
324.1914523683171
 20
223.7608398072485
 30
0.0
 11
324.4071744616049
 21
224.1467927865727
 31
0.0
  0
LINE
  5
172
330
70
100
AcDbEntity
  8
shade
 62
     6
420
 16711935
370
    25
100
AcDbLine
 10
324.0659298051573
 20
223.7608398072485
 30
0.0
 11
324.1914523683171
 21
223.7608398072485
 31
0.0
  0
LINE
  5
173
330
70
100
AcDbEntity
  8
shade
 62
     6
420
 16711935
370
    25
100
AcDbLine
 10
324.6858836997449
 20
223.7608398072485
 30
0.0
 11
324.9331946596974
 21
224.273971120236
 31
0.0
  0
LINE
  5
174
330
70
100
AcDbEntity
  8
shade
 62
     6
420
 16711935
370
    25
100
AcDbLine
 10
324.6435110429161
 20
223.7608398072485
 30
0.0
 11
324.6858836997449
 21
223.7608398072485
 31
0.0
  0
LINE
  5
175
330
70
100
AcDbEntity
  8
shade
 62
     6
420
 16711935
370
    25
100
AcDbLine
 10
317.5602542720641
 20
223.7608398072485
 30
0.0
 11
317.236224964658
 21
224.273971120236
 31
0.0
  0
LINE
  5
176
330
70
100
AcDbEntity
  8
shade
 62
     6
420
 16711935
370
    25
100
AcDbLine
 10
317.2599521534968
 20
224.273971120236
 30
0.0
 11
317.5602542720641
 21
223.7608398072485
 31
0.0
  0
LINE
  5
177
330
70
100
AcDbEntity
  8
shade
 62
     6
420
 16711935
370
    25
100
AcDbLine
 10
317.6000573181753
 20
223.7608398072485
 30
0.0
 11
317.2599521534968
 21
224.273971120236
 31
0.0
  0
LINE
  5
178
330
70
100
AcDbEntity
  8
shade
 62
     6
420
 16711935
370
    25
100
AcDbLine
 10
317.3309874339986
 20
224.273971120236
 30
0.0
 11
317.6000573181753
 21
223.7608398072485
 31
0.0
  0
LINE
  5
179
330
70
100
AcDbEntity
  8
shade
 62
     6
420
 16711935
370
    25
100
AcDbLine
 10
317.6907602500836
 20
223.7608398072485
 30
0.0
 11
317.3309874339986
 21
224.273971120236
 31
0.0
  0
LINE
  5
17A
330
70
100
AcDbEntity
  8
shade
 62
     6
420
 16711935
370
    25
100
AcDbLine
 10
317.448892850032
 20
224.273971120236
 30
0.0
 11
317.6907602500836
 21
223.7608398072485
 31
0.0
  0
LINE
  5
17B
330
70
100
AcDbEntity
  8
shade
 62
     6
420
 16711935
370
    25
100
AcDbLine
 10
317.8315944991946
 20
223.7608398072485
 30
0.0
 11
317.448892850032
 21
224.273971120236
 31
0.0
  0
LINE
  5
17C
330
70
100
AcDbEntity
  8
shade
 62
     6
420
 16711935
370
    25
100
AcDbLine
 10
317.6129414755093
 20
224.273971120236
 30
0.0
 11
317.8315944991946
 21
223.7608398072485
 31
0.0
  0
LINE
  5
17D
330
70
100
AcDbEntity
  8
shade
 62
     6
420
 16711935
370
    25
100
AcDbLine
 10
318.005287655133
 20
223.7608398072485
 30
0.0
 11
317.6129414755093
 21
224.273971120236
 31
0.0
  0
LINE
  5
17E
330
70
100
AcDbEntity
  8
shade
 62
     6
420
 16711935
370
    25
100
AcDbLine
 10
317.8221218960935
 20
224.273971120236
 30
0.0
 11
318.005287655133
 21
223.7608398072485
 31
0.0
  0
LINE
  5
17F
330
70
100
AcDbEntity
  8
shade
 62
     6
420
 16711935
370
    25
100
AcDbLine
 10
318.2271729622044
 20
223.7608398072485
 30
0.0
 11
317.8221218960935
 21
224.273971120236
 31
0.0
  0
LINE
  5
180
330
70
100
AcDbEntity
  8
shade
 62
     6
420
 16711935
370
    25
100
AcDbLine
 10
318.0751444449406
 20
224.273971120236
 30
0.0
 11
318.2271729622044
 21
223.7608398072485
 31
0.0
  0
LINE
  5
181
330
70
100
AcDbEntity
  8
shade
 62
     6
420
 16711935
370
    25
100
AcDbLine
 10
318.4904031230234
 20
223.7608398072485
 30
0.0
 11
318.0751444449406
 21
224.273971120236
 31
0.0
  0
LINE
  5
182
330
70
100
AcDbEntity
  8
shade
 62
     6
420
 16711935
370
    25
100
AcDbLine
 10
318.3704491538916
 20
224.273971120236
 30
0.0
 11
318.4904031230234
 21
223.7608398072485
 31
0.0
  0
LINE
  5
183
330
70
100
AcDbEntity
  8
shade
 62
     6
420
 16711935
370
    25
100
AcDbLine
 10
318.7933552361189
 20
223.7608398072485
 30
0.0
 11
318.3704491538916
 21
224.273971120236
 31
0.0
  0
LINE
  5
184
330
70
100
AcDbEntity
  8
shade
 62
     6
420
 16711935
370
    25
100
AcDbLine
 10
318.7062153712198
 20
224.273971120236
 30
0.0
 11
318.7933552361189
 21
223.7608398072485
 31
0.0
  0
LINE
  5
185
330
70
100
AcDbEntity
  8
shade
 62
     6
420
 16711935
370
    25
100
AcDbLine
 10
319.134161500964
 20
223.7608398072485
 30
0.0
 11
318.7062153712198
 21
224.273971120236
 31
0.0
  0
LINE
  5
186
330
70
100
AcDbEntity
  8
shade
 62
     6
420
 16711935
370
    25
100
AcDbLine
 10
319.0803729865463
 20
224.273971120236
 30
0.0
 11
319.134161500964
 21
223.7608398072485
 31
0.0
  0
LINE
  5
187
330
70
100
AcDbEntity
  8
shade
 62
     6
420
 16711935
370
    25
100
AcDbLine
 10
319.5107207335992
 20
223.7608398072485
 30
0.0
 11
319.0803729865463
 21
224.273971120236
 31
0.0
  0
LINE
  5
188
330
70
100
AcDbEntity
  8
shade
 62
     6
420
 16711935
370
    25
100
AcDbLine
 10
319.4906151937475
 20
224.273971120236
 30
0.0
 11
319.5107207335992
 21
223.7608398072485
 31
0.0
  0
LINE
  5
189
330
70
100
AcDbEntity
  8
shade
 62
     6
420
 16711935
370
    25
100
AcDbLine
 10
319.9207113211445
 20
223.7608398072485
 30
0.0
 11
319.4906151937475
 21
224.273971120236
 31
0.0
  0
LINE
  5
18A
330
70
100
AcDbEntity
  8
shade
 62
     6
420
 16711935
370
    25
100
AcDbLine
 10
319.9344127131988
 20
224.273971120236
 30
0.0
 11
319.9207113211445
 21
223.7608398072485
 31
0.0
  0
LINE
  5
18B
330
70
100
AcDbEntity
  8
shade
 62
     6
420
 16711935
370
    25
100
AcDbLine
 10
320.3651300648332
 20
223.7608398072485
 30
0.0
 11
319.9344127131988
 21
224.273971120236
 31
0.0
  0
LINE
  5
18C
330
70
100
AcDbEntity
  8
shade
 62
     6
420
 16711935
370
    25
100
AcDbLine
 10
320.4090293856101
 20
224.273971120236
 30
0.0
 11
320.3651300648332
 21
223.7608398072485
 31
0.0
  0
LINE
  5
18D
330
70
100
AcDbEntity
  8
shade
 62
     6
420
 16711935
370
    25
100
AcDbLine
 10
320.8338480027944
 20
223.7608398072485
 30
0.0
 11
320.4090293856101
 21
224.273971120236
 31
0.0
  0
LINE
  5
18E
330
70
100
AcDbEntity
  8
shade
 62
     6
420
 16711935
370
    25
100
AcDbLine
 10
320.9115390413816
 20
224.273971120236
 30
0.0
 11
320.8338480027944
 21
223.7608398072485
 31
0.0
  0
LINE
  5
18F
330
70
100
AcDbEntity
  8
shade
 62
     6
420
 16711935
370
    25
100
AcDbLine
 10
321.3250580334707
 20
223.7608398072485
 30
0.0
 11
320.9115390413816
 21
224.273971120236
 31
0.0
  0
LINE
  5
190
330
70
100
AcDbEntity
  8
shade
 62
     6
420
 16711935
370
    25
100
AcDbLine
 10
321.4388435413706
 20
224.273971120236
 30
0.0
 11
321.3250580334707
 21
223.7608398072485
 31
0.0
  0
LINE
  5
191
330
70
100
AcDbEntity
  8
shade
 62
     6
420
 16711935
370
    25
100
AcDbLine
 10
321.8440597610833
 20
223.7608398072485
 30
0.0
 11
321.4388435413706
 21
224.273971120236
 31
0.0
  0
LINE
  5
192
330
70
100
AcDbEntity
  8
shade
 62
     6
420
 16711935
370
    25
100
AcDbLine
 10
321.9876918779923
 20
224.273971120236
 30
0.0
 11
321.8440597610833
 21
223.7608398072485
 31
0.0
  0
LINE
  5
193
330
70
100
AcDbEntity
  8
shade
 62
     6
420
 16711935
370
    25
100
AcDbLine
 10
322.377354830107
 20
223.7608398072485
 30
0.0
 11
321.9876918779923
 21
224.273971120236
 31
0.0
  0
LINE
  5
194
330
70
100
AcDbEntity
  8
shade
 62
     6
420
 16711935
370
    25
100
AcDbLine
 10
322.5547002187393
 20
224.273971120236
 30
0.0
 11
322.377354830107
 21
223.7608398072485
 31
0.0
  0
LINE
  5
195
330
70
100
AcDbEntity
  8
shade
 62
     6
420
 16711935
370
    25
100
AcDbLine
 10
322.930336272826
 20
223.7608398072485
 30
0.0
 11
322.5547002187393
 21
224.273971120236
 31
0.0
  0
LINE
  5
196
330
70
100
AcDbEntity
  8
shade
 62
     6
420
 16711935
370
    25
100
AcDbLine
 10
323.1363727686597
 20
224.273971120236
 30
0.0
 11
322.930336272826
 21
223.7608398072485
 31
0.0
  0
LINE
  5
197
330
70
100
AcDbEntity
  8
shade
 62
     6
420
 16711935
370
    25
100
AcDbLine
 10
323.4925848856881
 20
223.7608398072485
 30
0.0
 11
323.1363727686597
 21
224.273971120236
 31
0.0
  0
LINE
  5
198
330
70
100
AcDbEntity
  8
shade
 62
     6
420
 16711935
370
    25
100
AcDbLine
 10
323.729123323029
 20
224.273971120236
 30
0.0
 11
323.4925848856881
 21
223.7608398072485
 31
0.0
  0
LINE
  5
199
330
70
100
AcDbEntity
  8
shade
 62
     6
420
 16711935
370
    25
100
AcDbLine
 10
324.0659298051573
 20
223.7608398072485
 30
0.0
 11
323.729123323029
 21
224.273971120236
 31
0.0
  0
LINE
  5
19A
330
70
100
AcDbEntity
  8
shade
 62
     6
420
 16711935
370
    25
100
AcDbLine
 10
324.3292973775763
 20
224.273971120236
 30
0.0
 11
324.0659298051573
 21
223.7608398072485
 31
0.0
  0
LINE
  5
19B
330
70
100
AcDbEntity
  8
shade
 62
     6
420
 16711935
370
    25
100
AcDbLine
 10
324.6435110429161
 20
223.7608398072485
 30
0.0
 11
324.3292973775763
 21
224.273971120236
 31
0.0
  0
LINE
  5
19C
330
70
100
AcDbEntity
  8
shade
 62
     6
420
 16711935
370
    25
100
AcDbLine
 10
324.9331946596974
 20
224.273971120236
 30
0.0
 11
324.6435110429161
 21
223.7608398072485
 31
0.0
  0
LINE
  5
19D
330
70
100
AcDbEntity
  8
shade
 62
     6
420
 16711935
370
    25
100
AcDbLine
 10
317.236224964658
 20
224.273971120236
 30
0.0
 11
317.5545656164716
 21
223.7608398072485
 31
0.0
  0
LINE
  5
19E
330
70
100
AcDbEntity
  8
shade
 62
     6
420
 16711935
370
    25
100
AcDbLine
 10
318.7756189036605
 20
233.5103347543049
 30
0.0
 11
317.236224964658
 21
224.273971120236
 31
0.0
  0
LINE
  5
19F
330
70
100
AcDbEntity
  8
shade
 62
     6
420
 16711935
370
    25
100
AcDbLine
 10
319.2887502166612
 20
234.023466067319
 30
0.0
 11
318.7756189036605
 21
233.5103347543049
 31
0.0
  0
LINE
  5
1A0
330
70
100
AcDbEntity
  8
shade
 62
     6
420
 16711935
370
    25
100
AcDbLine
 10
321.8440597610833
 20
223.7608398072485
 30
0.0
 11
317.5545656164716
 21
223.7608398072485
 31
0.0
  0
LINE
  5
1A1
330
70
100
AcDbEntity
  8
shade
 62
     6
420
 16711935
370
    25
100
AcDbLine
 10
324.9331946596974
 20
233.5103347543049
 30
0.0
 11
324.9331946596974
 21
224.273971120236
 31
0.0
  0
LWPOLYLINE
  5
1A3
330
70
100
AcDbEntity
  8
Defpoints
 62
    18
420
        0
370
    25
100
AcDbPolyline
 90
        4
 70
     1
 43
0.0
 10
203.9696969187016
 20
0.0
 10
473.3636362452987
 20
0.0
 10
473.3636362452987
 20
380.9999999047501
 10
203.9696969187016
 20
380.9999999047501
  0
ENDSEC
  0
SECTION
  2
OBJECTS
  0
DICTIONARY
  5
C
330
0
100
AcDbDictionary
281
     1
  3
ACAD_COLOR
350
63
  3
ACAD_DETAILVIEWSTYLE
350
6A
  3
ACAD_GROUP
350
D
  3
ACAD_LAYOUT
350
62
  3
ACAD_MATERIAL
350
10
  3
ACAD_MLEADERSTYLE
350
66
  3
ACAD_MLINESTYLE
350
5F
  3
ACAD_PLOTSETTINGS
350
61
  3
ACAD_PLOTSTYLENAME
350
E
  3
ACAD_SCALELIST
350
42
  3
ACAD_SECTIONVIEWSTYLE
350
68
  3
ACAD_TABLESTYLE
350
64
  3
ACAD_VISUALSTYLE
350
29
  3
ACDB_RECOMPOSE_DATA
350
1AC
  3
AcDbVariableDictionary
350
1A4
  0
DICTIONARY
  5
63
102
{ACAD_REACTORS
330
C
102
}
330
C
100
AcDbDictionary
281
     1
  0
DICTIONARY
  5
6A
102
{ACAD_REACTORS
330
C
102
}
330
C
100
AcDbDictionary
281
     1
  3
Imperial24
350
6B
  0
DICTIONARY
  5
D
102
{ACAD_REACTORS
330
C
102
}
330
C
100
AcDbDictionary
281
     1
  0
DICTIONARY
  5
62
102
{ACAD_REACTORS
330
C
102
}
330
C
100
AcDbDictionary
281
     1
  3
Layout1
350
6F
  3
Layout2
350
77
  3
Model
350
73
  0
DICTIONARY
  5
10
102
{ACAD_REACTORS
330
C
102
}
330
C
100
AcDbDictionary
281
     1
  3
ByBlock
350
19
  3
ByLayer
350
11
  3
Global
350
21
  0
DICTIONARY
  5
66
102
{ACAD_REACTORS
330
C
102
}
330
C
100
AcDbDictionary
281
     1
  3
Standard
350
67
  0
DICTIONARY
  5
5F
102
{ACAD_REACTORS
330
C
102
}
330
C
100
AcDbDictionary
281
     1
  3
Standard
350
60
  0
DICTIONARY
  5
61
102
{ACAD_REACTORS
330
C
102
}
330
C
100
AcDbDictionary
281
     1
  0
ACDBDICTIONARYWDFLT
  5
E
102
{ACAD_REACTORS
330
C
102
}
330
C
100
AcDbDictionary
281
     1
  3
Normal
350
F
100
AcDbDictionaryWithDefault
340
F
  0
DICTIONARY
  5
42
102
{ACAD_REACTORS
330
C
102
}
330
C
100
AcDbDictionary
281
     1
  3
A0
350
43
  3
A1
350
44
  3
A2
350
45
  3
A3
350
46
  3
A4
350
47
  3
A5
350
48
  3
A6
350
49
  3
A7
350
4A
  3
A8
350
4B
  3
A9
350
4C
  3
B0
350
4D
  3
B1
350
4E
  3
B2
350
4F
  3
B3
350
50
  3
B4
350
51
  3
B5
350
52
  3
B6
350
53
  0
DICTIONARY
  5
68
102
{ACAD_REACTORS
330
C
102
}
330
C
100
AcDbDictionary
281
     1
  3
Imperial24
350
69
  0
DICTIONARY
  5
64
102
{ACAD_REACTORS
330
C
102
}
330
C
100
AcDbDictionary
281
     1
  3
Standard
350
65
  0
DICTIONARY
  5
29
102
{ACAD_REACTORS
330
C
102
}
330
C
100
AcDbDictionary
281
     1
  3
2dWireframe
350
2F
  3
Basic
350
2E
  3
Brighten
350
35
  3
ColorChange
350
39
  3
Conceptual
350
32
  3
Dim
350
34
  3
EdgeColorOff
350
41
  3
Facepattern
350
38
  3
Flat
350
2A
  3
FlatWithEdges
350
2B
  3
Gouraud
350
2C
  3
GouraudWithEdges
350
2D
  3
Hidden
350
31
  3
JitterOff
350
3F
  3
Linepattern
350
37
  3
OverhangOff
350
40
  3
Realistic
350
33
  3
Shaded
350
3E
  3
Shaded with edges
350
3D
  3
Shades of Gray
350
3A
  3
Sketchy
350
3B
  3
Thicken
350
36
  3
Wireframe
350
30
  3
X-Ray
350
3C
  0
XRECORD
  5
1AC
102
{ACAD_REACTORS
330
C
102
}
330
C
100
AcDbXrecord
280
     1
 90
        1
330
65
  0
DICTIONARY
  5
1A4
102
{ACAD_REACTORS
330
C
102
}
330
C
100
AcDbDictionary
281
     1
  3
CANNOSCALE
350
1A9
  3
CMLEADERSTYLE
350
1A6
  3
CTABLESTYLE
350
1A5
  3
CVIEWDETAILSTYLE
350
1A7
  3
CVIEWSECTIONSTYLE
350
1A8
  0
ACDBDETAILVIEWSTYLE
  5
6B
102
{ACAD_REACTORS
330
6A
102
}
330
6A
100
AcDbModelDocViewStyle
 70
     0
  3
Imperial24
290
     1
300
Imperial24
 90
        0
100
AcDbDetailViewStyle
 70
     0
 71
     0
 90
        3
 71
     1
340
55
 62
   256
 40
0.24
340
0
 62
   256
 40
0.24
300

 40
0.36
280
     3
 71
     2
340
5D
 90
       25
 62
   256
 71
     3
340
55
 62
   256
 40
0.24
 90
        1
 40
0.75
 90
        1
300
%<\AcVar ViewType \f "%tc1">% %<\AcVar ViewDetailId>%\PSCALE %<\AcVar ViewScale \f "%sn">%
 71
     4
340
5D
 90
       25
 62
   256
340
5D
 90
       25
 62
   256
280
     0
  0
LAYOUT
  5
6F
102
{ACAD_REACTORS
330
62
102
}
330
62
100
AcDbPlotSettings
  1

  2

  4

  6

 40
0.0
 41
0.0
 42
0.0
 43
0.0
 44
0.0
 45
0.0
 46
0.0
 47
0.0
 48
0.0
 49
0.0
140
0.0
141
0.0
142
1.0
143
1.0
 70
   688
 72
     0
 73
     0
 74
     5
  7

 75
    16
147
1.0
 76
     0
 77
     2
 78
   300
148
0.0
149
0.0
100
AcDbLayout
  1
Layout1
 70
     1
 71
     1
 10
0.0
 20
0.0
 11
12.0
 21
9.0
 12
0.0
 22
0.0
 32
0.0
 14
0.0
 24
0.0
 34
0.0
 15
0.0
 25
0.0
 35
0.0
146
0.0
 13
0.0
 23
0.0
 33
0.0
 16
1.0
 26
0.0
 36
0.0
 17
0.0
 27
1.0
 37
0.0
 76
     0
330
6C
  0
LAYOUT
  5
77
102
{ACAD_REACTORS
330
62
102
}
330
62
100
AcDbPlotSettings
  1

  2

  4

  6

 40
0.0
 41
0.0
 42
0.0
 43
0.0
 44
0.0
 45
0.0
 46
0.0
 47
0.0
 48
0.0
 49
0.0
140
0.0
141
0.0
142
1.0
143
1.0
 70
   688
 72
     0
 73
     0
 74
     5
  7

 75
    16
147
1.0
 76
     0
 77
     2
 78
   300
148
0.0
149
0.0
100
AcDbLayout
  1
Layout2
 70
     1
 71
     2
 10
0.0
 20
0.0
 11
12.0
 21
9.0
 12
0.0
 22
0.0
 32
0.0
 14
0.0
 24
0.0
 34
0.0
 15
0.0
 25
0.0
 35
0.0
146
0.0
 13
0.0
 23
0.0
 33
0.0
 16
1.0
 26
0.0
 36
0.0
 17
0.0
 27
1.0
 37
0.0
 76
     0
330
74
  0
LAYOUT
  5
73
102
{ACAD_REACTORS
330
62
102
}
330
62
100
AcDbPlotSettings
  1

  2

  4

  6

 40
0.0
 41
0.0
 42
0.0
 43
0.0
 44
0.0
 45
0.0
 46
0.0
 47
0.0
 48
0.0
 49
0.0
140
0.0
141
0.0
142
1.0
143
1.0
 70
  1712
 72
     0
 73
     0
 74
     0
  7

 75
     0
147
1.0
 76
     0
 77
     2
 78
   300
148
0.0
149
0.0
100
AcDbLayout
  1
Model
 70
     1
 71
     0
 10
0.0
 20
0.0
 11
12.0
 21
9.0
 12
0.0
 22
0.0
 32
0.0
 14
0.0
 24
0.0
 34
0.0
 15
0.0
 25
0.0
 35
0.0
146
0.0
 13
0.0
 23
0.0
 33
0.0
 16
1.0
 26
0.0
 36
0.0
 17
0.0
 27
1.0
 37
0.0
 76
     0
330
70
  0
MATERIAL
  5
19
102
{ACAD_XDICTIONARY
360
1A
102
}
102
{ACAD_REACTORS
330
10
102
}
330
10
100
AcDbMaterial
  1
ByBlock
 72
     0
 43
0.0208333333333333
 43
0.0
 43
0.0
 43
0.0
 43
0.0
 43
0.0208333333333333
 43
0.0
 43
0.0
 43
0.0
 43
0.0
 43
1.0
 43
0.0
 43
0.0
 43
0.0
 43
0.0
 43
1.0
 77
     0
 47
0.0208333333333333
 47
0.0
 47
0.0
 47
0.0
 47
0.0
 47
0.0208333333333333
 47
0.0
 47
0.0
 47
0.0
 47
0.0
 47
1.0
 47
0.0
 47
0.0
 47
0.0
 47
0.0
 47
1.0
171
     0
 49
0.0208333333333333
 49
0.0
 49
0.0
 49
0.0
 49
0.0
 49
0.0208333333333333
 49
0.0
 49
0.0
 49
0.0
 49
0.0
 49
1.0
 49
0.0
 49
0.0
 49
0.0
 49
0.0
 49
1.0
175
     0
142
0.0208333333333333
142
0.0
142
0.0
142
0.0
142
0.0
142
0.0208333333333333
142
0.0
142
0.0
142
0.0
142
0.0
142
1.0
142
0.0
142
0.0
142
0.0
142
0.0
142
1.0
179
     0
144
0.0208333333333333
144
0.0
144
0.0
144
0.0
144
0.0
144
0.0208333333333333
144
0.0
144
0.0
144
0.0
144
0.0
144
1.0
144
0.0
144
0.0
144
0.0
144
0.0
144
1.0
147
0.0208333333333333
147
0.0
147
0.0
147
0.0
147
0.0
147
0.0208333333333333
147
0.0
147
0.0
147
0.0
147
0.0
147
1.0
147
0.0
147
0.0
147
0.0
147
0.0
147
1.0
  0
MATERIAL
  5
11
102
{ACAD_XDICTIONARY
360
12
102
}
102
{ACAD_REACTORS
330
10
102
}
330
10
100
AcDbMaterial
  1
ByLayer
 72
     0
 43
0.0208333333333333
 43
0.0
 43
0.0
 43
0.0
 43
0.0
 43
0.0208333333333333
 43
0.0
 43
0.0
 43
0.0
 43
0.0
 43
1.0
 43
0.0
 43
0.0
 43
0.0
 43
0.0
 43
1.0
 77
     0
 47
0.0208333333333333
 47
0.0
 47
0.0
 47
0.0
 47
0.0
 47
0.0208333333333333
 47
0.0
 47
0.0
 47
0.0
 47
0.0
 47
1.0
 47
0.0
 47
0.0
 47
0.0
 47
0.0
 47
1.0
171
     0
 49
0.0208333333333333
 49
0.0
 49
0.0
 49
0.0
 49
0.0
 49
0.0208333333333333
 49
0.0
 49
0.0
 49
0.0
 49
0.0
 49
1.0
 49
0.0
 49
0.0
 49
0.0
 49
0.0
 49
1.0
175
     0
142
0.0208333333333333
142
0.0
142
0.0
142
0.0
142
0.0
142
0.0208333333333333
142
0.0
142
0.0
142
0.0
142
0.0
142
1.0
142
0.0
142
0.0
142
0.0
142
0.0
142
1.0
179
     0
144
0.0208333333333333
144
0.0
144
0.0
144
0.0
144
0.0
144
0.0208333333333333
144
0.0
144
0.0
144
0.0
144
0.0
144
1.0
144
0.0
144
0.0
144
0.0
144
0.0
144
1.0
147
0.0208333333333333
147
0.0
147
0.0
147
0.0
147
0.0
147
0.0208333333333333
147
0.0
147
0.0
147
0.0
147
0.0
147
1.0
147
0.0
147
0.0
147
0.0
147
0.0
147
1.0
  0
MATERIAL
  5
21
102
{ACAD_XDICTIONARY
360
22
102
}
102
{ACAD_REACTORS
330
10
102
}
330
10
100
AcDbMaterial
  1
Global
 72
     0
 43
0.0208333333333333
 43
0.0
 43
0.0
 43
0.0
 43
0.0
 43
0.0208333333333333
 43
0.0
 43
0.0
 43
0.0
 43
0.0
 43
1.0
 43
0.0
 43
0.0
 43
0.0
 43
0.0
 43
1.0
 77
     0
 47
0.0208333333333333
 47
0.0
 47
0.0
 47
0.0
 47
0.0
 47
0.0208333333333333
 47
0.0
 47
0.0
 47
0.0
 47
0.0
 47
1.0
 47
0.0
 47
0.0
 47
0.0
 47
0.0
 47
1.0
171
     0
 49
0.0208333333333333
 49
0.0
 49
0.0
 49
0.0
 49
0.0
 49
0.0208333333333333
 49
0.0
 49
0.0
 49
0.0
 49
0.0
 49
1.0
 49
0.0
 49
0.0
 49
0.0
 49
0.0
 49
1.0
175
     0
142
0.0208333333333333
142
0.0
142
0.0
142
0.0
142
0.0
142
0.0208333333333333
142
0.0
142
0.0
142
0.0
142
0.0
142
1.0
142
0.0
142
0.0
142
0.0
142
0.0
142
1.0
179
     0
144
0.0208333333333333
144
0.0
144
0.0
144
0.0
144
0.0
144
0.0208333333333333
144
0.0
144
0.0
144
0.0
144
0.0
144
1.0
144
0.0
144
0.0
144
0.0
144
0.0
144
1.0
147
0.0208333333333333
147
0.0
147
0.0
147
0.0
147
0.0
147
0.0208333333333333
147
0.0
147
0.0
147
0.0
147
0.0
147
1.0
147
0.0
147
0.0
147
0.0
147
0.0
147
1.0
  0
MLEADERSTYLE
  5
67
102
{ACAD_REACTORS
330
66
102
}
330
66
100
AcDbMLeaderStyle
179
     2
170
     2
171
     1
172
     0
 90
        2
 40
0.0
 41
0.0
173
     1
 91
-1056964608
340
5B
 92
       -2
290
     1
 42
0.09
291
     1
 43
0.36
  3
Standard
 44
0.18
300

342
55
174
     1
178
     6
175
     1
176
     0
 93
-1056964608
 45
0.18
292
     0
297
     0
 46
0.18
 94
-1056964608
 47
1.0
 49
1.0
140
1.0
293
     1
141
0.0
294
     1
177
     0
142
1.0
295
     1
296
     0
143
0.125
271
     0
272
     9
273
     9
298
     1
  0
MLINESTYLE
  5
60
102
{ACAD_REACTORS
330
5F
102
}
330
5F
100
AcDbMlineStyle
  2
STANDARD
 70
     0
  3

 62
   256
 51
90.0
 52
90.0
 71
     2
 49
0.5
 62
   256
  6
BYLAYER
 49
-0.5
 62
   256
  6
BYLAYER
  0
ACDBPLACEHOLDER
  5
F
102
{ACAD_REACTORS
330
E
102
}
330
E
  0
SCALE
  5
43
102
{ACAD_REACTORS
330
42
102
}
330
42
100
AcDbScale
 70
     0
300
1:1
140
1.0
141
1.0
290
     1
  0
SCALE
  5
44
102
{ACAD_REACTORS
330
42
102
}
330
42
100
AcDbScale
 70
     0
300
1/128" = 1'-0"
140
0.0078125
141
12.0
290
     0
  0
SCALE
  5
45
102
{ACAD_REACTORS
330
42
102
}
330
42
100
AcDbScale
 70
     0
300
1/64" = 1'-0"
140
0.015625
141
12.0
290
     0
  0
SCALE
  5
46
102
{ACAD_REACTORS
330
42
102
}
330
42
100
AcDbScale
 70
     0
300
1/32" = 1'-0"
140
0.03125
141
12.0
290
     0
  0
SCALE
  5
47
102
{ACAD_REACTORS
330
42
102
}
330
42
100
AcDbScale
 70
     0
300
1/16" = 1'-0"
140
0.0625
141
12.0
290
     0
  0
SCALE
  5
48
102
{ACAD_REACTORS
330
42
102
}
330
42
100
AcDbScale
 70
     0
300
3/32" = 1'-0"
140
0.09375
141
12.0
290
     0
  0
SCALE
  5
49
102
{ACAD_REACTORS
330
42
102
}
330
42
100
AcDbScale
 70
     0
300
1/8" = 1'-0"
140
0.125
141
12.0
290
     0
  0
SCALE
  5
4A
102
{ACAD_REACTORS
330
42
102
}
330
42
100
AcDbScale
 70
     0
300
3/16" = 1'-0"
140
0.1875
141
12.0
290
     0
  0
SCALE
  5
4B
102
{ACAD_REACTORS
330
42
102
}
330
42
100
AcDbScale
 70
     0
300
1/4" = 1'-0"
140
0.25
141
12.0
290
     0
  0
SCALE
  5
4C
102
{ACAD_REACTORS
330
42
102
}
330
42
100
AcDbScale
 70
     0
300
3/8" = 1'-0"
140
0.375
141
12.0
290
     0
  0
SCALE
  5
4D
102
{ACAD_REACTORS
330
42
102
}
330
42
100
AcDbScale
 70
     0
300
1/2" = 1'-0"
140
0.5
141
12.0
290
     0
  0
SCALE
  5
4E
102
{ACAD_REACTORS
330
42
102
}
330
42
100
AcDbScale
 70
     0
300
3/4" = 1'-0"
140
0.75
141
12.0
290
     0
  0
SCALE
  5
4F
102
{ACAD_REACTORS
330
42
102
}
330
42
100
AcDbScale
 70
     0
300
1" = 1'-0"
140
1.0
141
12.0
290
     0
  0
SCALE
  5
50
102
{ACAD_REACTORS
330
42
102
}
330
42
100
AcDbScale
 70
     0
300
1-1/2" = 1'-0"
140
1.5
141
12.0
290
     0
  0
SCALE
  5
51
102
{ACAD_REACTORS
330
42
102
}
330
42
100
AcDbScale
 70
     0
300
3" = 1'-0"
140
3.0
141
12.0
290
     0
  0
SCALE
  5
52
102
{ACAD_REACTORS
330
42
102
}
330
42
100
AcDbScale
 70
     0
300
6" = 1'-0"
140
6.0
141
12.0
290
     0
  0
SCALE
  5
53
102
{ACAD_REACTORS
330
42
102
}
330
42
100
AcDbScale
 70
     0
300
1'-0" = 1'-0"
140
12.0
141
12.0
290
     0
  0
ACDBSECTIONVIEWSTYLE
  5
69
102
{ACAD_REACTORS
330
68
102
}
330
68
100
AcDbModelDocViewStyle
 70
     0
  3
Imperial24
290
     1
300
Imperial24
 90
        0
100
AcDbSectionViewStyle
 70
     0
 71
     0
 90
       78
 71
     1
340
55
 62
   256
 40
0.24
340
0
340
0
 62
   256
 40
0.24
300
I, O, Q, S, X, Z
 40
0.48
 90
        3
 40
0.18
 90
        1
 71
     2
340
5D
 90
       25
 62
   256
340
5D
 90
       50
 62
   256
 40
0.24
 40
0.0
 40
0.24
 71
     3
340
55
 62
   256
 40
0.24
 90
        1
 40
0.75
 90
        1
300
%<\AcVar ViewType \f "%tc1">% %<\AcVar ViewSectionStartId>%-%<\AcVar ViewSectionEndId>%\PSCALE %<\AcVar ViewScale \f "%sn">%
 71
     4
 62
   256
 62
   257
300
ANSI31
 40
1.0
 90
        0
290
     0
290
     0
 90
        6
 40
0.0
 40
1.570796326794896
 40
0.2617993877991494
 40
1.308996938995747
 40
-0.2617993877991494
 40
1.832595714594046
  0
TABLESTYLE
  5
65
102
{ACAD_XDICTIONARY
360
1AA
102
}
102
{ACAD_REACTORS
330
64
102
}
330
64
100
AcDbTableStyle
280
     0
  3
Standard
 70
     0
 71
     0
 40
0.06
 41
0.06
280
     0
281
     0
  7
Standard
140
0.18
170
     2
 62
     0
 63
     7
283
     0
 90
      512
 91
        0
  1

274
    -2
284
     1
 64
     0
275
    -2
285
     1
 65
     0
276
    -2
286
     1
 66
     0
277
    -2
287
     1
 67
     0
278
    -2
288
     1
 68
     0
279
    -2
289
     1
 69
     0
  7
Standard
140
0.25
170
     5
 62
     0
 63
     7
283
     0
 90
      512
 91
        0
  1

274
    -2
284
     1
 64
     0
275
    -2
285
     1
 65
     0
276
    -2
286
     1
 66
     0
277
    -2
287
     1
 67
     0
278
    -2
288
     1
 68
     0
279
    -2
289
     1
 69
     0
  7
Standard
140
0.18
170
     5
 62
     0
 63
     7
283
     0
 90
      512
 91
        0
  1

274
    -2
284
     1
 64
     0
275
    -2
285
     1
 65
     0
276
    -2
286
     1
 66
     0
277
    -2
287
     1
 67
     0
278
    -2
288
     1
 68
     0
279
    -2
289
     1
 69
     0
  0
VISUALSTYLE
  5
2F
102
{ACAD_REACTORS
330
29
102
}
330
29
100
AcDbVisualStyle
  2
2dWireframe
 70
     4
177
     3
291
     0
 70
    58
 90
        0
176
     1
 90
        2
176
     1
 90
        0
176
     1
 90
        0
176
     1
 40
0.6
176
     1
 40
30.0
176
     1
 62
     7
420
 16777215
176
     1
 90
        1
176
     1
 90
        4
176
     1
 62
     7
176
     1
 62
   257
176
     1
 90
        1
176
     1
 90
        1
176
     1
 40
1.0
176
     1
 90
        0
176
     1
 62
   257
176
     1
 40
1.0
176
     1
 90
        1
176
     1
 90
        6
176
     1
 90
        2
176
     1
 62
     7
176
     1
 90
        5
176
     1
 90
        0
176
     1
 90
        0
176
     1
290
     0
176
     1
 90
        1
176
     1
 40
0.0
176
     1
 90
        0
176
     1
290
     1
176
     1
290
     1
176
     1
290
     0
176
     1
290
     0
176
     1
290
     0
176
     1
290
     0
176
     1
290
     0
176
     1
290
     0
176
     1
290
     0
176
     1
 90
       50
176
     1
 40
0.0
176
     1
 40
1.0
176
     1
 90
        0
176
     1
 62
    18
420
        0
176
     1
 90
       50
176
     1
 90
        3
176
     1
 62
     5
420
      255
176
     1
290
     0
176
     1
 90
       50
176
     1
 90
       50
176
     1
 90
       50
176
     1
290
     0
176
     1
 90
       50
176
     1
 62
   256
176
     0
 40
1.0
176
     0
 90
        2
176
     1
  1
strokes_ogs.tif
176
     1
290
     0
176
     1
 40
1.0
176
     1
 40
1.0
176
     1
  0
VISUALSTYLE
  5
2E
102
{ACAD_REACTORS
330
29
102
}
330
29
100
AcDbVisualStyle
  2
Basic
 70
     7
177
     3
291
     1
 70
    58
 90
        1
176
     1
 90
        0
176
     1
 90
        1
176
     1
 90
        0
176
     1
 40
0.6
176
     1
 40
30.0
176
     1
 62
     7
420
 16777215
176
     1
 90
        0
176
     1
 90
        4
176
     1
 62
     7
176
     1
 62
   257
176
     1
 90
        1
176
     1
 90
        1
176
     1
 40
1.0
176
     1
 90
        8
176
     1
 62
     7
176
     1
 40
1.0
176
     1
 90
        1
176
     1
 90
        6
176
     1
 90
        2
176
     1
 62
     7
176
     1
 90
        5
176
     1
 90
        0
176
     1
 90
        0
176
     1
290
     0
176
     1
 90
        1
176
     1
 40
0.0
176
     1
 90
        0
176
     1
290
     0
176
     1
290
     1
176
     1
290
     1
176
     1
290
     0
176
     1
290
     0
176
     1
290
     0
176
     1
290
     0
176
     1
290
     0
176
     1
290
     0
176
     1
 90
       50
176
     1
 40
0.0
176
     1
 40
1.0
176
     1
 90
        0
176
     1
 62
    18
420
        0
176
     1
 90
       50
176
     1
 90
        3
176
     1
 62
     5
420
      255
176
     1
290
     0
176
     1
 90
       50
176
     1
 90
       50
176
     1
 90
       50
176
     1
290
     0
176
     1
 90
       50
176
     1
 62
   256
176
     0
 40
1.0
176
     0
 90
        2
176
     1
  1
strokes_ogs.tif
176
     1
290
     0
176
     1
 40
1.0
176
     1
 40
1.0
176
     1
  0
VISUALSTYLE
  5
35
102
{ACAD_REACTORS
330
29
102
}
330
29
100
AcDbVisualStyle
  2
Brighten
 70
    12
177
     3
291
     1
 70
    58
 90
        2
176
     1
 90
        2
176
     1
 90
        0
176
     1
 90
        0
176
     1
 40
0.6
176
     1
 40
30.0
176
     1
 62
     7
420
 16777215
176
     1
 90
        1
176
     1
 90
        4
176
     1
 62
     7
176
     1
 62
   257
176
     1
 90
        1
176
     1
 90
        1
176
     1
 40
1.0
176
     1
 90
        8
176
     1
 62
     7
176
     1
 40
1.0
176
     1
 90
        1
176
     1
 90
        6
176
     1
 90
        2
176
     1
 62
     7
176
     1
 90
        5
176
     1
 90
        0
176
     1
 90
        0
176
     1
290
     0
176
     1
 90
        1
176
     1
 40
50.0
176
     1
 90
        0
176
     1
290
     0
176
     1
290
     1
176
     1
290
     1
176
     1
290
     0
176
     1
290
     0
176
     1
290
     0
176
     1
290
     0
176
     1
290
     0
176
     1
290
     0
176
     1
 90
       50
176
     1
 40
0.0
176
     1
 40
1.0
176
     1
 90
        0
176
     1
 62
    18
420
        0
176
     1
 90
       50
176
     1
 90
        3
176
     1
 62
     5
420
      255
176
     1
290
     0
176
     1
 90
       50
176
     1
 90
       50
176
     1
 90
       50
176
     1
290
     0
176
     1
 90
       50
176
     1
 62
   256
176
     0
 40
1.0
176
     0
 90
        2
176
     1
  1
strokes_ogs.tif
176
     1
290
     0
176
     1
 40
1.0
176
     1
 40
1.0
176
     1
  0
VISUALSTYLE
  5
39
102
{ACAD_REACTORS
330
29
102
}
330
29
100
AcDbVisualStyle
  2
ColorChange
 70
    16
177
     3
291
     1
 70
    58
 90
        2
176
     1
 90
        2
176
     1
 90
        3
176
     1
 90
        0
176
     1
 40
0.6
176
     1
 40
30.0
176
     1
 62
     8
420
  8421504
176
     1
 90
        1
176
     1
 90
        4
176
     1
 62
     7
176
     1
 62
   257
176
     1
 90
        1
176
     1
 90
        1
176
     1
 40
1.0
176
     1
 90
        8
176
     1
 62
     8
420
  8421504
176
     1
 40
1.0
176
     1
 90
        1
176
     1
 90
        6
176
     1
 90
        2
176
     1
 62
     7
176
     1
 90
        5
176
     1
 90
        0
176
     1
 90
        0
176
     1
290
     0
176
     1
 90
        1
176
     1
 40
0.0
176
     1
 90
        0
176
     1
290
     0
176
     1
290
     1
176
     1
290
     1
176
     1
290
     0
176
     1
290
     0
176
     1
290
     0
176
     1
290
     0
176
     1
290
     0
176
     1
290
     0
176
     1
 90
       50
176
     1
 40
0.0
176
     1
 40
1.0
176
     1
 90
        0
176
     1
 62
    18
420
        0
176
     1
 90
       50
176
     1
 90
        3
176
     1
 62
     5
420
      255
176
     1
290
     0
176
     1
 90
       50
176
     1
 90
       50
176
     1
 90
       50
176
     1
290
     0
176
     1
 90
       50
176
     1
 62
   256
176
     0
 40
1.0
176
     0
 90
        2
176
     1
  1
strokes_ogs.tif
176
     1
290
     0
176
     1
 40
1.0
176
     1
 40
1.0
176
     1
  0
VISUALSTYLE
  5
32
102
{ACAD_REACTORS
330
29
102
}
330
29
100
AcDbVisualStyle
  2
Conceptual
 70
     9
177
     3
291
     0
 70
    58
 90
        3
176
     1
 90
        2
176
     1
 90
        0
176
     1
 90
        0
176
     1
 40
0.6
176
     1
 40
30.0
176
     1
 62
     7
420
 16777215
176
     1
 90
        2
176
     1
 90
        2
176
     1
 62
     7
176
     1
 62
   257
176
     1
 90
        1
176
     1
 90
        1
176
     1
 40
179.0
176
     1
 90
        8
176
     1
 62
     7
176
     1
 40
1.0
176
     1
 90
        1
176
     1
 90
        6
176
     1
 90
        2
176
     1
 62
     7
176
     1
 90
        3
176
     1
 90
        0
176
     1
 90
        0
176
     1
290
     0
176
     1
 90
        1
176
     1
 40
0.0
176
     1
 90
        0
176
     1
290
     0
176
     1
290
     1
176
     1
290
     1
176
     1
290
     0
176
     1
290
     0
176
     1
290
     0
176
     1
290
     0
176
     1
290
     0
176
     1
290
     0
176
     1
 90
       50
176
     1
 40
0.0
176
     1
 40
1.0
176
     1
 90
        0
176
     1
 62
    18
420
        0
176
     1
 90
       50
176
     1
 90
        3
176
     1
 62
     5
420
      255
176
     1
290
     0
176
     1
 90
       50
176
     1
 90
       50
176
     1
 90
       50
176
     1
290
     0
176
     1
 90
       50
176
     1
 62
   256
176
     0
 40
1.0
176
     0
 90
        2
176
     1
  1
strokes_ogs.tif
176
     1
290
     0
176
     1
 40
1.0
176
     1
 40
1.0
176
     1
  0
VISUALSTYLE
  5
34
102
{ACAD_REACTORS
330
29
102
}
330
29
100
AcDbVisualStyle
  2
Dim
 70
    11
177
     3
291
     1
 70
    58
 90
        2
176
     1
 90
        2
176
     1
 90
        0
176
     1
 90
        0
176
     1
 40
0.6
176
     1
 40
30.0
176
     1
 62
     7
420
 16777215
176
     1
 90
        1
176
     1
 90
        4
176
     1
 62
     7
176
     1
 62
   257
176
     1
 90
        1
176
     1
 90
        1
176
     1
 40
1.0
176
     1
 90
        8
176
     1
 62
     7
176
     1
 40
1.0
176
     1
 90
        1
176
     1
 90
        6
176
     1
 90
        2
176
     1
 62
     7
176
     1
 90
        5
176
     1
 90
        0
176
     1
 90
        0
176
     1
290
     0
176
     1
 90
        1
176
     1
 40
-50.0
176
     1
 90
        0
176
     1
290
     0
176
     1
290
     1
176
     1
290
     1
176
     1
290
     0
176
     1
290
     0
176
     1
290
     0
176
     1
290
     0
176
     1
290
     0
176
     1
290
     0
176
     1
 90
       50
176
     1
 40
0.0
176
     1
 40
1.0
176
     1
 90
        0
176
     1
 62
    18
420
        0
176
     1
 90
       50
176
     1
 90
        3
176
     1
 62
     5
420
      255
176
     1
290
     0
176
     1
 90
       50
176
     1
 90
       50
176
     1
 90
       50
176
     1
290
     0
176
     1
 90
       50
176
     1
 62
   256
176
     0
 40
1.0
176
     0
 90
        2
176
     1
  1
strokes_ogs.tif
176
     1
290
     0
176
     1
 40
1.0
176
     1
 40
1.0
176
     1
  0
VISUALSTYLE
  5
41
102
{ACAD_REACTORS
330
29
102
}
330
29
100
AcDbVisualStyle
  2
EdgeColorOff
 70
    22
177
     3
291
     1
 70
    58
 90
        2
176
     0
 90
        2
176
     0
 90
        0
176
     0
 90
        0
176
     0
 40
0.6
176
     0
 40
30.0
176
     0
 62
     7
420
 16777215
176
     0
 90
        1
176
     0
 90
        4
176
     0
 62
     7
176
     0
 62
   257
176
     0
 90
        1
176
     0
 90
        1
176
     0
 40
1.0
176
     0
 90
        8
176
     2
 62
     7
176
     0
 40
1.0
176
     0
 90
        1
176
     0
 90
        6
176
     0
 90
        2
176
     0
 62
     7
176
     0
 90
        5
176
     0
 90
        0
176
     0
 90
        0
176
     0
290
     0
176
     0
 90
        1
176
     0
 40
0.0
176
     0
 90
        0
176
     0
290
     0
176
     0
290
     1
176
     0
290
     1
176
     0
290
     0
176
     0
290
     0
176
     0
290
     0
176
     0
290
     0
176
     0
290
     0
176
     0
290
     0
176
     0
 90
       50
176
     0
 40
0.0
176
     0
 40
1.0
176
     0
 90
        0
176
     0
 62
    18
420
        0
176
     0
 90
       50
176
     0
 90
        3
176
     0
 62
     5
420
      255
176
     0
290
     0
176
     0
 90
       50
176
     0
 90
       50
176
     0
 90
       50
176
     0
290
     0
176
     0
 90
       50
176
     0
 62
   256
176
     0
 40
1.0
176
     0
 90
        2
176
     0
  1
strokes_ogs.tif
176
     0
290
     0
176
     0
 40
1.0
176
     0
 40
1.0
176
     0
  0
VISUALSTYLE
  5
38
102
{ACAD_REACTORS
330
29
102
}
330
29
100
AcDbVisualStyle
  2
Facepattern
 70
    15
177
     3
291
     1
 70
    58
 90
        2
176
     1
 90
        2
176
     1
 90
        0
176
     1
 90
        0
176
     1
 40
0.6
176
     1
 40
30.0
176
     1
 62
     7
420
 16777215
176
     1
 90
        1
176
     1
 90
        4
176
     1
 62
     7
176
     1
 62
   257
176
     1
 90
        1
176
     1
 90
        1
176
     1
 40
1.0
176
     1
 90
        8
176
     1
 62
     7
176
     1
 40
1.0
176
     1
 90
        1
176
     1
 90
        6
176
     1
 90
        2
176
     1
 62
     7
176
     1
 90
        5
176
     1
 90
        0
176
     1
 90
        0
176
     1
290
     0
176
     1
 90
        1
176
     1
 40
0.0
176
     1
 90
        0
176
     1
290
     0
176
     1
290
     1
176
     1
290
     1
176
     1
290
     0
176
     1
290
     0
176
     1
290
     0
176
     1
290
     0
176
     1
290
     0
176
     1
290
     0
176
     1
 90
       50
176
     1
 40
0.0
176
     1
 40
1.0
176
     1
 90
        0
176
     1
 62
    18
420
        0
176
     1
 90
       50
176
     1
 90
        3
176
     1
 62
     5
420
      255
176
     1
290
     0
176
     1
 90
       50
176
     1
 90
       50
176
     1
 90
       50
176
     1
290
     0
176
     1
 90
       50
176
     1
 62
   256
176
     0
 40
1.0
176
     0
 90
        2
176
     1
  1
strokes_ogs.tif
176
     1
290
     0
176
     1
 40
1.0
176
     1
 40
1.0
176
     1
  0
VISUALSTYLE
  5
2A
102
{ACAD_REACTORS
330
29
102
}
330
29
100
AcDbVisualStyle
  2
Flat
 70
     0
177
     3
291
     1
 70
    58
 90
        2
176
     1
 90
        1
176
     1
 90
        1
176
     1
 90
        2
176
     1
 40
0.6
176
     1
 40
30.0
176
     1
 62
     7
420
 16777215
176
     1
 90
        0
176
     1
 90
        0
176
     1
 62
     7
176
     1
 62
   257
176
     1
 90
        1
176
     1
 90
        1
176
     1
 40
1.0
176
     1
 90
        8
176
     1
 62
     7
176
     1
 40
1.0
176
     1
 90
        1
176
     1
 90
        6
176
     1
 90
        2
176
     1
 62
     7
176
     1
 90
        5
176
     1
 90
        0
176
     1
 90
        0
176
     1
290
     0
176
     1
 90
       13
176
     1
 40
0.0
176
     1
 90
        0
176
     1
290
     0
176
     1
290
     1
176
     1
290
     1
176
     1
290
     0
176
     1
290
     0
176
     1
290
     0
176
     1
290
     0
176
     1
290
     0
176
     1
290
     0
176
     1
 90
       50
176
     1
 40
0.0
176
     1
 40
1.0
176
     1
 90
        0
176
     1
 62
    18
420
        0
176
     1
 90
       50
176
     1
 90
        3
176
     1
 62
     5
420
      255
176
     1
290
     0
176
     1
 90
       50
176
     1
 90
       50
176
     1
 90
       50
176
     1
290
     0
176
     1
 90
       50
176
     1
 62
   256
176
     0
 40
1.0
176
     0
 90
        2
176
     1
  1
strokes_ogs.tif
176
     1
290
     0
176
     1
 40
1.0
176
     1
 40
1.0
176
     1
  0
VISUALSTYLE
  5
2B
102
{ACAD_REACTORS
330
29
102
}
330
29
100
AcDbVisualStyle
  2
FlatWithEdges
 70
     1
177
     3
291
     1
 70
    58
 90
        2
176
     1
 90
        1
176
     1
 90
        1
176
     1
 90
        2
176
     1
 40
0.6
176
     1
 40
30.0
176
     1
 62
     7
420
 16777215
176
     1
 90
        1
176
     1
 90
        0
176
     1
 62
     7
176
     1
 62
   257
176
     1
 90
        1
176
     1
 90
        1
176
     1
 40
1.0
176
     1
 90
        0
176
     1
 62
   257
176
     1
 40
1.0
176
     1
 90
        1
176
     1
 90
        6
176
     1
 90
        2
176
     1
 62
     7
176
     1
 90
        5
176
     1
 90
        0
176
     1
 90
        0
176
     1
290
     0
176
     1
 90
       13
176
     1
 40
0.0
176
     1
 90
        0
176
     1
290
     0
176
     1
290
     1
176
     1
290
     1
176
     1
290
     0
176
     1
290
     0
176
     1
290
     0
176
     1
290
     0
176
     1
290
     0
176
     1
290
     0
176
     1
 90
       50
176
     1
 40
0.0
176
     1
 40
1.0
176
     1
 90
        0
176
     1
 62
    18
420
        0
176
     1
 90
       50
176
     1
 90
        3
176
     1
 62
     5
420
      255
176
     1
290
     0
176
     1
 90
       50
176
     1
 90
       50
176
     1
 90
       50
176
     1
290
     0
176
     1
 90
       50
176
     1
 62
   256
176
     0
 40
1.0
176
     0
 90
        2
176
     1
  1
strokes_ogs.tif
176
     1
290
     0
176
     1
 40
1.0
176
     1
 40
1.0
176
     1
  0
VISUALSTYLE
  5
2C
102
{ACAD_REACTORS
330
29
102
}
330
29
100
AcDbVisualStyle
  2
Gouraud
 70
     2
177
     3
291
     1
 70
    58
 90
        2
176
     1
 90
        2
176
     1
 90
        1
176
     1
 90
        2
176
     1
 40
0.6
176
     1
 40
30.0
176
     1
 62
     7
420
 16777215
176
     1
 90
        0
176
     1
 90
        0
176
     1
 62
     7
176
     1
 62
   257
176
     1
 90
        1
176
     1
 90
        1
176
     1
 40
1.0
176
     1
 90
        0
176
     1
 62
     7
176
     1
 40
1.0
176
     1
 90
        1
176
     1
 90
        6
176
     1
 90
        2
176
     1
 62
     7
176
     1
 90
        5
176
     1
 90
        0
176
     1
 90
        0
176
     1
290
     0
176
     1
 90
       13
176
     1
 40
0.0
176
     1
 90
        0
176
     1
290
     0
176
     1
290
     1
176
     1
290
     1
176
     1
290
     0
176
     1
290
     0
176
     1
290
     0
176
     1
290
     0
176
     1
290
     0
176
     1
290
     0
176
     1
 90
       50
176
     1
 40
0.0
176
     1
 40
1.0
176
     1
 90
        0
176
     1
 62
    18
420
        0
176
     1
 90
       50
176
     1
 90
        3
176
     1
 62
     5
420
      255
176
     1
290
     0
176
     1
 90
       50
176
     1
 90
       50
176
     1
 90
       50
176
     1
290
     0
176
     1
 90
       50
176
     1
 62
   256
176
     0
 40
1.0
176
     0
 90
        2
176
     1
  1
strokes_ogs.tif
176
     1
290
     0
176
     1
 40
1.0
176
     1
 40
1.0
176
     1
  0
VISUALSTYLE
  5
2D
102
{ACAD_REACTORS
330
29
102
}
330
29
100
AcDbVisualStyle
  2
GouraudWithEdges
 70
     3
177
     3
291
     1
 70
    58
 90
        2
176
     1
 90
        2
176
     1
 90
        1
176
     1
 90
        2
176
     1
 40
0.6
176
     1
 40
30.0
176
     1
 62
     7
420
 16777215
176
     1
 90
        1
176
     1
 90
        0
176
     1
 62
     7
176
     1
 62
   257
176
     1
 90
        1
176
     1
 90
        1
176
     1
 40
1.0
176
     1
 90
        0
176
     1
 62
   257
176
     1
 40
1.0
176
     1
 90
        1
176
     1
 90
        6
176
     1
 90
        2
176
     1
 62
     7
176
     1
 90
        5
176
     1
 90
        0
176
     1
 90
        0
176
     1
290
     0
176
     1
 90
       13
176
     1
 40
0.0
176
     1
 90
        0
176
     1
290
     0
176
     1
290
     1
176
     1
290
     1
176
     1
290
     0
176
     1
290
     0
176
     1
290
     0
176
     1
290
     0
176
     1
290
     0
176
     1
290
     0
176
     1
 90
       50
176
     1
 40
0.0
176
     1
 40
1.0
176
     1
 90
        0
176
     1
 62
    18
420
        0
176
     1
 90
       50
176
     1
 90
        3
176
     1
 62
     5
420
      255
176
     1
290
     0
176
     1
 90
       50
176
     1
 90
       50
176
     1
 90
       50
176
     1
290
     0
176
     1
 90
       50
176
     1
 62
   256
176
     0
 40
1.0
176
     0
 90
        2
176
     1
  1
strokes_ogs.tif
176
     1
290
     0
176
     1
 40
1.0
176
     1
 40
1.0
176
     1
  0
VISUALSTYLE
  5
31
102
{ACAD_REACTORS
330
29
102
}
330
29
100
AcDbVisualStyle
  2
Hidden
 70
     6
177
     3
291
     0
 70
    58
 90
        1
176
     1
 90
        2
176
     1
 90
        2
176
     1
 90
        0
176
     1
 40
0.6
176
     1
 40
30.0
176
     1
 62
     7
420
 16777215
176
     1
 90
        2
176
     1
 90
        2
176
     1
 62
     7
176
     1
 62
   257
176
     1
 90
        2
176
     1
 90
        1
176
     1
 40
40.0
176
     1
 90
        0
176
     1
 62
   257
176
     1
 40
1.0
176
     1
 90
        1
176
     1
 90
        6
176
     1
 90
        2
176
     1
 62
     7
176
     1
 90
        3
176
     1
 90
        0
176
     1
 90
        0
176
     1
290
     0
176
     1
 90
        1
176
     1
 40
0.0
176
     1
 90
        0
176
     1
290
     0
176
     1
290
     1
176
     1
290
     1
176
     1
290
     0
176
     1
290
     0
176
     1
290
     0
176
     1
290
     0
176
     1
290
     0
176
     1
290
     0
176
     1
 90
       50
176
     1
 40
0.0
176
     1
 40
1.0
176
     1
 90
        0
176
     1
 62
    18
420
        0
176
     1
 90
       50
176
     1
 90
        3
176
     1
 62
     5
420
      255
176
     1
290
     0
176
     1
 90
       50
176
     1
 90
       50
176
     1
 90
       50
176
     1
290
     0
176
     1
 90
       50
176
     1
 62
   256
176
     0
 40
1.0
176
     0
 90
        2
176
     1
  1
strokes_ogs.tif
176
     1
290
     0
176
     1
 40
1.0
176
     1
 40
1.0
176
     1
  0
VISUALSTYLE
  5
3F
102
{ACAD_REACTORS
330
29
102
}
330
29
100
AcDbVisualStyle
  2
JitterOff
 70
    20
177
     3
291
     1
 70
    58
 90
        2
176
     0
 90
        2
176
     0
 90
        0
176
     0
 90
        0
176
     0
 40
0.6
176
     0
 40
30.0
176
     0
 62
     7
420
 16777215
176
     0
 90
        1
176
     0
 90
        4
176
     0
 62
     7
176
     0
 62
   257
176
     0
 90
        1
176
     0
 90
        1
176
     0
 40
1.0
176
     0
 90
       10
176
     2
 62
     7
176
     0
 40
1.0
176
     0
 90
        1
176
     0
 90
        6
176
     0
 90
        2
176
     0
 62
     7
176
     0
 90
        5
176
     0
 90
        0
176
     0
 90
        0
176
     0
290
     0
176
     0
 90
        1
176
     0
 40
0.0
176
     0
 90
        0
176
     0
290
     0
176
     0
290
     1
176
     0
290
     1
176
     0
290
     0
176
     0
290
     0
176
     0
290
     0
176
     0
290
     0
176
     0
290
     0
176
     0
290
     0
176
     0
 90
       50
176
     0
 40
0.0
176
     0
 40
1.0
176
     0
 90
        0
176
     0
 62
    18
420
        0
176
     0
 90
       50
176
     0
 90
        3
176
     0
 62
     5
420
      255
176
     0
290
     0
176
     0
 90
       50
176
     0
 90
       50
176
     0
 90
       50
176
     0
290
     0
176
     0
 90
       50
176
     0
 62
   256
176
     0
 40
1.0
176
     0
 90
        2
176
     0
  1
strokes_ogs.tif
176
     0
290
     0
176
     0
 40
1.0
176
     0
 40
1.0
176
     0
  0
VISUALSTYLE
  5
37
102
{ACAD_REACTORS
330
29
102
}
330
29
100
AcDbVisualStyle
  2
Linepattern
 70
    14
177
     3
291
     1
 70
    58
 90
        2
176
     1
 90
        2
176
     1
 90
        0
176
     1
 90
        0
176
     1
 40
0.6
176
     1
 40
30.0
176
     1
 62
     7
420
 16777215
176
     1
 90
        1
176
     1
 90
        4
176
     1
 62
     7
176
     1
 62
   257
176
     1
 90
        7
176
     1
 90
        7
176
     1
 40
1.0
176
     1
 90
        8
176
     1
 62
     7
176
     1
 40
1.0
176
     1
 90
        1
176
     1
 90
        6
176
     1
 90
        2
176
     1
 62
     7
176
     1
 90
        5
176
     1
 90
        0
176
     1
 90
        0
176
     1
290
     0
176
     1
 90
        1
176
     1
 40
0.0
176
     1
 90
        0
176
     1
290
     0
176
     1
290
     1
176
     1
290
     1
176
     1
290
     0
176
     1
290
     0
176
     1
290
     0
176
     1
290
     0
176
     1
290
     0
176
     1
290
     0
176
     1
 90
       50
176
     1
 40
0.0
176
     1
 40
1.0
176
     1
 90
        0
176
     1
 62
    18
420
        0
176
     1
 90
       50
176
     1
 90
        3
176
     1
 62
     5
420
      255
176
     1
290
     0
176
     1
 90
       50
176
     1
 90
       50
176
     1
 90
       50
176
     1
290
     0
176
     1
 90
       50
176
     1
 62
   256
176
     0
 40
1.0
176
     0
 90
        2
176
     1
  1
strokes_ogs.tif
176
     1
290
     0
176
     1
 40
1.0
176
     1
 40
1.0
176
     1
  0
VISUALSTYLE
  5
40
102
{ACAD_REACTORS
330
29
102
}
330
29
100
AcDbVisualStyle
  2
OverhangOff
 70
    21
177
     3
291
     1
 70
    58
 90
        2
176
     0
 90
        2
176
     0
 90
        0
176
     0
 90
        0
176
     0
 40
0.6
176
     0
 40
30.0
176
     0
 62
     7
420
 16777215
176
     0
 90
        1
176
     0
 90
        4
176
     0
 62
     7
176
     0
 62
   257
176
     0
 90
        1
176
     0
 90
        1
176
     0
 40
1.0
176
     0
 90
        9
176
     2
 62
     7
176
     0
 40
1.0
176
     0
 90
        1
176
     0
 90
        6
176
     0
 90
        2
176
     0
 62
     7
176
     0
 90
        5
176
     0
 90
        0
176
     0
 90
        0
176
     0
290
     0
176
     0
 90
        1
176
     0
 40
0.0
176
     0
 90
        0
176
     0
290
     0
176
     0
290
     1
176
     0
290
     1
176
     0
290
     0
176
     0
290
     0
176
     0
290
     0
176
     0
290
     0
176
     0
290
     0
176
     0
290
     0
176
     0
 90
       50
176
     0
 40
0.0
176
     0
 40
1.0
176
     0
 90
        0
176
     0
 62
    18
420
        0
176
     0
 90
       50
176
     0
 90
        3
176
     0
 62
     5
420
      255
176
     0
290
     0
176
     0
 90
       50
176
     0
 90
       50
176
     0
 90
       50
176
     0
290
     0
176
     0
 90
       50
176
     0
 62
   256
176
     0
 40
1.0
176
     0
 90
        2
176
     0
  1
strokes_ogs.tif
176
     0
290
     0
176
     0
 40
1.0
176
     0
 40
1.0
176
     0
  0
VISUALSTYLE
  5
33
102
{ACAD_REACTORS
330
29
102
}
330
29
100
AcDbVisualStyle
  2
Realistic
 70
     8
177
     3
291
     0
 70
    58
 90
        2
176
     1
 90
        3
176
     1
 90
        0
176
     1
 90
        2
176
     1
 40
0.6
176
     1
 40
30.0
176
     1
 62
     7
420
 16777215
176
     1
 90
        0
176
     1
 90
        0
176
     1
 62
     7
176
     1
 62
   257
176
     1
 90
        1
176
     1
 90
        1
176
     1
 40
1.0
176
     1
 90
        8
176
     1
 62
   257
176
     1
 40
1.0
176
     1
 90
        1
176
     1
 90
        6
176
     1
 90
        2
176
     1
 62
     7
176
     1
 90
        3
176
     1
 90
        0
176
     1
 90
        0
176
     1
290
     0
176
     1
 90
       13
176
     1
 40
0.0
176
     1
 90
        0
176
     1
290
     0
176
     1
290
     1
176
     1
290
     1
176
     1
290
     0
176
     1
290
     0
176
     1
290
     0
176
     1
290
     0
176
     1
290
     0
176
     1
290
     0
176
     1
 90
       50
176
     1
 40
0.0
176
     1
 40
1.0
176
     1
 90
        0
176
     1
 62
    18
420
        0
176
     1
 90
       50
176
     1
 90
        3
176
     1
 62
     5
420
      255
176
     1
290
     0
176
     1
 90
       50
176
     1
 90
       50
176
     1
 90
       50
176
     1
290
     0
176
     1
 90
       50
176
     1
 62
   256
176
     0
 40
1.0
176
     0
 90
        2
176
     1
  1
strokes_ogs.tif
176
     1
290
     0
176
     1
 40
1.0
176
     1
 40
1.0
176
     1
  0
VISUALSTYLE
  5
3E
102
{ACAD_REACTORS
330
29
102
}
330
29
100
AcDbVisualStyle
  2
Shaded
 70
    27
177
     3
291
     0
 70
    58
 90
        2
176
     1
 90
        2
176
     1
 90
        1
176
     1
 90
        2
176
     1
 40
0.6
176
     1
 40
30.0
176
     1
 62
     7
420
 16777215
176
     1
 90
        0
176
     1
 90
        4
176
     1
 62
     7
176
     1
 62
   257
176
     1
 90
        1
176
     1
 90
        1
176
     1
 40
1.0
176
     1
 90
        8
176
     1
 62
   257
176
     1
 40
1.0
176
     1
 90
        1
176
     1
 90
        6
176
     1
 90
        2
176
     1
 62
     8
420
  7895160
176
     1
 90
        3
176
     1
 90
        0
176
     1
 90
        0
176
     1
290
     0
176
     1
 90
        5
176
     1
 40
0.0
176
     1
 90
        0
176
     1
290
     0
176
     1
290
     1
176
     1
290
     1
176
     1
290
     0
176
     1
290
     0
176
     1
290
     0
176
     1
290
     0
176
     1
290
     0
176
     1
290
     0
176
     1
 90
       50
176
     1
 40
0.0
176
     1
 40
1.0
176
     1
 90
        0
176
     1
 62
    18
420
        0
176
     1
 90
       50
176
     1
 90
        3
176
     1
 62
     5
420
      255
176
     1
290
     0
176
     1
 90
       50
176
     1
 90
       50
176
     1
 90
       50
176
     1
290
     0
176
     1
 90
       50
176
     1
 62
   256
176
     0
 40
1.0
176
     0
 90
        2
176
     1
  1
strokes_ogs.tif
176
     1
290
     0
176
     1
 40
1.0
176
     1
 40
1.0
176
     1
  0
VISUALSTYLE
  5
3D
102
{ACAD_REACTORS
330
29
102
}
330
29
100
AcDbVisualStyle
  2
Shaded with edges
 70
    26
177
     3
291
     0
 70
    58
 90
        2
176
     1
 90
        2
176
     1
 90
        1
176
     1
 90
        2
176
     1
 40
0.6
176
     1
 40
30.0
176
     1
 62
     7
420
 16777215
176
     1
 90
        1
176
     1
 90
        2
176
     1
 62
     7
176
     1
 62
   257
176
     1
 90
        2
176
     1
 90
        1
176
     1
 40
1.0
176
     1
 90
        8
176
     1
 62
   257
176
     1
 40
1.0
176
     1
 90
        1
176
     1
 90
        6
176
     1
 90
        2
176
     1
 62
     7
176
     1
 90
        3
176
     1
 90
        0
176
     1
 90
        0
176
     1
290
     0
176
     1
 90
        5
176
     1
 40
0.0
176
     1
 90
        0
176
     1
290
     0
176
     1
290
     1
176
     1
290
     1
176
     1
290
     0
176
     1
290
     0
176
     1
290
     0
176
     1
290
     0
176
     1
290
     0
176
     1
290
     0
176
     1
 90
       50
176
     1
 40
0.0
176
     1
 40
1.0
176
     1
 90
        0
176
     1
 62
    18
420
        0
176
     1
 90
       50
176
     1
 90
        3
176
     1
 62
     5
420
      255
176
     1
290
     0
176
     1
 90
       50
176
     1
 90
       50
176
     1
 90
       50
176
     1
290
     0
176
     1
 90
       50
176
     1
 62
   256
176
     0
 40
1.0
176
     0
 90
        2
176
     1
  1
strokes_ogs.tif
176
     1
290
     0
176
     1
 40
1.0
176
     1
 40
1.0
176
     1
  0
VISUALSTYLE
  5
3A
102
{ACAD_REACTORS
330
29
102
}
330
29
100
AcDbVisualStyle
  2
Shades of Gray
 70
    23
177
     3
291
     0
 70
    58
 90
        2
176
     1
 90
        2
176
     1
 90
        3
176
     1
 90
        0
176
     1
 40
0.6
176
     1
 40
30.0
176
     1
 62
     7
420
 16777215
176
     1
 90
        2
176
     1
 90
        2
176
     1
 62
     7
176
     1
 62
     7
176
     1
 90
        1
176
     1
 90
        1
176
     1
 40
40.0
176
     1
 90
        8
176
     1
 62
     7
176
     1
 40
1.0
176
     1
 90
        1
176
     1
 90
        6
176
     1
 90
        2
176
     1
 62
     7
176
     1
 90
        3
176
     1
 90
        0
176
     1
 90
        0
176
     1
290
     0
176
     1
 90
        1
176
     1
 40
0.0
176
     1
 90
        0
176
     1
290
     0
176
     1
290
     1
176
     1
290
     1
176
     1
290
     0
176
     1
290
     0
176
     1
290
     0
176
     1
290
     0
176
     1
290
     0
176
     1
290
     0
176
     1
 90
       50
176
     1
 40
0.0
176
     1
 40
1.0
176
     1
 90
        0
176
     1
 62
    18
420
        0
176
     1
 90
       50
176
     1
 90
        3
176
     1
 62
     5
420
      255
176
     1
290
     0
176
     1
 90
       50
176
     1
 90
       50
176
     1
 90
       50
176
     1
290
     0
176
     1
 90
       50
176
     1
 62
   256
176
     0
 40
1.0
176
     0
 90
        2
176
     1
  1
strokes_ogs.tif
176
     1
290
     0
176
     1
 40
1.0
176
     1
 40
1.0
176
     1
  0
VISUALSTYLE
  5
3B
102
{ACAD_REACTORS
330
29
102
}
330
29
100
AcDbVisualStyle
  2
Sketchy
 70
    24
177
     3
291
     0
 70
    58
 90
        1
176
     1
 90
        2
176
     1
 90
        2
176
     1
 90
        0
176
     1
 40
0.6
176
     1
 40
30.0
176
     1
 62
     7
420
 16777215
176
     1
 90
        2
176
     1
 90
        2
176
     1
 62
     7
176
     1
 62
     7
176
     1
 90
        1
176
     1
 90
        1
176
     1
 40
40.0
176
     1
 90
       11
176
     1
 62
     7
176
     1
 40
1.0
176
     1
 90
        1
176
     1
 90
        6
176
     1
 90
        2
176
     1
 62
     7
176
     1
 90
        6
176
     1
 90
        0
176
     1
 90
        0
176
     1
290
     0
176
     1
 90
        1
176
     1
 40
0.0
176
     1
 90
        0
176
     1
290
     0
176
     1
290
     1
176
     1
290
     1
176
     1
290
     0
176
     1
290
     0
176
     1
290
     0
176
     1
290
     0
176
     1
290
     0
176
     1
290
     0
176
     1
 90
       50
176
     1
 40
0.0
176
     1
 40
1.0
176
     1
 90
        0
176
     1
 62
    18
420
        0
176
     1
 90
       50
176
     1
 90
        3
176
     1
 62
     5
420
      255
176
     1
290
     0
176
     1
 90
       50
176
     1
 90
       50
176
     1
 90
       50
176
     1
290
     0
176
     1
 90
       50
176
     1
 62
   256
176
     0
 40
1.0
176
     0
 90
        2
176
     1
  1
strokes_ogs.tif
176
     1
290
     0
176
     1
 40
1.0
176
     1
 40
1.0
176
     1
  0
VISUALSTYLE
  5
36
102
{ACAD_REACTORS
330
29
102
}
330
29
100
AcDbVisualStyle
  2
Thicken
 70
    13
177
     3
291
     1
 70
    58
 90
        2
176
     1
 90
        2
176
     1
 90
        0
176
     1
 90
        0
176
     1
 40
0.6
176
     1
 40
30.0
176
     1
 62
     7
420
 16777215
176
     1
 90
        1
176
     1
 90
        4
176
     1
 62
     7
176
     1
 62
   257
176
     1
 90
        1
176
     1
 90
        1
176
     1
 40
1.0
176
     1
 90
       12
176
     1
 62
     7
176
     1
 40
1.0
176
     1
 90
        1
176
     1
 90
        6
176
     1
 90
        2
176
     1
 62
     7
176
     1
 90
        5
176
     1
 90
        0
176
     1
 90
        0
176
     1
290
     0
176
     1
 90
        1
176
     1
 40
0.0
176
     1
 90
        0
176
     1
290
     0
176
     1
290
     1
176
     1
290
     1
176
     1
290
     0
176
     1
290
     0
176
     1
290
     0
176
     1
290
     0
176
     1
290
     0
176
     1
290
     0
176
     1
 90
       50
176
     1
 40
0.0
176
     1
 40
1.0
176
     1
 90
        0
176
     1
 62
    18
420
        0
176
     1
 90
       50
176
     1
 90
        3
176
     1
 62
     5
420
      255
176
     1
290
     0
176
     1
 90
       50
176
     1
 90
       50
176
     1
 90
       50
176
     1
290
     0
176
     1
 90
       50
176
     1
 62
   256
176
     0
 40
1.0
176
     0
 90
        2
176
     1
  1
strokes_ogs.tif
176
     1
290
     0
176
     1
 40
1.0
176
     1
 40
1.0
176
     1
  0
VISUALSTYLE
  5
30
102
{ACAD_REACTORS
330
29
102
}
330
29
100
AcDbVisualStyle
  2
Wireframe
 70
     5
177
     3
291
     0
 70
    58
 90
        0
176
     1
 90
        2
176
     1
 90
        0
176
     1
 90
        0
176
     1
 40
0.6
176
     1
 40
30.0
176
     1
 62
     7
420
 16777215
176
     1
 90
        1
176
     1
 90
        4
176
     1
 62
     7
176
     1
 62
   257
176
     1
 90
        1
176
     1
 90
        1
176
     1
 40
1.0
176
     1
 90
        0
176
     1
 62
   257
176
     1
 40
1.0
176
     1
 90
        1
176
     1
 90
        6
176
     1
 90
        2
176
     1
 62
     7
176
     1
 90
        3
176
     1
 90
        0
176
     1
 90
        0
176
     1
290
     0
176
     1
 90
        1
176
     1
 40
0.0
176
     1
 90
        0
176
     1
290
     0
176
     1
290
     1
176
     1
290
     1
176
     1
290
     0
176
     1
290
     0
176
     1
290
     0
176
     1
290
     0
176
     1
290
     0
176
     1
290
     0
176
     1
 90
       50
176
     1
 40
0.0
176
     1
 40
1.0
176
     1
 90
        0
176
     1
 62
    18
420
        0
176
     1
 90
       50
176
     1
 90
        3
176
     1
 62
     5
420
      255
176
     1
290
     0
176
     1
 90
       50
176
     1
 90
       50
176
     1
 90
       50
176
     1
290
     0
176
     1
 90
       50
176
     1
 62
   256
176
     0
 40
1.0
176
     0
 90
        2
176
     1
  1
strokes_ogs.tif
176
     1
290
     0
176
     1
 40
1.0
176
     1
 40
1.0
176
     1
  0
VISUALSTYLE
  5
3C
102
{ACAD_REACTORS
330
29
102
}
330
29
100
AcDbVisualStyle
  2
X-Ray
 70
    25
177
     3
291
     0
 70
    58
 90
        2
176
     1
 90
        2
176
     1
 90
        1
176
     1
 90
        1
176
     1
 40
0.5
176
     1
 40
30.0
176
     1
 62
     7
420
 16777215
176
     1
 90
        1
176
     1
 90
        0
176
     1
 62
     7
176
     1
 62
   257
176
     1
 90
        1
176
     1
 90
        1
176
     1
 40
1.0
176
     1
 90
        8
176
     1
 62
     7
176
     1
 40
1.0
176
     1
 90
        1
176
     1
 90
        6
176
     1
 90
        2
176
     1
 62
     7
176
     1
 90
        3
176
     1
 90
        0
176
     1
 90
        0
176
     1
290
     0
176
     1
 90
       13
176
     1
 40
0.0
176
     1
 90
        0
176
     1
290
     0
176
     1
290
     1
176
     1
290
     1
176
     1
290
     0
176
     1
290
     0
176
     1
290
     0
176
     1
290
     0
176
     1
290
     0
176
     1
290
     0
176
     1
 90
       50
176
     1
 40
0.0
176
     1
 40
1.0
176
     1
 90
        0
176
     1
 62
    18
420
        0
176
     1
 90
       50
176
     1
 90
        3
176
     1
 62
     5
420
      255
176
     1
290
     0
176
     1
 90
       50
176
     1
 90
       50
176
     1
 90
       50
176
     1
290
     0
176
     1
 90
       50
176
     1
 62
   256
176
     0
 40
1.0
176
     0
 90
        2
176
     1
  1
strokes_ogs.tif
176
     1
290
     0
176
     1
 40
1.0
176
     1
 40
1.0
176
     1
  0
DICTIONARYVAR
  5
1A9
102
{ACAD_REACTORS
330
1A4
102
}
330
1A4
100
DictionaryVariables
280
     0
  1
1:1
  0
DICTIONARYVAR
  5
1A6
102
{ACAD_REACTORS
330
1A4
102
}
330
1A4
100
DictionaryVariables
280
     0
  1
STANDARD
  0
DICTIONARYVAR
  5
1A5
102
{ACAD_REACTORS
330
1A4
102
}
330
1A4
100
DictionaryVariables
280
     0
  1
STANDARD
  0
DICTIONARYVAR
  5
1A7
102
{ACAD_REACTORS
330
1A4
102
}
330
1A4
100
DictionaryVariables
280
     0
  1
Imperial24
  0
DICTIONARYVAR
  5
1A8
102
{ACAD_REACTORS
330
1A4
102
}
330
1A4
100
DictionaryVariables
280
     0
  1
Imperial24
  0
DICTIONARY
  5
1A
330
19
100
AcDbDictionary
280
     1
281
     1
  3
BUMPTILE
360
1C
  3
DIFFUSETILE
360
1B
  3
OPACITYTILE
360
1F
  3
REFLECTIONTILE
360
1E
  3
REFRACTIONTILE
360
20
  3
SPECULARTILE
360
1D
  0
DICTIONARY
  5
12
330
11
100
AcDbDictionary
280
     1
281
     1
  3
BUMPTILE
360
14
  3
DIFFUSETILE
360
13
  3
OPACITYTILE
360
17
  3
REFLECTIONTILE
360
16
  3
REFRACTIONTILE
360
18
  3
SPECULARTILE
360
15
  0
DICTIONARY
  5
22
330
21
100
AcDbDictionary
280
     1
281
     1
  3
BUMPTILE
360
24
  3
DIFFUSETILE
360
23
  3
OPACITYTILE
360
27
  3
REFLECTIONTILE
360
26
  3
REFRACTIONTILE
360
28
  3
SPECULARTILE
360
25
  0
DICTIONARY
  5
1AA
330
65
100
AcDbDictionary
280
     1
281
     1
  3
ACAD_ROUNDTRIP_2008_TABLESTYLE_CELLSTYLEMAP
360
1AB
  0
XRECORD
  5
1C
102
{ACAD_REACTORS
330
1A
102
}
330
1A
100
AcDbXrecord
280
     1
270
     1
271
     1
  0
XRECORD
  5
1B
102
{ACAD_REACTORS
330
1A
102
}
330
1A
100
AcDbXrecord
280
     1
270
     1
271
     1
  0
XRECORD
  5
1F
102
{ACAD_REACTORS
330
1A
102
}
330
1A
100
AcDbXrecord
280
     1
270
     1
271
     1
  0
XRECORD
  5
1E
102
{ACAD_REACTORS
330
1A
102
}
330
1A
100
AcDbXrecord
280
     1
270
     1
271
     1
  0
XRECORD
  5
20
102
{ACAD_REACTORS
330
1A
102
}
330
1A
100
AcDbXrecord
280
     1
270
     1
271
     1
  0
XRECORD
  5
1D
102
{ACAD_REACTORS
330
1A
102
}
330
1A
100
AcDbXrecord
280
     1
270
     1
271
     1
  0
XRECORD
  5
14
102
{ACAD_REACTORS
330
12
102
}
330
12
100
AcDbXrecord
280
     1
270
     1
271
     1
  0
XRECORD
  5
13
102
{ACAD_REACTORS
330
12
102
}
330
12
100
AcDbXrecord
280
     1
270
     1
271
     1
  0
XRECORD
  5
17
102
{ACAD_REACTORS
330
12
102
}
330
12
100
AcDbXrecord
280
     1
270
     1
271
     1
  0
XRECORD
  5
16
102
{ACAD_REACTORS
330
12
102
}
330
12
100
AcDbXrecord
280
     1
270
     1
271
     1
  0
XRECORD
  5
18
102
{ACAD_REACTORS
330
12
102
}
330
12
100
AcDbXrecord
280
     1
270
     1
271
     1
  0
XRECORD
  5
15
102
{ACAD_REACTORS
330
12
102
}
330
12
100
AcDbXrecord
280
     1
270
     1
271
     1
  0
XRECORD
  5
24
102
{ACAD_REACTORS
330
22
102
}
330
22
100
AcDbXrecord
280
     1
270
     1
271
     1
  0
XRECORD
  5
23
102
{ACAD_REACTORS
330
22
102
}
330
22
100
AcDbXrecord
280
     1
270
     1
271
     1
  0
XRECORD
  5
27
102
{ACAD_REACTORS
330
22
102
}
330
22
100
AcDbXrecord
280
     1
270
     1
271
     1
  0
XRECORD
  5
26
102
{ACAD_REACTORS
330
22
102
}
330
22
100
AcDbXrecord
280
     1
270
     1
271
     1
  0
XRECORD
  5
28
102
{ACAD_REACTORS
330
22
102
}
330
22
100
AcDbXrecord
280
     1
270
     1
271
     1
  0
XRECORD
  5
25
102
{ACAD_REACTORS
330
22
102
}
330
22
100
AcDbXrecord
280
     1
270
     1
271
     1
  0
CELLSTYLEMAP
  5
1AB
102
{ACAD_REACTORS
330
1AA
102
}
330
1AA
100
AcDbCellStyleMap
 90
        3
300
CELLSTYLE
  1
TABLEFORMAT_BEGIN
 90
        5
170
     1
 91
        0
 92
    32768
 62
   257
 93
        1
300
CONTENTFORMAT
  1
CONTENTFORMAT_BEGIN
 90
        0
 91
        0
 92
      512
 93
        0
300

 40
0.0
140
1.0
 94
        5
 62
     0
340
55
144
0.25
309
CONTENTFORMAT_END
171
     0
 94
        0
309
TABLEFORMAT_END
  1
CELLSTYLE_BEGIN
 90
        1
 91
        1
300
_TITLE
309
CELLSTYLE_END
300
CELLSTYLE
  1
TABLEFORMAT_BEGIN
 90
        5
170
     1
 91
        0
 92
        0
 62
   257
 93
        1
300
CONTENTFORMAT
  1
CONTENTFORMAT_BEGIN
 90
        0
 91
        0
 92
      512
 93
        0
300

 40
0.0
140
1.0
 94
        5
 62
     0
340
55
144
0.18
309
CONTENTFORMAT_END
171
     0
 94
        0
309
TABLEFORMAT_END
  1
CELLSTYLE_BEGIN
 90
        2
 91
        1
300
_HEADER
309
CELLSTYLE_END
300
CELLSTYLE
  1
TABLEFORMAT_BEGIN
 90
        5
170
     1
 91
        0
 92
        0
 62
   257
 93
        1
300
CONTENTFORMAT
  1
CONTENTFORMAT_BEGIN
 90
        0
 91
        0
 92
      512
 93
        0
300

 40
0.0
140
1.0
 94
        2
 62
     0
340
55
144
0.18
309
CONTENTFORMAT_END
171
     0
 94
        0
309
TABLEFORMAT_END
  1
CELLSTYLE_BEGIN
 90
        3
 91
        2
300
_DATA
309
CELLSTYLE_END
  0
ENDSEC
  0
EOF
