  0
SECTION
  2
HEADER
  9
$ACADVER
  1
AC1032
  9
$ACADMAINTVER
 90
      228
  9
$DWGCODEPAGE
  3
ANSI_932
  9
$REQUIREDVERSIONS
160
                 0
  9
$INSBASE
 10
0.0
 20
0.0
 30
0.0
  9
$EXTMIN
 10
1.000000000000000E+20
 20
1.000000000000000E+20
 30
1.000000000000000E+20
  9
$EXTMAX
 10
-1.000000000000000E+20
 20
-1.000000000000000E+20
 30
-1.000000000000000E+20
  9
$LIMMIN
 10
0.0
 20
0.0
  9
$LIMMAX
 10
12.0
 20
9.0
  9
$ORTHOMODE
 70
     0
  9
$REGENMODE
 70
     1
  9
$FILLMODE
 70
     1
  9
$QTEXTMODE
 70
     0
  9
$MIRRTEXT
 70
     0
  9
$LTSCALE
 40
1.0
  9
$ATTMODE
 70
     1
  9
$TEXTSIZE
 40
0.2
  9
$TRACEWID
 40
0.05
  9
$TEXTSTYLE
  7
Standard
  9
$CLAYER
  8
0
  9
$CELTYPE
  6
ByLayer
  9
$CECOLOR
 62
   256
  9
$CELTSCALE
 40
1.0
  9
$DISPSILH
 70
     0
  9
$DIMSCALE
 40
1.0
  9
$DIMASZ
 40
0.18
  9
$DIMEXO
 40
0.0625
  9
$DIMDLI
 40
0.38
  9
$DIMRND
 40
0.0
  9
$DIMDLE
 40
0.0
  9
$DIMEXE
 40
0.18
  9
$DIMTP
 40
0.0
  9
$DIMTM
 40
0.0
  9
$DIMTXT
 40
0.18
  9
$DIMCEN
 40
0.09
  9
$DIMTSZ
 40
0.0
  9
$DIMTOL
 70
     0
  9
$DIMLIM
 70
     0
  9
$DIMTIH
 70
     1
  9
$DIMTOH
 70
     1
  9
$DIMSE1
 70
     0
  9
$DIMSE2
 70
     0
  9
$DIMTAD
 70
     0
  9
$DIMZIN
 70
     0
  9
$DIMBLK
  1

  9
$DIMASO
 70
     1
  9
$DIMSHO
 70
     1
  9
$DIMPOST
  1

  9
$DIMAPOST
  1

  9
$DIMALT
 70
     0
  9
$DIMALTD
 70
     2
  9
$DIMALTF
 40
25.4
  9
$DIMLFAC
 40
1.0
  9
$DIMTOFL
 70
     0
  9
$DIMTVP
 40
0.0
  9
$DIMTIX
 70
     0
  9
$DIMSOXD
 70
     0
  9
$DIMSAH
 70
     0
  9
$DIMBLK1
  1

  9
$DIMBLK2
  1

  9
$DIMSTYLE
  2
Standard
  9
$DIMCLRD
 70
     0
  9
$DIMCLRE
 70
     0
  9
$DIMCLRT
 70
     0
  9
$DIMTFAC
 40
1.0
  9
$DIMGAP
 40
0.09
  9
$DIMJUST
 70
     0
  9
$DIMSD1
 70
     0
  9
$DIMSD2
 70
     0
  9
$DIMTOLJ
 70
     1
  9
$DIMTZIN
 70
     0
  9
$DIMALTZ
 70
     0
  9
$DIMALTTZ
 70
     0
  9
$DIMUPT
 70
     0
  9
$DIMDEC
 70
     4
  9
$DIMTDEC
 70
     4
  9
$DIMALTU
 70
     2
  9
$DIMALTTD
 70
     2
  9
$DIMTXSTY
  7
Standard
  9
$DIMAUNIT
 70
     0
  9
$DIMADEC
 70
     0
  9
$DIMALTRND
 40
0.0
  9
$DIMAZIN
 70
     0
  9
$DIMDSEP
 70
    46
  9
$DIMATFIT
 70
     3
  9
$DIMFRAC
 70
     0
  9
$DIMLDRBLK
  1

  9
$DIMLUNIT
 70
     2
  9
$DIMLWD
 70
    -2
  9
$DIMLWE
 70
    -2
  9
$DIMTMOVE
 70
     0
  9
$DIMFXL
 40
1.0
  9
$DIMFXLON
 70
     0
  9
$DIMJOGANG
 40
0.7853981633974483
  9
$DIMTFILL
 70
     0
  9
$DIMTFILLCLR
 70
     0
  9
$DIMARCSYM
 70
     0
  9
$DIMLTYPE
  6

  9
$DIMLTEX1
  6

  9
$DIMLTEX2
  6

  9
$DIMTXTDIRECTION
 70
     0
  9
$LUNITS
 70
     2
  9
$LUPREC
 70
     4
  9
$SKETCHINC
 40
0.1
  9
$FILLETRAD
 40
0.0
  9
$AUNITS
 70
     0
  9
$AUPREC
 70
     0
  9
$MENU
  1
.
  9
$ELEVATION
 40
0.0
  9
$PELEVATION
 40
0.0
  9
$THICKNESS
 40
0.0
  9
$LIMCHECK
 70
     0
  9
$CHAMFERA
 40
0.0
  9
$CHAMFERB
 40
0.0
  9
$CHAMFERC
 40
0.0
  9
$CHAMFERD
 40
0.0
  9
$SKPOLY
 70
     0
  9
$TDCREATE
 40
2460062.602870370
  9
$TDUCREATE
 40
2460062.227870370
  9
$TDUPDATE
 40
2460062.602870370
  9
$TDUUPDATE
 40
2460062.227870370
  9
$TDINDWG
 40
0.0000000000
  9
$TDUSRTIMER
 40
0.0000000000
  9
$USRTIMER
 70
     1
  9
$ANGBASE
 50
0.0
  9
$ANGDIR
 70
     0
  9
$PDMODE
 70
     0
  9
$PDSIZE
 40
0.0
  9
$PLINEWID
 40
0.0
  9
$SPLFRAME
 70
     0
  9
$SPLINETYPE
 70
     6
  9
$SPLINESEGS
 70
     8
  9
$HANDSEED
  5
174
  9
$SURFTAB1
 70
     6
  9
$SURFTAB2
 70
     6
  9
$SURFTYPE
 70
     6
  9
$SURFU
 70
     6
  9
$SURFV
 70
     6
  9
$UCSBASE
  2

  9
$UCSNAME
  2

  9
$UCSORG
 10
0.0
 20
0.0
 30
0.0
  9
$UCSXDIR
 10
1.0
 20
0.0
 30
0.0
  9
$UCSYDIR
 10
0.0
 20
1.0
 30
0.0
  9
$UCSORTHOREF
  2

  9
$UCSORTHOVIEW
 70
     0
  9
$UCSORGTOP
 10
0.0
 20
0.0
 30
0.0
  9
$UCSORGBOTTOM
 10
0.0
 20
0.0
 30
0.0
  9
$UCSORGLEFT
 10
0.0
 20
0.0
 30
0.0
  9
$UCSORGRIGHT
 10
0.0
 20
0.0
 30
0.0
  9
$UCSORGFRONT
 10
0.0
 20
0.0
 30
0.0
  9
$UCSORGBACK
 10
0.0
 20
0.0
 30
0.0
  9
$PUCSBASE
  2

  9
$PUCSNAME
  2

  9
$PUCSORG
 10
0.0
 20
0.0
 30
0.0
  9
$PUCSXDIR
 10
1.0
 20
0.0
 30
0.0
  9
$PUCSYDIR
 10
0.0
 20
1.0
 30
0.0
  9
$PUCSORTHOREF
  2

  9
$PUCSORTHOVIEW
 70
     0
  9
$PUCSORGTOP
 10
0.0
 20
0.0
 30
0.0
  9
$PUCSORGBOTTOM
 10
0.0
 20
0.0
 30
0.0
  9
$PUCSORGLEFT
 10
0.0
 20
0.0
 30
0.0
  9
$PUCSORGRIGHT
 10
0.0
 20
0.0
 30
0.0
  9
$PUCSORGFRONT
 10
0.0
 20
0.0
 30
0.0
  9
$PUCSORGBACK
 10
0.0
 20
0.0
 30
0.0
  9
$USERI1
 70
     0
  9
$USERI2
 70
     0
  9
$USERI3
 70
     0
  9
$USERI4
 70
     0
  9
$USERI5
 70
     0
  9
$USERR1
 40
0.0
  9
$USERR2
 40
0.0
  9
$USERR3
 40
0.0
  9
$USERR4
 40
0.0
  9
$USERR5
 40
0.0
  9
$WORLDVIEW
 70
     1
  9
$SHADEDGE
 70
     3
  9
$SHADEDIF
 70
    70
  9
$TILEMODE
 70
     1
  9
$MAXACTVP
 70
    64
  9
$PINSBASE
 10
0.0
 20
0.0
 30
0.0
  9
$PLIMCHECK
 70
     0
  9
$PEXTMIN
 10
1.000000000000000E+20
 20
1.000000000000000E+20
 30
1.000000000000000E+20
  9
$PEXTMAX
 10
-1.000000000000000E+20
 20
-1.000000000000000E+20
 30
-1.000000000000000E+20
  9
$PLIMMIN
 10
0.0
 20
0.0
  9
$PLIMMAX
 10
12.0
 20
9.0
  9
$UNITMODE
 70
     0
  9
$VISRETAIN
 70
     1
  9
$PLINEGEN
 70
     0
  9
$PSLTSCALE
 70
     1
  9
$TREEDEPTH
 70
  3020
  9
$CMLSTYLE
  2
Standard
  9
$CMLJUST
 70
     0
  9
$CMLSCALE
 40
1.0
  9
$PROXYGRAPHICS
 70
     1
  9
$MEASUREMENT
 70
     0
  9
$CELWEIGHT
370
    -1
  9
$ENDCAPS
280
     0
  9
$JOINSTYLE
280
     0
  9
$LWDISPLAY
290
     1
  9
$INSUNITS
 70
     4
  9
$HYPERLINKBASE
  1

  9
$STYLESHEET
  1

  9
$XEDIT
290
     1
  9
$CEPSNTYPE
380
     0
  9
$PSTYLEMODE
290
     1
  9
$FINGERPRINTGUID
  2
{A3F36204-0BED-3343-8A03-B65D5A1CD86E}
  9
$VERSIONGUID
  2
{8595C980-C714-5740-B698-513BC4C7A03D}
  9
$EXTNAMES
290
     1
  9
$PSVPSCALE
 40
0.0
  9
$OLESTARTUP
290
     0
  9
$SORTENTS
280
   127
  9
$INDEXCTL
280
     0
  9
$HIDETEXT
280
     1
  9
$XCLIPFRAME
280
     2
  9
$HALOGAP
280
     0
  9
$OBSCOLOR
 70
   257
  9
$OBSLTYPE
280
     0
  9
$INTERSECTIONDISPLAY
280
     0
  9
$INTERSECTIONCOLOR
 70
   257
  9
$DIMASSOC
280
     2
  9
$PROJECTNAME
  1

  9
$CAMERADISPLAY
290
     0
  9
$LENSLENGTH
 40
50.0
  9
$CAMERAHEIGHT
 40
0.0
  9
$STEPSPERSEC
 40
2.0
  9
$STEPSIZE
 40
6.0
  9
$3DDWFPREC
 40
2.0
  9
$PSOLWIDTH
 40
0.25
  9
$PSOLHEIGHT
 40
4.0
  9
$LOFTANG1
 40
1.570796326794896
  9
$LOFTANG2
 40
1.570796326794896
  9
$LOFTMAG1
 40
0.0
  9
$LOFTMAG2
 40
0.0
  9
$LOFTPARAM
 70
     7
  9
$LOFTNORMALS
280
     1
  9
$LATITUDE
 40
37.795
  9
$LONGITUDE
 40
-122.394
  9
$NORTHDIRECTION
 40
0.0
  9
$TIMEZONE
 70
 -8000
  9
$LIGHTGLYPHDISPLAY
280
     1
  9
$TILEMODELIGHTSYNCH
280
     1
  9
$CMATERIAL
347
11
  9
$SOLIDHIST
280
     0
  9
$SHOWHIST
280
     1
  9
$DWFFRAME
280
     2
  9
$DGNFRAME
280
     0
  9
$REALWORLDSCALE
290
     1
  9
$INTERFERECOLOR
 62
     1
  9
$INTERFEREOBJVS
345
33
  9
$INTERFEREVPVS
346
30
  9
$CSHADOW
280
     0
  9
$SHADOWPLANELOCATION
 40
0.0
  0
ENDSEC
  0
SECTION
  2
CLASSES
  0
CLASS
  1
ACDBDICTIONARYWDFLT
  2
AcDbDictionaryWithDefault
  3
ObjectDBX Classes
 90
        0
 91
        1
280
     0
281
     0
  0
CLASS
  1
MATERIAL
  2
AcDbMaterial
  3
ObjectDBX Classes
 90
     1153
 91
        3
280
     0
281
     0
  0
CLASS
  1
VISUALSTYLE
  2
AcDbVisualStyle
  3
ObjectDBX Classes
 90
     4095
 91
       24
280
     0
281
     0
  0
CLASS
  1
SCALE
  2
AcDbScale
  3
ObjectDBX Classes
 90
     1153
 91
       17
280
     0
281
     0
  0
CLASS
  1
TABLESTYLE
  2
AcDbTableStyle
  3
ObjectDBX Classes
 90
     4095
 91
        1
280
     0
281
     0
  0
CLASS
  1
MLEADERSTYLE
  2
AcDbMLeaderStyle
  3
ACDB_MLEADERSTYLE_CLASS
 90
     4095
 91
        1
280
     0
281
     0
  0
CLASS
  1
ACDBSECTIONVIEWSTYLE
  2
AcDbSectionViewStyle
  3
ObjectDBX Classes
 90
     1025
 91
        1
280
     0
281
     0
  0
CLASS
  1
ACDBDETAILVIEWSTYLE
  2
AcDbDetailViewStyle
  3
ObjectDBX Classes
 90
     1025
 91
        1
280
     0
281
     0
  0
CLASS
  1
DICTIONARYVAR
  2
AcDbDictionaryVar
  3
ObjectDBX Classes
 90
        0
 91
        5
280
     0
281
     0
  0
CLASS
  1
CELLSTYLEMAP
  2
AcDbCellStyleMap
  3
ObjectDBX Classes
 90
     1152
 91
        1
280
     0
281
     0
  0
ENDSEC
  0
SECTION
  2
TABLES
  0
TABLE
  2
VPORT
  5
8
330
0
100
AcDbSymbolTable
 70
     1
  0
VPORT
  5
57
330
8
100
AcDbSymbolTableRecord
100
AcDbViewportTableRecord
  2
*Active
 70
     0
 10
0.0
 20
0.0
 11
1.0
 21
1.0
 12
0.0
 22
0.0
 13
0.0
 23
0.0
 14
1.0
 24
1.0
 15
0.0
 25
0.0
 16
0.0
 26
0.0
 36
1.0
 17
338.666666582
 27
190.499999952375
 37
0.0
 40
388.619999902845
 41
1.777777777777777
 42
50.0
 43
0.0
 44
0.0
 50
0.0
 51
0.0
 71
     0
 72
   100
 73
     1
 74
     1
 75
     0
 76
     0
 77
     0
 78
     0
281
     0
 65
     1
110
0.0
120
0.0
130
0.0
111
1.0
121
0.0
131
0.0
112
0.0
122
1.0
132
0.0
 79
     0
146
0.0
 60
     3
 61
     5
292
     1
282
     1
141
0.0
142
0.0
 63
   250
421
  3355443
  0
ENDTAB
  0
TABLE
  2
LTYPE
  5
5
330
0
100
AcDbSymbolTable
 70
     1
  0
LTYPE
  5
5B
330
5
100
AcDbSymbolTableRecord
100
AcDbLinetypeTableRecord
  2
ByBlock
 70
     0
  3

 72
    65
 73
     0
 40
0.0
  0
LTYPE
  5
5C
330
5
100
AcDbSymbolTableRecord
100
AcDbLinetypeTableRecord
  2
ByLayer
 70
     0
  3

 72
    65
 73
     0
 40
0.0
  0
LTYPE
  5
5D
330
5
100
AcDbSymbolTableRecord
100
AcDbLinetypeTableRecord
  2
Continuous
 70
     0
  3
Solid line
 72
    65
 73
     0
 40
0.0
  0
ENDTAB
  0
TABLE
  2
LAYER
  5
2
330
0
100
AcDbSymbolTable
 70
     6
  0
LAYER
  5
54
330
2
100
AcDbSymbolTableRecord
100
AcDbLayerTableRecord
  2
0
 70
     0
 62
     7
  6
Continuous
370
    -3
390
F
347
21
348
0
  0
LAYER
  5
78
330
2
100
AcDbSymbolTableRecord
100
AcDbLayerTableRecord
  2
レイヤー_1
 70
     0
 62
     7
  6
Continuous
370
     0
390
F
347
21
348
0
  0
LAYER
  5
7F
330
2
100
AcDbSymbolTableRecord
100
AcDbLayerTableRecord
  2
FLAME
 70
     0
 62
     7
  6
Continuous
370
     0
390
F
347
21
348
0
  0
LAYER
  5
87
330
2
100
AcDbSymbolTableRecord
100
AcDbLayerTableRecord
  2
Defpoints
 70
     0
 62
     7
  6
Continuous
290
     0
370
     0
390
F
347
21
348
0
  0
LAYER
  5
89
330
2
100
AcDbSymbolTableRecord
100
AcDbLayerTableRecord
  2
text
 70
     0
 62
     7
  6
Continuous
370
     0
390
F
347
21
348
0
  0
LAYER
  5
8D
330
2
100
AcDbSymbolTableRecord
100
AcDbLayerTableRecord
  2
shade
 70
     0
 62
     7
  6
Continuous
370
     0
390
F
347
21
348
0
  0
ENDTAB
  0
TABLE
  2
STYLE
  5
3
330
0
100
AcDbSymbolTable
 70
     2
  0
STYLE
  5
55
330
3
100
AcDbSymbolTableRecord
100
AcDbTextStyleTableRecord
  2
Standard
 70
     0
 40
0.0
 41
1.0
 50
0.0
 71
     0
 42
0.2
  3
txt
  4

  0
STYLE
  5
5A
330
3
100
AcDbSymbolTableRecord
100
AcDbTextStyleTableRecord
  2
Annotative
 70
     0
 40
0.0
 41
1.0
 50
0.0
 71
     0
 42
0.2
  3
txt
  4

1001
AcadAnnotative
1000
AnnotativeData
1002
{
1070
     1
1070
     1
1002
}
  0
ENDTAB
  0
TABLE
  2
VIEW
  5
6
330
0
100
AcDbSymbolTable
 70
     0
  0
ENDTAB
  0
TABLE
  2
UCS
  5
7
330
0
100
AcDbSymbolTable
 70
     0
  0
ENDTAB
  0
TABLE
  2
APPID
  5
9
330
0
100
AcDbSymbolTable
 70
     2
  0
APPID
  5
56
330
9
100
AcDbSymbolTableRecord
100
AcDbRegAppTableRecord
  2
ACAD
 70
     0
  0
APPID
  5
5E
330
9
100
AcDbSymbolTableRecord
100
AcDbRegAppTableRecord
  2
AcadAnnotative
 70
     0
  0
ENDTAB
  0
TABLE
  2
DIMSTYLE
  5
A
330
0
100
AcDbSymbolTable
 70
     2
100
AcDbDimStyleTable
 71
     0
  0
DIMSTYLE
105
58
330
A
100
AcDbSymbolTableRecord
100
AcDbDimStyleTableRecord
  2
Standard
 70
     0
340
55
  0
DIMSTYLE
105
59
330
A
100
AcDbSymbolTableRecord
100
AcDbDimStyleTableRecord
  2
Annotative
 70
     0
340
55
1001
AcadAnnotative
1000
AnnotativeData
1002
{
1070
     1
1070
     1
1002
}
  0
ENDTAB
  0
TABLE
  2
BLOCK_RECORD
  5
1
330
0
100
AcDbSymbolTable
 70
     1
  0
BLOCK_RECORD
  5
70
330
1
100
AcDbSymbolTableRecord
100
AcDbBlockTableRecord
  2
*Model_Space
340
73
 70
     0
280
     1
281
     0
  0
BLOCK_RECORD
  5
6C
330
1
100
AcDbSymbolTableRecord
100
AcDbBlockTableRecord
  2
*Paper_Space
340
6F
 70
     0
280
     1
281
     0
  0
BLOCK_RECORD
  5
74
330
1
100
AcDbSymbolTableRecord
100
AcDbBlockTableRecord
  2
*Paper_Space0
340
77
 70
     0
280
     1
281
     0
  0
ENDTAB
  0
ENDSEC
  0
SECTION
  2
BLOCKS
  0
BLOCK
  5
71
330
70
100
AcDbEntity
  8
0
100
AcDbBlockBegin
  2
*Model_Space
 70
     0
 10
0.0
 20
0.0
 30
0.0
  3
*Model_Space
  1

  0
ENDBLK
  5
72
330
70
100
AcDbEntity
  8
0
100
AcDbBlockEnd
  0
BLOCK
  5
6D
330
6C
100
AcDbEntity
 67
     1
  8
0
100
AcDbBlockBegin
  2
*Paper_Space
 70
     0
 10
0.0
 20
0.0
 30
0.0
  3
*Paper_Space
  1

  0
ENDBLK
  5
6E
330
6C
100
AcDbEntity
 67
     1
  8
0
100
AcDbBlockEnd
  0
BLOCK
  5
75
330
74
100
AcDbEntity
 67
     1
  8
0
100
AcDbBlockBegin
  2
*Paper_Space0
 70
     0
 10
0.0
 20
0.0
 30
0.0
  3
*Paper_Space0
  1

  0
ENDBLK
  5
76
330
74
100
AcDbEntity
 67
     1
  8
0
100
AcDbBlockEnd
  0
ENDSEC
  0
SECTION
  2
ENTITIES
  0
SPLINE
  5
79
330
70
100
AcDbEntity
  8
レイヤー_1
 62
    18
420
        0
370
     0
100
AcDbSpline
210
0.0
220
0.0
230
1.0
 70
     9
 71
     3
 72
    11
 73
     7
 74
     0
 42
0.0000000001
 43
0.0000000001
 40
0.0
 40
0.0
 40
0.0
 40
0.0
 40
1.0
 40
1.0
 40
1.0
 40
2.0
 40
2.0
 40
2.0
 40
2.0
 10
159.2457253320779
 20
306.6712427394314
 30
0.0
 10
159.2507832697828
 20
306.6700325580171
 30
0.0
 10
159.2561980558535
 20
306.6706324770088
 30
0.0
 10
159.261297367282
 20
306.6712427394314
 30
0.0
 10
159.261297367282
 20
306.6712427394314
 30
0.0
 10
159.2457253320779
 20
306.6712427394314
 30
0.0
 10
159.2457253320779
 20
306.6712427394314
 30
0.0
  0
SPLINE
  5
7A
330
70
100
AcDbEntity
  8
レイヤー_1
100
AcDbSpline
210
0.0
220
0.0
230
1.0
 70
     9
 71
     3
 72
    11
 73
     7
 74
     0
 42
0.0000000001
 43
0.0000000001
 40
0.0
 40
0.0
 40
0.0
 40
0.0
 40
1.0
 40
1.0
 40
1.0
 40
2.0
 40
2.0
 40
2.0
 40
2.0
 10
159.2457253320779
 20
306.6712427394317
 30
0.0
 10
159.2507832697828
 20
306.6700325580165
 30
0.0
 10
159.2561980558538
 20
306.6706324770088
 30
0.0
 10
159.2612973672817
 20
306.6712427394317
 30
0.0
 10
159.2612973672817
 20
306.6712427394317
 30
0.0
 10
159.2457253320779
 20
306.6712427394317
 30
0.0
 10
159.2457253320779
 20
306.6712427394317
 30
0.0
  0
HATCH
  5
7B
330
70
100
AcDbEntity
  8
レイヤー_1
 62
    18
420
        0
440
 33554687
100
AcDbHatch
 10
0.0
 20
0.0
 30
0.0
210
0.0
220
0.0
230
1.0
  2
SOLID
 70
     1
 71
     1
 91
        1
 92
        1
 93
        1
 72
     4
 94
        3
 73
     0
 74
     0
 95
       11
 96
        7
 40
0.0
 40
0.0
 40
0.0
 40
0.0
 40
1.0
 40
1.0
 40
1.0
 40
2.0
 40
2.0
 40
2.0
 40
2.0
 10
159.2457253320779
 20
306.6712427394317
 10
159.2507832697828
 20
306.6700325580165
 10
159.2561980558538
 20
306.6706324770088
 10
159.2612973672817
 20
306.6712427394317
 10
159.2612973672817
 20
306.6712427394317
 10
159.2457253320779
 20
306.6712427394317
 10
159.2457253320779
 20
306.6712427394317
 97
        0
 97
        1
330
7A
 75
     0
 76
     1
 98
        1
 10
0.0
 20
0.0
450
        0
451
        0
460
0.0
461
0.0
452
        0
462
0.0
453
        0
470

  0
SPLINE
  5
7C
330
70
100
AcDbEntity
  8
レイヤー_1
 62
    18
420
        0
370
     0
100
AcDbSpline
210
0.0
220
0.0
230
1.0
 70
     9
 71
     3
 72
    11
 73
     7
 74
     0
 42
0.0000000001
 43
0.0000000001
 40
0.0
 40
0.0
 40
0.0
 40
0.0
 40
1.0
 40
1.0
 40
1.0
 40
2.0
 40
2.0
 40
2.0
 40
2.0
 10
97.81295995566422
 20
207.6997274681992
 30
0.0
 10
97.81801789336913
 20
207.698517286785
 30
0.0
 10
97.82343267943982
 20
207.6991172057766
 30
0.0
 10
97.82852681915272
 20
207.6997274681992
 30
0.0
 10
97.82852681915272
 20
207.6997274681992
 30
0.0
 10
97.81295995566422
 20
207.6997274681992
 30
0.0
 10
97.81295995566422
 20
207.6997274681992
 30
0.0
  0
SPLINE
  5
7D
330
70
100
AcDbEntity
  8
レイヤー_1
100
AcDbSpline
210
0.0
220
0.0
230
1.0
 70
     9
 71
     3
 72
    11
 73
     7
 74
     0
 42
0.0000000001
 43
0.0000000001
 40
0.0
 40
0.0
 40
0.0
 40
0.0
 40
1.0
 40
1.0
 40
1.0
 40
2.0
 40
2.0
 40
2.0
 40
2.0
 10
97.81295995566422
 20
207.6997274681992
 30
0.0
 10
97.81801789336913
 20
207.6985172867856
 30
0.0
 10
97.82343267944014
 20
207.6991172057763
 30
0.0
 10
97.8285268191524
 20
207.6997274681992
 30
0.0
 10
97.8285268191524
 20
207.6997274681992
 30
0.0
 10
97.81295995566422
 20
207.6997274681992
 30
0.0
 10
97.81295995566422
 20
207.6997274681992
 30
0.0
  0
HATCH
  5
7E
330
70
100
AcDbEntity
  8
レイヤー_1
 62
    18
420
        0
440
 33554687
100
AcDbHatch
 10
0.0
 20
0.0
 30
0.0
210
0.0
220
0.0
230
1.0
  2
SOLID
 70
     1
 71
     1
 91
        1
 92
        1
 93
        1
 72
     4
 94
        3
 73
     0
 74
     0
 95
       11
 96
        7
 40
0.0
 40
0.0
 40
0.0
 40
0.0
 40
1.0
 40
1.0
 40
1.0
 40
2.0
 40
2.0
 40
2.0
 40
2.0
 10
97.81295995566422
 20
207.6997274681992
 10
97.81801789336913
 20
207.6985172867856
 10
97.82343267944014
 20
207.6991172057763
 10
97.8285268191524
 20
207.6997274681992
 10
97.8285268191524
 20
207.6997274681992
 10
97.81295995566422
 20
207.6997274681992
 10
97.81295995566422
 20
207.6997274681992
 97
        0
 97
        1
330
7D
 75
     0
 76
     1
 98
        1
 10
0.0
 20
0.0
450
        0
451
        0
460
0.0
461
0.0
452
        0
462
0.0
453
        0
470

  0
LINE
  5
80
330
70
100
AcDbEntity
  8
FLAME
 62
     2
420
 16776960
370
    25
100
AcDbLine
 10
502.3051955606065
 20
266.8611060321624
 30
0.0
 11
502.3051955606065
 21
124.9994039399675
 31
0.0
  0
LINE
  5
81
330
70
100
AcDbEntity
  8
FLAME
 62
     2
420
 16776960
370
    25
100
AcDbLine
 10
380.709450910134
 20
124.9994039399675
 30
0.0
 11
380.709450910134
 21
266.8611060321624
 31
0.0
  0
LINE
  5
82
330
70
100
AcDbEntity
  8
FLAME
 62
     2
420
 16776960
370
    25
100
AcDbLine
 10
502.3051955606065
 20
124.9994039399675
 30
0.0
 11
380.709450910134
 21
124.9994039399675
 31
0.0
  0
LINE
  5
83
330
70
100
AcDbEntity
  8
FLAME
 62
     2
420
 16776960
370
    25
100
AcDbLine
 10
502.3051955606065
 20
131.7547230872696
 30
0.0
 11
380.709450910134
 21
131.7547230872696
 31
0.0
  0
LINE
  5
84
330
70
100
AcDbEntity
  8
FLAME
 62
     2
420
 16776960
370
    25
100
AcDbLine
 10
502.3051955606065
 20
138.5100422344799
 30
0.0
 11
380.709450910134
 21
138.5100422344799
 31
0.0
  0
LINE
  5
85
330
70
100
AcDbEntity
  8
FLAME
 62
     2
420
 16776960
370
    25
100
AcDbLine
 10
502.3051955606065
 20
145.2653613816902
 30
0.0
 11
380.709450910134
 21
145.2653613816902
 31
0.0
  0
LINE
  5
86
330
70
100
AcDbEntity
  8
FLAME
 62
     2
420
 16776960
370
    25
100
AcDbLine
 10
502.3051955606065
 20
266.8611060321624
 30
0.0
 11
380.709450910134
 21
266.8611060321624
 31
0.0
  0
LWPOLYLINE
  5
88
330
70
100
AcDbEntity
  8
Defpoints
 62
    18
420
        0
370
     0
100
AcDbPolyline
 90
        4
 70
     1
 43
0.0
 10
316.0629279397361
 20
380.9999999047501
 10
579.5203746823583
 20
380.9999999047501
 10
579.5203746823583
 20
0.0000000000455606
 10
316.0629279397361
 20
0.0
  0
MTEXT
  5
8A
330
70
100
AcDbEntity
  8
text
100
AcDbMText
 10
385.144708155667
 20
133.3060211696086
 30
0.0
 40
0.2
 41
0.0
 46
0.0
 71
     7
 72
     1
  1
\C4;\c16776960;\FMS PMincho|b0|i0|c128;\H3.377660;\W1.000000;KF351BK
 73
     1
 44
1.0
  0
MTEXT
  5
8B
330
70
100
AcDbEntity
  8
text
100
AcDbMText
 10
385.1257170668045
 20
140.3061537497813
 30
0.0
 40
0.2
 41
0.0
 46
0.0
 71
     7
 72
     1
  1
\C4;\c16776960;\FMS PMincho|b0|i0|c128;\H3.377660;\W1.000000;フロアランプ　351　
 73
     1
 44
1.0
  0
MTEXT
  5
8C
330
70
100
AcDbEntity
  8
text
100
AcDbMText
 10
385.3710939927415
 20
127.3184775140145
 30
0.0
 40
0.2
 41
0.0
 46
0.0
 71
     7
 72
     1
  1
\C4;\c16776960;\FMS PMincho|b0|i0|c128;\H3.377660;\W0.869205;E26 LED電球(100W相当　電球色　全方向/広配光タイプ)
 73
     1
 44
1.0
  0
LWPOLYLINE
  5
8E
330
70
100
AcDbEntity
  8
shade
 62
     6
420
 16711935
370
    25
100
AcDbPolyline
 90
        4
 70
     1
 43
0.0
 10
433.3141306493679
 20
174.4420587677567
 10
447.4192370287865
 20
174.4420587677567
 10
447.4192370287865
 20
174.831165150561
 10
433.3141306493679
 20
174.831165150561
  0
LWPOLYLINE
  5
8F
330
70
100
AcDbEntity
  8
shade
 62
     6
420
 16711935
370
    25
100
AcDbPolyline
 90
        4
 70
     1
 43
0.0
 10
438.6643434139846
 20
174.831165150561
 10
442.0690242641699
 20
174.831165150561
 10
442.0690242641699
 20
174.860348129272
 10
438.6643434139846
 20
174.860348129272
  0
LWPOLYLINE
  5
90
330
70
100
AcDbEntity
  8
shade
 62
     6
420
 16711935
370
    25
100
AcDbPolyline
 90
        4
 70
     1
 43
0.0
 10
439.2723221372388
 20
174.860348129272
 10
441.4610455409619
 20
174.860348129272
 10
441.4610455409619
 20
175.0062630229207
 10
439.2723221372388
 20
175.0062630229207
  0
LWPOLYLINE
  5
91
330
70
100
AcDbEntity
  8
shade
 62
     6
420
 16711935
370
    25
100
AcDbPolyline
 90
        4
 70
     1
 43
0.0
 10
439.8316625626247
 20
179.2086119580534
 10
440.9017051155299
 20
179.2086119580534
 10
440.9017051155299
 20
216.7184672677923
 10
439.8316625626247
 20
216.7184672677923
  0
LINE
  5
92
330
70
100
AcDbEntity
  8
shade
 62
     6
420
 16711935
370
    25
100
AcDbLine
 10
439.9046200094258
 20
219.1892927991208
 30
0.0
 11
440.8287476687742
 21
219.1892927991208
 31
0.0
  0
SPLINE
  5
93
330
70
100
AcDbEntity
  8
shade
 62
     6
420
 16711935
370
    25
100
AcDbSpline
210
0.0
220
0.0
230
1.0
 70
     8
 71
     3
 72
     8
 73
     4
 74
     0
 42
0.0000000001
 43
0.0000000001
 40
0.0
 40
0.0
 40
0.0
 40
0.0
 40
1.0
 40
1.0
 40
1.0
 40
1.0
 10
439.9046200094258
 20
219.189292799029
 30
0.0
 10
439.9761890829745
 20
219.3064623066039
 30
0.0
 10
440.0140561796052
 20
219.4411008724342
 30
0.0
 10
440.0140561796052
 20
219.5783991819244
 30
0.0
  0
SPLINE
  5
94
330
70
100
AcDbEntity
  8
shade
 62
     6
420
 16711935
370
    25
100
AcDbSpline
210
0.0
220
0.0
230
1.0
 70
     8
 71
     3
 72
     8
 73
     4
 74
     0
 42
0.0000000001
 43
0.0000000001
 40
0.0
 40
0.0
 40
0.0
 40
0.0
 40
1.0
 40
1.0
 40
1.0
 40
1.0
 10
440.7193114985948
 20
219.5783991819244
 30
0.0
 10
440.7193114985948
 20
219.4411008724342
 30
0.0
 10
440.7571785952261
 20
219.3064623066039
 30
0.0
 10
440.8287476687742
 20
219.189292799029
 30
0.0
  0
SPLINE
  5
95
330
70
100
AcDbEntity
  8
shade
 62
     6
420
 16711935
370
    25
100
AcDbSpline
210
0.0
220
0.0
230
1.0
 70
    11
 71
     3
 72
    23
 73
    19
 74
     0
 42
0.0000000001
 43
0.0000000001
 40
0.0
 40
0.0
 40
0.0
 40
0.0
 40
1.0
 40
1.0
 40
1.0
 40
2.0
 40
2.0
 40
2.0
 40
3.0
 40
3.0
 40
3.0
 40
4.0
 40
4.0
 40
4.0
 40
5.0
 40
5.0
 40
5.0
 40
6.0
 40
6.0
 40
6.0
 40
6.0
 10
439.7830242647569
 20
216.7184672677923
 30
0.0
 10
439.7830242647569
 20
216.7184672677923
 30
0.0
 10
440.9503434134431
 20
216.7184672677923
 30
0.0
 10
440.9503434134431
 20
216.7184672677923
 30
0.0
 10
440.9503434134431
 20
216.7184672677923
 30
0.0
 10
440.9503434134431
 20
218.8488247140472
 30
0.0
 10
440.9503434134431
 20
218.8488247140472
 30
0.0
 10
440.9503434133975
 20
218.8756869042071
 30
0.0
 10
440.9285673056895
 20
218.8974630119149
 30
0.0
 10
440.9017051155299
 20
218.8974630119149
 30
0.0
 10
440.9017051155299
 20
218.8974630119149
 30
0.0
 10
439.8316625626247
 20
218.8974630119149
 30
0.0
 10
439.8316625626247
 20
218.8974630119149
 30
0.0
 10
439.8048003724188
 20
218.8974630119149
 30
0.0
 10
439.7830242647569
 20
218.875686904253
 30
0.0
 10
439.7830242647569
 20
218.8488247140931
 30
0.0
 10
439.7830242647569
 20
218.8488247140931
 30
0.0
 10
439.7830242647569
 20
216.7184672677923
 30
0.0
 10
439.7830242647569
 20
216.7184672677923
 30
0.0
  0
SPLINE
  5
96
330
70
100
AcDbEntity
  8
shade
 62
     6
420
 16711935
370
    25
100
AcDbSpline
210
0.0
220
0.0
230
1.0
 70
     8
 71
     3
 72
    23
 73
    19
 74
     0
 42
0.0000000001
 43
0.0000000001
 40
0.0
 40
0.0
 40
0.0
 40
0.0
 40
1.0
 40
1.0
 40
1.0
 40
2.0
 40
2.0
 40
2.0
 40
3.0
 40
3.0
 40
3.0
 40
4.0
 40
4.0
 40
4.0
 40
5.0
 40
5.0
 40
5.0
 40
6.0
 40
6.0
 40
6.0
 40
6.0
 10
439.6857476690222
 20
219.067697054406
 30
0.0
 10
439.6857476690222
 20
219.067697054406
 30
0.0
 10
439.6857476690222
 20
219.1163353522733
 30
0.0
 10
439.6857476690222
 20
219.1163353522733
 30
0.0
 10
439.6857476690222
 20
219.1431975424332
 30
0.0
 10
439.7075237767758
 20
219.164973650141
 30
0.0
 10
439.7343859668892
 20
219.164973650141
 30
0.0
 10
439.7343859668892
 20
219.164973650141
 30
0.0
 10
439.7343859668892
 20
219.164973650141
 30
0.0
 10
439.7343859668892
 20
219.164973650141
 30
0.0
 10
439.7343859668892
 20
219.164973650141
 30
0.0
 10
439.7343859668892
 20
219.164973650141
 30
0.0
 10
439.7343859668892
 20
219.164973650141
 30
0.0
 10
439.7343859668892
 20
219.1784047452439
 30
0.0
 10
439.745274020766
 20
219.1892927991208
 30
0.0
 10
439.7587051158689
 20
219.1892927991208
 30
0.0
 10
439.7587051158689
 20
219.1892927991208
 30
0.0
 10
440.3666838390775
 20
219.1892927991208
 30
0.0
 10
440.3666838390775
 20
219.1892927991208
 30
0.0
  0
SPLINE
  5
97
330
70
100
AcDbEntity
  8
shade
 62
     6
420
 16711935
370
    25
100
AcDbSpline
210
0.0
220
0.0
230
1.0
 70
     8
 71
     3
 72
    23
 73
    19
 74
     0
 42
0.0000000001
 43
0.0000000001
 40
0.0
 40
0.0
 40
0.0
 40
0.0
 40
1.0
 40
1.0
 40
1.0
 40
2.0
 40
2.0
 40
2.0
 40
3.0
 40
3.0
 40
3.0
 40
4.0
 40
4.0
 40
4.0
 40
5.0
 40
5.0
 40
5.0
 40
6.0
 40
6.0
 40
6.0
 40
6.0
 10
439.6857476690222
 20
219.067697054406
 30
0.0
 10
439.6857476690222
 20
219.067697054406
 30
0.0
 10
439.6857476690222
 20
219.0190587565382
 30
0.0
 10
439.6857476690222
 20
219.0190587565382
 30
0.0
 10
439.6857476690222
 20
218.9921965663783
 30
0.0
 10
439.7075237767758
 20
218.9704204587164
 30
0.0
 10
439.7343859668892
 20
218.9704204587164
 30
0.0
 10
439.7343859668892
 20
218.9704204587164
 30
0.0
 10
439.7343859668892
 20
218.9704204587164
 30
0.0
 10
439.7343859668892
 20
218.9704204587164
 30
0.0
 10
439.7343859668892
 20
218.9704204587164
 30
0.0
 10
439.7343859668892
 20
218.9704204587164
 30
0.0
 10
439.7343859668892
 20
218.9704204587164
 30
0.0
 10
439.7343859668892
 20
218.9569893636135
 30
0.0
 10
439.745274020766
 20
218.9461013097826
 30
0.0
 10
439.7587051158689
 20
218.9461013097826
 30
0.0
 10
439.7587051158689
 20
218.9461013097826
 30
0.0
 10
440.3666838390775
 20
218.9461013097826
 30
0.0
 10
440.3666838390775
 20
218.9461013097826
 30
0.0
  0
SPLINE
  5
98
330
70
100
AcDbEntity
  8
shade
 62
     6
420
 16711935
370
    25
100
AcDbSpline
210
0.0
220
0.0
230
1.0
 70
     8
 71
     3
 72
    23
 73
    19
 74
     0
 42
0.0000000001
 43
0.0000000001
 40
0.0
 40
0.0
 40
0.0
 40
0.0
 40
1.0
 40
1.0
 40
1.0
 40
2.0
 40
2.0
 40
2.0
 40
3.0
 40
3.0
 40
3.0
 40
4.0
 40
4.0
 40
4.0
 40
5.0
 40
5.0
 40
5.0
 40
6.0
 40
6.0
 40
6.0
 40
6.0
 10
441.047620009133
 20
219.067697054406
 30
0.0
 10
441.047620009133
 20
219.067697054406
 30
0.0
 10
441.047620009133
 20
219.1163353522733
 30
0.0
 10
441.047620009133
 20
219.1163353522733
 30
0.0
 10
441.047620009133
 20
219.1431975424332
 30
0.0
 10
441.0258439014248
 20
219.164973650141
 30
0.0
 10
440.9989817112652
 20
219.164973650141
 30
0.0
 10
440.9989817112652
 20
219.164973650141
 30
0.0
 10
440.9989817112652
 20
219.164973650141
 30
0.0
 10
440.9989817112652
 20
219.164973650141
 30
0.0
 10
440.9989817112652
 20
219.164973650141
 30
0.0
 10
440.9989817112652
 20
219.164973650141
 30
0.0
 10
440.9989817112652
 20
219.164973650141
 30
0.0
 10
440.9989817112652
 20
219.1784047452439
 30
0.0
 10
440.988093657434
 20
219.1892927991208
 30
0.0
 10
440.9746625623773
 20
219.1892927991208
 30
0.0
 10
440.9746625623773
 20
219.1892927991208
 30
0.0
 10
440.3666838390775
 20
219.1892927991208
 30
0.0
 10
440.3666838390775
 20
219.1892927991208
 30
0.0
  0
SPLINE
  5
99
330
70
100
AcDbEntity
  8
shade
 62
     6
420
 16711935
370
    25
100
AcDbSpline
210
0.0
220
0.0
230
1.0
 70
     8
 71
     3
 72
    23
 73
    19
 74
     0
 42
0.0000000001
 43
0.0000000001
 40
0.0
 40
0.0
 40
0.0
 40
0.0
 40
1.0
 40
1.0
 40
1.0
 40
2.0
 40
2.0
 40
2.0
 40
3.0
 40
3.0
 40
3.0
 40
4.0
 40
4.0
 40
4.0
 40
5.0
 40
5.0
 40
5.0
 40
6.0
 40
6.0
 40
6.0
 40
6.0
 10
441.047620009133
 20
219.067697054406
 30
0.0
 10
441.047620009133
 20
219.067697054406
 30
0.0
 10
441.047620009133
 20
219.0190587565382
 30
0.0
 10
441.047620009133
 20
219.0190587565382
 30
0.0
 10
441.047620009133
 20
218.9921965663783
 30
0.0
 10
441.0258439014248
 20
218.9704204587164
 30
0.0
 10
440.9989817112652
 20
218.9704204587164
 30
0.0
 10
440.9989817112652
 20
218.9704204587164
 30
0.0
 10
440.9989817112652
 20
218.9704204587164
 30
0.0
 10
440.9989817112652
 20
218.9704204587164
 30
0.0
 10
440.9989817112652
 20
218.9704204587164
 30
0.0
 10
440.9989817112652
 20
218.9704204587164
 30
0.0
 10
440.9989817112652
 20
218.9704204587164
 30
0.0
 10
440.9989817112652
 20
218.9569893636135
 30
0.0
 10
440.988093657434
 20
218.9461013097826
 30
0.0
 10
440.9746625623773
 20
218.9461013097826
 30
0.0
 10
440.9746625623773
 20
218.9461013097826
 30
0.0
 10
440.3666838390775
 20
218.9461013097826
 30
0.0
 10
440.3666838390775
 20
218.9461013097826
 30
0.0
  0
LINE
  5
9A
330
70
100
AcDbEntity
  8
shade
 62
     6
420
 16711935
370
    25
100
AcDbLine
 10
439.7343859668892
 20
219.164973650141
 30
0.0
 11
440.9989817112652
 21
219.164973650141
 31
0.0
  0
LINE
  5
9B
330
70
100
AcDbEntity
  8
shade
 62
     6
420
 16711935
370
    25
100
AcDbLine
 10
439.7343859668892
 20
218.9704204587164
 30
0.0
 11
440.9989817112652
 21
218.9704204587164
 31
0.0
  0
LWPOLYLINE
  5
9C
330
70
100
AcDbEntity
  8
shade
 62
     6
420
 16711935
370
    25
100
AcDbPolyline
 90
        4
 70
     1
 43
0.0
 10
439.8803008604923
 20
218.8974630119149
 10
440.8530668177077
 20
218.8974630119149
 10
440.8530668177077
 20
218.9461013097826
 10
439.8803008604923
 20
218.9461013097826
  0
LWPOLYLINE
  5
9D
330
70
100
AcDbEntity
  8
shade
 62
     6
420
 16711935
370
    25
100
AcDbPolyline
 90
        4
 70
     1
 43
0.0
 10
439.7830242647569
 20
174.831165150561
 10
440.9503434134431
 20
174.831165150561
 10
440.9503434134431
 20
179.2086119580534
 10
439.7830242647569
 20
179.2086119580534
  0
SPLINE
  5
9E
330
70
100
AcDbEntity
  8
shade
 62
     6
420
 16711935
370
    25
100
AcDbSpline
210
0.0
220
0.0
230
1.0
 70
     8
 71
     3
 72
    11
 73
     7
 74
     0
 42
0.0000000001
 43
0.0000000001
 40
0.0
 40
0.0
 40
0.0
 40
0.0
 40
1.0
 40
1.0
 40
1.0
 40
2.0
 40
2.0
 40
2.0
 40
2.0
 10
433.8005136279987
 20
174.4420587677567
 30
0.0
 10
433.8005136279987
 20
174.2271612463867
 30
0.0
 10
433.9747224895234
 20
174.0529523848158
 30
0.0
 10
434.1896200108023
 20
174.0529523848158
 30
0.0
 10
434.4045175321729
 20
174.0529523848158
 30
0.0
 10
434.5787263937433
 20
174.2271612463867
 30
0.0
 10
434.5787263937433
 20
174.4420587677567
 30
0.0
  0
SPLINE
  5
9F
330
70
100
AcDbEntity
  8
shade
 62
     6
420
 16711935
370
    25
100
AcDbSpline
210
0.0
220
0.0
230
1.0
 70
     8
 71
     3
 72
    11
 73
     7
 74
     0
 42
0.0000000001
 43
0.0000000001
 40
0.0
 40
0.0
 40
0.0
 40
0.0
 40
1.0
 40
1.0
 40
1.0
 40
2.0
 40
2.0
 40
2.0
 40
2.0
 10
446.1546412844567
 20
174.4420587677567
 30
0.0
 10
446.1546412844567
 20
174.2271612463867
 30
0.0
 10
446.3288501460277
 20
174.0529523848158
 30
0.0
 10
446.5437476673521
 20
174.0529523848158
 30
0.0
 10
446.7586451886309
 20
174.0529523848158
 30
0.0
 10
446.9328540502019
 20
174.2271612463867
 30
0.0
 10
446.9328540502019
 20
174.4420587677567
 30
0.0
  0
LWPOLYLINE
  5
A0
330
70
100
AcDbEntity
  8
shade
 62
     6
420
 16711935
370
    25
100
AcDbPolyline
 90
       48
 70
     0
 43
0.0
 10
440.3666838390775
 20
222.5866558622573
 10
439.9034882717538
 20
223.0730388408422
 10
439.4810373721363
 20
222.5866558622573
 10
438.9791658808806
 20
223.0730388408422
 10
438.599346417338
 20
222.5866558622573
 10
438.0610404820838
 20
223.0730388408422
 10
437.7255488203987
 20
222.5866558622573
 10
437.1532126462684
 20
223.0730388408422
 10
436.8635471737409
 20
222.5866558622573
 10
436.2597369528503
 20
223.0730388408422
 10
436.0171913857048
 20
222.5866558622573
 10
435.3846038811791
 20
223.0730388408422
 10
435.1902614868925
 20
222.5866558622573
 10
434.5317219879972
 20
223.0730388408422
 10
434.3864507468687
 20
222.5866558622573
 10
433.7049004509598
 20
223.0730388408422
 10
433.6093491795333
 20
222.5866558622573
 10
432.9078320556825
 20
223.0730388408422
 10
432.8624275091914
 20
222.5866558622573
 10
432.1440767030844
 20
223.0730388408422
 10
432.149021669323
 20
222.5866558622573
 10
431.4170455100524
 20
223.0730388408422
 10
431.4723179035129
 20
222.5866558622573
 10
430.7299855744274
 20
223.0730388408422
 10
430.8353385351398
 20
222.5866558622573
 10
430.0859654725301
 20
223.0730388408422
 10
430.2409284686924
 20
222.5866558622573
 10
429.4878615545089
 20
223.0730388408422
 10
429.6917424837777
 20
222.5866558622573
 10
428.9383450977517
 20
223.0730388408422
 10
429.1902333783599
 20
222.5866558622573
 10
428.4398703760129
 20
223.0730388408422
 10
428.7386410137485
 20
222.5866558622573
 10
427.9946636985815
 20
223.0730388408422
 10
428.3389823111788
 20
222.5866558622573
 10
427.604713466334
 20
223.0730388408422
 10
427.9930422434438
 20
222.5866558622573
 10
427.2717612918685
 20
223.0730388408422
 10
427.7023658628138
 20
222.5866558622573
 10
426.9972942203036
 20
223.0730388408422
 10
427.4682514005474
 20
222.5866558622573
 10
426.7825380882748
 20
223.0730388408422
 10
427.2917444686687
 20
222.5866558622573
 10
426.6284520487368
 20
223.0730388408422
 10
427.173633390056
 20
222.5866558622573
 10
426.5357242874435
 20
223.0730388408422
 10
427.1144456774412
 20
222.5866558622573
 10
426.504768948905
 20
223.0730388408422
  0
LINE
  5
A1
330
70
100
AcDbEntity
  8
shade
 62
     6
420
 16711935
370
    25
100
AcDbLine
 10
440.2374766545094
 20
238.502385139848
 30
0.0
 11
439.9034882717538
 21
223.0730388408422
 31
0.0
  0
LINE
  5
A2
330
70
100
AcDbEntity
  8
shade
 62
     6
420
 16711935
370
    25
100
AcDbLine
 10
438.9791658808806
 20
223.0730388408422
 30
0.0
 11
439.9796393560065
 21
238.502385139848
 31
0.0
  0
LINE
  5
A3
330
70
100
AcDbEntity
  8
shade
 62
     6
420
 16711935
370
    25
100
AcDbLine
 10
439.7235306921274
 20
238.502385139848
 30
0.0
 11
438.0610404821299
 21
223.0730388408422
 31
0.0
  0
LINE
  5
A4
330
70
100
AcDbEntity
  8
shade
 62
     6
420
 16711935
370
    25
100
AcDbLine
 10
437.1532126462684
 20
223.0730388408422
 30
0.0
 11
439.4702945063055
 21
238.502385139848
 31
0.0
  0
LINE
  5
A5
330
70
100
AcDbEntity
  8
shade
 62
     6
420
 16711935
370
    25
100
AcDbLine
 10
439.2210618129221
 20
238.502385139848
 30
0.0
 11
436.2597369528503
 21
223.0730388408422
 31
0.0
  0
LINE
  5
A6
330
70
100
AcDbEntity
  8
shade
 62
     6
420
 16711935
370
    25
100
AcDbLine
 10
438.9769457455854
 20
238.502385139848
 30
0.0
 11
435.3846038811791
 21
223.0730388408422
 31
0.0
  0
LINE
  5
A7
330
70
100
AcDbEntity
  8
shade
 62
     6
420
 16711935
370
    25
100
AcDbLine
 10
434.5317219879972
 20
223.0730388408422
 30
0.0
 11
438.7390365858882
 21
238.502385139848
 31
0.0
  0
LINE
  5
A8
330
70
100
AcDbEntity
  8
shade
 62
     6
420
 16711935
370
    25
100
AcDbLine
 10
438.5083968939838
 20
238.502385139848
 30
0.0
 11
433.7049004509598
 21
223.0730388408422
 31
0.0
  0
LINE
  5
A9
330
70
100
AcDbEntity
  8
shade
 62
     6
420
 16711935
370
    25
100
AcDbLine
 10
432.9078320556825
 20
223.0730388408422
 30
0.0
 11
438.2860567626314
 21
238.502385139848
 31
0.0
  0
LINE
  5
AA
330
70
100
AcDbEntity
  8
shade
 62
     6
420
 16711935
370
    25
100
AcDbLine
 10
438.073009216916
 20
238.502385139848
 30
0.0
 11
432.1440767030844
 21
223.0730388408422
 31
0.0
  0
LINE
  5
AB
330
70
100
AcDbEntity
  8
shade
 62
     6
420
 16711935
370
    25
100
AcDbLine
 10
437.8702057788745
 20
238.502385139848
 30
0.0
 11
431.4170455100524
 21
223.0730388408422
 31
0.0
  0
LINE
  5
AC
330
70
100
AcDbEntity
  8
shade
 62
     6
420
 16711935
370
    25
100
AcDbLine
 10
430.7299855744274
 20
223.0730388408422
 30
0.0
 11
437.6785522178451
 21
238.502385139848
 31
0.0
  0
LINE
  5
AD
330
70
100
AcDbEntity
  8
shade
 62
     6
420
 16711935
370
    25
100
AcDbLine
 10
437.5897468332687
 20
238.6914650352991
 30
0.0
 11
430.0859654725301
 21
223.0730388408422
 31
0.0
  0
LINE
  5
AE
330
70
100
AcDbEntity
  8
shade
 62
     6
420
 16711935
370
    25
100
AcDbLine
 10
429.4878615545089
 20
223.0730388408422
 30
0.0
 11
437.3426107518711
 21
238.5231283794296
 31
0.0
  0
LINE
  5
AF
330
70
100
AcDbEntity
  8
shade
 62
     6
420
 16711935
370
    25
100
AcDbLine
 10
437.1992526657686
 20
238.5407202615558
 30
0.0
 11
428.9383450977517
 21
223.0730388408422
 31
0.0
  0
LINE
  5
B0
330
70
100
AcDbEntity
  8
shade
 62
     6
420
 16711935
370
    25
100
AcDbLine
 10
428.4398703760129
 20
223.0730388408422
 30
0.0
 11
437.0693047716404
 21
238.5554453024731
 31
0.0
  0
LINE
  5
B1
330
70
100
AcDbEntity
  8
shade
 62
     6
420
 16711935
370
    25
100
AcDbLine
 10
427.604713466334
 20
223.0730388408422
 30
0.0
 11
436.8524992072608
 21
238.5790676822189
 31
0.0
  0
LINE
  5
B2
330
70
100
AcDbEntity
  8
shade
 62
     6
420
 16711935
370
    25
100
AcDbLine
 10
436.7505369672839
 20
238.5622703746531
 30
0.0
 11
427.2717612918685
 21
223.0730388408422
 31
0.0
  0
LINE
  5
B3
330
70
100
AcDbEntity
  8
shade
 62
     6
420
 16711935
370
    25
100
AcDbLine
 10
426.9972942203036
 20
223.0730388408422
 30
0.0
 11
436.6871847694755
 21
238.5821836835604
 31
0.0
  0
LINE
  5
B4
330
70
100
AcDbEntity
  8
shade
 62
     6
420
 16711935
370
    25
100
AcDbLine
 10
436.6381392732281
 20
238.5980295427062
 30
0.0
 11
426.7825380882748
 21
223.0730388408422
 31
0.0
  0
LINE
  5
B5
330
70
100
AcDbEntity
  8
shade
 62
     6
420
 16711935
370
    25
100
AcDbLine
 10
426.6284520487368
 20
223.0730388408422
 30
0.0
 11
436.604201701979
 21
238.6110440461334
 31
0.0
  0
LINE
  5
B6
330
70
100
AcDbEntity
  8
shade
 62
     6
420
 16711935
370
    25
100
AcDbLine
 10
426.504768948905
 20
223.0730388408422
 30
0.0
 11
436.5789245131574
 21
238.624313266424
 31
0.0
  0
LINE
  5
B7
330
70
100
AcDbEntity
  8
shade
 62
     6
420
 16711935
370
    25
100
AcDbLine
 10
440.3666838390775
 20
239.5614218154551
 30
0.0
 11
440.2374766545094
 21
239.7559750068797
 31
0.0
  0
LINE
  5
B8
330
70
100
AcDbEntity
  8
shade
 62
     6
420
 16711935
370
    25
100
AcDbLine
 10
440.2374766545094
 20
239.7559750068797
 30
0.0
 11
440.0986677378719
 21
239.5614218154551
 31
0.0
  0
LINE
  5
B9
330
70
100
AcDbEntity
  8
shade
 62
     6
420
 16711935
370
    25
100
AcDbLine
 10
440.0986677378719
 20
239.5614218154551
 30
0.0
 11
439.9796393560065
 21
239.7559750068797
 31
0.0
  0
LINE
  5
BA
330
70
100
AcDbEntity
  8
shade
 62
     6
420
 16711935
370
    25
100
AcDbLine
 10
439.9796393560065
 20
239.7559750068797
 30
0.0
 11
439.831848661593
 21
239.5614218154551
 31
0.0
  0
LINE
  5
BB
330
70
100
AcDbEntity
  8
shade
 62
     6
420
 16711935
370
    25
100
AcDbLine
 10
439.831848661593
 20
239.5614218154551
 30
0.0
 11
439.7235306921274
 21
239.7559750068797
 31
0.0
  0
LINE
  5
BC
330
70
100
AcDbEntity
  8
shade
 62
     6
420
 16711935
370
    25
100
AcDbLine
 10
439.7235306921274
 20
239.7559750068797
 30
0.0
 11
439.5674182890721
 21
239.5614218154551
 31
0.0
  0
LINE
  5
BD
330
70
100
AcDbEntity
  8
shade
 62
     6
420
 16711935
370
    25
100
AcDbLine
 10
439.5674182890721
 20
239.5614218154551
 30
0.0
 11
439.4702945063055
 21
239.7559750068797
 31
0.0
  0
LINE
  5
BE
330
70
100
AcDbEntity
  8
shade
 62
     6
420
 16711935
370
    25
100
AcDbLine
 10
439.4702945063055
 20
239.7559750068797
 30
0.0
 11
439.3065576304848
 21
239.5614218154551
 31
0.0
  0
LINE
  5
BF
330
70
100
AcDbEntity
  8
shade
 62
     6
420
 16711935
370
    25
100
AcDbLine
 10
439.3065576304848
 20
239.5614218154551
 30
0.0
 11
439.2210618129221
 21
239.7559750068797
 31
0.0
  0
LINE
  5
C0
330
70
100
AcDbEntity
  8
shade
 62
     6
420
 16711935
370
    25
100
AcDbLine
 10
439.2210618129221
 20
239.7559750068797
 30
0.0
 11
439.0504317529487
 21
239.5614218154551
 31
0.0
  0
LINE
  5
C1
330
70
100
AcDbEntity
  8
shade
 62
     6
420
 16711935
370
    25
100
AcDbLine
 10
439.0504317529487
 20
239.5614218154551
 30
0.0
 11
438.9769457455854
 21
239.7559750068797
 31
0.0
  0
LINE
  5
C2
330
70
100
AcDbEntity
  8
shade
 62
     6
420
 16711935
370
    25
100
AcDbLine
 10
438.9769457455854
 20
239.7559750068797
 30
0.0
 11
438.8001845767171
 21
239.5614218154551
 31
0.0
  0
LINE
  5
C3
330
70
100
AcDbEntity
  8
shade
 62
     6
420
 16711935
370
    25
100
AcDbLine
 10
438.8001845767171
 20
239.5614218154551
 30
0.0
 11
438.7390365858882
 21
239.7559750068797
 31
0.0
  0
LINE
  5
C4
330
70
100
AcDbEntity
  8
shade
 62
     6
420
 16711935
370
    25
100
AcDbLine
 10
438.7390365858882
 20
239.7559750068797
 30
0.0
 11
438.556933766503
 21
239.5614218154551
 31
0.0
  0
LINE
  5
C5
330
70
100
AcDbEntity
  8
shade
 62
     6
420
 16711935
370
    25
100
AcDbLine
 10
438.556933766503
 20
239.5614218154551
 30
0.0
 11
438.5083968939838
 21
239.7559750068797
 31
0.0
  0
LINE
  5
C6
330
70
100
AcDbEntity
  8
shade
 62
     6
420
 16711935
370
    25
100
AcDbLine
 10
438.5083968939838
 20
239.7559750068797
 30
0.0
 11
438.3217657393613
 21
239.5614218154551
 31
0.0
  0
LINE
  5
C7
330
70
100
AcDbEntity
  8
shade
 62
     6
420
 16711935
370
    25
100
AcDbLine
 10
438.3217657393613
 20
239.5614218154551
 30
0.0
 11
438.2860567626314
 21
239.7559750068797
 31
0.0
  0
LINE
  5
C8
330
70
100
AcDbEntity
  8
shade
 62
     6
420
 16711935
370
    25
100
AcDbLine
 10
438.2860567626314
 20
239.7559750068797
 30
0.0
 11
438.0957308129385
 21
239.5614218154551
 31
0.0
  0
LINE
  5
C9
330
70
100
AcDbEntity
  8
shade
 62
     6
420
 16711935
370
    25
100
AcDbLine
 10
438.0957308129385
 20
239.5614218154551
 30
0.0
 11
438.073009216916
 21
239.7559750068797
 31
0.0
  0
LINE
  5
CA
330
70
100
AcDbEntity
  8
shade
 62
     6
420
 16711935
370
    25
100
AcDbLine
 10
438.073009216916
 20
239.7559750068797
 30
0.0
 11
437.8798385139947
 21
239.5614218154551
 31
0.0
  0
LINE
  5
CB
330
70
100
AcDbEntity
  8
shade
 62
     6
420
 16711935
370
    25
100
AcDbLine
 10
437.8798385139947
 20
239.5614218154551
 30
0.0
 11
437.8702057788745
 21
239.7559750068797
 31
0.0
  0
LINE
  5
CC
330
70
100
AcDbEntity
  8
shade
 62
     6
420
 16711935
370
    25
100
AcDbLine
 10
437.8702057788745
 20
239.7559750068797
 30
0.0
 11
437.6750530699617
 21
239.5614218154551
 31
0.0
  0
LINE
  5
CD
330
70
100
AcDbEntity
  8
shade
 62
     6
420
 16711935
370
    25
100
AcDbLine
 10
437.6750530699617
 20
239.5614218154551
 30
0.0
 11
437.6785522178451
 21
239.7559750068797
 31
0.0
  0
LINE
  5
CE
330
70
100
AcDbEntity
  8
shade
 62
     6
420
 16711935
370
    25
100
AcDbLine
 10
437.6785522178451
 20
239.7559750068797
 30
0.0
 11
437.482289102347
 21
239.5614218154551
 31
0.0
  0
LINE
  5
CF
330
70
100
AcDbEntity
  8
shade
 62
     6
420
 16711935
370
    25
100
AcDbLine
 10
437.482289102347
 20
239.5614218154551
 30
0.0
 11
437.4989045052404
 21
239.7559750068797
 31
0.0
  0
LINE
  5
D0
330
70
100
AcDbEntity
  8
shade
 62
     6
420
 16711935
370
    25
100
AcDbLine
 10
437.4989045052404
 20
239.7559750068797
 30
0.0
 11
437.3024075418085
 21
239.5614218154551
 31
0.0
  0
LINE
  5
D1
330
70
100
AcDbEntity
  8
shade
 62
     6
420
 16711935
370
    25
100
AcDbLine
 10
437.3024075418085
 20
239.5614218154551
 30
0.0
 11
437.3320649912529
 21
239.7559750068797
 31
0.0
  0
LINE
  5
D2
330
70
100
AcDbEntity
  8
shade
 62
     6
420
 16711935
370
    25
100
AcDbLine
 10
437.3320649912529
 20
239.7559750068797
 30
0.0
 11
437.1362117830726
 21
239.5614218154551
 31
0.0
  0
LINE
  5
D3
330
70
100
AcDbEntity
  8
shade
 62
     6
420
 16711935
370
    25
100
AcDbLine
 10
437.1362117830726
 20
239.5614218154551
 30
0.0
 11
437.1787788217812
 21
239.7559750068797
 31
0.0
  0
LINE
  5
D4
330
70
100
AcDbEntity
  8
shade
 62
     6
420
 16711935
370
    25
100
AcDbLine
 10
437.1787788217812
 20
239.7559750068797
 30
0.0
 11
436.9844440967792
 21
239.5614218154551
 31
0.0
  0
LINE
  5
D5
330
70
100
AcDbEntity
  8
shade
 62
     6
420
 16711935
370
    25
100
AcDbLine
 10
436.9844440967792
 20
239.5614218154551
 30
0.0
 11
437.0397306098953
 21
239.7559750068797
 31
0.0
  0
LINE
  5
D6
330
70
100
AcDbEntity
  8
shade
 62
     6
420
 16711935
370
    25
100
AcDbLine
 10
437.0397306098953
 20
239.7559750068797
 30
0.0
 11
436.8477823142171
 21
239.5614218154551
 31
0.0
  0
LINE
  5
D7
330
70
100
AcDbEntity
  8
shade
 62
     6
420
 16711935
370
    25
100
AcDbLine
 10
436.8477823142171
 20
239.5614218154551
 30
0.0
 11
436.9155413788228
 21
239.7559750068797
 31
0.0
  0
LINE
  5
D8
330
70
100
AcDbEntity
  8
shade
 62
     6
420
 16711935
370
    25
100
AcDbLine
 10
436.9155413788228
 20
239.7559750068797
 30
0.0
 11
436.7268368000765
 21
239.5614218154551
 31
0.0
  0
LINE
  5
D9
330
70
100
AcDbEntity
  8
shade
 62
     6
420
 16711935
370
    25
100
AcDbLine
 10
436.7268368000765
 20
239.5614218154551
 30
0.0
 11
436.8067657877295
 21
239.7559750068797
 31
0.0
  0
LINE
  5
DA
330
70
100
AcDbEntity
  8
shade
 62
     6
420
 16711935
370
    25
100
AcDbLine
 10
436.8067657877295
 20
239.7559750068797
 30
0.0
 11
436.6221477264306
 21
239.5614218154551
 31
0.0
  0
LINE
  5
DB
330
70
100
AcDbEntity
  8
shade
 62
     6
420
 16711935
370
    25
100
AcDbLine
 10
436.6221477264306
 20
239.5614218154551
 30
0.0
 11
436.7138896548873
 21
239.7559750068797
 31
0.0
  0
LINE
  5
DC
330
70
100
AcDbEntity
  8
shade
 62
     6
420
 16711935
370
    25
100
AcDbLine
 10
436.7138896548873
 20
239.7559750068797
 30
0.0
 11
436.5341826600449
 21
239.5614218154551
 31
0.0
  0
LINE
  5
DD
330
70
100
AcDbEntity
  8
shade
 62
     6
420
 16711935
370
    25
100
AcDbLine
 10
436.5341826600449
 20
239.5614218154551
 30
0.0
 11
436.6373277875758
 21
239.7559750068797
 31
0.0
  0
LINE
  5
DE
330
70
100
AcDbEntity
  8
shade
 62
     6
420
 16711935
370
    25
100
AcDbLine
 10
436.6373277875758
 20
239.7559750068797
 30
0.0
 11
436.4633344742708
 21
239.5614218154551
 31
0.0
  0
LINE
  5
DF
330
70
100
AcDbEntity
  8
shade
 62
     6
420
 16711935
370
    25
100
AcDbLine
 10
436.4633344742708
 20
239.5614218154551
 30
0.0
 11
436.5774221296537
 21
239.7559750068797
 31
0.0
  0
LINE
  5
E0
330
70
100
AcDbEntity
  8
shade
 62
     6
420
 16711935
370
    25
100
AcDbLine
 10
436.5774221296537
 20
239.7559750068797
 30
0.0
 11
436.409919594314
 21
239.5614218154551
 31
0.0
  0
LINE
  5
E1
330
70
100
AcDbEntity
  8
shade
 62
     6
420
 16711935
370
    25
100
AcDbLine
 10
436.409919594314
 20
239.5614218154551
 30
0.0
 11
436.5344402344522
 21
239.7559750068797
 31
0.0
  0
LINE
  5
E2
330
70
100
AcDbEntity
  8
shade
 62
     6
420
 16711935
370
    25
100
AcDbLine
 10
436.5344402344522
 20
239.7559750068797
 30
0.0
 11
436.3741765839842
 21
239.5614218154551
 31
0.0
  0
LINE
  5
E3
330
70
100
AcDbEntity
  8
shade
 62
     6
420
 16711935
370
    25
100
AcDbLine
 10
436.3741765839842
 20
239.5614218154551
 30
0.0
 11
436.5085740693916
 21
239.7559750068797
 31
0.0
  0
LINE
  5
E4
330
70
100
AcDbEntity
  8
shade
 62
     6
420
 16711935
370
    25
100
AcDbLine
 10
436.5085740693916
 20
239.7559750068797
 30
0.0
 11
436.3562650802393
 21
239.5614218154551
 31
0.0
  0
LINE
  5
E5
330
70
100
AcDbEntity
  8
shade
 62
     6
420
 16711935
370
    25
100
AcDbLine
 10
436.3562650802393
 20
239.5614218154551
 30
0.0
 11
436.499939159195
 21
239.7559750068797
 31
0.0
  0
LWPOLYLINE
  5
E6
330
70
100
AcDbEntity
  8
shade
 62
     6
420
 16711935
370
    25
100
AcDbPolyline
 90
       48
 70
     0
 43
0.0
 10
440.3666838390775
 20
239.8532516026151
 10
440.2374766545094
 20
239.7559750068797
 10
440.1733873782418
 20
239.8532516026151
 10
439.9796393560065
 20
239.7559750068797
 10
439.9809542261917
 20
239.8532516026151
 10
439.7235306921274
 20
239.7559750068797
 10
439.7902438363297
 20
239.8532516026151
 10
439.4702945063055
 20
239.7559750068797
 10
439.6021079674134
 20
239.8532516026151
 10
439.2210618129221
 20
239.7559750068797
 10
439.4173868799962
 20
239.8532516026151
 10
438.9769457455854
 20
239.7559750068797
 10
439.2369055831835
 20
239.8532516026151
 10
438.7390365858882
 20
239.7559750068797
 10
439.0614701503799
 20
239.8532516026151
 10
438.5083968939838
 20
239.7559750068797
 10
438.891864118726
 20
239.8532516026151
 10
438.2860567626308
 20
239.7559750068797
 10
438.7288449899359
 20
239.8532516026151
 10
438.073009216916
 20
239.7559750068797
 10
438.5731408470989
 20
239.8532516026151
 10
437.8702057788745
 20
239.7559750068797
 10
438.4254471025982
 20
239.8532516026151
 10
437.6785522178913
 20
239.7559750068797
 10
438.2864233925745
 20
239.8532516026151
 10
437.4989045052404
 20
239.7559750068797
 10
438.1566906307476
 20
239.8532516026151
 10
437.3320649912529
 20
239.7559750068797
 10
438.0368282350676
 20
239.8532516026151
 10
437.1787788217812
 20
239.7559750068797
 10
437.9273715401381
 20
239.8532516026151
 10
437.0397306098953
 20
239.7559750068797
 10
437.8288094059501
 20
239.8532516026151
 10
436.9155413788228
 20
239.7559750068797
 10
437.7415820351944
 20
239.8532516026151
 10
436.8067657877295
 20
239.7559750068797
 10
437.6660790062892
 20
239.8532516026151
 10
436.7138896548873
 20
239.7559750068797
 10
437.6026375342158
 20
239.8532516026151
 10
436.6373277875758
 20
239.7559750068797
 10
437.5515409638282
 20
239.8532516026151
 10
436.5774221296537
 20
239.7559750068797
 10
437.5130175050226
 20
239.8532516026151
 10
436.5344402344522
 20
239.7559750068797
 10
437.4872392126492
 20
239.8532516026151
 10
436.5085740693916
 20
239.7559750068797
 10
437.4743212190908
 20
239.8532516026151
 10
436.499939159195
 20
239.7559750068797
  0
LINE
  5
E7
330
70
100
AcDbEntity
  8
shade
 62
     6
420
 16711935
370
    25
100
AcDbLine
 10
440.3666838390775
 20
239.5614218154551
 30
0.0
 11
440.3666838390775
 21
238.6969383312729
 31
0.0
  0
LINE
  5
E8
330
70
100
AcDbEntity
  8
shade
 62
     6
420
 16711935
370
    25
100
AcDbLine
 10
440.0986677378719
 20
239.5614218154551
 30
0.0
 11
440.1084137779442
 21
238.6969383312729
 31
0.0
  0
LINE
  5
E9
330
70
100
AcDbEntity
  8
shade
 62
     6
420
 16711935
370
    25
100
AcDbLine
 10
439.831848661593
 20
239.5614218154551
 30
0.0
 11
439.8512972134834
 21
238.6969383312729
 31
0.0
  0
LINE
  5
EA
330
70
100
AcDbEntity
  8
shade
 62
     6
420
 16711935
370
    25
100
AcDbLine
 10
439.5674182890721
 20
239.5614218154551
 30
0.0
 11
439.5964824908863
 21
238.6969383312729
 31
0.0
  0
LINE
  5
EB
330
70
100
AcDbEntity
  8
shade
 62
     6
420
 16711935
370
    25
100
AcDbLine
 10
439.3451076744518
 20
238.6969383312729
 30
0.0
 11
439.3065576304848
 21
239.5614218154551
 31
0.0
  0
LINE
  5
EC
330
70
100
AcDbEntity
  8
shade
 62
     6
420
 16711935
370
    25
100
AcDbLine
 10
439.0504317529487
 20
239.5614218154551
 30
0.0
 11
439.0982954651881
 21
238.6969383312729
 31
0.0
  0
LINE
  5
ED
330
70
100
AcDbEntity
  8
shade
 62
     6
420
 16711935
370
    25
100
AcDbLine
 10
438.857148186264
 20
238.6969383312729
 30
0.0
 11
438.8001845767171
 21
239.5614218154551
 31
0.0
  0
LINE
  5
EE
330
70
100
AcDbEntity
  8
shade
 62
     6
420
 16711935
370
    25
100
AcDbLine
 10
438.556933766503
 20
239.5614218154551
 30
0.0
 11
438.6227428600659
 21
238.6969383312729
 31
0.0
  0
LINE
  5
EF
330
70
100
AcDbEntity
  8
shade
 62
     6
420
 16711935
370
    25
100
AcDbLine
 10
438.3961263975554
 20
238.6969383312729
 30
0.0
 11
438.3217657393613
 21
239.5614218154551
 31
0.0
  0
LINE
  5
F0
330
70
100
AcDbEntity
  8
shade
 62
     6
420
 16711935
370
    25
100
AcDbLine
 10
438.0957308129385
 20
239.5614218154551
 30
0.0
 11
438.1783109230013
 21
238.6969383312729
 31
0.0
  0
LINE
  5
F1
330
70
100
AcDbEntity
  8
shade
 62
     6
420
 16711935
370
    25
100
AcDbLine
 10
437.9702692530853
 20
238.6969383312729
 30
0.0
 11
437.8798385139947
 21
239.5614218154551
 31
0.0
  0
LINE
  5
F2
330
70
100
AcDbEntity
  8
shade
 62
     6
420
 16711935
370
    25
100
AcDbLine
 10
437.6750530699617
 20
239.5614218154551
 30
0.0
 11
437.7729305524415
 21
238.6969383312729
 31
0.0
  0
LINE
  5
F3
330
70
100
AcDbEntity
  8
shade
 62
     6
420
 16711935
370
    25
100
AcDbLine
 10
437.5871761836814
 20
238.6969383312729
 30
0.0
 11
437.482289102347
 21
239.5614218154551
 31
0.0
  0
LINE
  5
F4
330
70
100
AcDbEntity
  8
shade
 62
     6
420
 16711935
370
    25
100
AcDbLine
 10
437.3024075418085
 20
239.5614218154551
 30
0.0
 11
437.4138357708385
 21
238.6969383312729
 31
0.0
  0
LINE
  5
F5
330
70
100
AcDbEntity
  8
shade
 62
     6
420
 16711935
370
    25
100
AcDbLine
 10
437.2536834941986
 20
238.6969383312729
 30
0.0
 11
437.1362117830726
 21
239.5614218154551
 31
0.0
  0
LINE
  5
F6
330
70
100
AcDbEntity
  8
shade
 62
     6
420
 16711935
370
    25
100
AcDbLine
 10
436.9844440967792
 20
239.5614218154551
 30
0.0
 11
437.1074346328891
 21
238.6969383312729
 31
0.0
  0
LINE
  5
F7
330
70
100
AcDbEntity
  8
shade
 62
     6
420
 16711935
370
    25
100
AcDbLine
 10
436.9757423697023
 20
238.6969383312729
 30
0.0
 11
436.8477823142171
 21
239.5614218154551
 31
0.0
  0
LINE
  5
F8
330
70
100
AcDbEntity
  8
shade
 62
     6
420
 16711935
370
    25
100
AcDbLine
 10
436.7268368000765
 20
239.5614218154551
 30
0.0
 11
436.8591948742205
 21
238.6969383312729
 31
0.0
  0
LINE
  5
F9
330
70
100
AcDbEntity
  8
shade
 62
     6
420
 16711935
370
    25
100
AcDbLine
 10
436.7583126760075
 20
238.6969383312729
 30
0.0
 11
436.6221477264306
 21
239.5614218154551
 31
0.0
  0
LINE
  5
FA
330
70
100
AcDbEntity
  8
shade
 62
     6
420
 16711935
370
    25
100
AcDbLine
 10
436.5341826600449
 20
239.5614218154551
 30
0.0
 11
436.6735463392671
 21
238.6969383312729
 31
0.0
  0
LINE
  5
FB
330
70
100
AcDbEntity
  8
shade
 62
     6
420
 16711935
370
    25
100
AcDbLine
 10
436.6052744511434
 20
238.6969383312729
 30
0.0
 11
436.4633344742708
 21
239.5614218154551
 31
0.0
  0
LINE
  5
FC
330
70
100
AcDbEntity
  8
shade
 62
     6
420
 16711935
370
    25
100
AcDbLine
 10
436.409919594314
 20
239.5614218154551
 30
0.0
 11
436.5538019305372
 21
238.6969383312729
 31
0.0
  0
LINE
  5
FD
330
70
100
AcDbEntity
  8
shade
 62
     6
420
 16711935
370
    25
100
AcDbLine
 10
436.5193586660319
 20
238.6969383312729
 30
0.0
 11
436.3741765839842
 21
239.5614218154551
 31
0.0
  0
LINE
  5
FE
330
70
100
AcDbEntity
  8
shade
 62
     6
420
 16711935
370
    25
100
AcDbLine
 10
436.3562650802393
 20
239.5614218154551
 30
0.0
 11
436.5020984896766
 21
238.6969383312729
 31
0.0
  0
LINE
  5
FF
330
70
100
AcDbEntity
  8
shade
 62
     6
420
 16711935
370
    25
100
AcDbLine
 10
436.499939159195
 20
238.6969383312729
 30
0.0
 11
436.7115307458425
 21
238.502385139848
 31
0.0
  0
LWPOLYLINE
  5
100
330
70
100
AcDbEntity
  8
shade
 62
     6
420
 16711935
370
    25
100
AcDbPolyline
 90
        6
 70
     0
 43
0.0
 10
440.3666838390775
 20
238.6969383312729
 10
440.2374766545094
 20
238.502385139848
 10
440.1084137779442
 20
238.6969383312729
 10
440.000818762247
 20
238.502385139848
 10
439.8512972134834
 20
238.6969383312729
 10
439.758724584183
 20
238.502385139848
  0
LWPOLYLINE
  5
101
330
70
100
AcDbEntity
  8
shade
 62
     6
420
 16711935
370
    25
100
AcDbPolyline
 90
       41
 70
     0
 43
0.0
 10
439.758724584183
 20
238.502385139848
 10
439.5964824908863
 20
238.6969383312729
 10
439.4702945063055
 20
238.502385139848
 10
439.3451076744518
 20
238.6969383312729
 10
439.2210618129221
 20
238.502385139848
 10
439.0982954651881
 20
238.6969383312729
 10
438.9769457455854
 20
238.502385139848
 10
438.857148186264
 20
238.6969383312729
 10
438.7390365858882
 20
238.502385139848
 10
438.6227428600659
 20
238.6969383312729
 10
438.5083968939838
 20
238.502385139848
 10
438.3961263975554
 20
238.6969383312729
 10
438.2860567626308
 20
238.502385139848
 10
438.1783109230013
 20
238.6969383312729
 10
438.073009216916
 20
238.502385139848
 10
437.9702692531308
 20
238.6969383312729
 10
437.8702057788745
 20
238.502385139848
 10
437.7729305524415
 20
238.6969383312729
 10
437.6785522178457
 20
238.502385139848
 10
437.5871761836814
 20
238.6969383312729
 10
437.4981219384237
 20
238.502385139848
 10
437.4138357708385
 20
238.6969383312729
 10
437.3532237196061
 20
238.502385139848
 10
437.2536834941986
 20
238.6969383312729
 10
437.2217843452109
 20
238.502385139848
 10
437.1074346328891
 20
238.6969383312729
 10
437.1043908554563
 20
238.502385139848
 10
436.9757423697023
 20
238.6969383312729
 10
437.0015675580081
 20
238.502385139848
 10
436.8591948742205
 20
238.6969383312729
 10
436.913773686802
 20
238.502385139848
 10
436.7583126760075
 20
238.6969383312729
 10
436.8414013505582
 20
238.502385139848
 10
436.6735463392671
 20
238.6969383312729
 10
436.7847737816707
 20
238.502385139848
 10
436.6052744511434
 20
238.6969383312729
 10
436.7441438925996
 20
238.502385139848
 10
436.5538019305372
 20
238.6969383312729
 10
436.7196931463705
 20
238.502385139848
 10
436.5193586660319
 20
238.6969383312729
 10
436.7115307458425
 20
238.502385139848
  0
LINE
  5
102
330
70
100
AcDbEntity
  8
shade
 62
     6
420
 16711935
370
    25
100
AcDbLine
 10
436.9535104209639
 20
238.5680555278749
 30
0.0
 11
427.9946636985821
 21
223.0730388408422
 31
0.0
  0
LINE
  5
103
330
70
100
AcDbEntity
  8
shade
 62
     6
420
 16711935
370
    25
100
AcDbLine
 10
436.5842299656528
 20
238.6194350351185
 30
0.0
 11
426.5357242874435
 21
223.0730388408422
 31
0.0
  0
LINE
  5
104
330
70
100
AcDbEntity
  8
shade
 62
     6
420
 16711935
370
    25
100
AcDbLine
 10
440.0505349030289
 20
219.5783991819244
 30
0.0
 11
440.0505349030289
 21
222.9186311056796
 31
0.0
  0
LINE
  5
105
330
70
100
AcDbEntity
  8
shade
 62
     6
420
 16711935
370
    25
100
AcDbLine
 10
440.0140561796052
 20
219.5783991819244
 30
0.0
 11
440.7193114985948
 21
219.5783991819244
 31
0.0
  0
LWPOLYLINE
  5
106
330
70
100
AcDbEntity
  8
shade
 62
     6
420
 16711935
370
    25
100
AcDbPolyline
 90
       48
 70
     0
 43
0.0
 10
440.3666838390775
 20
222.5866558622573
 10
440.8298794064463
 20
223.0730388408422
 10
441.2523303060644
 20
222.5866558622573
 10
441.7542017972738
 20
223.0730388408422
 10
442.1340212609075
 20
222.5866558622573
 10
442.6723271960707
 20
223.0730388408422
 10
443.0078188577557
 20
222.5866558622573
 10
443.5801550319777
 20
223.0730388408422
 10
443.8698205045054
 20
222.5866558622573
 10
444.4736307253958
 20
223.0730388408422
 10
444.7161762924496
 20
222.5866558622573
 10
445.3487637970209
 20
223.0730388408422
 10
445.5431061913075
 20
222.5866558622573
 10
446.2016456901572
 20
223.0730388408422
 10
446.3469169313313
 20
222.5866558622573
 10
447.0284672272402
 20
223.0730388408422
 10
447.1240184986212
 20
222.5866558622573
 10
447.8255356225182
 20
223.0730388408422
 10
447.8709401690548
 20
222.5866558622573
 10
448.5892909750701
 20
223.0730388408422
 10
448.5843460088776
 20
222.5866558622573
 10
449.3163221681021
 20
223.0730388408422
 10
449.2610497746421
 20
222.5866558622573
 10
450.0033821037726
 20
223.0730388408422
 10
449.8980291430154
 20
222.5866558622573
 10
450.6474022057161
 20
223.0730388408422
 10
450.4924392095076
 20
222.5866558622573
 10
451.2455061236918
 20
223.0730388408422
 10
451.0416251944231
 20
222.5866558622573
 10
451.7950225804027
 20
223.0730388408422
 10
451.5431342998863
 20
222.5866558622573
 10
452.2934973021415
 20
223.0730388408422
 10
451.9947266644066
 20
222.5866558622573
 10
452.7387039796186
 20
223.0730388408422
 10
452.3943853669757
 20
222.5866558622573
 10
453.1286542118212
 20
223.0730388408422
 10
452.7403254347562
 20
222.5866558622573
 10
453.4616063863322
 20
223.0730388408422
 10
453.0310018153406
 20
222.5866558622573
 10
453.7360734578508
 20
223.0730388408422
 10
453.2651162776076
 20
222.5866558622573
 10
453.9508295899252
 20
223.0730388408422
 10
453.4416232094857
 20
222.5866558622573
 10
454.1049156294176
 20
223.0730388408422
 10
453.5597342881441
 20
222.5866558622573
 10
454.1976433908026
 20
223.0730388408422
 10
453.6189220007594
 20
222.5866558622573
 10
454.2285987292494
 20
223.0730388408422
  0
LINE
  5
107
330
70
100
AcDbEntity
  8
shade
 62
     6
420
 16711935
370
    25
100
AcDbLine
 10
440.495891023645
 20
238.502385139848
 30
0.0
 11
440.8298794064463
 21
223.0730388408422
 31
0.0
  0
LINE
  5
108
330
70
100
AcDbEntity
  8
shade
 62
     6
420
 16711935
370
    25
100
AcDbLine
 10
441.7542017972738
 20
223.0730388408422
 30
0.0
 11
440.7537283221024
 21
238.502385139848
 31
0.0
  0
LINE
  5
109
330
70
100
AcDbEntity
  8
shade
 62
     6
420
 16711935
370
    25
100
AcDbLine
 10
441.0098369860726
 20
238.502385139848
 30
0.0
 11
442.6723271960707
 21
223.0730388408422
 31
0.0
  0
LINE
  5
10A
330
70
100
AcDbEntity
  8
shade
 62
     6
420
 16711935
370
    25
100
AcDbLine
 10
443.5801550319777
 20
223.0730388408422
 30
0.0
 11
441.2630731718495
 21
238.502385139848
 31
0.0
  0
LINE
  5
10B
330
70
100
AcDbEntity
  8
shade
 62
     6
420
 16711935
370
    25
100
AcDbLine
 10
441.5123058652331
 20
238.502385139848
 30
0.0
 11
444.4736307253958
 21
223.0730388408422
 31
0.0
  0
LINE
  5
10C
330
70
100
AcDbEntity
  8
shade
 62
     6
420
 16711935
370
    25
100
AcDbLine
 10
441.7564219326608
 20
238.502385139848
 30
0.0
 11
445.3487637970209
 21
223.0730388408422
 31
0.0
  0
LINE
  5
10D
330
70
100
AcDbEntity
  8
shade
 62
     6
420
 16711935
370
    25
100
AcDbLine
 10
446.2016456901572
 20
223.0730388408422
 30
0.0
 11
441.9943310922662
 21
238.502385139848
 31
0.0
  0
LINE
  5
10E
330
70
100
AcDbEntity
  8
shade
 62
     6
420
 16711935
370
    25
100
AcDbLine
 10
442.2249707842625
 20
238.502385139848
 30
0.0
 11
447.0284672272402
 21
223.0730388408422
 31
0.0
  0
LINE
  5
10F
330
70
100
AcDbEntity
  8
shade
 62
     6
420
 16711935
370
    25
100
AcDbLine
 10
447.8255356225182
 20
223.0730388408422
 30
0.0
 11
442.4473109155692
 21
238.502385139848
 31
0.0
  0
LINE
  5
110
330
70
100
AcDbEntity
  8
shade
 62
     6
420
 16711935
370
    25
100
AcDbLine
 10
442.6603584612386
 20
238.502385139848
 30
0.0
 11
448.5892909750701
 21
223.0730388408422
 31
0.0
  0
LINE
  5
111
330
70
100
AcDbEntity
  8
shade
 62
     6
420
 16711935
370
    25
100
AcDbLine
 10
442.8631618992799
 20
238.502385139848
 30
0.0
 11
449.3163221681021
 21
223.0730388408422
 31
0.0
  0
LINE
  5
112
330
70
100
AcDbEntity
  8
shade
 62
     6
420
 16711935
370
    25
100
AcDbLine
 10
450.0033821037726
 20
223.0730388408422
 30
0.0
 11
443.0548154603549
 21
238.502385139848
 31
0.0
  0
LINE
  5
113
330
70
100
AcDbEntity
  8
shade
 62
     6
420
 16711935
370
    25
100
AcDbLine
 10
443.1436208448857
 20
238.6914650352991
 30
0.0
 11
450.6474022057155
 21
223.0730388408422
 31
0.0
  0
LINE
  5
114
330
70
100
AcDbEntity
  8
shade
 62
     6
420
 16711935
370
    25
100
AcDbLine
 10
451.2455061236918
 20
223.0730388408422
 30
0.0
 11
443.3907569263289
 21
238.5231283794296
 31
0.0
  0
LINE
  5
115
330
70
100
AcDbEntity
  8
shade
 62
     6
420
 16711935
370
    25
100
AcDbLine
 10
443.5341150123859
 20
238.5407202615558
 30
0.0
 11
451.7950225804027
 21
223.0730388408422
 31
0.0
  0
LINE
  5
116
330
70
100
AcDbEntity
  8
shade
 62
     6
420
 16711935
370
    25
100
AcDbLine
 10
452.2934973021415
 20
223.0730388408422
 30
0.0
 11
443.6640629065597
 21
238.5554453024731
 31
0.0
  0
LINE
  5
117
330
70
100
AcDbEntity
  8
shade
 62
     6
420
 16711935
370
    25
100
AcDbLine
 10
453.1286542118212
 20
223.0730388408422
 30
0.0
 11
443.8808684708936
 21
238.5790676822189
 31
0.0
  0
LINE
  5
118
330
70
100
AcDbEntity
  8
shade
 62
     6
420
 16711935
370
    25
100
AcDbLine
 10
443.9828307108713
 20
238.5622703746531
 30
0.0
 11
453.4616063863322
 21
223.0730388408422
 31
0.0
  0
LINE
  5
119
330
70
100
AcDbEntity
  8
shade
 62
     6
420
 16711935
370
    25
100
AcDbLine
 10
453.7360734578508
 20
223.0730388408422
 30
0.0
 11
444.0461829087252
 21
238.5821836835604
 31
0.0
  0
LINE
  5
11A
330
70
100
AcDbEntity
  8
shade
 62
     6
420
 16711935
370
    25
100
AcDbLine
 10
444.0952284049263
 20
238.5980295427062
 30
0.0
 11
453.9508295899252
 21
223.0730388408422
 31
0.0
  0
LINE
  5
11B
330
70
100
AcDbEntity
  8
shade
 62
     6
420
 16711935
370
    25
100
AcDbLine
 10
454.1049156294176
 20
223.0730388408422
 30
0.0
 11
444.1291659761755
 21
238.6110440461334
 31
0.0
  0
LINE
  5
11C
330
70
100
AcDbEntity
  8
shade
 62
     6
420
 16711935
370
    25
100
AcDbLine
 10
454.2285987292494
 20
223.0730388408422
 30
0.0
 11
444.1544431649971
 21
238.624313266424
 31
0.0
  0
LINE
  5
11D
330
70
100
AcDbEntity
  8
shade
 62
     6
420
 16711935
370
    25
100
AcDbLine
 10
440.3666838390775
 20
239.5614218154551
 30
0.0
 11
440.495891023645
 21
239.7559750068797
 31
0.0
  0
LINE
  5
11E
330
70
100
AcDbEntity
  8
shade
 62
     6
420
 16711935
370
    25
100
AcDbLine
 10
440.495891023645
 20
239.7559750068797
 30
0.0
 11
440.6346999403282
 21
239.5614218154551
 31
0.0
  0
LINE
  5
11F
330
70
100
AcDbEntity
  8
shade
 62
     6
420
 16711935
370
    25
100
AcDbLine
 10
440.6346999403282
 20
239.5614218154551
 30
0.0
 11
440.7537283221024
 21
239.7559750068797
 31
0.0
  0
LINE
  5
120
330
70
100
AcDbEntity
  8
shade
 62
     6
420
 16711935
370
    25
100
AcDbLine
 10
440.7537283221024
 20
239.7559750068797
 30
0.0
 11
440.9015190165614
 21
239.5614218154551
 31
0.0
  0
LINE
  5
121
330
70
100
AcDbEntity
  8
shade
 62
     6
420
 16711935
370
    25
100
AcDbLine
 10
440.9015190165614
 20
239.5614218154551
 30
0.0
 11
441.0098369860726
 21
239.7559750068797
 31
0.0
  0
LINE
  5
122
330
70
100
AcDbEntity
  8
shade
 62
     6
420
 16711935
370
    25
100
AcDbLine
 10
441.0098369860726
 20
239.7559750068797
 30
0.0
 11
441.1659493891741
 21
239.5614218154551
 31
0.0
  0
LINE
  5
123
330
70
100
AcDbEntity
  8
shade
 62
     6
420
 16711935
370
    25
100
AcDbLine
 10
441.1659493891741
 20
239.5614218154551
 30
0.0
 11
441.2630731718495
 21
239.7559750068797
 31
0.0
  0
LINE
  5
124
330
70
100
AcDbEntity
  8
shade
 62
     6
420
 16711935
370
    25
100
AcDbLine
 10
441.2630731718495
 20
239.7559750068797
 30
0.0
 11
441.4268100476703
 21
239.5614218154551
 31
0.0
  0
LINE
  5
125
330
70
100
AcDbEntity
  8
shade
 62
     6
420
 16711935
370
    25
100
AcDbLine
 10
441.4268100476703
 20
239.5614218154551
 30
0.0
 11
441.5123058652331
 21
239.7559750068797
 31
0.0
  0
LINE
  5
126
330
70
100
AcDbEntity
  8
shade
 62
     6
420
 16711935
370
    25
100
AcDbLine
 10
441.5123058652331
 20
239.7559750068797
 30
0.0
 11
441.6829359252058
 21
239.5614218154551
 31
0.0
  0
LINE
  5
127
330
70
100
AcDbEntity
  8
shade
 62
     6
420
 16711935
370
    25
100
AcDbLine
 10
441.6829359252058
 20
239.5614218154551
 30
0.0
 11
441.7564219326608
 21
239.7559750068797
 31
0.0
  0
LINE
  5
128
330
70
100
AcDbEntity
  8
shade
 62
     6
420
 16711935
370
    25
100
AcDbLine
 10
441.7564219326608
 20
239.7559750068797
 30
0.0
 11
441.9331831014373
 21
239.5614218154551
 31
0.0
  0
LINE
  5
129
330
70
100
AcDbEntity
  8
shade
 62
     6
420
 16711935
370
    25
100
AcDbLine
 10
441.9331831014373
 20
239.5614218154551
 30
0.0
 11
441.9943310922662
 21
239.7559750068797
 31
0.0
  0
LINE
  5
12A
330
70
100
AcDbEntity
  8
shade
 62
     6
420
 16711935
370
    25
100
AcDbLine
 10
441.9943310922662
 20
239.7559750068797
 30
0.0
 11
442.1764339116522
 21
239.5614218154551
 31
0.0
  0
LINE
  5
12B
330
70
100
AcDbEntity
  8
shade
 62
     6
420
 16711935
370
    25
100
AcDbLine
 10
442.1764339116522
 20
239.5614218154551
 30
0.0
 11
442.2249707842625
 21
239.7559750068797
 31
0.0
  0
LINE
  5
12C
330
70
100
AcDbEntity
  8
shade
 62
     6
420
 16711935
370
    25
100
AcDbLine
 10
442.2249707842625
 20
239.7559750068797
 30
0.0
 11
442.4116019387932
 21
239.5614218154551
 31
0.0
  0
LINE
  5
12D
330
70
100
AcDbEntity
  8
shade
 62
     6
420
 16711935
370
    25
100
AcDbLine
 10
442.4116019387932
 20
239.5614218154551
 30
0.0
 11
442.4473109155692
 21
239.7559750068797
 31
0.0
  0
LINE
  5
12E
330
70
100
AcDbEntity
  8
shade
 62
     6
420
 16711935
370
    25
100
AcDbLine
 10
442.4473109155692
 20
239.7559750068797
 30
0.0
 11
442.6376368652622
 21
239.5614218154551
 31
0.0
  0
LINE
  5
12F
330
70
100
AcDbEntity
  8
shade
 62
     6
420
 16711935
370
    25
100
AcDbLine
 10
442.6376368652622
 20
239.5614218154551
 30
0.0
 11
442.6603584612386
 21
239.7559750068797
 31
0.0
  0
LINE
  5
130
330
70
100
AcDbEntity
  8
shade
 62
     6
420
 16711935
370
    25
100
AcDbLine
 10
442.6603584612386
 20
239.7559750068797
 30
0.0
 11
442.8535291642059
 21
239.5614218154551
 31
0.0
  0
LINE
  5
131
330
70
100
AcDbEntity
  8
shade
 62
     6
420
 16711935
370
    25
100
AcDbLine
 10
442.8535291642059
 20
239.5614218154551
 30
0.0
 11
442.8631618992799
 21
239.7559750068797
 31
0.0
  0
LINE
  5
132
330
70
100
AcDbEntity
  8
shade
 62
     6
420
 16711935
370
    25
100
AcDbLine
 10
442.8631618992799
 20
239.7559750068797
 30
0.0
 11
443.0583146082845
 21
239.5614218154551
 31
0.0
  0
LINE
  5
133
330
70
100
AcDbEntity
  8
shade
 62
     6
420
 16711935
370
    25
100
AcDbLine
 10
443.0583146082845
 20
239.5614218154551
 30
0.0
 11
443.0548154603549
 21
239.7559750068797
 31
0.0
  0
LINE
  5
134
330
70
100
AcDbEntity
  8
shade
 62
     6
420
 16711935
370
    25
100
AcDbLine
 10
443.0548154603549
 20
239.7559750068797
 30
0.0
 11
443.2510785758075
 21
239.5614218154551
 31
0.0
  0
LINE
  5
135
330
70
100
AcDbEntity
  8
shade
 62
     6
420
 16711935
370
    25
100
AcDbLine
 10
443.2510785758075
 20
239.5614218154551
 30
0.0
 11
443.2344631729603
 21
239.7559750068797
 31
0.0
  0
LINE
  5
136
330
70
100
AcDbEntity
  8
shade
 62
     6
420
 16711935
370
    25
100
AcDbLine
 10
443.2344631729603
 20
239.7559750068797
 30
0.0
 11
443.4309601363915
 21
239.5614218154551
 31
0.0
  0
LINE
  5
137
330
70
100
AcDbEntity
  8
shade
 62
     6
420
 16711935
370
    25
100
AcDbLine
 10
443.4309601363915
 20
239.5614218154551
 30
0.0
 11
443.4013026869021
 21
239.7559750068797
 31
0.0
  0
LINE
  5
138
330
70
100
AcDbEntity
  8
shade
 62
     6
420
 16711935
370
    25
100
AcDbLine
 10
443.4013026869021
 20
239.7559750068797
 30
0.0
 11
443.5971558950818
 21
239.5614218154551
 31
0.0
  0
LINE
  5
139
330
70
100
AcDbEntity
  8
shade
 62
     6
420
 16711935
370
    25
100
AcDbLine
 10
443.5971558950818
 20
239.5614218154551
 30
0.0
 11
443.5545888564188
 21
239.7559750068797
 31
0.0
  0
LINE
  5
13A
330
70
100
AcDbEntity
  8
shade
 62
     6
420
 16711935
370
    25
100
AcDbLine
 10
443.5545888564188
 20
239.7559750068797
 30
0.0
 11
443.7489235813753
 21
239.5614218154551
 31
0.0
  0
LINE
  5
13B
330
70
100
AcDbEntity
  8
shade
 62
     6
420
 16711935
370
    25
100
AcDbLine
 10
443.7489235813753
 20
239.5614218154551
 30
0.0
 11
443.6936370682591
 21
239.7559750068797
 31
0.0
  0
LINE
  5
13C
330
70
100
AcDbEntity
  8
shade
 62
     6
420
 16711935
370
    25
100
AcDbLine
 10
443.6936370682591
 20
239.7559750068797
 30
0.0
 11
443.8855853639373
 21
239.5614218154551
 31
0.0
  0
LINE
  5
13D
330
70
100
AcDbEntity
  8
shade
 62
     6
420
 16711935
370
    25
100
AcDbLine
 10
443.8855853639373
 20
239.5614218154551
 30
0.0
 11
443.8178262993779
 21
239.7559750068797
 31
0.0
  0
LINE
  5
13E
330
70
100
AcDbEntity
  8
shade
 62
     6
420
 16711935
370
    25
100
AcDbLine
 10
443.8178262993779
 20
239.7559750068797
 30
0.0
 11
444.0065308781235
 21
239.5614218154551
 31
0.0
  0
LINE
  5
13F
330
70
100
AcDbEntity
  8
shade
 62
     6
420
 16711935
370
    25
100
AcDbLine
 10
444.0065308781235
 20
239.5614218154551
 30
0.0
 11
443.9266018904255
 21
239.7559750068797
 31
0.0
  0
LINE
  5
140
330
70
100
AcDbEntity
  8
shade
 62
     6
420
 16711935
370
    25
100
AcDbLine
 10
443.9266018904255
 20
239.7559750068797
 30
0.0
 11
444.1112199517695
 21
239.5614218154551
 31
0.0
  0
LINE
  5
141
330
70
100
AcDbEntity
  8
shade
 62
     6
420
 16711935
370
    25
100
AcDbLine
 10
444.1112199517695
 20
239.5614218154551
 30
0.0
 11
444.0194780233128
 21
239.7559750068797
 31
0.0
  0
LINE
  5
142
330
70
100
AcDbEntity
  8
shade
 62
     6
420
 16711935
370
    25
100
AcDbLine
 10
444.0194780233128
 20
239.7559750068797
 30
0.0
 11
444.1991850181552
 21
239.5614218154551
 31
0.0
  0
LINE
  5
143
330
70
100
AcDbEntity
  8
shade
 62
     6
420
 16711935
370
    25
100
AcDbLine
 10
444.1991850181552
 20
239.5614218154551
 30
0.0
 11
444.0960398906243
 21
239.7559750068797
 31
0.0
  0
LINE
  5
144
330
70
100
AcDbEntity
  8
shade
 62
     6
420
 16711935
370
    25
100
AcDbLine
 10
444.0960398906243
 20
239.7559750068797
 30
0.0
 11
444.2700332039755
 21
239.5614218154551
 31
0.0
  0
LINE
  5
145
330
70
100
AcDbEntity
  8
shade
 62
     6
420
 16711935
370
    25
100
AcDbLine
 10
444.2700332039755
 20
239.5614218154551
 30
0.0
 11
444.1559455485008
 21
239.7559750068797
 31
0.0
  0
LINE
  5
146
330
70
100
AcDbEntity
  8
shade
 62
     6
420
 16711935
370
    25
100
AcDbLine
 10
444.1559455485008
 20
239.7559750068797
 30
0.0
 11
444.3234480838404
 21
239.5614218154551
 31
0.0
  0
LINE
  5
147
330
70
100
AcDbEntity
  8
shade
 62
     6
420
 16711935
370
    25
100
AcDbLine
 10
444.3234480838404
 20
239.5614218154551
 30
0.0
 11
444.1989274437485
 21
239.7559750068797
 31
0.0
  0
LINE
  5
148
330
70
100
AcDbEntity
  8
shade
 62
     6
420
 16711935
370
    25
100
AcDbLine
 10
444.1989274437485
 20
239.7559750068797
 30
0.0
 11
444.3591910942159
 21
239.5614218154551
 31
0.0
  0
LINE
  5
149
330
70
100
AcDbEntity
  8
shade
 62
     6
420
 16711935
370
    25
100
AcDbLine
 10
444.3591910942159
 20
239.5614218154551
 30
0.0
 11
444.2247936087635
 21
239.7559750068797
 31
0.0
  0
LINE
  5
14A
330
70
100
AcDbEntity
  8
shade
 62
     6
420
 16711935
370
    25
100
AcDbLine
 10
444.2247936087635
 20
239.7559750068797
 30
0.0
 11
444.3771025979152
 21
239.5614218154551
 31
0.0
  0
LINE
  5
14B
330
70
100
AcDbEntity
  8
shade
 62
     6
420
 16711935
370
    25
100
AcDbLine
 10
444.3771025979152
 20
239.5614218154551
 30
0.0
 11
444.2334285189594
 21
239.7559750068797
 31
0.0
  0
LWPOLYLINE
  5
14C
330
70
100
AcDbEntity
  8
shade
 62
     6
420
 16711935
370
    25
100
AcDbPolyline
 90
       48
 70
     0
 43
0.0
 10
440.3666838390775
 20
239.8532516026151
 10
440.495891023645
 20
239.7559750068797
 10
440.5599802999581
 20
239.8532516026151
 10
440.7537283221024
 20
239.7559750068797
 10
440.7524134519172
 20
239.8532516026151
 10
441.0098369860726
 20
239.7559750068797
 10
440.9431238418253
 20
239.8532516026151
 10
441.2630731718495
 20
239.7559750068797
 10
441.1312597107412
 20
239.8532516026151
 10
441.5123058652331
 20
239.7559750068797
 10
441.3159807982044
 20
239.8532516026151
 10
441.7564219326608
 20
239.7559750068797
 10
441.4964620949716
 20
239.8532516026151
 10
441.9943310922662
 20
239.7559750068797
 10
441.6718975278201
 20
239.8532516026151
 10
442.2249707842625
 20
239.7559750068797
 10
441.841503559474
 20
239.8532516026151
 10
442.4473109155692
 20
239.7559750068797
 10
442.0045226882642
 20
239.8532516026151
 10
442.6603584612386
 20
239.7559750068797
 10
442.1602268311473
 20
239.8532516026151
 10
442.8631618992799
 20
239.7559750068797
 10
442.307920575648
 20
239.8532516026151
 10
443.0548154603549
 20
239.7559750068797
 10
442.44694428558
 20
239.8532516026151
 10
443.2344631729597
 20
239.7559750068797
 10
442.5766770474525
 20
239.8532516026151
 10
443.4013026869021
 20
239.7559750068797
 10
442.6965394431324
 20
239.8532516026151
 10
443.5545888564188
 20
239.7559750068797
 10
442.805996138062
 20
239.8532516026151
 10
443.6936370682591
 20
239.7559750068797
 10
442.9045582722044
 20
239.8532516026151
 10
443.8178262993779
 20
239.7559750068797
 10
442.9917856429599
 20
239.8532516026151
 10
443.9266018904249
 20
239.7559750068797
 10
443.0672886718652
 20
239.8532516026151
 10
444.019478023359
 20
239.7559750068797
 10
443.1307301439849
 20
239.8532516026151
 10
444.0960398906243
 20
239.7559750068797
 10
443.1818267143262
 20
239.8532516026151
 10
444.1559455485008
 20
239.7559750068797
 10
443.2203501732237
 20
239.8532516026151
 10
444.1989274437485
 20
239.7559750068797
 10
443.2461284654597
 20
239.8532516026151
 10
444.2247936087635
 20
239.7559750068797
 10
443.2590464590644
 20
239.8532516026151
 10
444.2334285189594
 20
239.7559750068797
  0
LINE
  5
14D
330
70
100
AcDbEntity
  8
shade
 62
     6
420
 16711935
370
    25
100
AcDbLine
 10
440.3666838390775
 20
239.5614218154551
 30
0.0
 11
440.3666838390775
 21
238.6969383312729
 31
0.0
  0
LINE
  5
14E
330
70
100
AcDbEntity
  8
shade
 62
     6
420
 16711935
370
    25
100
AcDbLine
 10
440.6346999403282
 20
239.5614218154551
 30
0.0
 11
440.6249539002558
 21
238.6969383312729
 31
0.0
  0
LINE
  5
14F
330
70
100
AcDbEntity
  8
shade
 62
     6
420
 16711935
370
    25
100
AcDbLine
 10
440.9015190165614
 20
239.5614218154551
 30
0.0
 11
440.8820704646711
 21
238.6969383312729
 31
0.0
  0
LINE
  5
150
330
70
100
AcDbEntity
  8
shade
 62
     6
420
 16711935
370
    25
100
AcDbLine
 10
441.1659493891741
 20
239.5614218154551
 30
0.0
 11
441.1368851873144
 21
238.6969383312729
 31
0.0
  0
LINE
  5
151
330
70
100
AcDbEntity
  8
shade
 62
     6
420
 16711935
370
    25
100
AcDbLine
 10
441.3882600037028
 20
238.6969383312729
 30
0.0
 11
441.4268100476703
 21
239.5614218154551
 31
0.0
  0
LINE
  5
152
330
70
100
AcDbEntity
  8
shade
 62
     6
420
 16711935
370
    25
100
AcDbLine
 10
441.6829359252058
 20
239.5614218154551
 30
0.0
 11
441.6350722129664
 21
238.6969383312729
 31
0.0
  0
LINE
  5
153
330
70
100
AcDbEntity
  8
shade
 62
     6
420
 16711935
370
    25
100
AcDbLine
 10
441.8762194919361
 20
238.6969383312729
 30
0.0
 11
441.9331831014373
 21
239.5614218154551
 31
0.0
  0
LINE
  5
154
330
70
100
AcDbEntity
  8
shade
 62
     6
420
 16711935
370
    25
100
AcDbLine
 10
442.1764339116522
 20
239.5614218154551
 30
0.0
 11
442.1106248181803
 21
238.6969383312729
 31
0.0
  0
LINE
  5
155
330
70
100
AcDbEntity
  8
shade
 62
     6
420
 16711935
370
    25
100
AcDbLine
 10
442.3372412806453
 20
238.6969383312729
 30
0.0
 11
442.4116019387932
 21
239.5614218154551
 31
0.0
  0
LINE
  5
156
330
70
100
AcDbEntity
  8
shade
 62
     6
420
 16711935
370
    25
100
AcDbLine
 10
442.6376368652622
 20
239.5614218154551
 30
0.0
 11
442.5550567551987
 21
238.6969383312729
 31
0.0
  0
LINE
  5
157
330
70
100
AcDbEntity
  8
shade
 62
     6
420
 16711935
370
    25
100
AcDbLine
 10
442.7630984251154
 20
238.6969383312729
 30
0.0
 11
442.8535291642059
 21
239.5614218154551
 31
0.0
  0
LINE
  5
158
330
70
100
AcDbEntity
  8
shade
 62
     6
420
 16711935
370
    25
100
AcDbLine
 10
443.0583146082845
 20
239.5614218154551
 30
0.0
 11
442.960437125713
 21
238.6969383312729
 31
0.0
  0
LINE
  5
159
330
70
100
AcDbEntity
  8
shade
 62
     6
420
 16711935
370
    25
100
AcDbLine
 10
443.1461914944732
 20
238.6969383312729
 30
0.0
 11
443.2510785758075
 21
239.5614218154551
 31
0.0
  0
LINE
  5
15A
330
70
100
AcDbEntity
  8
shade
 62
     6
420
 16711935
370
    25
100
AcDbLine
 10
443.4309601363915
 20
239.5614218154551
 30
0.0
 11
443.3195319073622
 21
238.6969383312729
 31
0.0
  0
LINE
  5
15B
330
70
100
AcDbEntity
  8
shade
 62
     6
420
 16711935
370
    25
100
AcDbLine
 10
443.4796841839559
 20
238.6969383312729
 30
0.0
 11
443.5971558950818
 21
239.5614218154551
 31
0.0
  0
LINE
  5
15C
330
70
100
AcDbEntity
  8
shade
 62
     6
420
 16711935
370
    25
100
AcDbLine
 10
443.7489235813753
 20
239.5614218154551
 30
0.0
 11
443.6259330453109
 21
238.6969383312729
 31
0.0
  0
LINE
  5
15D
330
70
100
AcDbEntity
  8
shade
 62
     6
420
 16711935
370
    25
100
AcDbLine
 10
443.7576253084977
 20
238.6969383312729
 30
0.0
 11
443.8855853639373
 21
239.5614218154551
 31
0.0
  0
LINE
  5
15E
330
70
100
AcDbEntity
  8
shade
 62
     6
420
 16711935
370
    25
100
AcDbLine
 10
444.0065308781235
 20
239.5614218154551
 30
0.0
 11
443.874172803934
 21
238.6969383312729
 31
0.0
  0
LINE
  5
15F
330
70
100
AcDbEntity
  8
shade
 62
     6
420
 16711935
370
    25
100
AcDbLine
 10
443.9750550022387
 20
238.6969383312729
 30
0.0
 11
444.1112199517695
 21
239.5614218154551
 31
0.0
  0
LINE
  5
160
330
70
100
AcDbEntity
  8
shade
 62
     6
420
 16711935
370
    25
100
AcDbLine
 10
444.1991850181552
 20
239.5614218154551
 30
0.0
 11
444.059821338888
 21
238.6969383312729
 31
0.0
  0
LINE
  5
161
330
70
100
AcDbEntity
  8
shade
 62
     6
420
 16711935
370
    25
100
AcDbLine
 10
444.128093227011
 20
238.6969383312729
 30
0.0
 11
444.2700332039755
 21
239.5614218154551
 31
0.0
  0
LINE
  5
162
330
70
100
AcDbEntity
  8
shade
 62
     6
420
 16711935
370
    25
100
AcDbLine
 10
444.3234480838404
 20
239.5614218154551
 30
0.0
 11
444.1795657477091
 21
238.6969383312729
 31
0.0
  0
LINE
  5
163
330
70
100
AcDbEntity
  8
shade
 62
     6
420
 16711935
370
    25
100
AcDbLine
 10
444.2140090122143
 20
238.6969383312729
 30
0.0
 11
444.3591910942159
 21
239.5614218154551
 31
0.0
  0
LINE
  5
164
330
70
100
AcDbEntity
  8
shade
 62
     6
420
 16711935
370
    25
100
AcDbLine
 10
444.3771025979152
 20
239.5614218154551
 30
0.0
 11
444.2312691885234
 21
238.6969383312729
 31
0.0
  0
LINE
  5
165
330
70
100
AcDbEntity
  8
shade
 62
     6
420
 16711935
370
    25
100
AcDbLine
 10
444.2334285189594
 20
238.6969383312729
 30
0.0
 11
444.0218369323582
 21
238.502385139848
 31
0.0
  0
LWPOLYLINE
  5
166
330
70
100
AcDbEntity
  8
shade
 62
     6
420
 16711935
370
    25
100
AcDbPolyline
 90
        6
 70
     0
 43
0.0
 10
440.3666838390775
 20
238.6969383312729
 10
440.495891023645
 20
238.502385139848
 10
440.6249539002558
 20
238.6969383312729
 10
440.7325489159537
 20
238.502385139848
 10
440.8820704646711
 20
238.6969383312729
 10
440.9746430940177
 20
238.502385139848
  0
LWPOLYLINE
  5
167
330
70
100
AcDbEntity
  8
shade
 62
     6
420
 16711935
370
    25
100
AcDbPolyline
 90
       41
 70
     0
 43
0.0
 10
440.9746430940177
 20
238.502385139848
 10
441.1368851873144
 20
238.6969383312729
 10
441.2630731718495
 20
238.502385139848
 10
441.3882600037028
 20
238.6969383312729
 10
441.5123058652331
 20
238.502385139848
 10
441.6350722129664
 20
238.6969383312729
 10
441.7564219326608
 20
238.502385139848
 10
441.8762194919361
 20
238.6969383312729
 10
441.9943310922662
 20
238.502385139848
 10
442.1106248181803
 20
238.6969383312729
 10
442.2249707842625
 20
238.502385139848
 10
442.3372412806453
 20
238.6969383312729
 10
442.4473109155692
 20
238.502385139848
 10
442.5550567551987
 20
238.6969383312729
 10
442.6603584612386
 20
238.502385139848
 10
442.7630984251154
 20
238.6969383312729
 10
442.8631618992799
 20
238.502385139848
 10
442.960437125713
 20
238.6969383312729
 10
443.0548154603549
 20
238.502385139848
 10
443.1461914944732
 20
238.6969383312729
 10
443.2352457397768
 20
238.502385139848
 10
443.3195319073622
 20
238.6969383312729
 10
443.3801439585945
 20
238.502385139848
 10
443.4796841839559
 20
238.6969383312729
 10
443.5115833329436
 20
238.502385139848
 10
443.6259330453109
 20
238.6969383312729
 10
443.62897682279
 20
238.502385139848
 10
443.7576253084977
 20
238.6969383312729
 10
443.7318001201464
 20
238.502385139848
 10
443.874172803934
 20
238.6969383312729
 10
443.8195939913987
 20
238.502385139848
 10
443.9750550022387
 20
238.6969383312729
 10
443.8919663276418
 20
238.502385139848
 10
444.059821338888
 20
238.6969383312729
 10
443.9485938964837
 20
238.502385139848
 10
444.128093227011
 20
238.6969383312729
 10
443.9892237855549
 20
238.502385139848
 10
444.1795657477091
 20
238.6969383312729
 10
444.0136745318295
 20
238.502385139848
 10
444.2140090122143
 20
238.6969383312729
 10
444.0218369323582
 20
238.502385139848
  0
LINE
  5
168
330
70
100
AcDbEntity
  8
shade
 62
     6
420
 16711935
370
    25
100
AcDbLine
 10
443.7798572572368
 20
238.5680555278749
 30
0.0
 11
452.7387039796186
 21
223.0730388408422
 31
0.0
  0
LINE
  5
169
330
70
100
AcDbEntity
  8
shade
 62
     6
420
 16711935
370
    25
100
AcDbLine
 10
444.1491377125016
 20
238.6194350351185
 30
0.0
 11
454.1976433908026
 21
223.0730388408422
 31
0.0
  0
LINE
  5
16A
330
70
100
AcDbEntity
  8
shade
 62
     6
420
 16711935
370
    25
100
AcDbLine
 10
440.6828327752166
 20
219.5783991819244
 30
0.0
 11
440.6828327752166
 21
222.9186311056796
 31
0.0
  0
ENDSEC
  0
SECTION
  2
OBJECTS
  0
DICTIONARY
  5
C
330
0
100
AcDbDictionary
281
     1
  3
ACAD_COLOR
350
63
  3
ACAD_DETAILVIEWSTYLE
350
6A
  3
ACAD_GROUP
350
D
  3
ACAD_LAYOUT
350
62
  3
ACAD_MATERIAL
350
10
  3
ACAD_MLEADERSTYLE
350
66
  3
ACAD_MLINESTYLE
350
5F
  3
ACAD_PLOTSETTINGS
350
61
  3
ACAD_PLOTSTYLENAME
350
E
  3
ACAD_SCALELIST
350
42
  3
ACAD_SECTIONVIEWSTYLE
350
68
  3
ACAD_TABLESTYLE
350
64
  3
ACAD_VISUALSTYLE
350
29
  3
ACDB_RECOMPOSE_DATA
350
173
  3
AcDbVariableDictionary
350
16B
  0
DICTIONARY
  5
63
102
{ACAD_REACTORS
330
C
102
}
330
C
100
AcDbDictionary
281
     1
  0
DICTIONARY
  5
6A
102
{ACAD_REACTORS
330
C
102
}
330
C
100
AcDbDictionary
281
     1
  3
Imperial24
350
6B
  0
DICTIONARY
  5
D
102
{ACAD_REACTORS
330
C
102
}
330
C
100
AcDbDictionary
281
     1
  0
DICTIONARY
  5
62
102
{ACAD_REACTORS
330
C
102
}
330
C
100
AcDbDictionary
281
     1
  3
Layout1
350
6F
  3
Layout2
350
77
  3
Model
350
73
  0
DICTIONARY
  5
10
102
{ACAD_REACTORS
330
C
102
}
330
C
100
AcDbDictionary
281
     1
  3
ByBlock
350
19
  3
ByLayer
350
11
  3
Global
350
21
  0
DICTIONARY
  5
66
102
{ACAD_REACTORS
330
C
102
}
330
C
100
AcDbDictionary
281
     1
  3
Standard
350
67
  0
DICTIONARY
  5
5F
102
{ACAD_REACTORS
330
C
102
}
330
C
100
AcDbDictionary
281
     1
  3
Standard
350
60
  0
DICTIONARY
  5
61
102
{ACAD_REACTORS
330
C
102
}
330
C
100
AcDbDictionary
281
     1
  0
ACDBDICTIONARYWDFLT
  5
E
102
{ACAD_REACTORS
330
C
102
}
330
C
100
AcDbDictionary
281
     1
  3
Normal
350
F
100
AcDbDictionaryWithDefault
340
F
  0
DICTIONARY
  5
42
102
{ACAD_REACTORS
330
C
102
}
330
C
100
AcDbDictionary
281
     1
  3
A0
350
43
  3
A1
350
44
  3
A2
350
45
  3
A3
350
46
  3
A4
350
47
  3
A5
350
48
  3
A6
350
49
  3
A7
350
4A
  3
A8
350
4B
  3
A9
350
4C
  3
B0
350
4D
  3
B1
350
4E
  3
B2
350
4F
  3
B3
350
50
  3
B4
350
51
  3
B5
350
52
  3
B6
350
53
  0
DICTIONARY
  5
68
102
{ACAD_REACTORS
330
C
102
}
330
C
100
AcDbDictionary
281
     1
  3
Imperial24
350
69
  0
DICTIONARY
  5
64
102
{ACAD_REACTORS
330
C
102
}
330
C
100
AcDbDictionary
281
     1
  3
Standard
350
65
  0
DICTIONARY
  5
29
102
{ACAD_REACTORS
330
C
102
}
330
C
100
AcDbDictionary
281
     1
  3
2dWireframe
350
2F
  3
Basic
350
2E
  3
Brighten
350
35
  3
ColorChange
350
39
  3
Conceptual
350
32
  3
Dim
350
34
  3
EdgeColorOff
350
41
  3
Facepattern
350
38
  3
Flat
350
2A
  3
FlatWithEdges
350
2B
  3
Gouraud
350
2C
  3
GouraudWithEdges
350
2D
  3
Hidden
350
31
  3
JitterOff
350
3F
  3
Linepattern
350
37
  3
OverhangOff
350
40
  3
Realistic
350
33
  3
Shaded
350
3E
  3
Shaded with edges
350
3D
  3
Shades of Gray
350
3A
  3
Sketchy
350
3B
  3
Thicken
350
36
  3
Wireframe
350
30
  3
X-Ray
350
3C
  0
XRECORD
  5
173
102
{ACAD_REACTORS
330
C
102
}
330
C
100
AcDbXrecord
280
     1
 90
        1
330
65
  0
DICTIONARY
  5
16B
102
{ACAD_REACTORS
330
C
102
}
330
C
100
AcDbDictionary
281
     1
  3
CANNOSCALE
350
170
  3
CMLEADERSTYLE
350
16D
  3
CTABLESTYLE
350
16C
  3
CVIEWDETAILSTYLE
350
16E
  3
CVIEWSECTIONSTYLE
350
16F
  0
ACDBDETAILVIEWSTYLE
  5
6B
102
{ACAD_REACTORS
330
6A
102
}
330
6A
100
AcDbModelDocViewStyle
 70
     0
  3
Imperial24
290
     1
300
Imperial24
 90
        0
100
AcDbDetailViewStyle
 70
     0
 71
     0
 90
        3
 71
     1
340
55
 62
   256
 40
0.24
340
0
 62
   256
 40
0.24
300

 40
0.36
280
     3
 71
     2
340
5D
 90
       25
 62
   256
 71
     3
340
55
 62
   256
 40
0.24
 90
        1
 40
0.75
 90
        1
300
%<\AcVar ViewType \f "%tc1">% %<\AcVar ViewDetailId>%\PSCALE %<\AcVar ViewScale \f "%sn">%
 71
     4
340
5D
 90
       25
 62
   256
340
5D
 90
       25
 62
   256
280
     0
  0
LAYOUT
  5
6F
102
{ACAD_REACTORS
330
62
102
}
330
62
100
AcDbPlotSettings
  1

  2

  4

  6

 40
0.0
 41
0.0
 42
0.0
 43
0.0
 44
0.0
 45
0.0
 46
0.0
 47
0.0
 48
0.0
 49
0.0
140
0.0
141
0.0
142
1.0
143
1.0
 70
   688
 72
     0
 73
     0
 74
     5
  7

 75
    16
147
1.0
 76
     0
 77
     2
 78
   300
148
0.0
149
0.0
100
AcDbLayout
  1
Layout1
 70
     1
 71
     1
 10
0.0
 20
0.0
 11
12.0
 21
9.0
 12
0.0
 22
0.0
 32
0.0
 14
0.0
 24
0.0
 34
0.0
 15
0.0
 25
0.0
 35
0.0
146
0.0
 13
0.0
 23
0.0
 33
0.0
 16
1.0
 26
0.0
 36
0.0
 17
0.0
 27
1.0
 37
0.0
 76
     0
330
6C
  0
LAYOUT
  5
77
102
{ACAD_REACTORS
330
62
102
}
330
62
100
AcDbPlotSettings
  1

  2

  4

  6

 40
0.0
 41
0.0
 42
0.0
 43
0.0
 44
0.0
 45
0.0
 46
0.0
 47
0.0
 48
0.0
 49
0.0
140
0.0
141
0.0
142
1.0
143
1.0
 70
   688
 72
     0
 73
     0
 74
     5
  7

 75
    16
147
1.0
 76
     0
 77
     2
 78
   300
148
0.0
149
0.0
100
AcDbLayout
  1
Layout2
 70
     1
 71
     2
 10
0.0
 20
0.0
 11
12.0
 21
9.0
 12
0.0
 22
0.0
 32
0.0
 14
0.0
 24
0.0
 34
0.0
 15
0.0
 25
0.0
 35
0.0
146
0.0
 13
0.0
 23
0.0
 33
0.0
 16
1.0
 26
0.0
 36
0.0
 17
0.0
 27
1.0
 37
0.0
 76
     0
330
74
  0
LAYOUT
  5
73
102
{ACAD_REACTORS
330
62
102
}
330
62
100
AcDbPlotSettings
  1

  2

  4

  6

 40
0.0
 41
0.0
 42
0.0
 43
0.0
 44
0.0
 45
0.0
 46
0.0
 47
0.0
 48
0.0
 49
0.0
140
0.0
141
0.0
142
1.0
143
1.0
 70
  1712
 72
     0
 73
     0
 74
     0
  7

 75
     0
147
1.0
 76
     0
 77
     2
 78
   300
148
0.0
149
0.0
100
AcDbLayout
  1
Model
 70
     1
 71
     0
 10
0.0
 20
0.0
 11
12.0
 21
9.0
 12
0.0
 22
0.0
 32
0.0
 14
0.0
 24
0.0
 34
0.0
 15
0.0
 25
0.0
 35
0.0
146
0.0
 13
0.0
 23
0.0
 33
0.0
 16
1.0
 26
0.0
 36
0.0
 17
0.0
 27
1.0
 37
0.0
 76
     0
330
70
  0
MATERIAL
  5
19
102
{ACAD_XDICTIONARY
360
1A
102
}
102
{ACAD_REACTORS
330
10
102
}
330
10
100
AcDbMaterial
  1
ByBlock
 72
     0
 43
0.0208333333333333
 43
0.0
 43
0.0
 43
0.0
 43
0.0
 43
0.0208333333333333
 43
0.0
 43
0.0
 43
0.0
 43
0.0
 43
1.0
 43
0.0
 43
0.0
 43
0.0
 43
0.0
 43
1.0
 77
     0
 47
0.0208333333333333
 47
0.0
 47
0.0
 47
0.0
 47
0.0
 47
0.0208333333333333
 47
0.0
 47
0.0
 47
0.0
 47
0.0
 47
1.0
 47
0.0
 47
0.0
 47
0.0
 47
0.0
 47
1.0
171
     0
 49
0.0208333333333333
 49
0.0
 49
0.0
 49
0.0
 49
0.0
 49
0.0208333333333333
 49
0.0
 49
0.0
 49
0.0
 49
0.0
 49
1.0
 49
0.0
 49
0.0
 49
0.0
 49
0.0
 49
1.0
175
     0
142
0.0208333333333333
142
0.0
142
0.0
142
0.0
142
0.0
142
0.0208333333333333
142
0.0
142
0.0
142
0.0
142
0.0
142
1.0
142
0.0
142
0.0
142
0.0
142
0.0
142
1.0
179
     0
144
0.0208333333333333
144
0.0
144
0.0
144
0.0
144
0.0
144
0.0208333333333333
144
0.0
144
0.0
144
0.0
144
0.0
144
1.0
144
0.0
144
0.0
144
0.0
144
0.0
144
1.0
147
0.0208333333333333
147
0.0
147
0.0
147
0.0
147
0.0
147
0.0208333333333333
147
0.0
147
0.0
147
0.0
147
0.0
147
1.0
147
0.0
147
0.0
147
0.0
147
0.0
147
1.0
  0
MATERIAL
  5
11
102
{ACAD_XDICTIONARY
360
12
102
}
102
{ACAD_REACTORS
330
10
102
}
330
10
100
AcDbMaterial
  1
ByLayer
 72
     0
 43
0.0208333333333333
 43
0.0
 43
0.0
 43
0.0
 43
0.0
 43
0.0208333333333333
 43
0.0
 43
0.0
 43
0.0
 43
0.0
 43
1.0
 43
0.0
 43
0.0
 43
0.0
 43
0.0
 43
1.0
 77
     0
 47
0.0208333333333333
 47
0.0
 47
0.0
 47
0.0
 47
0.0
 47
0.0208333333333333
 47
0.0
 47
0.0
 47
0.0
 47
0.0
 47
1.0
 47
0.0
 47
0.0
 47
0.0
 47
0.0
 47
1.0
171
     0
 49
0.0208333333333333
 49
0.0
 49
0.0
 49
0.0
 49
0.0
 49
0.0208333333333333
 49
0.0
 49
0.0
 49
0.0
 49
0.0
 49
1.0
 49
0.0
 49
0.0
 49
0.0
 49
0.0
 49
1.0
175
     0
142
0.0208333333333333
142
0.0
142
0.0
142
0.0
142
0.0
142
0.0208333333333333
142
0.0
142
0.0
142
0.0
142
0.0
142
1.0
142
0.0
142
0.0
142
0.0
142
0.0
142
1.0
179
     0
144
0.0208333333333333
144
0.0
144
0.0
144
0.0
144
0.0
144
0.0208333333333333
144
0.0
144
0.0
144
0.0
144
0.0
144
1.0
144
0.0
144
0.0
144
0.0
144
0.0
144
1.0
147
0.0208333333333333
147
0.0
147
0.0
147
0.0
147
0.0
147
0.0208333333333333
147
0.0
147
0.0
147
0.0
147
0.0
147
1.0
147
0.0
147
0.0
147
0.0
147
0.0
147
1.0
  0
MATERIAL
  5
21
102
{ACAD_XDICTIONARY
360
22
102
}
102
{ACAD_REACTORS
330
10
102
}
330
10
100
AcDbMaterial
  1
Global
 72
     0
 43
0.0208333333333333
 43
0.0
 43
0.0
 43
0.0
 43
0.0
 43
0.0208333333333333
 43
0.0
 43
0.0
 43
0.0
 43
0.0
 43
1.0
 43
0.0
 43
0.0
 43
0.0
 43
0.0
 43
1.0
 77
     0
 47
0.0208333333333333
 47
0.0
 47
0.0
 47
0.0
 47
0.0
 47
0.0208333333333333
 47
0.0
 47
0.0
 47
0.0
 47
0.0
 47
1.0
 47
0.0
 47
0.0
 47
0.0
 47
0.0
 47
1.0
171
     0
 49
0.0208333333333333
 49
0.0
 49
0.0
 49
0.0
 49
0.0
 49
0.0208333333333333
 49
0.0
 49
0.0
 49
0.0
 49
0.0
 49
1.0
 49
0.0
 49
0.0
 49
0.0
 49
0.0
 49
1.0
175
     0
142
0.0208333333333333
142
0.0
142
0.0
142
0.0
142
0.0
142
0.0208333333333333
142
0.0
142
0.0
142
0.0
142
0.0
142
1.0
142
0.0
142
0.0
142
0.0
142
0.0
142
1.0
179
     0
144
0.0208333333333333
144
0.0
144
0.0
144
0.0
144
0.0
144
0.0208333333333333
144
0.0
144
0.0
144
0.0
144
0.0
144
1.0
144
0.0
144
0.0
144
0.0
144
0.0
144
1.0
147
0.0208333333333333
147
0.0
147
0.0
147
0.0
147
0.0
147
0.0208333333333333
147
0.0
147
0.0
147
0.0
147
0.0
147
1.0
147
0.0
147
0.0
147
0.0
147
0.0
147
1.0
  0
MLEADERSTYLE
  5
67
102
{ACAD_REACTORS
330
66
102
}
330
66
100
AcDbMLeaderStyle
179
     2
170
     2
171
     1
172
     0
 90
        2
 40
0.0
 41
0.0
173
     1
 91
-1056964608
340
5B
 92
       -2
290
     1
 42
0.09
291
     1
 43
0.36
  3
Standard
 44
0.18
300

342
55
174
     1
178
     6
175
     1
176
     0
 93
-1056964608
 45
0.18
292
     0
297
     0
 46
0.18
 94
-1056964608
 47
1.0
 49
1.0
140
1.0
293
     1
141
0.0
294
     1
177
     0
142
1.0
295
     1
296
     0
143
0.125
271
     0
272
     9
273
     9
298
     1
  0
MLINESTYLE
  5
60
102
{ACAD_REACTORS
330
5F
102
}
330
5F
100
AcDbMlineStyle
  2
STANDARD
 70
     0
  3

 62
   256
 51
90.0
 52
90.0
 71
     2
 49
0.5
 62
   256
  6
BYLAYER
 49
-0.5
 62
   256
  6
BYLAYER
  0
ACDBPLACEHOLDER
  5
F
102
{ACAD_REACTORS
330
E
102
}
330
E
  0
SCALE
  5
43
102
{ACAD_REACTORS
330
42
102
}
330
42
100
AcDbScale
 70
     0
300
1:1
140
1.0
141
1.0
290
     1
  0
SCALE
  5
44
102
{ACAD_REACTORS
330
42
102
}
330
42
100
AcDbScale
 70
     0
300
1/128" = 1'-0"
140
0.0078125
141
12.0
290
     0
  0
SCALE
  5
45
102
{ACAD_REACTORS
330
42
102
}
330
42
100
AcDbScale
 70
     0
300
1/64" = 1'-0"
140
0.015625
141
12.0
290
     0
  0
SCALE
  5
46
102
{ACAD_REACTORS
330
42
102
}
330
42
100
AcDbScale
 70
     0
300
1/32" = 1'-0"
140
0.03125
141
12.0
290
     0
  0
SCALE
  5
47
102
{ACAD_REACTORS
330
42
102
}
330
42
100
AcDbScale
 70
     0
300
1/16" = 1'-0"
140
0.0625
141
12.0
290
     0
  0
SCALE
  5
48
102
{ACAD_REACTORS
330
42
102
}
330
42
100
AcDbScale
 70
     0
300
3/32" = 1'-0"
140
0.09375
141
12.0
290
     0
  0
SCALE
  5
49
102
{ACAD_REACTORS
330
42
102
}
330
42
100
AcDbScale
 70
     0
300
1/8" = 1'-0"
140
0.125
141
12.0
290
     0
  0
SCALE
  5
4A
102
{ACAD_REACTORS
330
42
102
}
330
42
100
AcDbScale
 70
     0
300
3/16" = 1'-0"
140
0.1875
141
12.0
290
     0
  0
SCALE
  5
4B
102
{ACAD_REACTORS
330
42
102
}
330
42
100
AcDbScale
 70
     0
300
1/4" = 1'-0"
140
0.25
141
12.0
290
     0
  0
SCALE
  5
4C
102
{ACAD_REACTORS
330
42
102
}
330
42
100
AcDbScale
 70
     0
300
3/8" = 1'-0"
140
0.375
141
12.0
290
     0
  0
SCALE
  5
4D
102
{ACAD_REACTORS
330
42
102
}
330
42
100
AcDbScale
 70
     0
300
1/2" = 1'-0"
140
0.5
141
12.0
290
     0
  0
SCALE
  5
4E
102
{ACAD_REACTORS
330
42
102
}
330
42
100
AcDbScale
 70
     0
300
3/4" = 1'-0"
140
0.75
141
12.0
290
     0
  0
SCALE
  5
4F
102
{ACAD_REACTORS
330
42
102
}
330
42
100
AcDbScale
 70
     0
300
1" = 1'-0"
140
1.0
141
12.0
290
     0
  0
SCALE
  5
50
102
{ACAD_REACTORS
330
42
102
}
330
42
100
AcDbScale
 70
     0
300
1-1/2" = 1'-0"
140
1.5
141
12.0
290
     0
  0
SCALE
  5
51
102
{ACAD_REACTORS
330
42
102
}
330
42
100
AcDbScale
 70
     0
300
3" = 1'-0"
140
3.0
141
12.0
290
     0
  0
SCALE
  5
52
102
{ACAD_REACTORS
330
42
102
}
330
42
100
AcDbScale
 70
     0
300
6" = 1'-0"
140
6.0
141
12.0
290
     0
  0
SCALE
  5
53
102
{ACAD_REACTORS
330
42
102
}
330
42
100
AcDbScale
 70
     0
300
1'-0" = 1'-0"
140
12.0
141
12.0
290
     0
  0
ACDBSECTIONVIEWSTYLE
  5
69
102
{ACAD_REACTORS
330
68
102
}
330
68
100
AcDbModelDocViewStyle
 70
     0
  3
Imperial24
290
     1
300
Imperial24
 90
        0
100
AcDbSectionViewStyle
 70
     0
 71
     0
 90
       78
 71
     1
340
55
 62
   256
 40
0.24
340
0
340
0
 62
   256
 40
0.24
300
I, O, Q, S, X, Z
 40
0.48
 90
        3
 40
0.18
 90
        1
 71
     2
340
5D
 90
       25
 62
   256
340
5D
 90
       50
 62
   256
 40
0.24
 40
0.0
 40
0.24
 71
     3
340
55
 62
   256
 40
0.24
 90
        1
 40
0.75
 90
        1
300
%<\AcVar ViewType \f "%tc1">% %<\AcVar ViewSectionStartId>%-%<\AcVar ViewSectionEndId>%\PSCALE %<\AcVar ViewScale \f "%sn">%
 71
     4
 62
   256
 62
   257
300
ANSI31
 40
1.0
 90
        0
290
     0
290
     0
 90
        6
 40
0.0
 40
1.570796326794896
 40
0.2617993877991494
 40
1.308996938995747
 40
-0.2617993877991494
 40
1.832595714594046
  0
TABLESTYLE
  5
65
102
{ACAD_XDICTIONARY
360
171
102
}
102
{ACAD_REACTORS
330
64
102
}
330
64
100
AcDbTableStyle
280
     0
  3
Standard
 70
     0
 71
     0
 40
0.06
 41
0.06
280
     0
281
     0
  7
Standard
140
0.18
170
     2
 62
     0
 63
     7
283
     0
 90
      512
 91
        0
  1

274
    -2
284
     1
 64
     0
275
    -2
285
     1
 65
     0
276
    -2
286
     1
 66
     0
277
    -2
287
     1
 67
     0
278
    -2
288
     1
 68
     0
279
    -2
289
     1
 69
     0
  7
Standard
140
0.25
170
     5
 62
     0
 63
     7
283
     0
 90
      512
 91
        0
  1

274
    -2
284
     1
 64
     0
275
    -2
285
     1
 65
     0
276
    -2
286
     1
 66
     0
277
    -2
287
     1
 67
     0
278
    -2
288
     1
 68
     0
279
    -2
289
     1
 69
     0
  7
Standard
140
0.18
170
     5
 62
     0
 63
     7
283
     0
 90
      512
 91
        0
  1

274
    -2
284
     1
 64
     0
275
    -2
285
     1
 65
     0
276
    -2
286
     1
 66
     0
277
    -2
287
     1
 67
     0
278
    -2
288
     1
 68
     0
279
    -2
289
     1
 69
     0
  0
VISUALSTYLE
  5
2F
102
{ACAD_REACTORS
330
29
102
}
330
29
100
AcDbVisualStyle
  2
2dWireframe
 70
     4
177
     3
291
     0
 70
    58
 90
        0
176
     1
 90
        2
176
     1
 90
        0
176
     1
 90
        0
176
     1
 40
0.6
176
     1
 40
30.0
176
     1
 62
     7
420
 16777215
176
     1
 90
        1
176
     1
 90
        4
176
     1
 62
     7
176
     1
 62
   257
176
     1
 90
        1
176
     1
 90
        1
176
     1
 40
1.0
176
     1
 90
        0
176
     1
 62
   257
176
     1
 40
1.0
176
     1
 90
        1
176
     1
 90
        6
176
     1
 90
        2
176
     1
 62
     7
176
     1
 90
        5
176
     1
 90
        0
176
     1
 90
        0
176
     1
290
     0
176
     1
 90
        1
176
     1
 40
0.0
176
     1
 90
        0
176
     1
290
     1
176
     1
290
     1
176
     1
290
     0
176
     1
290
     0
176
     1
290
     0
176
     1
290
     0
176
     1
290
     0
176
     1
290
     0
176
     1
290
     0
176
     1
 90
       50
176
     1
 40
0.0
176
     1
 40
1.0
176
     1
 90
        0
176
     1
 62
    18
420
        0
176
     1
 90
       50
176
     1
 90
        3
176
     1
 62
     5
420
      255
176
     1
290
     0
176
     1
 90
       50
176
     1
 90
       50
176
     1
 90
       50
176
     1
290
     0
176
     1
 90
       50
176
     1
 62
   256
176
     0
 40
1.0
176
     0
 90
        2
176
     1
  1
strokes_ogs.tif
176
     1
290
     0
176
     1
 40
1.0
176
     1
 40
1.0
176
     1
  0
VISUALSTYLE
  5
2E
102
{ACAD_REACTORS
330
29
102
}
330
29
100
AcDbVisualStyle
  2
Basic
 70
     7
177
     3
291
     1
 70
    58
 90
        1
176
     1
 90
        0
176
     1
 90
        1
176
     1
 90
        0
176
     1
 40
0.6
176
     1
 40
30.0
176
     1
 62
     7
420
 16777215
176
     1
 90
        0
176
     1
 90
        4
176
     1
 62
     7
176
     1
 62
   257
176
     1
 90
        1
176
     1
 90
        1
176
     1
 40
1.0
176
     1
 90
        8
176
     1
 62
     7
176
     1
 40
1.0
176
     1
 90
        1
176
     1
 90
        6
176
     1
 90
        2
176
     1
 62
     7
176
     1
 90
        5
176
     1
 90
        0
176
     1
 90
        0
176
     1
290
     0
176
     1
 90
        1
176
     1
 40
0.0
176
     1
 90
        0
176
     1
290
     0
176
     1
290
     1
176
     1
290
     1
176
     1
290
     0
176
     1
290
     0
176
     1
290
     0
176
     1
290
     0
176
     1
290
     0
176
     1
290
     0
176
     1
 90
       50
176
     1
 40
0.0
176
     1
 40
1.0
176
     1
 90
        0
176
     1
 62
    18
420
        0
176
     1
 90
       50
176
     1
 90
        3
176
     1
 62
     5
420
      255
176
     1
290
     0
176
     1
 90
       50
176
     1
 90
       50
176
     1
 90
       50
176
     1
290
     0
176
     1
 90
       50
176
     1
 62
   256
176
     0
 40
1.0
176
     0
 90
        2
176
     1
  1
strokes_ogs.tif
176
     1
290
     0
176
     1
 40
1.0
176
     1
 40
1.0
176
     1
  0
VISUALSTYLE
  5
35
102
{ACAD_REACTORS
330
29
102
}
330
29
100
AcDbVisualStyle
  2
Brighten
 70
    12
177
     3
291
     1
 70
    58
 90
        2
176
     1
 90
        2
176
     1
 90
        0
176
     1
 90
        0
176
     1
 40
0.6
176
     1
 40
30.0
176
     1
 62
     7
420
 16777215
176
     1
 90
        1
176
     1
 90
        4
176
     1
 62
     7
176
     1
 62
   257
176
     1
 90
        1
176
     1
 90
        1
176
     1
 40
1.0
176
     1
 90
        8
176
     1
 62
     7
176
     1
 40
1.0
176
     1
 90
        1
176
     1
 90
        6
176
     1
 90
        2
176
     1
 62
     7
176
     1
 90
        5
176
     1
 90
        0
176
     1
 90
        0
176
     1
290
     0
176
     1
 90
        1
176
     1
 40
50.0
176
     1
 90
        0
176
     1
290
     0
176
     1
290
     1
176
     1
290
     1
176
     1
290
     0
176
     1
290
     0
176
     1
290
     0
176
     1
290
     0
176
     1
290
     0
176
     1
290
     0
176
     1
 90
       50
176
     1
 40
0.0
176
     1
 40
1.0
176
     1
 90
        0
176
     1
 62
    18
420
        0
176
     1
 90
       50
176
     1
 90
        3
176
     1
 62
     5
420
      255
176
     1
290
     0
176
     1
 90
       50
176
     1
 90
       50
176
     1
 90
       50
176
     1
290
     0
176
     1
 90
       50
176
     1
 62
   256
176
     0
 40
1.0
176
     0
 90
        2
176
     1
  1
strokes_ogs.tif
176
     1
290
     0
176
     1
 40
1.0
176
     1
 40
1.0
176
     1
  0
VISUALSTYLE
  5
39
102
{ACAD_REACTORS
330
29
102
}
330
29
100
AcDbVisualStyle
  2
ColorChange
 70
    16
177
     3
291
     1
 70
    58
 90
        2
176
     1
 90
        2
176
     1
 90
        3
176
     1
 90
        0
176
     1
 40
0.6
176
     1
 40
30.0
176
     1
 62
     8
420
  8421504
176
     1
 90
        1
176
     1
 90
        4
176
     1
 62
     7
176
     1
 62
   257
176
     1
 90
        1
176
     1
 90
        1
176
     1
 40
1.0
176
     1
 90
        8
176
     1
 62
     8
420
  8421504
176
     1
 40
1.0
176
     1
 90
        1
176
     1
 90
        6
176
     1
 90
        2
176
     1
 62
     7
176
     1
 90
        5
176
     1
 90
        0
176
     1
 90
        0
176
     1
290
     0
176
     1
 90
        1
176
     1
 40
0.0
176
     1
 90
        0
176
     1
290
     0
176
     1
290
     1
176
     1
290
     1
176
     1
290
     0
176
     1
290
     0
176
     1
290
     0
176
     1
290
     0
176
     1
290
     0
176
     1
290
     0
176
     1
 90
       50
176
     1
 40
0.0
176
     1
 40
1.0
176
     1
 90
        0
176
     1
 62
    18
420
        0
176
     1
 90
       50
176
     1
 90
        3
176
     1
 62
     5
420
      255
176
     1
290
     0
176
     1
 90
       50
176
     1
 90
       50
176
     1
 90
       50
176
     1
290
     0
176
     1
 90
       50
176
     1
 62
   256
176
     0
 40
1.0
176
     0
 90
        2
176
     1
  1
strokes_ogs.tif
176
     1
290
     0
176
     1
 40
1.0
176
     1
 40
1.0
176
     1
  0
VISUALSTYLE
  5
32
102
{ACAD_REACTORS
330
29
102
}
330
29
100
AcDbVisualStyle
  2
Conceptual
 70
     9
177
     3
291
     0
 70
    58
 90
        3
176
     1
 90
        2
176
     1
 90
        0
176
     1
 90
        0
176
     1
 40
0.6
176
     1
 40
30.0
176
     1
 62
     7
420
 16777215
176
     1
 90
        2
176
     1
 90
        2
176
     1
 62
     7
176
     1
 62
   257
176
     1
 90
        1
176
     1
 90
        1
176
     1
 40
179.0
176
     1
 90
        8
176
     1
 62
     7
176
     1
 40
1.0
176
     1
 90
        1
176
     1
 90
        6
176
     1
 90
        2
176
     1
 62
     7
176
     1
 90
        3
176
     1
 90
        0
176
     1
 90
        0
176
     1
290
     0
176
     1
 90
        1
176
     1
 40
0.0
176
     1
 90
        0
176
     1
290
     0
176
     1
290
     1
176
     1
290
     1
176
     1
290
     0
176
     1
290
     0
176
     1
290
     0
176
     1
290
     0
176
     1
290
     0
176
     1
290
     0
176
     1
 90
       50
176
     1
 40
0.0
176
     1
 40
1.0
176
     1
 90
        0
176
     1
 62
    18
420
        0
176
     1
 90
       50
176
     1
 90
        3
176
     1
 62
     5
420
      255
176
     1
290
     0
176
     1
 90
       50
176
     1
 90
       50
176
     1
 90
       50
176
     1
290
     0
176
     1
 90
       50
176
     1
 62
   256
176
     0
 40
1.0
176
     0
 90
        2
176
     1
  1
strokes_ogs.tif
176
     1
290
     0
176
     1
 40
1.0
176
     1
 40
1.0
176
     1
  0
VISUALSTYLE
  5
34
102
{ACAD_REACTORS
330
29
102
}
330
29
100
AcDbVisualStyle
  2
Dim
 70
    11
177
     3
291
     1
 70
    58
 90
        2
176
     1
 90
        2
176
     1
 90
        0
176
     1
 90
        0
176
     1
 40
0.6
176
     1
 40
30.0
176
     1
 62
     7
420
 16777215
176
     1
 90
        1
176
     1
 90
        4
176
     1
 62
     7
176
     1
 62
   257
176
     1
 90
        1
176
     1
 90
        1
176
     1
 40
1.0
176
     1
 90
        8
176
     1
 62
     7
176
     1
 40
1.0
176
     1
 90
        1
176
     1
 90
        6
176
     1
 90
        2
176
     1
 62
     7
176
     1
 90
        5
176
     1
 90
        0
176
     1
 90
        0
176
     1
290
     0
176
     1
 90
        1
176
     1
 40
-50.0
176
     1
 90
        0
176
     1
290
     0
176
     1
290
     1
176
     1
290
     1
176
     1
290
     0
176
     1
290
     0
176
     1
290
     0
176
     1
290
     0
176
     1
290
     0
176
     1
290
     0
176
     1
 90
       50
176
     1
 40
0.0
176
     1
 40
1.0
176
     1
 90
        0
176
     1
 62
    18
420
        0
176
     1
 90
       50
176
     1
 90
        3
176
     1
 62
     5
420
      255
176
     1
290
     0
176
     1
 90
       50
176
     1
 90
       50
176
     1
 90
       50
176
     1
290
     0
176
     1
 90
       50
176
     1
 62
   256
176
     0
 40
1.0
176
     0
 90
        2
176
     1
  1
strokes_ogs.tif
176
     1
290
     0
176
     1
 40
1.0
176
     1
 40
1.0
176
     1
  0
VISUALSTYLE
  5
41
102
{ACAD_REACTORS
330
29
102
}
330
29
100
AcDbVisualStyle
  2
EdgeColorOff
 70
    22
177
     3
291
     1
 70
    58
 90
        2
176
     0
 90
        2
176
     0
 90
        0
176
     0
 90
        0
176
     0
 40
0.6
176
     0
 40
30.0
176
     0
 62
     7
420
 16777215
176
     0
 90
        1
176
     0
 90
        4
176
     0
 62
     7
176
     0
 62
   257
176
     0
 90
        1
176
     0
 90
        1
176
     0
 40
1.0
176
     0
 90
        8
176
     2
 62
     7
176
     0
 40
1.0
176
     0
 90
        1
176
     0
 90
        6
176
     0
 90
        2
176
     0
 62
     7
176
     0
 90
        5
176
     0
 90
        0
176
     0
 90
        0
176
     0
290
     0
176
     0
 90
        1
176
     0
 40
0.0
176
     0
 90
        0
176
     0
290
     0
176
     0
290
     1
176
     0
290
     1
176
     0
290
     0
176
     0
290
     0
176
     0
290
     0
176
     0
290
     0
176
     0
290
     0
176
     0
290
     0
176
     0
 90
       50
176
     0
 40
0.0
176
     0
 40
1.0
176
     0
 90
        0
176
     0
 62
    18
420
        0
176
     0
 90
       50
176
     0
 90
        3
176
     0
 62
     5
420
      255
176
     0
290
     0
176
     0
 90
       50
176
     0
 90
       50
176
     0
 90
       50
176
     0
290
     0
176
     0
 90
       50
176
     0
 62
   256
176
     0
 40
1.0
176
     0
 90
        2
176
     0
  1
strokes_ogs.tif
176
     0
290
     0
176
     0
 40
1.0
176
     0
 40
1.0
176
     0
  0
VISUALSTYLE
  5
38
102
{ACAD_REACTORS
330
29
102
}
330
29
100
AcDbVisualStyle
  2
Facepattern
 70
    15
177
     3
291
     1
 70
    58
 90
        2
176
     1
 90
        2
176
     1
 90
        0
176
     1
 90
        0
176
     1
 40
0.6
176
     1
 40
30.0
176
     1
 62
     7
420
 16777215
176
     1
 90
        1
176
     1
 90
        4
176
     1
 62
     7
176
     1
 62
   257
176
     1
 90
        1
176
     1
 90
        1
176
     1
 40
1.0
176
     1
 90
        8
176
     1
 62
     7
176
     1
 40
1.0
176
     1
 90
        1
176
     1
 90
        6
176
     1
 90
        2
176
     1
 62
     7
176
     1
 90
        5
176
     1
 90
        0
176
     1
 90
        0
176
     1
290
     0
176
     1
 90
        1
176
     1
 40
0.0
176
     1
 90
        0
176
     1
290
     0
176
     1
290
     1
176
     1
290
     1
176
     1
290
     0
176
     1
290
     0
176
     1
290
     0
176
     1
290
     0
176
     1
290
     0
176
     1
290
     0
176
     1
 90
       50
176
     1
 40
0.0
176
     1
 40
1.0
176
     1
 90
        0
176
     1
 62
    18
420
        0
176
     1
 90
       50
176
     1
 90
        3
176
     1
 62
     5
420
      255
176
     1
290
     0
176
     1
 90
       50
176
     1
 90
       50
176
     1
 90
       50
176
     1
290
     0
176
     1
 90
       50
176
     1
 62
   256
176
     0
 40
1.0
176
     0
 90
        2
176
     1
  1
strokes_ogs.tif
176
     1
290
     0
176
     1
 40
1.0
176
     1
 40
1.0
176
     1
  0
VISUALSTYLE
  5
2A
102
{ACAD_REACTORS
330
29
102
}
330
29
100
AcDbVisualStyle
  2
Flat
 70
     0
177
     3
291
     1
 70
    58
 90
        2
176
     1
 90
        1
176
     1
 90
        1
176
     1
 90
        2
176
     1
 40
0.6
176
     1
 40
30.0
176
     1
 62
     7
420
 16777215
176
     1
 90
        0
176
     1
 90
        0
176
     1
 62
     7
176
     1
 62
   257
176
     1
 90
        1
176
     1
 90
        1
176
     1
 40
1.0
176
     1
 90
        8
176
     1
 62
     7
176
     1
 40
1.0
176
     1
 90
        1
176
     1
 90
        6
176
     1
 90
        2
176
     1
 62
     7
176
     1
 90
        5
176
     1
 90
        0
176
     1
 90
        0
176
     1
290
     0
176
     1
 90
       13
176
     1
 40
0.0
176
     1
 90
        0
176
     1
290
     0
176
     1
290
     1
176
     1
290
     1
176
     1
290
     0
176
     1
290
     0
176
     1
290
     0
176
     1
290
     0
176
     1
290
     0
176
     1
290
     0
176
     1
 90
       50
176
     1
 40
0.0
176
     1
 40
1.0
176
     1
 90
        0
176
     1
 62
    18
420
        0
176
     1
 90
       50
176
     1
 90
        3
176
     1
 62
     5
420
      255
176
     1
290
     0
176
     1
 90
       50
176
     1
 90
       50
176
     1
 90
       50
176
     1
290
     0
176
     1
 90
       50
176
     1
 62
   256
176
     0
 40
1.0
176
     0
 90
        2
176
     1
  1
strokes_ogs.tif
176
     1
290
     0
176
     1
 40
1.0
176
     1
 40
1.0
176
     1
  0
VISUALSTYLE
  5
2B
102
{ACAD_REACTORS
330
29
102
}
330
29
100
AcDbVisualStyle
  2
FlatWithEdges
 70
     1
177
     3
291
     1
 70
    58
 90
        2
176
     1
 90
        1
176
     1
 90
        1
176
     1
 90
        2
176
     1
 40
0.6
176
     1
 40
30.0
176
     1
 62
     7
420
 16777215
176
     1
 90
        1
176
     1
 90
        0
176
     1
 62
     7
176
     1
 62
   257
176
     1
 90
        1
176
     1
 90
        1
176
     1
 40
1.0
176
     1
 90
        0
176
     1
 62
   257
176
     1
 40
1.0
176
     1
 90
        1
176
     1
 90
        6
176
     1
 90
        2
176
     1
 62
     7
176
     1
 90
        5
176
     1
 90
        0
176
     1
 90
        0
176
     1
290
     0
176
     1
 90
       13
176
     1
 40
0.0
176
     1
 90
        0
176
     1
290
     0
176
     1
290
     1
176
     1
290
     1
176
     1
290
     0
176
     1
290
     0
176
     1
290
     0
176
     1
290
     0
176
     1
290
     0
176
     1
290
     0
176
     1
 90
       50
176
     1
 40
0.0
176
     1
 40
1.0
176
     1
 90
        0
176
     1
 62
    18
420
        0
176
     1
 90
       50
176
     1
 90
        3
176
     1
 62
     5
420
      255
176
     1
290
     0
176
     1
 90
       50
176
     1
 90
       50
176
     1
 90
       50
176
     1
290
     0
176
     1
 90
       50
176
     1
 62
   256
176
     0
 40
1.0
176
     0
 90
        2
176
     1
  1
strokes_ogs.tif
176
     1
290
     0
176
     1
 40
1.0
176
     1
 40
1.0
176
     1
  0
VISUALSTYLE
  5
2C
102
{ACAD_REACTORS
330
29
102
}
330
29
100
AcDbVisualStyle
  2
Gouraud
 70
     2
177
     3
291
     1
 70
    58
 90
        2
176
     1
 90
        2
176
     1
 90
        1
176
     1
 90
        2
176
     1
 40
0.6
176
     1
 40
30.0
176
     1
 62
     7
420
 16777215
176
     1
 90
        0
176
     1
 90
        0
176
     1
 62
     7
176
     1
 62
   257
176
     1
 90
        1
176
     1
 90
        1
176
     1
 40
1.0
176
     1
 90
        0
176
     1
 62
     7
176
     1
 40
1.0
176
     1
 90
        1
176
     1
 90
        6
176
     1
 90
        2
176
     1
 62
     7
176
     1
 90
        5
176
     1
 90
        0
176
     1
 90
        0
176
     1
290
     0
176
     1
 90
       13
176
     1
 40
0.0
176
     1
 90
        0
176
     1
290
     0
176
     1
290
     1
176
     1
290
     1
176
     1
290
     0
176
     1
290
     0
176
     1
290
     0
176
     1
290
     0
176
     1
290
     0
176
     1
290
     0
176
     1
 90
       50
176
     1
 40
0.0
176
     1
 40
1.0
176
     1
 90
        0
176
     1
 62
    18
420
        0
176
     1
 90
       50
176
     1
 90
        3
176
     1
 62
     5
420
      255
176
     1
290
     0
176
     1
 90
       50
176
     1
 90
       50
176
     1
 90
       50
176
     1
290
     0
176
     1
 90
       50
176
     1
 62
   256
176
     0
 40
1.0
176
     0
 90
        2
176
     1
  1
strokes_ogs.tif
176
     1
290
     0
176
     1
 40
1.0
176
     1
 40
1.0
176
     1
  0
VISUALSTYLE
  5
2D
102
{ACAD_REACTORS
330
29
102
}
330
29
100
AcDbVisualStyle
  2
GouraudWithEdges
 70
     3
177
     3
291
     1
 70
    58
 90
        2
176
     1
 90
        2
176
     1
 90
        1
176
     1
 90
        2
176
     1
 40
0.6
176
     1
 40
30.0
176
     1
 62
     7
420
 16777215
176
     1
 90
        1
176
     1
 90
        0
176
     1
 62
     7
176
     1
 62
   257
176
     1
 90
        1
176
     1
 90
        1
176
     1
 40
1.0
176
     1
 90
        0
176
     1
 62
   257
176
     1
 40
1.0
176
     1
 90
        1
176
     1
 90
        6
176
     1
 90
        2
176
     1
 62
     7
176
     1
 90
        5
176
     1
 90
        0
176
     1
 90
        0
176
     1
290
     0
176
     1
 90
       13
176
     1
 40
0.0
176
     1
 90
        0
176
     1
290
     0
176
     1
290
     1
176
     1
290
     1
176
     1
290
     0
176
     1
290
     0
176
     1
290
     0
176
     1
290
     0
176
     1
290
     0
176
     1
290
     0
176
     1
 90
       50
176
     1
 40
0.0
176
     1
 40
1.0
176
     1
 90
        0
176
     1
 62
    18
420
        0
176
     1
 90
       50
176
     1
 90
        3
176
     1
 62
     5
420
      255
176
     1
290
     0
176
     1
 90
       50
176
     1
 90
       50
176
     1
 90
       50
176
     1
290
     0
176
     1
 90
       50
176
     1
 62
   256
176
     0
 40
1.0
176
     0
 90
        2
176
     1
  1
strokes_ogs.tif
176
     1
290
     0
176
     1
 40
1.0
176
     1
 40
1.0
176
     1
  0
VISUALSTYLE
  5
31
102
{ACAD_REACTORS
330
29
102
}
330
29
100
AcDbVisualStyle
  2
Hidden
 70
     6
177
     3
291
     0
 70
    58
 90
        1
176
     1
 90
        2
176
     1
 90
        2
176
     1
 90
        0
176
     1
 40
0.6
176
     1
 40
30.0
176
     1
 62
     7
420
 16777215
176
     1
 90
        2
176
     1
 90
        2
176
     1
 62
     7
176
     1
 62
   257
176
     1
 90
        2
176
     1
 90
        1
176
     1
 40
40.0
176
     1
 90
        0
176
     1
 62
   257
176
     1
 40
1.0
176
     1
 90
        1
176
     1
 90
        6
176
     1
 90
        2
176
     1
 62
     7
176
     1
 90
        3
176
     1
 90
        0
176
     1
 90
        0
176
     1
290
     0
176
     1
 90
        1
176
     1
 40
0.0
176
     1
 90
        0
176
     1
290
     0
176
     1
290
     1
176
     1
290
     1
176
     1
290
     0
176
     1
290
     0
176
     1
290
     0
176
     1
290
     0
176
     1
290
     0
176
     1
290
     0
176
     1
 90
       50
176
     1
 40
0.0
176
     1
 40
1.0
176
     1
 90
        0
176
     1
 62
    18
420
        0
176
     1
 90
       50
176
     1
 90
        3
176
     1
 62
     5
420
      255
176
     1
290
     0
176
     1
 90
       50
176
     1
 90
       50
176
     1
 90
       50
176
     1
290
     0
176
     1
 90
       50
176
     1
 62
   256
176
     0
 40
1.0
176
     0
 90
        2
176
     1
  1
strokes_ogs.tif
176
     1
290
     0
176
     1
 40
1.0
176
     1
 40
1.0
176
     1
  0
VISUALSTYLE
  5
3F
102
{ACAD_REACTORS
330
29
102
}
330
29
100
AcDbVisualStyle
  2
JitterOff
 70
    20
177
     3
291
     1
 70
    58
 90
        2
176
     0
 90
        2
176
     0
 90
        0
176
     0
 90
        0
176
     0
 40
0.6
176
     0
 40
30.0
176
     0
 62
     7
420
 16777215
176
     0
 90
        1
176
     0
 90
        4
176
     0
 62
     7
176
     0
 62
   257
176
     0
 90
        1
176
     0
 90
        1
176
     0
 40
1.0
176
     0
 90
       10
176
     2
 62
     7
176
     0
 40
1.0
176
     0
 90
        1
176
     0
 90
        6
176
     0
 90
        2
176
     0
 62
     7
176
     0
 90
        5
176
     0
 90
        0
176
     0
 90
        0
176
     0
290
     0
176
     0
 90
        1
176
     0
 40
0.0
176
     0
 90
        0
176
     0
290
     0
176
     0
290
     1
176
     0
290
     1
176
     0
290
     0
176
     0
290
     0
176
     0
290
     0
176
     0
290
     0
176
     0
290
     0
176
     0
290
     0
176
     0
 90
       50
176
     0
 40
0.0
176
     0
 40
1.0
176
     0
 90
        0
176
     0
 62
    18
420
        0
176
     0
 90
       50
176
     0
 90
        3
176
     0
 62
     5
420
      255
176
     0
290
     0
176
     0
 90
       50
176
     0
 90
       50
176
     0
 90
       50
176
     0
290
     0
176
     0
 90
       50
176
     0
 62
   256
176
     0
 40
1.0
176
     0
 90
        2
176
     0
  1
strokes_ogs.tif
176
     0
290
     0
176
     0
 40
1.0
176
     0
 40
1.0
176
     0
  0
VISUALSTYLE
  5
37
102
{ACAD_REACTORS
330
29
102
}
330
29
100
AcDbVisualStyle
  2
Linepattern
 70
    14
177
     3
291
     1
 70
    58
 90
        2
176
     1
 90
        2
176
     1
 90
        0
176
     1
 90
        0
176
     1
 40
0.6
176
     1
 40
30.0
176
     1
 62
     7
420
 16777215
176
     1
 90
        1
176
     1
 90
        4
176
     1
 62
     7
176
     1
 62
   257
176
     1
 90
        7
176
     1
 90
        7
176
     1
 40
1.0
176
     1
 90
        8
176
     1
 62
     7
176
     1
 40
1.0
176
     1
 90
        1
176
     1
 90
        6
176
     1
 90
        2
176
     1
 62
     7
176
     1
 90
        5
176
     1
 90
        0
176
     1
 90
        0
176
     1
290
     0
176
     1
 90
        1
176
     1
 40
0.0
176
     1
 90
        0
176
     1
290
     0
176
     1
290
     1
176
     1
290
     1
176
     1
290
     0
176
     1
290
     0
176
     1
290
     0
176
     1
290
     0
176
     1
290
     0
176
     1
290
     0
176
     1
 90
       50
176
     1
 40
0.0
176
     1
 40
1.0
176
     1
 90
        0
176
     1
 62
    18
420
        0
176
     1
 90
       50
176
     1
 90
        3
176
     1
 62
     5
420
      255
176
     1
290
     0
176
     1
 90
       50
176
     1
 90
       50
176
     1
 90
       50
176
     1
290
     0
176
     1
 90
       50
176
     1
 62
   256
176
     0
 40
1.0
176
     0
 90
        2
176
     1
  1
strokes_ogs.tif
176
     1
290
     0
176
     1
 40
1.0
176
     1
 40
1.0
176
     1
  0
VISUALSTYLE
  5
40
102
{ACAD_REACTORS
330
29
102
}
330
29
100
AcDbVisualStyle
  2
OverhangOff
 70
    21
177
     3
291
     1
 70
    58
 90
        2
176
     0
 90
        2
176
     0
 90
        0
176
     0
 90
        0
176
     0
 40
0.6
176
     0
 40
30.0
176
     0
 62
     7
420
 16777215
176
     0
 90
        1
176
     0
 90
        4
176
     0
 62
     7
176
     0
 62
   257
176
     0
 90
        1
176
     0
 90
        1
176
     0
 40
1.0
176
     0
 90
        9
176
     2
 62
     7
176
     0
 40
1.0
176
     0
 90
        1
176
     0
 90
        6
176
     0
 90
        2
176
     0
 62
     7
176
     0
 90
        5
176
     0
 90
        0
176
     0
 90
        0
176
     0
290
     0
176
     0
 90
        1
176
     0
 40
0.0
176
     0
 90
        0
176
     0
290
     0
176
     0
290
     1
176
     0
290
     1
176
     0
290
     0
176
     0
290
     0
176
     0
290
     0
176
     0
290
     0
176
     0
290
     0
176
     0
290
     0
176
     0
 90
       50
176
     0
 40
0.0
176
     0
 40
1.0
176
     0
 90
        0
176
     0
 62
    18
420
        0
176
     0
 90
       50
176
     0
 90
        3
176
     0
 62
     5
420
      255
176
     0
290
     0
176
     0
 90
       50
176
     0
 90
       50
176
     0
 90
       50
176
     0
290
     0
176
     0
 90
       50
176
     0
 62
   256
176
     0
 40
1.0
176
     0
 90
        2
176
     0
  1
strokes_ogs.tif
176
     0
290
     0
176
     0
 40
1.0
176
     0
 40
1.0
176
     0
  0
VISUALSTYLE
  5
33
102
{ACAD_REACTORS
330
29
102
}
330
29
100
AcDbVisualStyle
  2
Realistic
 70
     8
177
     3
291
     0
 70
    58
 90
        2
176
     1
 90
        3
176
     1
 90
        0
176
     1
 90
        2
176
     1
 40
0.6
176
     1
 40
30.0
176
     1
 62
     7
420
 16777215
176
     1
 90
        0
176
     1
 90
        0
176
     1
 62
     7
176
     1
 62
   257
176
     1
 90
        1
176
     1
 90
        1
176
     1
 40
1.0
176
     1
 90
        8
176
     1
 62
   257
176
     1
 40
1.0
176
     1
 90
        1
176
     1
 90
        6
176
     1
 90
        2
176
     1
 62
     7
176
     1
 90
        3
176
     1
 90
        0
176
     1
 90
        0
176
     1
290
     0
176
     1
 90
       13
176
     1
 40
0.0
176
     1
 90
        0
176
     1
290
     0
176
     1
290
     1
176
     1
290
     1
176
     1
290
     0
176
     1
290
     0
176
     1
290
     0
176
     1
290
     0
176
     1
290
     0
176
     1
290
     0
176
     1
 90
       50
176
     1
 40
0.0
176
     1
 40
1.0
176
     1
 90
        0
176
     1
 62
    18
420
        0
176
     1
 90
       50
176
     1
 90
        3
176
     1
 62
     5
420
      255
176
     1
290
     0
176
     1
 90
       50
176
     1
 90
       50
176
     1
 90
       50
176
     1
290
     0
176
     1
 90
       50
176
     1
 62
   256
176
     0
 40
1.0
176
     0
 90
        2
176
     1
  1
strokes_ogs.tif
176
     1
290
     0
176
     1
 40
1.0
176
     1
 40
1.0
176
     1
  0
VISUALSTYLE
  5
3E
102
{ACAD_REACTORS
330
29
102
}
330
29
100
AcDbVisualStyle
  2
Shaded
 70
    27
177
     3
291
     0
 70
    58
 90
        2
176
     1
 90
        2
176
     1
 90
        1
176
     1
 90
        2
176
     1
 40
0.6
176
     1
 40
30.0
176
     1
 62
     7
420
 16777215
176
     1
 90
        0
176
     1
 90
        4
176
     1
 62
     7
176
     1
 62
   257
176
     1
 90
        1
176
     1
 90
        1
176
     1
 40
1.0
176
     1
 90
        8
176
     1
 62
   257
176
     1
 40
1.0
176
     1
 90
        1
176
     1
 90
        6
176
     1
 90
        2
176
     1
 62
     8
420
  7895160
176
     1
 90
        3
176
     1
 90
        0
176
     1
 90
        0
176
     1
290
     0
176
     1
 90
        5
176
     1
 40
0.0
176
     1
 90
        0
176
     1
290
     0
176
     1
290
     1
176
     1
290
     1
176
     1
290
     0
176
     1
290
     0
176
     1
290
     0
176
     1
290
     0
176
     1
290
     0
176
     1
290
     0
176
     1
 90
       50
176
     1
 40
0.0
176
     1
 40
1.0
176
     1
 90
        0
176
     1
 62
    18
420
        0
176
     1
 90
       50
176
     1
 90
        3
176
     1
 62
     5
420
      255
176
     1
290
     0
176
     1
 90
       50
176
     1
 90
       50
176
     1
 90
       50
176
     1
290
     0
176
     1
 90
       50
176
     1
 62
   256
176
     0
 40
1.0
176
     0
 90
        2
176
     1
  1
strokes_ogs.tif
176
     1
290
     0
176
     1
 40
1.0
176
     1
 40
1.0
176
     1
  0
VISUALSTYLE
  5
3D
102
{ACAD_REACTORS
330
29
102
}
330
29
100
AcDbVisualStyle
  2
Shaded with edges
 70
    26
177
     3
291
     0
 70
    58
 90
        2
176
     1
 90
        2
176
     1
 90
        1
176
     1
 90
        2
176
     1
 40
0.6
176
     1
 40
30.0
176
     1
 62
     7
420
 16777215
176
     1
 90
        1
176
     1
 90
        2
176
     1
 62
     7
176
     1
 62
   257
176
     1
 90
        2
176
     1
 90
        1
176
     1
 40
1.0
176
     1
 90
        8
176
     1
 62
   257
176
     1
 40
1.0
176
     1
 90
        1
176
     1
 90
        6
176
     1
 90
        2
176
     1
 62
     7
176
     1
 90
        3
176
     1
 90
        0
176
     1
 90
        0
176
     1
290
     0
176
     1
 90
        5
176
     1
 40
0.0
176
     1
 90
        0
176
     1
290
     0
176
     1
290
     1
176
     1
290
     1
176
     1
290
     0
176
     1
290
     0
176
     1
290
     0
176
     1
290
     0
176
     1
290
     0
176
     1
290
     0
176
     1
 90
       50
176
     1
 40
0.0
176
     1
 40
1.0
176
     1
 90
        0
176
     1
 62
    18
420
        0
176
     1
 90
       50
176
     1
 90
        3
176
     1
 62
     5
420
      255
176
     1
290
     0
176
     1
 90
       50
176
     1
 90
       50
176
     1
 90
       50
176
     1
290
     0
176
     1
 90
       50
176
     1
 62
   256
176
     0
 40
1.0
176
     0
 90
        2
176
     1
  1
strokes_ogs.tif
176
     1
290
     0
176
     1
 40
1.0
176
     1
 40
1.0
176
     1
  0
VISUALSTYLE
  5
3A
102
{ACAD_REACTORS
330
29
102
}
330
29
100
AcDbVisualStyle
  2
Shades of Gray
 70
    23
177
     3
291
     0
 70
    58
 90
        2
176
     1
 90
        2
176
     1
 90
        3
176
     1
 90
        0
176
     1
 40
0.6
176
     1
 40
30.0
176
     1
 62
     7
420
 16777215
176
     1
 90
        2
176
     1
 90
        2
176
     1
 62
     7
176
     1
 62
     7
176
     1
 90
        1
176
     1
 90
        1
176
     1
 40
40.0
176
     1
 90
        8
176
     1
 62
     7
176
     1
 40
1.0
176
     1
 90
        1
176
     1
 90
        6
176
     1
 90
        2
176
     1
 62
     7
176
     1
 90
        3
176
     1
 90
        0
176
     1
 90
        0
176
     1
290
     0
176
     1
 90
        1
176
     1
 40
0.0
176
     1
 90
        0
176
     1
290
     0
176
     1
290
     1
176
     1
290
     1
176
     1
290
     0
176
     1
290
     0
176
     1
290
     0
176
     1
290
     0
176
     1
290
     0
176
     1
290
     0
176
     1
 90
       50
176
     1
 40
0.0
176
     1
 40
1.0
176
     1
 90
        0
176
     1
 62
    18
420
        0
176
     1
 90
       50
176
     1
 90
        3
176
     1
 62
     5
420
      255
176
     1
290
     0
176
     1
 90
       50
176
     1
 90
       50
176
     1
 90
       50
176
     1
290
     0
176
     1
 90
       50
176
     1
 62
   256
176
     0
 40
1.0
176
     0
 90
        2
176
     1
  1
strokes_ogs.tif
176
     1
290
     0
176
     1
 40
1.0
176
     1
 40
1.0
176
     1
  0
VISUALSTYLE
  5
3B
102
{ACAD_REACTORS
330
29
102
}
330
29
100
AcDbVisualStyle
  2
Sketchy
 70
    24
177
     3
291
     0
 70
    58
 90
        1
176
     1
 90
        2
176
     1
 90
        2
176
     1
 90
        0
176
     1
 40
0.6
176
     1
 40
30.0
176
     1
 62
     7
420
 16777215
176
     1
 90
        2
176
     1
 90
        2
176
     1
 62
     7
176
     1
 62
     7
176
     1
 90
        1
176
     1
 90
        1
176
     1
 40
40.0
176
     1
 90
       11
176
     1
 62
     7
176
     1
 40
1.0
176
     1
 90
        1
176
     1
 90
        6
176
     1
 90
        2
176
     1
 62
     7
176
     1
 90
        6
176
     1
 90
        0
176
     1
 90
        0
176
     1
290
     0
176
     1
 90
        1
176
     1
 40
0.0
176
     1
 90
        0
176
     1
290
     0
176
     1
290
     1
176
     1
290
     1
176
     1
290
     0
176
     1
290
     0
176
     1
290
     0
176
     1
290
     0
176
     1
290
     0
176
     1
290
     0
176
     1
 90
       50
176
     1
 40
0.0
176
     1
 40
1.0
176
     1
 90
        0
176
     1
 62
    18
420
        0
176
     1
 90
       50
176
     1
 90
        3
176
     1
 62
     5
420
      255
176
     1
290
     0
176
     1
 90
       50
176
     1
 90
       50
176
     1
 90
       50
176
     1
290
     0
176
     1
 90
       50
176
     1
 62
   256
176
     0
 40
1.0
176
     0
 90
        2
176
     1
  1
strokes_ogs.tif
176
     1
290
     0
176
     1
 40
1.0
176
     1
 40
1.0
176
     1
  0
VISUALSTYLE
  5
36
102
{ACAD_REACTORS
330
29
102
}
330
29
100
AcDbVisualStyle
  2
Thicken
 70
    13
177
     3
291
     1
 70
    58
 90
        2
176
     1
 90
        2
176
     1
 90
        0
176
     1
 90
        0
176
     1
 40
0.6
176
     1
 40
30.0
176
     1
 62
     7
420
 16777215
176
     1
 90
        1
176
     1
 90
        4
176
     1
 62
     7
176
     1
 62
   257
176
     1
 90
        1
176
     1
 90
        1
176
     1
 40
1.0
176
     1
 90
       12
176
     1
 62
     7
176
     1
 40
1.0
176
     1
 90
        1
176
     1
 90
        6
176
     1
 90
        2
176
     1
 62
     7
176
     1
 90
        5
176
     1
 90
        0
176
     1
 90
        0
176
     1
290
     0
176
     1
 90
        1
176
     1
 40
0.0
176
     1
 90
        0
176
     1
290
     0
176
     1
290
     1
176
     1
290
     1
176
     1
290
     0
176
     1
290
     0
176
     1
290
     0
176
     1
290
     0
176
     1
290
     0
176
     1
290
     0
176
     1
 90
       50
176
     1
 40
0.0
176
     1
 40
1.0
176
     1
 90
        0
176
     1
 62
    18
420
        0
176
     1
 90
       50
176
     1
 90
        3
176
     1
 62
     5
420
      255
176
     1
290
     0
176
     1
 90
       50
176
     1
 90
       50
176
     1
 90
       50
176
     1
290
     0
176
     1
 90
       50
176
     1
 62
   256
176
     0
 40
1.0
176
     0
 90
        2
176
     1
  1
strokes_ogs.tif
176
     1
290
     0
176
     1
 40
1.0
176
     1
 40
1.0
176
     1
  0
VISUALSTYLE
  5
30
102
{ACAD_REACTORS
330
29
102
}
330
29
100
AcDbVisualStyle
  2
Wireframe
 70
     5
177
     3
291
     0
 70
    58
 90
        0
176
     1
 90
        2
176
     1
 90
        0
176
     1
 90
        0
176
     1
 40
0.6
176
     1
 40
30.0
176
     1
 62
     7
420
 16777215
176
     1
 90
        1
176
     1
 90
        4
176
     1
 62
     7
176
     1
 62
   257
176
     1
 90
        1
176
     1
 90
        1
176
     1
 40
1.0
176
     1
 90
        0
176
     1
 62
   257
176
     1
 40
1.0
176
     1
 90
        1
176
     1
 90
        6
176
     1
 90
        2
176
     1
 62
     7
176
     1
 90
        3
176
     1
 90
        0
176
     1
 90
        0
176
     1
290
     0
176
     1
 90
        1
176
     1
 40
0.0
176
     1
 90
        0
176
     1
290
     0
176
     1
290
     1
176
     1
290
     1
176
     1
290
     0
176
     1
290
     0
176
     1
290
     0
176
     1
290
     0
176
     1
290
     0
176
     1
290
     0
176
     1
 90
       50
176
     1
 40
0.0
176
     1
 40
1.0
176
     1
 90
        0
176
     1
 62
    18
420
        0
176
     1
 90
       50
176
     1
 90
        3
176
     1
 62
     5
420
      255
176
     1
290
     0
176
     1
 90
       50
176
     1
 90
       50
176
     1
 90
       50
176
     1
290
     0
176
     1
 90
       50
176
     1
 62
   256
176
     0
 40
1.0
176
     0
 90
        2
176
     1
  1
strokes_ogs.tif
176
     1
290
     0
176
     1
 40
1.0
176
     1
 40
1.0
176
     1
  0
VISUALSTYLE
  5
3C
102
{ACAD_REACTORS
330
29
102
}
330
29
100
AcDbVisualStyle
  2
X-Ray
 70
    25
177
     3
291
     0
 70
    58
 90
        2
176
     1
 90
        2
176
     1
 90
        1
176
     1
 90
        1
176
     1
 40
0.5
176
     1
 40
30.0
176
     1
 62
     7
420
 16777215
176
     1
 90
        1
176
     1
 90
        0
176
     1
 62
     7
176
     1
 62
   257
176
     1
 90
        1
176
     1
 90
        1
176
     1
 40
1.0
176
     1
 90
        8
176
     1
 62
     7
176
     1
 40
1.0
176
     1
 90
        1
176
     1
 90
        6
176
     1
 90
        2
176
     1
 62
     7
176
     1
 90
        3
176
     1
 90
        0
176
     1
 90
        0
176
     1
290
     0
176
     1
 90
       13
176
     1
 40
0.0
176
     1
 90
        0
176
     1
290
     0
176
     1
290
     1
176
     1
290
     1
176
     1
290
     0
176
     1
290
     0
176
     1
290
     0
176
     1
290
     0
176
     1
290
     0
176
     1
290
     0
176
     1
 90
       50
176
     1
 40
0.0
176
     1
 40
1.0
176
     1
 90
        0
176
     1
 62
    18
420
        0
176
     1
 90
       50
176
     1
 90
        3
176
     1
 62
     5
420
      255
176
     1
290
     0
176
     1
 90
       50
176
     1
 90
       50
176
     1
 90
       50
176
     1
290
     0
176
     1
 90
       50
176
     1
 62
   256
176
     0
 40
1.0
176
     0
 90
        2
176
     1
  1
strokes_ogs.tif
176
     1
290
     0
176
     1
 40
1.0
176
     1
 40
1.0
176
     1
  0
DICTIONARYVAR
  5
170
102
{ACAD_REACTORS
330
16B
102
}
330
16B
100
DictionaryVariables
280
     0
  1
1:1
  0
DICTIONARYVAR
  5
16D
102
{ACAD_REACTORS
330
16B
102
}
330
16B
100
DictionaryVariables
280
     0
  1
STANDARD
  0
DICTIONARYVAR
  5
16C
102
{ACAD_REACTORS
330
16B
102
}
330
16B
100
DictionaryVariables
280
     0
  1
STANDARD
  0
DICTIONARYVAR
  5
16E
102
{ACAD_REACTORS
330
16B
102
}
330
16B
100
DictionaryVariables
280
     0
  1
Imperial24
  0
DICTIONARYVAR
  5
16F
102
{ACAD_REACTORS
330
16B
102
}
330
16B
100
DictionaryVariables
280
     0
  1
Imperial24
  0
DICTIONARY
  5
1A
330
19
100
AcDbDictionary
280
     1
281
     1
  3
BUMPTILE
360
1C
  3
DIFFUSETILE
360
1B
  3
OPACITYTILE
360
1F
  3
REFLECTIONTILE
360
1E
  3
REFRACTIONTILE
360
20
  3
SPECULARTILE
360
1D
  0
DICTIONARY
  5
12
330
11
100
AcDbDictionary
280
     1
281
     1
  3
BUMPTILE
360
14
  3
DIFFUSETILE
360
13
  3
OPACITYTILE
360
17
  3
REFLECTIONTILE
360
16
  3
REFRACTIONTILE
360
18
  3
SPECULARTILE
360
15
  0
DICTIONARY
  5
22
330
21
100
AcDbDictionary
280
     1
281
     1
  3
BUMPTILE
360
24
  3
DIFFUSETILE
360
23
  3
OPACITYTILE
360
27
  3
REFLECTIONTILE
360
26
  3
REFRACTIONTILE
360
28
  3
SPECULARTILE
360
25
  0
DICTIONARY
  5
171
330
65
100
AcDbDictionary
280
     1
281
     1
  3
ACAD_ROUNDTRIP_2008_TABLESTYLE_CELLSTYLEMAP
360
172
  0
XRECORD
  5
1C
102
{ACAD_REACTORS
330
1A
102
}
330
1A
100
AcDbXrecord
280
     1
270
     1
271
     1
  0
XRECORD
  5
1B
102
{ACAD_REACTORS
330
1A
102
}
330
1A
100
AcDbXrecord
280
     1
270
     1
271
     1
  0
XRECORD
  5
1F
102
{ACAD_REACTORS
330
1A
102
}
330
1A
100
AcDbXrecord
280
     1
270
     1
271
     1
  0
XRECORD
  5
1E
102
{ACAD_REACTORS
330
1A
102
}
330
1A
100
AcDbXrecord
280
     1
270
     1
271
     1
  0
XRECORD
  5
20
102
{ACAD_REACTORS
330
1A
102
}
330
1A
100
AcDbXrecord
280
     1
270
     1
271
     1
  0
XRECORD
  5
1D
102
{ACAD_REACTORS
330
1A
102
}
330
1A
100
AcDbXrecord
280
     1
270
     1
271
     1
  0
XRECORD
  5
14
102
{ACAD_REACTORS
330
12
102
}
330
12
100
AcDbXrecord
280
     1
270
     1
271
     1
  0
XRECORD
  5
13
102
{ACAD_REACTORS
330
12
102
}
330
12
100
AcDbXrecord
280
     1
270
     1
271
     1
  0
XRECORD
  5
17
102
{ACAD_REACTORS
330
12
102
}
330
12
100
AcDbXrecord
280
     1
270
     1
271
     1
  0
XRECORD
  5
16
102
{ACAD_REACTORS
330
12
102
}
330
12
100
AcDbXrecord
280
     1
270
     1
271
     1
  0
XRECORD
  5
18
102
{ACAD_REACTORS
330
12
102
}
330
12
100
AcDbXrecord
280
     1
270
     1
271
     1
  0
XRECORD
  5
15
102
{ACAD_REACTORS
330
12
102
}
330
12
100
AcDbXrecord
280
     1
270
     1
271
     1
  0
XRECORD
  5
24
102
{ACAD_REACTORS
330
22
102
}
330
22
100
AcDbXrecord
280
     1
270
     1
271
     1
  0
XRECORD
  5
23
102
{ACAD_REACTORS
330
22
102
}
330
22
100
AcDbXrecord
280
     1
270
     1
271
     1
  0
XRECORD
  5
27
102
{ACAD_REACTORS
330
22
102
}
330
22
100
AcDbXrecord
280
     1
270
     1
271
     1
  0
XRECORD
  5
26
102
{ACAD_REACTORS
330
22
102
}
330
22
100
AcDbXrecord
280
     1
270
     1
271
     1
  0
XRECORD
  5
28
102
{ACAD_REACTORS
330
22
102
}
330
22
100
AcDbXrecord
280
     1
270
     1
271
     1
  0
XRECORD
  5
25
102
{ACAD_REACTORS
330
22
102
}
330
22
100
AcDbXrecord
280
     1
270
     1
271
     1
  0
CELLSTYLEMAP
  5
172
102
{ACAD_REACTORS
330
171
102
}
330
171
100
AcDbCellStyleMap
 90
        3
300
CELLSTYLE
  1
TABLEFORMAT_BEGIN
 90
        5
170
     1
 91
        0
 92
    32768
 62
   257
 93
        1
300
CONTENTFORMAT
  1
CONTENTFORMAT_BEGIN
 90
        0
 91
        0
 92
      512
 93
        0
300

 40
0.0
140
1.0
 94
        5
 62
     0
340
55
144
0.25
309
CONTENTFORMAT_END
171
     0
 94
        0
309
TABLEFORMAT_END
  1
CELLSTYLE_BEGIN
 90
        1
 91
        1
300
_TITLE
309
CELLSTYLE_END
300
CELLSTYLE
  1
TABLEFORMAT_BEGIN
 90
        5
170
     1
 91
        0
 92
        0
 62
   257
 93
        1
300
CONTENTFORMAT
  1
CONTENTFORMAT_BEGIN
 90
        0
 91
        0
 92
      512
 93
        0
300

 40
0.0
140
1.0
 94
        5
 62
     0
340
55
144
0.18
309
CONTENTFORMAT_END
171
     0
 94
        0
309
TABLEFORMAT_END
  1
CELLSTYLE_BEGIN
 90
        2
 91
        1
300
_HEADER
309
CELLSTYLE_END
300
CELLSTYLE
  1
TABLEFORMAT_BEGIN
 90
        5
170
     1
 91
        0
 92
        0
 62
   257
 93
        1
300
CONTENTFORMAT
  1
CONTENTFORMAT_BEGIN
 90
        0
 91
        0
 92
      512
 93
        0
300

 40
0.0
140
1.0
 94
        2
 62
     0
340
55
144
0.18
309
CONTENTFORMAT_END
171
     0
 94
        0
309
TABLEFORMAT_END
  1
CELLSTYLE_BEGIN
 90
        3
 91
        2
300
_DATA
309
CELLSTYLE_END
  0
ENDSEC
  0
EOF
