  0
SECTION
  2
HEADER
  9
$ACADVER
  1
AC1024
  9
$ACADMAINTVER
 70
   181
  9
$DWGCODEPAGE
  3
ANSI_932
  9
$LASTSAVEDBY
  1
tabli
  9
$INSBASE
 10
0.0
 20
0.0
 30
0.0
  9
$EXTMIN
 10
-9605.695910862939
 20
-13365.52764048072
 30
0.0
  9
$EXTMAX
 10
177.373292863449
 20
36.30107401518762
 30
0.0000000000000916
  9
$LIMMIN
 10
11.41515163845486
 20
3.700032552083333
  9
$LIMMAX
 10
195.6693657769097
 20
305.8443806966146
  9
$ORTHOMODE
 70
     1
  9
$REGENMODE
 70
     1
  9
$FILLMODE
 70
     1
  9
$QTEXTMODE
 70
     0
  9
$MIRRTEXT
 70
     1
  9
$LTSCALE
 40
1.0
  9
$ATTMODE
 70
     1
  9
$TEXTSIZE
 40
0.2
  9
$TRACEWID
 40
0.05
  9
$TEXTSTYLE
  7
GOTHIC
  9
$CLAYER
  8
PARTS
  9
$CELTYPE
  6
ByLayer
  9
$CECOLOR
 62
   256
  9
$CELTSCALE
 40
1.0
  9
$DISPSILH
 70
     0
  9
$DIMSCALE
 40
4.0
  9
$DIMASZ
 40
2.5
  9
$DIMEXO
 40
1.0
  9
$DIMDLI
 40
2.5
  9
$DIMRND
 40
0.0
  9
$DIMDLE
 40
0.0
  9
$DIMEXE
 40
1.0
  9
$DIMTP
 40
0.0
  9
$DIMTM
 40
0.0
  9
$DIMTXT
 40
2.5
  9
$DIMCEN
 40
2.5
  9
$DIMTSZ
 40
0.0
  9
$DIMTOL
 70
     0
  9
$DIMLIM
 70
     0
  9
$DIMTIH
 70
     0
  9
$DIMTOH
 70
     0
  9
$DIMSE1
 70
     0
  9
$DIMSE2
 70
     0
  9
$DIMTAD
 70
     1
  9
$DIMZIN
 70
     0
  9
$DIMBLK
  1

  9
$DIMASO
 70
     1
  9
$DIMSHO
 70
     1
  9
$DIMPOST
  1

  9
$DIMAPOST
  1

  9
$DIMALT
 70
     0
  9
$DIMALTD
 70
     2
  9
$DIMALTF
 40
0.03937
  9
$DIMLFAC
 40
1.0
  9
$DIMTOFL
 70
     0
  9
$DIMTVP
 40
0.0
  9
$DIMTIX
 70
     0
  9
$DIMSOXD
 70
     0
  9
$DIMSAH
 70
     1
  9
$DIMBLK1
  1

  9
$DIMBLK2
  1

  9
$DIMSTYLE
  2
SC4
  9
$DIMCLRD
 70
   256
  9
$DIMCLRE
 70
   256
  9
$DIMCLRT
 70
     4
  9
$DIMTFAC
 40
1.0
  9
$DIMGAP
 40
1.0
  9
$DIMJUST
 70
     0
  9
$DIMSD1
 70
     0
  9
$DIMSD2
 70
     0
  9
$DIMTOLJ
 70
     1
  9
$DIMTZIN
 70
     0
  9
$DIMALTZ
 70
     0
  9
$DIMALTTZ
 70
     0
  9
$DIMUPT
 70
     0
  9
$DIMDEC
 70
     0
  9
$DIMTDEC
 70
     0
  9
$DIMALTU
 70
     2
  9
$DIMALTTD
 70
     2
  9
$DIMTXSTY
  7
GOTHIC
  9
$DIMAUNIT
 70
     0
  9
$DIMADEC
 70
     0
  9
$DIMALTRND
 40
0.0
  9
$DIMAZIN
 70
     0
  9
$DIMDSEP
 70
     0
  9
$DIMATFIT
 70
     3
  9
$DIMFRAC
 70
     0
  9
$DIMLDRBLK
  1

  9
$DIMLUNIT
 70
     2
  9
$DIMLWD
 70
    -2
  9
$DIMLWE
 70
    -2
  9
$DIMTMOVE
 70
     0
  9
$DIMFXL
 40
1.0
  9
$DIMFXLON
 70
     0
  9
$DIMJOGANG
 40
0.7853981633974483
  9
$DIMTFILL
 70
     0
  9
$DIMTFILLCLR
 70
     0
  9
$DIMARCSYM
 70
     0
  9
$DIMLTYPE
  6

  9
$DIMLTEX1
  6

  9
$DIMLTEX2
  6

  9
$DIMTXTDIRECTION
 70
     0
  9
$LUNITS
 70
     2
  9
$LUPREC
 70
     4
  9
$SKETCHINC
 40
0.1
  9
$FILLETRAD
 40
2.0
  9
$AUNITS
 70
     0
  9
$AUPREC
 70
     0
  9
$MENU
  1
acad
  9
$ELEVATION
 40
0.0
  9
$PELEVATION
 40
0.0
  9
$THICKNESS
 40
0.0
  9
$LIMCHECK
 70
     0
  9
$CHAMFERA
 40
1.0
  9
$CHAMFERB
 40
1.0
  9
$CHAMFERC
 40
0.0
  9
$CHAMFERD
 40
0.0
  9
$SKPOLY
 70
     0
  9
$TDCREATE
 40
2457310.702621806
  9
$TDUCREATE
 40
2457310.327621805
  9
$TDUPDATE
 40
2458166.414161111
  9
$TDUUPDATE
 40
2458166.039161111
  9
$TDINDWG
 40
2.1751031597
  9
$TDUSRTIMER
 40
2.1751031597
  9
$USRTIMER
 70
     1
  9
$ANGBASE
 50
0.0
  9
$ANGDIR
 70
     0
  9
$PDMODE
 70
     0
  9
$PDSIZE
 40
0.0
  9
$PLINEWID
 40
0.0
  9
$SPLFRAME
 70
     0
  9
$SPLINETYPE
 70
     6
  9
$SPLINESEGS
 70
     8
  9
$HANDSEED
  5
2CABE
  9
$SURFTAB1
 70
     6
  9
$SURFTAB2
 70
     6
  9
$SURFTYPE
 70
     6
  9
$SURFU
 70
     6
  9
$SURFV
 70
     6
  9
$UCSBASE
  2

  9
$UCSNAME
  2

  9
$UCSORG
 10
0.0
 20
0.0
 30
0.0
  9
$UCSXDIR
 10
1.0
 20
0.0
 30
0.0
  9
$UCSYDIR
 10
0.0
 20
1.0
 30
0.0
  9
$UCSORTHOREF
  2

  9
$UCSORTHOVIEW
 70
     1
  9
$UCSORGTOP
 10
0.0
 20
0.0
 30
0.0
  9
$UCSORGBOTTOM
 10
0.0
 20
0.0
 30
0.0
  9
$UCSORGLEFT
 10
0.0
 20
0.0
 30
0.0
  9
$UCSORGRIGHT
 10
0.0
 20
0.0
 30
0.0
  9
$UCSORGFRONT
 10
0.0
 20
0.0
 30
0.0
  9
$UCSORGBACK
 10
0.0
 20
0.0
 30
0.0
  9
$PUCSBASE
  2

  9
$PUCSNAME
  2

  9
$PUCSORG
 10
0.0
 20
0.0
 30
0.0
  9
$PUCSXDIR
 10
1.0
 20
0.0
 30
0.0
  9
$PUCSYDIR
 10
0.0
 20
1.0
 30
0.0
  9
$PUCSORTHOREF
  2

  9
$PUCSORTHOVIEW
 70
     0
  9
$PUCSORGTOP
 10
0.0
 20
0.0
 30
0.0
  9
$PUCSORGBOTTOM
 10
0.0
 20
0.0
 30
0.0
  9
$PUCSORGLEFT
 10
0.0
 20
0.0
 30
0.0
  9
$PUCSORGRIGHT
 10
0.0
 20
0.0
 30
0.0
  9
$PUCSORGFRONT
 10
0.0
 20
0.0
 30
0.0
  9
$PUCSORGBACK
 10
0.0
 20
0.0
 30
0.0
  9
$USERI1
 70
     0
  9
$USERI2
 70
     0
  9
$USERI3
 70
     0
  9
$USERI4
 70
     0
  9
$USERI5
 70
     0
  9
$USERR1
 40
0.0
  9
$USERR2
 40
0.0
  9
$USERR3
 40
0.0
  9
$USERR4
 40
0.0
  9
$USERR5
 40
0.0
  9
$WORLDVIEW
 70
     1
  9
$SHADEDGE
 70
     3
  9
$SHADEDIF
 70
    70
  9
$TILEMODE
 70
     1
  9
$MAXACTVP
 70
    16
  9
$PINSBASE
 10
0.0
 20
0.0
 30
0.0
  9
$PLIMCHECK
 70
     0
  9
$PEXTMIN
 10
25.69999999999999
 20
19.5
 30
0.0
  9
$PEXTMAX
 10
231.3
 20
175.5
 30
0.0
  9
$PLIMMIN
 10
-20.0
 20
-7.5
  9
$PLIMMAX
 10
277.0
 20
202.5
  9
$UNITMODE
 70
     0
  9
$VISRETAIN
 70
     0
  9
$PLINEGEN
 70
     1
  9
$PSLTSCALE
 70
     0
  9
$TREEDEPTH
 70
  3020
  9
$CMLSTYLE
  2
Standard
  9
$CMLJUST
 70
     0
  9
$CMLSCALE
 40
1.0
  9
$PROXYGRAPHICS
 70
     0
  9
$MEASUREMENT
 70
     1
  9
$CELWEIGHT
370
    -1
  9
$ENDCAPS
280
     0
  9
$JOINSTYLE
280
     0
  9
$LWDISPLAY
290
     0
  9
$INSUNITS
 70
     0
  9
$HYPERLINKBASE
  1

  9
$STYLESHEET
  1
KI.ctb
  9
$XEDIT
290
     1
  9
$CEPSNTYPE
380
     0
  9
$PSTYLEMODE
290
     1
  9
$FINGERPRINTGUID
  2

  9
$VERSIONGUID
  2
{F9420B9A-C0EF-4C99-BDF8-F772B889F66A}
  9
$EXTNAMES
290
     1
  9
$PSVPSCALE
 40
0.0
  9
$OLESTARTUP
290
     0
  9
$SORTENTS
280
   127
  9
$INDEXCTL
280
     0
  9
$HIDETEXT
280
     1
  9
$XCLIPFRAME
280
     2
  9
$HALOGAP
280
     0
  9
$OBSCOLOR
 70
   257
  9
$OBSLTYPE
280
     0
  9
$INTERSECTIONDISPLAY
280
     0
  9
$INTERSECTIONCOLOR
 70
   257
  9
$DIMASSOC
280
     2
  9
$PROJECTNAME
  1

  9
$CAMERADISPLAY
290
     0
  9
$LENSLENGTH
 40
50.0
  9
$CAMERAHEIGHT
 40
0.0
  9
$STEPSPERSEC
 40
2.0
  9
$STEPSIZE
 40
6.0
  9
$3DDWFPREC
 40
2.0
  9
$PSOLWIDTH
 40
0.25
  9
$PSOLHEIGHT
 40
4.0
  9
$LOFTANG1
 40
1.570796326794896
  9
$LOFTANG2
 40
1.570796326794896
  9
$LOFTMAG1
 40
0.0
  9
$LOFTMAG2
 40
0.0
  9
$LOFTPARAM
 70
     7
  9
$LOFTNORMALS
280
     1
  9
$LATITUDE
 40
37.795
  9
$LONGITUDE
 40
-122.394
  9
$NORTHDIRECTION
 40
0.0
  9
$TIMEZONE
 70
 -8000
  9
$LIGHTGLYPHDISPLAY
280
     1
  9
$TILEMODELIGHTSYNCH
280
     1
  9
$CMATERIAL
347
1A5
  9
$SOLIDHIST
280
     1
  9
$SHOWHIST
280
     1
  9
$DWFFRAME
280
     2
  9
$DGNFRAME
280
     2
  9
$REALWORLDSCALE
290
     1
  9
$INTERFERECOLOR
 62
   256
  9
$INTERFEREOBJVS
345
172
  9
$INTERFEREVPVS
346
16F
  9
$CSHADOW
280
     0
  9
$SHADOWPLANELOCATION
 40
0.0
  0
ENDSEC
  0
SECTION
  2
CLASSES
  0
CLASS
  1
IMAGE
  2
AcDbRasterImage
  3
ISM
 90
     2175
 91
        0
280
     0
281
     1
  0
CLASS
  1
DICTIONARYVAR
  2
AcDbDictionaryVar
  3
ObjectDBX Classes
 90
        0
 91
        6
280
     0
281
     0
  0
CLASS
  1
RASTERVARIABLES
  2
AcDbRasterVariables
  3
ISM
 90
        0
 91
        1
280
     0
281
     0
  0
CLASS
  1
IMAGEDEF
  2
AcDbRasterImageDef
  3
ISM
 90
        0
 91
        0
280
     0
281
     0
  0
CLASS
  1
IMAGEDEF_REACTOR
  2
AcDbRasterImageDefReactor
  3
ISM
 90
        1
 91
        0
280
     0
281
     0
  0
CLASS
  1
IDBUFFER
  2
AcDbIdBuffer
  3
ObjectDBX Classes
 90
        0
 91
        0
280
     0
281
     0
  0
CLASS
  1
SPATIAL_FILTER
  2
AcDbSpatialFilter
  3
ObjectDBX Classes
 90
        0
 91
        0
280
     0
281
     0
  0
CLASS
  1
SORTENTSTABLE
  2
AcDbSortentsTable
  3
ObjectDBX Classes
 90
        0
 91
        0
280
     0
281
     0
  0
CLASS
  1
LAYER_INDEX
  2
AcDbLayerIndex
  3
ObjectDBX Classes
 90
        0
 91
        0
280
     0
281
     0
  0
CLASS
  1
SPATIAL_INDEX
  2
AcDbSpatialIndex
  3
ObjectDBX Classes
 90
        0
 91
        0
280
     0
281
     0
  0
CLASS
  1
OBJECT_PTR
  2
CAseDLPNTableRecord
  3
ASE-LPNTableRecord
 90
        1
 91
        0
280
     0
281
     0
  0
CLASS
  1
PLOTSETTINGS
  2
AcDbPlotSettings
  3
ObjectDBX Classes
 90
        0
 91
        0
280
     0
281
     0
  0
CLASS
  1
ACDBDICTIONARYWDFLT
  2
AcDbDictionaryWithDefault
  3
ObjectDBX Classes
 90
        0
 91
        1
280
     0
281
     0
  0
CLASS
  1
WIPEOUT
  2
AcDbWipeout
  3
WipeOut|Product Desc: Object Enabler for WipeOut entity | Company: Autodesk, Inc. | WEB Address: www.autodesk.com
 90
     2175
 91
        0
280
     0
281
     1
  0
CLASS
  1
WIPEOUTVARIABLES
  2
AcDbWipeoutVariables
  3
"WipeOut|Product Desc:     WipeOut Dbx Application|Company:          Autodesk, Inc.|WEB Address:      www.autodesk.com"
 90
        0
 91
        1
280
     0
281
     0
  0
CLASS
  1
RTEXT
  2
RText
  3
RText|AutoCAD Express Tool|expresstools@autodesk.com
 90
        0
 91
        0
280
     0
281
     1
  0
CLASS
  1
ARCALIGNEDTEXT
  2
AcDbArcAlignedText
  3
ATEXT|AutoCAD Express Tool|expresstools@autodesk.com
 90
        0
 91
        0
280
     0
281
     1
  0
CLASS
  1
VISUALSTYLE
  2
AcDbVisualStyle
  3
ObjectDBX Classes
 90
     4095
 91
       25
280
     0
281
     0
  0
CLASS
  1
SCALE
  2
AcDbScale
  3
ObjectDBX Classes
 90
     1153
 91
       33
280
     0
281
     0
  0
CLASS
  1
MATERIAL
  2
AcDbMaterial
  3
ObjectDBX Classes
 90
     1153
 91
        3
280
     0
281
     0
  0
CLASS
  1
TABLESTYLE
  2
AcDbTableStyle
  3
ObjectDBX Classes
 90
     4095
 91
        1
280
     0
281
     0
  0
CLASS
  1
MLEADERSTYLE
  2
AcDbMLeaderStyle
  3
ACDB_MLEADERSTYLE_CLASS
 90
     4095
 91
        2
280
     0
281
     0
  0
CLASS
  1
SUN
  2
AcDbSun
  3
SCENEOE
 90
     1153
 91
        3
280
     0
281
     0
  0
CLASS
  1
DIMASSOC
  2
AcDbDimAssoc
  3
"AcDbDimAssoc|Product Desc:     AcDim ARX App For Dimension|Company:          Autodesk, Inc.|WEB Address:      www.autodesk.com"
 90
        0
 91
        7
280
     0
281
     0
  0
CLASS
  1
HELIX
  2
AcDbHelix
  3
ObjectDBX Classes
 90
     4095
 91
        0
280
     0
281
     1
  0
CLASS
  1
GRADIENT_BACKGROUND
  2
AcDbGradientBackground
  3
SCENEOE
 90
     4095
 91
        2
280
     0
281
     0
  0
CLASS
  1
ACDB_ALDIMOBJECTCONTEXTDATA_CLASS
  2
AcDbAlignedDimensionObjectContextData
  3
ObjectDBX Classes
 90
     1153
 91
        0
280
     0
281
     0
  0
CLASS
  1
ACDB_LEADEROBJECTCONTEXTDATA_CLASS
  2
AcDbLeaderObjectContextData
  3
ObjectDBX Classes
 90
     1153
 91
        0
280
     0
281
     0
  0
CLASS
  1
BmDbComponentDefinitionManager
  2
BmDbComponentDefinitionManager
  3
BricsCAD | Description: Mechanical data
 90
     1025
 91
        0
280
     0
281
     0
  0
CLASS
  1
BmDbAssemblyDefinition
  2
BmDbAssemblyDefinition
  3
BricsCAD|Description: Mechanical data
 90
     1025
 91
        0
280
     0
281
     0
  0
CLASS
  1
BmDbXHardwarePartDefinition
  2
BmDbXHardwarePartDefinition
  3
BricsCAD|Description: Mechanical data
 90
     1025
 91
        0
280
     0
281
     0
  0
CLASS
  1
BmDbComponentInstance
  2
BmDbComponentInstance
  3
BricsCAD|Description: Mechanical data
 90
     1025
 91
        0
280
     0
281
     0
  0
CLASS
  1
ACDBSECTIONVIEWSTYLE
  2
AcDbSectionViewStyle
  3
ObjectDBX Classes
 90
     1025
 91
        1
280
     0
281
     0
  0
CLASS
  1
ACDBDETAILVIEWSTYLE
  2
AcDbDetailViewStyle
  3
ObjectDBX Classes
 90
     1025
 91
        1
280
     0
281
     0
  0
CLASS
  1
CELLSTYLEMAP
  2
AcDbCellStyleMap
  3
ObjectDBX Classes
 90
     1152
 91
        1
280
     0
281
     0
  0
ENDSEC
  0
SECTION
  2
TABLES
  0
TABLE
  2
VPORT
  5
7
330
0
100
AcDbSymbolTable
 70
     1
  0
VPORT
  5
15
102
{ACAD_XDICTIONARY
360
1DC63
102
}
330
7
100
AcDbSymbolTableRecord
100
AcDbViewportTableRecord
  2
*ACTIVE
 70
     0
 10
0.0
 20
0.0
 11
1.0
 21
1.0
 12
-9474.12010541768
 22
-11492.65218435736
 13
0.0
 23
0.0
 14
1.0
 24
1.0
 15
0.0
 25
0.0
 16
0.0
 26
0.0
 36
1.0
 17
0.0
 27
0.0
 37
0.0
 40
517.5844085161499
 41
2.171967020023557
 42
50.0
 43
0.0
 44
0.0
 50
0.0
 51
0.0
 71
    16
 72
   100
 73
     1
 74
     1
 75
     0
 76
     0
 77
     0
 78
     0
281
     0
 65
     0
110
0.0
120
0.0
130
0.0
111
1.0
121
0.0
131
0.0
112
0.0
122
1.0
132
0.0
 79
     0
146
0.0
348
16E
 60
     2
 61
     5
292
     1
282
     1
141
0.0
142
0.0
 63
   250
421
  3355443
361
1AD
1001
ACAD_NAV_VCDISPLAY
1070
     3
  0
ENDTAB
  0
TABLE
  2
LTYPE
  5
4
330
0
100
AcDbSymbolTable
 70
    10
  0
LTYPE
  5
11
330
4
100
AcDbSymbolTableRecord
100
AcDbLinetypeTableRecord
  2
ByBlock
 70
     0
  3

 72
    65
 73
     0
 40
0.0
  0
LTYPE
  5
12
330
4
100
AcDbSymbolTableRecord
100
AcDbLinetypeTableRecord
  2
ByLayer
 70
     0
  3

 72
    65
 73
     0
 40
0.0
  0
LTYPE
  5
13
330
4
100
AcDbSymbolTableRecord
100
AcDbLinetypeTableRecord
  2
Continuous
 70
     0
  3
Solid line
 72
    65
 73
     0
 40
0.0
  0
ENDTAB
  0
TABLE
  2
LAYER
  5
2
102
{ACAD_XDICTIONARY
360
1325
102
}
330
0
100
AcDbSymbolTable
 70
    19
  0
LAYER
  5
14
330
2
100
AcDbSymbolTableRecord
100
AcDbLayerTableRecord
  2
0
 70
     0
 62
     7
  6
Continuous
370
    -3
390
1D
347
1A7
  0
LAYER
  5
1AE
330
2
100
AcDbSymbolTableRecord
100
AcDbLayerTableRecord
  2
FIG
 70
     0
 62
     2
  6
Continuous
370
    -3
390
1D
347
1A7
  0
LAYER
  5
1AF
330
2
100
AcDbSymbolTableRecord
100
AcDbLayerTableRecord
  2
DIM
 70
     0
 62
     9
  6
Continuous
370
    -3
390
1D
347
1A7
  0
LAYER
  5
1B0
330
2
100
AcDbSymbolTableRecord
100
AcDbLayerTableRecord
  2
PARTS
 70
     0
 62
     3
  6
Continuous
370
    -3
390
1D
347
1A7
  0
LAYER
  5
1B5
330
2
100
AcDbSymbolTableRecord
100
AcDbLayerTableRecord
  2
Defpoints
 70
     0
 62
     7
  6
Continuous
290
     0
370
    -3
390
1D
347
1A7
  0
LAYER
  5
494A
330
2
100
AcDbSymbolTableRecord
100
AcDbLayerTableRecord
  2
text
 70
     0
 62
     4
  6
Continuous
370
    -3
390
1D
347
1A7
  0
LAYER
  5
4A7D
330
2
100
AcDbSymbolTableRecord
100
AcDbLayerTableRecord
  2
frame
 70
     0
 62
     2
  6
Continuous
370
    -3
390
1D
347
1A7
  0
LAYER
  5
69A6
330
2
100
AcDbSymbolTableRecord
100
AcDbLayerTableRecord
  2
shade
 70
     0
 62
     6
  6
Continuous
370
    -3
390
1D
347
1A7
  0
LAYER
  5
13B08
330
2
100
AcDbSymbolTableRecord
100
AcDbLayerTableRecord
  2
レイヤー_1
 70
     0
 62
   160
  6
Continuous
370
    -3
390
1D
347
1A7
  0
LAYER
  5
22EFE
330
2
100
AcDbSymbolTableRecord
100
AcDbLayerTableRecord
  2
FLAME
 70
     0
 62
     2
  6
Continuous
370
    -3
390
1D
347
1A7
  0
LAYER
  5
24077
330
2
100
AcDbSymbolTableRecord
100
AcDbLayerTableRecord
  2
_U+30EC_U+30A4_U+30E4_U+30FC 1
 70
     0
 62
     7
  6
Continuous
370
    -3
390
1D
347
1A7
  0
ENDTAB
  0
TABLE
  2
STYLE
  5
3
330
0
100
AcDbSymbolTable
 70
     8
  0
STYLE
  5
17
330
3
100
AcDbSymbolTableRecord
100
AcDbTextStyleTableRecord
  2
Standard
 70
     0
 40
0.0
 41
1.0
 50
0.0
 71
     0
 42
5.0
  3
txt
  4
japanese.shx
  0
STYLE
  5
4A82
330
3
100
AcDbSymbolTableRecord
100
AcDbTextStyleTableRecord
  2
新規スタイル1
 70
     0
 40
0.0
 41
1.0
 50
0.0
 71
     0
 42
0.2
  3

  4

1001
ACAD
1000
ＭＳ Ｐ明朝
1071
    32786
  0
STYLE
  5
BB92
330
3
100
AcDbSymbolTableRecord
100
AcDbTextStyleTableRecord
  2
GOTHIC
 70
     0
 40
0.0
 41
1.0
 50
0.0
 71
     0
 42
0.2
  3

  4

1001
ACAD
1000
ＭＳ Ｐゴシック
1071
    32818
  0
ENDTAB
  0
TABLE
  2
VIEW
  5
5
330
0
100
AcDbSymbolTable
 70
     2
  0
VIEW
  5
B4BD
330
5
100
AcDbSymbolTableRecord
100
AcDbViewTableRecord
  2
ホーム
 70
     0
 40
300.0
 10
0.0
 20
0.0
 41
150.0
 11
-70.0
 21
-130.0
 31
80.0
 12
200.0
 22
150.0
 32
0.0
 42
50.0
 43
0.0
 44
0.0
 50
0.0
 71
     0
281
     6
 72
     0
 73
     0
332
B4BC
348
1AC
  0
ENDTAB
  0
TABLE
  2
UCS
  5
6
330
0
100
AcDbSymbolTable
 70
     0
  0
ENDTAB
  0
TABLE
  2
APPID
  5
8
330
0
100
AcDbSymbolTable
 70
    11
  0
APPID
  5
16
330
8
100
AcDbSymbolTableRecord
100
AcDbRegAppTableRecord
  2
ACAD
 70
     0
  0
APPID
  5
55D
330
8
100
AcDbSymbolTableRecord
100
AcDbRegAppTableRecord
  2
ACAD_DSTYLE_DIMRADIAL_EXTENSION
 70
     0
  0
APPID
  5
5A8
330
8
100
AcDbSymbolTableRecord
100
AcDbRegAppTableRecord
  2
ACAD_PSEXT
 70
     0
  0
APPID
  5
24E4
330
8
100
AcDbSymbolTableRecord
100
AcDbRegAppTableRecord
  2
AcadAnnotative
 70
     0
  0
APPID
  5
7B7C
330
8
100
AcDbSymbolTableRecord
100
AcDbRegAppTableRecord
  2
Sigma
 70
     0
  0
APPID
  5
7B7E
330
8
100
AcDbSymbolTableRecord
100
AcDbRegAppTableRecord
  2
ACAD_NAV_VCDISPLAY
 70
     0
  0
APPID
  5
BBA7
330
8
100
AcDbSymbolTableRecord
100
AcDbRegAppTableRecord
  2
AcAecLayerStandard
 70
     0
  0
APPID
  5
12ED1
330
8
100
AcDbSymbolTableRecord
100
AcDbRegAppTableRecord
  2
ACAD_DSTYLE_DIMJAG
 70
     0
  0
APPID
  5
12ED2
330
8
100
AcDbSymbolTableRecord
100
AcDbRegAppTableRecord
  2
ACAD_DSTYLE_DIMTALN
 70
     0
  0
APPID
  5
23FFC
330
8
100
AcDbSymbolTableRecord
100
AcDbRegAppTableRecord
  2
ACAD_DSTYLE_DIMJAG_POSITION
 70
     0
  0
APPID
  5
2CA5B
330
8
100
AcDbSymbolTableRecord
100
AcDbRegAppTableRecord
  2
ACAD_EXEMPT_FROM_CAD_STANDARDS
 70
     0
  0
ENDTAB
  0
TABLE
  2
DIMSTYLE
  5
9
330
0
100
AcDbSymbolTable
 70
     9
100
AcDbDimStyleTable
 71
     1
340
13D1F
  0
DIMSTYLE
105
18
330
9
100
AcDbSymbolTableRecord
100
AcDbDimStyleTableRecord
  2
Standard
 70
     0
289
     0
340
17
  0
DIMSTYLE
105
13D1F
330
9
100
AcDbSymbolTableRecord
100
AcDbDimStyleTableRecord
  2
SC4
 70
     0
 40
4.0
 41
2.5
 42
1.0
 43
2.5
 44
1.0
 73
     0
 74
     0
 77
     1
140
2.5
141
2.5
143
0.03937
147
1.0
173
     1
176
   256
177
   256
178
     4
271
     0
272
     0
340
BB92
1001
AcadAnnotative
1000
AnnotativeData
1002
{
1070
     1
1070
     0
1002
}
  0
ENDTAB
  0
TABLE
  2
BLOCK_RECORD
  5
1
330
0
100
AcDbSymbolTable
 70
    91
  0
BLOCK_RECORD
  5
A
330
1
100
AcDbSymbolTableRecord
100
AcDbBlockTableRecord
  2
*MODEL_SPACE
340
20
 70
     0
280
     1
281
     0
  0
BLOCK_RECORD
  5
B
330
1
100
AcDbSymbolTableRecord
100
AcDbBlockTableRecord
  2
*PAPER_SPACE
340
21
 70
     0
280
     1
281
     0
  0
BLOCK_RECORD
  5
753D
330
1
100
AcDbSymbolTableRecord
100
AcDbBlockTableRecord
  2
_OPEN
340
0
 70
     0
280
     1
281
     0
  0
BLOCK_RECORD
  5
C920
330
1
100
AcDbSymbolTableRecord
100
AcDbBlockTableRecord
  2
E17EFD15
340
0
102
{BLKREFS
331
C964
102
}
 70
     0
280
     1
281
     0
1001
AcadAnnotative
1000
AnnotativeData
1002
{
1070
     1
1070
     0
1002
}
  0
BLOCK_RECORD
  5
13CC9
330
1
100
AcDbSymbolTableRecord
100
AcDbBlockTableRecord
  2
lekilint
340
0
102
{BLKREFS
331
13CCC
331
13CCD
102
}
 70
     0
280
     1
281
     0
1001
AcadAnnotative
1000
AnnotativeData
1002
{
1070
     1
1070
     0
1002
}
  0
ENDTAB
  0
ENDSEC
  0
SECTION
  2
BLOCKS
  0
BLOCK
  5
D
330
A
100
AcDbEntity
  8
0
100
AcDbBlockBegin
  2
*MODEL_SPACE
 70
     0
 10
0.0
 20
0.0
 30
0.0
  3
*MODEL_SPACE
  1

  0
ENDBLK
  5
E
330
A
100
AcDbEntity
  8
0
100
AcDbBlockEnd
  0
BLOCK
  5
F
330
B
100
AcDbEntity
 67
     1
  8
0
100
AcDbBlockBegin
  2
*PAPER_SPACE
 70
     0
 10
0.0
 20
0.0
 30
0.0
  3
*PAPER_SPACE
  1

  0
ENDBLK
  5
10
330
B
100
AcDbEntity
 67
     1
  8
0
100
AcDbBlockEnd
  0
BLOCK
  5
753E
330
753D
100
AcDbEntity
  8
0
100
AcDbBlockBegin
  2
_OPEN
 70
     0
 10
0.0
 20
0.0
 30
0.0
  3
_OPEN
  1

  0
LINE
  5
7540
330
753D
100
AcDbEntity
  8
0
  6
ByBlock
 62
     0
370
    -2
100
AcDbLine
 10
-1.0
 20
0.166667
 30
0.0
 11
0.0
 21
0.0
 31
0.0
  0
LINE
  5
7541
330
753D
100
AcDbEntity
  8
0
  6
ByBlock
 62
     0
370
    -2
100
AcDbLine
 10
-1.0
 20
-0.166667
 30
0.0
 11
0.0
 21
0.0
 31
0.0
  0
LINE
  5
7542
330
753D
100
AcDbEntity
  8
0
  6
ByBlock
 62
     0
370
    -2
100
AcDbLine
 10
0.0
 20
0.0
 30
0.0
 11
-1.0
 21
0.0
 31
0.0
  0
ENDBLK
  5
753F
330
753D
100
AcDbEntity
  8
0
100
AcDbBlockEnd
  0
BLOCK
  5
C921
330
C920
100
AcDbEntity
  8
0
100
AcDbBlockBegin
  2
E17EFD15
 70
     0
 10
0.0
 20
0.0
 30
0.0
  3
E17EFD15
  1

  0
ENDBLK
  5
C922
330
C920
100
AcDbEntity
  8
0
100
AcDbBlockEnd
  0
BLOCK
  5
13CCA
330
13CC9
100
AcDbEntity
  8
0
100
AcDbBlockBegin
  2
lekilint
 70
     0
 10
0.0
 20
0.0
 30
0.0
  3
lekilint
  1

  0
ENDBLK
  5
13CCB
330
13CC9
100
AcDbEntity
  8
0
100
AcDbBlockEnd
  0
ENDSEC
  0
SECTION
  2
ENTITIES
  0
LEADER
  5
8F94
330
A
100
AcDbEntity
  8
DIM
370
     0
100
AcDbLeader
  3
Standard
 76
     1
 10
-3096.60575692906
 20
203.2253135380304
 30
0.0
1001
ACAD
1000
DSTYLE
1002
{
1070
   289
1070
     3
1070
   278
1070
     0
1070
   341
1005
753D
1070
   371
1070
     0
1070
   372
1070
     0
1002
}
  0
INSERT
  5
C964
330
A
100
AcDbEntity
  8
FIG
370
     0
100
AcDbBlockReference
  2
E17EFD15
 10
-1842.514759377162
 20
-756.0514799071137
 30
0.0
  0
INSERT
  5
13CCC
330
A
100
AcDbEntity
  8
frame
100
AcDbBlockReference
  2
lekilint
 10
-4296.836480548528
 20
-7147.686960071481
 30
0.0
  0
INSERT
  5
13CCD
330
A
100
AcDbEntity
  8
frame
100
AcDbBlockReference
  2
lekilint
 10
-4310.836480548529
 20
-7133.687995883092
 30
0.0
  0
HATCH
  5
1803A
330
A
100
AcDbEntity
  8
レイヤー_1
 62
     7
100
AcDbHatch
 10
0.0
 20
0.0
 30
0.0
210
0.0
220
0.0
230
1.0
  2
SOLID
 70
     1
 71
     0
 91
        1
 92
        1
 93
        1
 72
     4
 94
        3
 73
     0
 74
     0
 95
        8
 96
        4
 40
0.0
 40
0.0
 40
0.0
 40
0.0
 40
1.0
 40
1.0
 40
1.0
 40
1.0
 10
175.6833333333333
 20
36.05395779079861
 10
176.020263671875
 20
35.97334255642361
 10
176.3809651692708
 20
36.0133056640625
 10
176.7206515842013
 20
36.05395779079861
 97
        0
 97
        0
 75
     0
 76
     1
 98
        1
 10
0.0
 20
0.0
450
        0
451
        0
460
0.0
461
0.0
452
        1
462
0.0
453
        0
470

  0
HATCH
  5
1E5F5
330
A
100
AcDbEntity
  8
レイヤー_1
 62
     7
100
AcDbHatch
 10
0.0
 20
0.0
 30
0.0
210
0.0
220
0.0
230
1.0
  2
SOLID
 70
     1
 71
     0
 91
        1
 92
        1
 93
        1
 72
     4
 94
        3
 73
     0
 74
     0
 95
       17
 96
       13
 40
0.0
 40
0.0
 40
0.0
 40
0.0
 40
1.0
 40
1.0
 40
1.0
 40
2.0
 40
2.0
 40
2.0
 40
3.0
 40
3.0
 40
3.0
 40
4.0
 40
4.0
 40
4.0
 40
4.0
 10
-6322.370125191556
 20
-6776.244811306177
 10
-6322.370125191556
 20
-6776.244811306177
 10
-6323.532844918118
 20
-6776.349886718505
 10
-6323.532844918118
 20
-6776.349886718505
 10
-6323.131491293985
 20
-6776.697841362599
 10
-6323.062589384266
 20
-6777.059576388637
 10
-6322.475200603883
 20
-6776.985506835692
 10
-6322.475200603883
 20
-6776.985506835692
 10
-6322.370125191556
 20
-6776.668558050966
 10
-6322.370125191556
 20
-6776.668558050966
 10
-6322.370125191556
 20
-6776.668558050966
 10
-6322.370125191556
 20
-6776.561760090896
 10
-6322.370125191556
 20
-6776.561760090896
 97
        0
 97
        0
 75
     0
 76
     1
 98
        1
 10
-7152.526171741036
 20
-7014.828009005832
450
        0
451
        0
460
0.0
461
0.0
452
        1
462
0.0
453
        0
470

  0
HATCH
  5
1EA8F
330
A
100
AcDbEntity
  8
レイヤー_1
 62
     7
100
AcDbHatch
 10
0.0
 20
0.0
 30
0.0
210
0.0
220
0.0
230
1.0
  2
SOLID
 70
     1
 71
     0
 91
        1
 92
        1
 93
        1
 72
     4
 94
        3
 73
     0
 74
     0
 95
       14
 96
       10
 40
0.0
 40
0.0
 40
0.0
 40
0.0
 40
1.0
 40
1.0
 40
1.0
 40
2.0
 40
2.0
 40
2.0
 40
3.0
 40
3.0
 40
3.0
 40
3.0
 10
-6307.976516250587
 20
-6898.05822005184
 10
-6308.436436497977
 20
-6898.444070746278
 10
-6308.985929228012
 20
-6899.010788953747
 10
-6309.457907309614
 20
-6899.327737738466
 10
-6309.457907309614
 20
-6899.327737738466
 10
-6309.034160564817
 20
-6899.539611110864
 10
-6309.034160564817
 20
-6899.539611110864
 10
-6308.308967964993
 20
-6899.069355577012
 10
-6307.611336129055
 20
-6898.57153927927
 10
-6306.917149388603
 20
-6898.05822005184
 97
        0
 97
        0
 75
     0
 76
     1
 98
        1
 10
-7152.526171741036
 20
-7014.828009005832
450
        0
451
        0
460
0.0
461
0.0
452
        1
462
0.0
453
        0
470

  0
HATCH
  5
1EAB6
330
A
100
AcDbEntity
  8
レイヤー_1
 62
     7
100
AcDbHatch
 10
0.0
 20
0.0
 30
0.0
210
0.0
220
0.0
230
1.0
  2
SOLID
 70
     1
 71
     0
 91
        1
 92
        1
 93
        1
 72
     4
 94
        3
 73
     0
 74
     0
 95
        8
 96
        4
 40
0.0
 40
0.0
 40
0.0
 40
0.0
 40
1.0
 40
1.0
 40
1.0
 40
1.0
 10
-6184.36338962298
 20
-6925.151828992809
 10
-6184.026459284439
 20
-6925.232444227184
 10
-6183.665757787043
 20
-6925.192481119545
 10
-6183.326071372112
 20
-6925.151828992809
 97
        0
 97
        0
 75
     0
 76
     1
 98
        1
 10
-6360.046722956314
 20
-6961.205786783607
450
        0
451
        0
460
0.0
461
0.0
452
        1
462
0.0
453
        0
470

  0
HATCH
  5
1EAEB
330
A
100
AcDbEntity
  8
レイヤー_1
 62
     7
100
AcDbHatch
 10
0.0
 20
0.0
 30
0.0
210
0.0
220
0.0
230
1.0
  2
SOLID
 70
     1
 71
     0
 91
        1
 92
        1
 93
        1
 72
     4
 94
        3
 73
     0
 74
     0
 95
       29
 96
       25
 40
0.0
 40
0.0
 40
0.0
 40
0.0
 40
1.0
 40
1.0
 40
1.0
 40
2.0
 40
2.0
 40
2.0
 40
3.0
 40
3.0
 40
3.0
 40
4.0
 40
4.0
 40
4.0
 40
5.0
 40
5.0
 40
5.0
 40
6.0
 40
6.0
 40
6.0
 40
7.0
 40
7.0
 40
7.0
 40
8.0
 40
8.0
 40
8.0
 40
8.0
 10
-6519.748258329575
 20
-6863.238639973708
 10
-6519.748258329575
 20
-6863.238639973708
 10
-6519.96013170197
 20
-6863.345437933777
 10
-6519.96013170197
 20
-6863.345437933777
 10
-6519.96013170197
 20
-6863.345437933777
 10
-6519.855056289646
 20
-6863.557311306177
 10
-6519.855056289646
 20
-6863.557311306177
 10
-6519.855056289646
 20
-6863.557311306177
 10
-6519.748258329575
 20
-6863.557311306177
 10
-6519.748258329575
 20
-6863.557311306177
 10
-6519.748258329575
 20
-6863.557311306177
 10
-6519.324511584781
 20
-6863.662386718498
 10
-6519.324511584781
 20
-6863.662386718498
 10
-6519.324511584781
 20
-6863.662386718498
 10
-6519.007562800062
 20
-6863.769184678574
 10
-6519.007562800062
 20
-6863.769184678574
 10
-6519.007562800062
 20
-6863.769184678574
 10
-6518.583816055273
 20
-6863.981058050966
 10
-6518.583816055273
 20
-6863.981058050966
 10
-6518.583816055273
 20
-6863.981058050966
 10
-6517.209222956314
 20
-6863.874260090902
 10
-6517.209222956314
 20
-6863.874260090902
 10
-6517.820727405099
 20
-6863.863924804443
 10
-6518.551087648153
 20
-6863.231749782738
 10
-6519.431309544852
 20
-6863.345437933777
 97
        0
 97
        0
 75
     0
 76
     1
 98
        1
 10
-7152.526171741036
 20
-7014.828009005832
450
        0
451
        0
460
0.0
461
0.0
452
        1
462
0.0
453
        0
470

  0
HATCH
  5
1EBBE
330
A
100
AcDbEntity
  8
レイヤー_1
 62
     7
100
AcDbHatch
 10
0.0
 20
0.0
 30
0.0
210
0.0
220
0.0
230
1.0
  2
SOLID
 70
     1
 71
     0
 91
        1
 92
        1
 93
        1
 72
     4
 94
        3
 73
     0
 74
     0
 95
       32
 96
       28
 40
0.0
 40
0.0
 40
0.0
 40
0.0
 40
1.0
 40
1.0
 40
1.0
 40
2.0
 40
2.0
 40
2.0
 40
3.0
 40
3.0
 40
3.0
 40
4.0
 40
4.0
 40
4.0
 40
5.0
 40
5.0
 40
5.0
 40
6.0
 40
6.0
 40
6.0
 40
7.0
 40
7.0
 40
7.0
 40
8.0
 40
8.0
 40
8.0
 40
9.0
 40
9.0
 40
9.0
 40
9.0
 10
-6953.242039525321
 20
-6768.095437933777
 10
-6955.399530573501
 20
-6768.281473090027
 10
-6957.658651938515
 20
-6768.677659070934
 10
-6959.804085152493
 20
-6768.624260090902
 10
-6959.804085152493
 20
-6768.624260090902
 10
-6951.548775093899
 20
-6768.731058050973
 10
-6951.548775093899
 20
-6768.731058050973
 10
-6951.548775093899
 20
-6768.731058050973
 10
-6951.019091662907
 20
-6768.624260090902
 10
-6951.019091662907
 20
-6768.624260090902
 10
-6951.019091662907
 20
-6768.624260090902
 10
-6950.490269505791
 20
-6768.624260090902
 10
-6950.490269505791
 20
-6768.624260090902
 10
-6950.490269505791
 20
-6768.624260090902
 10
-6950.067384034873
 20
-6768.519184678567
 10
-6950.067384034873
 20
-6768.519184678567
 10
-6950.067384034873
 20
-6768.519184678567
 10
-6949.643637290079
 20
-6768.519184678567
 10
-6949.643637290079
 20
-6768.519184678567
 10
-6949.643637290079
 20
-6768.519184678567
 10
-6949.220751819158
 20
-6768.412386718505
 10
-6949.220751819158
 20
-6768.412386718505
 10
-6949.220751819158
 20
-6768.412386718505
 10
-6948.797005074368
 20
-6768.412386718505
 10
-6948.797005074368
 20
-6768.412386718505
 10
-6948.34742011343
 20
-6768.314201497152
 10
-6947.251879748849
 20
-6768.181565320934
 10
-6946.785930584349
 20
-6768.200513346106
 97
        0
 97
        0
 75
     0
 76
     1
 98
        1
 10
-7152.526171741036
 20
-7014.828009005832
450
        0
451
        0
460
0.0
461
0.0
452
        1
462
0.0
453
        0
470

  0
HATCH
  5
1EBDB
330
A
100
AcDbEntity
  8
レイヤー_1
 62
     7
100
AcDbHatch
 10
0.0
 20
0.0
 30
0.0
210
0.0
220
0.0
230
1.0
  2
SOLID
 70
     1
 71
     0
 91
        1
 92
        1
 93
        1
 72
     4
 94
        3
 73
     0
 74
     0
 95
       17
 96
       13
 40
0.0
 40
0.0
 40
0.0
 40
0.0
 40
1.0
 40
1.0
 40
1.0
 40
2.0
 40
2.0
 40
2.0
 40
3.0
 40
3.0
 40
3.0
 40
4.0
 40
4.0
 40
4.0
 40
4.0
 10
-6916.094436172457
 20
-6801.431904405138
 10
-6916.094436172457
 20
-6801.431904405138
 10
-6915.565614015337
 20
-6801.962449109996
 10
-6915.565614015337
 20
-6801.962449109996
 10
-6915.565614015337
 20
-6801.962449109996
 10
-6915.141867270548
 20
-6802.067524522325
 10
-6915.141867270548
 20
-6802.067524522325
 10
-6915.141867270548
 20
-6802.067524522325
 10
-6914.718981799627
 20
-6801.855651149927
 10
-6914.718981799627
 20
-6801.855651149927
 10
-6913.9757024485
 20
-6801.778136501488
 10
-6913.241897109958
 20
-6801.604159179442
 10
-6912.390097251017
 20
-6801.538702365208
 97
        0
 97
        0
 75
     0
 76
     1
 98
        1
 10
-7152.526171741036
 20
-7014.828009005832
450
        0
451
        0
460
0.0
461
0.0
452
        1
462
0.0
453
        0
470

  0
HATCH
  5
1EC46
330
A
100
AcDbEntity
  8
レイヤー_1
 62
     7
100
AcDbHatch
 10
0.0
 20
0.0
 30
0.0
210
0.0
220
0.0
230
1.0
  2
SOLID
 70
     1
 71
     0
 91
        1
 92
        1
 93
        1
 72
     4
 94
        3
 73
     0
 74
     0
 95
       11
 96
        7
 40
0.0
 40
0.0
 40
0.0
 40
0.0
 40
1.0
 40
1.0
 40
1.0
 40
2.0
 40
2.0
 40
2.0
 40
2.0
 10
-6928.371033937216
 20
-6833.924322482395
 10
-6928.371033937216
 20
-6833.924322482395
 10
-6931.228740642942
 20
-6833.924322482395
 10
-6931.228740642942
 20
-6833.924322482395
 10
-6930.299426135563
 20
-6833.789963758434
 10
-6929.491551244071
 20
-6834.201652669027
 10
-6928.582907309611
 20
-6834.134473307044
 97
        0
 97
        0
 75
     0
 76
     1
 98
        1
 10
-7152.526171741036
 20
-7014.828009005832
450
        0
451
        0
460
0.0
461
0.0
452
        1
462
0.0
453
        0
470

  0
HATCH
  5
1ECAB
330
A
100
AcDbEntity
  8
レイヤー_1
 62
     7
100
AcDbHatch
 10
0.0
 20
0.0
 30
0.0
210
0.0
220
0.0
230
1.0
  2
SOLID
 70
     1
 71
     0
 91
        1
 92
        1
 93
        1
 72
     4
 94
        3
 73
     0
 74
     0
 95
       11
 96
        7
 40
0.0
 40
0.0
 40
0.0
 40
0.0
 40
1.0
 40
1.0
 40
1.0
 40
2.0
 40
2.0
 40
2.0
 40
2.0
 10
-6819.257108427234
 20
-6894.988639973715
 10
-6820.497342802235
 20
-6895.060986978919
 10
-6821.71949042593
 20
-6895.2401319442
 10
-6822.961447348673
 20
-6895.200513346106
 10
-6820.347481148586
 20
-6895.185010416419
 10
-6816.011828479313
 20
-6895.45372786434
 10
-6812.906936172462
 20
-6894.988639973715
 97
        0
 97
        0
 75
     0
 76
     1
 98
        1
 10
-7152.526171741036
 20
-7014.828009005832
450
        0
451
        0
460
0.0
461
0.0
452
        1
462
0.0
453
        0
470

  0
HATCH
  5
270E0
330
A
100
AcDbEntity
  8
_U+30EC_U+30A4_U+30E4_U+30FC 1
 62
     7
420
 16777215
100
AcDbHatch
 10
0.0
 20
0.0
 30
0.0
210
0.0
220
0.0
230
1.0
  2
SOLID
 70
     1
 71
     0
 91
        1
 92
        1
 93
        2
 72
     4
 94
        3
 73
     0
 74
     0
 95
       17
 96
       13
 40
0.0
 40
0.0
 40
0.0
 40
0.0
 40
0.3527777776895833
 40
0.3527777776895833
 40
0.3527777776895833
 40
0.7055555553791667
 40
0.7055555553791667
 40
0.7055555553791667
 40
1.05833333306875
 40
1.05833333306875
 40
1.05833333306875
 40
1.411111110758333
 40
1.411111110758333
 40
1.411111110758333
 40
1.411111110758333
 10
-7499.05496736617
 20
-13361.63579428461
 10
-7499.05496736617
 20
-13361.63579428461
 10
-7499.160812644314
 20
-13361.74164629249
 10
-7499.160812644314
 20
-13361.74164629249
 10
-7498.571583932911
 20
-13362.20738435958
 10
-7498.088200499641
 20
-13363.50580604537
 10
-7497.784770190588
 20
-13364.17618863578
 10
-7497.784770190588
 20
-13364.17618863578
 10
-7497.043812865183
 20
-13364.17618863578
 10
-7497.043812865183
 20
-13364.17618863578
 10
-7496.46693994795
 20
-13362.90422826953
 10
-7498.088200499641
 20
-13362.01332571
 10
-7499.05496736617
 20
-13361.63579428461
 97
        0
 72
     1
 10
-7499.05496736617
 20
-13361.63579428461
 11
-7499.05496736617
 21
-13361.63579428461
 97
        0
 75
     0
 76
     1
 98
        0
450
        0
451
        0
460
0.0
461
0.0
452
        1
462
0.0
453
        0
470

  0
HATCH
  5
27C7E
330
A
100
AcDbEntity
  8
_U+30EC_U+30A4_U+30E4_U+30FC 1
 62
     7
420
 16777215
100
AcDbHatch
 10
0.0
 20
0.0
 30
0.0
210
0.0
220
0.0
230
1.0
  2
SOLID
 70
     1
 71
     0
 91
        1
 92
        1
 93
        2
 72
     4
 94
        3
 73
     0
 74
     0
 95
       32
 96
       28
 40
0.0
 40
0.0
 40
0.0
 40
0.0
 40
0.3527777776895833
 40
0.3527777776895833
 40
0.3527777776895833
 40
0.7055555553791667
 40
0.7055555553791667
 40
0.7055555553791667
 40
1.05833333306875
 40
1.05833333306875
 40
1.05833333306875
 40
1.411111110758333
 40
1.411111110758333
 40
1.411111110758333
 40
1.763888888447916
 40
1.763888888447916
 40
1.763888888447916
 40
2.1166666661375
 40
2.1166666661375
 40
2.1166666661375
 40
2.469444443827083
 40
2.469444443827083
 40
2.469444443827083
 40
2.822222221516666
 40
2.822222221516666
 40
2.822222221516666
 40
3.17499999920625
 40
3.17499999920625
 40
3.17499999920625
 40
3.17499999920625
 10
-7462.642697684273
 20
-13202.54386050295
 10
-7464.800264308306
 20
-13202.73086638984
 10
-7467.060163288599
 20
-13203.12603645166
 10
-7469.205374118461
 20
-13203.07311381259
 10
-7469.205374118461
 20
-13203.07311381259
 10
-7460.949105936666
 20
-13203.17895909074
 10
-7460.949105936666
 20
-13203.17895909074
 10
-7460.949105936666
 20
-13203.17895909074
 10
-7460.419866086482
 20
-13203.07311381259
 10
-7460.419866086482
 20
-13203.07311381259
 10
-7460.419866086482
 20
-13203.07311381259
 10
-7459.890612776831
 20
-13203.07311381259
 10
-7459.890612776831
 20
-13203.07311381259
 10
-7459.890612776831
 20
-13203.07311381259
 10
-7459.467218204806
 20
-13202.96726853445
 10
-7459.467218204806
 20
-13202.96726853445
 10
-7459.467218204806
 20
-13202.96726853445
 10
-7459.043823632764
 20
-13202.96726853445
 10
-7459.043823632764
 20
-13202.96726853445
 10
-7459.043823632764
 20
-13202.96726853445
 10
-7458.620415601257
 20
-13202.86142325632
 10
-7458.620415601257
 20
-13202.86142325632
 10
-7458.620415601257
 20
-13202.86142325632
 10
-7458.197021029217
 20
-13202.86142325632
 10
-7458.197021029217
 20
-13202.86142325632
 10
-7457.747165137651
 20
-13202.76263074086
 10
-7456.651618054788
 20
-13202.63032414318
 10
-7456.185879987711
 20
-13202.64970578108
 97
        0
 72
     1
 10
-7456.185879987711
 20
-13202.64970578108
 11
-7462.64269768428
 21
-13202.54386050294
 97
        0
 75
     0
 76
     1
 98
        0
450
        0
451
        0
460
0.0
461
0.0
452
        1
462
0.0
453
        0
470

  0
HATCH
  5
28422
330
A
100
AcDbEntity
  8
_U+30EC_U+30A4_U+30E4_U+30FC 1
 62
     7
420
 16777215
100
AcDbHatch
 10
0.0
 20
0.0
 30
0.0
210
0.0
220
0.0
230
1.0
  2
SOLID
 70
     1
 71
     0
 91
        1
 92
        1
 93
        2
 72
     4
 94
        3
 73
     0
 74
     0
 95
       29
 96
       25
 40
0.0
 40
0.0
 40
0.0
 40
0.0
 40
0.3527777776895833
 40
0.3527777776895833
 40
0.3527777776895833
 40
0.7055555553791667
 40
0.7055555553791667
 40
0.7055555553791667
 40
1.05833333306875
 40
1.05833333306875
 40
1.05833333306875
 40
1.411111110758333
 40
1.411111110758333
 40
1.411111110758333
 40
1.763888888447916
 40
1.763888888447916
 40
1.763888888447916
 40
2.1166666661375
 40
2.1166666661375
 40
2.1166666661375
 40
2.469444443827083
 40
2.469444443827083
 40
2.469444443827083
 40
2.822222221516666
 40
2.822222221516666
 40
2.822222221516666
 40
2.822222221516666
 10
-7029.082819969943
 20
-13297.70264187964
 10
-7029.082819969943
 20
-13297.70264187964
 10
-7029.294510526231
 20
-13297.80850061724
 10
-7029.294510526231
 20
-13297.80850061724
 10
-7029.294510526231
 20
-13297.80850061724
 10
-7029.188665248087
 20
-13298.02019117352
 10
-7029.188665248087
 20
-13298.02019117352
 10
-7029.188665248087
 20
-13298.02019117352
 10
-7029.082819969943
 20
-13298.02019117352
 10
-7029.082819969943
 20
-13298.02019117352
 10
-7029.082819969943
 20
-13298.02019117352
 10
-7028.659385019494
 20
-13298.12604991114
 10
-7028.659385019494
 20
-13298.12604991114
 10
-7028.659385019494
 20
-13298.12604991114
 10
-7028.341849185072
 20
-13298.23189518928
 10
-7028.341849185072
 20
-13298.23189518928
 10
-7028.341849185072
 20
-13298.23189518928
 10
-7027.918468072505
 20
-13298.44359920503
 10
-7027.918468072505
 20
-13298.44359920503
 10
-7027.918468072505
 20
-13298.44359920503
 10
-7026.542425618787
 20
-13298.33774046742
 10
-7026.542425618787
 20
-13298.33774046742
 10
-7027.154562349442
 20
-13298.32716132339
 10
-7027.884927071344
 20
-13297.69558911695
 10
-7028.765230297638
 20
-13297.80850061724
 97
        0
 72
     1
 10
-7028.765230297638
 20
-13297.80850061724
 11
-7029.082819969946
 21
-13297.70264187963
 97
        0
 75
     0
 76
     1
 98
        0
450
        0
451
        0
460
0.0
461
0.0
452
        1
462
0.0
453
        0
470

  0
HATCH
  5
28644
330
A
100
AcDbEntity
  8
_U+30EC_U+30A4_U+30E4_U+30FC 1
 62
     7
420
 16777215
100
AcDbHatch
 10
0.0
 20
0.0
 30
0.0
210
0.0
220
0.0
230
1.0
  2
SOLID
 70
     1
 71
     0
 91
        1
 92
        1
 93
        2
 72
     4
 94
        3
 73
     0
 74
     0
 95
       62
 96
       58
 40
0.0
 40
0.0
 40
0.0
 40
0.0
 40
0.3527777776895833
 40
0.3527777776895833
 40
0.3527777776895833
 40
0.7055555553791667
 40
0.7055555553791667
 40
0.7055555553791667
 40
1.05833333306875
 40
1.05833333306875
 40
1.05833333306875
 40
1.411111110758333
 40
1.411111110758333
 40
1.411111110758333
 40
1.763888888447916
 40
1.763888888447916
 40
1.763888888447916
 40
2.1166666661375
 40
2.1166666661375
 40
2.1166666661375
 40
2.469444443827083
 40
2.469444443827083
 40
2.469444443827083
 40
2.822222221516666
 40
2.822222221516666
 40
2.822222221516666
 40
3.17499999920625
 40
3.17499999920625
 40
3.17499999920625
 40
3.527777776895833
 40
3.527777776895833
 40
3.527777776895833
 40
3.880555554585416
 40
3.880555554585416
 40
3.880555554585416
 40
4.233333332275
 40
4.233333332275
 40
4.233333332275
 40
4.586111109964583
 40
4.586111109964583
 40
4.586111109964583
 40
4.938888887654166
 40
4.938888887654166
 40
4.938888887654166
 40
5.29166666534375
 40
5.29166666534375
 40
5.29166666534375
 40
5.644444443033333
 40
5.644444443033333
 40
5.644444443033333
 40
5.997222220722917
 40
5.997222220722917
 40
5.997222220722917
 40
6.3499999984125
 40
6.3499999984125
 40
6.3499999984125
 40
6.702777776102083
 40
6.702777776102083
 40
6.702777776102083
 40
6.702777776102083
 10
-6776.10226833849
 20
-13263.30152669872
 10
-6776.10226833849
 20
-13263.30152669872
 10
-6776.10226833849
 20
-13263.40738543633
 10
-6776.10226833849
 20
-13263.40738543633
 10
-6776.10226833849
 20
-13263.40738543633
 10
-6775.89057778221
 20
-13263.61907599262
 10
-6775.89057778221
 20
-13263.61907599262
 10
-6775.89057778221
 20
-13263.61907599262
 10
-6775.467196669644
 20
-13263.93662528651
 10
-6775.467196669644
 20
-13263.93662528651
 10
-6775.467196669644
 20
-13263.93662528651
 10
-6775.149660835221
 20
-13264.14832930227
 10
-6775.149660835221
 20
-13264.14832930227
 10
-6775.149660835221
 20
-13264.14832930227
 10
-6774.832125000791
 20
-13264.46587859616
 10
-6774.832125000791
 20
-13264.46587859616
 10
-6774.832125000791
 20
-13264.46587859616
 10
-6774.620380606629
 20
-13264.78342789006
 10
-6774.620380606629
 20
-13264.78342789006
 10
-6774.620380606629
 20
-13264.78342789006
 10
-6774.3028447722
 20
-13265.10097718395
 10
-6774.3028447722
 20
-13265.10097718395
 10
-6774.3028447722
 20
-13265.10097718395
 10
-6774.09115421592
 20
-13265.41852647784
 10
-6774.09115421592
 20
-13265.41852647784
 10
-6774.09115421592
 20
-13265.41852647784
 10
-6773.985308937783
 20
-13265.73607577174
 10
-6773.985308937783
 20
-13265.73607577174
 10
-6773.985308937783
 20
-13265.73607577174
 10
-6773.879463659639
 20
-13265.94776632803
 10
-6773.879463659639
 20
-13265.94776632803
 10
-6773.879463659639
 20
-13265.94776632803
 10
-6773.561927825216
 20
-13266.15947034378
 10
-6773.561927825216
 20
-13266.15947034378
 10
-6773.561927825216
 20
-13266.15947034378
 10
-6773.244338152905
 20
-13266.15947034378
 10
-6773.244338152905
 20
-13266.15947034378
 10
-6773.244338152905
 20
-13266.15947034378
 10
-6773.032647596625
 20
-13266.05362506563
 10
-6773.032647596625
 20
-13266.05362506563
 10
-6773.032647596625
 20
-13266.05362506563
 10
-6772.820957040337
 20
-13265.73607577174
 10
-6772.820957040337
 20
-13265.73607577174
 10
-6772.820957040337
 20
-13265.73607577174
 10
-6772.926802318481
 20
-13265.31266774024
 10
-6772.926802318481
 20
-13265.31266774024
 10
-6772.926802318481
 20
-13265.31266774024
 10
-6773.032647596625
 20
-13264.99511844633
 10
-6773.032647596625
 20
-13264.99511844633
 10
-6773.032647596625
 20
-13264.99511844633
 10
-6773.244338152905
 20
-13264.67756915244
 10
-6773.244338152905
 20
-13264.67756915244
 10
-6773.244338152905
 20
-13264.67756915244
 10
-6773.561927825216
 20
-13264.36003331802
 10
-6773.561927825216
 20
-13264.36003331802
 10
-6774.881494339581
 20
-13263.55557420952
 10
-6774.535693616538
 20
-13263.67199863169
 10
-6776.10226833849
 20
-13263.30152669872
 97
        0
 72
     1
 10
-6776.10226833849
 20
-13263.30152669872
 11
-6776.10226833849
 21
-13263.30152669872
 97
        0
 75
     0
 76
     1
 98
        0
450
        0
451
        0
460
0.0
461
0.0
452
        1
462
0.0
453
        0
470

  0
HATCH
  5
28648
330
A
100
AcDbEntity
  8
_U+30EC_U+30A4_U+30E4_U+30FC 1
 62
     7
420
 16777215
100
AcDbHatch
 10
0.0
 20
0.0
 30
0.0
210
0.0
220
0.0
230
1.0
  2
SOLID
 70
     1
 71
     0
 91
        1
 92
        1
 93
        2
 72
     4
 94
        3
 73
     0
 74
     0
 95
       38
 96
       34
 40
0.0
 40
0.0
 40
0.0
 40
0.0
 40
0.3527777776895833
 40
0.3527777776895833
 40
0.3527777776895833
 40
0.7055555553791667
 40
0.7055555553791667
 40
0.7055555553791667
 40
1.05833333306875
 40
1.05833333306875
 40
1.05833333306875
 40
1.411111110758333
 40
1.411111110758333
 40
1.411111110758333
 40
1.763888888447916
 40
1.763888888447916
 40
1.763888888447916
 40
2.1166666661375
 40
2.1166666661375
 40
2.1166666661375
 40
2.469444443827083
 40
2.469444443827083
 40
2.469444443827083
 40
2.822222221516666
 40
2.822222221516666
 40
2.822222221516666
 40
3.17499999920625
 40
3.17499999920625
 40
3.17499999920625
 40
3.527777776895833
 40
3.527777776895833
 40
3.527777776895833
 40
3.880555554585416
 40
3.880555554585416
 40
3.880555554585416
 40
3.880555554585416
 10
-6774.3028447722
 20
-13261.92548424499
 10
-6774.3028447722
 20
-13261.92548424499
 10
-6774.408690050343
 20
-13262.13718826076
 10
-6774.408690050343
 20
-13262.13718826076
 10
-6774.408690050343
 20
-13262.13718826076
 10
-6774.09115421592
 20
-13262.2430335389
 10
-6774.09115421592
 20
-13262.2430335389
 10
-6774.09115421592
 20
-13262.2430335389
 10
-6773.456028709192
 20
-13262.87813212668
 10
-6773.456028709192
 20
-13262.87813212668
 10
-6773.456028709192
 20
-13262.87813212668
 10
-6773.138492874768
 20
-13263.08983614244
 10
-6773.138492874768
 20
-13263.08983614244
 10
-6773.138492874768
 20
-13263.08983614244
 10
-6772.820957040337
 20
-13263.40738543633
 10
-6772.820957040337
 20
-13263.40738543633
 10
-6772.820957040337
 20
-13263.40738543633
 10
-6772.397575927778
 20
-13264.04248402412
 10
-6772.397575927778
 20
-13264.04248402412
 10
-6772.397575927778
 20
-13264.04248402412
 10
-6772.079986255467
 20
-13264.67756915244
 10
-6772.079986255467
 20
-13264.67756915244
 10
-6772.079986255467
 20
-13264.67756915244
 10
-6771.868295699187
 20
-13264.8892731682
 10
-6771.868295699187
 20
-13264.8892731682
 10
-6771.868295699187
 20
-13264.8892731682
 10
-6771.44491458662
 20
-13264.8892731682
 10
-6771.44491458662
 20
-13264.8892731682
 10
-6771.44491458662
 20
-13264.8892731682
 10
-6771.339069308476
 20
-13264.78342789006
 10
-6771.339069308476
 20
-13264.78342789006
 10
-6770.250574988302
 20
-13263.37385789464
 10
-6773.180863288752
 20
-13262.02075037911
 10
-6774.3028447722
 20
-13261.92548424499
 97
        0
 72
     1
 10
-6774.3028447722
 20
-13261.92548424499
 11
-6774.3028447722
 21
-13261.92548424499
 97
        0
 75
     0
 76
     1
 98
        0
450
        0
451
        0
460
0.0
461
0.0
452
        1
462
0.0
453
        0
470

  0
HATCH
  5
288E1
330
A
100
AcDbEntity
  8
_U+30EC_U+30A4_U+30E4_U+30FC 1
 62
     7
420
 16777215
100
AcDbHatch
 10
0.0
 20
0.0
 30
0.0
210
0.0
220
0.0
230
1.0
  2
SOLID
 70
     1
 71
     0
 91
        1
 92
        1
 93
        2
 72
     4
 94
        3
 73
     0
 74
     0
 95
       17
 96
       13
 40
0.0
 40
0.0
 40
0.0
 40
0.0
 40
0.3527777776895833
 40
0.3527777776895833
 40
0.3527777776895833
 40
0.7055555553791667
 40
0.7055555553791667
 40
0.7055555553791667
 40
1.05833333306875
 40
1.05833333306875
 40
1.05833333306875
 40
1.411111110758333
 40
1.411111110758333
 40
1.411111110758333
 40
1.411111110758333
 10
-6978.910112291375
 20
-13151.94777171181
 10
-6978.910112291375
 20
-13151.94777171181
 10
-6979.227648125799
 20
-13152.26530754624
 10
-6979.227648125799
 20
-13152.26530754624
 10
-6978.156812631275
 20
-13152.92334107222
 10
-6976.761334701757
 20
-13155.76541600124
 10
-6976.581408496492
 20
-13157.02856041413
 10
-6976.581408496492
 20
-13157.02856041413
 10
-6974.993675486494
 20
-13157.02856041413
 10
-6974.993675486494
 20
-13157.02856041413
 10
-6973.571763156385
 20
-13154.89213861868
 10
-6977.318825981081
 20
-13152.56521147395
 10
-6978.910112291375
 20
-13151.94777171181
 97
        0
 72
     1
 10
-6978.910112291375
 20
-13151.94777171181
 11
-6978.910112291375
 21
-13151.94777171181
 97
        0
 75
     0
 76
     1
 98
        0
450
        0
451
        0
460
0.0
461
0.0
452
        1
462
0.0
453
        0
470

  0
HATCH
  5
295CE
330
A
100
AcDbEntity
  8
_U+30EC_U+30A4_U+30E4_U+30FC 1
 62
     7
420
 16777215
100
AcDbHatch
 10
0.0
 20
0.0
 30
0.0
210
0.0
220
0.0
230
1.0
  2
SOLID
 70
     1
 71
     0
 91
        1
 92
        1
 93
        2
 72
     4
 94
        3
 73
     0
 74
     0
 95
       17
 96
       13
 40
0.0
 40
0.0
 40
0.0
 40
0.0
 40
0.3527777776895833
 40
0.3527777776895833
 40
0.3527777776895833
 40
0.7055555553791667
 40
0.7055555553791667
 40
0.7055555553791667
 40
1.05833333306875
 40
1.05833333306875
 40
1.05833333306875
 40
1.411111110758333
 40
1.411111110758333
 40
1.411111110758333
 40
1.411111110758333
 10
-6831.673300553801
 20
-13210.69429686607
 10
-6831.673300553801
 20
-13210.69429686607
 10
-6832.837652451246
 20
-13210.80014214421
 10
-6832.837652451246
 20
-13210.80014214421
 10
-6832.43542962673
 20
-13211.14766567952
 10
-6832.366624812149
 20
-13211.50932165912
 10
-6831.779199669833
 20
-13211.43524073201
 10
-6831.779199669833
 20
-13211.43524073201
 10
-6831.673300553801
 20
-13211.11767797864
 10
-6831.673300553801
 20
-13211.11767797864
 10
-6831.673300553801
 20
-13211.11767797864
 10
-6831.673300553801
 20
-13211.01183270049
 10
-6831.673300553801
 20
-13211.01183270049
 97
        0
 72
     1
 10
-6831.673300553801
 20
-13211.01183270049
 11
-6831.673300553801
 21
-13210.69429686607
 97
        0
 75
     0
 76
     1
 98
        0
450
        0
451
        0
460
0.0
461
0.0
452
        1
462
0.0
453
        0
470

  0
HATCH
  5
295F4
330
A
100
AcDbEntity
  8
_U+30EC_U+30A4_U+30E4_U+30FC 1
 62
     7
420
 16777215
100
AcDbHatch
 10
0.0
 20
0.0
 30
0.0
210
0.0
220
0.0
230
1.0
  2
SOLID
 70
     1
 71
     0
 91
        1
 92
        1
 93
        2
 72
     4
 94
        3
 73
     0
 74
     0
 95
       56
 96
       52
 40
0.0
 40
0.0
 40
0.0
 40
0.0
 40
0.3527777776895833
 40
0.3527777776895833
 40
0.3527777776895833
 40
0.7055555553791667
 40
0.7055555553791667
 40
0.7055555553791667
 40
1.05833333306875
 40
1.05833333306875
 40
1.05833333306875
 40
1.411111110758333
 40
1.411111110758333
 40
1.411111110758333
 40
1.763888888447916
 40
1.763888888447916
 40
1.763888888447916
 40
2.1166666661375
 40
2.1166666661375
 40
2.1166666661375
 40
2.469444443827083
 40
2.469444443827083
 40
2.469444443827083
 40
2.822222221516666
 40
2.822222221516666
 40
2.822222221516666
 40
3.17499999920625
 40
3.17499999920625
 40
3.17499999920625
 40
3.527777776895833
 40
3.527777776895833
 40
3.527777776895833
 40
3.880555554585416
 40
3.880555554585416
 40
3.880555554585416
 40
4.233333332275
 40
4.233333332275
 40
4.233333332275
 40
4.586111109964583
 40
4.586111109964583
 40
4.586111109964583
 40
4.938888887654166
 40
4.938888887654166
 40
4.938888887654166
 40
5.29166666534375
 40
5.29166666534375
 40
5.29166666534375
 40
5.644444443033333
 40
5.644444443033333
 40
5.644444443033333
 40
5.997222220722917
 40
5.997222220722917
 40
5.997222220722917
 40
5.997222220722917
 10
-6782.876689166838
 20
-13212.81128318573
 10
-6782.876689166838
 20
-13212.81128318573
 10
-6782.982534444982
 20
-13212.81128318573
 10
-6782.982534444982
 20
-13212.81128318573
 10
-6782.982534444982
 20
-13212.81128318573
 10
-6783.405915557541
 20
-13215.03411478353
 10
-6783.405915557541
 20
-13215.03411478353
 10
-6783.405915557541
 20
-13215.03411478353
 10
-6783.511760835685
 20
-13215.13996006166
 10
-6783.511760835685
 20
-13215.13996006166
 10
-6783.511760835685
 20
-13215.13996006166
 10
-6783.617606113828
 20
-13215.45752281503
 10
-6783.617606113828
 20
-13215.45752281503
 10
-6783.617606113828
 20
-13215.45752281503
 10
-6783.829296670116
 20
-13215.56336809317
 10
-6783.829296670116
 20
-13215.56336809317
 10
-6783.829296670116
 20
-13215.56336809317
 10
-6789.439365601018
 20
-13215.56336809317
 10
-6789.439365601018
 20
-13215.56336809317
 10
-6789.439365601018
 20
-13215.56336809317
 10
-6790.391973104288
 20
-13215.66921337131
 10
-6790.391973104288
 20
-13215.66921337131
 10
-6790.391973104288
 20
-13215.66921337131
 10
-6790.391973104288
 20
-13215.98677612467
 10
-6790.391973104288
 20
-13215.98677612467
 10
-6790.391973104288
 20
-13215.98677612467
 10
-6790.286127826151
 20
-13216.19846668096
 10
-6790.286127826151
 20
-13216.19846668096
 10
-6790.286127826151
 20
-13216.19846668096
 10
-6789.968591991729
 20
-13216.30431195909
 10
-6789.968591991729
 20
-13216.30431195909
 10
-6789.968591991729
 20
-13216.30431195909
 10
-6783.829296670116
 20
-13216.30431195909
 10
-6783.829296670116
 20
-13216.30431195909
 10
-6783.240094877645
 20
-13216.34665545414
 10
-6782.996639970352
 20
-13216.23550714452
 10
-6782.453254216391
 20
-13215.98677612467
 10
-6782.453254216391
 20
-13215.98677612467
 10
-6782.453254216391
 20
-13215.77505864945
 10
-6782.453254216391
 20
-13215.77505864945
 10
-6782.453254216391
 20
-13215.77505864945
 10
-6782.559099494534
 20
-13215.56336809317
 10
-6782.559099494534
 20
-13215.56336809317
 10
-6782.559099494534
 20
-13215.56336809317
 10
-6782.770843888695
 20
-13215.35167753688
 10
-6782.770843888695
 20
-13215.35167753688
 10
-6782.770843888695
 20
-13215.35167753688
 10
-6782.876689166838
 20
-13215.13996006166
 10
-6782.876689166838
 20
-13215.13996006166
 10
-6782.876689166838
 20
-13215.13996006166
 10
-6782.876689166838
 20
-13212.81128318573
 10
-6782.876689166838
 20
-13212.81128318573
 97
        0
 72
     1
 10
-6782.876689166838
 20
-13212.81128318573
 11
-6782.876689166838
 21
-13212.81128318573
 97
        0
 75
     0
 76
     1
 98
        0
450
        0
451
        0
460
0.0
461
0.0
452
        1
462
0.0
453
        0
470

  0
HATCH
  5
29B2A
330
A
100
AcDbEntity
  8
_U+30EC_U+30A4_U+30E4_U+30FC 1
 62
     7
420
 16777215
100
AcDbHatch
 10
0.0
 20
0.0
 30
0.0
210
0.0
220
0.0
230
1.0
  2
SOLID
 70
     1
 71
     0
 91
        1
 92
        1
 93
        2
 72
     4
 94
        3
 73
     0
 74
     0
 95
       20
 96
       16
 40
0.0
 40
0.0
 40
0.0
 40
0.0
 40
0.3527777776895833
 40
0.3527777776895833
 40
0.3527777776895833
 40
0.7055555553791667
 40
0.7055555553791667
 40
0.7055555553791667
 40
1.05833333306875
 40
1.05833333306875
 40
1.05833333306875
 40
1.411111110758333
 40
1.411111110758333
 40
1.411111110758333
 40
1.763888888447916
 40
1.763888888447916
 40
1.763888888447916
 40
1.763888888447916
 10
-6852.208145919362
 20
-13233.87534148252
 10
-6852.208145919362
 20
-13233.87534148252
 10
-6852.313991197505
 20
-13234.08704549827
 10
-6852.313991197505
 20
-13234.08704549827
 10
-6851.140809887238
 20
-13234.71685451405
 10
-6850.436933403809
 20
-13235.73124098816
 10
-6849.773596846342
 20
-13236.83913040572
 10
-6849.773596846342
 20
-13236.83913040572
 10
-6849.456061011919
 20
-13236.73328512757
 10
-6849.456061011919
 20
-13236.73328512757
 10
-6849.456061011919
 20
-13236.73328512757
 10
-6849.24437045564
 20
-13236.73328512757
 10
-6849.24437045564
 20
-13236.73328512757
 10
-6848.342855103412
 20
-13235.21258028201
 10
-6851.054400084887
 20
-13234.05353141605
 10
-6852.208145919362
 20
-13233.87534148252
 97
        0
 72
     1
 10
-6852.208145919362
 20
-13233.87534148252
 11
-6852.208145919362
 21
-13233.87534148252
 97
        0
 75
     0
 76
     1
 98
        0
450
        0
451
        0
460
0.0
461
0.0
452
        1
462
0.0
453
        0
470

  0
LINE
  5
2A1DD
330
A
100
AcDbEntity
  8
FLAME
100
AcDbLine
 10
-9462.849760058562
 20
-11430.78031662188
 30
0.0000000000000916
 11
-9462.849760058562
 21
-11535.78031662187
 31
0.0000000000000916
  0
LINE
  5
2A1DE
330
A
100
AcDbEntity
  8
FLAME
100
AcDbLine
 10
-9552.849760058562
 20
-11535.78031662187
 30
0.0000000000000916
 11
-9552.849760058562
 21
-11430.78031662188
 31
0.0000000000000916
  0
LINE
  5
2A1DF
330
A
100
AcDbEntity
  8
FLAME
100
AcDbLine
 10
-9462.849760058562
 20
-11535.78031662187
 30
0.0000000000000916
 11
-9552.849760058562
 21
-11535.78031662187
 31
0.0000000000000916
  0
LINE
  5
2A1E0
330
A
100
AcDbEntity
  8
FLAME
100
AcDbLine
 10
-9462.849760058562
 20
-11530.78031662187
 30
0.0000000000000916
 11
-9552.849760058562
 21
-11530.78031662187
 31
0.0000000000000916
  0
LINE
  5
2A1E1
330
A
100
AcDbEntity
  8
FLAME
100
AcDbLine
 10
-9462.849760058562
 20
-11525.78031662187
 30
0.0000000000000916
 11
-9552.849760058562
 21
-11525.78031662187
 31
0.0000000000000916
  0
LINE
  5
2A1E2
330
A
100
AcDbEntity
  8
FLAME
100
AcDbLine
 10
-9462.849760058562
 20
-11520.78031662187
 30
0.0000000000000916
 11
-9552.849760058562
 21
-11520.78031662187
 31
0.0000000000000916
  0
LINE
  5
2A1E3
330
A
100
AcDbEntity
  8
FLAME
100
AcDbLine
 10
-9462.849760058562
 20
-11430.78031662188
 30
0.0000000000000916
 11
-9552.849760058562
 21
-11430.78031662188
 31
0.0000000000000916
  0
LWPOLYLINE
  5
2A1E4
330
A
100
AcDbEntity
  8
Defpoints
370
     0
100
AcDbPolyline
 90
        4
 70
     1
 43
0.0
 10
-9605.349760058562
 20
-11346.2995605061
 10
-9410.349760058561
 20
-11346.2995605061
 10
-9410.349760058561
 20
-11628.2995605061
 10
-9605.349760058562
 20
-11628.2995605061
  0
TEXT
  5
2A1E5
330
A
100
AcDbEntity
  8
text
  6
Continuous
100
AcDbText
 10
-9549.400874172897
 20
-11529.64057928826
 30
0.0
 40
2.5
  1
KP47
  7
新規スタイル1
 11
-9549.400874172897
 21
-11528.39057928826
 31
0.0
100
AcDbText
 73
     2
  0
TEXT
  5
2A1E6
330
A
100
AcDbEntity
  8
text
  6
Continuous
100
AcDbText
 10
-9549.400874172897
 20
-11524.64057928826
 30
0.0
 40
2.5
  1
ペンダント 047
  7
新規スタイル1
 11
-9549.400874172897
 21
-11523.39057928826
 31
0.0
100
AcDbText
 73
     2
  0
TEXT
  5
2A1E7
330
A
100
AcDbEntity
  8
text
  6
Continuous
100
AcDbText
 10
-9549.398330268152
 20
-11534.53165679984
 30
0.0
 40
2.5
  1
E26 LED電球(100W形相当　電球色　全方向/広配光タイプ）（別売）
 41
0.836914182884554
  7
新規スタイル1
 72
     5
 11
-9464.274279584623
 21
-11534.53165679984
 31
0.0
100
AcDbText
  0
POLYLINE
  5
2C7FD
330
A
100
AcDbEntity
  8
shade
100
AcDb2dPolyline
 66
     1
 10
0.0
 20
0.0
 30
0.0
  0
VERTEX
  5
2C7FE
330
2C7FD
100
AcDbEntity
  8
shade
100
AcDbVertex
100
AcDb2dVertex
 10
-9510.003050251109
 20
-11478.65832775462
 30
0.0
  0
VERTEX
  5
2C7FF
330
2C7FD
100
AcDbEntity
  8
shade
100
AcDbVertex
100
AcDb2dVertex
 10
-9510.003050251109
 20
-11455.62854636873
 30
0.0
  0
SEQEND
  5
2C800
330
2C7FD
100
AcDbEntity
  8
shade
  0
POLYLINE
  5
2C801
330
A
100
AcDbEntity
  8
shade
100
AcDb2dPolyline
 66
     1
 10
0.0
 20
0.0
 30
0.0
  0
VERTEX
  5
2C802
330
2C801
100
AcDbEntity
  8
shade
100
AcDbVertex
100
AcDb2dVertex
 10
-9509.479095935104
 20
-11478.65832775462
 30
0.0
  0
VERTEX
  5
2C803
330
2C801
100
AcDbEntity
  8
shade
100
AcDbVertex
100
AcDb2dVertex
 10
-9509.479095935104
 20
-11455.62854636873
 30
0.0
  0
SEQEND
  5
2C804
330
2C801
100
AcDbEntity
  8
shade
  0
POLYLINE
  5
2C805
330
A
100
AcDbEntity
  8
shade
100
AcDb2dPolyline
 66
     1
 10
0.0
 20
0.0
 30
0.0
  0
VERTEX
  5
2C806
330
2C805
100
AcDbEntity
  8
shade
100
AcDbVertex
100
AcDb2dVertex
 10
-9509.749013507889
 20
-11486.45415551704
 30
0.0
  0
VERTEX
  5
2C807
330
2C805
100
AcDbEntity
  8
shade
100
AcDbVertex
100
AcDb2dVertex
 10
-9509.749013507889
 20
-11482.70707115718
 30
0.0
  0
SEQEND
  5
2C808
330
2C805
100
AcDbEntity
  8
shade
  0
POLYLINE
  5
2C809
330
A
100
AcDbEntity
  8
shade
100
AcDb2dPolyline
 66
     1
 10
0.0
 20
0.0
 30
0.0
  0
VERTEX
  5
2C80A
330
2C809
100
AcDbEntity
  8
shade
100
AcDbVertex
100
AcDb2dVertex
 10
-9509.749013507889
 20
-11486.45415551704
 30
0.0
  0
VERTEX
  5
2C80B
330
2C809
100
AcDbEntity
  8
shade
100
AcDbVertex
100
AcDb2dVertex
 10
-9509.749013507889
 20
-11482.70707115718
 30
0.0
  0
VERTEX
  5
2C80C
330
2C809
100
AcDbEntity
  8
shade
100
AcDbVertex
100
AcDb2dVertex
 10
-9509.749013507889
 20
-11487.21627382239
 30
0.0
  0
SEQEND
  5
2C80D
330
2C809
100
AcDbEntity
  8
shade
  0
POLYLINE
  5
2C80E
330
A
100
AcDbEntity
  8
shade
100
AcDb2dPolyline
 66
     1
 10
0.0
 20
0.0
 30
0.0
  0
VERTEX
  5
2C80F
330
2C80E
100
AcDbEntity
  8
shade
100
AcDbVertex
100
AcDb2dVertex
 10
-9499.650962113394
 20
-11499.68005601585
 30
0.0
  0
VERTEX
  5
2C810
330
2C80E
100
AcDbEntity
  8
shade
100
AcDbVertex
100
AcDb2dVertex
 10
-9499.841491689734
 20
-11499.63242564068
 30
0.0
  0
SEQEND
  5
2C811
330
2C80E
100
AcDbEntity
  8
shade
  0
POLYLINE
  5
2C812
330
A
100
AcDbEntity
  8
shade
100
AcDb2dPolyline
 66
     1
 10
0.0
 20
0.0
 30
0.0
  0
VERTEX
  5
2C813
330
2C812
100
AcDbEntity
  8
shade
100
AcDbVertex
100
AcDb2dVertex
 10
-9497.571017603251
 20
-11496.32992375175
 30
0.0
  0
VERTEX
  5
2C814
330
2C812
100
AcDbEntity
  8
shade
100
AcDbVertex
100
AcDb2dVertex
 10
-9499.873245273173
 20
-11499.68005601585
 30
0.0
  0
SEQEND
  5
2C815
330
2C812
100
AcDbEntity
  8
shade
  0
POLYLINE
  5
2C816
330
A
100
AcDbEntity
  8
shade
100
AcDb2dPolyline
 66
     1
 10
0.0
 20
0.0
 30
0.0
  0
VERTEX
  5
2C817
330
2C816
100
AcDbEntity
  8
shade
100
AcDbVertex
100
AcDb2dVertex
 10
-9509.288566358767
 20
-11478.59482058774
 30
0.0
  0
VERTEX
  5
2C818
330
2C816
100
AcDbEntity
  8
shade
100
AcDbVertex
100
AcDb2dVertex
 10
-9509.749013507889
 20
-11478.72183492151
 30
0.0
  0
SEQEND
  5
2C819
330
2C816
100
AcDbEntity
  8
shade
  0
POLYLINE
  5
2C81A
330
A
100
AcDbEntity
  8
shade
100
AcDb2dPolyline
 66
     1
 10
0.0
 20
0.0
 30
0.0
  0
VERTEX
  5
2C81B
330
2C81A
100
AcDbEntity
  8
shade
100
AcDbVertex
100
AcDb2dVertex
 10
-9501.238705890974
 20
-11481.1193273796
 30
0.0
  0
VERTEX
  5
2C81C
330
2C81A
100
AcDbEntity
  8
shade
100
AcDbVertex
100
AcDb2dVertex
 10
-9504.572969439029
 20
-11479.07114049074
 30
0.0
  0
SEQEND
  5
2C81D
330
2C81A
100
AcDbEntity
  8
shade
  0
POLYLINE
  5
2C81E
330
A
100
AcDbEntity
  8
shade
100
AcDb2dPolyline
 66
     1
 10
0.0
 20
0.0
 30
0.0
  0
VERTEX
  5
2C81F
330
2C81E
100
AcDbEntity
  8
shade
100
AcDbVertex
100
AcDb2dVertex
 10
-9504.128399081633
 20
-11479.24580135104
 30
0.0
  0
VERTEX
  5
2C820
330
2C81E
100
AcDbEntity
  8
shade
100
AcDbVertex
100
AcDb2dVertex
 10
-9504.287175074523
 20
-11479.24580135104
 30
0.0
  0
SEQEND
  5
2C821
330
2C81E
100
AcDbEntity
  8
shade
  0
POLYLINE
  5
2C822
330
A
100
AcDbEntity
  8
shade
100
AcDb2dPolyline
 66
     1
 10
0.0
 20
0.0
 30
0.0
  0
VERTEX
  5
2C823
330
2C822
100
AcDbEntity
  8
shade
100
AcDbVertex
100
AcDb2dVertex
 10
-9500.571852373793
 20
-11481.38924899023
 30
0.0
  0
VERTEX
  5
2C824
330
2C822
100
AcDbEntity
  8
shade
100
AcDbVertex
100
AcDb2dVertex
 10
-9504.572969439029
 20
-11479.07114049074
 30
0.0
  0
VERTEX
  5
2C825
330
2C822
100
AcDbEntity
  8
shade
100
AcDbVertex
100
AcDb2dVertex
 10
-9504.763494977526
 20
-11479.07114049074
 30
0.0
  0
SEQEND
  5
2C826
330
2C822
100
AcDbEntity
  8
shade
  0
POLYLINE
  5
2C827
330
A
100
AcDbEntity
  8
shade
100
AcDb2dPolyline
 66
     1
 10
0.0
 20
0.0
 30
0.0
  0
VERTEX
  5
2C828
330
2C827
100
AcDbEntity
  8
shade
100
AcDbVertex
100
AcDb2dVertex
 10
-9500.317815630575
 20
-11481.38924899023
 30
0.0
  0
VERTEX
  5
2C829
330
2C827
100
AcDbEntity
  8
shade
100
AcDbVertex
100
AcDb2dVertex
 10
-9504.128399081633
 20
-11479.24580135104
 30
0.0
  0
SEQEND
  5
2C82A
330
2C827
100
AcDbEntity
  8
shade
  0
POLYLINE
  5
2C82B
330
A
100
AcDbEntity
  8
shade
100
AcDb2dPolyline
 66
     1
 10
0.0
 20
0.0
 30
0.0
  0
VERTEX
  5
2C82C
330
2C82B
100
AcDbEntity
  8
shade
100
AcDbVertex
100
AcDb2dVertex
 10
-9501.810294619984
 20
-11480.83354512862
 30
0.0
  0
VERTEX
  5
2C82D
330
2C82B
100
AcDbEntity
  8
shade
100
AcDbVertex
100
AcDb2dVertex
 10
-9504.938147762141
 20
-11478.96000294869
 30
0.0
  0
VERTEX
  5
2C82E
330
2C82B
100
AcDbEntity
  8
shade
100
AcDbVertex
100
AcDb2dVertex
 10
-9505.208065334926
 20
-11478.96000294869
 30
0.0
  0
SEQEND
  5
2C82F
330
2C82B
100
AcDbEntity
  8
shade
  0
POLYLINE
  5
2C830
330
A
100
AcDbEntity
  8
shade
100
AcDb2dPolyline
 66
     1
 10
0.0
 20
0.0
 30
0.0
  0
VERTEX
  5
2C831
330
2C830
100
AcDbEntity
  8
shade
100
AcDbVertex
100
AcDb2dVertex
 10
-9502.635920092219
 20
-11480.563623518
 30
0.0
  0
VERTEX
  5
2C832
330
2C830
100
AcDbEntity
  8
shade
100
AcDbVertex
100
AcDb2dVertex
 10
-9505.335083706535
 20
-11478.86474219837
 30
0.0
  0
VERTEX
  5
2C833
330
2C830
100
AcDbEntity
  8
shade
100
AcDbVertex
100
AcDb2dVertex
 10
-9505.652631654486
 20
-11478.86474219837
 30
0.0
  0
SEQEND
  5
2C834
330
2C830
100
AcDbEntity
  8
shade
  0
POLYLINE
  5
2C835
330
A
100
AcDbEntity
  8
shade
100
AcDb2dPolyline
 66
     1
 10
0.0
 20
0.0
 30
0.0
  0
VERTEX
  5
2C836
330
2C835
100
AcDbEntity
  8
shade
100
AcDbVertex
100
AcDb2dVertex
 10
-9503.493303185734
 20
-11480.37310201734
 30
0.0
  0
VERTEX
  5
2C837
330
2C835
100
AcDbEntity
  8
shade
100
AcDbVertex
100
AcDb2dVertex
 10
-9505.763777272216
 20
-11478.80123503148
 30
0.0
  0
VERTEX
  5
2C838
330
2C835
100
AcDbEntity
  8
shade
100
AcDbVertex
100
AcDb2dVertex
 10
-9506.192466800055
 20
-11478.78535823976
 30
0.0
  0
SEQEND
  5
2C839
330
2C835
100
AcDbEntity
  8
shade
  0
POLYLINE
  5
2C83A
330
A
100
AcDbEntity
  8
shade
100
AcDb2dPolyline
 66
     1
 10
0.0
 20
0.0
 30
0.0
  0
VERTEX
  5
2C83B
330
2C83A
100
AcDbEntity
  8
shade
100
AcDbVertex
100
AcDb2dVertex
 10
-9506.843439487669
 20
-11478.67420454635
 30
0.0
  0
VERTEX
  5
2C83C
330
2C83A
100
AcDbEntity
  8
shade
100
AcDbVertex
100
AcDb2dVertex
 10
-9506.351238755106
 20
-11478.65832775462
 30
0.0
  0
VERTEX
  5
2C83D
330
2C83A
100
AcDbEntity
  8
shade
100
AcDbVertex
100
AcDb2dVertex
 10
-9504.271294244963
 20
-11480.26194832393
 30
0.0
  0
SEQEND
  5
2C83E
330
2C83A
100
AcDbEntity
  8
shade
  0
POLYLINE
  5
2C83F
330
A
100
AcDbEntity
  8
shade
100
AcDb2dPolyline
 66
     1
 10
0.0
 20
0.0
 30
0.0
  0
VERTEX
  5
2C840
330
2C83F
100
AcDbEntity
  8
shade
100
AcDbVertex
100
AcDb2dVertex
 10
-9505.335083706535
 20
-11480.08730361499
 30
0.0
  0
VERTEX
  5
2C841
330
2C83F
100
AcDbEntity
  8
shade
100
AcDbVertex
100
AcDb2dVertex
 10
-9506.922827484116
 20
-11478.61069737946
 30
0.0
  0
VERTEX
  5
2C842
330
2C83F
100
AcDbEntity
  8
shade
100
AcDbVertex
100
AcDb2dVertex
 10
-9507.542046588293
 20
-11478.65832775462
 30
0.0
  0
SEQEND
  5
2C843
330
2C83F
100
AcDbEntity
  8
shade
  0
POLYLINE
  5
2C844
330
A
100
AcDbEntity
  8
shade
100
AcDb2dPolyline
 66
     1
 10
0.0
 20
0.0
 30
0.0
  0
VERTEX
  5
2C845
330
2C844
100
AcDbEntity
  8
shade
100
AcDbVertex
100
AcDb2dVertex
 10
-9508.256534518476
 20
-11478.64245096291
 30
0.0
  0
VERTEX
  5
2C846
330
2C844
100
AcDbEntity
  8
shade
100
AcDbVertex
100
AcDb2dVertex
 10
-9507.637311376461
 20
-11478.53131342086
 30
0.0
  0
VERTEX
  5
2C847
330
2C844
100
AcDbEntity
  8
shade
100
AcDbVertex
100
AcDb2dVertex
 10
-9506.36711958467
 20
-11479.99204286467
 30
0.0
  0
SEQEND
  5
2C848
330
2C844
100
AcDbEntity
  8
shade
  0
POLYLINE
  5
2C849
330
A
100
AcDbEntity
  8
shade
100
AcDb2dPolyline
 66
     1
 10
0.0
 20
0.0
 30
0.0
  0
VERTEX
  5
2C84A
330
2C849
100
AcDbEntity
  8
shade
100
AcDbVertex
100
AcDb2dVertex
 10
-9507.605557793018
 20
-11479.7697516292
 30
0.0
  0
VERTEX
  5
2C84B
330
2C849
100
AcDbEntity
  8
shade
100
AcDbVertex
100
AcDb2dVertex
 10
-9508.335918477085
 20
-11478.49955983741
 30
0.0
  0
VERTEX
  5
2C84C
330
2C849
100
AcDbEntity
  8
shade
100
AcDbVertex
100
AcDb2dVertex
 10
-9508.558205674702
 20
-11478.48368304569
 30
0.0
  0
VERTEX
  5
2C84D
330
2C849
100
AcDbEntity
  8
shade
100
AcDbVertex
100
AcDb2dVertex
 10
-9509.129790365873
 20
-11478.59482058774
 30
0.0
  0
SEQEND
  5
2C84E
330
2C849
100
AcDbEntity
  8
shade
  0
POLYLINE
  5
2C84F
330
A
100
AcDbEntity
  8
shade
100
AcDb2dPolyline
 66
     1
 10
0.0
 20
0.0
 30
0.0
  0
VERTEX
  5
2C850
330
2C84F
100
AcDbEntity
  8
shade
100
AcDbVertex
100
AcDb2dVertex
 10
-9508.780488834482
 20
-11479.81738200437
 30
0.0
  0
VERTEX
  5
2C851
330
2C84F
100
AcDbEntity
  8
shade
100
AcDbVertex
100
AcDb2dVertex
 10
-9509.145671195435
 20
-11478.54719021258
 30
0.0
  0
VERTEX
  5
2C852
330
2C84F
100
AcDbEntity
  8
shade
100
AcDbVertex
100
AcDb2dVertex
 10
-9509.288566358767
 20
-11478.59482058774
 30
0.0
  0
VERTEX
  5
2C853
330
2C84F
100
AcDbEntity
  8
shade
100
AcDbVertex
100
AcDb2dVertex
 10
-9509.749013507889
 20
-11479.07114049074
 30
0.0
  0
SEQEND
  5
2C854
330
2C84F
100
AcDbEntity
  8
shade
  0
SPLINE
  5
2C855
330
A
100
AcDbEntity
  8
shade
100
AcDbSpline
210
0.0
220
0.0
230
1.0
 70
     8
 71
     3
 72
    74
 73
    70
 74
     0
 42
0.000000001
 43
0.0000000001
 40
0.0
 40
0.0
 40
0.0
 40
0.0
 40
1.0
 40
1.0
 40
1.0
 40
2.0
 40
2.0
 40
2.0
 40
3.0
 40
3.0
 40
3.0
 40
4.0
 40
4.0
 40
4.0
 40
5.0
 40
5.0
 40
5.0
 40
6.0
 40
6.0
 40
6.0
 40
7.0
 40
7.0
 40
7.0
 40
8.0
 40
8.0
 40
8.0
 40
9.0
 40
9.0
 40
9.0
 40
10.0
 40
10.0
 40
10.0
 40
11.0
 40
11.0
 40
11.0
 40
12.0
 40
12.0
 40
12.0
 40
13.0
 40
13.0
 40
13.0
 40
14.0
 40
14.0
 40
14.0
 40
15.0
 40
15.0
 40
15.0
 40
16.0
 40
16.0
 40
16.0
 40
17.0
 40
17.0
 40
17.0
 40
18.0
 40
18.0
 40
18.0
 40
19.0
 40
19.0
 40
19.0
 40
20.0
 40
20.0
 40
20.0
 40
21.0
 40
21.0
 40
21.0
 40
22.0
 40
22.0
 40
22.0
 40
23.0
 40
23.0
 40
23.0
 40
23.0
 10
-9509.749013507889
 20
-11482.70707115718
 30
0.0
 10
-9509.749013507889
 20
-11482.70707115718
 30
0.0
 10
-9508.780488834482
 20
-11479.81738200437
 30
0.0
 10
-9508.780488834482
 20
-11479.81738200437
 30
0.0
 10
-9508.780488834482
 20
-11479.81738200437
 30
0.0
 10
-9507.796087369355
 20
-11482.62768719858
 30
0.0
 10
-9507.796087369355
 20
-11482.62768719858
 30
0.0
 10
-9507.796087369355
 20
-11482.62768719858
 30
0.0
 10
-9507.605557793018
 20
-11479.7697516292
 30
0.0
 10
-9507.605557793018
 20
-11479.7697516292
 30
0.0
 10
-9507.605557793018
 20
-11479.7697516292
 30
0.0
 10
-9506.144832387048
 20
-11482.84997843404
 30
0.0
 10
-9506.144832387048
 20
-11482.84997843404
 30
0.0
 10
-9506.144832387048
 20
-11482.84997843404
 30
0.0
 10
-9506.36711958467
 20
-11479.99204286467
 30
0.0
 10
-9506.36711958467
 20
-11479.99204286467
 30
0.0
 10
-9506.36711958467
 20
-11479.99204286467
 30
0.0
 10
-9504.715864602362
 20
-11482.88173201748
 30
0.0
 10
-9504.715864602362
 20
-11482.88173201748
 30
0.0
 10
-9504.715864602362
 20
-11482.88173201748
 30
0.0
 10
-9505.335083706535
 20
-11480.08730361499
 30
0.0
 10
-9505.335083706535
 20
-11480.08730361499
 30
0.0
 10
-9505.335083706535
 20
-11480.08730361499
 30
0.0
 10
-9503.382161605847
 20
-11483.05637672641
 30
0.0
 10
-9503.382161605847
 20
-11483.05637672641
 30
0.0
 10
-9503.382161605847
 20
-11483.05637672641
 30
0.0
 10
-9504.271294244963
 20
-11480.26194832393
 30
0.0
 10
-9504.271294244963
 20
-11480.26194832393
 30
0.0
 10
-9504.271294244963
 20
-11480.26194832393
 30
0.0
 10
-9502.096088984492
 20
-11483.2945447536
 30
0.0
 10
-9502.096088984492
 20
-11483.2945447536
 30
0.0
 10
-9502.096088984492
 20
-11483.2945447536
 30
0.0
 10
-9503.493303185734
 20
-11480.37310201734
 30
0.0
 10
-9503.493303185734
 20
-11480.37310201734
 30
0.0
 10
-9503.493303185734
 20
-11480.37310201734
 30
0.0
 10
-9501.175194686247
 20
-11483.48506625425
 30
0.0
 10
-9501.175194686247
 20
-11483.48506625425
 30
0.0
 10
-9501.175194686247
 20
-11483.48506625425
 30
0.0
 10
-9502.635920092219
 20
-11480.563623518
 30
0.0
 10
-9502.635920092219
 20
-11480.563623518
 30
0.0
 10
-9502.635920092219
 20
-11480.563623518
 30
0.0
 10
-9500.14316284596
 20
-11483.65972711455
 30
0.0
 10
-9500.14316284596
 20
-11483.65972711455
 30
0.0
 10
-9500.14316284596
 20
-11483.65972711455
 30
0.0
 10
-9501.810294619984
 20
-11480.83354512862
 30
0.0
 10
-9501.810294619984
 20
-11480.83354512862
 30
0.0
 10
-9501.810294619984
 20
-11480.83354512862
 30
0.0
 10
-9499.285779752444
 20
-11483.86612540693
 30
0.0
 10
-9499.285779752444
 20
-11483.86612540693
 30
0.0
 10
-9499.285779752444
 20
-11483.86612540693
 30
0.0
 10
-9501.238705890974
 20
-11481.1193273796
 30
0.0
 10
-9501.238705890974
 20
-11481.1193273796
 30
0.0
 10
-9501.238705890974
 20
-11481.1193273796
 30
0.0
 10
-9498.634807064826
 20
-11483.97727910034
 30
0.0
 10
-9498.634807064826
 20
-11483.97727910034
 30
0.0
 10
-9498.634807064826
 20
-11483.97727910034
 30
0.0
 10
-9501.238705890974
 20
-11481.1193273796
 30
0.0
 10
-9501.238705890974
 20
-11481.1193273796
 30
0.0
 10
-9501.238705890974
 20
-11481.1193273796
 30
0.0
 10
-9498.142606332262
 20
-11484.2471845596
 30
0.0
 10
-9498.142606332262
 20
-11484.2471845596
 30
0.0
 10
-9498.142606332262
 20
-11484.2471845596
 30
0.0
 10
-9500.571852373793
 20
-11481.38924899023
 30
0.0
 10
-9500.571852373793
 20
-11481.38924899023
 30
0.0
 10
-9500.571852373793
 20
-11481.38924899023
 30
0.0
 10
-9497.809177554753
 20
-11484.56473654539
 30
0.0
 10
-9497.809177554753
 20
-11484.56473654539
 30
0.0
 10
-9497.809177554753
 20
-11484.56473654539
 30
0.0
 10
-9500.317815630575
 20
-11481.38924899023
 30
0.0
 10
-9500.317815630575
 20
-11481.38924899023
 30
0.0
  0
POLYLINE
  5
2C856
330
A
100
AcDbEntity
  8
shade
100
AcDb2dPolyline
 66
     1
 10
0.0
 20
0.0
 30
0.0
  0
VERTEX
  5
2C857
330
2C856
100
AcDbEntity
  8
shade
100
AcDbVertex
100
AcDb2dVertex
 10
-9495.602214672997
 20
-11488.64523353139
 30
0.0
  0
VERTEX
  5
2C858
330
2C856
100
AcDbEntity
  8
shade
100
AcDbVertex
100
AcDb2dVertex
 10
-9497.269346447023
 20
-11484.91404211462
 30
0.0
  0
VERTEX
  5
2C859
330
2C856
100
AcDbEntity
  8
shade
100
AcDbVertex
100
AcDb2dVertex
 10
-9500.317815630575
 20
-11481.38924899023
 30
0.0
  0
SEQEND
  5
2C85A
330
2C856
100
AcDbEntity
  8
shade
  0
POLYLINE
  5
2C85B
330
A
100
AcDbEntity
  8
shade
100
AcDb2dPolyline
 66
     1
 10
0.0
 20
0.0
 30
0.0
  0
VERTEX
  5
2C85C
330
2C85B
100
AcDbEntity
  8
shade
100
AcDbVertex
100
AcDb2dVertex
 10
-9495.903885829223
 20
-11488.43883523901
 30
0.0
  0
VERTEX
  5
2C85D
330
2C85B
100
AcDbEntity
  8
shade
100
AcDbVertex
100
AcDb2dVertex
 10
-9497.809177554753
 20
-11484.56473654539
 30
0.0
  0
SEQEND
  5
2C85E
330
2C85B
100
AcDbEntity
  8
shade
  0
POLYLINE
  5
2C85F
330
A
100
AcDbEntity
  8
shade
100
AcDb2dPolyline
 66
     1
 10
0.0
 20
0.0
 30
0.0
  0
VERTEX
  5
2C860
330
2C85F
100
AcDbEntity
  8
shade
100
AcDbVertex
100
AcDb2dVertex
 10
-9496.348456186622
 20
-11488.20066721183
 30
0.0
  0
VERTEX
  5
2C861
330
2C85F
100
AcDbEntity
  8
shade
100
AcDbVertex
100
AcDb2dVertex
 10
-9498.142606332262
 20
-11484.2471845596
 30
0.0
  0
SEQEND
  5
2C862
330
2C85F
100
AcDbEntity
  8
shade
  0
POLYLINE
  5
2C863
330
A
100
AcDbEntity
  8
shade
100
AcDb2dPolyline
 66
     1
 10
0.0
 20
0.0
 30
0.0
  0
VERTEX
  5
2C864
330
2C863
100
AcDbEntity
  8
shade
100
AcDbVertex
100
AcDb2dVertex
 10
-9497.062940078967
 20
-11487.86723843432
 30
0.0
  0
VERTEX
  5
2C865
330
2C863
100
AcDbEntity
  8
shade
100
AcDbVertex
100
AcDb2dVertex
 10
-9498.634807064826
 20
-11483.97727910034
 30
0.0
  0
SEQEND
  5
2C866
330
2C863
100
AcDbEntity
  8
shade
  0
POLYLINE
  5
2C867
330
A
100
AcDbEntity
  8
shade
100
AcDb2dPolyline
 66
     1
 10
0.0
 20
0.0
 30
0.0
  0
VERTEX
  5
2C868
330
2C867
100
AcDbEntity
  8
shade
100
AcDbVertex
100
AcDb2dVertex
 10
-9497.809177554753
 20
-11487.78785447571
 30
0.0
  0
VERTEX
  5
2C869
330
2C867
100
AcDbEntity
  8
shade
100
AcDbVertex
100
AcDb2dVertex
 10
-9499.285779752444
 20
-11483.86612540693
 30
0.0
  0
SEQEND
  5
2C86A
330
2C867
100
AcDbEntity
  8
shade
  0
POLYLINE
  5
2C86B
330
A
100
AcDbEntity
  8
shade
100
AcDb2dPolyline
 66
     1
 10
0.0
 20
0.0
 30
0.0
  0
VERTEX
  5
2C86C
330
2C86B
100
AcDbEntity
  8
shade
100
AcDbVertex
100
AcDb2dVertex
 10
-9498.809455811601
 20
-11487.50207222473
 30
0.0
  0
VERTEX
  5
2C86D
330
2C86B
100
AcDbEntity
  8
shade
100
AcDbVertex
100
AcDb2dVertex
 10
-9500.14316284596
 20
-11483.65972711455
 30
0.0
  0
SEQEND
  5
2C86E
330
2C86B
100
AcDbEntity
  8
shade
  0
POLYLINE
  5
2C86F
330
A
100
AcDbEntity
  8
shade
100
AcDb2dPolyline
 66
     1
 10
0.0
 20
0.0
 30
0.0
  0
VERTEX
  5
2C870
330
2C86F
100
AcDbEntity
  8
shade
100
AcDbVertex
100
AcDb2dVertex
 10
-9499.825614898011
 20
-11487.26390419755
 30
0.0
  0
VERTEX
  5
2C871
330
2C86F
100
AcDbEntity
  8
shade
100
AcDbVertex
100
AcDb2dVertex
 10
-9501.175194686247
 20
-11483.48506625425
 30
0.0
  0
SEQEND
  5
2C872
330
2C86F
100
AcDbEntity
  8
shade
  0
POLYLINE
  5
2C873
330
A
100
AcDbEntity
  8
shade
100
AcDb2dPolyline
 66
     1
 10
0.0
 20
0.0
 30
0.0
  0
VERTEX
  5
2C874
330
2C873
100
AcDbEntity
  8
shade
100
AcDbVertex
100
AcDb2dVertex
 10
-9501.032299522917
 20
-11486.94635221176
 30
0.0
  0
VERTEX
  5
2C875
330
2C873
100
AcDbEntity
  8
shade
100
AcDbVertex
100
AcDb2dVertex
 10
-9502.096088984492
 20
-11483.2945447536
 30
0.0
  0
SEQEND
  5
2C876
330
2C873
100
AcDbEntity
  8
shade
  0
POLYLINE
  5
2C877
330
A
100
AcDbEntity
  8
shade
100
AcDb2dPolyline
 66
     1
 10
0.0
 20
0.0
 30
0.0
  0
VERTEX
  5
2C878
330
2C877
100
AcDbEntity
  8
shade
100
AcDbVertex
100
AcDb2dVertex
 10
-9502.366002519435
 20
-11486.99398258692
 30
0.0
  0
VERTEX
  5
2C879
330
2C877
100
AcDbEntity
  8
shade
100
AcDbVertex
100
AcDb2dVertex
 10
-9503.382161605847
 20
-11483.05637672641
 30
0.0
  0
SEQEND
  5
2C87A
330
2C877
100
AcDbEntity
  8
shade
  0
POLYLINE
  5
2C87B
330
A
100
AcDbEntity
  8
shade
100
AcDb2dPolyline
 66
     1
 10
0.0
 20
0.0
 30
0.0
  0
VERTEX
  5
2C87C
330
2C87B
100
AcDbEntity
  8
shade
100
AcDbVertex
100
AcDb2dVertex
 10
-9504.00138071002
 20
-11486.70820033594
 30
0.0
  0
VERTEX
  5
2C87D
330
2C87B
100
AcDbEntity
  8
shade
100
AcDbVertex
100
AcDb2dVertex
 10
-9504.715864602362
 20
-11482.88173201748
 30
0.0
  0
SEQEND
  5
2C87E
330
2C87B
100
AcDbEntity
  8
shade
  0
POLYLINE
  5
2C87F
330
A
100
AcDbEntity
  8
shade
100
AcDb2dPolyline
 66
     1
 10
0.0
 20
0.0
 30
0.0
  0
VERTEX
  5
2C880
330
2C87F
100
AcDbEntity
  8
shade
100
AcDbVertex
100
AcDb2dVertex
 10
-9505.779654063937
 20
-11486.64467701769
 30
0.0
  0
VERTEX
  5
2C881
330
2C87F
100
AcDbEntity
  8
shade
100
AcDbVertex
100
AcDb2dVertex
 10
-9506.144832387048
 20
-11482.84997843404
 30
0.0
  0
SEQEND
  5
2C882
330
2C87F
100
AcDbEntity
  8
shade
  0
POLYLINE
  5
2C883
330
A
100
AcDbEntity
  8
shade
100
AcDb2dPolyline
 66
     1
 10
0.0
 20
0.0
 30
0.0
  0
VERTEX
  5
2C884
330
2C883
100
AcDbEntity
  8
shade
100
AcDbVertex
100
AcDb2dVertex
 10
-9507.700822581186
 20
-11486.5017858922
 30
0.0
  0
VERTEX
  5
2C885
330
2C883
100
AcDbEntity
  8
shade
100
AcDbVertex
100
AcDb2dVertex
 10
-9507.796087369355
 20
-11482.62768719858
 30
0.0
  0
SEQEND
  5
2C886
330
2C883
100
AcDbEntity
  8
shade
  0
POLYLINE
  5
2C887
330
A
100
AcDbEntity
  8
shade
100
AcDb2dPolyline
 66
     1
 10
0.0
 20
0.0
 30
0.0
  0
VERTEX
  5
2C888
330
2C887
100
AcDbEntity
  8
shade
100
AcDbVertex
100
AcDb2dVertex
 10
-9509.749013507889
 20
-11487.21627382239
 30
0.0
  0
VERTEX
  5
2C889
330
2C887
100
AcDbEntity
  8
shade
100
AcDbVertex
100
AcDb2dVertex
 10
-9509.749013507889
 20
-11482.70707115718
 30
0.0
  0
SEQEND
  5
2C88A
330
2C887
100
AcDbEntity
  8
shade
  0
POLYLINE
  5
2C88B
330
A
100
AcDbEntity
  8
shade
100
AcDb2dPolyline
 66
     1
 10
0.0
 20
0.0
 30
0.0
  0
VERTEX
  5
2C88C
330
2C88B
100
AcDbEntity
  8
shade
100
AcDbVertex
100
AcDb2dVertex
 10
-9508.478817678255
 20
-11491.42378514215
 30
0.0
  0
VERTEX
  5
2C88D
330
2C88B
100
AcDbEntity
  8
shade
100
AcDbVertex
100
AcDb2dVertex
 10
-9509.749013507889
 20
-11486.45415551704
 30
0.0
  0
SEQEND
  5
2C88E
330
2C88B
100
AcDbEntity
  8
shade
  0
POLYLINE
  5
2C88F
330
A
100
AcDbEntity
  8
shade
100
AcDb2dPolyline
 66
     1
 10
0.0
 20
0.0
 30
0.0
  0
VERTEX
  5
2C890
330
2C88F
100
AcDbEntity
  8
shade
100
AcDbVertex
100
AcDb2dVertex
 10
-9508.478817678255
 20
-11491.42378514215
 30
0.0
  0
VERTEX
  5
2C891
330
2C88F
100
AcDbEntity
  8
shade
100
AcDbVertex
100
AcDb2dVertex
 10
-9507.700822581186
 20
-11486.5017858922
 30
0.0
  0
VERTEX
  5
2C892
330
2C88F
100
AcDbEntity
  8
shade
100
AcDbVertex
100
AcDb2dVertex
 10
-9506.60527953617
 20
-11491.40790835043
 30
0.0
  0
VERTEX
  5
2C893
330
2C88F
100
AcDbEntity
  8
shade
100
AcDbVertex
100
AcDb2dVertex
 10
-9505.779654063937
 20
-11486.64467701769
 30
0.0
  0
VERTEX
  5
2C894
330
2C88F
100
AcDbEntity
  8
shade
100
AcDbVertex
100
AcDb2dVertex
 10
-9504.795252598809
 20
-11491.59844600245
 30
0.0
  0
VERTEX
  5
2C895
330
2C88F
100
AcDbEntity
  8
shade
100
AcDbVertex
100
AcDb2dVertex
 10
-9504.00138071002
 20
-11486.70820033594
 30
0.0
  0
VERTEX
  5
2C896
330
2C88F
100
AcDbEntity
  8
shade
100
AcDbVertex
100
AcDb2dVertex
 10
-9503.11224403306
 20
-11491.93187477996
 30
0.0
  0
VERTEX
  5
2C897
330
2C88F
100
AcDbEntity
  8
shade
100
AcDbVertex
100
AcDb2dVertex
 10
-9502.366002519435
 20
-11486.99398258692
 30
0.0
  0
VERTEX
  5
2C898
330
2C88F
100
AcDbEntity
  8
shade
100
AcDbVertex
100
AcDb2dVertex
 10
-9501.603888251928
 20
-11491.8842444048
 30
0.0
  0
VERTEX
  5
2C899
330
2C88F
100
AcDbEntity
  8
shade
100
AcDbVertex
100
AcDb2dVertex
 10
-9501.032299522917
 20
-11486.94635221176
 30
0.0
  0
VERTEX
  5
2C89A
330
2C88F
100
AcDbEntity
  8
shade
100
AcDbVertex
100
AcDb2dVertex
 10
-9500.270181217569
 20
-11491.97950515512
 30
0.0
  0
VERTEX
  5
2C89B
330
2C88F
100
AcDbEntity
  8
shade
100
AcDbVertex
100
AcDb2dVertex
 10
-9499.825614898011
 20
-11487.26390419755
 30
0.0
  0
VERTEX
  5
2C89C
330
2C88F
100
AcDbEntity
  8
shade
100
AcDbVertex
100
AcDb2dVertex
 10
-9499.222272585555
 20
-11492.01125873857
 30
0.0
  0
VERTEX
  5
2C89D
330
2C88F
100
AcDbEntity
  8
shade
100
AcDbVertex
100
AcDb2dVertex
 10
-9498.809455811601
 20
-11487.50207222473
 30
0.0
  0
VERTEX
  5
2C89E
330
2C88F
100
AcDbEntity
  8
shade
100
AcDbVertex
100
AcDb2dVertex
 10
-9498.253747912151
 20
-11492.20178023922
 30
0.0
  0
VERTEX
  5
2C89F
330
2C88F
100
AcDbEntity
  8
shade
100
AcDbVertex
100
AcDb2dVertex
 10
-9497.809177554753
 20
-11487.78785447571
 30
0.0
  0
VERTEX
  5
2C8A0
330
2C88F
100
AcDbEntity
  8
shade
100
AcDbVertex
100
AcDb2dVertex
 10
-9497.316976822187
 20
-11492.34468751608
 30
0.0
  0
VERTEX
  5
2C8A1
330
2C88F
100
AcDbEntity
  8
shade
100
AcDbVertex
100
AcDb2dVertex
 10
-9497.062940078967
 20
-11487.86723843432
 30
0.0
  0
VERTEX
  5
2C8A2
330
2C88F
100
AcDbEntity
  8
shade
100
AcDbVertex
100
AcDb2dVertex
 10
-9496.586616138124
 20
-11492.45582505813
 30
0.0
  0
VERTEX
  5
2C8A3
330
2C88F
100
AcDbEntity
  8
shade
100
AcDbVertex
100
AcDb2dVertex
 10
-9496.348456186622
 20
-11488.20066721183
 30
0.0
  0
VERTEX
  5
2C8A4
330
2C88F
100
AcDbEntity
  8
shade
100
AcDbVertex
100
AcDb2dVertex
 10
-9496.015027409113
 20
-11492.53520901673
 30
0.0
  0
VERTEX
  5
2C8A5
330
2C88F
100
AcDbEntity
  8
shade
100
AcDbVertex
100
AcDb2dVertex
 10
-9495.903885829223
 20
-11488.43883523901
 30
0.0
  0
VERTEX
  5
2C8A6
330
2C88F
100
AcDbEntity
  8
shade
100
AcDbVertex
100
AcDb2dVertex
 10
-9495.665725877721
 20
-11492.97977533629
 30
0.0
  0
VERTEX
  5
2C8A7
330
2C88F
100
AcDbEntity
  8
shade
100
AcDbVertex
100
AcDb2dVertex
 10
-9495.602214672997
 20
-11488.64523353139
 30
0.0
  0
VERTEX
  5
2C8A8
330
2C88F
100
AcDbEntity
  8
shade
100
AcDbVertex
100
AcDb2dVertex
 10
-9495.491073093106
 20
-11493.07505223799
 30
0.0
  0
SEQEND
  5
2C8A9
330
2C88F
100
AcDbEntity
  8
shade
  0
POLYLINE
  5
2C8AA
330
A
100
AcDbEntity
  8
shade
100
AcDb2dPolyline
 66
     1
 10
0.0
 20
0.0
 30
0.0
  0
VERTEX
  5
2C8AB
330
2C8AA
100
AcDbEntity
  8
shade
100
AcDbVertex
100
AcDb2dVertex
 10
-9496.935921707356
 20
-11496.28229337659
 30
0.0
  0
VERTEX
  5
2C8AC
330
2C8AA
100
AcDbEntity
  8
shade
100
AcDbVertex
100
AcDb2dVertex
 10
-9495.491073093106
 20
-11493.07505223799
 30
0.0
  0
SEQEND
  5
2C8AD
330
2C8AA
100
AcDbEntity
  8
shade
  0
POLYLINE
  5
2C8AE
330
A
100
AcDbEntity
  8
shade
100
AcDb2dPolyline
 66
     1
 10
0.0
 20
0.0
 30
0.0
  0
VERTEX
  5
2C8AF
330
2C8AE
100
AcDbEntity
  8
shade
100
AcDbVertex
100
AcDb2dVertex
 10
-9497.205835242299
 20
-11496.32992375175
 30
0.0
  0
VERTEX
  5
2C8B0
330
2C8AE
100
AcDbEntity
  8
shade
100
AcDbVertex
100
AcDb2dVertex
 10
-9495.665725877721
 20
-11492.97977533629
 30
0.0
  0
SEQEND
  5
2C8B1
330
2C8AE
100
AcDbEntity
  8
shade
  0
POLYLINE
  5
2C8B2
330
A
100
AcDbEntity
  8
shade
100
AcDb2dPolyline
 66
     1
 10
0.0
 20
0.0
 30
0.0
  0
VERTEX
  5
2C8B3
330
2C8B2
100
AcDbEntity
  8
shade
100
AcDbVertex
100
AcDb2dVertex
 10
-9497.571017603251
 20
-11496.32992375175
 30
0.0
  0
VERTEX
  5
2C8B4
330
2C8B2
100
AcDbEntity
  8
shade
100
AcDbVertex
100
AcDb2dVertex
 10
-9496.015027409113
 20
-11492.53520901673
 30
0.0
  0
SEQEND
  5
2C8B5
330
2C8B2
100
AcDbEntity
  8
shade
  0
POLYLINE
  5
2C8B6
330
A
100
AcDbEntity
  8
shade
100
AcDb2dPolyline
 66
     1
 10
0.0
 20
0.0
 30
0.0
  0
VERTEX
  5
2C8B7
330
2C8B6
100
AcDbEntity
  8
shade
100
AcDbVertex
100
AcDb2dVertex
 10
-9498.12672954054
 20
-11496.23466300142
 30
0.0
  0
VERTEX
  5
2C8B8
330
2C8B6
100
AcDbEntity
  8
shade
100
AcDbVertex
100
AcDb2dVertex
 10
-9496.586616138124
 20
-11492.45582505813
 30
0.0
  0
SEQEND
  5
2C8B9
330
2C8B6
100
AcDbEntity
  8
shade
  0
POLYLINE
  5
2C8BA
330
A
100
AcDbEntity
  8
shade
100
AcDb2dPolyline
 66
     1
 10
0.0
 20
0.0
 30
0.0
  0
VERTEX
  5
2C8BB
330
2C8BA
100
AcDbEntity
  8
shade
100
AcDbVertex
100
AcDb2dVertex
 10
-9498.809455811601
 20
-11496.20289326662
 30
0.0
  0
VERTEX
  5
2C8BC
330
2C8BA
100
AcDbEntity
  8
shade
100
AcDbVertex
100
AcDb2dVertex
 10
-9497.316976822187
 20
-11492.34468751608
 30
0.0
  0
SEQEND
  5
2C8BD
330
2C8BA
100
AcDbEntity
  8
shade
  0
POLYLINE
  5
2C8BE
330
A
100
AcDbEntity
  8
shade
100
AcDb2dPolyline
 66
     1
 10
0.0
 20
0.0
 30
0.0
  0
VERTEX
  5
2C8BF
330
2C8BE
100
AcDbEntity
  8
shade
100
AcDbVertex
100
AcDb2dVertex
 10
-9499.508062912223
 20
-11496.06000214113
 30
0.0
  0
VERTEX
  5
2C8C0
330
2C8BE
100
AcDbEntity
  8
shade
100
AcDbVertex
100
AcDb2dVertex
 10
-9498.253747912151
 20
-11492.20178023922
 30
0.0
  0
SEQEND
  5
2C8C1
330
2C8BE
100
AcDbEntity
  8
shade
  0
POLYLINE
  5
2C8C2
330
A
100
AcDbEntity
  8
shade
100
AcDb2dPolyline
 66
     1
 10
0.0
 20
0.0
 30
0.0
  0
VERTEX
  5
2C8C3
330
2C8C2
100
AcDbEntity
  8
shade
100
AcDbVertex
100
AcDb2dVertex
 10
-9500.476587585627
 20
-11496.06000214113
 30
0.0
  0
VERTEX
  5
2C8C4
330
2C8C2
100
AcDbEntity
  8
shade
100
AcDbVertex
100
AcDb2dVertex
 10
-9499.222272585555
 20
-11492.01125873857
 30
0.0
  0
SEQEND
  5
2C8C5
330
2C8C2
100
AcDbEntity
  8
shade
  0
POLYLINE
  5
2C8C6
330
A
100
AcDbEntity
  8
shade
100
AcDb2dPolyline
 66
     1
 10
0.0
 20
0.0
 30
0.0
  0
VERTEX
  5
2C8C7
330
2C8C6
100
AcDbEntity
  8
shade
100
AcDbVertex
100
AcDb2dVertex
 10
-9501.318093887423
 20
-11495.74245015534
 30
0.0
  0
VERTEX
  5
2C8C8
330
2C8C6
100
AcDbEntity
  8
shade
100
AcDbVertex
100
AcDb2dVertex
 10
-9500.270181217569
 20
-11491.97950515512
 30
0.0
  0
SEQEND
  5
2C8C9
330
2C8C6
100
AcDbEntity
  8
shade
  0
POLYLINE
  5
2C8CA
330
A
100
AcDbEntity
  8
shade
100
AcDb2dPolyline
 66
     1
 10
0.0
 20
0.0
 30
0.0
  0
VERTEX
  5
2C8CB
330
2C8CA
100
AcDbEntity
  8
shade
100
AcDbVertex
100
AcDb2dVertex
 10
-9502.508901720608
 20
-11495.59955902984
 30
0.0
  0
VERTEX
  5
2C8CC
330
2C8CA
100
AcDbEntity
  8
shade
100
AcDbVertex
100
AcDb2dVertex
 10
-9501.603888251928
 20
-11491.8842444048
 30
0.0
  0
SEQEND
  5
2C8CD
330
2C8CA
100
AcDbEntity
  8
shade
  0
POLYLINE
  5
2C8CE
330
A
100
AcDbEntity
  8
shade
100
AcDb2dPolyline
 66
     1
 10
0.0
 20
0.0
 30
0.0
  0
VERTEX
  5
2C8CF
330
2C8CE
100
AcDbEntity
  8
shade
100
AcDbVertex
100
AcDb2dVertex
 10
-9503.874358300567
 20
-11495.5678054464
 30
0.0
  0
VERTEX
  5
2C8D0
330
2C8CE
100
AcDbEntity
  8
shade
100
AcDbVertex
100
AcDb2dVertex
 10
-9503.11224403306
 20
-11491.93187477996
 30
0.0
  0
SEQEND
  5
2C8D1
330
2C8CE
100
AcDbEntity
  8
shade
  0
POLYLINE
  5
2C8D2
330
A
100
AcDbEntity
  8
shade
100
AcDb2dPolyline
 66
     1
 10
0.0
 20
0.0
 30
0.0
  0
VERTEX
  5
2C8D3
330
2C8D2
100
AcDbEntity
  8
shade
100
AcDbVertex
100
AcDb2dVertex
 10
-9505.382718119543
 20
-11495.5678054464
 30
0.0
  0
VERTEX
  5
2C8D4
330
2C8D2
100
AcDbEntity
  8
shade
100
AcDbVertex
100
AcDb2dVertex
 10
-9504.795252598809
 20
-11491.59844600245
 30
0.0
  0
SEQEND
  5
2C8D5
330
2C8D2
100
AcDbEntity
  8
shade
  0
POLYLINE
  5
2C8D6
330
A
100
AcDbEntity
  8
shade
100
AcDb2dPolyline
 66
     1
 10
0.0
 20
0.0
 30
0.0
  0
VERTEX
  5
2C8D7
330
2C8D6
100
AcDbEntity
  8
shade
100
AcDbVertex
100
AcDb2dVertex
 10
-9507.065726685292
 20
-11495.47254469608
 30
0.0
  0
VERTEX
  5
2C8D8
330
2C8D6
100
AcDbEntity
  8
shade
100
AcDbVertex
100
AcDb2dVertex
 10
-9506.60527953617
 20
-11491.40790835043
 30
0.0
  0
SEQEND
  5
2C8D9
330
2C8D6
100
AcDbEntity
  8
shade
  0
POLYLINE
  5
2C8DA
330
A
100
AcDbEntity
  8
shade
100
AcDb2dPolyline
 66
     1
 10
0.0
 20
0.0
 30
0.0
  0
VERTEX
  5
2C8DB
330
2C8DA
100
AcDbEntity
  8
shade
100
AcDbVertex
100
AcDb2dVertex
 10
-9499.317537373727
 20
-11499.69593280757
 30
0.0
  0
VERTEX
  5
2C8DC
330
2C8DA
100
AcDbEntity
  8
shade
100
AcDbVertex
100
AcDb2dVertex
 10
-9499.603327700389
 20
-11499.61654884896
 30
0.0
  0
SEQEND
  5
2C8DD
330
2C8DA
100
AcDbEntity
  8
shade
  0
POLYLINE
  5
2C8DE
330
A
100
AcDbEntity
  8
shade
100
AcDb2dPolyline
 66
     1
 10
0.0
 20
0.0
 30
0.0
  0
VERTEX
  5
2C8DF
330
2C8DE
100
AcDbEntity
  8
shade
100
AcDbVertex
100
AcDb2dVertex
 10
-9499.873245273173
 20
-11499.68005601585
 30
0.0
  0
VERTEX
  5
2C8E0
330
2C8DE
100
AcDbEntity
  8
shade
100
AcDbVertex
100
AcDb2dVertex
 10
-9500.460710793907
 20
-11499.41015055659
 30
0.0
  0
SEQEND
  5
2C8E1
330
2C8DE
100
AcDbEntity
  8
shade
  0
POLYLINE
  5
2C8E2
330
A
100
AcDbEntity
  8
shade
100
AcDb2dPolyline
 66
     1
 10
0.0
 20
0.0
 30
0.0
  0
VERTEX
  5
2C8E3
330
2C8E2
100
AcDbEntity
  8
shade
100
AcDbVertex
100
AcDb2dVertex
 10
-9500.587729165518
 20
-11499.68005601585
 30
0.0
  0
VERTEX
  5
2C8E4
330
2C8E2
100
AcDbEntity
  8
shade
100
AcDbVertex
100
AcDb2dVertex
 10
-9501.143441102808
 20
-11499.45778093175
 30
0.0
  0
SEQEND
  5
2C8E5
330
2C8E2
100
AcDbEntity
  8
shade
  0
POLYLINE
  5
2C8E6
330
A
100
AcDbEntity
  8
shade
100
AcDb2dPolyline
 66
     1
 10
0.0
 20
0.0
 30
0.0
  0
VERTEX
  5
2C8E7
330
2C8E6
100
AcDbEntity
  8
shade
100
AcDbVertex
100
AcDb2dVertex
 10
-9501.318093887423
 20
-11499.69593280757
 30
0.0
  0
VERTEX
  5
2C8E8
330
2C8E6
100
AcDbEntity
  8
shade
100
AcDbVertex
100
AcDb2dVertex
 10
-9501.857924995148
 20
-11499.37838082178
 30
0.0
  0
SEQEND
  5
2C8E9
330
2C8E6
100
AcDbEntity
  8
shade
  0
POLYLINE
  5
2C8EA
330
A
100
AcDbEntity
  8
shade
100
AcDb2dPolyline
 66
     1
 10
0.0
 20
0.0
 30
0.0
  0
VERTEX
  5
2C8EB
330
2C8EA
100
AcDbEntity
  8
shade
100
AcDbVertex
100
AcDb2dVertex
 10
-9502.111965776213
 20
-11499.72768639101
 30
0.0
  0
VERTEX
  5
2C8EC
330
2C8EA
100
AcDbEntity
  8
shade
100
AcDbVertex
100
AcDb2dVertex
 10
-9502.715308088665
 20
-11499.37838082178
 30
0.0
  0
SEQEND
  5
2C8ED
330
2C8EA
100
AcDbEntity
  8
shade
  0
POLYLINE
  5
2C8EE
330
A
100
AcDbEntity
  8
shade
100
AcDb2dPolyline
 66
     1
 10
0.0
 20
0.0
 30
0.0
  0
VERTEX
  5
2C8EF
330
2C8EE
100
AcDbEntity
  8
shade
100
AcDbVertex
100
AcDb2dVertex
 10
-9502.858203251998
 20
-11499.60067205724
 30
0.0
  0
VERTEX
  5
2C8F0
330
2C8EE
100
AcDbEntity
  8
shade
100
AcDbVertex
100
AcDb2dVertex
 10
-9503.477422356173
 20
-11499.29899686317
 30
0.0
  0
SEQEND
  5
2C8F1
330
2C8EE
100
AcDbEntity
  8
shade
  0
POLYLINE
  5
2C8F2
330
A
100
AcDbEntity
  8
shade
100
AcDb2dPolyline
 66
     1
 10
0.0
 20
0.0
 30
0.0
  0
VERTEX
  5
2C8F3
330
2C8F2
100
AcDbEntity
  8
shade
100
AcDbVertex
100
AcDb2dVertex
 10
-9503.683832762069
 20
-11499.66417922413
 30
0.0
  0
VERTEX
  5
2C8F4
330
2C8F2
100
AcDbEntity
  8
shade
100
AcDbVertex
100
AcDb2dVertex
 10
-9504.430070237859
 20
-11499.10847536252
 30
0.0
  0
SEQEND
  5
2C8F5
330
2C8F2
100
AcDbEntity
  8
shade
  0
POLYLINE
  5
2C8F6
330
A
100
AcDbEntity
  8
shade
100
AcDb2dPolyline
 66
     1
 10
0.0
 20
0.0
 30
0.0
  0
VERTEX
  5
2C8F7
330
2C8F6
100
AcDbEntity
  8
shade
100
AcDbVertex
100
AcDb2dVertex
 10
-9504.699987810642
 20
-11499.60067205724
 30
0.0
  0
VERTEX
  5
2C8F8
330
2C8F6
100
AcDbEntity
  8
shade
100
AcDbVertex
100
AcDb2dVertex
 10
-9505.605001279322
 20
-11499.01321461219
 30
0.0
  0
SEQEND
  5
2C8F9
330
2C8F6
100
AcDbEntity
  8
shade
  0
POLYLINE
  5
2C8FA
330
A
100
AcDbEntity
  8
shade
100
AcDb2dPolyline
 66
     1
 10
0.0
 20
0.0
 30
0.0
  0
VERTEX
  5
2C8FB
330
2C8FA
100
AcDbEntity
  8
shade
100
AcDbVertex
100
AcDb2dVertex
 10
-9505.906672435548
 20
-11499.6483024324
 30
0.0
  0
VERTEX
  5
2C8FC
330
2C8FA
100
AcDbEntity
  8
shade
100
AcDbVertex
100
AcDb2dVertex
 10
-9506.906950692396
 20
-11498.85443054361
 30
0.0
  0
SEQEND
  5
2C8FD
330
2C8FA
100
AcDbEntity
  8
shade
  0
POLYLINE
  5
2C8FE
330
A
100
AcDbEntity
  8
shade
100
AcDb2dPolyline
 66
     1
 10
0.0
 20
0.0
 30
0.0
  0
VERTEX
  5
2C8FF
330
2C8FE
100
AcDbEntity
  8
shade
100
AcDbVertex
100
AcDb2dVertex
 10
-9507.224498640345
 20
-11499.5689184738
 30
0.0
  0
VERTEX
  5
2C900
330
2C8FE
100
AcDbEntity
  8
shade
100
AcDbVertex
100
AcDb2dVertex
 10
-9508.161269730308
 20
-11498.66390904296
 30
0.0
  0
SEQEND
  5
2C901
330
2C8FE
100
AcDbEntity
  8
shade
  0
POLYLINE
  5
2C902
330
A
100
AcDbEntity
  8
shade
100
AcDb2dPolyline
 66
     1
 10
0.0
 20
0.0
 30
0.0
  0
VERTEX
  5
2C903
330
2C902
100
AcDbEntity
  8
shade
100
AcDbVertex
100
AcDb2dVertex
 10
-9508.494694469975
 20
-11499.61654884896
 30
0.0
  0
VERTEX
  5
2C904
330
2C902
100
AcDbEntity
  8
shade
100
AcDbVertex
100
AcDb2dVertex
 10
-9509.415584730378
 20
-11498.6956626264
 30
0.0
  0
VERTEX
  5
2C905
330
2C902
100
AcDbEntity
  8
shade
100
AcDbVertex
100
AcDb2dVertex
 10
-9509.749013507889
 20
-11499.69593280757
 30
0.0
  0
SEQEND
  5
2C906
330
2C902
100
AcDbEntity
  8
shade
  0
SPLINE
  5
2C907
330
A
100
AcDbEntity
  8
shade
100
AcDbSpline
210
0.0
220
0.0
230
1.0
 70
     8
 71
     3
 72
    20
 73
    16
 74
     0
 42
0.000000001
 43
0.0000000001
 40
0.0
 40
0.0
 40
0.0
 40
0.0
 40
1.0
 40
1.0
 40
1.0
 40
2.0
 40
2.0
 40
2.0
 40
3.0
 40
3.0
 40
3.0
 40
4.0
 40
4.0
 40
4.0
 40
5.0
 40
5.0
 40
5.0
 40
5.0
 10
-9499.650962113394
 20
-11499.68005601585
 30
0.0
 10
-9499.650962113394
 20
-11499.68005601585
 30
0.0
 10
-9497.571017603251
 20
-11496.32992375175
 30
0.0
 10
-9497.571017603251
 20
-11496.32992375175
 30
0.0
 10
-9497.571017603251
 20
-11496.32992375175
 30
0.0
 10
-9499.650962113394
 20
-11499.68005601585
 30
0.0
 10
-9499.650962113394
 20
-11499.68005601585
 30
0.0
 10
-9499.650962113394
 20
-11499.68005601585
 30
0.0
 10
-9497.205835242299
 20
-11496.32992375175
 30
0.0
 10
-9497.205835242299
 20
-11496.32992375175
 30
0.0
 10
-9497.205835242299
 20
-11496.32992375175
 30
0.0
 10
-9499.317537373727
 20
-11499.69593280757
 30
0.0
 10
-9499.317537373727
 20
-11499.69593280757
 30
0.0
 10
-9499.317537373727
 20
-11499.69593280757
 30
0.0
 10
-9496.935921707356
 20
-11496.28229337659
 30
0.0
 10
-9496.935921707356
 20
-11496.28229337659
 30
0.0
  0
POLYLINE
  5
2C908
330
A
100
AcDbEntity
  8
shade
100
AcDb2dPolyline
 66
     1
 10
0.0
 20
0.0
 30
0.0
  0
VERTEX
  5
2C909
330
2C908
100
AcDbEntity
  8
shade
100
AcDbVertex
100
AcDb2dVertex
 10
-9508.494694469975
 20
-11499.61654884896
 30
0.0
  0
VERTEX
  5
2C90A
330
2C908
100
AcDbEntity
  8
shade
100
AcDbVertex
100
AcDb2dVertex
 10
-9507.065726685292
 20
-11495.47254469608
 30
0.0
  0
VERTEX
  5
2C90B
330
2C908
100
AcDbEntity
  8
shade
100
AcDbVertex
100
AcDb2dVertex
 10
-9507.224498640345
 20
-11499.5689184738
 30
0.0
  0
VERTEX
  5
2C90C
330
2C908
100
AcDbEntity
  8
shade
100
AcDbVertex
100
AcDb2dVertex
 10
-9505.382718119543
 20
-11495.5678054464
 30
0.0
  0
VERTEX
  5
2C90D
330
2C908
100
AcDbEntity
  8
shade
100
AcDbVertex
100
AcDb2dVertex
 10
-9505.906672435548
 20
-11499.6483024324
 30
0.0
  0
VERTEX
  5
2C90E
330
2C908
100
AcDbEntity
  8
shade
100
AcDbVertex
100
AcDb2dVertex
 10
-9503.874358300567
 20
-11495.5678054464
 30
0.0
  0
VERTEX
  5
2C90F
330
2C908
100
AcDbEntity
  8
shade
100
AcDbVertex
100
AcDb2dVertex
 10
-9504.699987810642
 20
-11499.60067205724
 30
0.0
  0
VERTEX
  5
2C910
330
2C908
100
AcDbEntity
  8
shade
100
AcDbVertex
100
AcDb2dVertex
 10
-9502.508901720608
 20
-11495.59955902984
 30
0.0
  0
VERTEX
  5
2C911
330
2C908
100
AcDbEntity
  8
shade
100
AcDbVertex
100
AcDb2dVertex
 10
-9503.683832762069
 20
-11499.66417922413
 30
0.0
  0
VERTEX
  5
2C912
330
2C908
100
AcDbEntity
  8
shade
100
AcDbVertex
100
AcDb2dVertex
 10
-9501.318093887423
 20
-11495.74245015534
 30
0.0
  0
VERTEX
  5
2C913
330
2C908
100
AcDbEntity
  8
shade
100
AcDbVertex
100
AcDb2dVertex
 10
-9502.858203251998
 20
-11499.60067205724
 30
0.0
  0
VERTEX
  5
2C914
330
2C908
100
AcDbEntity
  8
shade
100
AcDbVertex
100
AcDb2dVertex
 10
-9500.476587585627
 20
-11496.06000214113
 30
0.0
  0
VERTEX
  5
2C915
330
2C908
100
AcDbEntity
  8
shade
100
AcDbVertex
100
AcDb2dVertex
 10
-9502.111965776213
 20
-11499.72768639101
 30
0.0
  0
VERTEX
  5
2C916
330
2C908
100
AcDbEntity
  8
shade
100
AcDbVertex
100
AcDb2dVertex
 10
-9499.508062912223
 20
-11496.06000214113
 30
0.0
  0
VERTEX
  5
2C917
330
2C908
100
AcDbEntity
  8
shade
100
AcDbVertex
100
AcDb2dVertex
 10
-9501.318093887423
 20
-11499.69593280757
 30
0.0
  0
VERTEX
  5
2C918
330
2C908
100
AcDbEntity
  8
shade
100
AcDbVertex
100
AcDb2dVertex
 10
-9498.809455811601
 20
-11496.20289326662
 30
0.0
  0
VERTEX
  5
2C919
330
2C908
100
AcDbEntity
  8
shade
100
AcDbVertex
100
AcDb2dVertex
 10
-9500.587729165518
 20
-11499.68005601585
 30
0.0
  0
VERTEX
  5
2C91A
330
2C908
100
AcDbEntity
  8
shade
100
AcDbVertex
100
AcDb2dVertex
 10
-9498.12672954054
 20
-11496.23466300142
 30
0.0
  0
VERTEX
  5
2C91B
330
2C908
100
AcDbEntity
  8
shade
100
AcDbVertex
100
AcDb2dVertex
 10
-9499.873245273173
 20
-11499.68005601585
 30
0.0
  0
SEQEND
  5
2C91C
330
2C908
100
AcDbEntity
  8
shade
  0
POLYLINE
  5
2C91D
330
A
100
AcDbEntity
  8
shade
100
AcDb2dPolyline
 66
     1
 10
0.0
 20
0.0
 30
0.0
  0
VERTEX
  5
2C91E
330
2C91D
100
AcDbEntity
  8
shade
100
AcDbVertex
100
AcDb2dVertex
 10
-9508.87575362265
 20
-11495.34551421094
 30
0.0
  0
VERTEX
  5
2C91F
330
2C91D
100
AcDbEntity
  8
shade
100
AcDbVertex
100
AcDb2dVertex
 10
-9509.749013507889
 20
-11499.69593280757
 30
0.0
  0
SEQEND
  5
2C920
330
2C91D
100
AcDbEntity
  8
shade
  0
POLYLINE
  5
2C921
330
A
100
AcDbEntity
  8
shade
100
AcDb2dPolyline
 66
     1
 10
0.0
 20
0.0
 30
0.0
  0
VERTEX
  5
2C922
330
2C921
100
AcDbEntity
  8
shade
100
AcDbVertex
100
AcDb2dVertex
 10
-9508.478817678255
 20
-11491.42378514215
 30
0.0
  0
VERTEX
  5
2C923
330
2C921
100
AcDbEntity
  8
shade
100
AcDbVertex
100
AcDb2dVertex
 10
-9508.87575362265
 20
-11495.34551421094
 30
0.0
  0
VERTEX
  5
2C924
330
2C921
100
AcDbEntity
  8
shade
100
AcDbVertex
100
AcDb2dVertex
 10
-9508.494694469975
 20
-11499.61654884896
 30
0.0
  0
SEQEND
  5
2C925
330
2C921
100
AcDbEntity
  8
shade
  0
POLYLINE
  5
2C926
330
A
100
AcDbEntity
  8
shade
100
AcDb2dPolyline
 66
     1
 10
0.0
 20
0.0
 30
0.0
  0
VERTEX
  5
2C927
330
2C926
100
AcDbEntity
  8
shade
100
AcDbVertex
100
AcDb2dVertex
 10
-9509.749013507889
 20
-11486.45415551704
 30
0.0
  0
VERTEX
  5
2C928
330
2C926
100
AcDbEntity
  8
shade
100
AcDbVertex
100
AcDb2dVertex
 10
-9509.749013507889
 20
-11482.70707115718
 30
0.0
  0
SEQEND
  5
2C929
330
2C926
100
AcDbEntity
  8
shade
  0
POLYLINE
  5
2C92A
330
A
100
AcDbEntity
  8
shade
100
AcDb2dPolyline
 66
     1
 10
0.0
 20
0.0
 30
0.0
  0
VERTEX
  5
2C92B
330
2C92A
100
AcDbEntity
  8
shade
100
AcDbVertex
100
AcDb2dVertex
 10
-9509.749013507889
 20
-11486.45415551704
 30
0.0
  0
VERTEX
  5
2C92C
330
2C92A
100
AcDbEntity
  8
shade
100
AcDbVertex
100
AcDb2dVertex
 10
-9509.749013507889
 20
-11482.70707115718
 30
0.0
  0
VERTEX
  5
2C92D
330
2C92A
100
AcDbEntity
  8
shade
100
AcDbVertex
100
AcDb2dVertex
 10
-9509.749013507889
 20
-11487.21627382239
 30
0.0
  0
SEQEND
  5
2C92E
330
2C92A
100
AcDbEntity
  8
shade
  0
POLYLINE
  5
2C92F
330
A
100
AcDbEntity
  8
shade
100
AcDb2dPolyline
 66
     1
 10
0.0
 20
0.0
 30
0.0
  0
VERTEX
  5
2C930
330
2C92F
100
AcDbEntity
  8
shade
100
AcDbVertex
100
AcDb2dVertex
 10
-9519.831186091741
 20
-11499.68005601585
 30
0.0
  0
VERTEX
  5
2C931
330
2C92F
100
AcDbEntity
  8
shade
100
AcDbVertex
100
AcDb2dVertex
 10
-9519.656533307125
 20
-11499.63242564068
 30
0.0
  0
SEQEND
  5
2C932
330
2C92F
100
AcDbEntity
  8
shade
  0
POLYLINE
  5
2C933
330
A
100
AcDbEntity
  8
shade
100
AcDb2dPolyline
 66
     1
 10
0.0
 20
0.0
 30
0.0
  0
VERTEX
  5
2C934
330
2C933
100
AcDbEntity
  8
shade
100
AcDbVertex
100
AcDb2dVertex
 10
-9521.927007393605
 20
-11496.32992375175
 30
0.0
  0
VERTEX
  5
2C935
330
2C933
100
AcDbEntity
  8
shade
100
AcDbVertex
100
AcDb2dVertex
 10
-9519.60890091304
 20
-11499.68005601585
 30
0.0
  0
SEQEND
  5
2C936
330
2C933
100
AcDbEntity
  8
shade
  0
POLYLINE
  5
2C937
330
A
100
AcDbEntity
  8
shade
100
AcDb2dPolyline
 66
     1
 10
0.0
 20
0.0
 30
0.0
  0
VERTEX
  5
2C938
330
2C937
100
AcDbEntity
  8
shade
100
AcDbVertex
100
AcDb2dVertex
 10
-9510.209456619168
 20
-11478.59482058774
 30
0.0
  0
VERTEX
  5
2C939
330
2C937
100
AcDbEntity
  8
shade
100
AcDbVertex
100
AcDb2dVertex
 10
-9509.749013507889
 20
-11478.72183492151
 30
0.0
  0
SEQEND
  5
2C93A
330
2C937
100
AcDbEntity
  8
shade
  0
POLYLINE
  5
2C93B
330
A
100
AcDbEntity
  8
shade
100
AcDb2dPolyline
 66
     1
 10
0.0
 20
0.0
 30
0.0
  0
VERTEX
  5
2C93C
330
2C93B
100
AcDbEntity
  8
shade
100
AcDbVertex
100
AcDb2dVertex
 10
-9518.259319105879
 20
-11481.1193273796
 30
0.0
  0
VERTEX
  5
2C93D
330
2C93B
100
AcDbEntity
  8
shade
100
AcDbVertex
100
AcDb2dVertex
 10
-9514.925057576745
 20
-11479.07114049074
 30
0.0
  0
SEQEND
  5
2C93E
330
2C93B
100
AcDbEntity
  8
shade
  0
POLYLINE
  5
2C93F
330
A
100
AcDbEntity
  8
shade
100
AcDb2dPolyline
 66
     1
 10
0.0
 20
0.0
 30
0.0
  0
VERTEX
  5
2C940
330
2C93F
100
AcDbEntity
  8
shade
100
AcDbVertex
100
AcDb2dVertex
 10
-9515.369623896303
 20
-11479.24580135104
 30
0.0
  0
VERTEX
  5
2C941
330
2C93F
100
AcDbEntity
  8
shade
100
AcDbVertex
100
AcDb2dVertex
 10
-9515.194975149528
 20
-11479.24580135104
 30
0.0
  0
SEQEND
  5
2C942
330
2C93F
100
AcDbEntity
  8
shade
  0
POLYLINE
  5
2C943
330
A
100
AcDbEntity
  8
shade
100
AcDb2dPolyline
 66
     1
 10
0.0
 20
0.0
 30
0.0
  0
VERTEX
  5
2C944
330
2C943
100
AcDbEntity
  8
shade
100
AcDbVertex
100
AcDb2dVertex
 10
-9518.926170604137
 20
-11481.38924899023
 30
0.0
  0
VERTEX
  5
2C945
330
2C943
100
AcDbEntity
  8
shade
100
AcDbVertex
100
AcDb2dVertex
 10
-9514.925057576745
 20
-11479.07114049074
 30
0.0
  0
VERTEX
  5
2C946
330
2C943
100
AcDbEntity
  8
shade
100
AcDbVertex
100
AcDb2dVertex
 10
-9514.718651208687
 20
-11479.07114049074
 30
0.0
  0
SEQEND
  5
2C947
330
2C943
100
AcDbEntity
  8
shade
  0
POLYLINE
  5
2C948
330
A
100
AcDbEntity
  8
shade
100
AcDb2dPolyline
 66
     1
 10
0.0
 20
0.0
 30
0.0
  0
VERTEX
  5
2C949
330
2C948
100
AcDbEntity
  8
shade
100
AcDbVertex
100
AcDb2dVertex
 10
-9519.180209366281
 20
-11481.38924899023
 30
0.0
  0
VERTEX
  5
2C94A
330
2C948
100
AcDbEntity
  8
shade
100
AcDbVertex
100
AcDb2dVertex
 10
-9515.369623896303
 20
-11479.24580135104
 30
0.0
  0
SEQEND
  5
2C94B
330
2C948
100
AcDbEntity
  8
shade
  0
POLYLINE
  5
2C94C
330
A
100
AcDbEntity
  8
shade
100
AcDb2dPolyline
 66
     1
 10
0.0
 20
0.0
 30
0.0
  0
VERTEX
  5
2C94D
330
2C94C
100
AcDbEntity
  8
shade
100
AcDbVertex
100
AcDb2dVertex
 10
-9517.687730376868
 20
-11480.83354512862
 30
0.0
  0
VERTEX
  5
2C94E
330
2C94C
100
AcDbEntity
  8
shade
100
AcDbVertex
100
AcDb2dVertex
 10
-9514.543998424072
 20
-11478.96000294869
 30
0.0
  0
VERTEX
  5
2C94F
330
2C94C
100
AcDbEntity
  8
shade
100
AcDbVertex
100
AcDb2dVertex
 10
-9514.289957643008
 20
-11478.96000294869
 30
0.0
  0
SEQEND
  5
2C950
330
2C94C
100
AcDbEntity
  8
shade
  0
POLYLINE
  5
2C951
330
A
100
AcDbEntity
  8
shade
100
AcDb2dPolyline
 66
     1
 10
0.0
 20
0.0
 30
0.0
  0
VERTEX
  5
2C952
330
2C951
100
AcDbEntity
  8
shade
100
AcDbVertex
100
AcDb2dVertex
 10
-9516.862102885717
 20
-11480.563623518
 30
0.0
  0
VERTEX
  5
2C953
330
2C951
100
AcDbEntity
  8
shade
100
AcDbVertex
100
AcDb2dVertex
 10
-9514.147062479677
 20
-11478.86474219837
 30
0.0
  0
VERTEX
  5
2C954
330
2C951
100
AcDbEntity
  8
shade
100
AcDbVertex
100
AcDb2dVertex
 10
-9513.845391323449
 20
-11478.86474219837
 30
0.0
  0
SEQEND
  5
2C955
330
2C951
100
AcDbEntity
  8
shade
  0
POLYLINE
  5
2C956
330
A
100
AcDbEntity
  8
shade
100
AcDb2dPolyline
 66
     1
 10
0.0
 20
0.0
 30
0.0
  0
VERTEX
  5
2C957
330
2C956
100
AcDbEntity
  8
shade
100
AcDbVertex
100
AcDb2dVertex
 10
-9516.004723830041
 20
-11480.37310201734
 30
0.0
  0
VERTEX
  5
2C958
330
2C956
100
AcDbEntity
  8
shade
100
AcDbVertex
100
AcDb2dVertex
 10
-9513.73424974356
 20
-11478.80123503148
 30
0.0
  0
VERTEX
  5
2C959
330
2C956
100
AcDbEntity
  8
shade
100
AcDbVertex
100
AcDb2dVertex
 10
-9513.305560215725
 20
-11478.78535823976
 30
0.0
  0
SEQEND
  5
2C95A
330
2C956
100
AcDbEntity
  8
shade
  0
POLYLINE
  5
2C95B
330
A
100
AcDbEntity
  8
shade
100
AcDb2dPolyline
 66
     1
 10
0.0
 20
0.0
 30
0.0
  0
VERTEX
  5
2C95C
330
2C95B
100
AcDbEntity
  8
shade
100
AcDbVertex
100
AcDb2dVertex
 10
-9512.638706698544
 20
-11478.67420454635
 30
0.0
  0
VERTEX
  5
2C95D
330
2C95B
100
AcDbEntity
  8
shade
100
AcDbVertex
100
AcDb2dVertex
 10
-9513.146784222829
 20
-11478.65832775462
 30
0.0
  0
VERTEX
  5
2C95E
330
2C95B
100
AcDbEntity
  8
shade
100
AcDbVertex
100
AcDb2dVertex
 10
-9515.210851941251
 20
-11480.26194832393
 30
0.0
  0
SEQEND
  5
2C95F
330
2C95B
100
AcDbEntity
  8
shade
  0
POLYLINE
  5
2C960
330
A
100
AcDbEntity
  8
shade
100
AcDb2dPolyline
 66
     1
 10
0.0
 20
0.0
 30
0.0
  0
VERTEX
  5
2C961
330
2C960
100
AcDbEntity
  8
shade
100
AcDbVertex
100
AcDb2dVertex
 10
-9514.147062479677
 20
-11480.08730361499
 30
0.0
  0
VERTEX
  5
2C962
330
2C960
100
AcDbEntity
  8
shade
100
AcDbVertex
100
AcDb2dVertex
 10
-9512.57519549382
 20
-11478.61069737946
 30
0.0
  0
VERTEX
  5
2C963
330
2C960
100
AcDbEntity
  8
shade
100
AcDbVertex
100
AcDb2dVertex
 10
-9511.955976389641
 20
-11478.65832775462
 30
0.0
  0
SEQEND
  5
2C964
330
2C960
100
AcDbEntity
  8
shade
  0
POLYLINE
  5
2C965
330
A
100
AcDbEntity
  8
shade
100
AcDb2dPolyline
 66
     1
 10
0.0
 20
0.0
 30
0.0
  0
VERTEX
  5
2C966
330
2C965
100
AcDbEntity
  8
shade
100
AcDbVertex
100
AcDb2dVertex
 10
-9511.241492497299
 20
-11478.64245096291
 30
0.0
  0
VERTEX
  5
2C967
330
2C965
100
AcDbEntity
  8
shade
100
AcDbVertex
100
AcDb2dVertex
 10
-9511.844834809755
 20
-11478.53131342086
 30
0.0
  0
VERTEX
  5
2C968
330
2C965
100
AcDbEntity
  8
shade
100
AcDbVertex
100
AcDb2dVertex
 10
-9513.115030639387
 20
-11479.99204286467
 30
0.0
  0
SEQEND
  5
2C969
330
2C965
100
AcDbEntity
  8
shade
  0
POLYLINE
  5
2C96A
330
A
100
AcDbEntity
  8
shade
100
AcDb2dPolyline
 66
     1
 10
0.0
 20
0.0
 30
0.0
  0
VERTEX
  5
2C96B
330
2C96A
100
AcDbEntity
  8
shade
100
AcDbVertex
100
AcDb2dVertex
 10
-9511.892465184917
 20
-11479.7697516292
 30
0.0
  0
VERTEX
  5
2C96C
330
2C96A
100
AcDbEntity
  8
shade
100
AcDbVertex
100
AcDb2dVertex
 10
-9511.146227709131
 20
-11478.49955983741
 30
0.0
  0
VERTEX
  5
2C96D
330
2C96A
100
AcDbEntity
  8
shade
100
AcDbVertex
100
AcDb2dVertex
 10
-9510.939821341073
 20
-11478.48368304569
 30
0.0
  0
VERTEX
  5
2C96E
330
2C96A
100
AcDbEntity
  8
shade
100
AcDbVertex
100
AcDb2dVertex
 10
-9510.352355820339
 20
-11478.59482058774
 30
0.0
  0
SEQEND
  5
2C96F
330
2C96A
100
AcDbEntity
  8
shade
  0
POLYLINE
  5
2C970
330
A
100
AcDbEntity
  8
shade
100
AcDb2dPolyline
 66
     1
 10
0.0
 20
0.0
 30
0.0
  0
VERTEX
  5
2C971
330
2C970
100
AcDbEntity
  8
shade
100
AcDbVertex
100
AcDb2dVertex
 10
-9510.717534143452
 20
-11479.81738200437
 30
0.0
  0
VERTEX
  5
2C972
330
2C970
100
AcDbEntity
  8
shade
100
AcDbVertex
100
AcDb2dVertex
 10
-9510.352355820339
 20
-11478.54719021258
 30
0.0
  0
VERTEX
  5
2C973
330
2C970
100
AcDbEntity
  8
shade
100
AcDbVertex
100
AcDb2dVertex
 10
-9510.209456619168
 20
-11478.59482058774
 30
0.0
  0
VERTEX
  5
2C974
330
2C970
100
AcDbEntity
  8
shade
100
AcDbVertex
100
AcDb2dVertex
 10
-9509.749013507889
 20
-11479.07114049074
 30
0.0
  0
SEQEND
  5
2C975
330
2C970
100
AcDbEntity
  8
shade
  0
SPLINE
  5
2C976
330
A
100
AcDbEntity
  8
shade
100
AcDbSpline
210
0.0
220
0.0
230
1.0
 70
     8
 71
     3
 72
    74
 73
    70
 74
     0
 42
0.000000001
 43
0.0000000001
 40
0.0
 40
0.0
 40
0.0
 40
0.0
 40
1.0
 40
1.0
 40
1.0
 40
2.0
 40
2.0
 40
2.0
 40
3.0
 40
3.0
 40
3.0
 40
4.0
 40
4.0
 40
4.0
 40
5.0
 40
5.0
 40
5.0
 40
6.0
 40
6.0
 40
6.0
 40
7.0
 40
7.0
 40
7.0
 40
8.0
 40
8.0
 40
8.0
 40
9.0
 40
9.0
 40
9.0
 40
10.0
 40
10.0
 40
10.0
 40
11.0
 40
11.0
 40
11.0
 40
12.0
 40
12.0
 40
12.0
 40
13.0
 40
13.0
 40
13.0
 40
14.0
 40
14.0
 40
14.0
 40
15.0
 40
15.0
 40
15.0
 40
16.0
 40
16.0
 40
16.0
 40
17.0
 40
17.0
 40
17.0
 40
18.0
 40
18.0
 40
18.0
 40
19.0
 40
19.0
 40
19.0
 40
20.0
 40
20.0
 40
20.0
 40
21.0
 40
21.0
 40
21.0
 40
22.0
 40
22.0
 40
22.0
 40
23.0
 40
23.0
 40
23.0
 40
23.0
 10
-9509.749013507889
 20
-11482.70707115718
 30
0.0
 10
-9509.749013507889
 20
-11482.70707115718
 30
0.0
 10
-9510.717534143452
 20
-11479.81738200437
 30
0.0
 10
-9510.717534143452
 20
-11479.81738200437
 30
0.0
 10
-9510.717534143452
 20
-11479.81738200437
 30
0.0
 10
-9511.701935608581
 20
-11482.62768719858
 30
0.0
 10
-9511.701935608581
 20
-11482.62768719858
 30
0.0
 10
-9511.701935608581
 20
-11482.62768719858
 30
0.0
 10
-9511.892465184917
 20
-11479.7697516292
 30
0.0
 10
-9511.892465184917
 20
-11479.7697516292
 30
0.0
 10
-9511.892465184917
 20
-11479.7697516292
 30
0.0
 10
-9513.353190590885
 20
-11482.84997843404
 30
0.0
 10
-9513.353190590885
 20
-11482.84997843404
 30
0.0
 10
-9513.353190590885
 20
-11482.84997843404
 30
0.0
 10
-9513.115030639387
 20
-11479.99204286467
 30
0.0
 10
-9513.115030639387
 20
-11479.99204286467
 30
0.0
 10
-9513.115030639387
 20
-11479.99204286467
 30
0.0
 10
-9514.766281583851
 20
-11482.88173201748
 30
0.0
 10
-9514.766281583851
 20
-11482.88173201748
 30
0.0
 10
-9514.766281583851
 20
-11482.88173201748
 30
0.0
 10
-9514.147062479677
 20
-11480.08730361499
 30
0.0
 10
-9514.147062479677
 20
-11480.08730361499
 30
0.0
 10
-9514.147062479677
 20
-11480.08730361499
 30
0.0
 10
-9516.115865409931
 20
-11483.05637672641
 30
0.0
 10
-9516.115865409931
 20
-11483.05637672641
 30
0.0
 10
-9516.115865409931
 20
-11483.05637672641
 30
0.0
 10
-9515.210851941251
 20
-11480.26194832393
 30
0.0
 10
-9515.210851941251
 20
-11480.26194832393
 30
0.0
 10
-9515.210851941251
 20
-11480.26194832393
 30
0.0
 10
-9517.401938031284
 20
-11483.2945447536
 30
0.0
 10
-9517.401938031284
 20
-11483.2945447536
 30
0.0
 10
-9517.401938031284
 20
-11483.2945447536
 30
0.0
 10
-9516.004723830041
 20
-11480.37310201734
 30
0.0
 10
-9516.004723830041
 20
-11480.37310201734
 30
0.0
 10
-9516.004723830041
 20
-11480.37310201734
 30
0.0
 10
-9518.322828291685
 20
-11483.48506625425
 30
0.0
 10
-9518.322828291685
 20
-11483.48506625425
 30
0.0
 10
-9518.322828291685
 20
-11483.48506625425
 30
0.0
 10
-9516.862102885717
 20
-11480.563623518
 30
0.0
 10
-9516.862102885717
 20
-11480.563623518
 30
0.0
 10
-9516.862102885717
 20
-11480.563623518
 30
0.0
 10
-9519.354862150898
 20
-11483.65972711455
 30
0.0
 10
-9519.354862150898
 20
-11483.65972711455
 30
0.0
 10
-9519.354862150898
 20
-11483.65972711455
 30
0.0
 10
-9517.687730376868
 20
-11480.83354512862
 30
0.0
 10
-9517.687730376868
 20
-11480.83354512862
 30
0.0
 10
-9517.687730376868
 20
-11480.83354512862
 30
0.0
 10
-9520.212243225492
 20
-11483.86612540693
 30
0.0
 10
-9520.212243225492
 20
-11483.86612540693
 30
0.0
 10
-9520.212243225492
 20
-11483.86612540693
 30
0.0
 10
-9518.259319105879
 20
-11481.1193273796
 30
0.0
 10
-9518.259319105879
 20
-11481.1193273796
 30
0.0
 10
-9518.259319105879
 20
-11481.1193273796
 30
0.0
 10
-9520.847341140308
 20
-11483.97727910034
 30
0.0
 10
-9520.847341140308
 20
-11483.97727910034
 30
0.0
 10
-9520.847341140308
 20
-11483.97727910034
 30
0.0
 10
-9518.259319105879
 20
-11481.1193273796
 30
0.0
 10
-9518.259319105879
 20
-11481.1193273796
 30
0.0
 10
-9518.259319105879
 20
-11481.1193273796
 30
0.0
 10
-9521.355418664596
 20
-11484.2471845596
 30
0.0
 10
-9521.355418664596
 20
-11484.2471845596
 30
0.0
 10
-9521.355418664596
 20
-11484.2471845596
 30
0.0
 10
-9518.926170604137
 20
-11481.38924899023
 30
0.0
 10
-9518.926170604137
 20
-11481.38924899023
 30
0.0
 10
-9518.926170604137
 20
-11481.38924899023
 30
0.0
 10
-9521.688845423183
 20
-11484.56473654539
 30
0.0
 10
-9521.688845423183
 20
-11484.56473654539
 30
0.0
 10
-9521.688845423183
 20
-11484.56473654539
 30
0.0
 10
-9519.180209366281
 20
-11481.38924899023
 30
0.0
 10
-9519.180209366281
 20
-11481.38924899023
 30
0.0
  0
POLYLINE
  5
2C977
330
A
100
AcDbEntity
  8
shade
100
AcDb2dPolyline
 66
     1
 10
0.0
 20
0.0
 30
0.0
  0
VERTEX
  5
2C978
330
2C977
100
AcDbEntity
  8
shade
100
AcDbVertex
100
AcDb2dVertex
 10
-9523.879931513217
 20
-11488.64523353139
 30
0.0
  0
VERTEX
  5
2C979
330
2C977
100
AcDbEntity
  8
shade
100
AcDbVertex
100
AcDb2dVertex
 10
-9522.212801758112
 20
-11484.91404211462
 30
0.0
  0
VERTEX
  5
2C97A
330
2C977
100
AcDbEntity
  8
shade
100
AcDbVertex
100
AcDb2dVertex
 10
-9519.180209366281
 20
-11481.38924899023
 30
0.0
  0
SEQEND
  5
2C97B
330
2C977
100
AcDbEntity
  8
shade
  0
POLYLINE
  5
2C97C
330
A
100
AcDbEntity
  8
shade
100
AcDb2dPolyline
 66
     1
 10
0.0
 20
0.0
 30
0.0
  0
VERTEX
  5
2C97D
330
2C97C
100
AcDbEntity
  8
shade
100
AcDbVertex
100
AcDb2dVertex
 10
-9523.594137148711
 20
-11488.43883523901
 30
0.0
  0
VERTEX
  5
2C97E
330
2C97C
100
AcDbEntity
  8
shade
100
AcDbVertex
100
AcDb2dVertex
 10
-9521.688845423183
 20
-11484.56473654539
 30
0.0
  0
SEQEND
  5
2C97F
330
2C97C
100
AcDbEntity
  8
shade
  0
POLYLINE
  5
2C980
330
A
100
AcDbEntity
  8
shade
100
AcDb2dPolyline
 66
     1
 10
0.0
 20
0.0
 30
0.0
  0
VERTEX
  5
2C981
330
2C980
100
AcDbEntity
  8
shade
100
AcDbVertex
100
AcDb2dVertex
 10
-9523.133692018511
 20
-11488.20066721183
 30
0.0
  0
VERTEX
  5
2C982
330
2C980
100
AcDbEntity
  8
shade
100
AcDbVertex
100
AcDb2dVertex
 10
-9521.355418664596
 20
-11484.2471845596
 30
0.0
  0
SEQEND
  5
2C983
330
2C980
100
AcDbEntity
  8
shade
  0
POLYLINE
  5
2C984
330
A
100
AcDbEntity
  8
shade
100
AcDb2dPolyline
 66
     1
 10
0.0
 20
0.0
 30
0.0
  0
VERTEX
  5
2C985
330
2C984
100
AcDbEntity
  8
shade
100
AcDbVertex
100
AcDb2dVertex
 10
-9522.435084917891
 20
-11487.86723843432
 30
0.0
  0
VERTEX
  5
2C986
330
2C984
100
AcDbEntity
  8
shade
100
AcDbVertex
100
AcDb2dVertex
 10
-9520.847341140308
 20
-11483.97727910034
 30
0.0
  0
SEQEND
  5
2C987
330
2C984
100
AcDbEntity
  8
shade
  0
POLYLINE
  5
2C988
330
A
100
AcDbEntity
  8
shade
100
AcDb2dPolyline
 66
     1
 10
0.0
 20
0.0
 30
0.0
  0
VERTEX
  5
2C989
330
2C988
100
AcDbEntity
  8
shade
100
AcDbVertex
100
AcDb2dVertex
 10
-9521.688845423183
 20
-11487.78785447571
 30
0.0
  0
VERTEX
  5
2C98A
330
2C988
100
AcDbEntity
  8
shade
100
AcDbVertex
100
AcDb2dVertex
 10
-9520.212243225492
 20
-11483.86612540693
 30
0.0
  0
SEQEND
  5
2C98B
330
2C988
100
AcDbEntity
  8
shade
  0
POLYLINE
  5
2C98C
330
A
100
AcDbEntity
  8
shade
100
AcDb2dPolyline
 66
     1
 10
0.0
 20
0.0
 30
0.0
  0
VERTEX
  5
2C98D
330
2C98C
100
AcDbEntity
  8
shade
100
AcDbVertex
100
AcDb2dVertex
 10
-9520.672690374615
 20
-11487.50207222473
 30
0.0
  0
VERTEX
  5
2C98E
330
2C98C
100
AcDbEntity
  8
shade
100
AcDbVertex
100
AcDb2dVertex
 10
-9519.354862150898
 20
-11483.65972711455
 30
0.0
  0
SEQEND
  5
2C98F
330
2C98C
100
AcDbEntity
  8
shade
  0
POLYLINE
  5
2C990
330
A
100
AcDbEntity
  8
shade
100
AcDb2dPolyline
 66
     1
 10
0.0
 20
0.0
 30
0.0
  0
VERTEX
  5
2C991
330
2C990
100
AcDbEntity
  8
shade
100
AcDbVertex
100
AcDb2dVertex
 10
-9519.672410098845
 20
-11487.26390419755
 30
0.0
  0
VERTEX
  5
2C992
330
2C990
100
AcDbEntity
  8
shade
100
AcDbVertex
100
AcDb2dVertex
 10
-9518.322828291685
 20
-11483.48506625425
 30
0.0
  0
SEQEND
  5
2C993
330
2C990
100
AcDbEntity
  8
shade
  0
POLYLINE
  5
2C994
330
A
100
AcDbEntity
  8
shade
100
AcDb2dPolyline
 66
     1
 10
0.0
 20
0.0
 30
0.0
  0
VERTEX
  5
2C995
330
2C994
100
AcDbEntity
  8
shade
100
AcDbVertex
100
AcDb2dVertex
 10
-9518.465725473937
 20
-11486.94635221176
 30
0.0
  0
VERTEX
  5
2C996
330
2C994
100
AcDbEntity
  8
shade
100
AcDbVertex
100
AcDb2dVertex
 10
-9517.401938031284
 20
-11483.2945447536
 30
0.0
  0
SEQEND
  5
2C997
330
2C994
100
AcDbEntity
  8
shade
  0
POLYLINE
  5
2C998
330
A
100
AcDbEntity
  8
shade
100
AcDb2dPolyline
 66
     1
 10
0.0
 20
0.0
 30
0.0
  0
VERTEX
  5
2C999
330
2C998
100
AcDbEntity
  8
shade
100
AcDbVertex
100
AcDb2dVertex
 10
-9517.132020458502
 20
-11486.99398258692
 30
0.0
  0
VERTEX
  5
2C99A
330
2C998
100
AcDbEntity
  8
shade
100
AcDbVertex
100
AcDb2dVertex
 10
-9516.115865409931
 20
-11483.05637672641
 30
0.0
  0
SEQEND
  5
2C99B
330
2C998
100
AcDbEntity
  8
shade
  0
POLYLINE
  5
2C99C
330
A
100
AcDbEntity
  8
shade
100
AcDb2dPolyline
 66
     1
 10
0.0
 20
0.0
 30
0.0
  0
VERTEX
  5
2C99D
330
2C99C
100
AcDbEntity
  8
shade
100
AcDbVertex
100
AcDb2dVertex
 10
-9515.496646305756
 20
-11486.70820033594
 30
0.0
  0
VERTEX
  5
2C99E
330
2C99C
100
AcDbEntity
  8
shade
100
AcDbVertex
100
AcDb2dVertex
 10
-9514.766281583851
 20
-11482.88173201748
 30
0.0
  0
SEQEND
  5
2C99F
330
2C99C
100
AcDbEntity
  8
shade
  0
POLYLINE
  5
2C9A0
330
A
100
AcDbEntity
  8
shade
100
AcDb2dPolyline
 66
     1
 10
0.0
 20
0.0
 30
0.0
  0
VERTEX
  5
2C9A1
330
2C9A0
100
AcDbEntity
  8
shade
100
AcDbVertex
100
AcDb2dVertex
 10
-9513.718372951839
 20
-11486.64467701769
 30
0.0
  0
VERTEX
  5
2C9A2
330
2C9A0
100
AcDbEntity
  8
shade
100
AcDbVertex
100
AcDb2dVertex
 10
-9513.353190590885
 20
-11482.84997843404
 30
0.0
  0
SEQEND
  5
2C9A3
330
2C9A0
100
AcDbEntity
  8
shade
  0
POLYLINE
  5
2C9A4
330
A
100
AcDbEntity
  8
shade
100
AcDb2dPolyline
 66
     1
 10
0.0
 20
0.0
 30
0.0
  0
VERTEX
  5
2C9A5
330
2C9A4
100
AcDbEntity
  8
shade
100
AcDbVertex
100
AcDb2dVertex
 10
-9511.781323605026
 20
-11486.5017858922
 30
0.0
  0
VERTEX
  5
2C9A6
330
2C9A4
100
AcDbEntity
  8
shade
100
AcDbVertex
100
AcDb2dVertex
 10
-9511.701935608581
 20
-11482.62768719858
 30
0.0
  0
SEQEND
  5
2C9A7
330
2C9A4
100
AcDbEntity
  8
shade
  0
POLYLINE
  5
2C9A8
330
A
100
AcDbEntity
  8
shade
100
AcDb2dPolyline
 66
     1
 10
0.0
 20
0.0
 30
0.0
  0
VERTEX
  5
2C9A9
330
2C9A8
100
AcDbEntity
  8
shade
100
AcDbVertex
100
AcDb2dVertex
 10
-9509.749013507889
 20
-11487.21627382239
 30
0.0
  0
VERTEX
  5
2C9AA
330
2C9A8
100
AcDbEntity
  8
shade
100
AcDbVertex
100
AcDb2dVertex
 10
-9509.749013507889
 20
-11482.70707115718
 30
0.0
  0
SEQEND
  5
2C9AB
330
2C9A8
100
AcDbEntity
  8
shade
  0
POLYLINE
  5
2C9AC
330
A
100
AcDbEntity
  8
shade
100
AcDb2dPolyline
 66
     1
 10
0.0
 20
0.0
 30
0.0
  0
VERTEX
  5
2C9AD
330
2C9AC
100
AcDbEntity
  8
shade
100
AcDbVertex
100
AcDb2dVertex
 10
-9511.003328507957
 20
-11491.42378514215
 30
0.0
  0
VERTEX
  5
2C9AE
330
2C9AC
100
AcDbEntity
  8
shade
100
AcDbVertex
100
AcDb2dVertex
 10
-9509.749013507889
 20
-11486.45415551704
 30
0.0
  0
SEQEND
  5
2C9AF
330
2C9AC
100
AcDbEntity
  8
shade
  0
POLYLINE
  5
2C9B0
330
A
100
AcDbEntity
  8
shade
100
AcDb2dPolyline
 66
     1
 10
0.0
 20
0.0
 30
0.0
  0
VERTEX
  5
2C9B1
330
2C9B0
100
AcDbEntity
  8
shade
100
AcDbVertex
100
AcDb2dVertex
 10
-9511.003328507957
 20
-11491.42378514215
 30
0.0
  0
VERTEX
  5
2C9B2
330
2C9B0
100
AcDbEntity
  8
shade
100
AcDbVertex
100
AcDb2dVertex
 10
-9511.781323605026
 20
-11486.5017858922
 30
0.0
  0
VERTEX
  5
2C9B3
330
2C9B0
100
AcDbEntity
  8
shade
100
AcDbVertex
100
AcDb2dVertex
 10
-9512.892743441765
 20
-11491.40790835043
 30
0.0
  0
VERTEX
  5
2C9B4
330
2C9B0
100
AcDbEntity
  8
shade
100
AcDbVertex
100
AcDb2dVertex
 10
-9513.718372951839
 20
-11486.64467701769
 30
0.0
  0
VERTEX
  5
2C9B5
330
2C9B0
100
AcDbEntity
  8
shade
100
AcDbVertex
100
AcDb2dVertex
 10
-9514.702774416965
 20
-11491.59844600245
 30
0.0
  0
VERTEX
  5
2C9B6
330
2C9B0
100
AcDbEntity
  8
shade
100
AcDbVertex
100
AcDb2dVertex
 10
-9515.496646305756
 20
-11486.70820033594
 30
0.0
  0
VERTEX
  5
2C9B7
330
2C9B0
100
AcDbEntity
  8
shade
100
AcDbVertex
100
AcDb2dVertex
 10
-9516.385782982716
 20
-11491.93187477996
 30
0.0
  0
VERTEX
  5
2C9B8
330
2C9B0
100
AcDbEntity
  8
shade
100
AcDbVertex
100
AcDb2dVertex
 10
-9517.132020458502
 20
-11486.99398258692
 30
0.0
  0
VERTEX
  5
2C9B9
330
2C9B0
100
AcDbEntity
  8
shade
100
AcDbVertex
100
AcDb2dVertex
 10
-9517.89413876385
 20
-11491.8842444048
 30
0.0
  0
VERTEX
  5
2C9BA
330
2C9B0
100
AcDbEntity
  8
shade
100
AcDbVertex
100
AcDb2dVertex
 10
-9518.465725473937
 20
-11486.94635221176
 30
0.0
  0
VERTEX
  5
2C9BB
330
2C9B0
100
AcDbEntity
  8
shade
100
AcDbVertex
100
AcDb2dVertex
 10
-9519.211964968645
 20
-11491.97950515512
 30
0.0
  0
VERTEX
  5
2C9BC
330
2C9B0
100
AcDbEntity
  8
shade
100
AcDbVertex
100
AcDb2dVertex
 10
-9519.672410098845
 20
-11487.26390419755
 30
0.0
  0
VERTEX
  5
2C9BD
330
2C9B0
100
AcDbEntity
  8
shade
100
AcDbVertex
100
AcDb2dVertex
 10
-9520.275754430219
 20
-11492.01125873857
 30
0.0
  0
VERTEX
  5
2C9BE
330
2C9B0
100
AcDbEntity
  8
shade
100
AcDbVertex
100
AcDb2dVertex
 10
-9520.672690374615
 20
-11487.50207222473
 30
0.0
  0
VERTEX
  5
2C9BF
330
2C9B0
100
AcDbEntity
  8
shade
100
AcDbVertex
100
AcDb2dVertex
 10
-9521.228400292983
 20
-11492.20178023922
 30
0.0
  0
VERTEX
  5
2C9C0
330
2C9B0
100
AcDbEntity
  8
shade
100
AcDbVertex
100
AcDb2dVertex
 10
-9521.688845423183
 20
-11487.78785447571
 30
0.0
  0
VERTEX
  5
2C9C1
330
2C9B0
100
AcDbEntity
  8
shade
100
AcDbVertex
100
AcDb2dVertex
 10
-9522.165169364026
 20
-11492.34468751608
 30
0.0
  0
VERTEX
  5
2C9C2
330
2C9B0
100
AcDbEntity
  8
shade
100
AcDbVertex
100
AcDb2dVertex
 10
-9522.435084917891
 20
-11487.86723843432
 30
0.0
  0
VERTEX
  5
2C9C3
330
2C9B0
100
AcDbEntity
  8
shade
100
AcDbVertex
100
AcDb2dVertex
 10
-9522.911408858732
 20
-11492.45582505813
 30
0.0
  0
VERTEX
  5
2C9C4
330
2C9B0
100
AcDbEntity
  8
shade
100
AcDbVertex
100
AcDb2dVertex
 10
-9523.133692018511
 20
-11488.20066721183
 30
0.0
  0
VERTEX
  5
2C9C5
330
2C9B0
100
AcDbEntity
  8
shade
100
AcDbVertex
100
AcDb2dVertex
 10
-9523.482995568823
 20
-11492.53520901673
 30
0.0
  0
VERTEX
  5
2C9C6
330
2C9B0
100
AcDbEntity
  8
shade
100
AcDbVertex
100
AcDb2dVertex
 10
-9523.594137148711
 20
-11488.43883523901
 30
0.0
  0
VERTEX
  5
2C9C7
330
2C9B0
100
AcDbEntity
  8
shade
100
AcDbVertex
100
AcDb2dVertex
 10
-9523.816422327412
 20
-11492.97977533629
 30
0.0
  0
VERTEX
  5
2C9C8
330
2C9B0
100
AcDbEntity
  8
shade
100
AcDbVertex
100
AcDb2dVertex
 10
-9523.879931513217
 20
-11488.64523353139
 30
0.0
  0
VERTEX
  5
2C9C9
330
2C9B0
100
AcDbEntity
  8
shade
100
AcDbVertex
100
AcDb2dVertex
 10
-9523.991073093105
 20
-11493.07505223799
 30
0.0
  0
SEQEND
  5
2C9CA
330
2C9B0
100
AcDbEntity
  8
shade
  0
POLYLINE
  5
2C9CB
330
A
100
AcDbEntity
  8
shade
100
AcDb2dPolyline
 66
     1
 10
0.0
 20
0.0
 30
0.0
  0
VERTEX
  5
2C9CC
330
2C9CB
100
AcDbEntity
  8
shade
100
AcDbVertex
100
AcDb2dVertex
 10
-9522.546226497778
 20
-11496.28229337659
 30
0.0
  0
VERTEX
  5
2C9CD
330
2C9CB
100
AcDbEntity
  8
shade
100
AcDbVertex
100
AcDb2dVertex
 10
-9523.991073093105
 20
-11493.07505223799
 30
0.0
  0
SEQEND
  5
2C9CE
330
2C9CB
100
AcDbEntity
  8
shade
  0
POLYLINE
  5
2C9CF
330
A
100
AcDbEntity
  8
shade
100
AcDb2dPolyline
 66
     1
 10
0.0
 20
0.0
 30
0.0
  0
VERTEX
  5
2C9D0
330
2C9CF
100
AcDbEntity
  8
shade
100
AcDbVertex
100
AcDb2dVertex
 10
-9522.292187735637
 20
-11496.32992375175
 30
0.0
  0
VERTEX
  5
2C9D1
330
2C9CF
100
AcDbEntity
  8
shade
100
AcDbVertex
100
AcDb2dVertex
 10
-9523.816422327412
 20
-11492.97977533629
 30
0.0
  0
SEQEND
  5
2C9D2
330
2C9CF
100
AcDbEntity
  8
shade
  0
POLYLINE
  5
2C9D3
330
A
100
AcDbEntity
  8
shade
100
AcDb2dPolyline
 66
     1
 10
0.0
 20
0.0
 30
0.0
  0
VERTEX
  5
2C9D4
330
2C9D3
100
AcDbEntity
  8
shade
100
AcDbVertex
100
AcDb2dVertex
 10
-9521.927007393605
 20
-11496.32992375175
 30
0.0
  0
VERTEX
  5
2C9D5
330
2C9D3
100
AcDbEntity
  8
shade
100
AcDbVertex
100
AcDb2dVertex
 10
-9523.482995568823
 20
-11492.53520901673
 30
0.0
  0
SEQEND
  5
2C9D6
330
2C9D3
100
AcDbEntity
  8
shade
  0
POLYLINE
  5
2C9D7
330
A
100
AcDbEntity
  8
shade
100
AcDb2dPolyline
 66
     1
 10
0.0
 20
0.0
 30
0.0
  0
VERTEX
  5
2C9D8
330
2C9D7
100
AcDbEntity
  8
shade
100
AcDbVertex
100
AcDb2dVertex
 10
-9521.371297475237
 20
-11496.23466300142
 30
0.0
  0
VERTEX
  5
2C9D9
330
2C9D7
100
AcDbEntity
  8
shade
100
AcDbVertex
100
AcDb2dVertex
 10
-9522.911408858732
 20
-11492.45582505813
 30
0.0
  0
SEQEND
  5
2C9DA
330
2C9D7
100
AcDbEntity
  8
shade
  0
POLYLINE
  5
2C9DB
330
A
100
AcDbEntity
  8
shade
100
AcDb2dPolyline
 66
     1
 10
0.0
 20
0.0
 30
0.0
  0
VERTEX
  5
2C9DC
330
2C9DB
100
AcDbEntity
  8
shade
100
AcDbVertex
100
AcDb2dVertex
 10
-9520.688567166336
 20
-11496.20289326662
 30
0.0
  0
VERTEX
  5
2C9DD
330
2C9DB
100
AcDbEntity
  8
shade
100
AcDbVertex
100
AcDb2dVertex
 10
-9522.165169364026
 20
-11492.34468751608
 30
0.0
  0
SEQEND
  5
2C9DE
330
2C9DB
100
AcDbEntity
  8
shade
  0
POLYLINE
  5
2C9DF
330
A
100
AcDbEntity
  8
shade
100
AcDb2dPolyline
 66
     1
 10
0.0
 20
0.0
 30
0.0
  0
VERTEX
  5
2C9E0
330
2C9DF
100
AcDbEntity
  8
shade
100
AcDbVertex
100
AcDb2dVertex
 10
-9519.989960065712
 20
-11496.06000214113
 30
0.0
  0
VERTEX
  5
2C9E1
330
2C9DF
100
AcDbEntity
  8
shade
100
AcDbVertex
100
AcDb2dVertex
 10
-9521.228400292983
 20
-11492.20178023922
 30
0.0
  0
SEQEND
  5
2C9E2
330
2C9DF
100
AcDbEntity
  8
shade
  0
POLYLINE
  5
2C9E3
330
A
100
AcDbEntity
  8
shade
100
AcDb2dPolyline
 66
     1
 10
0.0
 20
0.0
 30
0.0
  0
VERTEX
  5
2C9E4
330
2C9E3
100
AcDbEntity
  8
shade
100
AcDbVertex
100
AcDb2dVertex
 10
-9519.005558600586
 20
-11496.06000214113
 30
0.0
  0
VERTEX
  5
2C9E5
330
2C9E3
100
AcDbEntity
  8
shade
100
AcDbVertex
100
AcDb2dVertex
 10
-9520.275754430219
 20
-11492.01125873857
 30
0.0
  0
SEQEND
  5
2C9E6
330
2C9E3
100
AcDbEntity
  8
shade
  0
POLYLINE
  5
2C9E7
330
A
100
AcDbEntity
  8
shade
100
AcDb2dPolyline
 66
     1
 10
0.0
 20
0.0
 30
0.0
  0
VERTEX
  5
2C9E8
330
2C9E7
100
AcDbEntity
  8
shade
100
AcDbVertex
100
AcDb2dVertex
 10
-9518.179931109434
 20
-11495.74245015534
 30
0.0
  0
VERTEX
  5
2C9E9
330
2C9E7
100
AcDbEntity
  8
shade
100
AcDbVertex
100
AcDb2dVertex
 10
-9519.211964968645
 20
-11491.97950515512
 30
0.0
  0
SEQEND
  5
2C9EA
330
2C9E7
100
AcDbEntity
  8
shade
  0
POLYLINE
  5
2C9EB
330
A
100
AcDbEntity
  8
shade
100
AcDb2dPolyline
 66
     1
 10
0.0
 20
0.0
 30
0.0
  0
VERTEX
  5
2C9EC
330
2C9EB
100
AcDbEntity
  8
shade
100
AcDbVertex
100
AcDb2dVertex
 10
-9516.98912529517
 20
-11495.59955902984
 30
0.0
  0
VERTEX
  5
2C9ED
330
2C9EB
100
AcDbEntity
  8
shade
100
AcDbVertex
100
AcDb2dVertex
 10
-9517.89413876385
 20
-11491.8842444048
 30
0.0
  0
SEQEND
  5
2C9EE
330
2C9EB
100
AcDbEntity
  8
shade
  0
POLYLINE
  5
2C9EF
330
A
100
AcDbEntity
  8
shade
100
AcDb2dPolyline
 66
     1
 10
0.0
 20
0.0
 30
0.0
  0
VERTEX
  5
2C9F0
330
2C9EF
100
AcDbEntity
  8
shade
100
AcDbVertex
100
AcDb2dVertex
 10
-9515.623664677367
 20
-11495.5678054464
 30
0.0
  0
VERTEX
  5
2C9F1
330
2C9EF
100
AcDbEntity
  8
shade
100
AcDbVertex
100
AcDb2dVertex
 10
-9516.385782982716
 20
-11491.93187477996
 30
0.0
  0
SEQEND
  5
2C9F2
330
2C9EF
100
AcDbEntity
  8
shade
  0
POLYLINE
  5
2C9F3
330
A
100
AcDbEntity
  8
shade
100
AcDb2dPolyline
 66
     1
 10
0.0
 20
0.0
 30
0.0
  0
VERTEX
  5
2C9F4
330
2C9F3
100
AcDbEntity
  8
shade
100
AcDbVertex
100
AcDb2dVertex
 10
-9514.115308896233
 20
-11495.5678054464
 30
0.0
  0
VERTEX
  5
2C9F5
330
2C9F3
100
AcDbEntity
  8
shade
100
AcDbVertex
100
AcDb2dVertex
 10
-9514.702774416965
 20
-11491.59844600245
 30
0.0
  0
SEQEND
  5
2C9F6
330
2C9F3
100
AcDbEntity
  8
shade
  0
POLYLINE
  5
2C9F7
330
A
100
AcDbEntity
  8
shade
100
AcDb2dPolyline
 66
     1
 10
0.0
 20
0.0
 30
0.0
  0
VERTEX
  5
2C9F8
330
2C9F7
100
AcDbEntity
  8
shade
100
AcDbVertex
100
AcDb2dVertex
 10
-9512.432300330486
 20
-11495.47254469608
 30
0.0
  0
VERTEX
  5
2C9F9
330
2C9F7
100
AcDbEntity
  8
shade
100
AcDbVertex
100
AcDb2dVertex
 10
-9512.892743441765
 20
-11491.40790835043
 30
0.0
  0
SEQEND
  5
2C9FA
330
2C9F7
100
AcDbEntity
  8
shade
  0
POLYLINE
  5
2C9FB
330
A
100
AcDbEntity
  8
shade
100
AcDb2dPolyline
 66
     1
 10
0.0
 20
0.0
 30
0.0
  0
VERTEX
  5
2C9FC
330
2C9FB
100
AcDbEntity
  8
shade
100
AcDbVertex
100
AcDb2dVertex
 10
-9520.180489642051
 20
-11499.69593280757
 30
0.0
  0
VERTEX
  5
2C9FD
330
2C9FB
100
AcDbEntity
  8
shade
100
AcDbVertex
100
AcDb2dVertex
 10
-9519.878818485825
 20
-11499.61654884896
 30
0.0
  0
SEQEND
  5
2C9FE
330
2C9FB
100
AcDbEntity
  8
shade
  0
POLYLINE
  5
2C9FF
330
A
100
AcDbEntity
  8
shade
100
AcDb2dPolyline
 66
     1
 10
0.0
 20
0.0
 30
0.0
  0
VERTEX
  5
2CA00
330
2C9FF
100
AcDbEntity
  8
shade
100
AcDbVertex
100
AcDb2dVertex
 10
-9519.60890091304
 20
-11499.68005601585
 30
0.0
  0
VERTEX
  5
2CA01
330
2C9FF
100
AcDbEntity
  8
shade
100
AcDbVertex
100
AcDb2dVertex
 10
-9519.03731420295
 20
-11499.41015055659
 30
0.0
  0
SEQEND
  5
2CA02
330
2C9FF
100
AcDbEntity
  8
shade
  0
POLYLINE
  5
2CA03
330
A
100
AcDbEntity
  8
shade
100
AcDb2dPolyline
 66
     1
 10
0.0
 20
0.0
 30
0.0
  0
VERTEX
  5
2CA04
330
2CA03
100
AcDbEntity
  8
shade
100
AcDbVertex
100
AcDb2dVertex
 10
-9518.910293812417
 20
-11499.68005601585
 30
0.0
  0
VERTEX
  5
2CA05
330
2CA03
100
AcDbEntity
  8
shade
100
AcDbVertex
100
AcDb2dVertex
 10
-9518.338705083408
 20
-11499.45778093175
 30
0.0
  0
SEQEND
  5
2CA06
330
2CA03
100
AcDbEntity
  8
shade
  0
POLYLINE
  5
2CA07
330
A
100
AcDbEntity
  8
shade
100
AcDb2dPolyline
 66
     1
 10
0.0
 20
0.0
 30
0.0
  0
VERTEX
  5
2CA08
330
2CA07
100
AcDbEntity
  8
shade
100
AcDbVertex
100
AcDb2dVertex
 10
-9518.179931109434
 20
-11499.69593280757
 30
0.0
  0
VERTEX
  5
2CA09
330
2CA07
100
AcDbEntity
  8
shade
100
AcDbVertex
100
AcDb2dVertex
 10
-9517.640097982784
 20
-11499.37838082178
 30
0.0
  0
SEQEND
  5
2CA0A
330
2CA07
100
AcDbEntity
  8
shade
  0
POLYLINE
  5
2CA0B
330
A
100
AcDbEntity
  8
shade
100
AcDb2dPolyline
 66
     1
 10
0.0
 20
0.0
 30
0.0
  0
VERTEX
  5
2CA0C
330
2CA0B
100
AcDbEntity
  8
shade
100
AcDbVertex
100
AcDb2dVertex
 10
-9517.386061239564
 20
-11499.72768639101
 30
0.0
  0
VERTEX
  5
2CA0D
330
2CA0B
100
AcDbEntity
  8
shade
100
AcDbVertex
100
AcDb2dVertex
 10
-9516.78271892711
 20
-11499.37838082178
 30
0.0
  0
SEQEND
  5
2CA0E
330
2CA0B
100
AcDbEntity
  8
shade
  0
POLYLINE
  5
2CA0F
330
A
100
AcDbEntity
  8
shade
100
AcDb2dPolyline
 66
     1
 10
0.0
 20
0.0
 30
0.0
  0
VERTEX
  5
2CA10
330
2CA0F
100
AcDbEntity
  8
shade
100
AcDbVertex
100
AcDb2dVertex
 10
-9516.623942934215
 20
-11499.60067205724
 30
0.0
  0
VERTEX
  5
2CA11
330
2CA0F
100
AcDbEntity
  8
shade
100
AcDbVertex
100
AcDb2dVertex
 10
-9516.020600621763
 20
-11499.29899686317
 30
0.0
  0
SEQEND
  5
2CA12
330
2CA0F
100
AcDbEntity
  8
shade
  0
POLYLINE
  5
2CA13
330
A
100
AcDbEntity
  8
shade
100
AcDb2dPolyline
 66
     1
 10
0.0
 20
0.0
 30
0.0
  0
VERTEX
  5
2CA14
330
2CA13
100
AcDbEntity
  8
shade
100
AcDbVertex
100
AcDb2dVertex
 10
-9515.798317461984
 20
-11499.66417922413
 30
0.0
  0
VERTEX
  5
2CA15
330
2CA13
100
AcDbEntity
  8
shade
100
AcDbVertex
100
AcDb2dVertex
 10
-9515.067952740077
 20
-11499.10847536252
 30
0.0
  0
SEQEND
  5
2CA16
330
2CA13
100
AcDbEntity
  8
shade
  0
POLYLINE
  5
2CA17
330
A
100
AcDbEntity
  8
shade
100
AcDb2dPolyline
 66
     1
 10
0.0
 20
0.0
 30
0.0
  0
VERTEX
  5
2CA18
330
2CA17
100
AcDbEntity
  8
shade
100
AcDbVertex
100
AcDb2dVertex
 10
-9514.798039205134
 20
-11499.60067205724
 30
0.0
  0
VERTEX
  5
2CA19
330
2CA17
100
AcDbEntity
  8
shade
100
AcDbVertex
100
AcDb2dVertex
 10
-9513.893021698613
 20
-11499.01321461219
 30
0.0
  0
SEQEND
  5
2CA1A
330
2CA17
100
AcDbEntity
  8
shade
  0
POLYLINE
  5
2CA1B
330
A
100
AcDbEntity
  8
shade
100
AcDb2dPolyline
 66
     1
 10
0.0
 20
0.0
 30
0.0
  0
VERTEX
  5
2CA1C
330
2CA1B
100
AcDbEntity
  8
shade
100
AcDbVertex
100
AcDb2dVertex
 10
-9513.575473750664
 20
-11499.6483024324
 30
0.0
  0
VERTEX
  5
2CA1D
330
2CA1B
100
AcDbEntity
  8
shade
100
AcDbVertex
100
AcDb2dVertex
 10
-9512.591072285539
 20
-11498.85443054361
 30
0.0
  0
SEQEND
  5
2CA1E
330
2CA1B
100
AcDbEntity
  8
shade
  0
POLYLINE
  5
2CA1F
330
A
100
AcDbEntity
  8
shade
100
AcDb2dPolyline
 66
     1
 10
0.0
 20
0.0
 30
0.0
  0
VERTEX
  5
2CA20
330
2CA1F
100
AcDbEntity
  8
shade
100
AcDbVertex
100
AcDb2dVertex
 10
-9512.257647545869
 20
-11499.5689184738
 30
0.0
  0
VERTEX
  5
2CA21
330
2CA1F
100
AcDbEntity
  8
shade
100
AcDbVertex
100
AcDb2dVertex
 10
-9511.320880493746
 20
-11498.66390904296
 30
0.0
  0
SEQEND
  5
2CA22
330
2CA1F
100
AcDbEntity
  8
shade
  0
POLYLINE
  5
2CA23
330
A
100
AcDbEntity
  8
shade
100
AcDb2dPolyline
 66
     1
 10
0.0
 20
0.0
 30
0.0
  0
VERTEX
  5
2CA24
330
2CA23
100
AcDbEntity
  8
shade
100
AcDbVertex
100
AcDb2dVertex
 10
-9510.987451716237
 20
-11499.61654884896
 30
0.0
  0
VERTEX
  5
2CA25
330
2CA23
100
AcDbEntity
  8
shade
100
AcDbVertex
100
AcDb2dVertex
 10
-9510.082438247556
 20
-11498.6956626264
 30
0.0
  0
VERTEX
  5
2CA26
330
2CA23
100
AcDbEntity
  8
shade
100
AcDbVertex
100
AcDb2dVertex
 10
-9509.749013507889
 20
-11499.69593280757
 30
0.0
  0
SEQEND
  5
2CA27
330
2CA23
100
AcDbEntity
  8
shade
  0
SPLINE
  5
2CA28
330
A
100
AcDbEntity
  8
shade
100
AcDbSpline
210
0.0
220
0.0
230
1.0
 70
     8
 71
     3
 72
    20
 73
    16
 74
     0
 42
0.000000001
 43
0.0000000001
 40
0.0
 40
0.0
 40
0.0
 40
0.0
 40
1.0
 40
1.0
 40
1.0
 40
2.0
 40
2.0
 40
2.0
 40
3.0
 40
3.0
 40
3.0
 40
4.0
 40
4.0
 40
4.0
 40
5.0
 40
5.0
 40
5.0
 40
5.0
 10
-9519.831186091741
 20
-11499.68005601585
 30
0.0
 10
-9519.831186091741
 20
-11499.68005601585
 30
0.0
 10
-9521.927007393605
 20
-11496.32992375175
 30
0.0
 10
-9521.927007393605
 20
-11496.32992375175
 30
0.0
 10
-9521.927007393605
 20
-11496.32992375175
 30
0.0
 10
-9519.831186091741
 20
-11499.68005601585
 30
0.0
 10
-9519.831186091741
 20
-11499.68005601585
 30
0.0
 10
-9519.831186091741
 20
-11499.68005601585
 30
0.0
 10
-9522.292187735637
 20
-11496.32992375175
 30
0.0
 10
-9522.292187735637
 20
-11496.32992375175
 30
0.0
 10
-9522.292187735637
 20
-11496.32992375175
 30
0.0
 10
-9520.180489642051
 20
-11499.69593280757
 30
0.0
 10
-9520.180489642051
 20
-11499.69593280757
 30
0.0
 10
-9520.180489642051
 20
-11499.69593280757
 30
0.0
 10
-9522.546226497778
 20
-11496.28229337659
 30
0.0
 10
-9522.546226497778
 20
-11496.28229337659
 30
0.0
  0
POLYLINE
  5
2CA29
330
A
100
AcDbEntity
  8
shade
100
AcDb2dPolyline
 66
     1
 10
0.0
 20
0.0
 30
0.0
  0
VERTEX
  5
2CA2A
330
2CA29
100
AcDbEntity
  8
shade
100
AcDbVertex
100
AcDb2dVertex
 10
-9510.987451716237
 20
-11499.61654884896
 30
0.0
  0
VERTEX
  5
2CA2B
330
2CA29
100
AcDbEntity
  8
shade
100
AcDbVertex
100
AcDb2dVertex
 10
-9512.432300330486
 20
-11495.47254469608
 30
0.0
  0
VERTEX
  5
2CA2C
330
2CA29
100
AcDbEntity
  8
shade
100
AcDbVertex
100
AcDb2dVertex
 10
-9512.257647545869
 20
-11499.5689184738
 30
0.0
  0
VERTEX
  5
2CA2D
330
2CA29
100
AcDbEntity
  8
shade
100
AcDbVertex
100
AcDb2dVertex
 10
-9514.115308896233
 20
-11495.5678054464
 30
0.0
  0
VERTEX
  5
2CA2E
330
2CA29
100
AcDbEntity
  8
shade
100
AcDbVertex
100
AcDb2dVertex
 10
-9513.575473750664
 20
-11499.6483024324
 30
0.0
  0
VERTEX
  5
2CA2F
330
2CA29
100
AcDbEntity
  8
shade
100
AcDbVertex
100
AcDb2dVertex
 10
-9515.623664677367
 20
-11495.5678054464
 30
0.0
  0
VERTEX
  5
2CA30
330
2CA29
100
AcDbEntity
  8
shade
100
AcDbVertex
100
AcDb2dVertex
 10
-9514.798039205134
 20
-11499.60067205724
 30
0.0
  0
VERTEX
  5
2CA31
330
2CA29
100
AcDbEntity
  8
shade
100
AcDbVertex
100
AcDb2dVertex
 10
-9516.98912529517
 20
-11495.59955902984
 30
0.0
  0
VERTEX
  5
2CA32
330
2CA29
100
AcDbEntity
  8
shade
100
AcDbVertex
100
AcDb2dVertex
 10
-9515.798317461984
 20
-11499.66417922413
 30
0.0
  0
VERTEX
  5
2CA33
330
2CA29
100
AcDbEntity
  8
shade
100
AcDbVertex
100
AcDb2dVertex
 10
-9518.179931109434
 20
-11495.74245015534
 30
0.0
  0
VERTEX
  5
2CA34
330
2CA29
100
AcDbEntity
  8
shade
100
AcDbVertex
100
AcDb2dVertex
 10
-9516.623942934215
 20
-11499.60067205724
 30
0.0
  0
VERTEX
  5
2CA35
330
2CA29
100
AcDbEntity
  8
shade
100
AcDbVertex
100
AcDb2dVertex
 10
-9519.005558600586
 20
-11496.06000214113
 30
0.0
  0
VERTEX
  5
2CA36
330
2CA29
100
AcDbEntity
  8
shade
100
AcDbVertex
100
AcDb2dVertex
 10
-9517.386061239564
 20
-11499.72768639101
 30
0.0
  0
VERTEX
  5
2CA37
330
2CA29
100
AcDbEntity
  8
shade
100
AcDbVertex
100
AcDb2dVertex
 10
-9519.989960065712
 20
-11496.06000214113
 30
0.0
  0
VERTEX
  5
2CA38
330
2CA29
100
AcDbEntity
  8
shade
100
AcDbVertex
100
AcDb2dVertex
 10
-9518.179931109434
 20
-11499.69593280757
 30
0.0
  0
VERTEX
  5
2CA39
330
2CA29
100
AcDbEntity
  8
shade
100
AcDbVertex
100
AcDb2dVertex
 10
-9520.688567166336
 20
-11496.20289326662
 30
0.0
  0
VERTEX
  5
2CA3A
330
2CA29
100
AcDbEntity
  8
shade
100
AcDbVertex
100
AcDb2dVertex
 10
-9518.910293812417
 20
-11499.68005601585
 30
0.0
  0
VERTEX
  5
2CA3B
330
2CA29
100
AcDbEntity
  8
shade
100
AcDbVertex
100
AcDb2dVertex
 10
-9521.371297475237
 20
-11496.23466300142
 30
0.0
  0
VERTEX
  5
2CA3C
330
2CA29
100
AcDbEntity
  8
shade
100
AcDbVertex
100
AcDb2dVertex
 10
-9519.60890091304
 20
-11499.68005601585
 30
0.0
  0
SEQEND
  5
2CA3D
330
2CA29
100
AcDbEntity
  8
shade
  0
POLYLINE
  5
2CA3E
330
A
100
AcDbEntity
  8
shade
100
AcDb2dPolyline
 66
     1
 10
0.0
 20
0.0
 30
0.0
  0
VERTEX
  5
2CA3F
330
2CA3E
100
AcDbEntity
  8
shade
100
AcDbVertex
100
AcDb2dVertex
 10
-9510.622269355286
 20
-11495.34551421094
 30
0.0
  0
VERTEX
  5
2CA40
330
2CA3E
100
AcDbEntity
  8
shade
100
AcDbVertex
100
AcDb2dVertex
 10
-9509.749013507889
 20
-11499.69593280757
 30
0.0
  0
SEQEND
  5
2CA41
330
2CA3E
100
AcDbEntity
  8
shade
  0
POLYLINE
  5
2CA42
330
A
100
AcDbEntity
  8
shade
100
AcDb2dPolyline
 66
     1
 10
0.0
 20
0.0
 30
0.0
  0
VERTEX
  5
2CA43
330
2CA42
100
AcDbEntity
  8
shade
100
AcDbVertex
100
AcDb2dVertex
 10
-9511.003328507957
 20
-11491.42378514215
 30
0.0
  0
VERTEX
  5
2CA44
330
2CA42
100
AcDbEntity
  8
shade
100
AcDbVertex
100
AcDb2dVertex
 10
-9510.622269355286
 20
-11495.34551421094
 30
0.0
  0
VERTEX
  5
2CA45
330
2CA42
100
AcDbEntity
  8
shade
100
AcDbVertex
100
AcDb2dVertex
 10
-9510.987451716237
 20
-11499.61654884896
 30
0.0
  0
SEQEND
  5
2CA46
330
2CA42
100
AcDbEntity
  8
shade
  0
LWPOLYLINE
  5
2CA47
330
A
100
AcDbEntity
  8
shade
100
AcDbPolyline
 90
        4
 70
     0
 43
0.0
 10
-9509.738672065877
 20
-11449.09454636873
 10
-9513.005672065879
 20
-11449.09454636873
 42
0.2170472759960571
 10
-9510.029072065879
 20
-11455.62854636873
 10
-9509.738672065877
 20
-11455.62854636873
  0
LWPOLYLINE
  5
2CA48
330
A
100
AcDbEntity
  8
shade
100
AcDbPolyline
 90
        4
 70
     0
 43
0.0
 10
-9509.738672065877
 20
-11449.09454636873
 10
-9506.471672065879
 20
-11449.09454636873
 42
-0.2170472759960571
 10
-9509.448272065878
 20
-11455.62854636873
 10
-9509.738672065877
 20
-11455.62854636873
  0
VIEWPORT
  5
7AF4
330
B
100
AcDbEntity
 67
     1
  8
0
370
     0
100
AcDbViewport
 10
128.5
 20
97.5
 30
0.0
 40
314.226
 41
222.18
 68
     1
 69
     1
 12
128.5
 22
97.5
 13
0.0
 23
0.0
 14
10.0
 24
10.0
 15
10.0
 25
10.0
 16
0.0
 26
0.0
 36
1.0
 17
0.0
 27
0.0
 37
0.0
 42
50.0
 43
0.0
 44
0.0
 45
222.18
 50
0.0
 51
0.0
 72
   100
 90
   557152
  1

281
     0
 71
     1
 74
     0
110
0.0
120
0.0
130
0.0
111
1.0
121
0.0
131
0.0
112
0.0
122
1.0
132
0.0
 79
     0
146
0.0
170
     0
 61
     5
348
16E
292
     1
282
     1
141
0.0
142
0.0
 63
   250
421
  3355443
361
7AF5
  0
VIEWPORT
  5
7AF6
330
B
100
AcDbEntity
 67
     1
  8
shade
370
     0
100
AcDbViewport
 10
128.5
 20
97.5
 30
0.0
 40
205.6
 41
156.0
 68
     2
 69
     2
 12
-3053.898918492886
 22
262.0013435347981
 13
0.0
 23
0.0
 14
1.0
 24
1.0
 15
0.0
 25
0.0
 16
0.0
 26
0.0
 36
1.0
 17
0.0
 27
0.0
 37
-112.9712864381978
 42
50.0
 43
0.0
 44
0.0
 45
6373.138014223217
 50
0.0
 51
0.0
 72
   100
 90
   819248
  1

281
     0
 71
     0
 74
     0
110
0.0
120
0.0
130
0.0
111
1.0
121
0.0
131
0.0
112
0.0
122
1.0
132
0.0
 79
     1
146
0.0
170
     0
 61
     5
348
16E
292
     1
282
     1
141
0.0
142
0.0
 63
   250
421
  3355443
361
7AF7
  0
ENDSEC
  0
SECTION
  2
OBJECTS
  0
DICTIONARY
  5
19
330
0
100
AcDbDictionary
281
     1
  3
ACAD_BACKGROUND
350
B4BB
  3
ACAD_CIP_PREVIOUS_PRODUCT_INFO
350
1DC58
  3
ACAD_COLOR
350
5AA
  3
ACAD_DETAILVIEWSTYLE
350
1D6
  3
ACAD_GROUP
350
1A
  3
ACAD_IMAGE_VARS
350
7535
  3
ACAD_LAYOUT
350
1E
  3
ACAD_MATERIAL
350
1A4
  3
ACAD_MLEADERSTYLE
350
1AA
  3
ACAD_MLINESTYLE
350
1B
  3
ACAD_PLOTSETTINGS
350
22
  3
ACAD_PLOTSTYLENAME
350
1F
  3
ACAD_SCALELIST
350
182
  3
ACAD_SECTIONVIEWSTYLE
350
1D7
  3
ACAD_TABLESTYLE
350
1A8
  3
ACAD_VISUALSTYLE
350
169
  3
ACAD_WIPEOUT_VARS
350
23
  3
AcadDim
350
8F8F
  3
ACDB_RECOMPOSE_DATA
350
2CA80
  3
AcDbVariableDictionary
350
1D1
  3
AcDsDecomposeData
350
2CA87
  0
DICTIONARY
  5
1DC63
330
15
100
AcDbDictionary
280
     1
281
     1
  3
ADSK_XREC_BACKGROUND_INFO
360
1DC64
  0
SUN
  5
1AD
330
15
100
AcDbSun
 90
        1
290
     0
 63
     7
421
 16777215
 40
1.0
291
     1
 91
  2455826
 92
 54000000
292
     0
 70
     0
 71
   256
280
     1
1001
ACAD
1000
AcDbSavedByObjectVersion
1070
     0
  0
DICTIONARY
  5
1325
330
2
100
AcDbDictionary
280
     1
281
     1
  3
ACAD_LAYERSTATES
360
1326
  0
SUN
  5
7AF5
330
7AF4
100
AcDbSun
 90
        1
290
     0
 63
     7
421
 16777215
 40
1.0
291
     1
 91
  2455826
 92
 54000000
292
     0
 70
     0
 71
   256
280
     1
1001
ACAD
1000
AcDbSavedByObjectVersion
1070
     0
  0
SUN
  5
7AF7
330
7AF6
100
AcDbSun
 90
        1
290
     0
 63
     7
421
 16777215
 40
1.0
291
     1
 91
  2455826
 92
 54000000
292
     0
 70
     0
 71
   256
280
     1
1001
ACAD
1000
AcDbSavedByObjectVersion
1070
     0
  0
DICTIONARY
  5
B4BB
102
{ACAD_REACTORS
330
19
102
}
330
19
100
AcDbDictionary
281
     1
  3
1DC62
350
1DC62
  3
B4BC
350
B4BC
  0
XRECORD
  5
1DC58
102
{ACAD_REACTORS
330
19
102
}
330
19
100
AcDbXrecord
280
     1
300
ACDLT
300
2015
300
ACDLT_F_S
  0
DICTIONARY
  5
5AA
102
{ACAD_REACTORS
330
19
102
}
330
19
100
AcDbDictionary
281
     1
  0
DICTIONARY
  5
1D6
102
{ACAD_REACTORS
330
19
102
}
330
19
100
AcDbDictionary
281
     1
  3
Metric50
350
1DC4F
  0
DICTIONARY
  5
1A
102
{ACAD_REACTORS
330
19
102
}
330
19
100
AcDbDictionary
281
     1
  0
RASTERVARIABLES
  5
7535
102
{ACAD_REACTORS
330
19
102
}
330
19
100
AcDbRasterVariables
 90
        0
 70
     1
 71
     1
 72
     0
  0
DICTIONARY
  5
1E
102
{ACAD_REACTORS
330
19
102
}
330
19
100
AcDbDictionary
281
     1
  3
Layout1
350
21
  3
Model
350
20
  0
DICTIONARY
  5
1A4
102
{ACAD_REACTORS
330
19
102
}
330
19
100
AcDbDictionary
281
     1
  3
ByBlock
350
1A6
  3
ByLayer
350
1A5
  3
Global
350
1A7
  0
DICTIONARY
  5
1AA
102
{ACAD_REACTORS
330
19
102
}
330
19
100
AcDbDictionary
281
     1
  3
A-SC4
350
13DCB
  3
Standard
350
1AB
  0
DICTIONARY
  5
1B
102
{ACAD_REACTORS
330
19
102
}
330
19
100
AcDbDictionary
281
     1
  3
Standard
350
1C
  0
DICTIONARY
  5
22
102
{ACAD_REACTORS
330
19
102
}
330
19
100
AcDbDictionary
281
     1
  0
ACDBDICTIONARYWDFLT
  5
1F
102
{ACAD_REACTORS
330
19
102
}
330
19
100
AcDbDictionary
281
     1
  3
Normal
350
1D
100
AcDbDictionaryWithDefault
340
1D
  0
DICTIONARY
  5
182
102
{ACAD_REACTORS
330
19
102
}
330
19
100
AcDbDictionary
281
     1
  3
A0
350
183
  3
A1
350
184
  3
A2
350
185
  3
A3
350
186
  3
A4
350
187
  3
A5
350
188
  3
A6
350
189
  3
A7
350
18A
  3
A8
350
18B
  3
A9
350
18C
  3
B0
350
18D
  3
B1
350
18E
  3
B2
350
18F
  3
B3
350
190
  3
B4
350
191
  3
B5
350
192
  3
B6
350
193
  3
B7
350
194
  3
B8
350
195
  3
B9
350
196
  3
C0
350
197
  3
C1
350
198
  3
C2
350
199
  3
C3
350
19A
  3
C4
350
19B
  3
C5
350
19C
  3
C6
350
19D
  3
C7
350
19E
  3
C8
350
19F
  3
C9
350
1A0
  3
D0
350
1A1
  3
D1
350
1A2
  3
D2
350
1A3
  0
DICTIONARY
  5
1D7
102
{ACAD_REACTORS
330
19
102
}
330
19
100
AcDbDictionary
281
     1
  3
Metric50
350
1DC4E
  0
DICTIONARY
  5
1A8
102
{ACAD_REACTORS
330
19
102
}
330
19
100
AcDbDictionary
281
     1
  3
Standard
350
1A9
  0
DICTIONARY
  5
169
102
{ACAD_REACTORS
330
19
102
}
330
19
100
AcDbDictionary
281
     1
  3
2dWireframe
350
16E
  3
Basic
350
171
  3
Brighten
350
175
  3
ColorChange
350
179
  3
Conceptual
350
173
  3
Dim
350
174
  3
EdgeColorOff
350
17C
  3
Facepattern
350
178
  3
Flat
350
16A
  3
FlatWithEdges
350
16B
  3
Gouraud
350
16C
  3
GouraudWithEdges
350
16D
  3
Hidden
350
170
  3
JitterOff
350
17A
  3
Linepattern
350
177
  3
Modeling
350
1AC
  3
OverhangOff
350
17B
  3
Realistic
350
172
  3
Shaded
350
181
  3
Shaded with edges
350
180
  3
Shades of Gray
350
17D
  3
Sketchy
350
17E
  3
Thicken
350
176
  3
Wireframe
350
16F
  3
X-Ray
350
17F
  0
WIPEOUTVARIABLES
  5
23
330
19
100
AcDbWipeoutVariables
 70
     1
  0
XRECORD
  5
8F8F
102
{ACAD_REACTORS
330
19
102
}
330
19
100
AcDbXrecord
280
     1
 90
   990106
  3
_Open
 60
     0
 61
     0
 62
     1
 63
     3
 64
     0
 65
     0
 66
     0
 67
     2
 68
     1
 69
     0
 70
     0
 71
     0
 72
     0
 40
0.0
170
     0
340
0
  0
XRECORD
  5
2CA80
102
{ACAD_REACTORS
330
19
102
}
330
19
100
AcDbXrecord
280
     1
 90
        1
330
1A9
  0
DICTIONARY
  5
1D1
102
{ACAD_REACTORS
330
19
102
}
330
19
100
AcDbDictionary
281
     1
  3
CANNOSCALE
350
1D2
  3
CMLEADERSTYLE
350
1D4
  3
CTABLESTYLE
350
1D3
  3
CVIEWDETAILSTYLE
350
1DC6A
  3
CVIEWSECTIONSTYLE
350
1DC6B
  3
MSLTSCALE
350
1D5
  0
DICTIONARY
  5
2CA87
102
{ACAD_REACTORS
330
19
102
}
330
19
100
AcDbDictionary
281
     1
  3
AcDsRecords
350
2CA89
  3
AcDsSchemas
350
2CA88
1001
ACAD
1070
     2
  0
XRECORD
  5
1DC64
102
{ACAD_REACTORS
330
1DC63
102
}
330
1DC63
100
AcDbXrecord
280
     1
290
     0
341
B4BC
292
     0
293
     0
 70
     6
 71
     0
  0
DICTIONARY
  5
1326
102
{ACAD_REACTORS
330
1325
102
}
330
1325
100
AcDbDictionary
281
     1
  0
GRADIENT_BACKGROUND
  5
1DC62
102
{ACAD_REACTORS
330
B4BB
102
}
330
B4BB
100
AcDbGradientBackground
 90
-1040187137
 91
-1031765761
 92
-1023410177
140
0.0
141
0.5
142
0.0
  0
GRADIENT_BACKGROUND
  5
B4BC
102
{ACAD_REACTORS
330
B4BB
102
}
330
B4BB
100
AcDbGradientBackground
 90
-1040187137
 91
-1031765761
 92
-1023410177
140
0.0
141
0.5
142
0.0
  0
ACDBDETAILVIEWSTYLE
  5
1DC4F
102
{ACAD_XDICTIONARY
360
1DC67
102
}
102
{ACAD_REACTORS
330
1D6
102
}
330
1D6
100
AcDbModelDocViewStyle
 70
     0
  3
Metric50
290
     0
100
AcDbDetailViewStyle
 70
     0
 71
     0
 90
        3
 71
     1
340
17
 62
   256
 40
5.0
340
0
 62
   256
 40
5.0
300

 40
0.0
280
     1
 71
     2
340
13
 90
       25
 62
   256
 71
     3
340
17
 62
   256
 40
5.0
 90
        0
 40
15.0
 90
        1
300
%<\AcVar ViewDetailId>% (%<\AcVar ViewScale \f "%sn">%)
 71
     4
340
13
 90
       25
 62
   256
340
13
 90
       25
 62
   256
280
     0
  0
LAYOUT
  5
21
102
{ACAD_REACTORS
330
1E
102
}
330
1E
100
AcDbPlotSettings
  1

  2
none_device
  4
ISO_A4_(210.00_x_297.00_MM)
  6

 40
7.5
 41
20.0
 42
7.5
 43
20.0
 44
210.0
 45
297.0
 46
0.0
 47
0.0
 48
0.0
 49
0.0
140
0.0
141
0.0
142
1.0
143
1.0
 70
     0
 72
     1
 73
     1
 74
     5
  7
KI.ctb
 75
     0
147
1.0
 76
     0
 77
     2
 78
   300
148
0.0
149
0.0
100
AcDbLayout
  1
Layout1
 70
     0
 71
     1
 10
-20.0
 20
-7.5
 11
277.0
 21
202.5
 12
0.0
 22
0.0
 32
0.0
 14
25.69999999999999
 24
19.5
 34
0.0
 15
231.3
 25
175.5
 35
0.0
146
0.0
 13
0.0
 23
0.0
 33
0.0
 16
1.0
 26
0.0
 36
0.0
 17
0.0
 27
1.0
 37
0.0
 76
     0
330
B
331
7AF4
  0
LAYOUT
  5
20
102
{ACAD_REACTORS
330
1E
102
}
330
1E
100
AcDbPlotSettings
  1

  2
CubePDF
  4
A4
  6

 40
3.174999952316284
 41
3.174999952316284
 42
3.175003051757812
 43
3.17498779296875
 44
209.9098358154297
 45
297.0318298339844
 46
1.278215683521096
 47
0.0
 48
-9605.349760058562
 49
-11628.2995605061
140
-9410.349760058561
141
-11346.2995605061
142
1.0
143
0.9701328365531336
 70
  3252
 72
     1
 73
     0
 74
     4
  7
KI.ctb
 75
     0
147
1.030786674073401
 76
     0
 77
     2
 78
   300
148
9605.349760058562
149
11628.2995605061
100
AcDbLayout
  1
Model
 70
     0
 71
     0
 10
0.0
 20
0.0
 11
0.0
 21
0.0
 12
0.0
 22
0.0
 32
0.0
 14
-11574.77830834188
 24
-13409.05641032602
 34
0.0
 15
806.0891925485057
 25
-5588.053771267114
 35
0.0000000000000916
146
0.0
 13
0.0
 23
0.0
 33
0.0
 16
0.0
 26
0.0
 36
0.0
 17
0.0
 27
0.0
 37
0.0
 76
     0
330
A
331
15
1001
ACAD_PSEXT
1000
CubePDF
1000
CubePDF
1000
CubePDF:
1000
CubePDF
1070
     0
  0
MATERIAL
  5
1A6
102
{ACAD_REACTORS
330
1A4
102
}
330
1A4
100
AcDbMaterial
  1
ByBlock
 73
     1
 78
     1
172
     1
176
     1
270
     1
274
     1
  0
MATERIAL
  5
1A5
102
{ACAD_REACTORS
330
1A4
102
}
330
1A4
100
AcDbMaterial
  1
ByLayer
 73
     1
 78
     1
172
     1
176
     1
270
     1
274
     1
  0
MATERIAL
  5
1A7
102
{ACAD_XDICTIONARY
360
24049
102
}
102
{ACAD_REACTORS
330
1A4
102
}
330
1A4
100
AcDbMaterial
  1
Global
 73
     1
 78
     1
172
     1
176
     1
270
     1
274
     1
  0
MLEADERSTYLE
  5
13DCB
102
{ACAD_REACTORS
330
1AA
102
}
330
1AA
100
AcDbMLeaderStyle
179
     2
170
     2
171
     1
172
     0
 90
        2
 40
0.0
 41
0.0
173
     1
 91
-1056964608
340
11
 92
       -2
290
     1
 42
2.0
291
     1
 43
8.0
  3

 44
4.0
300

342
17
174
     1
178
     1
175
     1
176
     0
 93
-1056964608
 45
4.0
292
     0
297
     0
 46
4.0
 94
-1056964608
 47
1.0
 49
1.0
140
1.0
293
     1
141
0.0
294
     1
177
     0
142
1.0
295
     0
296
     0
143
3.75
271
     0
272
     9
273
     9
  0
MLEADERSTYLE
  5
1AB
102
{ACAD_XDICTIONARY
360
2CABA
102
}
102
{ACAD_REACTORS
330
1AA
102
}
330
1AA
100
AcDbMLeaderStyle
179
     2
170
     2
171
     1
172
     0
 90
        2
 40
0.0
 41
0.0
173
     1
 91
-1056964608
340
11
 92
       -2
290
     1
 42
2.0
291
     1
 43
8.0
  3
Standard
341
753D
 44
3.0
300

342
17
174
     4
178
     5
175
     1
176
     0
 93
-1023410172
 45
2.5
292
     0
297
     0
 46
4.0
 94
-1056964608
 47
1.0
 49
1.0
140
1.0
293
     1
141
0.0
294
     1
177
     0
142
1.0
295
     0
296
     0
143
3.75
271
     0
272
     9
273
     9
  0
MLINESTYLE
  5
1C
102
{ACAD_REACTORS
330
1B
102
}
330
1B
100
AcDbMlineStyle
  2
STANDARD
 70
     0
  3

 62
     0
 51
90.0
 52
90.0
 71
     2
 49
0.5
 62
   256
  6
BYLAYER
 49
-0.5
 62
   256
  6
BYLAYER
  0
ACDBPLACEHOLDER
  5
1D
102
{ACAD_REACTORS
330
1F
102
}
330
1F
  0
SCALE
  5
183
102
{ACAD_REACTORS
330
182
102
}
330
182
100
AcDbScale
 70
     0
300
1:1
140
1.0
141
1.0
290
     1
  0
SCALE
  5
184
102
{ACAD_REACTORS
330
182
102
}
330
182
100
AcDbScale
 70
     0
300
1:2
140
1.0
141
2.0
290
     0
  0
SCALE
  5
185
102
{ACAD_REACTORS
330
182
102
}
330
182
100
AcDbScale
 70
     0
300
1:4
140
1.0
141
4.0
290
     0
  0
SCALE
  5
186
102
{ACAD_REACTORS
330
182
102
}
330
182
100
AcDbScale
 70
     0
300
1:5
140
1.0
141
5.0
290
     0
  0
SCALE
  5
187
102
{ACAD_REACTORS
330
182
102
}
330
182
100
AcDbScale
 70
     0
300
1:8
140
1.0
141
8.0
290
     0
  0
SCALE
  5
188
102
{ACAD_REACTORS
330
182
102
}
330
182
100
AcDbScale
 70
     0
300
1:10
140
1.0
141
10.0
290
     0
  0
SCALE
  5
189
102
{ACAD_REACTORS
330
182
102
}
330
182
100
AcDbScale
 70
     0
300
1:16
140
1.0
141
16.0
290
     0
  0
SCALE
  5
18A
102
{ACAD_REACTORS
330
182
102
}
330
182
100
AcDbScale
 70
     0
300
1:20
140
1.0
141
20.0
290
     0
  0
SCALE
  5
18B
102
{ACAD_REACTORS
330
182
102
}
330
182
100
AcDbScale
 70
     0
300
1:30
140
1.0
141
30.0
290
     0
  0
SCALE
  5
18C
102
{ACAD_REACTORS
330
182
102
}
330
182
100
AcDbScale
 70
     0
300
1:40
140
1.0
141
40.0
290
     0
  0
SCALE
  5
18D
102
{ACAD_REACTORS
330
182
102
}
330
182
100
AcDbScale
 70
     0
300
1:50
140
1.0
141
50.0
290
     0
  0
SCALE
  5
18E
102
{ACAD_REACTORS
330
182
102
}
330
182
100
AcDbScale
 70
     0
300
1:100
140
1.0
141
100.0
290
     0
  0
SCALE
  5
18F
102
{ACAD_REACTORS
330
182
102
}
330
182
100
AcDbScale
 70
     0
300
2:1
140
2.0
141
1.0
290
     0
  0
SCALE
  5
190
102
{ACAD_REACTORS
330
182
102
}
330
182
100
AcDbScale
 70
     0
300
4:1
140
4.0
141
1.0
290
     0
  0
SCALE
  5
191
102
{ACAD_REACTORS
330
182
102
}
330
182
100
AcDbScale
 70
     0
300
8:1
140
8.0
141
1.0
290
     0
  0
SCALE
  5
192
102
{ACAD_REACTORS
330
182
102
}
330
182
100
AcDbScale
 70
     0
300
10:1
140
10.0
141
1.0
290
     0
  0
SCALE
  5
193
102
{ACAD_REACTORS
330
182
102
}
330
182
100
AcDbScale
 70
     0
300
100:1
140
100.0
141
1.0
290
     0
  0
SCALE
  5
194
102
{ACAD_REACTORS
330
182
102
}
330
182
100
AcDbScale
 70
     0
300
1/128" = 1'-0"
140
0.0078125
141
12.0
290
     0
  0
SCALE
  5
195
102
{ACAD_REACTORS
330
182
102
}
330
182
100
AcDbScale
 70
     0
300
1/64" = 1'-0"
140
0.015625
141
12.0
290
     0
  0
SCALE
  5
196
102
{ACAD_REACTORS
330
182
102
}
330
182
100
AcDbScale
 70
     0
300
1/32" = 1'-0"
140
0.03125
141
12.0
290
     0
  0
SCALE
  5
197
102
{ACAD_REACTORS
330
182
102
}
330
182
100
AcDbScale
 70
     0
300
1/16" = 1'-0"
140
0.0625
141
12.0
290
     0
  0
SCALE
  5
198
102
{ACAD_REACTORS
330
182
102
}
330
182
100
AcDbScale
 70
     0
300
3/32" = 1'-0"
140
0.09375
141
12.0
290
     0
  0
SCALE
  5
199
102
{ACAD_REACTORS
330
182
102
}
330
182
100
AcDbScale
 70
     0
300
1/8" = 1'-0"
140
0.125
141
12.0
290
     0
  0
SCALE
  5
19A
102
{ACAD_REACTORS
330
182
102
}
330
182
100
AcDbScale
 70
     0
300
3/16" = 1'-0"
140
0.1875
141
12.0
290
     0
  0
SCALE
  5
19B
102
{ACAD_REACTORS
330
182
102
}
330
182
100
AcDbScale
 70
     0
300
1/4" = 1'-0"
140
0.25
141
12.0
290
     0
  0
SCALE
  5
19C
102
{ACAD_REACTORS
330
182
102
}
330
182
100
AcDbScale
 70
     0
300
3/8" = 1'-0"
140
0.375
141
12.0
290
     0
  0
SCALE
  5
19D
102
{ACAD_REACTORS
330
182
102
}
330
182
100
AcDbScale
 70
     0
300
1/2" = 1'-0"
140
0.5
141
12.0
290
     0
  0
SCALE
  5
19E
102
{ACAD_REACTORS
330
182
102
}
330
182
100
AcDbScale
 70
     0
300
3/4" = 1'-0"
140
0.75
141
12.0
290
     0
  0
SCALE
  5
19F
102
{ACAD_REACTORS
330
182
102
}
330
182
100
AcDbScale
 70
     0
300
1" = 1'-0"
140
1.0
141
12.0
290
     0
  0
SCALE
  5
1A0
102
{ACAD_REACTORS
330
182
102
}
330
182
100
AcDbScale
 70
     0
300
1-1/2" = 1'-0"
140
1.5
141
12.0
290
     0
  0
SCALE
  5
1A1
102
{ACAD_REACTORS
330
182
102
}
330
182
100
AcDbScale
 70
     0
300
3" = 1'-0"
140
3.0
141
12.0
290
     0
  0
SCALE
  5
1A2
102
{ACAD_REACTORS
330
182
102
}
330
182
100
AcDbScale
 70
     0
300
6" = 1'-0"
140
6.0
141
12.0
290
     0
  0
SCALE
  5
1A3
102
{ACAD_REACTORS
330
182
102
}
330
182
100
AcDbScale
 70
     0
300
1'-0" = 1'-0"
140
12.0
141
12.0
290
     0
  0
ACDBSECTIONVIEWSTYLE
  5
1DC4E
102
{ACAD_XDICTIONARY
360
1DC65
102
}
102
{ACAD_REACTORS
330
1D7
102
}
330
1D7
100
AcDbModelDocViewStyle
 70
     0
  3
Metric50
290
     0
100
AcDbSectionViewStyle
 70
     0
 71
     0
 90
      102
 71
     1
340
17
 62
   256
 40
5.0
340
0
340
0
 62
   256
 40
5.0
300
I, O, Q, S, X, Z
 40
10.0
 90
        0
 40
2.5
 90
        0
 71
     2
340
13
 90
       25
 62
   256
340
13
 90
       50
 62
   256
 40
5.0
 40
2.5
 40
5.0
 71
     3
340
17
 62
   256
 40
5.0
 90
        0
 40
15.0
 90
        1
300
%<\AcVar ViewSectionStartId>%-%<\AcVar ViewSectionEndId>% (%<\AcVar ViewScale \f "%sn">%)
 71
     4
 62
   256
 62
   257
300
ANSI31
 40
1.0
 90
        0
290
     0
290
     0
 90
        6
 40
0.0
 40
1.570796326794896
 40
0.2617993877991494
 40
1.308996938995747
 40
-0.2617993877991494
 40
1.832595714594046
  0
TABLESTYLE
  5
1A9
102
{ACAD_XDICTIONARY
360
2CA7E
102
}
102
{ACAD_REACTORS
330
1A8
102
}
330
1A8
100
AcDbTableStyle
280
     0
  3
Standard
 70
     0
 71
     0
 40
1.5
 41
1.5
280
     0
281
     0
  7
Standard
140
4.5
170
     2
 62
     0
 63
     7
283
     0
 90
        4
 91
        0
  1

274
    -2
284
     1
 64
     0
275
    -2
285
     1
 65
     0
276
    -2
286
     1
 66
     0
277
    -2
287
     1
 67
     0
278
    -2
288
     1
 68
     0
279
    -2
289
     1
 69
     0
  7
Standard
140
6.0
170
     5
 62
     0
 63
     7
283
     0
 90
        4
 91
        0
  1

274
    -2
284
     1
 64
     0
275
    -2
285
     1
 65
     0
276
    -2
286
     1
 66
     0
277
    -2
287
     1
 67
     0
278
    -2
288
     1
 68
     0
279
    -2
289
     1
 69
     0
  7
Standard
140
4.5
170
     5
 62
     0
 63
     7
283
     0
 90
        4
 91
        0
  1

274
    -2
284
     1
 64
     0
275
    -2
285
     1
 65
     0
276
    -2
286
     1
 66
     0
277
    -2
287
     1
 67
     0
278
    -2
288
     1
 68
     0
279
    -2
289
     1
 69
     0
  0
VISUALSTYLE
  5
16E
102
{ACAD_XDICTIONARY
360
2CA92
102
}
102
{ACAD_REACTORS
330
169
102
}
330
169
100
AcDbVisualStyle
  2
2dWireframe
 70
     4
177
     2
291
     0
 71
     0
176
     1
 72
     2
176
     1
 73
     0
176
     1
 90
        0
176
     1
 40
0.6
176
     1
 41
30.0
176
     1
 63
     7
421
 16777215
176
     1
 74
     1
176
     1
 91
        4
176
     1
 64
     7
176
     1
 65
   257
176
     1
 75
     1
176
     1
175
     1
176
     1
 42
1.0
176
     1
 92
        0
176
     1
 66
   257
176
     1
 43
1.0
176
     1
 76
     1
176
     1
 77
     6
176
     1
 78
     2
176
     1
 67
     7
176
     1
 79
     5
176
     1
170
     0
176
     1
171
     0
176
     1
290
     0
176
     1
 93
        1
176
     1
 44
0.0
176
     1
173
     0
176
     1
1001
ACAD
1000
AcDbSavedByObjectVersion
1070
     0
  0
VISUALSTYLE
  5
171
102
{ACAD_XDICTIONARY
360
2CA98
102
}
102
{ACAD_REACTORS
330
169
102
}
330
169
100
AcDbVisualStyle
  2
Basic
 70
     7
177
     2
291
     1
 71
     1
176
     1
 72
     0
176
     1
 73
     1
176
     1
 90
        0
176
     1
 40
0.6
176
     1
 41
30.0
176
     1
 63
     7
421
 16777215
176
     1
 74
     0
176
     1
 91
        4
176
     1
 64
     7
176
     1
 65
   257
176
     1
 75
     1
176
     1
175
     1
176
     1
 42
1.0
176
     1
 92
        8
176
     1
 66
     7
176
     1
 43
1.0
176
     1
 76
     1
176
     1
 77
     6
176
     1
 78
     2
176
     1
 67
     7
176
     1
 79
     5
176
     1
170
     0
176
     1
171
     0
176
     1
290
     0
176
     1
 93
        1
176
     1
 44
0.0
176
     1
173
     0
176
     1
1001
ACAD
1000
AcDbSavedByObjectVersion
1070
     0
  0
VISUALSTYLE
  5
175
102
{ACAD_XDICTIONARY
360
2CAA0
102
}
102
{ACAD_REACTORS
330
169
102
}
330
169
100
AcDbVisualStyle
  2
Brighten
 70
    12
177
     2
291
     1
 71
     2
176
     1
 72
     2
176
     1
 73
     0
176
     1
 90
        0
176
     1
 40
0.6
176
     1
 41
30.0
176
     1
 63
     7
421
 16777215
176
     1
 74
     1
176
     1
 91
        4
176
     1
 64
     7
176
     1
 65
   257
176
     1
 75
     1
176
     1
175
     1
176
     1
 42
1.0
176
     1
 92
        8
176
     1
 66
     7
176
     1
 43
1.0
176
     1
 76
     1
176
     1
 77
     6
176
     1
 78
     2
176
     1
 67
     7
176
     1
 79
     5
176
     1
170
     0
176
     1
171
     0
176
     1
290
     0
176
     1
 93
        1
176
     1
 44
50.0
176
     1
173
     0
176
     1
1001
ACAD
1000
AcDbSavedByObjectVersion
1070
     0
  0
VISUALSTYLE
  5
179
102
{ACAD_XDICTIONARY
360
2CAA8
102
}
102
{ACAD_REACTORS
330
169
102
}
330
169
100
AcDbVisualStyle
  2
ColorChange
 70
    16
177
     2
291
     1
 71
     2
176
     1
 72
     2
176
     1
 73
     3
176
     1
 90
        0
176
     1
 40
0.6
176
     1
 41
30.0
176
     1
 63
     8
421
  8421504
176
     1
 74
     1
176
     1
 91
        4
176
     1
 64
     7
176
     1
 65
   257
176
     1
 75
     1
176
     1
175
     1
176
     1
 42
1.0
176
     1
 92
        8
176
     1
 66
     8
424
  8421504
176
     1
 43
1.0
176
     1
 76
     1
176
     1
 77
     6
176
     1
 78
     2
176
     1
 67
     7
176
     1
 79
     5
176
     1
170
     0
176
     1
171
     0
176
     1
290
     0
176
     1
 93
        1
176
     1
 44
0.0
176
     1
173
     0
176
     1
1001
ACAD
1000
AcDbSavedByObjectVersion
1070
     0
  0
VISUALSTYLE
  5
173
102
{ACAD_XDICTIONARY
360
2CA9C
102
}
102
{ACAD_REACTORS
330
169
102
}
330
169
100
AcDbVisualStyle
  2
Conceptual
 70
     9
177
     2
291
     0
 71
     3
176
     1
 72
     2
176
     1
 73
     0
176
     1
 90
        0
176
     1
 40
0.6
176
     1
 41
30.0
176
     1
 63
     7
421
 16777215
176
     1
 74
     2
176
     1
 91
        2
176
     1
 64
     7
176
     1
 65
   257
176
     1
 75
     1
176
     1
175
     1
176
     1
 42
179.0
176
     1
 92
        8
176
     1
 66
     7
176
     1
 43
1.0
176
     1
 76
     1
176
     1
 77
     6
176
     1
 78
     2
176
     1
 67
     7
176
     1
 79
     3
176
     1
170
     0
176
     1
171
     0
176
     1
290
     0
176
     1
 93
        1
176
     1
 44
0.0
176
     1
173
     0
176
     1
1001
ACAD
1000
AcDbSavedByObjectVersion
1070
     0
  0
VISUALSTYLE
  5
174
102
{ACAD_XDICTIONARY
360
2CA9E
102
}
102
{ACAD_REACTORS
330
169
102
}
330
169
100
AcDbVisualStyle
  2
Dim
 70
    11
177
     2
291
     1
 71
     2
176
     1
 72
     2
176
     1
 73
     0
176
     1
 90
        0
176
     1
 40
0.6
176
     1
 41
30.0
176
     1
 63
     7
421
 16777215
176
     1
 74
     1
176
     1
 91
        4
176
     1
 64
     7
176
     1
 65
   257
176
     1
 75
     1
176
     1
175
     1
176
     1
 42
1.0
176
     1
 92
        8
176
     1
 66
     7
176
     1
 43
1.0
176
     1
 76
     1
176
     1
 77
     6
176
     1
 78
     2
176
     1
 67
     7
176
     1
 79
     5
176
     1
170
     0
176
     1
171
     0
176
     1
290
     0
176
     1
 93
        1
176
     1
 44
-50.0
176
     1
173
     0
176
     1
1001
ACAD
1000
AcDbSavedByObjectVersion
1070
     0
  0
VISUALSTYLE
  5
17C
102
{ACAD_XDICTIONARY
360
2CAAE
102
}
102
{ACAD_REACTORS
330
169
102
}
330
169
100
AcDbVisualStyle
  2
EdgeColorOff
 70
    22
177
     2
291
     1
 71
     2
176
     0
 72
     2
176
     0
 73
     0
176
     0
 90
        0
176
     0
 40
0.6
176
     0
 41
30.0
176
     0
 63
     7
421
 16777215
176
     0
 74
     1
176
     0
 91
        4
176
     0
 64
     7
176
     0
 65
   257
176
     0
 75
     1
176
     0
175
     1
176
     0
 42
1.0
176
     0
 92
        8
176
     2
 66
     7
176
     0
 43
1.0
176
     0
 76
     1
176
     0
 77
     6
176
     0
 78
     2
176
     0
 67
     7
176
     0
 79
     5
176
     0
170
     0
176
     0
171
     0
176
     0
290
     0
176
     0
 93
        1
176
     0
 44
0.0
176
     0
173
     0
176
     0
1001
ACAD
1000
AcDbSavedByObjectVersion
1070
     0
  0
VISUALSTYLE
  5
178
102
{ACAD_XDICTIONARY
360
2CAA6
102
}
102
{ACAD_REACTORS
330
169
102
}
330
169
100
AcDbVisualStyle
  2
Facepattern
 70
    15
177
     2
291
     1
 71
     2
176
     1
 72
     2
176
     1
 73
     0
176
     1
 90
        0
176
     1
 40
0.6
176
     1
 41
30.0
176
     1
 63
     7
421
 16777215
176
     1
 74
     1
176
     1
 91
        4
176
     1
 64
     7
176
     1
 65
   257
176
     1
 75
     1
176
     1
175
     1
176
     1
 42
1.0
176
     1
 92
        8
176
     1
 66
     7
176
     1
 43
1.0
176
     1
 76
     1
176
     1
 77
     6
176
     1
 78
     2
176
     1
 67
     7
176
     1
 79
     5
176
     1
170
     0
176
     1
171
     0
176
     1
290
     0
176
     1
 93
        1
176
     1
 44
0.0
176
     1
173
     0
176
     1
1001
ACAD
1000
AcDbSavedByObjectVersion
1070
     0
  0
VISUALSTYLE
  5
16A
102
{ACAD_XDICTIONARY
360
2CA8A
102
}
102
{ACAD_REACTORS
330
169
102
}
330
169
100
AcDbVisualStyle
  2
Flat
 70
     0
177
     2
291
     1
 71
     2
176
     1
 72
     1
176
     1
 73
     1
176
     1
 90
        2
176
     1
 40
0.6
176
     1
 41
30.0
176
     1
 63
     7
421
 16777215
176
     1
 74
     0
176
     1
 91
        0
176
     1
 64
     7
176
     1
 65
   257
176
     1
 75
     1
176
     1
175
     1
176
     1
 42
1.0
176
     1
 92
        8
176
     1
 66
     7
176
     1
 43
1.0
176
     1
 76
     1
176
     1
 77
     6
176
     1
 78
     2
176
     1
 67
     7
176
     1
 79
     5
176
     1
170
     0
176
     1
171
     0
176
     1
290
     0
176
     1
 93
       13
176
     1
 44
0.0
176
     1
173
     0
176
     1
1001
ACAD
1000
AcDbSavedByObjectVersion
1070
     0
  0
VISUALSTYLE
  5
16B
102
{ACAD_XDICTIONARY
360
2CA8C
102
}
102
{ACAD_REACTORS
330
169
102
}
330
169
100
AcDbVisualStyle
  2
FlatWithEdges
 70
     1
177
     2
291
     1
 71
     2
176
     1
 72
     1
176
     1
 73
     1
176
     1
 90
        2
176
     1
 40
0.6
176
     1
 41
30.0
176
     1
 63
     7
421
 16777215
176
     1
 74
     1
176
     1
 91
        0
176
     1
 64
     7
176
     1
 65
   257
176
     1
 75
     1
176
     1
175
     1
176
     1
 42
1.0
176
     1
 92
        0
176
     1
 66
   257
176
     1
 43
1.0
176
     1
 76
     1
176
     1
 77
     6
176
     1
 78
     2
176
     1
 67
     7
176
     1
 79
     5
176
     1
170
     0
176
     1
171
     0
176
     1
290
     0
176
     1
 93
       13
176
     1
 44
0.0
176
     1
173
     0
176
     1
1001
ACAD
1000
AcDbSavedByObjectVersion
1070
     0
  0
VISUALSTYLE
  5
16C
102
{ACAD_XDICTIONARY
360
2CA8E
102
}
102
{ACAD_REACTORS
330
169
102
}
330
169
100
AcDbVisualStyle
  2
Gouraud
 70
     2
177
     2
291
     1
 71
     2
176
     1
 72
     2
176
     1
 73
     1
176
     1
 90
        2
176
     1
 40
0.6
176
     1
 41
30.0
176
     1
 63
     7
421
 16777215
176
     1
 74
     0
176
     1
 91
        0
176
     1
 64
     7
176
     1
 65
   257
176
     1
 75
     1
176
     1
175
     1
176
     1
 42
1.0
176
     1
 92
        0
176
     1
 66
     7
176
     1
 43
1.0
176
     1
 76
     1
176
     1
 77
     6
176
     1
 78
     2
176
     1
 67
     7
176
     1
 79
     5
176
     1
170
     0
176
     1
171
     0
176
     1
290
     0
176
     1
 93
       13
176
     1
 44
0.0
176
     1
173
     0
176
     1
1001
ACAD
1000
AcDbSavedByObjectVersion
1070
     0
  0
VISUALSTYLE
  5
16D
102
{ACAD_XDICTIONARY
360
2CA90
102
}
102
{ACAD_REACTORS
330
169
102
}
330
169
100
AcDbVisualStyle
  2
GouraudWithEdges
 70
     3
177
     2
291
     1
 71
     2
176
     1
 72
     2
176
     1
 73
     1
176
     1
 90
        2
176
     1
 40
0.6
176
     1
 41
30.0
176
     1
 63
     7
421
 16777215
176
     1
 74
     1
176
     1
 91
        0
176
     1
 64
     7
176
     1
 65
   257
176
     1
 75
     1
176
     1
175
     1
176
     1
 42
1.0
176
     1
 92
        0
176
     1
 66
   257
176
     1
 43
1.0
176
     1
 76
     1
176
     1
 77
     6
176
     1
 78
     2
176
     1
 67
     7
176
     1
 79
     5
176
     1
170
     0
176
     1
171
     0
176
     1
290
     0
176
     1
 93
       13
176
     1
 44
0.0
176
     1
173
     0
176
     1
1001
ACAD
1000
AcDbSavedByObjectVersion
1070
     0
  0
VISUALSTYLE
  5
170
102
{ACAD_XDICTIONARY
360
2CA96
102
}
102
{ACAD_REACTORS
330
169
102
}
330
169
100
AcDbVisualStyle
  2
Hidden
 70
     6
177
     2
291
     0
 71
     1
176
     1
 72
     2
176
     1
 73
     2
176
     1
 90
        0
176
     1
 40
0.6
176
     1
 41
30.0
176
     1
 63
     7
421
 16777215
176
     1
 74
     2
176
     1
 91
        2
176
     1
 64
     7
176
     1
 65
   257
176
     1
 75
     2
176
     1
175
     1
176
     1
 42
40.0
176
     1
 92
        0
176
     1
 66
   257
176
     1
 43
1.0
176
     1
 76
     1
176
     1
 77
     6
176
     1
 78
     2
176
     1
 67
     7
176
     1
 79
     3
176
     1
170
     0
176
     1
171
     0
176
     1
290
     0
176
     1
 93
        1
176
     1
 44
0.0
176
     1
173
     0
176
     1
1001
ACAD
1000
AcDbSavedByObjectVersion
1070
     0
  0
VISUALSTYLE
  5
17A
102
{ACAD_XDICTIONARY
360
2CAAA
102
}
102
{ACAD_REACTORS
330
169
102
}
330
169
100
AcDbVisualStyle
  2
JitterOff
 70
    20
177
     2
291
     1
 71
     2
176
     0
 72
     2
176
     0
 73
     0
176
     0
 90
        0
176
     0
 40
0.6
176
     0
 41
30.0
176
     0
 63
     7
421
 16777215
176
     0
 74
     1
176
     0
 91
        4
176
     0
 64
     7
176
     0
 65
   257
176
     0
 75
     1
176
     0
175
     1
176
     0
 42
1.0
176
     0
 92
       10
176
     2
 66
     7
176
     0
 43
1.0
176
     0
 76
     1
176
     0
 77
     6
176
     0
 78
     2
176
     0
 67
     7
176
     0
 79
     5
176
     0
170
     0
176
     0
171
     0
176
     0
290
     0
176
     0
 93
        1
176
     0
 44
0.0
176
     0
173
     0
176
     0
1001
ACAD
1000
AcDbSavedByObjectVersion
1070
     0
  0
VISUALSTYLE
  5
177
102
{ACAD_XDICTIONARY
360
2CAA4
102
}
102
{ACAD_REACTORS
330
169
102
}
330
169
100
AcDbVisualStyle
  2
Linepattern
 70
    14
177
     2
291
     1
 71
     2
176
     1
 72
     2
176
     1
 73
     0
176
     1
 90
        0
176
     1
 40
0.6
176
     1
 41
30.0
176
     1
 63
     7
421
 16777215
176
     1
 74
     1
176
     1
 91
        4
176
     1
 64
     7
176
     1
 65
   257
176
     1
 75
     7
176
     1
175
     7
176
     1
 42
1.0
176
     1
 92
        8
176
     1
 66
     7
176
     1
 43
1.0
176
     1
 76
     1
176
     1
 77
     6
176
     1
 78
     2
176
     1
 67
     7
176
     1
 79
     5
176
     1
170
     0
176
     1
171
     0
176
     1
290
     0
176
     1
 93
        1
176
     1
 44
0.0
176
     1
173
     0
176
     1
1001
ACAD
1000
AcDbSavedByObjectVersion
1070
     0
  0
VISUALSTYLE
  5
1AC
102
{ACAD_XDICTIONARY
360
2CABC
102
}
102
{ACAD_REACTORS
330
169
102
}
330
169
100
AcDbVisualStyle
  2

 70
    10
177
     2
291
     0
 71
     2
176
     1
 72
     3
176
     1
 73
     0
176
     1
 90
        2
176
     1
 40
0.6
176
     1
 41
30.0
176
     1
 63
     7
421
 16777215
176
     1
 74
     2
176
     1
 91
        0
176
     1
 64
     7
176
     1
 65
   257
176
     1
 75
     1
176
     1
175
     1
176
     1
 42
180.0
176
     1
 92
        8
176
     1
 66
     8
424
  7895160
176
     1
 43
1.0
176
     1
 76
     1
176
     1
 77
     6
176
     1
 78
     2
176
     1
 67
     7
176
     1
 79
     5
176
     1
170
     0
176
     1
171
     0
176
     1
290
     0
176
     1
 93
       13
176
     1
 44
0.0
176
     1
173
     0
176
     1
1001
ACAD
1000
AcDbSavedByObjectVersion
1070
     0
  0
VISUALSTYLE
  5
17B
102
{ACAD_XDICTIONARY
360
2CAAC
102
}
102
{ACAD_REACTORS
330
169
102
}
330
169
100
AcDbVisualStyle
  2
OverhangOff
 70
    21
177
     2
291
     1
 71
     2
176
     0
 72
     2
176
     0
 73
     0
176
     0
 90
        0
176
     0
 40
0.6
176
     0
 41
30.0
176
     0
 63
     7
421
 16777215
176
     0
 74
     1
176
     0
 91
        4
176
     0
 64
     7
176
     0
 65
   257
176
     0
 75
     1
176
     0
175
     1
176
     0
 42
1.0
176
     0
 92
        9
176
     2
 66
     7
176
     0
 43
1.0
176
     0
 76
     1
176
     0
 77
     6
176
     0
 78
     2
176
     0
 67
     7
176
     0
 79
     5
176
     0
170
     0
176
     0
171
     0
176
     0
290
     0
176
     0
 93
        1
176
     0
 44
0.0
176
     0
173
     0
176
     0
1001
ACAD
1000
AcDbSavedByObjectVersion
1070
     0
  0
VISUALSTYLE
  5
172
102
{ACAD_XDICTIONARY
360
2CA9A
102
}
102
{ACAD_REACTORS
330
169
102
}
330
169
100
AcDbVisualStyle
  2
Realistic
 70
     8
177
     2
291
     0
 71
     2
176
     1
 72
     3
176
     1
 73
     0
176
     1
 90
        2
176
     1
 40
0.6
176
     1
 41
30.0
176
     1
 63
     7
421
 16777215
176
     1
 74
     0
176
     1
 91
        0
176
     1
 64
     7
176
     1
 65
   257
176
     1
 75
     1
176
     1
175
     1
176
     1
 42
1.0
176
     1
 92
        8
176
     1
 66
   257
176
     1
 43
1.0
176
     1
 76
     1
176
     1
 77
     6
176
     1
 78
     2
176
     1
 67
     7
176
     1
 79
     3
176
     1
170
     0
176
     1
171
     0
176
     1
290
     0
176
     1
 93
       13
176
     1
 44
0.0
176
     1
173
     0
176
     1
1001
ACAD
1000
AcDbSavedByObjectVersion
1070
     0
  0
VISUALSTYLE
  5
181
102
{ACAD_XDICTIONARY
360
2CAB8
102
}
102
{ACAD_REACTORS
330
169
102
}
330
169
100
AcDbVisualStyle
  2
Shaded
 70
    27
177
     2
291
     0
 71
     2
176
     1
 72
     2
176
     1
 73
     1
176
     1
 90
        2
176
     1
 40
0.6
176
     1
 41
30.0
176
     1
 63
     7
421
 16777215
176
     1
 74
     0
176
     1
 91
        4
176
     1
 64
     7
176
     1
 65
   257
176
     1
 75
     1
176
     1
175
     1
176
     1
 42
1.0
176
     1
 92
        8
176
     1
 66
   257
176
     1
 43
1.0
176
     1
 76
     1
176
     1
 77
     6
176
     1
 78
     2
176
     1
 67
     8
425
  7895160
176
     1
 79
     3
176
     1
170
     0
176
     1
171
     0
176
     1
290
     0
176
     1
 93
        5
176
     1
 44
0.0
176
     1
173
     0
176
     1
1001
ACAD
1000
AcDbSavedByObjectVersion
1070
     0
  0
VISUALSTYLE
  5
180
102
{ACAD_XDICTIONARY
360
2CAB6
102
}
102
{ACAD_REACTORS
330
169
102
}
330
169
100
AcDbVisualStyle
  2
Shaded with edges
 70
    26
177
     2
291
     0
 71
     2
176
     1
 72
     2
176
     1
 73
     1
176
     1
 90
        2
176
     1
 40
0.6
176
     1
 41
30.0
176
     1
 63
     7
421
 16777215
176
     1
 74
     1
176
     1
 91
       10
176
     1
 64
     7
176
     1
 65
   257
176
     1
 75
     2
176
     1
175
     1
176
     1
 42
1.0
176
     1
 92
        8
176
     1
 66
   257
176
     1
 43
1.0
176
     1
 76
     1
176
     1
 77
     6
176
     1
 78
     2
176
     1
 67
     7
176
     1
 79
     3
176
     1
170
     0
176
     1
171
     0
176
     1
290
     0
176
     1
 93
        5
176
     1
 44
0.0
176
     1
173
     0
176
     1
1001
ACAD
1000
AcDbSavedByObjectVersion
1070
     0
  0
VISUALSTYLE
  5
17D
102
{ACAD_XDICTIONARY
360
2CAB0
102
}
102
{ACAD_REACTORS
330
169
102
}
330
169
100
AcDbVisualStyle
  2
Shades of Gray
 70
    23
177
     2
291
     0
 71
     2
176
     1
 72
     2
176
     1
 73
     3
176
     1
 90
        0
176
     1
 40
0.6
176
     1
 41
30.0
176
     1
 63
     7
421
 16777215
176
     1
 74
     2
176
     1
 91
        2
176
     1
 64
     7
176
     1
 65
     7
176
     1
 75
     1
176
     1
175
     1
176
     1
 42
40.0
176
     1
 92
        8
176
     1
 66
     7
176
     1
 43
1.0
176
     1
 76
     1
176
     1
 77
     6
176
     1
 78
     2
176
     1
 67
     7
176
     1
 79
     3
176
     1
170
     0
176
     1
171
     0
176
     1
290
     0
176
     1
 93
        1
176
     1
 44
0.0
176
     1
173
     0
176
     1
1001
ACAD
1000
AcDbSavedByObjectVersion
1070
     0
  0
VISUALSTYLE
  5
17E
102
{ACAD_XDICTIONARY
360
2CAB2
102
}
102
{ACAD_REACTORS
330
169
102
}
330
169
100
AcDbVisualStyle
  2
Sketchy
 70
    24
177
     2
291
     0
 71
     1
176
     1
 72
     2
176
     1
 73
     2
176
     1
 90
        0
176
     1
 40
0.6
176
     1
 41
30.0
176
     1
 63
     7
421
 16777215
176
     1
 74
     2
176
     1
 91
        2
176
     1
 64
     7
176
     1
 65
     7
176
     1
 75
     1
176
     1
175
     1
176
     1
 42
40.0
176
     1
 92
       11
176
     1
 66
     7
176
     1
 43
1.0
176
     1
 76
     1
176
     1
 77
     6
176
     1
 78
     2
176
     1
 67
     7
176
     1
 79
     6
176
     1
170
     0
176
     1
171
     0
176
     1
290
     0
176
     1
 93
        1
176
     1
 44
0.0
176
     1
173
     0
176
     1
1001
ACAD
1000
AcDbSavedByObjectVersion
1070
     0
  0
VISUALSTYLE
  5
176
102
{ACAD_XDICTIONARY
360
2CAA2
102
}
102
{ACAD_REACTORS
330
169
102
}
330
169
100
AcDbVisualStyle
  2
Thicken
 70
    13
177
     2
291
     1
 71
     2
176
     1
 72
     2
176
     1
 73
     0
176
     1
 90
        0
176
     1
 40
0.6
176
     1
 41
30.0
176
     1
 63
     7
421
 16777215
176
     1
 74
     1
176
     1
 91
        4
176
     1
 64
     7
176
     1
 65
   257
176
     1
 75
     1
176
     1
175
     1
176
     1
 42
1.0
176
     1
 92
       12
176
     1
 66
     7
176
     1
 43
1.0
176
     1
 76
     1
176
     1
 77
     6
176
     1
 78
     2
176
     1
 67
     7
176
     1
 79
     5
176
     1
170
     0
176
     1
171
     0
176
     1
290
     0
176
     1
 93
        1
176
     1
 44
0.0
176
     1
173
     0
176
     1
1001
ACAD
1000
AcDbSavedByObjectVersion
1070
     0
  0
VISUALSTYLE
  5
16F
102
{ACAD_XDICTIONARY
360
2CA94
102
}
102
{ACAD_REACTORS
330
169
102
}
330
169
100
AcDbVisualStyle
  2
Wireframe
 70
     5
177
     2
291
     0
 71
     0
176
     1
 72
     2
176
     1
 73
     0
176
     1
 90
        0
176
     1
 40
0.6
176
     1
 41
30.0
176
     1
 63
     7
421
 16777215
176
     1
 74
     1
176
     1
 91
        4
176
     1
 64
     7
176
     1
 65
   257
176
     1
 75
     1
176
     1
175
     1
176
     1
 42
1.0
176
     1
 92
        0
176
     1
 66
   257
176
     1
 43
1.0
176
     1
 76
     1
176
     1
 77
     6
176
     1
 78
     2
176
     1
 67
     7
176
     1
 79
     3
176
     1
170
     0
176
     1
171
     0
176
     1
290
     0
176
     1
 93
        1
176
     1
 44
0.0
176
     1
173
     0
176
     1
1001
ACAD
1000
AcDbSavedByObjectVersion
1070
     0
  0
VISUALSTYLE
  5
17F
102
{ACAD_XDICTIONARY
360
2CAB4
102
}
102
{ACAD_REACTORS
330
169
102
}
330
169
100
AcDbVisualStyle
  2
X-Ray
 70
    25
177
     2
291
     0
 71
     2
176
     1
 72
     2
176
     1
 73
     1
176
     1
 90
        1
176
     1
 40
0.5
176
     1
 41
30.0
176
     1
 63
     7
421
 16777215
176
     1
 74
     1
176
     1
 91
        0
176
     1
 64
     7
176
     1
 65
   257
176
     1
 75
     1
176
     1
175
     1
176
     1
 42
1.0
176
     1
 92
        8
176
     1
 66
     7
176
     1
 43
1.0
176
     1
 76
     1
176
     1
 77
     6
176
     1
 78
     2
176
     1
 67
     7
176
     1
 79
     3
176
     1
170
     0
176
     1
171
     0
176
     1
290
     0
176
     1
 93
       13
176
     1
 44
0.0
176
     1
173
     0
176
     1
1001
ACAD
1000
AcDbSavedByObjectVersion
1070
     0
  0
DICTIONARYVAR
  5
1D2
102
{ACAD_REACTORS
330
1D1
102
}
330
1D1
100
DictionaryVariables
280
     0
  1
1:1
  0
DICTIONARYVAR
  5
1D4
102
{ACAD_REACTORS
330
1D1
102
}
330
1D1
100
DictionaryVariables
280
     0
  1
A-SC4
  0
DICTIONARYVAR
  5
1D3
102
{ACAD_REACTORS
330
1D1
102
}
330
1D1
100
DictionaryVariables
280
     0
  1
STANDARD
  0
DICTIONARYVAR
  5
1DC6A
102
{ACAD_REACTORS
330
1D1
102
}
330
1D1
100
DictionaryVariables
280
     0
  1
Metric50
  0
DICTIONARYVAR
  5
1DC6B
102
{ACAD_REACTORS
330
1D1
102
}
330
1D1
100
DictionaryVariables
280
     0
  1
Metric50
  0
DICTIONARYVAR
  5
1D5
102
{ACAD_REACTORS
330
1D1
102
}
330
1D1
100
DictionaryVariables
280
     0
  1
0
  0
DICTIONARY
  5
2CA89
102
{ACAD_REACTORS
330
2CA87
102
}
330
2CA87
100
AcDbDictionary
281
     1
  0
DICTIONARY
  5
2CA88
102
{ACAD_REACTORS
330
2CA87
102
}
330
2CA87
100
AcDbDictionary
281
     1
  3
140699685089424
350
2CA81
  3
140699685089440
350
2CA82
  3
140699685089456
350
2CA83
  3
140699685089472
350
2CA84
  3
140699685089488
350
2CA85
  3
140699685089504
350
2CA86
  0
DICTIONARY
  5
1DC67
330
1DC4F
100
AcDbDictionary
280
     1
281
     1
  3
ACAD_XREC_ROUNDTRIP
360
2CA4D
  0
DICTIONARY
  5
24049
330
1A7
100
AcDbDictionary
280
     1
281
     1
  3
FBXASSET
360
2404A
  0
DICTIONARY
  5
2CABA
330
1AB
100
AcDbDictionary
280
     1
281
     1
  3
ACAD_XREC_ROUNDTRIP
360
2CABB
  0
DICTIONARY
  5
1DC65
330
1DC4E
100
AcDbDictionary
280
     1
281
     1
  3
ACAD_XREC_ROUNDTRIP
360
2CA4E
  0
DICTIONARY
  5
2CA7E
330
1A9
100
AcDbDictionary
280
     1
281
     1
  3
ACAD_ROUNDTRIP_2008_TABLESTYLE_CELLSTYLEMAP
360
2CA7F
  0
DICTIONARY
  5
2CA92
330
16E
100
AcDbDictionary
280
     1
281
     1
  3
ACAD_XREC_ROUNDTRIP
360
2CA93
  0
DICTIONARY
  5
2CA98
330
171
100
AcDbDictionary
280
     1
281
     1
  3
ACAD_XREC_ROUNDTRIP
360
2CA99
  0
DICTIONARY
  5
2CAA0
330
175
100
AcDbDictionary
280
     1
281
     1
  3
ACAD_XREC_ROUNDTRIP
360
2CAA1
  0
DICTIONARY
  5
2CAA8
330
179
100
AcDbDictionary
280
     1
281
     1
  3
ACAD_XREC_ROUNDTRIP
360
2CAA9
  0
DICTIONARY
  5
2CA9C
330
173
100
AcDbDictionary
280
     1
281
     1
  3
ACAD_XREC_ROUNDTRIP
360
2CA9D
  0
DICTIONARY
  5
2CA9E
330
174
100
AcDbDictionary
280
     1
281
     1
  3
ACAD_XREC_ROUNDTRIP
360
2CA9F
  0
DICTIONARY
  5
2CAAE
330
17C
100
AcDbDictionary
280
     1
281
     1
  3
ACAD_XREC_ROUNDTRIP
360
2CAAF
  0
DICTIONARY
  5
2CAA6
330
178
100
AcDbDictionary
280
     1
281
     1
  3
ACAD_XREC_ROUNDTRIP
360
2CAA7
  0
DICTIONARY
  5
2CA8A
330
16A
100
AcDbDictionary
280
     1
281
     1
  3
ACAD_XREC_ROUNDTRIP
360
2CA8B
  0
DICTIONARY
  5
2CA8C
330
16B
100
AcDbDictionary
280
     1
281
     1
  3
ACAD_XREC_ROUNDTRIP
360
2CA8D
  0
DICTIONARY
  5
2CA8E
330
16C
100
AcDbDictionary
280
     1
281
     1
  3
ACAD_XREC_ROUNDTRIP
360
2CA8F
  0
DICTIONARY
  5
2CA90
330
16D
100
AcDbDictionary
280
     1
281
     1
  3
ACAD_XREC_ROUNDTRIP
360
2CA91
  0
DICTIONARY
  5
2CA96
330
170
100
AcDbDictionary
280
     1
281
     1
  3
ACAD_XREC_ROUNDTRIP
360
2CA97
  0
DICTIONARY
  5
2CAAA
330
17A
100
AcDbDictionary
280
     1
281
     1
  3
ACAD_XREC_ROUNDTRIP
360
2CAAB
  0
DICTIONARY
  5
2CAA4
330
177
100
AcDbDictionary
280
     1
281
     1
  3
ACAD_XREC_ROUNDTRIP
360
2CAA5
  0
DICTIONARY
  5
2CABC
330
1AC
100
AcDbDictionary
280
     1
281
     1
  3
ACAD_XREC_ROUNDTRIP
360
2CABD
  0
DICTIONARY
  5
2CAAC
330
17B
100
AcDbDictionary
280
     1
281
     1
  3
ACAD_XREC_ROUNDTRIP
360
2CAAD
  0
DICTIONARY
  5
2CA9A
330
172
100
AcDbDictionary
280
     1
281
     1
  3
ACAD_XREC_ROUNDTRIP
360
2CA9B
  0
DICTIONARY
  5
2CAB8
330
181
100
AcDbDictionary
280
     1
281
     1
  3
ACAD_XREC_ROUNDTRIP
360
2CAB9
  0
DICTIONARY
  5
2CAB6
330
180
100
AcDbDictionary
280
     1
281
     1
  3
ACAD_XREC_ROUNDTRIP
360
2CAB7
  0
DICTIONARY
  5
2CAB0
330
17D
100
AcDbDictionary
280
     1
281
     1
  3
ACAD_XREC_ROUNDTRIP
360
2CAB1
  0
DICTIONARY
  5
2CAB2
330
17E
100
AcDbDictionary
280
     1
281
     1
  3
ACAD_XREC_ROUNDTRIP
360
2CAB3
  0
DICTIONARY
  5
2CAA2
330
176
100
AcDbDictionary
280
     1
281
     1
  3
ACAD_XREC_ROUNDTRIP
360
2CAA3
  0
DICTIONARY
  5
2CA94
330
16F
100
AcDbDictionary
280
     1
281
     1
  3
ACAD_XREC_ROUNDTRIP
360
2CA95
  0
DICTIONARY
  5
2CAB4
330
17F
100
AcDbDictionary
280
     1
281
     1
  3
ACAD_XREC_ROUNDTRIP
360
2CAB5
  0
XRECORD
  5
2CA81
102
{ACAD_REACTORS
330
2CA88
102
}
330
2CA88
100
AcDbXrecord
280
     1
  1
AcDb_Thumbnail_Schema
102
{ATTRRECORD
341
2CA83
  2
AcDbDs::TreatedAsObjectData
280
     1
291
     1
102
ATTRRECORD}
102
{ATTRRECORD
341
2CA84
  2
AcDbDs::Legacy
280
     1
291
     1
102
ATTRRECORD}
  2
AcDbDs::ID
280
    10
 91
        8
102
{ATTRRECORD
341
2CA85
  2
AcDs:Indexable
280
     1
291
     1
102
ATTRRECORD}
102
{ATTRRECORD
341
2CA86
  2
AcDbDs::HandleAttribute
280
     7
282
     1
102
ATTRRECORD}
  2
Thumbnail_Data
280
    15
 91
        0
  0
XRECORD
  5
2CA82
102
{ACAD_REACTORS
330
2CA88
102
}
330
2CA88
100
AcDbXrecord
280
     1
  1
AcDb3DSolid_ASM_Data
102
{ATTRRECORD
341
2CA83
  2
AcDbDs::TreatedAsObjectData
280
     1
291
     1
102
ATTRRECORD}
102
{ATTRRECORD
341
2CA84
  2
AcDbDs::Legacy
280
     1
291
     1
102
ATTRRECORD}
  2
AcDbDs::ID
280
    10
 91
        8
102
{ATTRRECORD
341
2CA85
  2
AcDs:Indexable
280
     1
291
     1
102
ATTRRECORD}
102
{ATTRRECORD
341
2CA86
  2
AcDbDs::HandleAttribute
280
     7
282
     1
102
ATTRRECORD}
  2
ASM_Data
280
    15
 91
        0
  0
XRECORD
  5
2CA83
102
{ACAD_REACTORS
330
2CA88
102
}
330
2CA88
100
AcDbXrecord
280
     1
  1
AcDbDs::TreatedAsObjectDataSchema
  2
AcDbDs::TreatedAsObjectData
280
     1
 91
        0
  0
XRECORD
  5
2CA84
102
{ACAD_REACTORS
330
2CA88
102
}
330
2CA88
100
AcDbXrecord
280
     1
  1
AcDbDs::LegacySchema
  2
AcDbDs::Legacy
280
     1
 91
        0
  0
XRECORD
  5
2CA85
102
{ACAD_REACTORS
330
2CA88
102
}
330
2CA88
100
AcDbXrecord
280
     1
  1
AcDbDs::IndexedPropertySchema
  2
AcDs:Indexable
280
     1
 91
        0
  0
XRECORD
  5
2CA86
102
{ACAD_REACTORS
330
2CA88
102
}
330
2CA88
100
AcDbXrecord
280
     1
  1
AcDbDs::HandleAttributeSchema
  2
AcDbDs::HandleAttribute
280
     7
 91
        1
284
     1
  0
XRECORD
  5
2CA4D
102
{ACAD_REACTORS
330
1DC67
102
}
330
1DC67
100
AcDbXrecord
280
     1
102
DISPLAYNAME
  1
Metric50
102
FLAGS
 90
        0
  0
XRECORD
  5
2404A
102
{ACAD_REACTORS
330
24049
102
}
330
24049
100
AcDbXrecord
280
     1
 70
     1
 90
-1625056298
 71
     1
  1
04447827-E69A-4374-8F1C-D6C74FC57136
311
504B0304140006080800B85E324C2FFA40E8D5000000200100004F00000033303233343346432D323046392D343046382D414539372D3144343831353935444632422F4173736574446174612F446566696E6974696F6E4974657261746F7250726F706572746965732E62696E454E4B4EC33010755950B160D11B70016327
311
9EC409525595A466C5060E504DC3D0467292AA4EC49625B786B15AD491DEBCF9BFF91142FC5E8C4331637CB3BF677EA19E4E6DF3DE1CA843711B2B7ED8A19F5F7B371CC6B4A64F9CFC18B75EDBD090F7D8D33085C575F4A1C391CFA17F8C4B778CFF428817F667B1A8FFC5882F45C68FE3D30A43A071A98C4E0D1857C954BB
311
528276855C6F4A2B931A8A242BB3DAA5CFEA8DC2309D1A0A4A03802D522B3779B996602CC8C22595ACF3CA82AB329B985C8D87A9DBF5D87AA5D5E585EDB1DFB3F2D9FE00504B0304140006080800B85E324CEDA97C53FD000000300200004500000033303233343346432D323046392D343046382D414539372D3144343831
311
353935444632422F4173736574446174612F496E7374616E636550726F706572746965732E62696EEB606060F80F0540260323103700495E20ED9E9A975A94991C9C9C919A9BA802143030313131B73032D77535B374D435313637D1B5703374D6753173363771733635373436634768046931363471713532B5D435353131
311
D635313332D475727372D13534373670367376B67474B5042A03DBCBA019D37FE8ABC6157B20CD04146B0062181F4C03F940F0C11EA29A8141C08141002C0426541C106CAC2CA046088033B02A030AC2157C6006F21A8018AAF50194E6010A610250382264E08660284CD9E98021862280A91564B406929A0FF62C401E28B6
311
F88038B83CB1243943D7A928312F253505240301C60EA8B409948F4E9B42C5D16933A838820600504B0304140006080800B85E324C88E57597CD3F0000904100006B00000033303233343346432D323046392D343046382D414539372D3144343831353935444632422F5265736F75726365732F30343434373832372D4536
311
39412D343337342D384631432D4436433734464335373133362F7468756D626E61696C2F302F67656E657269635F706E67355B773CD4FF1FBF73E71C0E67EF7576C9DEF3EC995D46C6A1EC5046649CBDF79E192942562825CE965D8A868C2842C8DE9FDFD1F7E7F138F7078FCF6B3F5FCFD7EBFDFEC41B1968919130918040
311
20321D6D7513FC77D8C5070EC3FFEE51B21F068154CC75D455CC028A3EA68992803810109FDDE5D5CEC5521B28A1B422BF80741695D5B529DA1C2D058AD2388BDA9F476F7C2CADC939304173DBF48A452BF8A700C0C70C3D121C1AA15A5270C22E2B9E28763651F7DA0D12CE11077B2ECD0D560B5E3DE2368B1E65C5E1C873
311
84A4CC5F2D9FB8BE39E9B77C753783A37998F5CEF1B4FEE553463245C9712270880DF339E0B882A6BA713D865F6F384C842D440934EF264F4A304F8DE4EEFA1E2BF5E2D91F5ADD9613D6E31DDB33ED31DB1D7916CAF091286EA3D31B9CFECB78BB0060245B943C4C040119FF780A74DD308BA9D028678674EB5504ECF284EE
311
814DAED07440BAF649BE4B55DA2890F4D73E2D489A59EE54FDB0A85B59F2F52C4858A02705C4815A792B0C4A996A2023ECB195073E115E3E3647F64243A8338F2000BCB58DA5692C7E7C3D413F963FEDF3CF00FBB0F831A9D51360FECA43819F527B89FA260EB63C5DA676830AA3626A3693B23F1A17A0DFFCE3EE164E31B5
311
365EDF0C89EF64D8E38AB0BA9A1117D7C3A0EC44F44F4023095E80BA610DE336D0F99593A88BFC5306E72DF98F7FD132ED95878DF2964EA7E43071359FD83B2BDF9C6B5BDF768F0F3C0FC351199526F53D9460A34511F75D1B63E488178569472C91A94497807A3FD4A390C6558F26D416365C3656DE6E769DA9D8FC73774E
311
1709812842DD8EF96AED1960F79D21B395CDDFE6F92CB4EB962A4668C76990E2EF29798C8941D67DA50F4A5F947872460F1F6FDB794E8A29FD7AC0C0D6E0714339CE258FB17AE8535221E3464A10F29A0BE5EEECEFC5675926A89F49EB14E5711894F6586DB5754EB4D5DA9C6437EBA57DB97A24F8B8A8DB295FFD73266CF5
311
7E82694DF5166DDF93573AFE9C9C5EB05F8FEF8E89E0A8917B0B3724DB7BEBB53252581EFC3E38166BA131A3A5B42FE2AD00A769BBFA4458D2DE7822F8C4F63D0B8E21B285AE13325F3410A435C648C9D91FDEB109E73CEDA7BC796961AF79175E1A3CE4C5E8B0D009B0C9E29EFD98BC8E97554E3D8D838424E270F7685226
311
E5AC268E021EDE3522D583E8F20C0BDE2959EF5BBFEEDAB32FE9A3ED0E39F211A86AA9DEBFC68182EDED132AB8BB794442D2D7EA9F4D8BFF52BC4D55BB165124EE90A42D101E67BBBB292FFB4F66DE5BF2300E44546757DA7CEF8932BFC9F92A0707953491A55C5A5ACEDABD9FA1AEA01BAC3DC5A24E22E7C47213493996EF
311
BC369D086ED9397C9BA6C7F9855C7BD5E15BFC8C53DB3D2A4C5901A57ACD2FBDF4D1676E95338B2C2BCE65FDA4C64F5FEFDC7D9CA5AA1FCF11E193F2FDABF0F4916BF13FB916A224380E6462A9815F2300DC49CC4DF8D055CEF76462F4B7A7ACA7365C2707891370BC1D0AA6203C44CCAB47084FEC057F27FFCD57F89B8B98
311
52459798A675C66BD7CE572CAF71FF7E6D7ECF7BF62CAB7B3F1107DCD04DC55A3F9961700286141C94A4F771FEB2BCDA2DDEE0CB0BAE402FF1DB0100F8E475DFFFC074DDB4498AB7D186A7654DDB1CB680D703D47CEB4E72F8CB13D86A4AA68116E26387B93FD6738779B34FEDB8E517EDF2BAF28D9BE93A1D3A164320E07D
311
42E514725C29515FF361754213EDE06B079A2E99EB1CA82A02019EADEEB87B9AF005BD04BBCECB14AACD6B24EFBE482194A97DD32400685FF1FEF1544D1B14EFB1E7F08E6D2CD2AF52DE757F35F5E62332EE88EA26417AD5C3E0E319D68F25414E6D672BD4522B278C57D18F0113921C71D96527E091F00CEB15AE23D24667
311
369BD3CEFA10C7549D930890BA4366F4EBC55F01F746109F98ABCDD5A3EE06619C6AD78AB33E48E4C9BD21BF7478B385EC05C4F8987E2C1BFA0A60EBEDAA0AE0B015C2720ECE180FB6F2DEFBEB822D96338C9B63822183BBF52FB664A7AE57003AABCE512BF77E7E31BDA2E739AC4C131657DDFE5225E900FB56CC01CDE808
311
FA4A9C9DA16AC679656BB64796283D89812B8F91136AE18EE5EBBAF47A73BE3C153EB5D4CD491B4BFB4FE690A4CF9ABA08C0D8AA64220C438C96EA6CA80B58FE5761E697B3A292EB9FBDA502FA863E49FE694ADDFFF9D62C520BDD1A22014147A0903A05B9B729F54272EF83931FEEC057BFF8C8055C279EAC5C0011804828
311
734024F6CFA319C9CC6867C727184465CD9BB7ED386AFFD96B294A85E3802FAE47244602D8273615952B98C4F23F7EAE4463D9D638EEE374A20959E0FE519C4CFB0FBFE5DD80C2AA3F9DB961D1BDE57E67C9BB47B77FDD74EE3094F5DBBE3EBC1FBDB7393F5116263009E2EFE1AF9A221B2AE234C902BF70E9F280ED23E739
311
08361565964333A3F01D0B006AF32FB21AA1316744B489D5A198E85299241735BE559675130955C902A8ED761FC0DBE337A9F91919AF5CE32AF902ADF9AB2615E00E8A94586BA1A90839B61832FF1BFB76D2EFADE6DB1BA04CCAD3DA649E7E2A0219F592E22F2AD54847EEA8E42271011E9074F8F3DD9FBA6CDF88FFC9FC7E
311
811AD1CA8F4557CE4AFC7BBEDCF0114A48689F20A584520C74DA8127124B767E2FB91A6B186246727BE63C9445BAE02088D58B8EFDC0F1072407CD9B89A13F6303B4A928F593AD489B58E6869325790ADC406036C591729FE14021F94B7796BB11848D463536A092A26F077F94639F7CEEE2A724C66EC885F4A24F8B8A0AC3
311
21F8FD149BA529460FAA34E4663C02D41FDF80BCA222D42F0ABFF8490F4FA74C673807C2051D8E467B47B616072860069A9A303ABA9B319D58404461401B0A0F9BE5E1E151C14BC33B32ABE03DDE91708DFAEB15E7C0D593C86BB7D7EC17BE56E57975F077BFD5525F3A1A361D584A75E08CF29FC7B44B2B3085014F3A5A14
311
517377C3F6B8F37E59514C3B12F8AACDEDDA4DFC49BE5710101534CD6FB6DE15B50F11A09472AABA727F0C49D9CB906B158030065F48EB3625E010CEC1D511D0053474B11E6A4F01C0D6EF1BED3A944FDEC70E0DDCDC756C86545910E0DAE3BE3AA9A404574C2995CD5CAF9549226BC94B4F4F0F5F9086F418F6B323464646
311
10D8BC7391D3C3A3CCF04CFC1FB2A3A3170E369511868F14EEA4E5E438CC73DB1F3248AA94B6B2FF33B222FF3D1E7BF146CAD229770158063BCE4F5391964DF62F7E52A7BE0EEA829C9E13C4C147D6F93FE59E111DAB5E4594D6F3CD1AD375EE039930EFE5AF2BB2D41C83C7DABD8C659BAFBE8FAB392CA634F3D15C1D945D
311
B4588D2B0824A4EC928AAC565557CA2F0DAA588CA5BE30B3A8004F7BF005E96CBF891D7F18112A3619FDF530DC8AA64954258E1811789B5189B49B4EB53F5F89F7D37523894F3EB57B373763C91E502F52CC99EB7BDDF933FC324C4FFC2561DFFA7339FAFDD0A4BFBE6D3A8FF9ED1FC49898139864602458968913181918F7
311
19CCF5A68B2EE9C1FF050E34E63107003B8120FA982C21B30A874E4F5E4B38D5A8290C4B8D9BE48A0BE31EA995BDC37AC6DE90BA17D259DEF53605D55922FEB1855D915B659FBEB350EE0DFB2F9F766E1C84CC8964B75D08667445EAB966015F63A18A9E0A325C1B3DC628C0D3CB60F767FA93CC65F25458BD23C3B312716E
311
5F40E5858AC06EBA9AB14F95DB99147B832069201541D09A0D856E12C629CF32683760EE855537D1901988D5EBC156676C7DD51D7207CF3267AF1D76C2AD867315E44618015313A98B19941C696FED3461CAA9B5415F918556D7802EDACEFD6B2E45853A9735DFC9DBF7E440F9319F8B6805A973BCCDC76C069A9144E51F18
311
7EDCC12FC31B5DEAAF0A76137199B106EC84ADA6B6EE697D4E6A96E007417F4E880E8B1E89B4BCE9D81EF611E2ED8F0C1A6C25F620FAFAAB656A7C42D464880E8AFAB0E0FC8EA38CA9A8AEEAEE3E4648BA4680270A89743CDD3E6C6CBF34B7B640EFA285ABC7EA0A1E28F3CC963D114A80123EE66D0AF7D5380EB41909B605
311
AB4765B709B808590458157E69BA1378FEC4B48CAF6A730E3BE3C5EF2DD1A5EAF94B1DDE50CEB55DDFD7EE9A16747FA4B223359FB1FCC69E1194892BABB93A1D5C4E807AC0EA2E30180811E77A2291F6E7F7FAA5E0F60215BC6024E48DE436C511F0628B8CA189982D4D83CCA17D305A7E923C37941CFDFDCD93ACAF735EF5
311
F0E61BBD3E6C41A59B242790D3A3BAC7064DCD89AA2E37214EC839820949D5CAA31E240D2948E48F690298974A96BA9A8432BC90F5071D6537C9666EA4564796B7AFFFA548077BEEA75F63083435074BA182F3699557397F71548383FDA8CA34D99B981E72835ECDA5DDDC151315173D05A21F651AAF8524E88209E2E7A737
311
ED1045800CE3390050BCFB8BE588DF111617874C62575039CA588EEFDEFEFE319B739DE2EDC147092A262611E159650E787917885EF08F1F51B8F2D8A71D60B58B190FEF9541A1BE94BC19FEA50784DA1419FE4B0FB51B8D36B5FF8E1286FD8AF42B91E59A5F1CC4D60174E764045FD8C57B18209B217F89A62252BD20BE0E
311
63E12B8E8F029FE19E0E8D0870F58721A557082250D5424F7909369376E41666C0EE77CD87CB283F661D5FB6D0DA023CB67320A20DC7BE661E9E1BFE5463085C557DA1FF9BE835733766C3D139F2CF9E2208873AD0EB4814DE9E6BF2CAF81614D4D43906ED1C05A3265CABBFE192770FC2F64F940CB6B17B5F166F133C9AEE
311
AD2641807C3E69515171DD74C4A85311513D6EC9530B3B601B6BA3EBFF3B5C3D2F7D69765141E345F75433953D013ADDF8F6AA7DC3F4A7563FE5C7D367937E2900D7EAD0F9FC9A4A1A9B5BDF1FEF08532660C01C5D6DE22199AA774383E306DAB87E301ABB7D213887F9869D4942D0D71E94B27EDF216A318BD488D45DF845
311
29EF575AF3C3938C0AAA0215B01994153E2054A0B894DA5C784980633AAD48576957CF4AEAEAFADC7C587368551C73DBE1E57C58AC713303A8BFC258BD04B51724459FF9E24C03A81E0E0679CEB9B348C0DC998FEB9C6D6EFA77D247CC8F92D3848599ED89A23218D0636465AD1CEEB7DC140D7426F83491C4E8E8281C2FB3
311
5240918FFECE880CA2A42D70E8B20B34DF5221C7DB0CF90ECCB9C745B37A47E9B716FF7A97B7A252C1F3814DC7B1E1A7F72B8751D524EF7CAE45B0C73B3BE7D08ED39781B380DDFC9AA4A4749C9493DB5BAD07A6EA6C092FBD0E85DB004DF06B8C9D3089C5320187E4CE1846158C7EA7DDAE8AD9AFFF21AA3A1026BB06A259
311
845E8232DEE62811A4DA9CEAB3A4887320B76E2AE5615EAB7BDF738CBDD01F1E64064BC13D9EC53576751CA8CACD58B3CEB0E6CA585BD089B2A59B9FC101403387AADBDBE70586B93D64BF3AD4453EF9C3B6A93817E8346991798601344F79A83C51F3D50F7BF2683A3605F51A72449489E0EE6169C749C60B1035651103AE
311
E24D24E51A759C840DD3FC6504DA6FE107510E447B43461C79D22970B75DE5E1BD3007D1AFC619A4A4A69B5626AF5E9B8374E20677F77E2F8E73DF868E8BEC7EBA7B6A75EEF7205E1AB9486CB642741D6E03FF13FCCEDB1C4AC129886268B01CDF4B124AF797CF784F3C6DEC97A17D4B558070A0F1C04DA4FF9BDBF34159AE
311
FE958479824B3F58EBD1E19088A2AFDE501B6F2052368A3FD0E650A179EFAB1561E1D27527077136E652676C3670F42DCB3352F48F6BC86D2C3B0051727E41A0A4DC6CE2BE9D47F5CAA2935A3C0539AF080665997194ABECD723B08129CC5B6B21D2E7D54CD4D12610E7E9FB8306771A89576C7A982002775ED44F3F744CF2
311
1EEBB27A631671D921938AAEE3EB0D19CD1E083727F607823E817BF599DCED5394E37EEBC2E88782E638920CA641EF74D4CDFCDEF06F4278ECB18E31E7E9876F2D783C8BF429C75395F57E98C2B495A3DA077EB3AC3C158608B6B57FE3EA48484D9A480096FCEE0DE880950E7E5A5714131C5C41AAA29FD19AE81AC145FA1B
311
9E85C7169A5AB837B213493DF7E9AA4B5FBF9CDEB36EBD21EF1181B7CF7366AB2A951D01E37AF4EB835D1BE8C117CFBE7625D2EBCDB0B20C5A4B45CED0BCDE3EE8DA9DA78C2E21DEAAFFD1197E463C33CC6A80FB785669B856EFF7A8CCCA2841B5A5369173320B1170C368B2748D81062EA0296E5E2D95D7667A4A46D98A6F
311
F475C76AAB0A8C8D45E226FAFC9FE0133EA9F60111F99CA81ACE03A1D14C89E8B0D69079C91464FA1D99E651D0EAF606F345C42A8A1AA9BA391031582B96D5B4176A77AADB01F12FD298A75DEEBB2C82F0B8650E880722F8DDD90C56A7A058E5FDEF1AC93545BA27367C76F5D8F9690CB6F8DAE141EDD7971F0FB548A2AE43
311
5F224D6E5954CA155512F7332029D5A1230854B79F258EC5FFDB09F5F6343A8EB193229B7F7E79B3E48F8E183860B38C8269D1B53738FF1E0BACF6AADA6D4869E9DE708E79B5DADCC09B1BC76F649731CFAF59A83FD8BAE4C749D66FA87A3810D4D62FFE826FA400C0F325D2BC0F3CA35F5847B82A2ACC7961745C823E4D86
311
3D54460AF792CE6F79B5C7A33B25C3AEA6CDE15A919B6367D781E9D44F61BF828672594A3E1D9EDD6DF179A81F27EAC05B936575D73E05C209DDD2115CFB705DF9BBF3C911589B3640735E9E618FC9C36A7326C82B2205E244C55D56FDB9D5DC93CE958D4BF8174D2B3DA54CB3C09F2C2A6DFF73D23B2197355761AD421EC5
311
81284A7EF8DE2CE3497C0C804D49B41DFD6A7360844E5BEFFB495CFCDB97A4595911CDBA623274CE852B5E278AF0BEB1770E9D37CD977B2766A7DED0E94B840E1E95E8C77DE5CB6354AF7871427C28ADBEEF7BA0A28E19DE9ACD75F379FE373EAE6DDDAE3834692F9C2B03B4FCA8FCA9ABE8EEEBEBB725B88A7C90941E8506
311
82CA04061A7DF0CE82ED49BFAFFD42C309818FAE14755CAAE78B0F73243ECCCAD7DF58FCB9CDFAE7A4D3E6671A613639130D056C8383C8F4FCF4808C331E544DD26E4755D09EA05253B3049A1E32587CC25D72E073E2CD96D04A71BBCB0038FEC3F53D254199C3CDC67CD66640269431860225392B2CB3ECD0B4498AAE78BA
311
1994246AE1EE78F2EDFB79F6C6CB6B5E279C4D373FBC21CB2698C9ACBBEB6A4BB6B39E16AB0E421CCBFC7654D81ED86022F9BB522146F9F4772E2D0E4FA70120C95A85A417BF5078B232F4754363EB1750B2AC2148EB46B1EA72AD9B4D23ADCBC589D70106C3EC2ABEEED84DFE28E718C6C83502C28E9FDD3B09DA0A6F6F7B
311
72B706A31C9E2A331EE70DA56A083D2177BFD63C55B11D8D949FAFCF90B23A1E24B9B5018B9A17E99F2890EC302F330FE7936E2C23F0D237EC8916F5166AB84B62A21BB0B950146962D754F92CC2C8877BED8FC7B7B25726DD19545392570B3A2C66B58F027BEF412E552D12A588C4A3CC5C3193FCB3485EFFF700D0B9EEC0
311
77754A33DC1FB9E25AF814628F91DDFECB667D3F7690803F38D13F8AE39353523BB08FC6760144AFA2CE28236F65EDBB3D5F59A57D612B99E3D7E5F8A851666BF9B5A6658EFC96EEB37A378ABB0EB3FDDF1303AF32C41BD1C8560745D7BD81066B0D6313359CF488563D3BA3F8E2185D1FAA3EBA1397C9D0E3DD232180A4DC
311
ADB6AF25DB3AC3CC26589C8239E66E81547BC7E2F328F9884764CA37EB5DBE390DFC03A5246B456A7C3684C4377D0EEF9A350680FA9A077E8B2957B489E09AB1AD41316944C2254B5984830F691C93CAA767EECF976FA5647538830B5E63236A6F0365C1E0F3E327F24FE35EDDBD7360B0F7374837409F7A6311BECC12B702
311
6D4FA1AE204FA3F5FE904B1F420C7A9044AE58E403E7C4848E7DA25DC9EDAC79DD756FAA26B9EA83ACE8A214A2612A22AFA19DAE7DBAC5F8CDE1292A485F98DAC731A29FE01A3966E96BCB9FB5A4C8830E1B9AF0C54B87FBE221A097036E5D28D1F869F810C06A9BB0AC0612F69AEBAF893C6E7AD59460208BAB3A6B09CA4F
311
6BDDAB8CF0D1F84B72487498395A70DCD754796E271099A567A55CF242BBED64696378BB6CF25EF0FCDB589F3A82F1116D010A9AB9FA4358809EE0C973A2B4229BAA876A70B03AB49CBA7FBE71DB1832FFD32F9BF2C8E98075CACAFB36921235D0F552B6A67E94E094097A5D7DF681B40623DA535ADA7A9AD8E9A62407D7C9
311
A5AE51D62A17A83A23728DE86BB56115804D3F2675F2C6B87541A0FC497BF0CA86420F558C9859EBE9FAD62747E323E3AADC03FDCDDFE7407B09DA90B44E3185723C5381EAEF589765E2F7A099BA46695BAD60CEF3491B8A171F5F56444F7CE9455312C3498C74173AEA0214EC029833B34B650CBB5A5508D5091665309642
311
791708ECF27CF11DB3D797D6CFE474453BD4BFADB768094B2147814D81C7CBAF8228DCAF5564B5891F5EF6A860EB2E323CB82AB868D8EA048880D63B0DE5341F1B3D53297B928A11E15F25E5148990F710747C3509ED14909C552EBE3973246FCE55D00564D8310BC3EBC5085D08D806799B77D6C57FDF5E55837F9E934F09
311
C03C729271B64F12D0A9F9E938107CAF7BF1EC8CF1BB9B42363D33070F4CACB425E605DDB0A34A12BB936DE286B9887A4E2E558F0886498BFF49C311D96C277CF6A9FC0D75AD0ECC5226D7E0E3572012E56D7FDE4410CEC7A6D0F997F225A2055B8B92E3956E875AE4993CB3D4C9063AF98FD45E1BAB165640A43439A2C918
311
1A7C355B297C0A0CCFFAE19B6FA3C2BA238A885FBC98B8F6DAF4B94B97304878DF4D8BFF6A4AEDF79E90ED4E68F00CD7299F4E0D83E35601AF0CBEF18C1E870E74758FA91F5131075004DB3CFCF09AE1DABC11957FD9808C92E8A678CE9DBE40DDA0E0D1D505AAFBCBA208232BFB6FB3704E8985E61ADE53DE74152F5C7DE7
311
4B1DEDCD37DC3E8FB30D7EBA8B9EFFC3606BF90B8D438279CB7709FC7C00D327F41817EEA71CD9E49FE9C8C9A81C70915D9F0F15958EC5AA4C3BBFAF46986B90F188BDB24B89DE3C6F29EC3E6F66D84856EE96A35E657CA41B41EFD8DBFA16AD6E91439EA92B40B21C053249F51AE50EB0B24C770FFAF40DF12C8436366819
311
C48E36547D4E7B72FE2BBF10828583057814A668BDF183F6B2E58DFB151103E56303E63D00F39C27C4661605DB644D19175D02E3F0241E8FC3458D17AAAADB117CE9EEA690D0DB01E634878C04C2C9310B69FCAB831151E3AD293BEF6E46B0ABCECB50F5939B39C613D41E81FAE8D34CAE3C4566B761D37185FE864AC32FCB
311
71AEF39DAA5BAB88609BB980CD2F07A8F941653B529567726E2B2A58D079DD57E1E5E31426CF184A04D7B03B985F276D47406AF276FE32E3328BA866EB1FD39BEF57863A317634AA5FE467409B3873F5069EF0D71AF00AD189D17BA1974ECDB2D623E9E14086386A6AAB5807825C37B015BFE892AFD154920EC437EB945D95
311
8E18622E1E0FE2FA06557CE4BB9BBD05A2D40E774DA2B65473791E314B7D6C886820B2FCFE4AA272B3B8B15E7344A145E8AF919B5454D89D36D413E87211186BF6F645E5EC94DCCE8E1C799022E4EC9BC86D7A0F2AFB1FC4B2CE48F84B3F49ECE65BAD24CADCC07EFF39AB06BE9E6B27A059938EA7208838455383DDBCFCD9
311
67DDE4650EF92A14FF933C975DB20BD7FEEBC4487576485963D757D16340D9599FEB362F775F38CA4185A86F74B629C81B133644A3B18FD056E997E0734F9BE26D11C0AAFC669E2AC9FC41D281F8B2E1C35AE27BCE05F3DA295488096688719D974DF1B5D182DB7792288697F8763CFB43562C1CDEE11C4AABD5C22B6E33F6
311
F389CFC3477C5919DC0D533F8A7A1846B7ADB60ABDC26C43D0CFC8910B7C15EE22675BD02702ED39DB77A87A192CA7A543E6205B979B9F5A6B512A3CA799E198B2D5797C0AF8D1D872CA455D4D431A7879D4DD76110B5FF7F4176B54477A9EB5E4A5D11214FDA585F0382751D8E2582BA5D2075053298FEB8F1537304E32CB
311
22C2E2B693DC0A760B1DFCA751BDC445AFDCBB12820ED85F6D5298933C7EF1211E9E057684056CDA3FEF3BB6052355E162DF27C59E965A8DDB7F9437EB72CDDA3A090DE65A5B2F50326247B7EC67B73ACC7047FC9B353D6EE990F772207C6EC52B39DC2F3C0754821DAB559F7C1809C7D0DD5B0499D0442E0A6E391B3D5DB4
311
6D11E731E6794EC77523FBDAA242ED67F9FA1FB684255671F63C9BCFE6E7E896D51001A6113EF2298BA494E0B0980D1FA5B9D60796554C02256B1E0345FB7C6186B6A19D2DCA270416262845FA4F42DB5D9B0A0B6F07FCA2E56C242522E001E0CEB734AF310FC8BFB57E38E03AACE93B3326A2197891E68452B26A6307FDAB
311
FEE0223D3C03C3C73D2D5BC054C8311F12004CAE488E5C29287F8156A2CAA4AD0D7BE6B97264E4139F437CE73ADF52E5134C52B819777C18B323A5924E4F67AFD13B1CDC3A61793A79FAF5C0CEB718E441071E797C6DCCB9EFCF7E4A1E9F3DF3C2F9C9E8294E9586868788C972857FB0556D7A26941A7EEB9B580AD78EC40B
311
85DC906B4120A563CA3B87797ED612D3B035962BB75F6515A393F4CB057F564CDF54F2E5A024514E6A1F901DB80C7E70B1FC05E356A7E72FABF4775B3E3FB8F70A2A8E7B6A94542BB304157978CCC999E707A29CC795E67A59CC546A5D47B368954CA7B6E75EC9E1F6FC73CE3B4F71F8CB1A6B15923D61EAAEB14626AAA9D0
311
4A26EB9C66CD1BE86CA31A5D8703DE04CD1EBCE4F5CCB62F93909AD11E55799A781A956ED27D3E738F4538CB04ADABC7DAEF20BC35BA6A90BCC1DC61BA05F20D8832FFB9BC9B15E2DB838A0AFBB7E0C82A562127E0446894F427794C3037186F622BF24DE1B00AA10A23BFA47B2A180D6DA5AD6F7326FEB8C100C2D7142EB2
311
A0B2A9D1008A09BA343D70E054AB69E2A7EDB783CBD92537FAF4A44D1296AC2792729104B3276C276C951D0CF3CF3F1E6B017720A7B8505A5FF9589365979678C36F1BAF759EAF57C60F1FF5FE9DCF5F8E764FF25A2D06CF25117A8FED51884C13B2B750DB0E4F5E3D64124FCF11F0AD8F1CC3B3DA4B38ED22BF1CB2585EE6
311
BFEBBA63FBFD44F9537B9B37BDD6B358720F98A8125AED4349CCFEB0E135F19E208A04CA7E2B10711185D72E381F448036EF57C9F874E54A971CA37A639E986AC0226DC5AA00D5B14FEA9192234B3DE617814FC221C92F33F1D392F297731B567FD98FD91D989379AF567A65B8ADF177591DB90FBEA99BF4ED11B16E50A0AB
311
1DBF1156D034BBE04D69D08F939D8E92BF525A1DDAFF80ECBC95D8F45D3FDD289FD23F7D8B452F8EBB34EC082DEEE68E18EDDF072060FAD2AB1504DD4879BF67099FC58F6E9DEFBF645D16334A3E9A127C6F1AF6132CF287E433B43A0EE93812B4AA0B194E03EE3FF91EF9C6ED0074A2F6EB18A96A7C9890B1FCDA1F2095E9
311
44DB911ED54C60DF16FB74C8CE9BDC7C54C4F14078CF73C2FFF1F1BBCCD7CF64F71407EA1683DBC410D226627F66E509060D5C0AFD611DE681D509DB8DD12FB1265B03C6F5C55FF4C30BD94187FF692B4F152982502F193098A789526A038AB529A52BC0DC4FB6285CBAC10A8B8DB75DCD9BDABBB221E27D1F8DA9F5EE5926
311
A1C8AA9BA9BC09239C6A7F12914EA3B59EFF7AAEC3FFCCE56F1C5C2980AD072793527565E774F4631DB178CEEC691B1F367BEA0CF2907E1D6B854D527065979DDEF002D8B2ACEA7CE21AE297737EDE1D45B31233B73FEA35BCFDD0B09721FDBAF6432681F2FD10C3E9EFB246FD6E854B344ACC9D8A0EEF876A7314B49B6A49
311
9FC650B099D650DBFEC7638ADFD245E2B7839DA5AC5F7D5623FC0ECEEC8653FC9B2BDD1AD4D00A566FBA7186DD3C9CD26512551637498CADB950FEC71ADB9A5524285DE328B8EC7EC75D2345AEC6A27C42AF6D9B92155315C80DBFCABBB7DA0FAE425C4FB896B15C9BFAC4FE67DF5A23D30C93DA4D8F36FB15D100050DA606
311
2E22AEC5F4DAC4F6FEEF97AE05DE63C6D38F9E068A20BC5E3B6BCD75320C5090924E7F93640A7735B1A43451C2D91EE62C6238B797349E59890AF3A520DF4A87095F3ABEC2E61F0593416CE46CDCBE0E00E2523FCCD04408588B5B6C9DB6459C786CE378770B54F51DA3A5E1DF2A3349BEAAC234A6CF8993B598B3B25B4B11
311
3E353A4D750FA7534749430F3EBF2512E7EA3FD43C6AB9A1F765A58463B306721A15D224FAFE8C6F5E3432D57EE697DA0DD5A9D4866A8BCCAAA9DFF1F06047851408FEC060471D0E3EB86BFAF46E4B5E60311DC3E3CEA147C75CF971BE74689507154FF2D2E92F15CDB2B9182B11459FD8ACAC5A85F174BC94A7F4EE4C4F5C
311
AFA7C02E37BF0BC77B7DCD0C047BC316F562A01A441AFA7931CC84A28CB9F4AA367EB515778F29BFE61195FA671F4352E5E46E3A64773F1F76EE5EB36D7BCE9BCEAD837A4D77F8DB8C92AEEF6711920D7C7D0F76B0FD0EB7AB83724CD35BCA7D36DDDF5FBB7FF6F04A91F3E2BB3B8F1A43CD659639507FF6331C5F697BCC78
311
2AE57D757A27D97F1AB9E0AEDB43F92F1B2AACDF5FEC8ADBAF9F814E2027003BA2F9E144B1938A7A04050AE5D953B82C45619165C813A10E76DD6906B3C16438064D14CDA713AEC420034613E1AC7241904A49FBF87409AFB1FCB9B72FE7933A87D8FBEDACECE4EDCF6A4FE9FB94D5DEB74FAB7CFEAE17EE965DF980DCCA2D
311
04134994F9A2E94D2265DA4FE6AA7B7AC15FACAC2B5ABBCD7DFF542C5314FDAB2E1B9D8B65220B8E2B638BE008E8DCA22678C820C5053664D15E89F2D735B51A84955E81A443545E9FF787BE0FA700A76D136C27DA179A7C6E8939E01BE756E19CB292798063D8B97F44E8A27BCF3A614FEB8BE974A718E86F7EC99B53CA35
311
FA24F61F2B07266684623A3D4CF073E511F3A10A8FDAFAF0078C577F4DF9D339FE7862E5FA47CF4344209E5BF76D783B1B48E152AD281B15FCB934DCDA49CEC5706B1EE8B460F435324A5CAD154725E21AB8044B75A557A79F6C807B9340AA3D92503E866F4274412926C8C504E4D5EF8C0E68DD0B028781A6B4054F11CF18
311
941F101C57CCC796773ABC8DED9CD91FE5788806C05E548895354AEAC96546D55B0E94A59F148D061F42AA398D822CDECA4CDE79E13469BDCC44FDC990F366BA5978C15F97ED80CBFD73B0CD9B8B83A4F6845BDFBFAF034019473FB9A63BD55D3A4A7284757071574029A4D016DCCBE95DD679EF3C4880BF169422F8C89B68
311
A988D2B13793CAED4F74DE7486C72DC94DF46B8E93D8E02EFCB1FF9B3BA10C8AE7F653DF94F4AF466CDDCEF5776687F7C4C14B63E4EED1719DC2EC482D7DBCC7AE518CDE3D5FF86D39000EC3673C0044E1D308BF05F74D1B5F033A7D1BE7F74BC55BBE3E4A20F920946CA0271EB17BD2B80E5660ACB8A29A79F5E4BBA49D4D
311
945B6EEF4A7EFEAA65E5555BBB57A7E15D2F83C69F30BBB978D2B39F1F26FC097424D39BB33CA3D87ABF64E307938B685BAD44F71556A30B7E712CA4FE600613C3E554B69ADE949A7CFE214DF1FFF05CB82151EC6FC31950239F94CF7AD39DC473F6EA356E5EC2C4EFA04383CEFE985A127484366FBEE3C0EC4FEA363E4F66
311
32AE781392FD45D67B63FB8DF70E82734F431FD3443172A0E30A83D60982D55FA6A2CF86DBA8382502ACC6CDEF3B907982EED1160E14863FA242F9757347E1544275CCDCF71ECD5F8621CBEA326B8BA884AD7F825781923E66971F04010D574C541D8427A438A37EEF8AF88240EED7362C953F5A81DE2D56109CDE2524EA0F
311
5D2F87308C0C47BD97AD605878AB8589E17CA83930CB5E0DCCD75853D68B1AB136594926DE426C367428E9334AFAFF90ECE221BB5DC9E5BB53D2CDEF954EAA9CD814F0E5725F1965DD458E5F8487683AD86B9D0076BE3EE91EB1CECC5331A67A3F79D8B27587C12EC2A6A70474749F27B4C0BBAFB94B34189E88DC18964BE4
311
121B9137FD516C7755356E50D6714E31ACD222621EBBCD1CFF81D87479056A9DA0E0B8EA19D24CF937DA89F78E8650CCBDC110AAB6C4E46DCBFD0446BA9E2060E81F314AC2031E88135E5476AC0160EF5C0DD2EEF1B8B5CB2D198BE9A554A9093B5F7D7E4B5407DDFCA1D9C152FD97F55BFFFDFE802954DFEC8995B983E28A
311
C92F1971E28F531DC407A1280EB125F64A72E617EFB27DFBCEDCDA2D6F2BDADA36873EE46B9BE1782998C63DA7182BC383FB6FD15DA472B175D7E8B4FC88F38D6E07FEAA3FA3CBB8F6B449ECF14D2175E5C5CCA3A42ABF24CA6C9395AF74535F4DDB38CB84F56614B0FD32D7E19CA5CF988DB4449C40E23DF2B16772594554
311
579094450F56F253CD25EA7F77366FB1CFE79696C428BB64D5A41E986189427E5E4D7E2DAE3D5BB4972B3DC44EAABDDDD63A2264ECFA5C786EB0EE1FDC5BE34FA0F08376869FD1E61EA06CAE15191135445EE8F0394161C3266A596AA035572BB0C8876180D8B9C77D307DF9DCDF7365ABDA6F3A2366436457A4DFC1F25966
311
6569A9E4A79C817BDD5610E5200FCE894A358EC72858D50EF67545DA81C6FACE3D457BAF70367E1E6BDD9A952FB4F56247F58F523B97E640246051A72F79BE42FFA0B3187F63097F91C48B868586F714B0EBD5A00A8412C1236E1298F60C72BE6C96B82B404CADAA304AE9F303176B14BA53FBC2D5E86377E35542019E24D9
311
7B96A49B2C0E5006E7795954DEAF5DA58958839043C6C70BD3B1B33B6DC5C31316D8A6923F142E26F6711A2258AF977DDF1F970ECC4F1F2B434B96D81BEB6E89BF3BBB3C7C8CC80505070723D6D7D7D3C8CA27CA164A26024FED94B12A86031867241DA53D929636DA600F050BC40CE48B8BA03D69224720DEE2ED2127390B
311
DF5E6EA64527BBD4C4C63FA76BB801FEEC0E61218EC98A8A86CD8313781617877E66692839B9468CF4DB8E50A73986E558E309C0D6F676F921BE02F1185454DC75B111572FF9D27D85EA14C05AD7271225B391C4275659CA4A43759D0BA44639BE4C30A84DB7F67A41399FB95CBF923B1B1672ABC807C1590557FB18D81198
311
3FA97F5E609516D62281D38B1281F68FC75528C35E4CD7DF0F7DBB5E5DD69C414EBEA2F4A5B241B996BA77AE6C772E367408C633EA3E438B68563EA8BE7667F3A4C4FDEEA52ABD78A2820F443B7914A15F180018D231E64519C56A12F6CA7C8DAE18F06F6B769DBF92329EF6A5D18FBCE600F36BD8E8198DE5CDAA96181F3A
311
756EBA5501CEE58F497EA4F418A2B82565B9BCC611713C0B708CCA1F398B78C5F7D03B3437CC18F13061F55C7BEDADD5ACB1DB0E36D3CE47FF6EA1A563A57E9649EA5D14D1A50EAA457463381C073777EF1600607BAF6428A7DDC079D47A204EF1E1F1F0589FB054D45E02CE623B3823C317C601E589E22B1E88B448524B86
311
A82828E32345EC18AE17214B42F8C41C6D428016D9BA31DDCB47572561E5A402E5BA4FCE55F78AF7268524AA04130F3A20BA5D1E9F9948EA48FC8F5314FDB35E21898198060034ACE5E3E2BBCA34092518F275190AF65F45867FF0900AA4B81F25427414C372BF51DC29AA855C5428EE1EEDD6B849AD60F6E73475C2D2523F
311
8A2772C840A478DED18A8C5C91B085F255DC4F54EA7AA8947354FD17ECF8FB3B4A0DE7B483CAF3A1165EE05BBA413E5C1FEF3DE1D6B8F2F3F3251C17D9FCAB48A9AAF63AC773A0E413BBC46A9ADF84A566FC920E4D8C52C9769EE3301CADEEEDD92B312E02E2A7E35B7F1E7D203FE5A7D75578B06E99D0E46FFADB8FDA17ED
311
8880390DA29094202D6F645F76F6F96409CDA05495A96E84B04A00D1A6C6C81D7F3DE9376E828CCF144EE50E364ACCE7237EA0BFB5607ED1AC3CFE73794E5B61739D14DF1743441B1AC98F00ECEDE9E7301FA29755FBEFA68C91EF2B314CF510537EF1ABFC9A762496280B546F5EDAAF8A5B387D469FC9A878A92828C88608
311
453ACEC6094DCA54111E7AD5B2663DFE2DD151B7F123B9F4FEF8EE36AB125FD7AD52A59B1B765B3E3F73E3F73DEA93875004D2AFFE3CDE9493B87A9904DD052028949041A91DC0E1BA47BA714343FD5B25E0A6A09503AFC17C790058A836A324FE31D7893512E28230332F153181C1E018E1124EBE1BA262AA428A518237D1
311
EA7275E48C5C561BD19ED6912EDD8367DA0F31E40EEAE9683DA9257525AEA7B632B97119E17145A90231768A4F3B9120FF32E8319B015E3CBE26F1A754177D8185345817C096B0CE443A955D13AC15E1FB5DEEA0239EC32A3C92241A237B0B02FFCB4F93CF2B02570C8D192E2F2A68CEEB42F12E6F8CEEFF46C251E22B4341
311
C56FB08CCE550E7A9D6F4D6564B9EA52A83D5BF2C6E03FA19D2775E15A8A7ACF30A13C259EE7F5EF2AC3BA354F1500E1A07FC63FB4686E2F12EC69719F9ECF5FE3F35598DF2CE944008CE78F0911BA5BE5D0A34E0098FF038669C26030BA9B300303039852A8F6F496341737CA7E0D2E3AAA36DE0A70AA7D9CA0D54D9AD84B
311
18A44C9E625475E1C97B93BEBB38DCE7D227E67A2D00F531436136355F243D1FC0D712C5765754FA22FCFFAE97919161F46D6E61ACB37D83777B385889770B50765B127768443A5C4D3A4E35A3151111F146B7CA116F918A049F1C272F2CD7976C69A0068773451659A97E0F4A08FE604C3FF6CE7385DB19F4D3ABC8A0D80D
311
A8A42096AC377DB49382B36E270B6FA7570188B4B7D1DDDDA82ACA487CCA5D38BD3BD039ADBAFA4ACFF27809239B722081E2EB9F145320553D183F28471C388BC8814E5045676767AB58A8E72D1CED2CA731379515D2E533E4CF0B39DFC625F97AC4836831A4DE330E87A8126FA17EBE583D614E71E22A8DBF2825599743E0
311
640037303E8E1B1E8EA4E1ABFA4F62907B5E4E0E5DCFDAB417C36C6848A2B8D15F1E505434C0707E16B1CFC2A1C36A42BBF55734F8F4301DDC2A5110CEE8C0747F69519265012A2174BF4E955ECD4FDE095A3ABC70536B7AD0B9D7892F81287D667C108703C9B66A221E9A0929D030008F77FF6F5D2108EF5706FC87A3069B
311
976F7C9FC3239D13D283CDEA83597461079FEEE049B0F392889898B7D87D31F8D60ED7B56B91823A8E4EDDB36C6172ECEE42BD42B12CD67994FA0F0DFAE9389356F4CD4425A4B8AA55CBF7ECD585C6A2C2316791E43D5C06841ADBB226A87FD61515FFBB0167B74E56BD7F3E90A57A97FEDCBDF483A0D6699A8C0849CAEB49
311
47FAA90D8E332D9DEBD9F4738C37DA0CAF9CF3DAA68BCB67C420459C7A64498D6E848E5CADE92BB6901F607AA331104A67F7CD650EE169B1DAE94D2C31C2F993632259B6957E246EFE4C5481107B07118607700040E5812A2A2A38DA0076875258C753F60E0F2662C748EDD5F3F3686B8FC3BD6FE631ECCAA1E8B1C1E565AD
311
117E54893E79F4672E32F9E46B2A183DFDCF3EECB4D4D077DBEA0DA254D256045109670050129E9B9B1A9E4A11344D61497A992778095151510C4BB7EF2009B63AA4360635312E4CF668B7E0D3D85A8688E2BD83B569439892ADB63461930D428E0DE42E4AC57CE48DA5CC1449530D8BD3D6A0F08DF20C8E8F570F2CFFFCEA
311
286E30969B4654D498A58D9DA782E19FE3F002181838925592C4A1EF0B332D88B61A92C644547BED490D3A42CFFAB70E36D961F694F6307F72FF15A1C79D5B1B5CEFD353D9E2B52566DEC8F8F09CB3E8359C0F68EBBB7898243E34E12A015B2685AB303C04D3A9E00671FF3DFF0A184E4A2ABEB2B666AF5B3A209C73D8EF29
311
DCDB069C9F391EEE9DD0F74C7BCDE16F8F02E3B8816122BBEB50665775B600549D8BB33A54A6BF940C028118BC6878C79958D6784F9DEAA6E26748386FFAF8D0D0101E2847B6563F5D8DC1D78F787BE00E2C941AE12148D4A81599FE8F68D4DA5CDED75530ADE138240300EE13B0FC13A1687FED6774662C05A2B7DFB18673
311
2F0D7A93545D8B0A6390AE5054D9CB582DA846D7A061B3358B45E2B52DDE63E114397EDB7E09233A579155D795BE76102CF277F4DF8B188C4F2879BEAE3C08347124BF9ED23B128259FE107D31E34A652F090B30B39E0D9AF917B76A2806135621A8A60681F16AF216514BBD02711585B5B1AE823F4B2D0369EA5B6BCB8630
311
72727FFC871CA6C9AB79A814D989057E9470A3D238BC87CBB4A0EA49AFE2B86F22E499793CAA9047080450166BDC357524561E258C77CB697F1ABB32562CF87C3B7AA12F911EF19FB3E5C02222E887D08202A60A17151F5E053A86B437771088B4FEE14D652C43E8D939995D34545E12E2FF93D4E366EAD25F10CB7DED1415
311
63C3D0C447AF06078A91135FD4B9611583CB4BF3BD167F2399CEAB0E0100F8FFC305F00F1711717173138B4B48C83022295DE657EFEDD97F238ECA80F528AFB4F8D67AD4E2594B9A3AA86D7487EFC313BA95745C186F0CDD84CC12DC9CB0424B42203D351FD9C0A3AF10CC7F388E0329279087386421F194F4A29464C1DEF7
311
EF8BE515E4A199DCD5B909342598D8FE6A231F71336248D5CEC5454455C7BE383B3BC7B260FED27F703FDC39A170F3827239102F59D4DEE7FEF82EAA1A5E4BA94DCC4CC44E7E2EDE20F24244E4454369D2E87C3F823F193FD4FD27E1C23984B01898D15ABC20711A8A558054951A6AE280096BA36CBA439603B7B0B4C45F24
311
8C14B2383B4B5CD8ECECE4FF859AD4A6CA2326D020EF090F4041D28DB66E5256B56232CC52829DE8060BAE6BBF37D4B7469B822454FE93210A3E8D15E69FFCF01123222611C51C4FD0A041A0CFA2471CF6BE38D2B20FA4C3525B5B8B586759475CF80ADFE67A284AC24651E52B8E683D24C2622642F27E7C3C22783BCF6364
311
8BC398BD6CD0D9C97E7E7E3EACB6126DB7A6C1FD9F1031302EE67ED96F22B77C7CA0239BB324207559B105E4693EB26EC46182A92C9C0DBD24F29B31C5C5AC1F84300E0E17CEEAC15F5736FA4A98971E2F1423BFCD68D4BBD5F86E74B40A369F39507C88FCDB35D2DD8DEBEA4AF999E23CF2816D204200DF6E611781B9884C
311
1AC8888B4DE397320472959434323A5A36B22A8E1F721A270DF3BD65E4A31C11FF048AFB0D8B7B6881423793963A23CFCE935FC189ED36FAE35C46DA3574C979E4394BE52084F3081837BE033396D2EBD80F1F691B273F660D2B32FA27A33B1DE4ADA5F0FA4651511102DFA410DDA86E065272CA314D5249DF91B06BB92807
311
B28EFD54F08F7B525252782CD276DD02E6B0319B13DF87B1F6361AD6B28FC0D711CF445429B9E5A433CD493051C49A9E03DDB1B147D880253514A5DED88009018620EE229101C041950E2D8AA8E1F5F5438E0C0C0C60EEDEE9E3E0C051948C69F84BB7B2A48A1F3C8EB9E6864687F4F4F6F6E2FA87608ADAF9C5E117B7C1A7
311
37E710769DA1D15ECE6A84502AA855398712D5FB51BE92E4EF824969CE18278798AC303C2C7980DD2500ADF8FB1E6D6C2FAAFF9987178923334A244758BAA01A9A1B70FA5097D01E1CC2A58DAD0EC94CE6430AA9B0C10D75E3C6BAC670EFBADEE1607739CE0FC18A2587E3EC3058562014C64219C69BC269082D5C2F4A6592
311
78D585755912176D78A1B641719C2A394CED495A1AC5D583FD2F5EDD93308EA7EAE8A6DD396598BDBD3D4CFED62D18A5BDFDE0DD5C80D1A89BA62697B131AE7CE9A6594138582F1B37D68F1749AC7CB67A70695D48A4A056AC1FBD4E82358CEAE38F54B95A9016F9000F9879C0D9D131768635CA798895F27D6F1614F11F28
311
38A83611AA51C9A3DDB539D42979C29F10465655C17BEC3E2760B80DCBF609198C7B171A531905F3EC218D696025975E986C6B4C666666787271F202805577DD5A3EF0CAFAF91B62DC4B2DB4217A7606282F31D8DDBC290593BAA93EA6353AFA9939B877978481E15CFC9F2755CDC00C538F63A4BA3E80AE009B73CA018568
311
7D339A507D165B74290D6EE46D5C58148F020C3668ABE9EF2F7549170DC80DB41FFC1D678FF19AEB10C7133832B104B80F691B3138F97A92D26E551F1F110400D45AC71A9B9AC41A1A1B1DAEED0B0810638EFFB511D46B121C6FEA0F38CD00E03CFFEB9713FE1F9C263E4DDEC160D0497FA9A132BA608584057FB15380825D
311
E6C7FC3C667EE947D488A09898D8E939C4953BF4EC9836344D2CC6B2971B2A21A572B06096F4982D2CC7232D46E8EA69DC83722E267754D777F97F96D5DA74E1E75178084D0E70F12AD33E5F71EF2AFA599B2BEBF60A5BE475F444F240CBFE8143C334E7ED9150FEEFEF7EB020C4DBED388DD1D6A167A76F3CBF119B578AE8
311
CFA7736ACAFA4440A1C47185638A0D2F3EB5BDDEFDA958FB13CE4AA4923D5BF840392D45544329525749734866684BF7F8D9D54D892E19BCA9F829A0F8BFCBEEA6CFDFC61D74EA1A645ED7A1FF241739F15694BD835B66FEC5677E40FE69BD3F91AE402F036537218A401CB0828604AD189E575015C6F3F6BBC8AC79CF6C70
311
653847254B31551EFCBEB5978B9DB85D58D0FA41A9DFE9C624834AA04949D24B5AE6D299E072D152D12097920F14AA92C31C3B97E28B6C2E6E9C23D63043ECBBC0A60FDF5BD0C33C127EA8A3308B8B6AFFEB28B4455BF6E7AF4FC6222728357EB8E46E85053E6A8843AB23295BF838ABDA94658FEF3F832F147046B4ACD6F7
311
D48E8FCC9618582961C898D1C7A253C91BFECBDA6BA18A1FCF70755DCCEE2222F41B76D23CA98D0CB3D95F0CF66D57FFF65E2A90F5DF40FC3187621E981BD0BC1D992787212688976B94A8F0C6EF646624B570B78E068826F87CE27041A95C9A4871FF65CC17FCB1639629AD6A9517000D63AC231F3D741CB8430777E7ECF8
311
0CE7A3F73C0F162F7E56AA71F4DA80A33CD6ACEE78E2C11FAC03DAFCE929B106F8F6B3ED2DC71FF994BD9CEF4E9A94896EF1B6E2B7B4978168BCF0847A3D2A4F1B0500B926E634B174548E9FBAD27153FB5FC36799B1E6C7C38A94E1F9E996796D7B485E635D5287A2AE76FBD11A341DB3F8F810385BB7296391973DC6C37C
311
452A9305AEBBE0CDB6C566DB59FE60C8E94B1FD090354BF51439FFD1B48D725228FFA88C84F686F547107A7A235665A4593B7C34D748C1AC8D56DD5DA861EEFBADDECBBD65117E65851F90351AEB65F0EFCFF4BCFEF24CB7A5879699FAC437A7AF9099186CF006BB923A59E37D7A36A29FD8D2CBB914A5E9D0A8FD212FBF79
311
6AE9A67958FF1D5D8B85F78F96219D4714EB919929241B6C018AAE0C02069F8D919961EC5DDFBFB7573E3AC8E08BFB7C8534BE6DE045B3CD63DBD71F7638BA2309CAE398EA3A7D8F98BBBC7AEB367EFA5CFA27A9F8F2F52FE878058E6209C026453F8E7E8A237DFC389E9590F6059B397CFD65183BBF936E86896612A5B5FE
311
E49DAC8455D026218AFEBEC12B3523A45B57B82C9C97E02ACFA1184DB18E48CF615DBF39C3CC6F0B4AE6BBEEA2E39D944E290302FA3DE33FA7E40296E2EF7BF1CD855BBECFAD0FD622BEE9746FC4FDFDE545AE6E3BC234CADF83A0FB76DFB145BF3828AE3436368AC24989454F8FF70A177672C711CAA1A76107218CF948CA
311
01F873520E7A2B118EBB161ABAD432932029628B6761590C98AB590C8C8C79798CE9F715BA696E839E9131A4BB68BE923F1747FBFF165331FFDD4D05997ACD168F12CA75348DAC04C7F509FE83898A8B421181AF492861CE81E4A2DD0A30850CFA95E05F097FF70F9E777310D584A75BA7018922E271DAB1D785671157685B
311
7D383D3E074DDB4F1E44EF04B07BAAC75A062077C54B9752C738C9D804D402E02851F3F89605AF189738C18C021D2139EAF72513824E10DDD3047BACC8521ED7E98B257D1166903B1B08FA6F918FD7E162913FEC7D0EF4787E29C35FBA8C6E2C9C20E9AB30AE42CA2A01A090E7D010C1B5BF9CEE2A304BF3A987FB40D83697
311
9B79E18D70F257DA61E808472DD85B82761825779D6B90CAEB0F23360C6F80A7D7D77545E95B3DFF0CF96A827F9B5BCECD2C9698718417EF80FEEDEE938AFF55859D0D540B7FE09435583A6F04874A0C7E8CF234DF4879722000167F5872CEC6BF3EF7E5A8CC8121E6A359227C8A29C95212F9F735BC72A887D56B8F309FC5
311
25BFB4FD767AAEC4AEFF249CFBBD2DE1AB9969A6155C7D8DABC307E47324C1F916C7BCFF40ABA5644E9FFB9238D19ADADA49D9610F01ABBA57E4DFCBDCCBB2B93C8953206C91DE01B0E2651A6D6C31721915B31F7B7CBCE55466F6D70402788FA91D73BE4ADCBA99A35F17D6B83383704917D6833F0FA3CD45C926ADB8BC17
311
999A4A0AFBCE2541F7B8CF4C2F5FBA611B3E626D64407CB32C122DFF4EF8674D6EDBB86C8F7C6A16D50FA685E2CCA34F8F7D1D8265BB0042E9D7F1F666F7BE5FAA5184DF58E12122A42EF02F461B3F369AC746F96528AD208512AB56844CF75B97F352DF7995024FB02855385854F3798670D01CAC771AC3E1889EC25F61A2
311
0C1F8CAB46898817F9C47E2CDA1F286BF2F358298709FE567C91133E2638C8B53975E753EA8BFD3578B5F7186B7BF084EBA3F77BAC3132A5779902EC22AF2D2E79F42D324E083386DAEE9810D1B44A5DAA54513C7A71E52A4AB9257D975B621308FE4D2141CC3DCFE946C154A3C1DFCCA7629EC69ACFA831634ADDA93C0388
311
D2A9A2DDAFCF957C6995BCE7FBB6DC4EBAE79E63EB08E9A25F52F67076F7093CA545CA3053B5BF576DEAD4E0017143C5F759F32B2D6F145B52B67B48909B7C7FCA6586EE385A2189C16932CB6DDFD9152AE317C430492A578ED27B72D85D40C7C93C097939E1B50F4D67F05334FE9DC362C30B7FF561B95259138ECFD9274C
311
8D695C31B14D4EAA9F3D7FA8DDF652F8C5DEFA23284C799B7D94416DEE81E05A866302DC70192A5368EA65E1CED8BF107A1E2D3119A71E85DC1A7B0C1E93274CE04DD0F2ABC8AC7C987FDB002B6F81757B43502EF7A0D92E416494FAEEA4C9C090CD9557AA4D532F4996A272B94355C5A0E4974EEA9627476F30809B94D8D8
311
D860062E02204643BEC7D0438AF800FC7E2B26955D595421E83C69E1A07E0E3122285835F014AD538188CF9737CE76D464A353FA55A001AB2526B84E985083693BC76FE211CA1D000679C889E3C009832C87E1AC2EDD05C302557422DF0800E316FCAC86978A371F025A6C7DAA9F333E7BD160403A1A06EA75AA9888FF0150
311
4B0304140006080800B85E324C28BB58AF800100009E0500003D00000033303233343346432D323046392D343046382D414539372D3144343831353935444632422F536368656D61732F436F6D6D6F6E536368656D612E786D6CBD544D4FC23018BEFB2B96DE15493C78601010A34B880709DEDFB52FD0D8B54BD70DF6EFED
311
3AC0B12E6442E2716BFB3CEFF3D18E26FB440405EA8C2B1992E1C323095052C5B8DC842437EBFB673219DF8DA659866649B798C078B48AE6410122242F2A4994AC7F93815DF85C049C8564CA0A901499DD886B2EB9B1E02448F358701A9235880C49A0119892A20C89D1B9FD768815CAD268CB5E0355B40B1E47F3E37A2020
311
464BED06AA57CE8FCC20C3C3446D46761A2632A8C1283D07031EFF2AE7CCB1BFEEE916E406DFAC8E36FFD99A9D60A6944090EEDC3B670C7DC13DE86B6B2C5C240D6E503BB85ACD579D513F1B9F9A69DC9CC22AFA80C426D40AF0B21EA168559156B6276F0F726A6BFF04DCD513A87A62CAD41FB24FCB2858B3952E3D852084
311
DA25B9303C15687973CC8E8AAE11DF2836C38C6A9E765E8C1BA1BFB1DC29CDFE518C8B5A7655A4ED7E77291ABEB80DBD82EC866ADE1B8D05AF9E35CF09D7A061F38A986D9EC412B8F0F65E5D81534D9B231D1E5A8FE577A241F3A5FD01504B0304140006080800B85E324C2CCEBD668A040000E01200003E00000033303233
311
343346432D323046392D343046382D414539372D3144343831353935444632422F536368656D61732F47656E65726963536368656D612E786D6CD5586D6FDB380CFE7EBF42F0F7A649B70E1B90744856B4970F450FCD7A5F05459613EDE4174872DADCAF3F522F8ED3B88D2F1D06AC4050DBA2493EE4438AF2F8EB73AEC846
311
6823CB62928C06C384888297A92C5693A4B6D9D9E7E4EBD51FE3A931C22EF85AE4EC6AFC38BF261BA626C9AD288496DC3F4FCEAFC63366845F7A10452AF41DB320C0D44EC26EAB20918735565582695670811A6A49643A49A6E9069FA4604A64B29016DC4B48552F95E4932463CA888468C1D2B250DB4962750DF7CE273069
311
CE8363F1FF4EDB00E0A21999574AE4A2B00C353B93F3BD4777B8A61ED8F604ABFEDD79CE56A2B7BDFBDBC50996E0ADDE16FED26223C5D30956C29BDF4A55EA686E5E58B112DA45CE67F76F4FA27EFA3FB672FD7372FC388FAECDCA5209E693CAD167BADCD272F943701B3812F8A3D852008B1D2E32DB927B2F833C6EA95879
311
925356D254582695095A3CE982924720BE5774A3CB9CDCDB350427D2DF20DA1B5532EBE2D5D6288D75D4F7E4FD9890A0EF8E3D93EBB8F8BA4758158EF6FB90A6F9520281C93DE7AAC6D24607DA296BB96018123F821A7D6A5C5884050C475DA4865442732C8B95684A50165CBB3A32F25F783A4A480ED59AD7F924B968AEA5
311
0131F46303223E6A397B0E52976030DC1DCA81D7E7C1EDEEA42C19FF27635C505E2BD5198A599020DF50A2330FCB3AAF28CB0124108429553EF1B228802E2265D8F7CC2401042B155BCC7070F1E5C55F13B4A9577362CCCE46C32174E010C3C378C44841A4BDA00FE3A12006CE11EE6AEC59894D3526DDE1CD59D503ECC324
311
017F8061B7F162162FA62EDD81AE3308617770796DCBDAD2B2625C5AE8A63DE20B2C8AA5E95E76E5730823955956E33E705425A2187C185D36489A1B44D3DCEC2172F6BA2105C3546287A7194B2331768EBBE64F6E70A9930ABE0ADEA89E9E2C38523B810287AD67A54A039C1606EAFE68F8304610BB9093DBDDABC0B2AE4E
311
290DCDA15376D7E39F72B556F0B32EAB5D3D498B4C41ABADEC3A1434C422D87E8025A84BDCB2B1417ED750FAE4DA8976863974C577C7F902D3F156AD354DEA3540DE6BEAE2BEA52F7A2EB4CA43802ECE5BF2CE2EDC9347179FFB023CE412E60BE16DA0BE29B374988A553F561DC04615DD35F7D2C8979F60E5955CE93DF29D
311
ED8AFA1EE6642D53418086C03C47C377910F75F7E8F5EF665F70B60FFB22AEDF897D119E8423C773E819A3C1E55E550599EE6EDCA34D0C86FD72057DF2CD46F16A470682471C164E4346D5306BF12D7D12D82CFF673D41636C347443FEB51B50D72EA171A8E4A58623A4A16E0FA2B8B10A0D23268D87C33896EE8FB73305A7
311
4BF224EDBADFA0BD674AB354D63DB7BD5D83426761C077DE767728235446A552754EB93B755891C3C4CC6CADE37CF0E912A7BB38DBA010F9DE1282EDF470CA69A9CDA482E334C4A6EA4107987980B17E72F31730EBF88BBD39E7C629F56797A3C0009C2C5AE7951D9A05A02773440F02EEB4DE396A3B6A570C72CCFBCD823B
311
0B8ED3F1D5CEDDFED772FA70236C83FB7D86C385D570B87107535572A60A96035F8F7C6A7192F13007246BBE0521855E6AC46F3E27689CEE7D186A6FD679D98CDCAD13333E04EBE7ED6F55FF01504B0304140006080800B85E324C6180134D5F0100006B0300004500000033303233343346432D323046392D343046382D41
311
4539372D3144343831353935444632422F536368656D61732F52656E6465724D6174657269616C536368656D612E786D6CA5934D6FC2300C86EFFB1551EEE343DBA41D1A103009551ADAD40EAE28A4A68D9426284961FCFBE5A340113B2071746D3F765EBF4DC6BFB5407BD0862B49F0B037C0082453059725C18DDD3EBFE3
311
F1E829991803366715D474942CD30FB4A782E00C64017A412D684E454CE3FE28995203B162A6EA5AC94B66997D225E109CD63B0135484BAD1B3C07E9080CA35DB3119C11BCA5C200461A68A1A438126C75E3E230D40FF81FB3F03C91D1E3A3A0AF79FE28E25BC39EC3E17E4C2A2D94A0833A51AF55BCCA7D88572FCBAC529C
311
4140B020FC3AAFA886621DCED7EAD7664CC86024E806DC297DA1BB393E4156543457A4537DB8817349A70F8ACBF09B3EEE2CB2F33E91B65D60786E4E3B39B77E3FEEEF5650424525DA657FB8B46BE6BF064646F0A0F7327C0BC1BC1B4CBBC1C419FA3CCB23500007872A2580CAAE5461865565294E4EDB4617B62FF579DF9A
311
5B2F54E834076A597573A020912FED777F9B3F504B0304140006080800B85E324C5B09FFAF51000000570000004700000033303233343346432D323046392D343046382D414539372D3144343831353935444632422F4173736574446174612F41737365745461626C654F66436F6E74656E74732E62696E53616060303031
311
3131B73032D77535B374D435313637D1B5703374D67531733637717336353734361302AACB4D2C492DCA4CCC492C28484D2C4ACC4B4E050A82012F90744FCD03CA26072767A4E6260200504B0304140006080800B85E324CF865834058000000680000004500000033303233343346432D323046392D343046382D41453937
311
2D3144343831353935444632422F4173736574446174612F53747265616D56657273696F6E5461626C652E696E66558CBD0A80300C06F73E4B117FB66E451741D041DC5BF98480A492E4FDD18EAEC7DD4555D89EF28DF51A0B1BD8340C4DE7DD848B988C0ACF0649566493F2408C508DDEBB99D5129FF8F1AF8CF5B9503E20
311
FAE5A16B5AF702504B0304140006080800B85E324C16992B2F340100009A0400003600000033303233343346432D323046392D343046382D414539372D3144343831353935444632422F4173736574446174612F636E782E786D6CCD943F4FC33010C5BF4AE43D76CC1F29AA1C5708964E205131B05D9D4BB1EAD8917D41F0
311
EDB1DB0C20105387AEE777E7E79FFC4EAD3F4657BD634C36F88E49DEB00ABD09BDF5FB8ECD34D42DABD65AC510E89B8C551E46EC582933ADF631CCD352EA7180D995AAB3FEB014EF5242DAC2CEE1E3701F3CA1A7C42AE320A58E25F38623709829F4980EBC07022E79C414E668304F223BE232C94404C29EE9AB46B675236B
311
D96EA55CDD5EAF6EDA57258A52AB5D086ED1DB7C590C53654EB732DD28518EB59AA35D34E52D4CFFE591EFAC57222BB54A143393A5833EA7DC01D3E4AC01CAE8443084546711C2A8C449AC95280C7E9078C0C17A5B5A36D91850884FD91E46B2787144FEF37A7E321B9F08BCC1CBE5F1DBE1F9293C1F7FD0CB2990C7C45C5A
311
4E7E3BE4D60F67488938AE911C9AB255F417504B0304140006080800B85E324CBB4533EFE30000005E0100006700000033303233343346432D323046392D343046382D414539372D3144343831353935444632422F5265736F75726365732F30343434373832372D453639412D343337342D384631432D4436433734464335
311
373133362F7468756D626E61696C2F302F636E782E786D6C4D90CD6EC4200C845F05714F08FD91A215615FA2A75E2A97785354821198AA7DFB42CB614FB6663E599E31D7EF33882FCCC553DCA49E1729303ADA7D3C3659F936AD525CADC9447C874911E1C44D76595A7364AA69483BDEA086AE061F3F877860C4ECDD5B8A87
311
142E40299B2CEE034F98A132ED583EE71D18663D672C54B3C37680FD89E380CB088CBBB40F8B5EA7454F7A7DD1FAF2FC78795A5F8DEAA435EF4461F03E32664AC2515B62FB6631AADBD6D4EC07D323487BF79A51CDB4A6706EE907C43FA9419052F00EB895A4C831F2D42084D3A87FD81AD5D3B6F157459BBD19FB0B504B03
311
04140006080800B85E324CA233C2345D000000800000006500000033303233343346432D323046392D343046382D414539372D3144343831353935444632422F5265736F75726365732F30343434373832372D453639412D343337342D384631432D4436433734464335373133362F7468756D626E61696C2F636E782E786D
311
6C4D8B490E80201004BF42E6EE76F3C0F216234B883063108CCF170C074F95AE5473F5C4C06E932E4F28601967600677D21E9D8092EDB002539227A2FCCB80E1168D80A6417297A89C5D6963B7129A0D1E8F2EE73AA7B62BBEB8B27DE50B504B0304140006080800B85E324CBE89762363000000880000005B000000333032
311
33343346432D323046392D343046382D414539372D3144343831353935444632422F5265736F75726365732F30343434373832372D453639412D343337342D384631432D4436433734464335373133362F636E782E786D6C4DCC3B0E80201004D0AB90EDFD75167CCE820A4A845D83603CBE602CAC26799919AEEEE0D965E2
311
E908050C6D0FCCE04C8BC355404EB6198129C92351FAD580A10E464065907C8D948F8F166375F655BDC3FDC3B4E530A176BE7057BDC43B2A593FE403504B0304140006080800B85E324C8326AA047E000000A30000003600000033303233343346432D323046392D343046382D414539372D3144343831353935444632422F
311
5265736F75726365732F636E782E786D6C4D8CD10AC22018465F45FE7B6B3653037584B5F718CD0D99D3B0193D7E1ABBE8EA83C3778EEC3EAB476F9B5E2E0605E4D000B2E11147176605799BB000D4699962DCFE6E80C2B05A05158396738AF9B9A3D14E43F6957A17961D3694522E4E1CDFD9E58A69CB29163D31F8C60CA7
311
BD3973D2B2621CAB52E6D72B5BF3FA0B504B0304140006080800B85E324CF29EF13C080100004F0300003400000033303233343346432D323046392D343046382D414539372D3144343831353935444632422F536368656D61732F636E782E786D6CCD93BB6E032114447F65456F58F29056168B8B14A9D224A9D211B8B691
311
81BBE211257F1FD850D852BAA47007C3119A192E62F7E9DDF00131590C33E1742403048DC686C34C4ADE6F2632ECA48888F90C2343501E66D26422C5216259BA6460AF8A6BAAB3E1D4C507F41EC38B3E825764D04EA53493B46EA92A190DA413352A2BCA698484256AA83764EBA1DFA023A80C86C89B914F9B916FF8F4CAF9
311
F6FE767B37BD09D64829DE115DE76DC810711934D645A87646C1DAB11425DACEB40C449E7BA3B50DC12A2145CAB176D0C9FCB554522D8BB35AE55A155BC11F460AD6A25E047E8400D1EAEB4C7C61EEDF223F4330109FEA2B45ABDC7526FFCDE3DF0A60EBECD711685F417E03504B0304140006080800B85E324CE3603EBE7A
311
000000C20000002C00000033303233343346432D323046392D343046382D414539372D3144343831353935444632422F636E782E786D6C6DCD410EC2201085E1AB90D9DBEACE05D09878023D01A1D34A8419C380F1F82DA68B9AB8FDFEC93C3D7C52546FCC12980C9CBA232824CF63A0D9402DD3E10C6AB03A3397DD192872
311
090D3406ABE7CCF5B5D18893ABB1690CF4DCF02282E5EA8A5BB96FFE536F285CB347F95BEFFE81C9ED5AFF9D5B1FB575BB00504B0304140006080800B85E324C84CF0FEE7F000000A300000007000000636E782E786D6C4D8CDF0AC2201C465F457EF796FF460AEAA896EF319A1BD2A6615BF4F869ECA2AB0F0EDF39BAFD2C
311
337AFBFC0A291AA00702C8C77B1A429C0C6CEB8825A0D6EA9CD2FA770314FBC51BA818AC9E72DA9E3B1AFCD86F73A573888F1D72C2B8E0EE8A19710A0BE2243EDFD409D34E48DAA8A673EC528C6355CAFC7A656BDE7E01504B0304140006080800B85E324CCA1DF9C9A900000073010000130000005B436F6E74656E745F54
311
797065735D2E786D6CA590410EC2300C04BF12E5DEBA70400835E500FC800F84E0B411AD13252E2ABF27A55740421CEDDDD9B55CEFA7A117778CC979527255565220197F75D42A39B22DB652EC9BFAFC089844F65252B2630E3B80643A1C742A7D40CA8AF571D09CC7D842D0E6A65B8475556DC07862242E78CE904D7D44AB
311
C79EC569CAEBA537E3521C16DF5CA5A40EA17746733E0B6615DE7217475F386F18B9481C510F1F021CD9FF027EA0E1F5C4E609504B0304140006080800B85E324C3DEE336E64000000790000001B0000006175746F6465736B2D64657369676E2D7061636B6167652E786D6C35CBC10E83200C00D05F21DCA56CA76D41FC96
311
062B120735B69A7DBE268BB7777961F8D5AF396893C2ADB70FE7ADA196782C2DF776D7A97B5933C430F15651E5469C55D70F80A4992A3ADC954792C525AE70A1E4D6AD9816CC044FEFDF01FE3FDE907802504B0304140006080800B85E324C266D922BF9000000960100003700000033303233343346432D323046392D3430
311
46382D414539372D3144343831353935444632422F4173736574446174612F636F72652E786D6C8550CB6E833010FC15B47703064248641C412ABEA0A7DE2CDBA156828DFCA8F2F9B50395DA534FBB9A9D9DD91D72792E8FEC4B5AA78CEE01E72564527323949E7B08FE863AC82E945863FC2F1A649A2DB287040325B33561
311
DD216EB4973AA1DA08B983CC39E921E38FD8F4E0F8A75C58CE828F0C77CF57C6EF6C9639CE371E252128B1AF2A11D5D44D490B7468A77A3A0D036A5A5CA1E6DA8CA8ABCB23C2ED741D4FD5D81CDB8A14699912AF961F776E25F35200AD4ADCA11223DCBD637C3ED4E7A6FB20456252E2BC8D3FEFA6E9BB6897AE7E639E9162
311
9BFE510DABF85F3528EDEB6A57DD361C501C8F7C0D2829524AB1BC228C35254ABF01504B0304140006080800B85E324C41843A57F40000008E0100006800000033303233343346432D323046392D343046382D414539372D3144343831353935444632422F5265736F75726365732F30343434373832372D453639412D3433
311
37342D384631432D4436433734464335373133362F7468756D626E61696C2F302F636F72652E786D6C8550CB6E833010FC15B47703064A48641C4124BEA0A7DE2CDB2156828DFC88F2F9B50395DA534FBB9A9D99DD1D727E2D8FEC29AD5346F780F31232A9B9114ACF3D047F451D64674AAC31FE170D32CD16D943828192D9
311
9AB0EE1037DA4B9D506D84DC41E69CF490F1476C7A70FC261796B3E023C3DDF395F13B9B658EF38D4749084AEC5225A29BBA2A69810EED544FC761404D8B2BD45C9A1175757940B89D2EE3B11A9B435B91228929F16AF9D9CEAD645E0AA055893B546284BB4F8C4F1FF5A9E9BE48919894386FE3CFFBD2F41DD092141BFAC7
311
2DACE27FB7A0B4AFABDD6D5338A0381EF71E5052A474627947176B4A927E03504B0304140006080800B85E324C46A3A329FA000000960100006600000033303233343346432D323046392D343046382D414539372D3144343831353935444632422F5265736F75726365732F30343434373832372D453639412D343337342D
311
384631432D4436433734464335373133362F7468756D626E61696C2F636F72652E786D6C8550CB6E833010FC15B47703064A48641C4124BEA0A7DE5CDB2156C0467E44FDFCDA0995DA534FBB9A9D99DD1D72FE5A97EC21AD5346F780F31232A9B9114ACF3D047F451D64674AAC31FE170D32CD56D943828192D99AB0ED1037
311
DA4B9D506D84DC41E69CF490F125363D387E932BCB59F091E1EEF9C6F89DCD32C7F98B4749084AEC5225A29BBA2A69810EED544FC761404D8B2BD45C9A1175757940B89D2EE3B11A9B435B91228929F16AFDD9CEAD645E0AA055893B546284BB778C4F6FF5A9E93E48919894386FE3CFFBD2F41D507F0BEBA7666A21C56BFA
311
C7356CE27FD7A0B4AFABDDF5A57040713CF239A0A44829C5F28C30D69428FD06504B0304140006080800B85E324C599C16E60D010000B10100005C00000033303233343346432D323046392D343046382D414539372D3144343831353935444632422F5265736F75726365732F30343434373832372D453639412D34333734
311
2D384631432D4436433734464335373133362F636F72652E786D6C8590C16EC32010447FC5DA3BB6B109900813256EFD053DF5866CE2A2C41019A8FAF985C495DA534F8B86191E3BE2F8B5DC8A4FBD7AE36C07B8ACA1D0767493B17307315C1087E228C5EA5CF86583C2AA4577906590625E5DBC6FD2E86CD036ABD64D7A13
311
95F73A4031DED2A1033F7EE845952A86E4F0D7F2AEC6AB9A7589CBA74F8A18CDB445CD945E3317A35790273AB4C3FE744284E206919E9C116F6B86301DFAF3BE3913461B51E5B014C12C3FF471D52AE8096453638E6A8C307FC3F8B06B0F84BF8B2A3BA5F0614D3B6FD0BC1DC89A10C278C3D02BDD2766CB08E203EED10BED
311
1919FA1DC32D15D533F80718EFD3FFC0686C689B0DF84C789038FDFF712145950B4CE3D16E9AB96CF90D504B0304140006080800B85E324CB231F576FA000000960100003700000033303233343346432D323046392D343046382D414539372D3144343831353935444632422F5265736F75726365732F636F72652E786D6C
311
8550CB6E833010FC15B47703064A48641C91487C40D5536F96D9502BC1467E54FDFCDA814AEDA9A75DCDCECCEE0E3B7F2D8FEC13AD5346F740F31232D4D24C4ACF3D047F231D6467CEAC31FE170D322D16EC21C1C0D96C4D5877481AED5127549B09775038871E32F9884D0F4E7EE02272117C64B87BBE0A791733E634DF78
311
9C85A0A65DAAA6E8A66E0A2DF0A11DEBF1380CA46969459A6B73215D5D1E086DC7EBE5585D9A435BB1228939F36AF9D92E2D0A8F13F0AAA41D2929A1DD1BA5A797FAD474EFAC484CCE9CB7F1E77D69FA0EF82B3A13AC44C78A6DFAC735ACD3FFAE41695F57BBEBA670C0693CF239E0AC4829C5F28C30D69428FF06504B0304
311
140006080800B85E324CCE2486A2F7000000940100003500000033303233343346432D323046392D343046382D414539372D3144343831353935444632422F536368656D61732F636F72652E786D6C8550CB6E833010FC15B47703064A48641C41247EA03DF566D90EB5126CE447D5CFAF0D546A4F3DED6A76667677C8F56B
311
79669FD23A65740F382F21939A1BA1F4DC43F077D44176A5C41AE37FD120D36C913D24182899AD09EB0171A3BDD409D546C80364CE490F197FC6A607C73FE4C272167C64B847BE32FE60B3CC71BEF32809418943AA44745377252DD0A19DEAE93C0CA86971859A5B33A2AE2E4F08B7D36D3C5763736A2B522431255E2D3FDB
311
B995CC4B01B42A71874A8C70F786F1E5A5BE34DD3B29129312E76DFCF9589ABE03FABADDE948B1CFFE788655FCEF1994F6757578EE0A0714C713B7012545CA28962DC058539EF41B504B0304140006080800B85E324C91159B7801010000D70100002D00000033303233343346432D323046392D343046382D414539372D31
311
44343831353935444632422F636F72652E786D6C9591DD4EC42010855FA5997B5AE84FA41BCA465DFB045E798730DB25BB85A650E3E34B6D8D7AA75790C377663833E2F83EDEB2379C83F5AE039653C8D0696FAC1B3A58E29970C88E52CCDEC71F18644E8DD8C12A8314C3EC976997B47711DDAA3A6F701755081821D3B774
311
E920E80B8E2A574B4C44B8E693D2573560CEF28D9322DAF1CBAA6754110DC892324E28238C3F337668AA43CD5F44B192522CD6C5AADC9BE1F88A26F3534C914036A2D85E13B558B333D6A43FDAB3C5196445CBAAAEFA4752D2BE2535ED39B97F6AEF083BD59C356D73EACB87542499A508714E93D98BAC33F8AB7D33FE4AB6
311
4CE69FC9364700C9BE4315EB98A5283E7790CE7525F203504B0304140006080800B85E324CB4A02A2A08010000B201000008000000636F72652E786D6C8D50CB6E833010FC156BEF060C9490C83882487C414FBDB9D8A156C0467E44EDDFD74EA8D4DE7A5A6B6676673CF4FCB92EE82EAD53467740B20290D493114ACF1D04
311
7FC52DA033A3D618FF4B0648F3557690606074B6266C3B3419EDA54EA83642EE20774E7A40D3121F1DB8E943AE3CE3C14785BB651B9F6E7C9619C99E3A46BD5A7F56272BB9970258599016170493F69590D34B75AADB379A2725A32128B15B2911DDD555490BAC6FC66A3CF63DAE1B52E2FA520FB8AD8A0326CD78198EE550
311
1F9A92E6699951E76DFCF37E24E6F4C8F17BF2A5F99362F4DD986517C4500219BD7C012B689E883FA1C326FE115A695F95FBC1E786034662A007118D5383713CEA8D33B5CDBE01504B01021400140006080800B85E324C2FFA40E8D5000000200100004F000000000000000000000000000000000033303233343346432D32
311
3046392D343046382D414539372D3144343831353935444632422F4173736574446174612F446566696E6974696F6E4974657261746F7250726F706572746965732E62696E504B01021400140006080800B85E324CEDA97C53FD0000003002000045000000000000000000000000004201000033303233343346432D323046
311
392D343046382D414539372D3144343831353935444632422F4173736574446174612F496E7374616E636550726F706572746965732E62696E504B01021400140006080800B85E324C88E57597CD3F0000904100006B00000000000000000000000000A202000033303233343346432D323046392D343046382D414539372D
311
3144343831353935444632422F5265736F75726365732F30343434373832372D453639412D343337342D384631432D4436433734464335373133362F7468756D626E61696C2F302F67656E657269635F706E67504B01021400140006080800B85E324C28BB58AF800100009E0500003D00000000000000000000000000F842
311
000033303233343346432D323046392D343046382D414539372D3144343831353935444632422F536368656D61732F436F6D6D6F6E536368656D612E786D6C504B01021400140006080800B85E324C2CCEBD668A040000E01200003E00000000000000000000000000D344000033303233343346432D323046392D34304638
311
2D414539372D3144343831353935444632422F536368656D61732F47656E65726963536368656D612E786D6C504B01021400140006080800B85E324C6180134D5F0100006B0300004500000000000000000000000000B949000033303233343346432D323046392D343046382D414539372D3144343831353935444632422F
311
536368656D61732F52656E6465724D6174657269616C536368656D612E786D6C504B01021400140006080800B85E324C5B09FFAF510000005700000047000000000000000000000000007B4B000033303233343346432D323046392D343046382D414539372D3144343831353935444632422F4173736574446174612F4173
311
7365745461626C654F66436F6E74656E74732E62696E504B01021400140006080800B85E324CF865834058000000680000004500000000000000000000000000314C000033303233343346432D323046392D343046382D414539372D3144343831353935444632422F4173736574446174612F53747265616D56657273696F
311
6E5461626C652E696E66504B01021400140006080800B85E324C16992B2F340100009A0400003600000000000000000000000000EC4C000033303233343346432D323046392D343046382D414539372D3144343831353935444632422F4173736574446174612F636E782E786D6C504B01021400140006080800B85E324CBB
311
4533EFE30000005E0100006700000000000000000000000000744E000033303233343346432D323046392D343046382D414539372D3144343831353935444632422F5265736F75726365732F30343434373832372D453639412D343337342D384631432D4436433734464335373133362F7468756D626E61696C2F302F636E
311
782E786D6C504B01021400140006080800B85E324CA233C2345D000000800000006500000000000000000000000000DC4F000033303233343346432D323046392D343046382D414539372D3144343831353935444632422F5265736F75726365732F30343434373832372D453639412D343337342D384631432D4436433734
311
464335373133362F7468756D626E61696C2F636E782E786D6C504B01021400140006080800B85E324CBE89762363000000880000005B00000000000000000000000000BC50000033303233343346432D323046392D343046382D414539372D3144343831353935444632422F5265736F75726365732F30343434373832372D
311
453639412D343337342D384631432D4436433734464335373133362F636E782E786D6C504B01021400140006080800B85E324C8326AA047E000000A300000036000000000000000000000000009851000033303233343346432D323046392D343046382D414539372D3144343831353935444632422F5265736F7572636573
311
2F636E782E786D6C504B01021400140006080800B85E324CF29EF13C080100004F03000034000000000000000000000000006A52000033303233343346432D323046392D343046382D414539372D3144343831353935444632422F536368656D61732F636E782E786D6C504B01021400140006080800B85E324CE3603EBE7A
311
000000C20000002C00000000000000000000000000C453000033303233343346432D323046392D343046382D414539372D3144343831353935444632422F636E782E786D6C504B01021400140006080800B85E324C84CF0FEE7F000000A3000000070000000000000000000000000088540000636E782E786D6C504B010214
311
00140006080800B85E324CCA1DF9C9A90000007301000013000000000000000000000000002C5500005B436F6E74656E745F54797065735D2E786D6C504B01021400140006080800B85E324C3DEE336E64000000790000001B00000000000000000000000000065600006175746F6465736B2D64657369676E2D7061636B61
311
67652E786D6C504B01021400140006080800B85E324C266D922BF9000000960100003700000000000000000000000000A356000033303233343346432D323046392D343046382D414539372D3144343831353935444632422F4173736574446174612F636F72652E786D6C504B01021400140006080800B85E324C41843A57
311
F40000008E0100006800000000000000000000000000F157000033303233343346432D323046392D343046382D414539372D3144343831353935444632422F5265736F75726365732F30343434373832372D453639412D343337342D384631432D4436433734464335373133362F7468756D626E61696C2F302F636F72652E
311
786D6C504B01021400140006080800B85E324C46A3A329FA0000009601000066000000000000000000000000006B59000033303233343346432D323046392D343046382D414539372D3144343831353935444632422F5265736F75726365732F30343434373832372D453639412D343337342D384631432D44364337344643
311
35373133362F7468756D626E61696C2F636F72652E786D6C504B01021400140006080800B85E324C599C16E60D010000B10100005C00000000000000000000000000E95A000033303233343346432D323046392D343046382D414539372D3144343831353935444632422F5265736F75726365732F30343434373832372D45
311
3639412D343337342D384631432D4436433734464335373133362F636F72652E786D6C504B01021400140006080800B85E324CB231F576FA000000960100003700000000000000000000000000705C000033303233343346432D323046392D343046382D414539372D3144343831353935444632422F5265736F7572636573
311
2F636F72652E786D6C504B01021400140006080800B85E324CCE2486A2F7000000940100003500000000000000000000000000BF5D000033303233343346432D323046392D343046382D414539372D3144343831353935444632422F536368656D61732F636F72652E786D6C504B01021400140006080800B85E324C91159B
311
7801010000D70100002D00000000000000000000000000095F000033303233343346432D323046392D343046382D414539372D3144343831353935444632422F636F72652E786D6C504B01021400140006080800B85E324CB4A02A2A08010000B2010000080000000000000000000000000055600000636F72652E786D6C50
311
4B0506000000001A001A00210B0000836100000000
310
504B0304140006080800B85E324C000000000000000000000000370000006662782F38423531453646342D414241322D343037372D383634332D3844413142323637313136412F617474726962757465732E62696E504B0304140006080800B85E324C000000000000000000000000350000006662782F3842353145364634
310
2D414241322D343037372D383634332D3844413142323637313136412F76657274696365732E62696E504B0304140006080800B85E324CF270F1330600000004000000360000006662782F38423531453646342D414241322D343037372D383634332D3844413142323637313136412F747269616E676C65732E62696E6366
310
60600000504B0304140006080800B85E324C88E57597CD3F000090410000420000006662782F38423531453646342D414241322D343037372D383634332D3844413142323637313136412F7265736F75726365732F322F305F67656E657269632E706E67355B773CD4FF1FBF73E71C0E67EF7576C9DEF3EC995D46C6A1EC50
310
46649CBDF79E192942562825CE965D8A868C2842C8DE9FDFD1F7E7F138F7078FCF6B3F5FCFD7EBFDFEC41B196891913091804020321D6D7513FC77D8C5070EC3FFEE51B21F068154CC75D455CC028A3EA68992803810109FDDE5D5CEC5521B28A1B422BF80741695D5B529DA1C2D058AD2388BDA9F476F7C2CADC939304173
310
DBF48A452BF8A700C0C70C3D121C1AA15A5270C22E2B9E28763651F7DA0D12CE11077B2ECD0D560B5E3DE2368B1E65C5E1C87384A4CC5F2D9FB8BE39E9B77C753783A37998F5CEF1B4FEE553463245C9712270880DF339E0B882A6BA713D865F6F384C842D440934EF264F4A304F8DE4EEFA1E2BF5E2D91F5ADD9613D6E31D
310
DB33ED31DB1D7916CAF091286EA3D31B9CFECB78BB0060245B943C4C040119FF780A74DD308BA9D028678674EB5504ECF284EE814DAED07440BAF649BE4B55DA2890F4D73E2D489A59EE54FDB0A85B59F2F52C4858A02705C4815A792B0C4A996A2023ECB195073E115E3E3647F64243A8338F2000BCB58DA5692C7E7C3D41
310
3F963FEDF3CF00FBB0F831A9D51360FECA43819F527B89FA260EB63C5DA676830AA3626A3693B23F1A17A0DFFCE3EE164E31B5365EDF0C89EF64D8E38AB0BA9A1117D7C3A0EC44F44F4023095E80BA610DE336D0F99593A88BFC5306E72DF98F7FD132ED95878DF2964EA7E43071359FD83B2BDF9C6B5BDF768F0F3C0FC351
310
199526F53D9460A34511F75D1B63E488178569472C91A94497807A3FD4A390C6558F26D416365C3656DE6E769DA9D8FC73774E1709812842DD8EF96AED1960F79D21B395CDDFE6F92CB4EB962A4668C76990E2EF29798C8941D67DA50F4A5F947872460F1F6FDB794E8A29FD7AC0C0D6E0714339CE258FB17AE8535221E346
310
4A10F29A0BE5EEECEFC5675926A89F49EB14E5711894F6586DB5754EB4D5DA9C6437EBA57DB97A24F8B8A8DB295FFD73266CF57E82694DF5166DDF93573AFE9C9C5EB05F8FEF8E89E0A8917B0B3724DB7BEBB53252581EFC3E38166BA131A3A5B42FE2AD00A769BBFA4458D2DE7822F8C4F63D0B8E21B285AE13325F3410A4
310
35C648C9D91FDEB109E73CEDA7BC796961AF79175E1A3CE4C5E8B0D009B0C9E29EFD98BC8E97554E3D8D838424E270F7685226E5AC268E021EDE3522D583E8F20C0BDE2959EF5BBFEEDAB32FE9A3ED0E39F211A86AA9DEBFC68182EDED132AB8BB794442D2D7EA9F4D8BFF52BC4D55BB165124EE90A42D101E67BBBB292FFB
310
4F66DE5BF2300E44546757DA7CEF8932BFC9F92A0707953491A55C5A5ACEDABD9FA1AEA01BAC3DC5A24E22E7C47213493996EFBC369D086ED9397C9BA6C7F9855C7BD5E15BFC8C53DB3D2A4C5901A57ACD2FBDF4D1676E95338B2C2BCE65FDA4C64F5FEFDC7D9CA5AA1FCF11E193F2FDABF0F4916BF13FB916A224380E6462
310
A9815F2300DC49CC4DF8D055CEF76462F4B7A7ACA7365C2707891370BC1D0AA6203C44CCAB47084FEC057F27FFCD57F89B8B9852459798A675C66BD7CE572CAF71FF7E6D7ECF7BF62CAB7B3F1107DCD04DC55A3F9961700286141C94A4F771FEB2BCDA2DDEE0CB0BAE402FF1DB0100F8E475DFFFC074DDB4498AB7D186A765
310
4DDB1CB680D703D47CEB4E72F8CB13D86A4AA68116E26387B93FD6738779B34FEDB8E517EDF2BAF28D9BE93A1D3A164320E07D42E514725C29515FF361754213EDE06B079A2E99EB1CA82A02019EADEEB87B9AF005BD04BBCECB14AACD6B24EFBE482194A97DD32400685FF1FEF1544D1B14EFB1E7F08E6D2CD2AF52DE757F
310
35F5E62332EE88EA26417AD5C3E0E319D68F25414E6D672BD4522B278C57D18F0113921C71D96527E091F00CEB15AE23D24667369BD3CEFA10C7549D930890BA4366F4EBC55F01F746109F98ABCDD5A3EE06619C6AD78AB33E48E4C9BD21BF7478B385EC05C4F8987E2C1BFA0A60EBEDAA0AE0B015C2720ECE180FB6F2DEFB
310
EB822D96338C9B63822183BBF52FB664A7AE57003AABCE512BF77E7E31BDA2E739AC4C131657DDFE5225E900FB56CC01CDE808FA4A9C9DA16AC679656BB64796283D89812B8F91136AE18EE5EBBAF47A73BE3C153EB5D4CD491B4BFB4FE690A4CF9ABA08C0D8AA64220C438C96EA6CA80B58FE5761E697B3A292EB9FBDA502
310
FA863E49FE694ADDFFF9D62C520BDD1A22014147A0903A05B9B729F54272EF83931FEEC057BFF8C8055C279EAC5C0011804828734024F6CFA319C9CC6867C727184465CD9BB7ED386AFFD96B294A85E3802FAE47244602D8273615952B98C4F23F7EAE4463D9D638EEE374A20959E0FE519C4CFB0FBFE5DD80C2AA3F9DB961
310
D1BDE57E67C9BB47B77FDD74EE3094F5DBBE3EBC1FBDB7393F5116263009E2EFE1AF9A221B2AE234C902BF70E9F280ED23E73908361565964333A3F01D0B006AF32FB21AA1316744B489D5A198E85299241735BE559675130955C902A8ED761FC0DBE337A9F91919AF5CE32AF902ADF9AB2615E00E8A94586BA1A90839B618
310
32FF1BFB76D2EFADE6DB1BA04CCAD3DA649E7E2A0219F592E22F2AD54847EEA8E42271011E9074F8F3DD9FBA6CDF88FFC9FC7E811AD1CA8F4557CE4AFC7BBEDCF0114A48689F20A584520C74DA8127124B767E2FB91A6B186246727BE63C9445BAE02088D58B8EFDC0F1072407CD9B89A13F6303B4A928F593AD489B58E686
310
9325790ADC406036C591729FE14021F94B7796BB11848D463536A092A26F077F94639F7CEEE2A724C66EC885F4A24F8B8A0AC321F8FD149BA529460FAA34E4663C02D41FDF80BCA222D42F0ABFF8490F4FA74C673807C2051D8E467B47B616072860069A9A303ABA9B319D58404461401B0A0F9BE5E1E151C14BC33B32ABE0
310
3DDE91708DFAEB15E7C0D593C86BB7D7EC17BE56E57975F077BFD5525F3A1A361D584A75E08CF29FC7B44B2B3085014F3A5A14517377C3F6B8F37E59514C3B12F8AACDEDDA4DFC49BE5710101534CD6FB6DE15B50F11A09472AABA727F0C49D9CB906B158030065F48EB3625E010CEC1D511D0053474B11E6A4F01C0D6EF1B
310
ED3A944FDEC70E0DDCDC756C86545910E0DAE3BE3AA9A404574C2995CD5CAF9549226BC94B4F4F0F5F9086F418F6B32346464610D8BC7391D3C3A3CCF04CFC1FB2A3A3170E369511868F14EEA4E5E438CC73DB1F3248AA94B6B2FF33B222FF3D1E7BF146CAD229770158063BCE4F5391964DF62F7E52A7BE0EEA829C9E13C4
310
C147D6F93FE59E111DAB5E4594D6F3CD1AD375EE039930EFE5AF2BB2D41C83C7DABD8C659BAFBE8FAB392CA634F3D15C1D945DB4588D2B0824A4EC928AAC565557CA2F0DAA588CA5BE30B3A8004F7BF005E96CBF891D7F18112A3619FDF530DC8AA64954258E1811789B5189B49B4EB53F5F89F7D37523894F3EB57B373763
310
C91E502F52CC99EB7BDDF933FC324C4FFC2561DFFA7339FAFDD0A4BFBE6D3A8FF9ED1FC49898139864602458968913181918F719CCF5A68B2EE9C1FF050E34E63107003B8120FA982C21B30A874E4F5E4B38D5A8290C4B8D9BE48A0BE31EA995BDC37AC6DE90BA17D259DEF53605D55922FEB1855D915B659FBEB350EE0DFB
310
2F9F766E1C84CC8964B75D08667445EAB966015F63A18A9E0A325C1B3DC628C0D3CB60F767FA93CC65F25458BD23C3B312716E5F40E5858AC06EBA9AB14F95DB99147B832069201541D09A0D856E12C629CF32683760EE855537D1901988D5EBC156676C7DD51D7207CF3267AF1D76C2AD867315E44618015313A98B19941C
310
696FED3461CAA9B5415F918556D7802EDACEFD6B2E45853A9735DFC9DBF7E440F9319F8B6805A973BCCDC76C069A9144E51F187EDCC12FC31B5DEAAF0A76137199B106EC84ADA6B6EE697D4E6A96E007417F4E880E8B1E89B4BCE9D81EF611E2ED8F0C1A6C25F620FAFAAB656A7C42D464880E8AFAB0E0FC8EA38CA9A8AEEA
310
EE3E4648BA4680270A89743CDD3E6C6CBF34B7B640EFA285ABC7EA0A1E28F3CC963D114A80123EE66D0AF7D5380EB41909B605AB4765B709B808590458157E69BA1378FEC4B48CAF6A730E3BE3C5EF2DD1A5EAF94B1DDE50CEB55DDFD7EE9A16747FA4B223359FB1FCC69E1194892BABB93A1D5C4E807AC0EA2E30180811E7
310
7A2291F6E7F7FAA5E0F60215BC6024E48DE436C511F0628B8CA189982D4D83CCA17D305A7E923C37941CFDFDCD93ACAF735EF5F0E61BBD3E6C41A59B242790D3A3BAC7064DCD89AA2E37214EC839820949D5CAA31E240D2948E48F690298974A96BA9A8432BC90F5071D6537C9666EA4564796B7AFFFA548077BEEA75F6308
310
3435074BA182F3699557397F71548383FDA8CA34D99B981E72835ECDA5DDDC151315173D05A21F651AAF8524E88209E2E7A737ED1045800CE3390050BCFB8BE588DF111617874C62575039CA588EEFDEFEFE319B739DE2EDC147092A262611E159650E787917885EF08F1F51B8F2D8A71D60B58B190FEF9541A1BE94BC19FE
310
A50784DA1419FE4B0FB51B8D36B5FF8E1286FD8AF42B91E59A5F1CC4D60174E764045FD8C57B18209B217F89A62252BD20BE0E63E12B8E8F029FE19E0E8D0870F58721A557082250D5424F7909369376E41666C0EE77CD87CB283F661D5FB6D0DA023CB67320A20DC7BE661E9E1BFE5463085C557DA1FF9BE835733766C3D1
310
39F2CF9E2208873AD0EB4814DE9E6BF2CAF81614D4D43906ED1C05A3265CABBFE192770FC2F64F940CB6B17B5F166F133C9AEEAD2641807C3E69515171DD74C4A85311513D6EC9530B3B601B6BA3EBFF3B5C3D2F7D69765141E345F75433953D013ADDF8F6AA7DC3F4A7563FE5C7D367937E2900D7EAD0F9FC9A4A1A9B5BDF
310
1FEF08532660C01C5D6DE22199AA774383E306DAB87E301ABB7D213887F9869D4942D0D71E94B27EDF216A318BD488D45DF84529EF575AF3C3938C0AAA0215B01994153E2054A0B894DA5C784980633AAD48576957CF4AEAEAFADC7C587368551C73DBE1E57C58AC713303A8BFC258BD04B51724459FF9E24C03A81E0E0679
310
CEB9B348C0DC998FEB9C6D6EFA77D247CC8F92D3848599ED89A23218D0636465AD1CEEB7DC140D7426F83491C4E8E8281C2FB35240918FFECE880CA2A42D70E8B20B34DF5221C7DB0CF90ECCB9C745B37A47E9B716FF7A97B7A252C1F3814DC7B1E1A7F72B8751D524EF7CAE45B0C73B3BE7D08ED39781B380DDFC9AA4A474
310
9C9493DB5BAD07A6EA6C092FBD0E85DB004DF06B8C9D3089C5320187E4CE1846158C7EA7DDAE8AD9AFFF21AA3A1026BB06A259845E8232DEE62811A4DA9CEAB3A4887320B76E2AE5615EAB7BDF738CBDD01F1E64064BC13D9EC53576751CA8CACD58B3CEB0E6CA585BD089B2A59B9FC101403387AADBDBE70586B93D64BF3A
310
D4453EF9C3B6A93817E8346991798601344F79A83C51F3D50F7BF2683A3605F51A72449489E0EE6169C749C60B1035651103AEE24D24E51A759C840DD3FC6504DA6FE107510E447B43461C79D22970B75DE5E1BD3007D1AFC619A4A4A69B5626AF5E9B8374E20677F77E2F8E73DF868E8BEC7EBA7B6A75EEF7205E1AB9486C
310
B642741D6E03FF13FCCEDB1C4AC129886268B01CDF4B124AF797CF784F3C6DEC97A17D4B558070A0F1C04DA4FF9BDBF34159AEFE958479824B3F58EBD1E19088A2AFDE501B6F2052368A3FD0E650A179EFAB1561E1D27527077136E652676C3670F42DCB3352F48F6BC86D2C3B0051727E41A0A4DC6CE2BE9D47F5CAA2935A
310
3C0539AF080665997194ABECD723B08129CC5B6B21D2E7D54CD4D12610E7E9FB8306771A89576C7A982002775ED44F3F744CF21EEBB27A631671D921938AAEE3EB0D19CD1E083727F607823E817BF599DCED5394E37EEBC2E88782E638920CA641EF74D4CDFCDEF06F4278ECB18E31E7E9876F2D783C8BF429C75395F57E98
310
C2B495A3DA077EB3AC3C158608B6B57FE3EA48484D9A480096FCEE0DE880950E7E5A5714131C5C41AAA29FD19AE81AC145FA1B9E85C7169A5AB837B213493DF7E9AA4B5FBF9CDEB36EBD21EF1181B7CF7366AB2A951D01E37AF4EB835D1BE8C117CFBE7625D2EBCDB0B20C5A4B45CED0BCDE3EE8DA9DA78C2E21DEAAFFD119
310
7E463C33CC6A80FB785669B856EFF7A8CCCA2841B5A5369173320B1170C368B2748D81062EA0296E5E2D95D7667A4A46D98A6FF475C76AAB0A8C8D45E226FAFC9FE0133EA9F60111F99CA81ACE03A1D14C89E8B0D69079C91464FA1D99E651D0EAF606F345C42A8A1AA9BA391031582B96D5B4176A77AADB01F12FD298A75D
310
EEBB2C82F0B8650E880722F8DDD90C56A7A058E5FDEF1AC93545BA27367C76F5D8F9690CB6F8DAE141EDD7971F0FB548A2AE435F224D6E5954CA155512F7332029D5A1230854B79F258EC5FFDB09F5F6343A8EB193229B7F7E79B3E48F8E183860B38C8269D1B53738FF1E0BACF6AADA6D4869E9DE708E79B5DADCC09B1BC7
310
6F649731CFAF59A83FD8BAE4C749D66FA87A3810D4D62FFE826FA400C0F325D2BC0F3CA35F5847B82A2ACC7961745C823E4D863D54460AF792CE6F79B5C7A33B25C3AEA6CDE15A919B6367D781E9D44F61BF828672594A3E1D9EDD6DF179A81F27EAC05B936575D73E05C209DDD2115CFB705DF9BBF3C911589B3640735E9E
310
618FC9C36A7326C82B2205E244C55D56FDB9D5DC93CE958D4BF8174D2B3DA54CB3C09F2C2A6DFF73D23B2197355761AD421EC581284A7EF8DE2CE3497C0C804D49B41DFD6A7360844E5BEFFB495CFCDB97A4595911CDBA623274CE852B5E278AF0BEB1770E9D37CD977B2766A7DED0E94B840E1E95E8C77DE5CB6354AF7871
310
427C28ADBEEF7BA0A28E19DE9ACD75F379FE373EAE6DDDAE3834692F9C2B03B4FCA8FCA9ABE8EEEBEBB725B88A7C90941E850682CA04061A7DF0CE82ED49BFAFFD42C309818FAE14755CAAE78B0F73243ECCCAD7DF58FCB9CDFAE7A4D3E6671A613639130D056C8383C8F4FCF4808C331E544DD26E4755D09EA05253B3049A
310
1E32587CC25D72E073E2CD96D04A71BBCB0038FEC3F53D254199C3CDC67CD66640269431860225392B2CB3ECD0B4498AAE78BA1994246AE1EE78F2EDFB79F6C6CB6B5E279C4D373FBC21CB2698C9ACBBEB6A4BB6B39E16AB0E421CCBFC7654D81ED86022F9BB522146F9F4772E2D0E4FA70120C95A85A417BF5078B232F475
310
4363EB1750B2AC2148EB46B1EA72AD9B4D23ADCBC589D70106C3EC2ABEEED84DFE28E718C6C83502C28E9FDD3B09DA0A6F6F7B72B706A31C9E2A331EE70DA56A083D2177BFD63C55B11D8D949FAFCF90B23A1E24B9B5018B9A17E99F2890EC302F330FE7936E2C23F0D237EC8916F5166AB84B62A21BB0B950146962D754F9
310
2CC2C8877BED8FC7B7B25726DD19545392570B3A2C66B58F027BEF412E552D12A588C4A3CC5C3193FCB3485EFFF700D0B9EEC077754A33DC1FB9E25AF814628F91DDFECB667D3F7690803F38D13F8AE39353523BB08FC6760144AFA2CE28236F65EDBB3D5F59A57D612B99E3D7E5F8A851666BF9B5A6658EFC96EEB37A378A
310
BB0EB3FDDF1303AF32C41BD1C8560745D7BD81066B0D6313359CF488563D3BA3F8E2185D1FAA3EBA1397C9D0E3DD232180A4DCADB6AF25DB3AC3CC26589C8239E66E81547BC7E2F328F9884764CA37EB5DBE390DFC03A5246B456A7C3684C4377D0EEF9A350680FA9A077E8B2957B489E09AB1AD41316944C2254B5984830F
310
691C93CAA767EECF976FA5647538830B5E63236A6F0365C1E0F3E327F24FE35EDDBD7360B0F7374837409F7A6311BECC12B7026D4FA1AE204FA3F5FE904B1F420C7A9044AE58E403E7C4848E7DA25DC9EDAC79DD756FAA26B9EA83ACE8A214A2612A22AFA19DAE7DBAC5F8CDE1292A485F98DAC731A29FE01A3966E96BCB9F
310
B5A4C8830E1B9AF0C54B87FBE221A097036E5D28D1F869F810C06A9BB0AC0612F69AEBAF893C6E7AD59460208BAB3A6B09CA4F6BDDAB8CF0D1F84B72487498395A70DCD754796E271099A567A55CF242BBED64696378BB6CF25EF0FCDB589F3A82F1116D010A9AB9FA4358809EE0C973A2B4229BAA876A70B03AB49CBA7FBE
310
71DB1832FFD32F9BF2C8E98075CACAFB36921235D0F552B6A67E94E094097A5D7DF681B40623DA535ADA7A9AD8E9A62407D7C9A5AE51D62A17A83A23728DE86BB56115804D3F2675F2C6B87541A0FC497BF0CA86420F558C9859EBE9FAD62747E323E3AADC03FDCDDFE7407B09DA90B44E3185723C5381EAEF589765E2F7A0
310
99BA46695BAD60CEF3491B8A171F5F56444F7CE9455312C3498C74173AEA0214EC029833B34B650CBB5A5508D5091665309642791708ECF27CF11DB3D797D6CFE474453BD4BFADB768094B2147814D81C7CBAF8228DCAF5564B5891F5EF6A860EB2E323CB82AB868D8EA048880D63B0DE5341F1B3D53297B928A11E15F25E5
310
148990F710747C3509ED14909C552EBE3973246FCE55D00564D8310BC3EBC5085D08D806799B77D6C57FDF5E55837F9E934F09C03C729271B64F12D0A9F9E938107CAF7BF1EC8CF1BB9B42363D33070F4CACB425E605DDB0A34A12BB936DE286B9887A4E2E558F0886498BFF49C311D96C277CF6A9FC0D75AD0ECC5226D7E0
310
E3572012E56D7FDE4410CEC7A6D0F997F225A2055B8B92E3956E875AE4993CB3D4C9063AF98FD45E1BAB165640A43439A2C9181A7C355B297C0A0CCFFAE19B6FA3C2BA238A885FBC98B8F6DAF4B94B97304878DF4D8BFF6A4AEDF79E90ED4E68F00CD7299F4E0D83E35601AF0CBEF18C1E870E74758FA91F5131075004DB3C
310
FCF09AE1DABC11957FD9808C92E8A678CE9DBE40DDA0E0D1D505AAFBCBA208232BFB6FB3704E8985E61ADE53DE74152F5C7DE74B1DEDCD37DC3E8FB30D7EBA8B9EFFC3606BF90B8D438279CB7709FC7C00D327F41817EEA71CD9E49FE9C8C9A81C70915D9F0F15958EC5AA4C3BBFAF46986B90F188BDB24B89DE3C6F29EC3E
310
6F66D84856EE96A35E657CA41B41EFD8DBFA16AD6E91439EA92B40B21C053249F51AE50EB0B24C770FFAF40DF12C8436366819C48E36547D4E7B72FE2BBF10828583057814A668BDF183F6B2E58DFB151103E56303E63D00F39C27C4661605DB644D19175D02E3F0241E8FC3458D17AAAADB117CE9EEA690D0DB01E634878C
310
04C2C9310B69FCAB831151E3AD293BEF6E46B0ABCECB50F5939B39C613D41E81FAE8D34CAE3C4566B761D37185FE864AC32FCB71AEF39DAA5BAB88609BB980CD2F07A8F941653B529567726E2B2A58D079DD57E1E5E31426CF184A04D7B03B985F276D47406AF276FE32E3328BA866EB1FD39BEF57863A317634AA5FE46740
310
9B3873F5069EF0D71AF00AD189D17BA1974ECDB2D623E9E14086386A6AAB5807825C37B015BFE892AFD154920EC437EB945D958E18622E1E0FE2FA06557CE4BB9BBD05A2D40E774DA2B65473791E314B7D6C886820B2FCFE4AA272B3B8B15E7344A145E8AF919B5454D89D36D413E87211186BF6F645E5EC94DCCE8E1C7990
310
22E4EC9BC86D7A0F2AFB1FC4B2CE48F84B3F49ECE65BAD24CADCC07EFF39AB06BE9E6B27A059938EA7208838455383DDBCFCD967DDE4650EF92A14FF933C975DB20BD7FEEBC4487576485963D757D16340D9599FEB362F775F38CA4185A86F74B629C81B133644A3B18FD056E997E0734F9BE26D11C0AAFC669E2AC9FC41D2
310
81F8B2E1C35AE27BCE05F3DA295488096688719D974DF1B5D182DB7792288697F8763CFB43562C1CDEE11C4AABD5C22B6E33F6F389CFC3477C5919DC0D533F8A7A1846B7ADB60ABDC26C43D0CFC8910B7C15EE22675BD02702ED39DB77A87A192CA7A543E6205B979B9F5A6B512A3CA799E198B2D5797C0AF8D1D872CA455D
310
4D431A7879D4DD76110B5FF7F4176B54477A9EB5E4A5D11214FDA585F0382751D8E2582BA5D2075053298FEB8F1537304E32CB22C2E2B693DC0A760B1DFCA751BDC445AFDCBB12820ED85F6D5298933C7EF1211E9E057684056CDA3FEF3BB6052355E162DF27C59E965A8DDB7F9437EB72CDDA3A090DE65A5B2F50326247B7
310
EC67B73ACC7047FC9B353D6EE990F772207C6EC52B39DC2F3C0754821DAB559F7C1809C7D0DD5B0499D0442E0A6E391B3D5DB46D11E731E6794EC77523FBDAA242ED67F9FA1FB684255671F63C9BCFE6E7E896D51001A6113EF2298BA494E0B0980D1FA5B9D60796554C02256B1E0345FB7C6186B6A19D2DCA270416262845
310
FA4F42DB5D9B0A0B6F07FCA2E56C242522E001E0CEB734AF310FC8BFB57E38E03AACE93B3326A2197891E68452B26A6307FDABFEE0223D3C03C3C73D2D5BC054C8311F12004CAE488E5C29287F8156A2CAA4AD0D7BE6B97264E4139F437CE73ADF52E5134C52B819777C18B323A5924E4F67AFD13B1CDC3A61793A79FAF5C0
310
CEB718E441071E797C6DCCB9EFCF7E4A1E9F3DF3C2F9C9E8294E9586868788C972857FB0556D7A26941A7EEB9B580AD78EC40B85DC906B4120A563CA3B87797ED612D3B035962BB75F6515A393F4CB057F564CDF54F2E5A024514E6A1F901DB80C7E70B1FC05E356A7E72FABF4775B3E3FB8F70A2A8E7B6A94542BB3041579
310
78CCC999E707A29CC795E67A59CC546A5D47B368954CA7B6E75EC9E1F6FC73CE3B4F71F8CB1A6B15923D61EAAEB14626AAA9D04A26EB9C66CD1BE86CA31A5D8703DE04CD1EBCE4F5CCB62F93909AD11E55799A781A956ED27D3E738F4538CB04ADABC7DAEF20BC35BA6A90BCC1DC61BA05F20D8832FFB9BC9B15E2DB838A0A
310
FBB7E0C82A562127E0446894F427794C3037186F622BF24DE1B00AA10A23BFA47B2A180D6DA5AD6F7326FEB8C100C2D7142EB2A0B2A9D1008A09BA343D70E054AB69E2A7EDB783CBD92537FAF4A44D1296AC2792729104B3276C276C951D0CF3CF3F1E6B017720A7B8505A5FF9589365979678C36F1BAF759EAF57C60F1FF5
310
FE9DCF5F8E764FF25A2D06CF25117A8FED51884C13B2B750DB0E4F5E3D64124FCF11F0AD8F1CC3B3DA4B38ED22BF1CB2585EE6BFEBBA63FBFD44F9537B9B37BDD6B358720F98A8125AED4349CCFEB0E135F19E208A04CA7E2B10711185D72E381F448036EF57C9F874E54A971CA37A639E986AC0226DC5AA00D5B14FEA9192
310
234B3DE617814FC221C92F33F1D392F297731B567FD98FD91D989379AF567A65B8ADF177591DB90FBEA99BF4ED11B16E50A0AB1DBF1156D034BBE04D69D08F939D8E92BF525A1DDAFF80ECBC95D8F45D3FDD289FD23F7D8B452F8EBB34EC082DEEE68E18EDDF072060FAD2AB1504DD4879BF67099FC58F6E9DEFBF645D1633
310
4A3E9A127C6F1AF6132CF287E433B43A0EE93812B4AA0B194E03EE3FF91EF9C6ED0074A2F6EB18A96A7C9890B1FCDA1F2095E944DB911ED54C60DF16FB74C8CE9BDC7C54C4F14078CF73C2FFF1F1BBCCD7CF64F71407EA1683DBC410D226627F66E509060D5C0AFD611DE681D509DB8DD12FB1265B03C6F5C55FF4C30BD941
310
87FF692B4F152982502F193098A789526A038AB529A52BC0DC4FB6285CBAC10A8B8DB75DCD9BDABBB221E27D1F8DA9F5EE5926A1C8AA9BA9BC09239C6A7F12914EA3B59EFF7AAEC3FFCCE56F1C5C2980AD072793527565E774F4631DB178CEEC691B1F367BEA0CF2907E1D6B854D527065979DDEF002D8B2ACEA7CE21AE297
310
737EDE1D45B31233B73FEA35BCFDD0B09721FDBAF6432681F2FD10C3E9EFB246FD6E854B344ACC9D8A0EEF876A7314B49B6A499FC650B099D650DBFEC7638ADFD245E2B7839DA5AC5F7D5623FC0ECEEC8653FC9B2BDD1AD4D00A566FBA7186DD3C9CD26512551637498CADB950FEC71ADB9A5524285DE328B8EC7EC75D2345
310
AEC6A27C42AF6D9B92155315C80DBFCABBB7DA0FAE425C4FB896B15C9BFAC4FE67DF5A23D30C93DA4D8F36FB15D100050DA6062E22AEC5F4DAC4F6FEEF97AE05DE63C6D38F9E068A20BC5E3B6BCD75320C5090924E7F93640A7735B1A43451C2D91EE62C6238B797349E59890AF3A520DF4A87095F3ABEC2E61F0593416CE4
310
6CDCBE0E00E2523FCCD04408588B5B6C9DB6459C786CE378770B54F51DA3A5E1DF2A3349BEAAC234A6CF8993B598B3B25B4B113E353A4D750FA7534749430F3EBF2512E7EA3FD43C6AB9A1F765A58463B306721A15D224FAFE8C6F5E3432D57EE697DA0DD5A9D4866A8BCCAAA9DFF1F06047851408FEC060471D0E3EB86BFA
310
F46E4B5E60311DC3E3CEA147C75CF971BE74689507154FF2D2E92F15CDB2B9182B11459FD8ACAC5A85F174BC94A7F4EE4C4F5CAFA7C02E37BF0BC77B7DCD0C047BC316F562A01A441AFA7931CC84A28CB9F4AA367EB515778F29BFE61195FA671F4352E5E46E3A64773F1F76EE5EB36D7BCE9BCEAD837A4D77F8DB8C92AEEF
310
6711920D7C7D0F76B0FD0EB7AB83724CD35BCA7D36DDDF5FBB7FF6F04A91F3E2BB3B8F1A43CD659639507FF6331C5F697BCC782AE57D757A27D97F1AB9E0AEDB43F92F1B2AACDF5FEC8ADBAF9F814E2027003BA2F9E144B1938A7A04050AE5D953B82C45619165C813A10E76DD6906B3C16438064D14CDA713AEC420034613
310
E1AC7241904A49FBF87409AFB1FCB9B72FE7933A87D8FBEDACECE4EDCF6A4FE9FB94D5DEB74FAB7CFEAE17EE965DF980DCCA2D04134994F9A2E94D2265DA4FE6AA7B7AC15FACAC2B5ABBCD7DFF542C5314FDAB2E1B9D8B65220B8E2B638BE008E8DCA22678C820C5053664D15E89F2D735B51A84955E81A443545E9FF787BE
310
0FA700A76D136C27DA179A7C6E8939E01BE756E19CB292798063D8B97F44E8A27BCF3A614FEB8BE974A718E86F7EC99B53CA35FA24F61F2B07266684623A3D4CF073E511F3A10A8FDAFAF0078C577F4DF9D339FE7862E5FA47CF4344209E5BF76D783B1B48E152AD281B15FCB934DCDA49CEC5706B1EE8B460F435324A5CAD
310
154725E21AB8044B75A557A79F6C807B9340AA3D92503E866F4274412926C8C504E4D5EF8C0E68DD0B028781A6B4054F11CF18941F101C57CCC796773ABC8DED9CD91FE5788806C05E548895354AEAC96546D55B0E94A59F148D061F42AA398D822CDECA4CDE79E13469BDCC44FDC990F366BA5978C15F97ED80CBFD73B0CD
310
9B8B83A4F6845BDFBFAF034019473FB9A63BD55D3A4A7284757071574029A4D016DCCBE95DD679EF3C4880BF169422F8C89B68A988D2B13793CAED4F74DE7486C72DC94DF46B8E93D8E02EFCB1FF9B3BA10C8AE7F653DF94F4AF466CDDCEF5776687F7C4C14B63E4EED1719DC2EC482D7DBCC7AE518CDE3D5FF86D39000EC3
310
673C0044E1D308BF05F74D1B5F033A7D1BE7F74BC55BBE3E4A20F920946CA0271EB17BD2B80E5660ACB8A29A79F5E4BBA49D4D945B6EEF4A7EFEAA65E5555BBB57A7E15D2F83C69F30BBB978D2B39F1F26FC097424D39BB33CA3D87ABF64E307938B685BAD44F71556A30B7E712CA4FE600613C3E554B69ADE949A7CFE214D
310
F1FFF05CB82151EC6FC31950239F94CF7AD39DC473F6EA356E5EC2C4EFA04383CEFE985A127484366FBEE3C0EC4FEA363E4F6632AE781392FD45D67B63FB8DF70E82734F431FD3443172A0E30A83D60982D55FA6A2CF86DBA8382502ACC6CDEF3B907982EED1160E14863FA242F9757347E1544275CCDCF71ECD5F8621CBEA
310
326B8BA884AD7F825781923E66971F04010D574C541D8427A438A37EEF8AF88240EED7362C953F5A81DE2D56109CDE2524EA0F5D2F87308C0C47BD97AD605878AB8589E17CA83930CB5E0DCCD75853D68B1AB136594926DE426C367428E9334AFAFF90ECE221BB5DC9E5BB53D2CDEF954EAA9CD814F0E5725F1965DD458E5F
310
8487683AD86B9D0076BE3EE91EB1CECC5331A67A3F79D8B27587C12EC2A6A70474749F27B4C0BBAFB94B34189E88DC18964BE4121B9137FD516C7755356E50D6714E31ACD222621EBBCD1CFF81D87479056A9DA0E0B8EA19D24CF937DA89F78E8650CCBDC110AAB6C4E46DCBFD0446BA9E2060E81F314AC2031E88135E5476
310
AC0160EF5C0DD2EEF1B8B5CB2D198BE9A554A9093B5F7D7E4B5407DDFCA1D9C152FD97F55BFFFDFE802954DFEC8995B983E28AC92F1971E28F531DC407A1280EB125F64A72E617EFB27DFBCEDCDA2D6F2BDADA36873EE46B9BE1782998C63DA7182BC383FB6FD15DA472B175D7E8B4FC88F38D6E07FEAA3FA3CBB8F6B449EC
310
F14D2175E5C5CCA3A42ABF24CA6C9395AF74535F4DDB38CB84F56614B0FD32D7E19CA5CF988DB4449C40E23DF2B16772594554579094450F56F253CD25EA7F77366FB1CFE79696C428BB64D5A41E986189427E5E4D7E2DAE3D5BB4972B3DC44EAABDDDD63A2264ECFA5C786EB0EE1FDC5BE34FA0F08376869FD1E61EA06CAE
310
15191135445EE8F0394161C3266A596AA035572BB0C8876180D8B9C77D307DF9DCDF7365ABDA6F3A2366436457A4DFC1F259666569A9E4A79C817BDD5610E5200FCE894A358EC72858D50EF67545DA81C6FACE3D457BAF70367E1E6BDD9A952FB4F56247F58F523B97E640246051A72F79BE42FFA0B3187F63097F91C48B86
310
8586F714B0EBD5A00A8412C1236E1298F60C72BE6C96B82B404CADAA304AE9F303176B14BA53FBC2D5E86377E35542019E24D97B96A49B2C0E5006E7795954DEAF5DA58958839043C6C70BD3B1B33B6DC5C31316D8A6923F142E26F6711A2258AF977DDF1F970ECC4F1F2B434B96D81BEB6E89BF3BBB3C7C8CC80505070723
310
D6D7D7D3C8CA27CA164A26024FED94B12A86031867241DA53D929636DA600F050BC40CE48B8BA03D69224720DEE2ED2127390BDF5E6EA64527BBD4C4C63FA76BB801FEEC0E61218EC98A8A86CD8313781617877E66692839B9468CF4DB8E50A73986E558E309C0D6F676F921BE02F1185454DC75B111572FF9D27D85EA14C0
310
5AD7271225B391C4275659CA4A43759D0BA44639BE4C30A84DB7F67A41399FB95CBF923B1B1672ABC807C1590557FB18D811983FA97F5E609516D62281D38B1281F68FC75528C35E4CD7DF0F7DBB5E5DD69C414EBEA2F4A5B241B996BA77AE6C772E367408C633EA3E438B68563EA8BE7667F3A4C4FDEEA52ABD78A2820F44
310
3B7914A15F180018D231E64519C56A12F6CA7C8DAE18F06F6B769DBF92329EF6A5D18FBCE600F36BD8E8198DE5CDAA96181F3A756EBA5501CEE58F497EA4F418A2B82565B9BCC611713C0B708CCA1F398B78C5F7D03B3437CC18F13061F55C7BEDADD5ACB1DB0E36D3CE47FF6EA1A563A57E9649EA5D14D1A50EAA45746338
310
1C073777EF1600607BAF6428A7DDC079D47A204EF1E1F1F0589FB054D45E02CE623B3823C317C601E589E22B1E88B448524B86A82828E32345EC18AE17214B42F8C41C6D428016D9BA31DDCB47572561E5A402E5BA4FCE55F78AF7268524AA04130F3A20BA5D1E9F9948EA48FC8F5314FDB35E21898198060034ACE5E3E2BB
310
CA34092518F275190AF65F45867FF0900AA4B81F25427414C372BF51DC29AA855C5428EE1EEDD6B849AD60F6E73475C2D2523F8A2772C840A478DED18A8C5C91B085F255DC4F54EA7AA8947354FD17ECF8FB3B4A0DE7B483CAF3A1165EE05BBA413E5C1FEF3DE1D6B8F2F3F3251C17D9FCAB48A9AAF63AC773A0E413BBC46A
310
9ADF84A566FC920E4D8C52C9769EE3301CADEEEDD92B312E02E2A7E35B7F1E7D203FE5A7D75578B06E99D0E46FFADB8FDA17ED8880390DA29094202D6F645F76F6F96409CDA05495A96E84B04A00D1A6C6C81D7F3DE9376E828CCF144EE50E364ACCE7237EA0BFB5607ED1AC3CFE73794E5B61739D14DF1743441B1AC98F00
310
ECEDE9E7301FA29755FBEFA68C91EF2B314CF510537EF1ABFC9A762496280B546F5EDAAF8A5B387D469FC9A878A92828C88608453ACEC6094DCA54111E7AD5B2663DFE2DD151B7F123B9F4FEF8EE36AB125FD7AD52A59B1B765B3E3F73E3F73DEA93875004D2AFFE3CDE9493B87A9904DD052028949041A91DC0E1BA47BA71
310
4343FD5B25E0A6A09503AFC17C790058A836A324FE31D7893512E28230332F153181C1E018E1124EBE1BA262AA428A518237D1EA7275E48C5C561BD19ED6912EDD8367DA0F31E40EEAE9683DA9257525AEA7B632B97119E17145A90231768A4F3B9120FF32E8319B015E3CBE26F1A754177D8185345817C096B0CE443A955D
310
13AC15E1FB5DEEA0239EC32A3C92241A237B0B02FFCB4F93CF2B02570C8D192E2F2A68CEEB42F12E6F8CEEFF46C251E22B4341C56FB08CCE550E7A9D6F4D6564B9EA52A83D5BF2C6E03FA19D2775E15A8A7ACF30A13C259EE7F5EF2AC3BA354F1500E1A07FC63FB4686E2F12EC69719F9ECF5FE3F35598DF2CE944008CE78F
310
0911BA5BE5D0A34E0098FF038669C26030BA9B300303039852A8F6F496341737CA7E0D2E3AAA36DE0A70AA7D9CA0D54D9AD84B18A44C9E625475E1C97B93BEBB38DCE7D227E67A2D00F531436136355F243D1FC0D712C5765754FA22FCFFAE97919161F46D6E61ACB37D83777B385889770B50765B127768443A5C4D3A4E35
310
A3151111F146B7CA116F918A049F1C272F2CD7976C69A0068773451659A97E0F4A08FE604C3FF6CE7385DB19F4D3ABC8A0D80DA8A42096AC377DB49382B36E270B6FA7570188B4B7D1DDDDA82ACA487CCA5D38BD3BD039ADBAFA4ACFF27809239B722081E2EB9F145320553D183F28471C388BC8814E5045676767AB58A8E7
310
2D1CED2CA731379515D2E533E4CF0B39DFC625F97AC4836831A4DE330E87A8126FA17EBE583D614E71E22A8DBF2825599743E0640037303E8E1B1E8EA4E1ABFA4F62907B5E4E0E5DCFDAB417C36C6848A2B8D15F1E505434C0707E16B1CFC2A1C36A42BBF55734F8F4301DDC2A5110CEE8C0747F69519265012A2174BF4E95
310
5ECD4FDE095A3ABC70536B7AD0B9D7892F81287D667C108703C9B66A221E9A0929D030008F77FF6F5D2108EF5706FC87A3069B976F7C9FC3239D13D283CDEA83597461079FEEE049B0F392889898B7D87D31F8D60ED7B56B91823A8E4EDDB36C6172ECEE42BD42B12CD67994FA0F0DFAE9389356F4CD4425A4B8AA55CBF7EC
310
D585C6A2C2316791E43D5C06841ADBB226A87FD61515FFBB0167B74E56BD7F3E90A57A97FEDCBDF483A0D6699A8C0849CAEB4947FAA90D8E332D9DEBD9F4738C37DA0CAF9CF3DAA68BCB67C420459C7A64498D6E848E5CADE92BB6901F607AA331104A67F7CD650EE169B1DAE94D2C31C2F993632259B6957E246EFE4C5481
310
107B07118607700040E5812A2A2A38DA0076875258C753F60E0F2662C748EDD5F3F3686B8FC3BD6FE631ECCAA1E8B1C1E565AD117E54893E79F4672E32F9E46B2A183DFDCF3EECB4D4D077DBEA0DA254D256045109670050129E9B9B1A9E4A11344D61497A992778095151510C4BB7EF2009B63AA4360635312E4CF668B7E0
310
D3D85A8688E2BD83B569439892ADB63461930D428E0DE42E4AC57CE48DA5CC1449530D8BD3D6A0F08DF20C8E8F570F2CFFFCEA286E30969B4654D498A58D9DA782E19FE3F002181838925592C4A1EF0B332D88B61A92C644547BED490D3A42CFFAB70E36D961F694F6307F72FF15A1C79D5B1B5CEFD353D9E2B52566DEC8F8
310
F09CB3E8359C0F68EBBB7898243E34E12A015B2685AB303C04D3A9E00671FF3DFF0A184E4A2ABEB2B666AF5B3A209C73D8EF29DCDB069C9F391EEE9DD0F74C7BCDE16F8F02E3B8816122BBEB50665775B600549D8BB33A54A6BF940C028118BC6878C79958D6784F9DEAA6E26748386FFAF8D0D0101E2847B6563F5D8DC1D7
310
8F787BE00E2C941AE12148D4A81599FE8F68D4DA5CDED75530ADE138240300EE13B0FC13A1687FED6774662C05A2B7DFB186732F0D7A93545D8B0A6390AE5054D9CB582DA846D7A061B3358B45E2B52DDE63E114397EDB7E09233A579155D795BE76102CF277F4DF8B188C4F2879BEAE3C08347124BF9ED23B128259FE107D
310
31E34A652F090B30B39E0D9AF917B76A2806135621A8A60681F16AF216514BBD02711585B5B1AE823F4B2D0369EA5B6BCB863072727FFC871CA6C9AB79A814D989057E9470A3D238BC87CBB4A0EA49AFE2B86F22E499793CAA9047080450166BDC357524561E258C77CB697F1ABB32562CF87C3B7AA12F911EF19FB3E5C022
310
22E887D08202A60A17151F5E053A86B437771088B4FEE14D652C43E8D939995D34545E12E2FF93D4E366EAD25F10CB7DED141563C3D0C447AF06078A91135FD4B9611583CB4BF3BD167F2399CEAB0E0100F8FFC305F00F1711717173138B4B48C83022295DE657EFEDD97F238ECA80F528AFB4F8D67AD4E2594B9A3AA86D74
310
87EFC313BA95745C186F0CDD84CC12DC9CB0424B42203D351FD9C0A3AF10CC7F388E0329279087386421F194F4A29464C1DEF7EF8BE515E4A199DCD5B909342598D8FE6A231F71336248D5CEC5454455C7BE383B3BC7B260FED27F703FDC39A170F3827239102F59D4DEE7FEF82EAA1A5E4BA94DCC4CC44E7E2EDE20F24244
310
E4454369D2E87C3F823F193FD4FD27E1C23984B01898D15ABC20711A8A558054951A6AE280096BA36CBA439603B7B0B4C45F248C14B2383B4B5CD8ECECE4FF859AD4A6CA2326D020EF090F4041D28DB66E5256B56232CC52829DE8060BAE6BBF37D4B7469B822454FE93210A3E8D15E69FFCF01123222611C51C4FD0A041A0
310
CFA2471CF6BE38D2B20FA4C3525B5B8B586759475CF80ADFE67A284AC24651E52B8E683D24C2622642F27E7C3C22783BCF63648BC398BD6CD0D9C97E7E7E3EACB6126DB7A6C1FD9F1031302EE67ED96F22B77C7CA0239BB324207559B105E4693EB26EC46182A92C9C0DBD24F29B31C5C5AC1F84300E0E17CEEAC15F5736FA
310
4A98971E2F1423BFCD68D4BBD5F86E74B40A369F39507C88FCDB35D2DD8DEBEA4AF999E23CF2816D204200DF6E611781B9884C1AC8888B4DE397320472959434323A5A36B22A8E1F721A270DF3BD65E4A31C11FF048AFB0D8B7B6881423793963A23CFCE935FC189ED36FAE35C46DA3574C979E4394BE52084F3081837BE03
310
3396D2EBD80F1F691B273F660D2B32FA27A33B1DE4ADA5F0FA4651511102DFA410DDA86E065272CA314D5249DF91B06BB92807B28EFD54F08F7B525252782CD276DD02E6B0319B13DF87B1F6361AD6B28FC0D711CF445429B9E5A433CD493051C49A9E03DDB1B147D880253514A5DED88009018620EE229101C041950E2D8A
310
A8E1F5F5438E0C0C0C60EEDEE9E3E0C051948C69F84BB7B2A48A1F3C8EB9E6864687F4F4F6F6E2FA87608ADAF9C5E117B7C1A737E710769DA1D15ECE6A84502AA855398712D5FB51BE92E4EF824969CE18278798AC303C2C7980DD2500ADF8FB1E6D6C2FAAFF9987178923334A244758BAA01A9A1B70FA5097D01E1CC2A58D
310
AD0EC94CE6430AA9B0C10D75E3C6BAC670EFBADEE1607739CE0FC18A2587E3EC3058562014C64219C69BC269082D5C2F4A659278D585755912176D78A1B641719C2A394CED495A1AC5D583FD2F5EDD93308EA7EAE8A6DD396598BDBD3D4CFED62D18A5BDFDE0DD5C80D1A89BA62697B131AE7CE9A6594138582F1B37D68F17
310
49AC7CB67A70695D48A4A056AC1FBD4E82358CEAE38F54B95A9016F9000F9879C0D9D131768635CA798895F27D6F1614F11F2838A83611AA51C9A3DDB539D42979C29F10465655C17BEC3E2760B80DCBF609198C7B171A531905F3EC218D696025975E986C6B4C666666787271F202805577DD5A3EF0CAFAF91B62DC4B2DB4
310
217A7606282F31D8DDBC290593BAA93EA6353AFA9939B877978481E15CFC9F2755CDC00C538F63A4BA3E80AE009B73CA0185687D339A507D165B74290D6EE46D5C58148F020C3668ABE9EF2F7549170DC80DB41FFC1D678FF19AEB10C7133832B104B80F691B3138F97A92D26E551F1F110400D45AC71A9B9AC41A1A1B1DAE
310
ED0B0810638EFFB511D46B121C6FEA0F38CD00E03CFFEB9713FE1F9C263E4DDEC160D0497FA9A132BA608584057FB15380825DE6C7FC3C667EE947D488A09898D8E939C4953BF4EC9836344D2CC6B2971B2A21A572B06096F4982D2CC7232D46E8EA69DC83722E267754D777F97F96D5DA74E1E75178084D0E70F12AD33E5F
310
71EF2AFA599B2BEBF60A5BE475F444F240CBFE8143C334E7ED9150FEEFEF7EB020C4DBED388DD1D6A167A76F3CBF119B578AE8CFA7736ACAFA4440A1C47185638A0D2F3EB5BDDEFDA958FB13CE4AA4923D5BF840392D45544329525749734866684BF7F8D9D54D892E19BCA9F829A0F8BFCBEEA6CFDFC61D74EA1A645ED7A1
310
FF241739F15694BD835B66FEC5677E40FE69BD3F91AE402F036537218A401CB0828604AD189E575015C6F3F6BBC8AC79CF6C70653847254B31551EFCBEB5978B9DB85D58D0FA41A9DFE9C624834AA04949D24B5AE6D299E072D152D12097920F14AA92C31C3B97E28B6C2E6E9C23D63043ECBBC0A60FDF5BD0C33C127EA8A3
310
308B8B6AFFEB28B4455BF6E7AF4FC6222728357EB8E46E85053E6A8843AB23295BF838ABDA94658FEF3F832F147046B4ACD6F7D48E8FCC9618582961C898D1C7A253C91BFECBDA6BA18A1FCF70755DCCEE2222F41B76D23CA98D0CB3D95F0CF66D57FFF65E2A90F5DF40FC3187621E981BD0BC1D992787212688976B94A8F0
310
C6EF646624B570B78E068826F87CE27041A95C9A4871FF65CC17FCB1639629AD6A9517000D63AC231F3D741CB8430777E7ECF80CE7A3F73C0F162F7E56AA71F4DA80A33CD6ACEE78E2C11FAC03DAFCE929B106F8F6B3ED2DC71FF994BD9CEF4E9A94896EF1B6E2B7B4978168BCF0847A3D2A4F1B0500B926E634B174548E9F
310
BAD27153FB5FC36799B1E6C7C38A94E1F9E996796D7B485E635D5287A2AE76FBD11A341DB3F8F810385BB7296391973DC6C37C452A9305AEBBE0CDB6C566DB59FE60C8E94B1FD090354BF51439FFD1B48D725228FFA88C84F686F547107A7A235665A4593B7C34D748C1AC8D56DD5DA861EEFBADDECBBD65117E65851F9035
310
1AEB65F0EFCFF4BCFEF24CB7A5879699FAC437A7AF9099186CF006BB923A59E37D7A36A29FD8D2CBB914A5E9D0A8FD212FBF796AE9A67958FF1D5D8B85F78F96219D4714EB919929241B6C018AAE0C02069F8D919961EC5DDFBFB7573E3AC8E08BFB7C8534BE6DE045B3CD63DBD71F7638BA2309CAE398EA3A7D8F98BBBC7A
310
EB367EFA5CFA27A9F8F2F52FE878058E6209C026453F8E7E8A237DFC389E9590F6059B397CFD65183BBF936E86896612A5B5FEE49DAC8455D026218AFEBEC12B3523A45B57B82C9C97E02ACFA1184DB18E48CF615DBF39C3CC6F0B4AE6BBEEA2E39D944E290302FA3DE33FA7E40296E2EF7BF1CD855BBECFAD0FD622BEE974
310
6FC4FDFDE545AE6E3BC234CADF83A0FB76DFB145BF3828AE3436368AC24989454F8FF70A177672C711CAA1A76107218CF948CA01F873520E7A2B118EBB161ABAD432932029628B6761590C98AB590C8C8C79798CE9F715BA696E839E9131A4BB68BE923F1747FBFF165331FFDD4D05997ACD168F12CA75348DAC04C7F509FE
310
83898A8B421181AF492861CE81E4A2DD0A30850CFA95E05F097FF70F9E777310D584A75BA7018922E271DAB1D785671157685B7D383D3E074DDB4F1E44EF04B07BAAC75A062077C54B9752C738C9D804D402E02851F3F89605AF189738C18C021D2139EAF72513824E10DDD3047BACC8521ED7E98B257D1166903B1B08FA6F
310
918FD7E162913FEC7D0EF4787E29C35FBA8C6E2C9C20E9AB30AE42CA2A01A090E7D010C1B5BF9CEE2A304BF3A987FB40D836979B79E18D70F257DA61E808472DD85B82761825779D6B90CAEB0F23360C6F80A7D7D77545E95B3DFF0CF96A827F9B5BCECD2C9698718417EF80FEEDEE938AFF55859D0D540B7FE09435583A6F
310
04874A0C7E8CF234DF4879722000167F5872CEC6BF3EF7E5A8CC8121E6A359227C8A29C95212F9F735BC72A887D56B8F309FC525BFB4FD767AAEC4AEFF249CFBBD2DE1AB9969A6155C7D8DABC307E47324C1F916C7BCFF40ABA5644E9FFB9238D19ADADA49D9610F01ABBA57E4DFCBDCCBB2B93C8953206C91DE01B0E2651A
310
6D6C31721915B31F7B7CBCE55466F6D70402788FA91D73BE4ADCBA99A35F17D6B83383704917D6833F0FA3CD45C926ADB8BC17999A4A0AFBCE2541F7B8CF4C2F5FBA611B3E626D64407CB32C122DFF4EF8674D6EDBB86C8F7C6A16D50FA685E2CCA34F8F7D1D8265BB0042E9D7F1F666F7BE5FAA5184DF58E12122A42EF02F
310
461B3F369AC746F96528AD208512AB56844CF75B97F352DF7995024FB02855385854F3798670D01CAC771AC3E1889EC25F61A20C1F8CAB46898817F9C47E2CDA1F286BF2F358298709FE567C91133E2638C8B53975E753EA8BFD3578B5F7186B7BF084EBA3F77BAC3132A5779902EC22AF2D2E79F42D324E083386DAEE9810
310
D1B44A5DAA54513C7A71E52A4AB9257D975B621308FE4D2141CC3DCFE946C154A3C1DFCCA7629EC69ACFA831634ADDA93C0388D2A9A2DDAFCF957C6995BCE7FBB6DC4EBAE79E63EB08E9A25F52F67076F7093CA545CA3053B5BF576DEAD4E0017143C5F759F32B2D6F145B52B67B48909B7C7FCA6586EE385A2189C16932CB
310
6DDFD9152AE317C430492A578ED27B72D85D40C7C93C097939E1B50F4D67F05334FE9DC362C30B7FF561B95259138ECFD9274C8D695C31B14D4EAA9F3D7FA8DDF652F8C5DEFA23284C799B7D94416DEE81E05A866302DC70192A5368EA65E1CED8BF107A1E2D3119A71E85DC1A7B0C1E93274CE04DD0F2ABC8AC7C987FDB00
310
2B6F81757B43502EF7A0D92E416494FAEEA4C9C090CD9557AA4D532F4996A272B94355C5A0E4974EEA9627476F30809B94D8D8D860062E02204643BEC7D0438AF800FC7E2B26955D595421E83C69E1A07E0E3122285835F014AD538188CF9737CE76D464A353FA55A001AB2526B84E985083693BC76FE211CA1D000679C889
310
E3C009832C87E1AC2EDD05C302557422DF0800E316FCAC86978A371F025A6C7DAA9F333E7BD160403A1A06EA75AA9888FF01504B0304140006080800B85E324C51464CB48900000043010000360000006662782F38423531453646342D414241322D343037372D383634332D3844413142323637313136412F646972656374
310
6F72792E786D6C9D8F310EC2300C45AF127987122606C71DD918B841D4B851A43646695A717C52A85029031293A5A76FBF6FACEF7DA7264E43906840EF0FA03836E242F406C6DCEE4EA06AC22492573150D1F66C60C640E8938CB705396EEDD86DE9B5042FE27813D640EA63BB001C722AF6E55CB61E4863F58284D5D3F53D
310
D715CE1C3985E63FD7F1B7EBDD617E9F1E504B0304140006080800B85E324C0F29F6EC3E070000201C0000340000006662782F38423531453646342D414241322D343037372D383634332D3844413142323637313136412F6F626A656374732E786D6CDD595B6FE23814FE2B56F665F7212481701B514614DA111A756634D5
310
ACF62D32C1506F9D8B9CA4A5FBEBF7D8B1439C0648E722ADB6950A75ECE373BE733F99BD3F440C3D119ED124BEB2BC9E6B211287C996C6FB2BABC877F6C442EFE768C69324AFEDB3508C23726589656B3EDBF3A448D5D296EC70C19AABB7D77FA12C2431B150C870965D5959F84022DCC3459E6C49F6D8DBE21CF7F6BB43CF
310
EB951B4DB27B8ED387C65529E624CE8155588F818AE2C033FF05919CF9CC111B8C6D836EDBFA67B639527093511A67398EC3575C35AEEB9FE0AA71DDC0F35737FDE1D41EFAFEC0F6477DCFBEBEBD5ED9DE78E02E47CBE5747133B5D07CB6491256292025F116B4F862CDBD99239E54E22B14DAF80E933826A142B36DC39628
310
BA94644D4C0C603D295A4D21A5ACB5854147E14F6CEB048AC19281B6164E7FD6AD37D9FC0D20645DAC94674458799673D0B5C2BEF40777E694AB865E6886229C134E31438C6E38E6A020D85A2AC82023BC4590420233A9454DAFCE2B18F6655F6AE372573026FCD79A4B4F0BC01F499E49CEE83F841FB9AFDF063C81B4058D
310
F38912367F4981C474E6C8C5F2D9A0AF1E9640A21DC37BB01610536C1AF41B782D452C58AFACF9C7DBCDE15EC487F6CB539EA484E7C2F2A4332BBFD31AAC9916185F07504A5C4DDD1D51F90AD07F02E42B5ED00C34C7E9C13FF85A768EE36C97F008B4835C64BBF0C745E2EBAB6F33A73A3C47C88895A73005B7FD49981A62
310
1877D7209DCF9EC0E8133E50C2DD8798814DDFD158F839180A62092C41BCDF6D0ED67C0DC11416E11466203DFCCE1CF115C1474907E24D43436DE1B783A2B4C334FDECA8AB0F60339C8695AA0C194FE13BFC29F82E56F71FEF0BBEC321B9538EBD223B1AD31C92693B4306E886CB7F5B7F921EF981251BCC8EA78D4D215CB3
310
4F44DC6851CBBD520B927A014E441A2E352357EE28783B6338264991A9F5B63815262CE1C1E625285DB8F5AE3FB50D94972903688D6590DC434E5381893557DAAA0261AF26285818E6CA02F7A556834D11A5018E922216A1F6B52936F98038232C11A84A6ADAB0B5D76AB25BBADB151904AF56924B0348E5CF9A7069E13EC4
310
B1367E39D9710C493489030A39189CA5F506E3820ABCF33C6784ED02CA5811053BCA208F04114E4FD0EF28413D733D9297E7846F5B099A96A57D52DB90005C01AB41D2D9AA8CF94AA79C3C515166CA7CA6B381B143D5A1D6DC3F912E44A66801541BA33473D7F7FDF1A43FB66F46D385ED0FC6BE3DB9F596F66AB41CFBB7CB
310
E1D81B8C9A7CEA6855CF77A04A51E618FE973F14D126C694C1032136DEA6EFDECBEC79E540687426D743EF6674EBDB8BEB45DFF6DDF1D89E8CA06E9BAC16DE757F34F6BCD1C2E1244B0A1E92CCE93B6EA04D328DF7A7B8D2DCBD8EA150D65C4E765A5F4D61FEC731B499130C25FE57836815BB5A0AC2AE41541C6D86501C3E
310
8A14158450F5B5BA4F238836F9688B736F8CCB6E6FE0CA1FCF9BF6DD697F323DBAE0D9402DEFF9E138D72641087D679107498A439AB727D4062E1DE3F49B724B6FE00D11A053FDAD2E399F67D425018DF09E043B2CBA8496C0784982D61CB6674996D19864B2CB7B55FD3568BA3D28A6CC9CDB6284340B2292E3EFB13FD936
310
346C1A62330BA01FCDC544E062555019B4EA404E5114DD2F246E29FF4B90E1286565A77B0903AFAF21D03D4E9BC509A6C5154F606F01CE03774BE4E0E212F58A7D5D1FB46AAD497DFADDE44FC0A3EB9A5F088FBEA27BE9D41B7A53F13381A0321A7A83B156C425ACF455B9E8E358019D67F8123C13BA7FE8546876D349AD64
310
2B8BEA9C44D0C6E2BCE09DFC7534745F5DA4E242C3216A37BDB13894FD9BEEE0003DD9C09D2A6F6BD7401D4A6398737512E49514AD262C7521677A6274F506BF3EABEC3AD51F8E97BFBC62AE3B5F24873F9771806AB90CC02AFA1835756BD56DD443D933CE4308A4F7F2D3BE068FD892EDB13133C8B595E8BA3EBD543DAF45
310
408D60628B459CBD135FD8570CAA86EE39733E94459B53AEAF4562EBC170FAC887C1B449EBF387FB061558E97CFA8BC0883C3728A8D5A5E886CF90FAB63EF6FC0D0A4AA26FEB33C7FF131D8556606D8C06D3E02C611486F2648BF62481EC0D63870EDD068F4826B33218AF0A52FA8D4087D34FE54C35C71BA64F870F1806D3
310
4CF56245084351C89857965A47BFC118544C22E570AAF7086D988A61162A38BDB2C062730ADD566F03E32C393C94D41BE34A706C1CEF45BE2F4F55FF1F8F0974202A1DE5AAF674C1454966381314B6A97C4F00555FF9603EFB7ED1353B08E7F07553E49530C785A3340A04FD42A0140EA67E8F0ADE031414E7E5F27A728F01
310
49A7C9FC593B28A9DA39E67B395EAFE1BD587D71C4647CFD19A5ACD80B759EEB7E0D4AB6E8BA59514EA16660184ACC148B1A72F9CEF9C21378C514A15B0A46807E3F4C467F38CB248A92B85C7216EA4515BA7F80D74E5B478FFCA08D77BDA123A7006AAC1F6C70467A789B3DC202A89653311B2D21360CA08AA63503D01A11
310
BA8063C6FEF50AA9DAA83621A9875D018F9CE9237024F12E47B84D7D436D0009BE005CC987C72F7A61E6701882CFFF05504B0304140006080800B85E324CE0D1DF59DE000000530100003C0000006662782F38423531453646342D414241322D343037372D383634332D3844413142323637313136412F7265736F75726365
310
732F322F636E782E786D6C4D90CD6A042110845F45BC8F3F9B0486C5715F22A75C16A3BD4676B4077F42F2F6D18D819CBAA9FA68AA5A5DBEE24E3E21978069A392094A20597421F98DB67A5B564A2E5A65C4FA0FA32499081B1D32D5CA676CC7941CDC4CDB87BA87749FA2B87A489083BD1EC953627753CA468BFD80689869
310
151D943B73A61A265986822D5BE8276A88304FD80CA682A3FA24E4BA08B9C8F555CAF3CBD3F9797D537C905ABD23EE930FA942C68358EC4BEA7984E2C3D6AAE5309951A21B7FE1580FA778B7B52A35F70F4CAC7E1F1D0BD178E00FE4D7D58A8F8A7D3CFAF739DEA17F00504B0304140006080800B85E324CFF15A4A45D0000
310
00800000003A0000006662782F38423531453646342D414241322D343037372D383634332D3844413142323637313136412F7265736F75726365732F636E782E786D6C4D8B3B0E80201005AF42B6F75B59F0390B113044D83508C6E30BC6C26AF226F3B8BA6360974DA7271430F523308B2B198F9B80925DB700539227A2FC
310
CB80A18E5640D320F996A81C9F32D6E9129A0D1EF74FCE750E6D57BC7165FBCA07504B0304140006080800B85E324C38F939A23E01000046050000300000006662782F38423531453646342D414241322D343037372D383634332D3844413142323637313136412F636E782E786D6CCD94CB6AC33010457F4568EF87FA0013
310
6405BAE8177451BA93E589AB46D618695C9ABFAF943A694B49E92290EEC4E80EDC337319B97E1B1D7B85102DFA968BB2E60CBCC1DEFAA1E5336D8A86B3B5920191BEC838F37A8496E732577208384F4BA9878D9E5DAE3AEBB74B511305DBCD049133E3748C2D8FE619465DEA99B087B82D7B4DBA14658088733090FAC98EB0
310
F49B009AA0E7EAAA164D518B42340F42AC6EAF5737CD93ACB252C90ED12D7AEB09024ECC607AF864A69655FE56720E76D16402AE3E9D959DF5B24AFF4AC6E4D60F8B8E7653D64D93B346531A538586808A24023DCAEA43AC649579BF51DFDF3D1E1CB0DE0630846177A101885303381A2B5312FEC6BF17FE8E8DDD4BC2BDD4
310
B64FC22EB6CE867A486B4C71FDB9FF9422ED07F7FF427F3476FECCA75342D6FC3FE483AF331157FB9397969E2FA07A07504B0304140006080800B85E324CD19097577D000000A30000000B0000006662782F636E782E786D6C4D8C410EC2201405AF42FE1E2D158105D040D47B349636440A068BF1F882E9C2D54B266F460E
310
9F35A0B7CB2F9FA20272E800B9784F938F8B82B2CD58001AB4CC296D7F3740715C9D828641CB25A7F2DCD1E4E6B18446838F8F1D0A7B265776A3D858D363DA718E05A3272C2E86D89E714298A9C6B129757EBDBA2DAFBF504B0304140006080800B85E324CA6D797065F0000008200000007000000636E782E786D6C4DCB3B
310
0E80201045D1AD90E9FD7516806B51190811670C8A61F982B1B0BAC9C97B72CA7B1037C6D3332918DA1E04D2CAC69353902EDB8C20262D23F3F59B81A079470595414B17391D1F19B4730A5583A7ED43BBE4025D9592775E5ADFFA01504B0304140006080800B85E324CECFD112DA800000026010000130000005B436F6E74
310
656E745F54797065735D2E786D6C7D4F4B0EC22010BD0A61DF525D18634ABB506FE00510A79458060253536F2FD89D5197F3FED3F68B9BD80362B21E25DFD40D6780DADF2C1AC9671AAA3D677DD75E9E0112CB5A4C928F44E12044D22338956A1F003333F8E814E5331A1194BE2B0362DB343BA13D122055543278D79E6050
310
F344ECBC6478EDCD76CE8EABAE5449AE4298AC56946789C28AAFBEABC53F3EAF09A84A1441B91F0101CD4780756578C173A578FFDDBD00504B0304140006080800B85E324C3DEE336E64000000790000001B0000006175746F6465736B2D64657369676E2D7061636B6167652E786D6C35CBC10E83200C00D05F21DCA56CA7
310
6D41FC96062B120735B69A7DBE268BB7777961F8D5AF396893C2ADB70FE7ADA196782C2DF776D7A97B5933C430F15651E5469C55D70F80A4992A3ADC954792C525AE70A1E4D6AD9816CC044FEFDF01FE3FDE907802504B0304140006080800B85E324C12C8AC6CF30000008E0100003D0000006662782F3842353145364634
310
2D414241322D343037372D383634332D3844413142323637313136412F7265736F75726365732F322F636F72652E786D6C8550CB6EC32010FC156BEFD860C72D8E30515AFB0F7AEA0D01715162B07854FDFC42E24AEDA9A75DCDCECCEE0E3B7DADB7EA53FB609C1D81D4182A6DA553C62E23A4784114AA1367DEB9F88B0695
310
15AB1EA1C0C0D9E25DDA76483A1BB52DA8754AEFA0084147A8E42D372304F9A157518B1433235CEB4DC8AB58744DEA078FB3948CDAA54665377331DA039F7077A6D33CA16E98067418668ACECFAF3D7A69097922331EF0DCB3A688398B66FDD92EBD16512BE02D26146182087D23E4D877C7037D674D617216A2CF3FEF4BCB
310
7799CE9A07FAC72D6DEA7FB7646CECDADDEDA108C0493EEE3EE0AC29E9E4728F2ED79224FF06504B0304140006080800B85E324C92A4E218F8000000960100003B0000006662782F38423531453646342D414241322D343037372D383634332D3844413142323637313136412F7265736F75726365732F636F72652E786D6C
310
8550CB6E833010FC15B477830DA185C8384A0B7FD0536F96D9502BC1467E54FDFCDA0995DA534FBB9A9D99DD1D7EFA5A6FC5273AAFAD198095140A34CACEDA2C03C470211D1427C19DB5E1170D0A23571C20C320F8E26CDC76485913D064D4D81977507A8F010A754BCD005E7DE02A4B194362F86BB94975950B96AC7CF004
310
8F51CFBB54CFC94D5F343A10236DCEDD388DA4E9C79E1CFAA923E7E7D796BCD48C3DB189F6746A7995C58207BDFE6C570E65C019444D59472823AC7B63ECD836C743F7CEABCC14DC07977EDE97E6EF4038F4363A859E578FE91FD7B8CDFFBB466D4253EFAE0F8507C1D291F781E0554E29957B84A9E644C537504B03041400
310
06080800B85E324C256C3831F1000000B1010000310000006662782F38423531453646342D414241322D343037372D383634332D3844413142323637313136412F636F72652E786D6C8D504D6F842014FC2B863BEA5357C906D968DAFE829E7A23C05AB22B183E9AFEFCC26A93F6B6A747E6CD30F3865EBED77BF1A59CD7D6
310
8C08CA1A15CA082BB5594614C31513545C1875D6863F345418BEAA11651831BA381BB70312D60465326AAC5407C8BD570115E29E1E23F2E253ADBCE4312486BF951B1737BEA812CA9DC768D0EBAF5438C58392883535105C0306F20E703EB5E78E7CD02A33198D51CBC34ACBE4AEAF5A39C4C87C82D7FEADC3D33C35B8AB87
310
0193BE6B317999606EFA01A09F6895C58CFAE0D2CDC727F9BA67E5BBF05FE6B8C927326B13DAE630DC151E3148791E0B46AB5C601A8F76D3CC65B31F504B0304140006080800B85E324CFF82059C53010000DD0200000C0000006662782F636F72652E786D6C8D525D6F832014FD2B867754B4DDB4419A6EFA0FF6B4378AD4
310
912A1804D39F3FF023CE87758B099273EF3DE79E13F0F9D1B5C1C8F520942C000A631070C9542D6453006B6E3003C19960AD94F9D10602493B5E000F03821BAD6CBF404C49C3A547A5AAF902D261E00604AC7597020CEC8B7734A4D6B88EE11EF694DD69C34314CE7D045B2BEA6554D48E4DDC04D78094717AC9CAAA84695E
310
E6F0905719BCBCBE1FE15B82D00BAAE23CAE8E38F2C3041BD1ADEA4C736A780D4812A30CC608A2EC03A1D3313D1DB24F1CF94E8207A39DE745D4BB03E4767DE068C6777CB6AFFFE6B3429A3459F8E6890110E4D69B0A04473E1FF79BC2DB67E8845D7E865EDBD5C2DD41236746E983ABD4CA6EA591B6963BEA38983E1CCD55
310
C73C11FCC6933CE179CEE182A2B271AB51E3AE576BBCFA7EA79E6B389A472095EE68BB2D37AFB89D9BD0CED23ACE54ABF47FA657AB6B98917F98E41B504B0304140006080800B85E324C8754FBB306010000B201000008000000636F72652E786D6C8D50C16E842014FC15F2EE28E8DAEA06D96CAB7FD0536F545897AC8211
310
DCB47F5F5869D2DE7A7A6466DE9B61D8E9739ED05DAD4E5BD302CD082065062BB5195BD8FC05D7804E9CADD6FA5F324046CCAA85080367E36AB7254183355E99881A2B55028573CA031AA6F068C10D57358B4C6C3E28DC2D5BC47013A3CA68B6EB38F37AFE591D5625BC92C00B426B4C28A6F51BA5C7AA3C1EEA7796472567
310
DBA665B2D232B8EB8B562BF08E94E7BAEB3B5C365D830F4D5FE3F3F36B855F0A4A9F684F1AD2572C8FCB9C39BF863FA72321A7474EDCA32FCB778AB30F6BA72408A124B266FA024E581E893FA1B745FE23B436BE2CD2C17DC301A721D08308C6B1C1301EF58619DBE6DF504B01021400140006080800B85E324C0000000000
310
000000000000003700000000000000000000000000000000006662782F38423531453646342D414241322D343037372D383634332D3844413142323637313136412F617474726962757465732E62696E504B01021400140006080800B85E324C00000000000000000000000035000000000000000000000000005500000066
310
62782F38423531453646342D414241322D343037372D383634332D3844413142323637313136412F76657274696365732E62696E504B01021400140006080800B85E324CF270F13306000000040000003600000000000000000000000000A80000006662782F38423531453646342D414241322D343037372D383634332D38
310
44413142323637313136412F747269616E676C65732E62696E504B01021400140006080800B85E324C88E57597CD3F0000904100004200000000000000000000000000020100006662782F38423531453646342D414241322D343037372D383634332D3844413142323637313136412F7265736F75726365732F322F305F67
310
656E657269632E706E67504B01021400140006080800B85E324C51464CB4890000004301000036000000000000000000000000002F4100006662782F38423531453646342D414241322D343037372D383634332D3844413142323637313136412F6469726563746F72792E786D6C504B01021400140006080800B85E324C0F
310
29F6EC3E070000201C000034000000000000000000000000000C4200006662782F38423531453646342D414241322D343037372D383634332D3844413142323637313136412F6F626A656374732E786D6C504B01021400140006080800B85E324CE0D1DF59DE000000530100003C000000000000000000000000009C490000
310
6662782F38423531453646342D414241322D343037372D383634332D3844413142323637313136412F7265736F75726365732F322F636E782E786D6C504B01021400140006080800B85E324CFF15A4A45D000000800000003A00000000000000000000000000D44A00006662782F38423531453646342D414241322D343037
310
372D383634332D3844413142323637313136412F7265736F75726365732F636E782E786D6C504B01021400140006080800B85E324C38F939A23E010000460500003000000000000000000000000000894B00006662782F38423531453646342D414241322D343037372D383634332D3844413142323637313136412F636E78
310
2E786D6C504B01021400140006080800B85E324CD19097577D000000A30000000B00000000000000000000000000154D00006662782F636E782E786D6C504B01021400140006080800B85E324CA6D797065F000000820000000700000000000000000000000000BB4D0000636E782E786D6C504B01021400140006080800B8
310
5E324CECFD112DA80000002601000013000000000000000000000000003F4E00005B436F6E74656E745F54797065735D2E786D6C504B01021400140006080800B85E324C3DEE336E64000000790000001B00000000000000000000000000184F00006175746F6465736B2D64657369676E2D7061636B6167652E786D6C504B
310
01021400140006080800B85E324C12C8AC6CF30000008E0100003D00000000000000000000000000B54F00006662782F38423531453646342D414241322D343037372D383634332D3844413142323637313136412F7265736F75726365732F322F636F72652E786D6C504B01021400140006080800B85E324C92A4E218F800
310
0000960100003B00000000000000000000000000035100006662782F38423531453646342D414241322D343037372D383634332D3844413142323637313136412F7265736F75726365732F636F72652E786D6C504B01021400140006080800B85E324C256C3831F1000000B101000031000000000000000000000000005452
310
00006662782F38423531453646342D414241322D343037372D383634332D3844413142323637313136412F636F72652E786D6C504B01021400140006080800B85E324CFF82059C53010000DD0200000C00000000000000000000000000945300006662782F636F72652E786D6C504B01021400140006080800B85E324C8754
310
FBB306010000B2010000080000000000000000000000000011550000636F72652E786D6C504B050600000000120012002D0600003D5600000000
  0
XRECORD
  5
2CABB
102
{ACAD_REACTORS
330
2CABA
102
}
330
2CABA
100
AcDbXrecord
280
     1
102
ACAD_ROUNDTRIP_2012_MLEADER_STYLE
298
     1
  0
XRECORD
  5
2CA4E
102
{ACAD_REACTORS
330
1DC65
102
}
330
1DC65
100
AcDbXrecord
280
     1
102
DISPLAYNAME
  1
Metric50
102
FLAGS
 90
        0
  0
CELLSTYLEMAP
  5
2CA7F
102
{ACAD_REACTORS
330
2CA7E
102
}
330
2CA7E
100
AcDbCellStyleMap
 90
        3
300
CELLSTYLE
  1
TABLEFORMAT_BEGIN
 90
        5
170
     1
 91
        0
 92
        0
 62
   257
 93
        1
300
CONTENTFORMAT
  1
CONTENTFORMAT_BEGIN
 90
        0
 91
        0
 92
        4
 93
        0
300

 40
0.0
140
1.0
 94
        5
 62
     0
340
17
144
6.0
309
CONTENTFORMAT_END
171
     1
301
MARGIN
  1
CELLMARGIN_BEGIN
 40
1.5
 40
1.5
 40
1.5
 40
1.5
 40
1.5
 40
1.5
309
CELLMARGIN_END
 94
        6
 95
        1
302
GRIDFORMAT
  1
GRIDFORMAT_BEGIN
 90
        0
 91
        1
 62
     0
 92
       -2
340
11
 93
        0
 40
0.045
309
GRIDFORMAT_END
 95
        2
302
GRIDFORMAT
  1
GRIDFORMAT_BEGIN
 90
        0
 91
        1
 62
     0
 92
       -2
340
11
 93
        0
 40
0.045
309
GRIDFORMAT_END
 95
        4
302
GRIDFORMAT
  1
GRIDFORMAT_BEGIN
 90
        0
 91
        1
 62
     0
 92
       -2
340
11
 93
        0
 40
0.045
309
GRIDFORMAT_END
 95
        8
302
GRIDFORMAT
  1
GRIDFORMAT_BEGIN
 90
        0
 91
        1
 62
     0
 92
       -2
340
11
 93
        0
 40
0.045
309
GRIDFORMAT_END
 95
       16
302
GRIDFORMAT
  1
GRIDFORMAT_BEGIN
 90
        0
 91
        1
 62
     0
 92
       -2
340
11
 93
        0
 40
0.045
309
GRIDFORMAT_END
 95
       32
302
GRIDFORMAT
  1
GRIDFORMAT_BEGIN
 90
        0
 91
        1
 62
     0
 92
       -2
340
11
 93
        0
 40
0.045
309
GRIDFORMAT_END
309
TABLEFORMAT_END
  1
CELLSTYLE_BEGIN
 90
        1
 91
        1
300
_TITLE
309
CELLSTYLE_END
300
CELLSTYLE
  1
TABLEFORMAT_BEGIN
 90
        5
170
     1
 91
        0
 92
        0
 62
   257
 93
        1
300
CONTENTFORMAT
  1
CONTENTFORMAT_BEGIN
 90
        0
 91
        0
 92
        4
 93
        0
300

 40
0.0
140
1.0
 94
        5
 62
     0
340
17
144
4.5
309
CONTENTFORMAT_END
171
     1
301
MARGIN
  1
CELLMARGIN_BEGIN
 40
1.5
 40
1.5
 40
1.5
 40
1.5
 40
1.5
 40
1.5
309
CELLMARGIN_END
 94
        6
 95
        1
302
GRIDFORMAT
  1
GRIDFORMAT_BEGIN
 90
        0
 91
        1
 62
     0
 92
       -2
340
11
 93
        0
 40
0.045
309
GRIDFORMAT_END
 95
        2
302
GRIDFORMAT
  1
GRIDFORMAT_BEGIN
 90
        0
 91
        1
 62
     0
 92
       -2
340
11
 93
        0
 40
0.045
309
GRIDFORMAT_END
 95
        4
302
GRIDFORMAT
  1
GRIDFORMAT_BEGIN
 90
        0
 91
        1
 62
     0
 92
       -2
340
11
 93
        0
 40
0.045
309
GRIDFORMAT_END
 95
        8
302
GRIDFORMAT
  1
GRIDFORMAT_BEGIN
 90
        0
 91
        1
 62
     0
 92
       -2
340
11
 93
        0
 40
0.045
309
GRIDFORMAT_END
 95
       16
302
GRIDFORMAT
  1
GRIDFORMAT_BEGIN
 90
        0
 91
        1
 62
     0
 92
       -2
340
11
 93
        0
 40
0.045
309
GRIDFORMAT_END
 95
       32
302
GRIDFORMAT
  1
GRIDFORMAT_BEGIN
 90
        0
 91
        1
 62
     0
 92
       -2
340
11
 93
        0
 40
0.045
309
GRIDFORMAT_END
309
TABLEFORMAT_END
  1
CELLSTYLE_BEGIN
 90
        2
 91
        1
300
_HEADER
309
CELLSTYLE_END
300
CELLSTYLE
  1
TABLEFORMAT_BEGIN
 90
        5
170
     1
 91
        0
 92
        0
 62
   257
 93
        1
300
CONTENTFORMAT
  1
CONTENTFORMAT_BEGIN
 90
        0
 91
        0
 92
        4
 93
        0
300

 40
0.0
140
1.0
 94
        2
 62
     0
340
17
144
4.5
309
CONTENTFORMAT_END
171
     1
301
MARGIN
  1
CELLMARGIN_BEGIN
 40
1.5
 40
1.5
 40
1.5
 40
1.5
 40
1.5
 40
1.5
309
CELLMARGIN_END
 94
        6
 95
        1
302
GRIDFORMAT
  1
GRIDFORMAT_BEGIN
 90
        0
 91
        1
 62
     0
 92
       -2
340
11
 93
        0
 40
0.045
309
GRIDFORMAT_END
 95
        2
302
GRIDFORMAT
  1
GRIDFORMAT_BEGIN
 90
        0
 91
        1
 62
     0
 92
       -2
340
11
 93
        0
 40
0.045
309
GRIDFORMAT_END
 95
        4
302
GRIDFORMAT
  1
GRIDFORMAT_BEGIN
 90
        0
 91
        1
 62
     0
 92
       -2
340
11
 93
        0
 40
0.045
309
GRIDFORMAT_END
 95
        8
302
GRIDFORMAT
  1
GRIDFORMAT_BEGIN
 90
        0
 91
        1
 62
     0
 92
       -2
340
11
 93
        0
 40
0.045
309
GRIDFORMAT_END
 95
       16
302
GRIDFORMAT
  1
GRIDFORMAT_BEGIN
 90
        0
 91
        1
 62
     0
 92
       -2
340
11
 93
        0
 40
0.045
309
GRIDFORMAT_END
 95
       32
302
GRIDFORMAT
  1
GRIDFORMAT_BEGIN
 90
        0
 91
        1
 62
     0
 92
       -2
340
11
 93
        0
 40
0.045
309
GRIDFORMAT_END
309
TABLEFORMAT_END
  1
CELLSTYLE_BEGIN
 90
        3
 91
        2
300
_DATA
309
CELLSTYLE_END
  0
XRECORD
  5
2CA93
102
{ACAD_REACTORS
330
2CA92
102
}
330
2CA92
100
AcDbXrecord
280
     1
102
RTVSPost2010Prop28
280
     1
102
RTVSPost2010PropOp28
 70
     1
102
RTVSPost2010Prop29
280
     1
102
RTVSPost2010PropOp29
 70
     1
102
RTVSPost2010Prop30
280
     0
102
RTVSPost2010PropOp30
 70
     1
102
RTVSPost2010Prop31
280
     0
102
RTVSPost2010PropOp31
 70
     1
102
RTVSPost2010Prop32
280
     0
102
RTVSPost2010PropOp32
 70
     1
102
RTVSPost2010Prop33
280
     0
102
RTVSPost2010PropOp33
 70
     1
102
RTVSPost2010Prop34
280
     0
102
RTVSPost2010PropOp34
 70
     1
102
RTVSPost2010Prop35
280
     0
102
RTVSPost2010PropOp35
 70
     1
102
RTVSPost2010Prop36
280
     0
102
RTVSPost2010PropOp36
 70
     1
102
RTVSPost2010Prop37
 90
       50
102
RTVSPost2010PropOp37
 70
     1
102
RTVSPost2010Prop38
140
0.0
102
RTVSPost2010PropOp38
 70
     1
102
RTVSPost2010Prop39
140
1.0
102
RTVSPost2010PropOp39
 70
     1
102
RTVSPost2010Prop40
 90
        0
102
RTVSPost2010PropOp40
 70
     1
102
RTVSPost2010Prop41ColorIndex
 90
       18
102
RTVSPost2010Prop41ColorRGB
 90
        0
102
RTVSPost2010PropOp41
 70
     1
102
RTVSPost2010Prop42
 90
       50
102
RTVSPost2010PropOp42
 70
     1
102
RTVSPost2010Prop43
 90
        3
102
RTVSPost2010PropOp43
 70
     1
102
RTVSPost2010Prop44ColorIndex
 90
        5
102
RTVSPost2010Prop44ColorRGB
 90
      255
102
RTVSPost2010PropOp44
 70
     1
102
RTVSPost2010Prop45
280
     0
102
RTVSPost2010PropOp45
 70
     1
102
RTVSPost2010Prop46
 90
       50
102
RTVSPost2010PropOp46
 70
     1
102
RTVSPost2010Prop47
 90
       50
102
RTVSPost2010PropOp47
 70
     1
102
RTVSPost2010Prop48
 90
       50
102
RTVSPost2010PropOp48
 70
     1
102
RTVSPost2010Prop49
280
     0
102
RTVSPost2010PropOp49
 70
     1
102
RTVSPost2010Prop50
 90
       50
102
RTVSPost2010PropOp50
 70
     1
102
RTVSPost2010Prop51ColorIndex
 90
      256
102
RTVSPost2010Prop51ColorRGB
 90
-16777216
102
RTVSPost2010PropOp51
 70
     0
102
RTVSPost2010Prop52
140
1.0
102
RTVSPost2010PropOp52
 70
     0
102
RTVSPost2010Prop53
 90
        2
102
RTVSPost2010PropOp53
 70
     1
102
RTVSPost2010Prop54
  1
strokes_ogs.tif
102
RTVSPost2010PropOp54
 70
     1
102
RTVSPost2010Prop55
280
     0
102
RTVSPost2010PropOp55
 70
     1
102
RTVSPost2010Prop56
140
1.0
102
RTVSPost2010PropOp56
 70
     1
102
RTVSPost2010Prop57
140
1.0
102
RTVSPost2010PropOp57
 70
     1
  0
XRECORD
  5
2CA99
102
{ACAD_REACTORS
330
2CA98
102
}
330
2CA98
100
AcDbXrecord
280
     1
102
RTVSPost2010Prop28
280
     0
102
RTVSPost2010PropOp28
 70
     1
102
RTVSPost2010Prop29
280
     1
102
RTVSPost2010PropOp29
 70
     1
102
RTVSPost2010Prop30
280
     1
102
RTVSPost2010PropOp30
 70
     1
102
RTVSPost2010Prop31
280
     0
102
RTVSPost2010PropOp31
 70
     1
102
RTVSPost2010Prop32
280
     0
102
RTVSPost2010PropOp32
 70
     1
102
RTVSPost2010Prop33
280
     0
102
RTVSPost2010PropOp33
 70
     1
102
RTVSPost2010Prop34
280
     0
102
RTVSPost2010PropOp34
 70
     1
102
RTVSPost2010Prop35
280
     0
102
RTVSPost2010PropOp35
 70
     1
102
RTVSPost2010Prop36
280
     0
102
RTVSPost2010PropOp36
 70
     1
102
RTVSPost2010Prop37
 90
       50
102
RTVSPost2010PropOp37
 70
     1
102
RTVSPost2010Prop38
140
0.0
102
RTVSPost2010PropOp38
 70
     1
102
RTVSPost2010Prop39
140
1.0
102
RTVSPost2010PropOp39
 70
     1
102
RTVSPost2010Prop40
 90
        0
102
RTVSPost2010PropOp40
 70
     1
102
RTVSPost2010Prop41ColorIndex
 90
       18
102
RTVSPost2010Prop41ColorRGB
 90
        0
102
RTVSPost2010PropOp41
 70
     1
102
RTVSPost2010Prop42
 90
       50
102
RTVSPost2010PropOp42
 70
     1
102
RTVSPost2010Prop43
 90
        3
102
RTVSPost2010PropOp43
 70
     1
102
RTVSPost2010Prop44ColorIndex
 90
        5
102
RTVSPost2010Prop44ColorRGB
 90
      255
102
RTVSPost2010PropOp44
 70
     1
102
RTVSPost2010Prop45
280
     0
102
RTVSPost2010PropOp45
 70
     1
102
RTVSPost2010Prop46
 90
       50
102
RTVSPost2010PropOp46
 70
     1
102
RTVSPost2010Prop47
 90
       50
102
RTVSPost2010PropOp47
 70
     1
102
RTVSPost2010Prop48
 90
       50
102
RTVSPost2010PropOp48
 70
     1
102
RTVSPost2010Prop49
280
     0
102
RTVSPost2010PropOp49
 70
     1
102
RTVSPost2010Prop50
 90
       50
102
RTVSPost2010PropOp50
 70
     1
102
RTVSPost2010Prop51ColorIndex
 90
      256
102
RTVSPost2010Prop51ColorRGB
 90
-16777216
102
RTVSPost2010PropOp51
 70
     0
102
RTVSPost2010Prop52
140
1.0
102
RTVSPost2010PropOp52
 70
     0
102
RTVSPost2010Prop53
 90
        2
102
RTVSPost2010PropOp53
 70
     1
102
RTVSPost2010Prop54
  1
strokes_ogs.tif
102
RTVSPost2010PropOp54
 70
     1
102
RTVSPost2010Prop55
280
     0
102
RTVSPost2010PropOp55
 70
     1
102
RTVSPost2010Prop56
140
1.0
102
RTVSPost2010PropOp56
 70
     1
102
RTVSPost2010Prop57
140
1.0
102
RTVSPost2010PropOp57
 70
     1
  0
XRECORD
  5
2CAA1
102
{ACAD_REACTORS
330
2CAA0
102
}
330
2CAA0
100
AcDbXrecord
280
     1
102
RTVSPost2010Prop28
280
     0
102
RTVSPost2010PropOp28
 70
     1
102
RTVSPost2010Prop29
280
     1
102
RTVSPost2010PropOp29
 70
     1
102
RTVSPost2010Prop30
280
     1
102
RTVSPost2010PropOp30
 70
     1
102
RTVSPost2010Prop31
280
     0
102
RTVSPost2010PropOp31
 70
     1
102
RTVSPost2010Prop32
280
     0
102
RTVSPost2010PropOp32
 70
     1
102
RTVSPost2010Prop33
280
     0
102
RTVSPost2010PropOp33
 70
     1
102
RTVSPost2010Prop34
280
     0
102
RTVSPost2010PropOp34
 70
     1
102
RTVSPost2010Prop35
280
     0
102
RTVSPost2010PropOp35
 70
     1
102
RTVSPost2010Prop36
280
     0
102
RTVSPost2010PropOp36
 70
     1
102
RTVSPost2010Prop37
 90
       50
102
RTVSPost2010PropOp37
 70
     1
102
RTVSPost2010Prop38
140
0.0
102
RTVSPost2010PropOp38
 70
     1
102
RTVSPost2010Prop39
140
1.0
102
RTVSPost2010PropOp39
 70
     1
102
RTVSPost2010Prop40
 90
        0
102
RTVSPost2010PropOp40
 70
     1
102
RTVSPost2010Prop41ColorIndex
 90
       18
102
RTVSPost2010Prop41ColorRGB
 90
        0
102
RTVSPost2010PropOp41
 70
     1
102
RTVSPost2010Prop42
 90
       50
102
RTVSPost2010PropOp42
 70
     1
102
RTVSPost2010Prop43
 90
        3
102
RTVSPost2010PropOp43
 70
     1
102
RTVSPost2010Prop44ColorIndex
 90
        5
102
RTVSPost2010Prop44ColorRGB
 90
      255
102
RTVSPost2010PropOp44
 70
     1
102
RTVSPost2010Prop45
280
     0
102
RTVSPost2010PropOp45
 70
     1
102
RTVSPost2010Prop46
 90
       50
102
RTVSPost2010PropOp46
 70
     1
102
RTVSPost2010Prop47
 90
       50
102
RTVSPost2010PropOp47
 70
     1
102
RTVSPost2010Prop48
 90
       50
102
RTVSPost2010PropOp48
 70
     1
102
RTVSPost2010Prop49
280
     0
102
RTVSPost2010PropOp49
 70
     1
102
RTVSPost2010Prop50
 90
       50
102
RTVSPost2010PropOp50
 70
     1
102
RTVSPost2010Prop51ColorIndex
 90
      256
102
RTVSPost2010Prop51ColorRGB
 90
-16777216
102
RTVSPost2010PropOp51
 70
     0
102
RTVSPost2010Prop52
140
1.0
102
RTVSPost2010PropOp52
 70
     0
102
RTVSPost2010Prop53
 90
        2
102
RTVSPost2010PropOp53
 70
     1
102
RTVSPost2010Prop54
  1
strokes_ogs.tif
102
RTVSPost2010PropOp54
 70
     1
102
RTVSPost2010Prop55
280
     0
102
RTVSPost2010PropOp55
 70
     1
102
RTVSPost2010Prop56
140
1.0
102
RTVSPost2010PropOp56
 70
     1
102
RTVSPost2010Prop57
140
1.0
102
RTVSPost2010PropOp57
 70
     1
  0
XRECORD
  5
2CAA9
102
{ACAD_REACTORS
330
2CAA8
102
}
330
2CAA8
100
AcDbXrecord
280
     1
102
RTVSPost2010Prop28
280
     0
102
RTVSPost2010PropOp28
 70
     1
102
RTVSPost2010Prop29
280
     1
102
RTVSPost2010PropOp29
 70
     1
102
RTVSPost2010Prop30
280
     1
102
RTVSPost2010PropOp30
 70
     1
102
RTVSPost2010Prop31
280
     0
102
RTVSPost2010PropOp31
 70
     1
102
RTVSPost2010Prop32
280
     0
102
RTVSPost2010PropOp32
 70
     1
102
RTVSPost2010Prop33
280
     0
102
RTVSPost2010PropOp33
 70
     1
102
RTVSPost2010Prop34
280
     0
102
RTVSPost2010PropOp34
 70
     1
102
RTVSPost2010Prop35
280
     0
102
RTVSPost2010PropOp35
 70
     1
102
RTVSPost2010Prop36
280
     0
102
RTVSPost2010PropOp36
 70
     1
102
RTVSPost2010Prop37
 90
       50
102
RTVSPost2010PropOp37
 70
     1
102
RTVSPost2010Prop38
140
0.0
102
RTVSPost2010PropOp38
 70
     1
102
RTVSPost2010Prop39
140
1.0
102
RTVSPost2010PropOp39
 70
     1
102
RTVSPost2010Prop40
 90
        0
102
RTVSPost2010PropOp40
 70
     1
102
RTVSPost2010Prop41ColorIndex
 90
       18
102
RTVSPost2010Prop41ColorRGB
 90
        0
102
RTVSPost2010PropOp41
 70
     1
102
RTVSPost2010Prop42
 90
       50
102
RTVSPost2010PropOp42
 70
     1
102
RTVSPost2010Prop43
 90
        3
102
RTVSPost2010PropOp43
 70
     1
102
RTVSPost2010Prop44ColorIndex
 90
        5
102
RTVSPost2010Prop44ColorRGB
 90
      255
102
RTVSPost2010PropOp44
 70
     1
102
RTVSPost2010Prop45
280
     0
102
RTVSPost2010PropOp45
 70
     1
102
RTVSPost2010Prop46
 90
       50
102
RTVSPost2010PropOp46
 70
     1
102
RTVSPost2010Prop47
 90
       50
102
RTVSPost2010PropOp47
 70
     1
102
RTVSPost2010Prop48
 90
       50
102
RTVSPost2010PropOp48
 70
     1
102
RTVSPost2010Prop49
280
     0
102
RTVSPost2010PropOp49
 70
     1
102
RTVSPost2010Prop50
 90
       50
102
RTVSPost2010PropOp50
 70
     1
102
RTVSPost2010Prop51ColorIndex
 90
      256
102
RTVSPost2010Prop51ColorRGB
 90
-16777216
102
RTVSPost2010PropOp51
 70
     0
102
RTVSPost2010Prop52
140
1.0
102
RTVSPost2010PropOp52
 70
     0
102
RTVSPost2010Prop53
 90
        2
102
RTVSPost2010PropOp53
 70
     1
102
RTVSPost2010Prop54
  1
strokes_ogs.tif
102
RTVSPost2010PropOp54
 70
     1
102
RTVSPost2010Prop55
280
     0
102
RTVSPost2010PropOp55
 70
     1
102
RTVSPost2010Prop56
140
1.0
102
RTVSPost2010PropOp56
 70
     1
102
RTVSPost2010Prop57
140
1.0
102
RTVSPost2010PropOp57
 70
     1
  0
XRECORD
  5
2CA9D
102
{ACAD_REACTORS
330
2CA9C
102
}
330
2CA9C
100
AcDbXrecord
280
     1
102
RTVSPost2010Prop28
280
     0
102
RTVSPost2010PropOp28
 70
     1
102
RTVSPost2010Prop29
280
     1
102
RTVSPost2010PropOp29
 70
     1
102
RTVSPost2010Prop30
280
     1
102
RTVSPost2010PropOp30
 70
     1
102
RTVSPost2010Prop31
280
     0
102
RTVSPost2010PropOp31
 70
     1
102
RTVSPost2010Prop32
280
     0
102
RTVSPost2010PropOp32
 70
     1
102
RTVSPost2010Prop33
280
     0
102
RTVSPost2010PropOp33
 70
     1
102
RTVSPost2010Prop34
280
     0
102
RTVSPost2010PropOp34
 70
     1
102
RTVSPost2010Prop35
280
     0
102
RTVSPost2010PropOp35
 70
     1
102
RTVSPost2010Prop36
280
     0
102
RTVSPost2010PropOp36
 70
     1
102
RTVSPost2010Prop37
 90
       50
102
RTVSPost2010PropOp37
 70
     1
102
RTVSPost2010Prop38
140
0.0
102
RTVSPost2010PropOp38
 70
     1
102
RTVSPost2010Prop39
140
1.0
102
RTVSPost2010PropOp39
 70
     1
102
RTVSPost2010Prop40
 90
        0
102
RTVSPost2010PropOp40
 70
     1
102
RTVSPost2010Prop41ColorIndex
 90
       18
102
RTVSPost2010Prop41ColorRGB
 90
        0
102
RTVSPost2010PropOp41
 70
     1
102
RTVSPost2010Prop42
 90
       50
102
RTVSPost2010PropOp42
 70
     1
102
RTVSPost2010Prop43
 90
        3
102
RTVSPost2010PropOp43
 70
     1
102
RTVSPost2010Prop44ColorIndex
 90
        5
102
RTVSPost2010Prop44ColorRGB
 90
      255
102
RTVSPost2010PropOp44
 70
     1
102
RTVSPost2010Prop45
280
     0
102
RTVSPost2010PropOp45
 70
     1
102
RTVSPost2010Prop46
 90
       50
102
RTVSPost2010PropOp46
 70
     1
102
RTVSPost2010Prop47
 90
       50
102
RTVSPost2010PropOp47
 70
     1
102
RTVSPost2010Prop48
 90
       50
102
RTVSPost2010PropOp48
 70
     1
102
RTVSPost2010Prop49
280
     0
102
RTVSPost2010PropOp49
 70
     1
102
RTVSPost2010Prop50
 90
       50
102
RTVSPost2010PropOp50
 70
     1
102
RTVSPost2010Prop51ColorIndex
 90
      256
102
RTVSPost2010Prop51ColorRGB
 90
-16777216
102
RTVSPost2010PropOp51
 70
     0
102
RTVSPost2010Prop52
140
1.0
102
RTVSPost2010PropOp52
 70
     0
102
RTVSPost2010Prop53
 90
        2
102
RTVSPost2010PropOp53
 70
     1
102
RTVSPost2010Prop54
  1
strokes_ogs.tif
102
RTVSPost2010PropOp54
 70
     1
102
RTVSPost2010Prop55
280
     0
102
RTVSPost2010PropOp55
 70
     1
102
RTVSPost2010Prop56
140
1.0
102
RTVSPost2010PropOp56
 70
     1
102
RTVSPost2010Prop57
140
1.0
102
RTVSPost2010PropOp57
 70
     1
  0
XRECORD
  5
2CA9F
102
{ACAD_REACTORS
330
2CA9E
102
}
330
2CA9E
100
AcDbXrecord
280
     1
102
RTVSPost2010Prop28
280
     0
102
RTVSPost2010PropOp28
 70
     1
102
RTVSPost2010Prop29
280
     1
102
RTVSPost2010PropOp29
 70
     1
102
RTVSPost2010Prop30
280
     1
102
RTVSPost2010PropOp30
 70
     1
102
RTVSPost2010Prop31
280
     0
102
RTVSPost2010PropOp31
 70
     1
102
RTVSPost2010Prop32
280
     0
102
RTVSPost2010PropOp32
 70
     1
102
RTVSPost2010Prop33
280
     0
102
RTVSPost2010PropOp33
 70
     1
102
RTVSPost2010Prop34
280
     0
102
RTVSPost2010PropOp34
 70
     1
102
RTVSPost2010Prop35
280
     0
102
RTVSPost2010PropOp35
 70
     1
102
RTVSPost2010Prop36
280
     0
102
RTVSPost2010PropOp36
 70
     1
102
RTVSPost2010Prop37
 90
       50
102
RTVSPost2010PropOp37
 70
     1
102
RTVSPost2010Prop38
140
0.0
102
RTVSPost2010PropOp38
 70
     1
102
RTVSPost2010Prop39
140
1.0
102
RTVSPost2010PropOp39
 70
     1
102
RTVSPost2010Prop40
 90
        0
102
RTVSPost2010PropOp40
 70
     1
102
RTVSPost2010Prop41ColorIndex
 90
       18
102
RTVSPost2010Prop41ColorRGB
 90
        0
102
RTVSPost2010PropOp41
 70
     1
102
RTVSPost2010Prop42
 90
       50
102
RTVSPost2010PropOp42
 70
     1
102
RTVSPost2010Prop43
 90
        3
102
RTVSPost2010PropOp43
 70
     1
102
RTVSPost2010Prop44ColorIndex
 90
        5
102
RTVSPost2010Prop44ColorRGB
 90
      255
102
RTVSPost2010PropOp44
 70
     1
102
RTVSPost2010Prop45
280
     0
102
RTVSPost2010PropOp45
 70
     1
102
RTVSPost2010Prop46
 90
       50
102
RTVSPost2010PropOp46
 70
     1
102
RTVSPost2010Prop47
 90
       50
102
RTVSPost2010PropOp47
 70
     1
102
RTVSPost2010Prop48
 90
       50
102
RTVSPost2010PropOp48
 70
     1
102
RTVSPost2010Prop49
280
     0
102
RTVSPost2010PropOp49
 70
     1
102
RTVSPost2010Prop50
 90
       50
102
RTVSPost2010PropOp50
 70
     1
102
RTVSPost2010Prop51ColorIndex
 90
      256
102
RTVSPost2010Prop51ColorRGB
 90
-16777216
102
RTVSPost2010PropOp51
 70
     0
102
RTVSPost2010Prop52
140
1.0
102
RTVSPost2010PropOp52
 70
     0
102
RTVSPost2010Prop53
 90
        2
102
RTVSPost2010PropOp53
 70
     1
102
RTVSPost2010Prop54
  1
strokes_ogs.tif
102
RTVSPost2010PropOp54
 70
     1
102
RTVSPost2010Prop55
280
     0
102
RTVSPost2010PropOp55
 70
     1
102
RTVSPost2010Prop56
140
1.0
102
RTVSPost2010PropOp56
 70
     1
102
RTVSPost2010Prop57
140
1.0
102
RTVSPost2010PropOp57
 70
     1
  0
XRECORD
  5
2CAAF
102
{ACAD_REACTORS
330
2CAAE
102
}
330
2CAAE
100
AcDbXrecord
280
     1
102
RTVSPost2010Prop28
280
     0
102
RTVSPost2010PropOp28
 70
     0
102
RTVSPost2010Prop29
280
     1
102
RTVSPost2010PropOp29
 70
     0
102
RTVSPost2010Prop30
280
     1
102
RTVSPost2010PropOp30
 70
     0
102
RTVSPost2010Prop31
280
     0
102
RTVSPost2010PropOp31
 70
     0
102
RTVSPost2010Prop32
280
     0
102
RTVSPost2010PropOp32
 70
     0
102
RTVSPost2010Prop33
280
     0
102
RTVSPost2010PropOp33
 70
     0
102
RTVSPost2010Prop34
280
     0
102
RTVSPost2010PropOp34
 70
     0
102
RTVSPost2010Prop35
280
     0
102
RTVSPost2010PropOp35
 70
     0
102
RTVSPost2010Prop36
280
     0
102
RTVSPost2010PropOp36
 70
     0
102
RTVSPost2010Prop37
 90
       50
102
RTVSPost2010PropOp37
 70
     0
102
RTVSPost2010Prop38
140
0.0
102
RTVSPost2010PropOp38
 70
     0
102
RTVSPost2010Prop39
140
1.0
102
RTVSPost2010PropOp39
 70
     0
102
RTVSPost2010Prop40
 90
        0
102
RTVSPost2010PropOp40
 70
     0
102
RTVSPost2010Prop41ColorIndex
 90
       18
102
RTVSPost2010Prop41ColorRGB
 90
        0
102
RTVSPost2010PropOp41
 70
     0
102
RTVSPost2010Prop42
 90
       50
102
RTVSPost2010PropOp42
 70
     0
102
RTVSPost2010Prop43
 90
        3
102
RTVSPost2010PropOp43
 70
     0
102
RTVSPost2010Prop44ColorIndex
 90
        5
102
RTVSPost2010Prop44ColorRGB
 90
      255
102
RTVSPost2010PropOp44
 70
     0
102
RTVSPost2010Prop45
280
     0
102
RTVSPost2010PropOp45
 70
     0
102
RTVSPost2010Prop46
 90
       50
102
RTVSPost2010PropOp46
 70
     0
102
RTVSPost2010Prop47
 90
       50
102
RTVSPost2010PropOp47
 70
     0
102
RTVSPost2010Prop48
 90
       50
102
RTVSPost2010PropOp48
 70
     0
102
RTVSPost2010Prop49
280
     0
102
RTVSPost2010PropOp49
 70
     0
102
RTVSPost2010Prop50
 90
       50
102
RTVSPost2010PropOp50
 70
     0
102
RTVSPost2010Prop51ColorIndex
 90
      256
102
RTVSPost2010Prop51ColorRGB
 90
-16777216
102
RTVSPost2010PropOp51
 70
     0
102
RTVSPost2010Prop52
140
1.0
102
RTVSPost2010PropOp52
 70
     0
102
RTVSPost2010Prop53
 90
        2
102
RTVSPost2010PropOp53
 70
     0
102
RTVSPost2010Prop54
  1
strokes_ogs.tif
102
RTVSPost2010PropOp54
 70
     0
102
RTVSPost2010Prop55
280
     0
102
RTVSPost2010PropOp55
 70
     0
102
RTVSPost2010Prop56
140
1.0
102
RTVSPost2010PropOp56
 70
     0
102
RTVSPost2010Prop57
140
1.0
102
RTVSPost2010PropOp57
 70
     0
  0
XRECORD
  5
2CAA7
102
{ACAD_REACTORS
330
2CAA6
102
}
330
2CAA6
100
AcDbXrecord
280
     1
102
RTVSPost2010Prop28
280
     0
102
RTVSPost2010PropOp28
 70
     1
102
RTVSPost2010Prop29
280
     1
102
RTVSPost2010PropOp29
 70
     1
102
RTVSPost2010Prop30
280
     1
102
RTVSPost2010PropOp30
 70
     1
102
RTVSPost2010Prop31
280
     0
102
RTVSPost2010PropOp31
 70
     1
102
RTVSPost2010Prop32
280
     0
102
RTVSPost2010PropOp32
 70
     1
102
RTVSPost2010Prop33
280
     0
102
RTVSPost2010PropOp33
 70
     1
102
RTVSPost2010Prop34
280
     0
102
RTVSPost2010PropOp34
 70
     1
102
RTVSPost2010Prop35
280
     0
102
RTVSPost2010PropOp35
 70
     1
102
RTVSPost2010Prop36
280
     0
102
RTVSPost2010PropOp36
 70
     1
102
RTVSPost2010Prop37
 90
       50
102
RTVSPost2010PropOp37
 70
     1
102
RTVSPost2010Prop38
140
0.0
102
RTVSPost2010PropOp38
 70
     1
102
RTVSPost2010Prop39
140
1.0
102
RTVSPost2010PropOp39
 70
     1
102
RTVSPost2010Prop40
 90
        0
102
RTVSPost2010PropOp40
 70
     1
102
RTVSPost2010Prop41ColorIndex
 90
       18
102
RTVSPost2010Prop41ColorRGB
 90
        0
102
RTVSPost2010PropOp41
 70
     1
102
RTVSPost2010Prop42
 90
       50
102
RTVSPost2010PropOp42
 70
     1
102
RTVSPost2010Prop43
 90
        3
102
RTVSPost2010PropOp43
 70
     1
102
RTVSPost2010Prop44ColorIndex
 90
        5
102
RTVSPost2010Prop44ColorRGB
 90
      255
102
RTVSPost2010PropOp44
 70
     1
102
RTVSPost2010Prop45
280
     0
102
RTVSPost2010PropOp45
 70
     1
102
RTVSPost2010Prop46
 90
       50
102
RTVSPost2010PropOp46
 70
     1
102
RTVSPost2010Prop47
 90
       50
102
RTVSPost2010PropOp47
 70
     1
102
RTVSPost2010Prop48
 90
       50
102
RTVSPost2010PropOp48
 70
     1
102
RTVSPost2010Prop49
280
     0
102
RTVSPost2010PropOp49
 70
     1
102
RTVSPost2010Prop50
 90
       50
102
RTVSPost2010PropOp50
 70
     1
102
RTVSPost2010Prop51ColorIndex
 90
      256
102
RTVSPost2010Prop51ColorRGB
 90
-16777216
102
RTVSPost2010PropOp51
 70
     0
102
RTVSPost2010Prop52
140
1.0
102
RTVSPost2010PropOp52
 70
     0
102
RTVSPost2010Prop53
 90
        2
102
RTVSPost2010PropOp53
 70
     1
102
RTVSPost2010Prop54
  1
strokes_ogs.tif
102
RTVSPost2010PropOp54
 70
     1
102
RTVSPost2010Prop55
280
     0
102
RTVSPost2010PropOp55
 70
     1
102
RTVSPost2010Prop56
140
1.0
102
RTVSPost2010PropOp56
 70
     1
102
RTVSPost2010Prop57
140
1.0
102
RTVSPost2010PropOp57
 70
     1
  0
XRECORD
  5
2CA8B
102
{ACAD_REACTORS
330
2CA8A
102
}
330
2CA8A
100
AcDbXrecord
280
     1
102
RTVSPost2010Prop28
280
     0
102
RTVSPost2010PropOp28
 70
     1
102
RTVSPost2010Prop29
280
     1
102
RTVSPost2010PropOp29
 70
     1
102
RTVSPost2010Prop30
280
     1
102
RTVSPost2010PropOp30
 70
     1
102
RTVSPost2010Prop31
280
     0
102
RTVSPost2010PropOp31
 70
     1
102
RTVSPost2010Prop32
280
     0
102
RTVSPost2010PropOp32
 70
     1
102
RTVSPost2010Prop33
280
     0
102
RTVSPost2010PropOp33
 70
     1
102
RTVSPost2010Prop34
280
     0
102
RTVSPost2010PropOp34
 70
     1
102
RTVSPost2010Prop35
280
     0
102
RTVSPost2010PropOp35
 70
     1
102
RTVSPost2010Prop36
280
     0
102
RTVSPost2010PropOp36
 70
     1
102
RTVSPost2010Prop37
 90
       50
102
RTVSPost2010PropOp37
 70
     1
102
RTVSPost2010Prop38
140
0.0
102
RTVSPost2010PropOp38
 70
     1
102
RTVSPost2010Prop39
140
1.0
102
RTVSPost2010PropOp39
 70
     1
102
RTVSPost2010Prop40
 90
        0
102
RTVSPost2010PropOp40
 70
     1
102
RTVSPost2010Prop41ColorIndex
 90
       18
102
RTVSPost2010Prop41ColorRGB
 90
        0
102
RTVSPost2010PropOp41
 70
     1
102
RTVSPost2010Prop42
 90
       50
102
RTVSPost2010PropOp42
 70
     1
102
RTVSPost2010Prop43
 90
        3
102
RTVSPost2010PropOp43
 70
     1
102
RTVSPost2010Prop44ColorIndex
 90
        5
102
RTVSPost2010Prop44ColorRGB
 90
      255
102
RTVSPost2010PropOp44
 70
     1
102
RTVSPost2010Prop45
280
     0
102
RTVSPost2010PropOp45
 70
     1
102
RTVSPost2010Prop46
 90
       50
102
RTVSPost2010PropOp46
 70
     1
102
RTVSPost2010Prop47
 90
       50
102
RTVSPost2010PropOp47
 70
     1
102
RTVSPost2010Prop48
 90
       50
102
RTVSPost2010PropOp48
 70
     1
102
RTVSPost2010Prop49
280
     0
102
RTVSPost2010PropOp49
 70
     1
102
RTVSPost2010Prop50
 90
       50
102
RTVSPost2010PropOp50
 70
     1
102
RTVSPost2010Prop51ColorIndex
 90
      256
102
RTVSPost2010Prop51ColorRGB
 90
-16777216
102
RTVSPost2010PropOp51
 70
     0
102
RTVSPost2010Prop52
140
1.0
102
RTVSPost2010PropOp52
 70
     0
102
RTVSPost2010Prop53
 90
        2
102
RTVSPost2010PropOp53
 70
     1
102
RTVSPost2010Prop54
  1
strokes_ogs.tif
102
RTVSPost2010PropOp54
 70
     1
102
RTVSPost2010Prop55
280
     0
102
RTVSPost2010PropOp55
 70
     1
102
RTVSPost2010Prop56
140
1.0
102
RTVSPost2010PropOp56
 70
     1
102
RTVSPost2010Prop57
140
1.0
102
RTVSPost2010PropOp57
 70
     1
  0
XRECORD
  5
2CA8D
102
{ACAD_REACTORS
330
2CA8C
102
}
330
2CA8C
100
AcDbXrecord
280
     1
102
RTVSPost2010Prop28
280
     0
102
RTVSPost2010PropOp28
 70
     1
102
RTVSPost2010Prop29
280
     1
102
RTVSPost2010PropOp29
 70
     1
102
RTVSPost2010Prop30
280
     1
102
RTVSPost2010PropOp30
 70
     1
102
RTVSPost2010Prop31
280
     0
102
RTVSPost2010PropOp31
 70
     1
102
RTVSPost2010Prop32
280
     0
102
RTVSPost2010PropOp32
 70
     1
102
RTVSPost2010Prop33
280
     0
102
RTVSPost2010PropOp33
 70
     1
102
RTVSPost2010Prop34
280
     0
102
RTVSPost2010PropOp34
 70
     1
102
RTVSPost2010Prop35
280
     0
102
RTVSPost2010PropOp35
 70
     1
102
RTVSPost2010Prop36
280
     0
102
RTVSPost2010PropOp36
 70
     1
102
RTVSPost2010Prop37
 90
       50
102
RTVSPost2010PropOp37
 70
     1
102
RTVSPost2010Prop38
140
0.0
102
RTVSPost2010PropOp38
 70
     1
102
RTVSPost2010Prop39
140
1.0
102
RTVSPost2010PropOp39
 70
     1
102
RTVSPost2010Prop40
 90
        0
102
RTVSPost2010PropOp40
 70
     1
102
RTVSPost2010Prop41ColorIndex
 90
       18
102
RTVSPost2010Prop41ColorRGB
 90
        0
102
RTVSPost2010PropOp41
 70
     1
102
RTVSPost2010Prop42
 90
       50
102
RTVSPost2010PropOp42
 70
     1
102
RTVSPost2010Prop43
 90
        3
102
RTVSPost2010PropOp43
 70
     1
102
RTVSPost2010Prop44ColorIndex
 90
        5
102
RTVSPost2010Prop44ColorRGB
 90
      255
102
RTVSPost2010PropOp44
 70
     1
102
RTVSPost2010Prop45
280
     0
102
RTVSPost2010PropOp45
 70
     1
102
RTVSPost2010Prop46
 90
       50
102
RTVSPost2010PropOp46
 70
     1
102
RTVSPost2010Prop47
 90
       50
102
RTVSPost2010PropOp47
 70
     1
102
RTVSPost2010Prop48
 90
       50
102
RTVSPost2010PropOp48
 70
     1
102
RTVSPost2010Prop49
280
     0
102
RTVSPost2010PropOp49
 70
     1
102
RTVSPost2010Prop50
 90
       50
102
RTVSPost2010PropOp50
 70
     1
102
RTVSPost2010Prop51ColorIndex
 90
      256
102
RTVSPost2010Prop51ColorRGB
 90
-16777216
102
RTVSPost2010PropOp51
 70
     0
102
RTVSPost2010Prop52
140
1.0
102
RTVSPost2010PropOp52
 70
     0
102
RTVSPost2010Prop53
 90
        2
102
RTVSPost2010PropOp53
 70
     1
102
RTVSPost2010Prop54
  1
strokes_ogs.tif
102
RTVSPost2010PropOp54
 70
     1
102
RTVSPost2010Prop55
280
     0
102
RTVSPost2010PropOp55
 70
     1
102
RTVSPost2010Prop56
140
1.0
102
RTVSPost2010PropOp56
 70
     1
102
RTVSPost2010Prop57
140
1.0
102
RTVSPost2010PropOp57
 70
     1
  0
XRECORD
  5
2CA8F
102
{ACAD_REACTORS
330
2CA8E
102
}
330
2CA8E
100
AcDbXrecord
280
     1
102
RTVSPost2010Prop28
280
     0
102
RTVSPost2010PropOp28
 70
     1
102
RTVSPost2010Prop29
280
     1
102
RTVSPost2010PropOp29
 70
     1
102
RTVSPost2010Prop30
280
     1
102
RTVSPost2010PropOp30
 70
     1
102
RTVSPost2010Prop31
280
     0
102
RTVSPost2010PropOp31
 70
     1
102
RTVSPost2010Prop32
280
     0
102
RTVSPost2010PropOp32
 70
     1
102
RTVSPost2010Prop33
280
     0
102
RTVSPost2010PropOp33
 70
     1
102
RTVSPost2010Prop34
280
     0
102
RTVSPost2010PropOp34
 70
     1
102
RTVSPost2010Prop35
280
     0
102
RTVSPost2010PropOp35
 70
     1
102
RTVSPost2010Prop36
280
     0
102
RTVSPost2010PropOp36
 70
     1
102
RTVSPost2010Prop37
 90
       50
102
RTVSPost2010PropOp37
 70
     1
102
RTVSPost2010Prop38
140
0.0
102
RTVSPost2010PropOp38
 70
     1
102
RTVSPost2010Prop39
140
1.0
102
RTVSPost2010PropOp39
 70
     1
102
RTVSPost2010Prop40
 90
        0
102
RTVSPost2010PropOp40
 70
     1
102
RTVSPost2010Prop41ColorIndex
 90
       18
102
RTVSPost2010Prop41ColorRGB
 90
        0
102
RTVSPost2010PropOp41
 70
     1
102
RTVSPost2010Prop42
 90
       50
102
RTVSPost2010PropOp42
 70
     1
102
RTVSPost2010Prop43
 90
        3
102
RTVSPost2010PropOp43
 70
     1
102
RTVSPost2010Prop44ColorIndex
 90
        5
102
RTVSPost2010Prop44ColorRGB
 90
      255
102
RTVSPost2010PropOp44
 70
     1
102
RTVSPost2010Prop45
280
     0
102
RTVSPost2010PropOp45
 70
     1
102
RTVSPost2010Prop46
 90
       50
102
RTVSPost2010PropOp46
 70
     1
102
RTVSPost2010Prop47
 90
       50
102
RTVSPost2010PropOp47
 70
     1
102
RTVSPost2010Prop48
 90
       50
102
RTVSPost2010PropOp48
 70
     1
102
RTVSPost2010Prop49
280
     0
102
RTVSPost2010PropOp49
 70
     1
102
RTVSPost2010Prop50
 90
       50
102
RTVSPost2010PropOp50
 70
     1
102
RTVSPost2010Prop51ColorIndex
 90
      256
102
RTVSPost2010Prop51ColorRGB
 90
-16777216
102
RTVSPost2010PropOp51
 70
     0
102
RTVSPost2010Prop52
140
1.0
102
RTVSPost2010PropOp52
 70
     0
102
RTVSPost2010Prop53
 90
        2
102
RTVSPost2010PropOp53
 70
     1
102
RTVSPost2010Prop54
  1
strokes_ogs.tif
102
RTVSPost2010PropOp54
 70
     1
102
RTVSPost2010Prop55
280
     0
102
RTVSPost2010PropOp55
 70
     1
102
RTVSPost2010Prop56
140
1.0
102
RTVSPost2010PropOp56
 70
     1
102
RTVSPost2010Prop57
140
1.0
102
RTVSPost2010PropOp57
 70
     1
  0
XRECORD
  5
2CA91
102
{ACAD_REACTORS
330
2CA90
102
}
330
2CA90
100
AcDbXrecord
280
     1
102
RTVSPost2010Prop28
280
     0
102
RTVSPost2010PropOp28
 70
     1
102
RTVSPost2010Prop29
280
     1
102
RTVSPost2010PropOp29
 70
     1
102
RTVSPost2010Prop30
280
     1
102
RTVSPost2010PropOp30
 70
     1
102
RTVSPost2010Prop31
280
     0
102
RTVSPost2010PropOp31
 70
     1
102
RTVSPost2010Prop32
280
     0
102
RTVSPost2010PropOp32
 70
     1
102
RTVSPost2010Prop33
280
     0
102
RTVSPost2010PropOp33
 70
     1
102
RTVSPost2010Prop34
280
     0
102
RTVSPost2010PropOp34
 70
     1
102
RTVSPost2010Prop35
280
     0
102
RTVSPost2010PropOp35
 70
     1
102
RTVSPost2010Prop36
280
     0
102
RTVSPost2010PropOp36
 70
     1
102
RTVSPost2010Prop37
 90
       50
102
RTVSPost2010PropOp37
 70
     1
102
RTVSPost2010Prop38
140
0.0
102
RTVSPost2010PropOp38
 70
     1
102
RTVSPost2010Prop39
140
1.0
102
RTVSPost2010PropOp39
 70
     1
102
RTVSPost2010Prop40
 90
        0
102
RTVSPost2010PropOp40
 70
     1
102
RTVSPost2010Prop41ColorIndex
 90
       18
102
RTVSPost2010Prop41ColorRGB
 90
        0
102
RTVSPost2010PropOp41
 70
     1
102
RTVSPost2010Prop42
 90
       50
102
RTVSPost2010PropOp42
 70
     1
102
RTVSPost2010Prop43
 90
        3
102
RTVSPost2010PropOp43
 70
     1
102
RTVSPost2010Prop44ColorIndex
 90
        5
102
RTVSPost2010Prop44ColorRGB
 90
      255
102
RTVSPost2010PropOp44
 70
     1
102
RTVSPost2010Prop45
280
     0
102
RTVSPost2010PropOp45
 70
     1
102
RTVSPost2010Prop46
 90
       50
102
RTVSPost2010PropOp46
 70
     1
102
RTVSPost2010Prop47
 90
       50
102
RTVSPost2010PropOp47
 70
     1
102
RTVSPost2010Prop48
 90
       50
102
RTVSPost2010PropOp48
 70
     1
102
RTVSPost2010Prop49
280
     0
102
RTVSPost2010PropOp49
 70
     1
102
RTVSPost2010Prop50
 90
       50
102
RTVSPost2010PropOp50
 70
     1
102
RTVSPost2010Prop51ColorIndex
 90
      256
102
RTVSPost2010Prop51ColorRGB
 90
-16777216
102
RTVSPost2010PropOp51
 70
     0
102
RTVSPost2010Prop52
140
1.0
102
RTVSPost2010PropOp52
 70
     0
102
RTVSPost2010Prop53
 90
        2
102
RTVSPost2010PropOp53
 70
     1
102
RTVSPost2010Prop54
  1
strokes_ogs.tif
102
RTVSPost2010PropOp54
 70
     1
102
RTVSPost2010Prop55
280
     0
102
RTVSPost2010PropOp55
 70
     1
102
RTVSPost2010Prop56
140
1.0
102
RTVSPost2010PropOp56
 70
     1
102
RTVSPost2010Prop57
140
1.0
102
RTVSPost2010PropOp57
 70
     1
  0
XRECORD
  5
2CA97
102
{ACAD_REACTORS
330
2CA96
102
}
330
2CA96
100
AcDbXrecord
280
     1
102
RTVSPost2010Prop28
280
     0
102
RTVSPost2010PropOp28
 70
     1
102
RTVSPost2010Prop29
280
     1
102
RTVSPost2010PropOp29
 70
     1
102
RTVSPost2010Prop30
280
     1
102
RTVSPost2010PropOp30
 70
     1
102
RTVSPost2010Prop31
280
     0
102
RTVSPost2010PropOp31
 70
     1
102
RTVSPost2010Prop32
280
     0
102
RTVSPost2010PropOp32
 70
     1
102
RTVSPost2010Prop33
280
     0
102
RTVSPost2010PropOp33
 70
     1
102
RTVSPost2010Prop34
280
     0
102
RTVSPost2010PropOp34
 70
     1
102
RTVSPost2010Prop35
280
     0
102
RTVSPost2010PropOp35
 70
     1
102
RTVSPost2010Prop36
280
     0
102
RTVSPost2010PropOp36
 70
     1
102
RTVSPost2010Prop37
 90
       50
102
RTVSPost2010PropOp37
 70
     1
102
RTVSPost2010Prop38
140
0.0
102
RTVSPost2010PropOp38
 70
     1
102
RTVSPost2010Prop39
140
1.0
102
RTVSPost2010PropOp39
 70
     1
102
RTVSPost2010Prop40
 90
        0
102
RTVSPost2010PropOp40
 70
     1
102
RTVSPost2010Prop41ColorIndex
 90
       18
102
RTVSPost2010Prop41ColorRGB
 90
        0
102
RTVSPost2010PropOp41
 70
     1
102
RTVSPost2010Prop42
 90
       50
102
RTVSPost2010PropOp42
 70
     1
102
RTVSPost2010Prop43
 90
        3
102
RTVSPost2010PropOp43
 70
     1
102
RTVSPost2010Prop44ColorIndex
 90
        5
102
RTVSPost2010Prop44ColorRGB
 90
      255
102
RTVSPost2010PropOp44
 70
     1
102
RTVSPost2010Prop45
280
     0
102
RTVSPost2010PropOp45
 70
     1
102
RTVSPost2010Prop46
 90
       50
102
RTVSPost2010PropOp46
 70
     1
102
RTVSPost2010Prop47
 90
       50
102
RTVSPost2010PropOp47
 70
     1
102
RTVSPost2010Prop48
 90
       50
102
RTVSPost2010PropOp48
 70
     1
102
RTVSPost2010Prop49
280
     0
102
RTVSPost2010PropOp49
 70
     1
102
RTVSPost2010Prop50
 90
       50
102
RTVSPost2010PropOp50
 70
     1
102
RTVSPost2010Prop51ColorIndex
 90
      256
102
RTVSPost2010Prop51ColorRGB
 90
-16777216
102
RTVSPost2010PropOp51
 70
     0
102
RTVSPost2010Prop52
140
1.0
102
RTVSPost2010PropOp52
 70
     0
102
RTVSPost2010Prop53
 90
        2
102
RTVSPost2010PropOp53
 70
     1
102
RTVSPost2010Prop54
  1
strokes_ogs.tif
102
RTVSPost2010PropOp54
 70
     1
102
RTVSPost2010Prop55
280
     0
102
RTVSPost2010PropOp55
 70
     1
102
RTVSPost2010Prop56
140
1.0
102
RTVSPost2010PropOp56
 70
     1
102
RTVSPost2010Prop57
140
1.0
102
RTVSPost2010PropOp57
 70
     1
  0
XRECORD
  5
2CAAB
102
{ACAD_REACTORS
330
2CAAA
102
}
330
2CAAA
100
AcDbXrecord
280
     1
102
RTVSPost2010Prop28
280
     0
102
RTVSPost2010PropOp28
 70
     0
102
RTVSPost2010Prop29
280
     1
102
RTVSPost2010PropOp29
 70
     0
102
RTVSPost2010Prop30
280
     1
102
RTVSPost2010PropOp30
 70
     0
102
RTVSPost2010Prop31
280
     0
102
RTVSPost2010PropOp31
 70
     0
102
RTVSPost2010Prop32
280
     0
102
RTVSPost2010PropOp32
 70
     0
102
RTVSPost2010Prop33
280
     0
102
RTVSPost2010PropOp33
 70
     0
102
RTVSPost2010Prop34
280
     0
102
RTVSPost2010PropOp34
 70
     0
102
RTVSPost2010Prop35
280
     0
102
RTVSPost2010PropOp35
 70
     0
102
RTVSPost2010Prop36
280
     0
102
RTVSPost2010PropOp36
 70
     0
102
RTVSPost2010Prop37
 90
       50
102
RTVSPost2010PropOp37
 70
     0
102
RTVSPost2010Prop38
140
0.0
102
RTVSPost2010PropOp38
 70
     0
102
RTVSPost2010Prop39
140
1.0
102
RTVSPost2010PropOp39
 70
     0
102
RTVSPost2010Prop40
 90
        0
102
RTVSPost2010PropOp40
 70
     0
102
RTVSPost2010Prop41ColorIndex
 90
       18
102
RTVSPost2010Prop41ColorRGB
 90
        0
102
RTVSPost2010PropOp41
 70
     0
102
RTVSPost2010Prop42
 90
       50
102
RTVSPost2010PropOp42
 70
     0
102
RTVSPost2010Prop43
 90
        3
102
RTVSPost2010PropOp43
 70
     0
102
RTVSPost2010Prop44ColorIndex
 90
        5
102
RTVSPost2010Prop44ColorRGB
 90
      255
102
RTVSPost2010PropOp44
 70
     0
102
RTVSPost2010Prop45
280
     0
102
RTVSPost2010PropOp45
 70
     0
102
RTVSPost2010Prop46
 90
       50
102
RTVSPost2010PropOp46
 70
     0
102
RTVSPost2010Prop47
 90
       50
102
RTVSPost2010PropOp47
 70
     0
102
RTVSPost2010Prop48
 90
       50
102
RTVSPost2010PropOp48
 70
     0
102
RTVSPost2010Prop49
280
     0
102
RTVSPost2010PropOp49
 70
     0
102
RTVSPost2010Prop50
 90
       50
102
RTVSPost2010PropOp50
 70
     0
102
RTVSPost2010Prop51ColorIndex
 90
      256
102
RTVSPost2010Prop51ColorRGB
 90
-16777216
102
RTVSPost2010PropOp51
 70
     0
102
RTVSPost2010Prop52
140
1.0
102
RTVSPost2010PropOp52
 70
     0
102
RTVSPost2010Prop53
 90
        2
102
RTVSPost2010PropOp53
 70
     0
102
RTVSPost2010Prop54
  1
strokes_ogs.tif
102
RTVSPost2010PropOp54
 70
     0
102
RTVSPost2010Prop55
280
     0
102
RTVSPost2010PropOp55
 70
     0
102
RTVSPost2010Prop56
140
1.0
102
RTVSPost2010PropOp56
 70
     0
102
RTVSPost2010Prop57
140
1.0
102
RTVSPost2010PropOp57
 70
     0
  0
XRECORD
  5
2CAA5
102
{ACAD_REACTORS
330
2CAA4
102
}
330
2CAA4
100
AcDbXrecord
280
     1
102
RTVSPost2010Prop28
280
     0
102
RTVSPost2010PropOp28
 70
     1
102
RTVSPost2010Prop29
280
     1
102
RTVSPost2010PropOp29
 70
     1
102
RTVSPost2010Prop30
280
     1
102
RTVSPost2010PropOp30
 70
     1
102
RTVSPost2010Prop31
280
     0
102
RTVSPost2010PropOp31
 70
     1
102
RTVSPost2010Prop32
280
     0
102
RTVSPost2010PropOp32
 70
     1
102
RTVSPost2010Prop33
280
     0
102
RTVSPost2010PropOp33
 70
     1
102
RTVSPost2010Prop34
280
     0
102
RTVSPost2010PropOp34
 70
     1
102
RTVSPost2010Prop35
280
     0
102
RTVSPost2010PropOp35
 70
     1
102
RTVSPost2010Prop36
280
     0
102
RTVSPost2010PropOp36
 70
     1
102
RTVSPost2010Prop37
 90
       50
102
RTVSPost2010PropOp37
 70
     1
102
RTVSPost2010Prop38
140
0.0
102
RTVSPost2010PropOp38
 70
     1
102
RTVSPost2010Prop39
140
1.0
102
RTVSPost2010PropOp39
 70
     1
102
RTVSPost2010Prop40
 90
        0
102
RTVSPost2010PropOp40
 70
     1
102
RTVSPost2010Prop41ColorIndex
 90
       18
102
RTVSPost2010Prop41ColorRGB
 90
        0
102
RTVSPost2010PropOp41
 70
     1
102
RTVSPost2010Prop42
 90
       50
102
RTVSPost2010PropOp42
 70
     1
102
RTVSPost2010Prop43
 90
        3
102
RTVSPost2010PropOp43
 70
     1
102
RTVSPost2010Prop44ColorIndex
 90
        5
102
RTVSPost2010Prop44ColorRGB
 90
      255
102
RTVSPost2010PropOp44
 70
     1
102
RTVSPost2010Prop45
280
     0
102
RTVSPost2010PropOp45
 70
     1
102
RTVSPost2010Prop46
 90
       50
102
RTVSPost2010PropOp46
 70
     1
102
RTVSPost2010Prop47
 90
       50
102
RTVSPost2010PropOp47
 70
     1
102
RTVSPost2010Prop48
 90
       50
102
RTVSPost2010PropOp48
 70
     1
102
RTVSPost2010Prop49
280
     0
102
RTVSPost2010PropOp49
 70
     1
102
RTVSPost2010Prop50
 90
       50
102
RTVSPost2010PropOp50
 70
     1
102
RTVSPost2010Prop51ColorIndex
 90
      256
102
RTVSPost2010Prop51ColorRGB
 90
-16777216
102
RTVSPost2010PropOp51
 70
     0
102
RTVSPost2010Prop52
140
1.0
102
RTVSPost2010PropOp52
 70
     0
102
RTVSPost2010Prop53
 90
        2
102
RTVSPost2010PropOp53
 70
     1
102
RTVSPost2010Prop54
  1
strokes_ogs.tif
102
RTVSPost2010PropOp54
 70
     1
102
RTVSPost2010Prop55
280
     0
102
RTVSPost2010PropOp55
 70
     1
102
RTVSPost2010Prop56
140
1.0
102
RTVSPost2010PropOp56
 70
     1
102
RTVSPost2010Prop57
140
1.0
102
RTVSPost2010PropOp57
 70
     1
  0
XRECORD
  5
2CABD
102
{ACAD_REACTORS
330
2CABC
102
}
330
2CABC
100
AcDbXrecord
280
     1
102
RTVSPost2010Prop28
280
     0
102
RTVSPost2010PropOp28
 70
     1
102
RTVSPost2010Prop29
280
     1
102
RTVSPost2010PropOp29
 70
     1
102
RTVSPost2010Prop30
280
     1
102
RTVSPost2010PropOp30
 70
     1
102
RTVSPost2010Prop31
280
     0
102
RTVSPost2010PropOp31
 70
     1
102
RTVSPost2010Prop32
280
     0
102
RTVSPost2010PropOp32
 70
     1
102
RTVSPost2010Prop33
280
     0
102
RTVSPost2010PropOp33
 70
     1
102
RTVSPost2010Prop34
280
     0
102
RTVSPost2010PropOp34
 70
     1
102
RTVSPost2010Prop35
280
     0
102
RTVSPost2010PropOp35
 70
     1
102
RTVSPost2010Prop36
280
     0
102
RTVSPost2010PropOp36
 70
     1
102
RTVSPost2010Prop37
 90
       50
102
RTVSPost2010PropOp37
 70
     1
102
RTVSPost2010Prop38
140
0.0
102
RTVSPost2010PropOp38
 70
     1
102
RTVSPost2010Prop39
140
1.0
102
RTVSPost2010PropOp39
 70
     1
102
RTVSPost2010Prop40
 90
        0
102
RTVSPost2010PropOp40
 70
     1
102
RTVSPost2010Prop41ColorIndex
 90
       18
102
RTVSPost2010Prop41ColorRGB
 90
        0
102
RTVSPost2010PropOp41
 70
     1
102
RTVSPost2010Prop42
 90
       50
102
RTVSPost2010PropOp42
 70
     1
102
RTVSPost2010Prop43
 90
        3
102
RTVSPost2010PropOp43
 70
     1
102
RTVSPost2010Prop44ColorIndex
 90
        5
102
RTVSPost2010Prop44ColorRGB
 90
      255
102
RTVSPost2010PropOp44
 70
     1
102
RTVSPost2010Prop45
280
     0
102
RTVSPost2010PropOp45
 70
     1
102
RTVSPost2010Prop46
 90
       50
102
RTVSPost2010PropOp46
 70
     1
102
RTVSPost2010Prop47
 90
       50
102
RTVSPost2010PropOp47
 70
     1
102
RTVSPost2010Prop48
 90
       50
102
RTVSPost2010PropOp48
 70
     1
102
RTVSPost2010Prop49
280
     0
102
RTVSPost2010PropOp49
 70
     1
102
RTVSPost2010Prop50
 90
       50
102
RTVSPost2010PropOp50
 70
     1
102
RTVSPost2010Prop51ColorIndex
 90
      256
102
RTVSPost2010Prop51ColorRGB
 90
-16777216
102
RTVSPost2010PropOp51
 70
     0
102
RTVSPost2010Prop52
140
1.0
102
RTVSPost2010PropOp52
 70
     0
102
RTVSPost2010Prop53
 90
        2
102
RTVSPost2010PropOp53
 70
     1
102
RTVSPost2010Prop54
  1
strokes_ogs.tif
102
RTVSPost2010PropOp54
 70
     1
102
RTVSPost2010Prop55
280
     0
102
RTVSPost2010PropOp55
 70
     1
102
RTVSPost2010Prop56
140
1.0
102
RTVSPost2010PropOp56
 70
     1
102
RTVSPost2010Prop57
140
1.0
102
RTVSPost2010PropOp57
 70
     1
  0
XRECORD
  5
2CAAD
102
{ACAD_REACTORS
330
2CAAC
102
}
330
2CAAC
100
AcDbXrecord
280
     1
102
RTVSPost2010Prop28
280
     0
102
RTVSPost2010PropOp28
 70
     0
102
RTVSPost2010Prop29
280
     1
102
RTVSPost2010PropOp29
 70
     0
102
RTVSPost2010Prop30
280
     1
102
RTVSPost2010PropOp30
 70
     0
102
RTVSPost2010Prop31
280
     0
102
RTVSPost2010PropOp31
 70
     0
102
RTVSPost2010Prop32
280
     0
102
RTVSPost2010PropOp32
 70
     0
102
RTVSPost2010Prop33
280
     0
102
RTVSPost2010PropOp33
 70
     0
102
RTVSPost2010Prop34
280
     0
102
RTVSPost2010PropOp34
 70
     0
102
RTVSPost2010Prop35
280
     0
102
RTVSPost2010PropOp35
 70
     0
102
RTVSPost2010Prop36
280
     0
102
RTVSPost2010PropOp36
 70
     0
102
RTVSPost2010Prop37
 90
       50
102
RTVSPost2010PropOp37
 70
     0
102
RTVSPost2010Prop38
140
0.0
102
RTVSPost2010PropOp38
 70
     0
102
RTVSPost2010Prop39
140
1.0
102
RTVSPost2010PropOp39
 70
     0
102
RTVSPost2010Prop40
 90
        0
102
RTVSPost2010PropOp40
 70
     0
102
RTVSPost2010Prop41ColorIndex
 90
       18
102
RTVSPost2010Prop41ColorRGB
 90
        0
102
RTVSPost2010PropOp41
 70
     0
102
RTVSPost2010Prop42
 90
       50
102
RTVSPost2010PropOp42
 70
     0
102
RTVSPost2010Prop43
 90
        3
102
RTVSPost2010PropOp43
 70
     0
102
RTVSPost2010Prop44ColorIndex
 90
        5
102
RTVSPost2010Prop44ColorRGB
 90
      255
102
RTVSPost2010PropOp44
 70
     0
102
RTVSPost2010Prop45
280
     0
102
RTVSPost2010PropOp45
 70
     0
102
RTVSPost2010Prop46
 90
       50
102
RTVSPost2010PropOp46
 70
     0
102
RTVSPost2010Prop47
 90
       50
102
RTVSPost2010PropOp47
 70
     0
102
RTVSPost2010Prop48
 90
       50
102
RTVSPost2010PropOp48
 70
     0
102
RTVSPost2010Prop49
280
     0
102
RTVSPost2010PropOp49
 70
     0
102
RTVSPost2010Prop50
 90
       50
102
RTVSPost2010PropOp50
 70
     0
102
RTVSPost2010Prop51ColorIndex
 90
      256
102
RTVSPost2010Prop51ColorRGB
 90
-16777216
102
RTVSPost2010PropOp51
 70
     0
102
RTVSPost2010Prop52
140
1.0
102
RTVSPost2010PropOp52
 70
     0
102
RTVSPost2010Prop53
 90
        2
102
RTVSPost2010PropOp53
 70
     0
102
RTVSPost2010Prop54
  1
strokes_ogs.tif
102
RTVSPost2010PropOp54
 70
     0
102
RTVSPost2010Prop55
280
     0
102
RTVSPost2010PropOp55
 70
     0
102
RTVSPost2010Prop56
140
1.0
102
RTVSPost2010PropOp56
 70
     0
102
RTVSPost2010Prop57
140
1.0
102
RTVSPost2010PropOp57
 70
     0
  0
XRECORD
  5
2CA9B
102
{ACAD_REACTORS
330
2CA9A
102
}
330
2CA9A
100
AcDbXrecord
280
     1
102
RTVSPost2010Prop28
280
     0
102
RTVSPost2010PropOp28
 70
     1
102
RTVSPost2010Prop29
280
     1
102
RTVSPost2010PropOp29
 70
     1
102
RTVSPost2010Prop30
280
     1
102
RTVSPost2010PropOp30
 70
     1
102
RTVSPost2010Prop31
280
     0
102
RTVSPost2010PropOp31
 70
     1
102
RTVSPost2010Prop32
280
     0
102
RTVSPost2010PropOp32
 70
     1
102
RTVSPost2010Prop33
280
     0
102
RTVSPost2010PropOp33
 70
     1
102
RTVSPost2010Prop34
280
     0
102
RTVSPost2010PropOp34
 70
     1
102
RTVSPost2010Prop35
280
     0
102
RTVSPost2010PropOp35
 70
     1
102
RTVSPost2010Prop36
280
     0
102
RTVSPost2010PropOp36
 70
     1
102
RTVSPost2010Prop37
 90
       50
102
RTVSPost2010PropOp37
 70
     1
102
RTVSPost2010Prop38
140
0.0
102
RTVSPost2010PropOp38
 70
     1
102
RTVSPost2010Prop39
140
1.0
102
RTVSPost2010PropOp39
 70
     1
102
RTVSPost2010Prop40
 90
        0
102
RTVSPost2010PropOp40
 70
     1
102
RTVSPost2010Prop41ColorIndex
 90
       18
102
RTVSPost2010Prop41ColorRGB
 90
        0
102
RTVSPost2010PropOp41
 70
     1
102
RTVSPost2010Prop42
 90
       50
102
RTVSPost2010PropOp42
 70
     1
102
RTVSPost2010Prop43
 90
        3
102
RTVSPost2010PropOp43
 70
     1
102
RTVSPost2010Prop44ColorIndex
 90
        5
102
RTVSPost2010Prop44ColorRGB
 90
      255
102
RTVSPost2010PropOp44
 70
     1
102
RTVSPost2010Prop45
280
     0
102
RTVSPost2010PropOp45
 70
     1
102
RTVSPost2010Prop46
 90
       50
102
RTVSPost2010PropOp46
 70
     1
102
RTVSPost2010Prop47
 90
       50
102
RTVSPost2010PropOp47
 70
     1
102
RTVSPost2010Prop48
 90
       50
102
RTVSPost2010PropOp48
 70
     1
102
RTVSPost2010Prop49
280
     0
102
RTVSPost2010PropOp49
 70
     1
102
RTVSPost2010Prop50
 90
       50
102
RTVSPost2010PropOp50
 70
     1
102
RTVSPost2010Prop51ColorIndex
 90
      256
102
RTVSPost2010Prop51ColorRGB
 90
-16777216
102
RTVSPost2010PropOp51
 70
     0
102
RTVSPost2010Prop52
140
1.0
102
RTVSPost2010PropOp52
 70
     0
102
RTVSPost2010Prop53
 90
        2
102
RTVSPost2010PropOp53
 70
     1
102
RTVSPost2010Prop54
  1
strokes_ogs.tif
102
RTVSPost2010PropOp54
 70
     1
102
RTVSPost2010Prop55
280
     0
102
RTVSPost2010PropOp55
 70
     1
102
RTVSPost2010Prop56
140
1.0
102
RTVSPost2010PropOp56
 70
     1
102
RTVSPost2010Prop57
140
1.0
102
RTVSPost2010PropOp57
 70
     1
  0
XRECORD
  5
2CAB9
102
{ACAD_REACTORS
330
2CAB8
102
}
330
2CAB8
100
AcDbXrecord
280
     1
102
RTVSPost2010Prop28
280
     0
102
RTVSPost2010PropOp28
 70
     1
102
RTVSPost2010Prop29
280
     1
102
RTVSPost2010PropOp29
 70
     1
102
RTVSPost2010Prop30
280
     1
102
RTVSPost2010PropOp30
 70
     1
102
RTVSPost2010Prop31
280
     0
102
RTVSPost2010PropOp31
 70
     1
102
RTVSPost2010Prop32
280
     0
102
RTVSPost2010PropOp32
 70
     1
102
RTVSPost2010Prop33
280
     0
102
RTVSPost2010PropOp33
 70
     1
102
RTVSPost2010Prop34
280
     0
102
RTVSPost2010PropOp34
 70
     1
102
RTVSPost2010Prop35
280
     0
102
RTVSPost2010PropOp35
 70
     1
102
RTVSPost2010Prop36
280
     0
102
RTVSPost2010PropOp36
 70
     1
102
RTVSPost2010Prop37
 90
       50
102
RTVSPost2010PropOp37
 70
     1
102
RTVSPost2010Prop38
140
0.0
102
RTVSPost2010PropOp38
 70
     1
102
RTVSPost2010Prop39
140
1.0
102
RTVSPost2010PropOp39
 70
     1
102
RTVSPost2010Prop40
 90
        0
102
RTVSPost2010PropOp40
 70
     1
102
RTVSPost2010Prop41ColorIndex
 90
       18
102
RTVSPost2010Prop41ColorRGB
 90
        0
102
RTVSPost2010PropOp41
 70
     1
102
RTVSPost2010Prop42
 90
       50
102
RTVSPost2010PropOp42
 70
     1
102
RTVSPost2010Prop43
 90
        3
102
RTVSPost2010PropOp43
 70
     1
102
RTVSPost2010Prop44ColorIndex
 90
        5
102
RTVSPost2010Prop44ColorRGB
 90
      255
102
RTVSPost2010PropOp44
 70
     1
102
RTVSPost2010Prop45
280
     0
102
RTVSPost2010PropOp45
 70
     1
102
RTVSPost2010Prop46
 90
       50
102
RTVSPost2010PropOp46
 70
     1
102
RTVSPost2010Prop47
 90
       50
102
RTVSPost2010PropOp47
 70
     1
102
RTVSPost2010Prop48
 90
       50
102
RTVSPost2010PropOp48
 70
     1
102
RTVSPost2010Prop49
280
     0
102
RTVSPost2010PropOp49
 70
     1
102
RTVSPost2010Prop50
 90
       50
102
RTVSPost2010PropOp50
 70
     1
102
RTVSPost2010Prop51ColorIndex
 90
      256
102
RTVSPost2010Prop51ColorRGB
 90
-16777216
102
RTVSPost2010PropOp51
 70
     0
102
RTVSPost2010Prop52
140
1.0
102
RTVSPost2010PropOp52
 70
     0
102
RTVSPost2010Prop53
 90
        2
102
RTVSPost2010PropOp53
 70
     1
102
RTVSPost2010Prop54
  1
strokes_ogs.tif
102
RTVSPost2010PropOp54
 70
     1
102
RTVSPost2010Prop55
280
     0
102
RTVSPost2010PropOp55
 70
     1
102
RTVSPost2010Prop56
140
1.0
102
RTVSPost2010PropOp56
 70
     1
102
RTVSPost2010Prop57
140
1.0
102
RTVSPost2010PropOp57
 70
     1
  0
XRECORD
  5
2CAB7
102
{ACAD_REACTORS
330
2CAB6
102
}
330
2CAB6
100
AcDbXrecord
280
     1
102
RTVSPost2010Prop28
280
     0
102
RTVSPost2010PropOp28
 70
     1
102
RTVSPost2010Prop29
280
     1
102
RTVSPost2010PropOp29
 70
     1
102
RTVSPost2010Prop30
280
     1
102
RTVSPost2010PropOp30
 70
     1
102
RTVSPost2010Prop31
280
     0
102
RTVSPost2010PropOp31
 70
     1
102
RTVSPost2010Prop32
280
     0
102
RTVSPost2010PropOp32
 70
     1
102
RTVSPost2010Prop33
280
     0
102
RTVSPost2010PropOp33
 70
     1
102
RTVSPost2010Prop34
280
     0
102
RTVSPost2010PropOp34
 70
     1
102
RTVSPost2010Prop35
280
     0
102
RTVSPost2010PropOp35
 70
     1
102
RTVSPost2010Prop36
280
     0
102
RTVSPost2010PropOp36
 70
     1
102
RTVSPost2010Prop37
 90
       50
102
RTVSPost2010PropOp37
 70
     1
102
RTVSPost2010Prop38
140
0.0
102
RTVSPost2010PropOp38
 70
     1
102
RTVSPost2010Prop39
140
1.0
102
RTVSPost2010PropOp39
 70
     1
102
RTVSPost2010Prop40
 90
        0
102
RTVSPost2010PropOp40
 70
     1
102
RTVSPost2010Prop41ColorIndex
 90
       18
102
RTVSPost2010Prop41ColorRGB
 90
        0
102
RTVSPost2010PropOp41
 70
     1
102
RTVSPost2010Prop42
 90
       50
102
RTVSPost2010PropOp42
 70
     1
102
RTVSPost2010Prop43
 90
        3
102
RTVSPost2010PropOp43
 70
     1
102
RTVSPost2010Prop44ColorIndex
 90
        5
102
RTVSPost2010Prop44ColorRGB
 90
      255
102
RTVSPost2010PropOp44
 70
     1
102
RTVSPost2010Prop45
280
     0
102
RTVSPost2010PropOp45
 70
     1
102
RTVSPost2010Prop46
 90
       50
102
RTVSPost2010PropOp46
 70
     1
102
RTVSPost2010Prop47
 90
       50
102
RTVSPost2010PropOp47
 70
     1
102
RTVSPost2010Prop48
 90
       50
102
RTVSPost2010PropOp48
 70
     1
102
RTVSPost2010Prop49
280
     0
102
RTVSPost2010PropOp49
 70
     1
102
RTVSPost2010Prop50
 90
       50
102
RTVSPost2010PropOp50
 70
     1
102
RTVSPost2010Prop51ColorIndex
 90
      256
102
RTVSPost2010Prop51ColorRGB
 90
-16777216
102
RTVSPost2010PropOp51
 70
     0
102
RTVSPost2010Prop52
140
1.0
102
RTVSPost2010PropOp52
 70
     0
102
RTVSPost2010Prop53
 90
        2
102
RTVSPost2010PropOp53
 70
     1
102
RTVSPost2010Prop54
  1
strokes_ogs.tif
102
RTVSPost2010PropOp54
 70
     1
102
RTVSPost2010Prop55
280
     0
102
RTVSPost2010PropOp55
 70
     1
102
RTVSPost2010Prop56
140
1.0
102
RTVSPost2010PropOp56
 70
     1
102
RTVSPost2010Prop57
140
1.0
102
RTVSPost2010PropOp57
 70
     1
  0
XRECORD
  5
2CAB1
102
{ACAD_REACTORS
330
2CAB0
102
}
330
2CAB0
100
AcDbXrecord
280
     1
102
RTVSPost2010Prop28
280
     0
102
RTVSPost2010PropOp28
 70
     1
102
RTVSPost2010Prop29
280
     1
102
RTVSPost2010PropOp29
 70
     1
102
RTVSPost2010Prop30
280
     1
102
RTVSPost2010PropOp30
 70
     1
102
RTVSPost2010Prop31
280
     0
102
RTVSPost2010PropOp31
 70
     1
102
RTVSPost2010Prop32
280
     0
102
RTVSPost2010PropOp32
 70
     1
102
RTVSPost2010Prop33
280
     0
102
RTVSPost2010PropOp33
 70
     1
102
RTVSPost2010Prop34
280
     0
102
RTVSPost2010PropOp34
 70
     1
102
RTVSPost2010Prop35
280
     0
102
RTVSPost2010PropOp35
 70
     1
102
RTVSPost2010Prop36
280
     0
102
RTVSPost2010PropOp36
 70
     1
102
RTVSPost2010Prop37
 90
       50
102
RTVSPost2010PropOp37
 70
     1
102
RTVSPost2010Prop38
140
0.0
102
RTVSPost2010PropOp38
 70
     1
102
RTVSPost2010Prop39
140
1.0
102
RTVSPost2010PropOp39
 70
     1
102
RTVSPost2010Prop40
 90
        0
102
RTVSPost2010PropOp40
 70
     1
102
RTVSPost2010Prop41ColorIndex
 90
       18
102
RTVSPost2010Prop41ColorRGB
 90
        0
102
RTVSPost2010PropOp41
 70
     1
102
RTVSPost2010Prop42
 90
       50
102
RTVSPost2010PropOp42
 70
     1
102
RTVSPost2010Prop43
 90
        3
102
RTVSPost2010PropOp43
 70
     1
102
RTVSPost2010Prop44ColorIndex
 90
        5
102
RTVSPost2010Prop44ColorRGB
 90
      255
102
RTVSPost2010PropOp44
 70
     1
102
RTVSPost2010Prop45
280
     0
102
RTVSPost2010PropOp45
 70
     1
102
RTVSPost2010Prop46
 90
       50
102
RTVSPost2010PropOp46
 70
     1
102
RTVSPost2010Prop47
 90
       50
102
RTVSPost2010PropOp47
 70
     1
102
RTVSPost2010Prop48
 90
       50
102
RTVSPost2010PropOp48
 70
     1
102
RTVSPost2010Prop49
280
     0
102
RTVSPost2010PropOp49
 70
     1
102
RTVSPost2010Prop50
 90
       50
102
RTVSPost2010PropOp50
 70
     1
102
RTVSPost2010Prop51ColorIndex
 90
      256
102
RTVSPost2010Prop51ColorRGB
 90
-16777216
102
RTVSPost2010PropOp51
 70
     0
102
RTVSPost2010Prop52
140
1.0
102
RTVSPost2010PropOp52
 70
     0
102
RTVSPost2010Prop53
 90
        2
102
RTVSPost2010PropOp53
 70
     1
102
RTVSPost2010Prop54
  1
strokes_ogs.tif
102
RTVSPost2010PropOp54
 70
     1
102
RTVSPost2010Prop55
280
     0
102
RTVSPost2010PropOp55
 70
     1
102
RTVSPost2010Prop56
140
1.0
102
RTVSPost2010PropOp56
 70
     1
102
RTVSPost2010Prop57
140
1.0
102
RTVSPost2010PropOp57
 70
     1
  0
XRECORD
  5
2CAB3
102
{ACAD_REACTORS
330
2CAB2
102
}
330
2CAB2
100
AcDbXrecord
280
     1
102
RTVSPost2010Prop28
280
     0
102
RTVSPost2010PropOp28
 70
     1
102
RTVSPost2010Prop29
280
     1
102
RTVSPost2010PropOp29
 70
     1
102
RTVSPost2010Prop30
280
     1
102
RTVSPost2010PropOp30
 70
     1
102
RTVSPost2010Prop31
280
     0
102
RTVSPost2010PropOp31
 70
     1
102
RTVSPost2010Prop32
280
     0
102
RTVSPost2010PropOp32
 70
     1
102
RTVSPost2010Prop33
280
     0
102
RTVSPost2010PropOp33
 70
     1
102
RTVSPost2010Prop34
280
     0
102
RTVSPost2010PropOp34
 70
     1
102
RTVSPost2010Prop35
280
     0
102
RTVSPost2010PropOp35
 70
     1
102
RTVSPost2010Prop36
280
     0
102
RTVSPost2010PropOp36
 70
     1
102
RTVSPost2010Prop37
 90
       50
102
RTVSPost2010PropOp37
 70
     1
102
RTVSPost2010Prop38
140
0.0
102
RTVSPost2010PropOp38
 70
     1
102
RTVSPost2010Prop39
140
1.0
102
RTVSPost2010PropOp39
 70
     1
102
RTVSPost2010Prop40
 90
        0
102
RTVSPost2010PropOp40
 70
     1
102
RTVSPost2010Prop41ColorIndex
 90
       18
102
RTVSPost2010Prop41ColorRGB
 90
        0
102
RTVSPost2010PropOp41
 70
     1
102
RTVSPost2010Prop42
 90
       50
102
RTVSPost2010PropOp42
 70
     1
102
RTVSPost2010Prop43
 90
        3
102
RTVSPost2010PropOp43
 70
     1
102
RTVSPost2010Prop44ColorIndex
 90
        5
102
RTVSPost2010Prop44ColorRGB
 90
      255
102
RTVSPost2010PropOp44
 70
     1
102
RTVSPost2010Prop45
280
     0
102
RTVSPost2010PropOp45
 70
     1
102
RTVSPost2010Prop46
 90
       50
102
RTVSPost2010PropOp46
 70
     1
102
RTVSPost2010Prop47
 90
       50
102
RTVSPost2010PropOp47
 70
     1
102
RTVSPost2010Prop48
 90
       50
102
RTVSPost2010PropOp48
 70
     1
102
RTVSPost2010Prop49
280
     0
102
RTVSPost2010PropOp49
 70
     1
102
RTVSPost2010Prop50
 90
       50
102
RTVSPost2010PropOp50
 70
     1
102
RTVSPost2010Prop51ColorIndex
 90
      256
102
RTVSPost2010Prop51ColorRGB
 90
-16777216
102
RTVSPost2010PropOp51
 70
     0
102
RTVSPost2010Prop52
140
1.0
102
RTVSPost2010PropOp52
 70
     0
102
RTVSPost2010Prop53
 90
        2
102
RTVSPost2010PropOp53
 70
     1
102
RTVSPost2010Prop54
  1
strokes_ogs.tif
102
RTVSPost2010PropOp54
 70
     1
102
RTVSPost2010Prop55
280
     0
102
RTVSPost2010PropOp55
 70
     1
102
RTVSPost2010Prop56
140
1.0
102
RTVSPost2010PropOp56
 70
     1
102
RTVSPost2010Prop57
140
1.0
102
RTVSPost2010PropOp57
 70
     1
  0
XRECORD
  5
2CAA3
102
{ACAD_REACTORS
330
2CAA2
102
}
330
2CAA2
100
AcDbXrecord
280
     1
102
RTVSPost2010Prop28
280
     0
102
RTVSPost2010PropOp28
 70
     1
102
RTVSPost2010Prop29
280
     1
102
RTVSPost2010PropOp29
 70
     1
102
RTVSPost2010Prop30
280
     1
102
RTVSPost2010PropOp30
 70
     1
102
RTVSPost2010Prop31
280
     0
102
RTVSPost2010PropOp31
 70
     1
102
RTVSPost2010Prop32
280
     0
102
RTVSPost2010PropOp32
 70
     1
102
RTVSPost2010Prop33
280
     0
102
RTVSPost2010PropOp33
 70
     1
102
RTVSPost2010Prop34
280
     0
102
RTVSPost2010PropOp34
 70
     1
102
RTVSPost2010Prop35
280
     0
102
RTVSPost2010PropOp35
 70
     1
102
RTVSPost2010Prop36
280
     0
102
RTVSPost2010PropOp36
 70
     1
102
RTVSPost2010Prop37
 90
       50
102
RTVSPost2010PropOp37
 70
     1
102
RTVSPost2010Prop38
140
0.0
102
RTVSPost2010PropOp38
 70
     1
102
RTVSPost2010Prop39
140
1.0
102
RTVSPost2010PropOp39
 70
     1
102
RTVSPost2010Prop40
 90
        0
102
RTVSPost2010PropOp40
 70
     1
102
RTVSPost2010Prop41ColorIndex
 90
       18
102
RTVSPost2010Prop41ColorRGB
 90
        0
102
RTVSPost2010PropOp41
 70
     1
102
RTVSPost2010Prop42
 90
       50
102
RTVSPost2010PropOp42
 70
     1
102
RTVSPost2010Prop43
 90
        3
102
RTVSPost2010PropOp43
 70
     1
102
RTVSPost2010Prop44ColorIndex
 90
        5
102
RTVSPost2010Prop44ColorRGB
 90
      255
102
RTVSPost2010PropOp44
 70
     1
102
RTVSPost2010Prop45
280
     0
102
RTVSPost2010PropOp45
 70
     1
102
RTVSPost2010Prop46
 90
       50
102
RTVSPost2010PropOp46
 70
     1
102
RTVSPost2010Prop47
 90
       50
102
RTVSPost2010PropOp47
 70
     1
102
RTVSPost2010Prop48
 90
       50
102
RTVSPost2010PropOp48
 70
     1
102
RTVSPost2010Prop49
280
     0
102
RTVSPost2010PropOp49
 70
     1
102
RTVSPost2010Prop50
 90
       50
102
RTVSPost2010PropOp50
 70
     1
102
RTVSPost2010Prop51ColorIndex
 90
      256
102
RTVSPost2010Prop51ColorRGB
 90
-16777216
102
RTVSPost2010PropOp51
 70
     0
102
RTVSPost2010Prop52
140
1.0
102
RTVSPost2010PropOp52
 70
     0
102
RTVSPost2010Prop53
 90
        2
102
RTVSPost2010PropOp53
 70
     1
102
RTVSPost2010Prop54
  1
strokes_ogs.tif
102
RTVSPost2010PropOp54
 70
     1
102
RTVSPost2010Prop55
280
     0
102
RTVSPost2010PropOp55
 70
     1
102
RTVSPost2010Prop56
140
1.0
102
RTVSPost2010PropOp56
 70
     1
102
RTVSPost2010Prop57
140
1.0
102
RTVSPost2010PropOp57
 70
     1
  0
XRECORD
  5
2CA95
102
{ACAD_REACTORS
330
2CA94
102
}
330
2CA94
100
AcDbXrecord
280
     1
102
RTVSPost2010Prop28
280
     0
102
RTVSPost2010PropOp28
 70
     1
102
RTVSPost2010Prop29
280
     1
102
RTVSPost2010PropOp29
 70
     1
102
RTVSPost2010Prop30
280
     1
102
RTVSPost2010PropOp30
 70
     1
102
RTVSPost2010Prop31
280
     0
102
RTVSPost2010PropOp31
 70
     1
102
RTVSPost2010Prop32
280
     0
102
RTVSPost2010PropOp32
 70
     1
102
RTVSPost2010Prop33
280
     0
102
RTVSPost2010PropOp33
 70
     1
102
RTVSPost2010Prop34
280
     0
102
RTVSPost2010PropOp34
 70
     1
102
RTVSPost2010Prop35
280
     0
102
RTVSPost2010PropOp35
 70
     1
102
RTVSPost2010Prop36
280
     0
102
RTVSPost2010PropOp36
 70
     1
102
RTVSPost2010Prop37
 90
       50
102
RTVSPost2010PropOp37
 70
     1
102
RTVSPost2010Prop38
140
0.0
102
RTVSPost2010PropOp38
 70
     1
102
RTVSPost2010Prop39
140
1.0
102
RTVSPost2010PropOp39
 70
     1
102
RTVSPost2010Prop40
 90
        0
102
RTVSPost2010PropOp40
 70
     1
102
RTVSPost2010Prop41ColorIndex
 90
       18
102
RTVSPost2010Prop41ColorRGB
 90
        0
102
RTVSPost2010PropOp41
 70
     1
102
RTVSPost2010Prop42
 90
       50
102
RTVSPost2010PropOp42
 70
     1
102
RTVSPost2010Prop43
 90
        3
102
RTVSPost2010PropOp43
 70
     1
102
RTVSPost2010Prop44ColorIndex
 90
        5
102
RTVSPost2010Prop44ColorRGB
 90
      255
102
RTVSPost2010PropOp44
 70
     1
102
RTVSPost2010Prop45
280
     0
102
RTVSPost2010PropOp45
 70
     1
102
RTVSPost2010Prop46
 90
       50
102
RTVSPost2010PropOp46
 70
     1
102
RTVSPost2010Prop47
 90
       50
102
RTVSPost2010PropOp47
 70
     1
102
RTVSPost2010Prop48
 90
       50
102
RTVSPost2010PropOp48
 70
     1
102
RTVSPost2010Prop49
280
     0
102
RTVSPost2010PropOp49
 70
     1
102
RTVSPost2010Prop50
 90
       50
102
RTVSPost2010PropOp50
 70
     1
102
RTVSPost2010Prop51ColorIndex
 90
      256
102
RTVSPost2010Prop51ColorRGB
 90
-16777216
102
RTVSPost2010PropOp51
 70
     0
102
RTVSPost2010Prop52
140
1.0
102
RTVSPost2010PropOp52
 70
     0
102
RTVSPost2010Prop53
 90
        2
102
RTVSPost2010PropOp53
 70
     1
102
RTVSPost2010Prop54
  1
strokes_ogs.tif
102
RTVSPost2010PropOp54
 70
     1
102
RTVSPost2010Prop55
280
     0
102
RTVSPost2010PropOp55
 70
     1
102
RTVSPost2010Prop56
140
1.0
102
RTVSPost2010PropOp56
 70
     1
102
RTVSPost2010Prop57
140
1.0
102
RTVSPost2010PropOp57
 70
     1
  0
XRECORD
  5
2CAB5
102
{ACAD_REACTORS
330
2CAB4
102
}
330
2CAB4
100
AcDbXrecord
280
     1
102
RTVSPost2010Prop28
280
     0
102
RTVSPost2010PropOp28
 70
     1
102
RTVSPost2010Prop29
280
     1
102
RTVSPost2010PropOp29
 70
     1
102
RTVSPost2010Prop30
280
     1
102
RTVSPost2010PropOp30
 70
     1
102
RTVSPost2010Prop31
280
     0
102
RTVSPost2010PropOp31
 70
     1
102
RTVSPost2010Prop32
280
     0
102
RTVSPost2010PropOp32
 70
     1
102
RTVSPost2010Prop33
280
     0
102
RTVSPost2010PropOp33
 70
     1
102
RTVSPost2010Prop34
280
     0
102
RTVSPost2010PropOp34
 70
     1
102
RTVSPost2010Prop35
280
     0
102
RTVSPost2010PropOp35
 70
     1
102
RTVSPost2010Prop36
280
     0
102
RTVSPost2010PropOp36
 70
     1
102
RTVSPost2010Prop37
 90
       50
102
RTVSPost2010PropOp37
 70
     1
102
RTVSPost2010Prop38
140
0.0
102
RTVSPost2010PropOp38
 70
     1
102
RTVSPost2010Prop39
140
1.0
102
RTVSPost2010PropOp39
 70
     1
102
RTVSPost2010Prop40
 90
        0
102
RTVSPost2010PropOp40
 70
     1
102
RTVSPost2010Prop41ColorIndex
 90
       18
102
RTVSPost2010Prop41ColorRGB
 90
        0
102
RTVSPost2010PropOp41
 70
     1
102
RTVSPost2010Prop42
 90
       50
102
RTVSPost2010PropOp42
 70
     1
102
RTVSPost2010Prop43
 90
        3
102
RTVSPost2010PropOp43
 70
     1
102
RTVSPost2010Prop44ColorIndex
 90
        5
102
RTVSPost2010Prop44ColorRGB
 90
      255
102
RTVSPost2010PropOp44
 70
     1
102
RTVSPost2010Prop45
280
     0
102
RTVSPost2010PropOp45
 70
     1
102
RTVSPost2010Prop46
 90
       50
102
RTVSPost2010PropOp46
 70
     1
102
RTVSPost2010Prop47
 90
       50
102
RTVSPost2010PropOp47
 70
     1
102
RTVSPost2010Prop48
 90
       50
102
RTVSPost2010PropOp48
 70
     1
102
RTVSPost2010Prop49
280
     0
102
RTVSPost2010PropOp49
 70
     1
102
RTVSPost2010Prop50
 90
       50
102
RTVSPost2010PropOp50
 70
     1
102
RTVSPost2010Prop51ColorIndex
 90
      256
102
RTVSPost2010Prop51ColorRGB
 90
-16777216
102
RTVSPost2010PropOp51
 70
     0
102
RTVSPost2010Prop52
140
1.0
102
RTVSPost2010PropOp52
 70
     0
102
RTVSPost2010Prop53
 90
        2
102
RTVSPost2010PropOp53
 70
     1
102
RTVSPost2010Prop54
  1
strokes_ogs.tif
102
RTVSPost2010PropOp54
 70
     1
102
RTVSPost2010Prop55
280
     0
102
RTVSPost2010PropOp55
 70
     1
102
RTVSPost2010Prop56
140
1.0
102
RTVSPost2010PropOp56
 70
     1
102
RTVSPost2010Prop57
140
1.0
102
RTVSPost2010PropOp57
 70
     1
  0
ENDSEC
  0
EOF
