  0
SECTION
  2
HEADER
  9
$ACADVER
  1
AC1024
  9
$ACADMAINTVER
 70
     6
  9
$DWGCODEPAGE
  3
ANSI_932
  9
$LASTSAVEDBY
  1
takeshitobe
  9
$INSBASE
 10
0.0
 20
0.0
 30
0.0
  9
$EXTMIN
 10
171.0
 20
13.0
 30
0.0
  9
$EXTMAX
 10
366.0
 20
295.0
 30
0.0
  9
$LIMMIN
 10
0.0
 20
0.0
  9
$LIMMAX
 10
420.0
 20
297.0
  9
$ORTHOMODE
 70
     0
  9
$REGENMODE
 70
     1
  9
$FILLMODE
 70
     1
  9
$QTEXTMODE
 70
     0
  9
$MIRRTEXT
 70
     1
  9
$LTSCALE
 40
1.0
  9
$ATTMODE
 70
     1
  9
$TEXTSIZE
 40
2.5
  9
$TRACEWID
 40
1.0
  9
$TEXTSTYLE
  7
Standard
  9
$CLAYER
  8
0
  9
$CELTYPE
  6
ByLayer
  9
$CECOLOR
 62
   256
  9
$CELTSCALE
 40
1.0
  9
$DISPSILH
 70
     0
  9
$DIMSCALE
 40
1.0
  9
$DIMASZ
 40
2.5
  9
$DIMEXO
 40
0.625
  9
$DIMDLI
 40
3.75
  9
$DIMRND
 40
0.0
  9
$DIMDLE
 40
0.0
  9
$DIMEXE
 40
1.25
  9
$DIMTP
 40
0.0
  9
$DIMTM
 40
0.0
  9
$DIMTXT
 40
2.5
  9
$DIMCEN
 40
2.5
  9
$DIMTSZ
 40
0.0
  9
$DIMTOL
 70
     0
  9
$DIMLIM
 70
     0
  9
$DIMTIH
 70
     0
  9
$DIMTOH
 70
     0
  9
$DIMSE1
 70
     0
  9
$DIMSE2
 70
     0
  9
$DIMTAD
 70
     1
  9
$DIMZIN
 70
     8
  9
$DIMBLK
  1

  9
$DIMASO
 70
     1
  9
$DIMSHO
 70
     1
  9
$DIMPOST
  1

  9
$DIMAPOST
  1

  9
$DIMALT
 70
     0
  9
$DIMALTD
 70
     3
  9
$DIMALTF
 40
0.03937007874
  9
$DIMLFAC
 40
1.0
  9
$DIMTOFL
 70
     1
  9
$DIMTVP
 40
0.0
  9
$DIMTIX
 70
     0
  9
$DIMSOXD
 70
     0
  9
$DIMSAH
 70
     0
  9
$DIMBLK1
  1

  9
$DIMBLK2
  1

  9
$DIMSTYLE
  2
ISO-25
  9
$DIMCLRD
 70
     0
  9
$DIMCLRE
 70
     0
  9
$DIMCLRT
 70
     0
  9
$DIMTFAC
 40
1.0
  9
$DIMGAP
 40
0.625
  9
$DIMJUST
 70
     0
  9
$DIMSD1
 70
     0
  9
$DIMSD2
 70
     0
  9
$DIMTOLJ
 70
     0
  9
$DIMTZIN
 70
     8
  9
$DIMALTZ
 70
     0
  9
$DIMALTTZ
 70
     0
  9
$DIMUPT
 70
     0
  9
$DIMDEC
 70
     2
  9
$DIMTDEC
 70
     2
  9
$DIMALTU
 70
     2
  9
$DIMALTTD
 70
     3
  9
$DIMTXSTY
  7
Standard
  9
$DIMAUNIT
 70
     0
  9
$DIMADEC
 70
     0
  9
$DIMALTRND
 40
0.0
  9
$DIMAZIN
 70
     0
  9
$DIMDSEP
 70
    44
  9
$DIMATFIT
 70
     3
  9
$DIMFRAC
 70
     0
  9
$DIMLDRBLK
  1

  9
$DIMLUNIT
 70
     2
  9
$DIMLWD
 70
    -2
  9
$DIMLWE
 70
    -2
  9
$DIMTMOVE
 70
     0
  9
$DIMFXL
 40
1.0
  9
$DIMFXLON
 70
     0
  9
$DIMJOGANG
 40
0.785398163397
  9
$DIMTFILL
 70
     0
  9
$DIMTFILLCLR
 70
     0
  9
$DIMARCSYM
 70
     0
  9
$DIMLTYPE
  6

  9
$DIMLTEX1
  6

  9
$DIMLTEX2
  6

  9
$DIMTXTDIRECTION
 70
     0
  9
$LUNITS
 70
     2
  9
$LUPREC
 70
     4
  9
$SKETCHINC
 40
1.0
  9
$FILLETRAD
 40
10.0
  9
$AUNITS
 70
     0
  9
$AUPREC
 70
     0
  9
$MENU
  1
.
  9
$ELEVATION
 40
0.0
  9
$PELEVATION
 40
0.0
  9
$THICKNESS
 40
0.0
  9
$LIMCHECK
 70
     0
  9
$CHAMFERA
 40
10.0
  9
$CHAMFERB
 40
10.0
  9
$CHAMFERC
 40
20.0
  9
$CHAMFERD
 40
0.0
  9
$SKPOLY
 70
     0
  9
$TDCREATE
 40
2458282.465634954
  9
$TDUCREATE
 40
2458282.090634954
  9
$TDUPDATE
 40
2458284.372360949
  9
$TDUUPDATE
 40
2458283.997360949
  9
$TDINDWG
 40
0.0004354282
  9
$TDUSRTIMER
 40
0.0004354282
  9
$USRTIMER
 70
     1
  9
$ANGBASE
 50
0.0
  9
$ANGDIR
 70
     0
  9
$PDMODE
 70
     0
  9
$PDSIZE
 40
0.0
  9
$PLINEWID
 40
0.0
  9
$SPLFRAME
 70
     0
  9
$SPLINETYPE
 70
     6
  9
$SPLINESEGS
 70
     8
  9
$HANDSEED
  5
131D
  9
$SURFTAB1
 70
     6
  9
$SURFTAB2
 70
     6
  9
$SURFTYPE
 70
     6
  9
$SURFU
 70
     6
  9
$SURFV
 70
     6
  9
$UCSBASE
  2

  9
$UCSNAME
  2

  9
$UCSORG
 10
0.0
 20
0.0
 30
0.0
  9
$UCSXDIR
 10
1.0
 20
0.0
 30
0.0
  9
$UCSYDIR
 10
0.0
 20
1.0
 30
0.0
  9
$UCSORTHOREF
  2

  9
$UCSORTHOVIEW
 70
     0
  9
$UCSORGTOP
 10
0.0
 20
0.0
 30
0.0
  9
$UCSORGBOTTOM
 10
0.0
 20
0.0
 30
0.0
  9
$UCSORGLEFT
 10
0.0
 20
0.0
 30
0.0
  9
$UCSORGRIGHT
 10
0.0
 20
0.0
 30
0.0
  9
$UCSORGFRONT
 10
0.0
 20
0.0
 30
0.0
  9
$UCSORGBACK
 10
0.0
 20
0.0
 30
0.0
  9
$PUCSBASE
  2

  9
$PUCSNAME
  2

  9
$PUCSORG
 10
0.0
 20
0.0
 30
0.0
  9
$PUCSXDIR
 10
1.0
 20
0.0
 30
0.0
  9
$PUCSYDIR
 10
0.0
 20
1.0
 30
0.0
  9
$PUCSORTHOREF
  2

  9
$PUCSORTHOVIEW
 70
     0
  9
$PUCSORGTOP
 10
0.0
 20
0.0
 30
0.0
  9
$PUCSORGBOTTOM
 10
0.0
 20
0.0
 30
0.0
  9
$PUCSORGLEFT
 10
0.0
 20
0.0
 30
0.0
  9
$PUCSORGRIGHT
 10
0.0
 20
0.0
 30
0.0
  9
$PUCSORGFRONT
 10
0.0
 20
0.0
 30
0.0
  9
$PUCSORGBACK
 10
0.0
 20
0.0
 30
0.0
  9
$USERI1
 70
     0
  9
$USERI2
 70
     0
  9
$USERI3
 70
     0
  9
$USERI4
 70
     0
  9
$USERI5
 70
     0
  9
$USERR1
 40
0.0
  9
$USERR2
 40
0.0
  9
$USERR3
 40
0.0
  9
$USERR4
 40
0.0
  9
$USERR5
 40
0.0
  9
$WORLDVIEW
 70
     1
  9
$SHADEDGE
 70
     3
  9
$SHADEDIF
 70
    70
  9
$TILEMODE
 70
     1
  9
$MAXACTVP
 70
    48
  9
$PINSBASE
 10
0.0
 20
0.0
 30
0.0
  9
$PLIMCHECK
 70
     0
  9
$PEXTMIN
 10
40.5
 20
25.7
 30
0.0
  9
$PEXTMAX
 10
364.5
 20
231.3
 30
0.0
  9
$PLIMMIN
 10
-7.5
 20
-20.0
  9
$PLIMMAX
 10
412.5
 20
277.0
  9
$UNITMODE
 70
     0
  9
$VISRETAIN
 70
     1
  9
$PLINEGEN
 70
     0
  9
$PSLTSCALE
 70
     1
  9
$TREEDEPTH
 70
  3020
  9
$CMLSTYLE
  2
Standard
  9
$CMLJUST
 70
     0
  9
$CMLSCALE
 40
20.0
  9
$PROXYGRAPHICS
 70
     1
  9
$MEASUREMENT
 70
     1
  9
$CELWEIGHT
370
    -1
  9
$ENDCAPS
280
     0
  9
$JOINSTYLE
280
     0
  9
$LWDISPLAY
290
     0
  9
$INSUNITS
 70
     4
  9
$HYPERLINKBASE
  1

  9
$STYLESHEET
  1

  9
$XEDIT
290
     1
  9
$CEPSNTYPE
380
     0
  9
$PSTYLEMODE
290
     1
  9
$FINGERPRINTGUID
  2
{F90EB675-A00A-4CBB-9390-F49B0EE38E92}
  9
$VERSIONGUID
  2
{B1DCADED-1393-43F9-849F-85D3B7CD1A10}
  9
$EXTNAMES
290
     1
  9
$PSVPSCALE
 40
0.0
  9
$OLESTARTUP
290
     0
  9
$SORTENTS
280
   127
  9
$INDEXCTL
280
     0
  9
$HIDETEXT
280
     1
  9
$XCLIPFRAME
280
     0
  9
$HALOGAP
280
     0
  9
$OBSCOLOR
 70
   257
  9
$OBSLTYPE
280
     0
  9
$INTERSECTIONDISPLAY
280
     0
  9
$INTERSECTIONCOLOR
 70
   257
  9
$DIMASSOC
280
     1
  9
$PROJECTNAME
  1

  9
$CAMERADISPLAY
290
     0
  9
$LENSLENGTH
 40
50.0
  9
$CAMERAHEIGHT
 40
0.0
  9
$STEPSPERSEC
 40
2.0
  9
$STEPSIZE
 40
6.0
  9
$3DDWFPREC
 40
2.0
  9
$PSOLWIDTH
 40
0.25
  9
$PSOLHEIGHT
 40
4.0
  9
$LOFTANG1
 40
1.570796326795
  9
$LOFTANG2
 40
1.570796326795
  9
$LOFTMAG1
 40
0.0
  9
$LOFTMAG2
 40
0.0
  9
$LOFTPARAM
 70
     7
  9
$LOFTNORMALS
280
     1
  9
$LATITUDE
 40
37.795
  9
$LONGITUDE
 40
-122.394
  9
$NORTHDIRECTION
 40
0.0
  9
$TIMEZONE
 70
 -8000
  9
$LIGHTGLYPHDISPLAY
280
     1
  9
$TILEMODELIGHTSYNCH
280
     1
  9
$SOLIDHIST
280
     1
  9
$SHOWHIST
280
     1
  9
$DWFFRAME
280
     2
  9
$DGNFRAME
280
     2
  9
$REALWORLDSCALE
290
     1
  9
$INTERFERECOLOR
 62
   256
  9
$CSHADOW
280
     0
  9
$SHADOWPLANELOCATION
 40
0.0
  0
ENDSEC
  0
SECTION
  2
CLASSES
  0
CLASS
  1
ACDBDICTIONARYWDFLT
  2
AcDbDictionaryWithDefault
  3
ObjectDBX Classes
 90
        0
 91
        3
280
     0
281
     0
  0
CLASS
  1
ACDBPLACEHOLDER
  2
AcDbPlaceHolder
  3
ObjectDBX Classes
 90
        0
 91
        1
280
     0
281
     0
  0
CLASS
  1
LAYOUT
  2
AcDbLayout
  3
ObjectDBX Classes
 90
        0
 91
        1
280
     0
281
     0
  0
CLASS
  1
LONG_TRANSACTION
  2
AcDbLongTransaction
  3
ObjectDBX Classes
 90
        0
 91
        1
280
     0
281
     0
  0
CLASS
  1
LWPOLYLINE
  2
AcDbPolyline
  3
ObjectDBX Classes
 90
        0
 91
        1
280
     0
281
     1
  0
CLASS
  1
HATCH
  2
AcDbHatch
  3
ObjectDBX Classes
 90
        0
 91
        1
280
     0
281
     1
  0
CLASS
  1
XRECORD
  2
AcDbXrecord
  3
ObjectDBX Classes
 90
        0
 91
        1
280
     0
281
     0
  0
CLASS
  1
LONG_TRANSACTION
  2
AcDbLongTransaction
  3
ObjectDBX Classes
 90
        0
 91
        1
280
     0
281
     0
  0
CLASS
  1
LWPOLYLINE
  2
AcDbPolyline
  3
ObjectDBX Classes
 90
        0
 91
        1
280
     0
281
     1
  0
CLASS
  1
HATCH
  2
AcDbHatch
  3
ObjectDBX Classes
 90
        0
 91
        1
280
     0
281
     1
  0
CLASS
  1
XRECORD
  2
AcDbXrecord
  3
ObjectDBX Classes
 90
        0
 91
        1
280
     0
281
     0
  0
CLASS
  1
LONG_TRANSACTION
  2
AcDbLongTransaction
  3
ObjectDBX Classes
 90
        0
 91
        1
280
     0
281
     0
  0
CLASS
  1
LWPOLYLINE
  2
AcDbPolyline
  3
ObjectDBX Classes
 90
        0
 91
        1
280
     0
281
     1
  0
CLASS
  1
HATCH
  2
AcDbHatch
  3
ObjectDBX Classes
 90
        0
 91
        1
280
     0
281
     1
  0
CLASS
  1
XRECORD
  2
AcDbXrecord
  3
ObjectDBX Classes
 90
        0
 91
        1
280
     0
281
     0
  0
CLASS
  1
LONG_TRANSACTION
  2
AcDbLongTransaction
  3
ObjectDBX Classes
 90
        0
 91
        1
280
     0
281
     0
  0
CLASS
  1
LWPOLYLINE
  2
AcDbPolyline
  3
ObjectDBX Classes
 90
        0
 91
        1
280
     0
281
     1
  0
CLASS
  1
HATCH
  2
AcDbHatch
  3
ObjectDBX Classes
 90
        0
 91
        1
280
     0
281
     1
  0
CLASS
  1
XRECORD
  2
AcDbXrecord
  3
ObjectDBX Classes
 90
        0
 91
        1
280
     0
281
     0
  0
CLASS
  1
LONG_TRANSACTION
  2
AcDbLongTransaction
  3
ObjectDBX Classes
 90
        0
 91
        1
280
     0
281
     0
  0
CLASS
  1
LWPOLYLINE
  2
AcDbPolyline
  3
ObjectDBX Classes
 90
        0
 91
        1
280
     0
281
     1
  0
CLASS
  1
HATCH
  2
AcDbHatch
  3
ObjectDBX Classes
 90
        0
 91
        1
280
     0
281
     1
  0
CLASS
  1
XRECORD
  2
AcDbXrecord
  3
ObjectDBX Classes
 90
        0
 91
        1
280
     0
281
     0
  0
CLASS
  1
LONG_TRANSACTION
  2
AcDbLongTransaction
  3
ObjectDBX Classes
 90
        0
 91
        1
280
     0
281
     0
  0
CLASS
  1
LWPOLYLINE
  2
AcDbPolyline
  3
ObjectDBX Classes
 90
        0
 91
        1
280
     0
281
     1
  0
CLASS
  1
HATCH
  2
AcDbHatch
  3
ObjectDBX Classes
 90
        0
 91
        1
280
     0
281
     1
  0
CLASS
  1
XRECORD
  2
AcDbXrecord
  3
ObjectDBX Classes
 90
        0
 91
        1
280
     0
281
     0
  0
CLASS
  1
LONG_TRANSACTION
  2
AcDbLongTransaction
  3
ObjectDBX Classes
 90
        0
 91
        1
280
     0
281
     0
  0
CLASS
  1
LWPOLYLINE
  2
AcDbPolyline
  3
ObjectDBX Classes
 90
        0
 91
        1
280
     0
281
     1
  0
CLASS
  1
HATCH
  2
AcDbHatch
  3
ObjectDBX Classes
 90
        0
 91
        1
280
     0
281
     1
  0
CLASS
  1
XRECORD
  2
AcDbXrecord
  3
ObjectDBX Classes
 90
        0
 91
        1
280
     0
281
     0
  0
CLASS
  1
LONG_TRANSACTION
  2
AcDbLongTransaction
  3
ObjectDBX Classes
 90
        0
 91
        1
280
     0
281
     0
  0
CLASS
  1
LWPOLYLINE
  2
AcDbPolyline
  3
ObjectDBX Classes
 90
        0
 91
        1
280
     0
281
     1
  0
CLASS
  1
HATCH
  2
AcDbHatch
  3
ObjectDBX Classes
 90
        0
 91
        1
280
     0
281
     1
  0
CLASS
  1
XRECORD
  2
AcDbXrecord
  3
ObjectDBX Classes
 90
        0
 91
        1
280
     0
281
     0
  0
CLASS
  1
LONG_TRANSACTION
  2
AcDbLongTransaction
  3
ObjectDBX Classes
 90
        0
 91
        1
280
     0
281
     0
  0
CLASS
  1
LWPOLYLINE
  2
AcDbPolyline
  3
ObjectDBX Classes
 90
        0
 91
        1
280
     0
281
     1
  0
CLASS
  1
HATCH
  2
AcDbHatch
  3
ObjectDBX Classes
 90
        0
 91
        1
280
     0
281
     1
  0
CLASS
  1
XRECORD
  2
AcDbXrecord
  3
ObjectDBX Classes
 90
        0
 91
        1
280
     0
281
     0
  0
CLASS
  1
LONG_TRANSACTION
  2
AcDbLongTransaction
  3
ObjectDBX Classes
 90
        0
 91
        1
280
     0
281
     0
  0
CLASS
  1
LWPOLYLINE
  2
AcDbPolyline
  3
ObjectDBX Classes
 90
        0
 91
        1
280
     0
281
     1
  0
CLASS
  1
HATCH
  2
AcDbHatch
  3
ObjectDBX Classes
 90
        0
 91
        1
280
     0
281
     1
  0
CLASS
  1
XRECORD
  2
AcDbXrecord
  3
ObjectDBX Classes
 90
        0
 91
        1
280
     0
281
     0
  0
CLASS
  1
LONG_TRANSACTION
  2
AcDbLongTransaction
  3
ObjectDBX Classes
 90
        0
 91
        1
280
     0
281
     0
  0
CLASS
  1
LWPOLYLINE
  2
AcDbPolyline
  3
ObjectDBX Classes
 90
        0
 91
        1
280
     0
281
     1
  0
CLASS
  1
HATCH
  2
AcDbHatch
  3
ObjectDBX Classes
 90
        0
 91
        1
280
     0
281
     1
  0
CLASS
  1
XRECORD
  2
AcDbXrecord
  3
ObjectDBX Classes
 90
        0
 91
        1
280
     0
281
     0
  0
CLASS
  1
LONG_TRANSACTION
  2
AcDbLongTransaction
  3
ObjectDBX Classes
 90
        0
 91
        1
280
     0
281
     0
  0
CLASS
  1
LWPOLYLINE
  2
AcDbPolyline
  3
ObjectDBX Classes
 90
        0
 91
        1
280
     0
281
     1
  0
CLASS
  1
HATCH
  2
AcDbHatch
  3
ObjectDBX Classes
 90
        0
 91
        1
280
     0
281
     1
  0
CLASS
  1
XRECORD
  2
AcDbXrecord
  3
ObjectDBX Classes
 90
        0
 91
        1
280
     0
281
     0
  0
CLASS
  1
LONG_TRANSACTION
  2
AcDbLongTransaction
  3
ObjectDBX Classes
 90
        0
 91
        1
280
     0
281
     0
  0
CLASS
  1
LWPOLYLINE
  2
AcDbPolyline
  3
ObjectDBX Classes
 90
        0
 91
        1
280
     0
281
     1
  0
CLASS
  1
HATCH
  2
AcDbHatch
  3
ObjectDBX Classes
 90
        0
 91
        1
280
     0
281
     1
  0
CLASS
  1
XRECORD
  2
AcDbXrecord
  3
ObjectDBX Classes
 90
        0
 91
        1
280
     0
281
     0
  0
CLASS
  1
DICTIONARYVAR
  2
AcDbDictionaryVar
  3
ObjectDBX Classes
 90
        0
 91
        3
280
     0
281
     0
  0
CLASS
  1
LONG_TRANSACTION
  2
AcDbLongTransaction
  3
ObjectDBX Classes
 90
        0
 91
        1
280
     0
281
     0
  0
CLASS
  1
LWPOLYLINE
  2
AcDbPolyline
  3
ObjectDBX Classes
 90
        0
 91
        1
280
     0
281
     1
  0
CLASS
  1
HATCH
  2
AcDbHatch
  3
ObjectDBX Classes
 90
        0
 91
        1
280
     0
281
     1
  0
CLASS
  1
XRECORD
  2
AcDbXrecord
  3
ObjectDBX Classes
 90
        0
 91
        1
280
     0
281
     0
  0
CLASS
  1
SCALE
  2
AcDbScale
  3
ObjectDBX Classes
 90
     1153
 91
        3
280
     0
281
     0
  0
CLASS
  1
MATERIAL
  2
AcDbMaterial
  3
ObjectDBX Classes
 90
     1153
 91
        3
280
     0
281
     0
  0
CLASS
  1
TABLESTYLE
  2
AcDbTableStyle
  3
ObjectDBX Classes
 90
     4095
 91
        3
280
     0
281
     0
  0
CLASS
  1
SUN
  2
AcDbSun
  3
SCENEOE
 90
     1153
 91
        3
280
     0
281
     0
  0
CLASS
  1
VISUALSTYLE
  2
AcDbVisualStyle
  3
ObjectDBX Classes
 90
     4095
 91
        3
280
     0
281
     0
  0
CLASS
  1
MLEADERSTYLE
  2
AcDbMLeaderStyle
  3
ACDB_MLEADERSTYLE_CLASS
 90
     4095
 91
        3
280
     0
281
     0
  0
CLASS
  1
CELLSTYLEMAP
  2
AcDbCellStyleMap
  3
ObjectDBX Classes
 90
     1152
 91
        3
280
     0
281
     0
  0
ENDSEC
  0
SECTION
  2
TABLES
  0
TABLE
  2
VPORT
  5
8
330
0
100
AcDbSymbolTable
 70
     1
  0
VPORT
  5
E61
330
8
100
AcDbSymbolTableRecord
100
AcDbViewportTableRecord
  2
*Active
 70
     0
 10
0.0
 20
0.0
 11
1.0
 21
1.0
 12
271.653476336113
 22
163.248063018982
 13
0.0
 23
0.0
 14
1.0
 24
1.0
 15
1.0
 25
1.0
 16
0.0
 26
0.0
 36
1.0
 17
0.0
 27
0.0
 37
0.0
 40
407.85425915801
 41
2.164402173913
 42
50.0
 43
0.0
 44
0.0
 50
0.0
 51
0.0
 71
    16
 72
   500
 73
     1
 74
     3
 75
     1
 76
     0
 77
     0
 78
     0
281
     0
 65
     1
110
0.0
120
0.0
130
0.0
111
1.0
121
0.0
131
0.0
112
0.0
122
1.0
132
0.0
 79
     0
146
0.0
348
E93
 60
     3
 61
     5
292
     1
282
     1
141
0.0
142
0.0
 63
   250
421
  3355443
361
E8A
  0
ENDTAB
  0
TABLE
  2
LTYPE
  5
5
330
0
100
AcDbSymbolTable
 70
     1
  0
LTYPE
  5
14
330
5
100
AcDbSymbolTableRecord
100
AcDbLinetypeTableRecord
  2
ByBlock
 70
     0
  3

 72
    65
 73
     0
 40
0.0
  0
LTYPE
  5
15
330
5
100
AcDbSymbolTableRecord
100
AcDbLinetypeTableRecord
  2
ByLayer
 70
     0
  3

 72
    65
 73
     0
 40
0.0
  0
LTYPE
  5
16
330
5
100
AcDbSymbolTableRecord
100
AcDbLinetypeTableRecord
  2
Continuous
 70
     0
  3
Solid line
 72
    65
 73
     0
 40
0.0
  0
ENDTAB
  0
TABLE
  2
LAYER
  5
2
102
{ACAD_XDICTIONARY
360
101F
102
}
330
0
100
AcDbSymbolTable
 70
     6
  0
LAYER
  5
10
330
2
100
AcDbSymbolTableRecord
100
AcDbLayerTableRecord
  2
0
 70
     0
 62
     7
  6
Continuous
370
    -3
390
F
347
E86
  0
LAYER
  5
E89
330
2
100
AcDbSymbolTableRecord
100
AcDbLayerTableRecord
  2
Defpoints
 70
     0
 62
     7
  6
Continuous
290
     0
370
    -3
390
F
347
E86
  0
LAYER
  5
EAA
330
2
100
AcDbSymbolTableRecord
100
AcDbLayerTableRecord
  2
DIM
 70
     0
 62
     8
  6
Continuous
370
    -3
390
F
347
E86
  0
LAYER
  5
EAE
330
2
100
AcDbSymbolTableRecord
100
AcDbLayerTableRecord
  2
text
 70
     0
 62
     4
  6
Continuous
370
    -3
390
F
347
E86
  0
LAYER
  5
EAF
330
2
100
AcDbSymbolTableRecord
100
AcDbLayerTableRecord
  2
shade
 70
     0
 62
     6
  6
Continuous
370
    -3
390
F
347
E86
  0
LAYER
  5
EB0
330
2
100
AcDbSymbolTableRecord
100
AcDbLayerTableRecord
  2
FLAME
 70
     0
 62
     2
  6
Continuous
370
    -3
390
F
347
E86
  0
ENDTAB
  0
TABLE
  2
STYLE
  5
3
330
0
100
AcDbSymbolTable
 70
     5
  0
STYLE
  5
11
330
3
100
AcDbSymbolTableRecord
100
AcDbTextStyleTableRecord
  2
Standard
 70
     0
 40
0.0
 41
1.0
 50
0.0
 71
     0
 42
2.5
  3
MS UI Gothic.ttf
  4

1001
ACAD
1000
MS UI Gothic
1071
    32818
  0
STYLE
  5
78
330
3
100
AcDbSymbolTableRecord
100
AcDbTextStyleTableRecord
  2
VERTICAL
 70
     0
 40
0.0
 41
1.0
 50
0.0
 71
     0
 42
2.5
  3
@MS UI Gothic.ttf
  4

1001
ACAD
1000
@MS UI Gothic
1071
    32818
  0
STYLE
  5
9D
330
3
100
AcDbSymbolTableRecord
100
AcDbTextStyleTableRecord
  2

 70
     1
 40
0.0
 41
1.0
 50
0.0
 71
     0
 42
2.5
  3
ltypeshp.shx
  4

  0
STYLE
  5
EB2
330
3
100
AcDbSymbolTableRecord
100
AcDbTextStyleTableRecord
  2
GOTHIC
 70
     0
 40
0.0
 41
1.0
 50
0.0
 71
     0
 42
2.5
  3

  4

1001
ACAD
1000
ＭＳ Ｐゴシック
1071
    32818
  0
STYLE
  5
EB7
330
3
100
AcDbSymbolTableRecord
100
AcDbTextStyleTableRecord
  2
新規スタイル1
 70
     0
 40
0.0
 41
1.0
 50
0.0
 71
     0
 42
2.5
  3

  4

1001
ACAD
1000
ＭＳ Ｐ明朝
1071
    32786
  0
ENDTAB
  0
TABLE
  2
VIEW
  5
6
330
0
100
AcDbSymbolTable
 70
     0
  0
ENDTAB
  0
TABLE
  2
UCS
  5
7
330
0
100
AcDbSymbolTable
 70
     0
  0
ENDTAB
  0
TABLE
  2
APPID
  5
9
330
0
100
AcDbSymbolTable
 70
     7
  0
APPID
  5
12
330
9
100
AcDbSymbolTableRecord
100
AcDbRegAppTableRecord
  2
ACAD
 70
     0
  0
APPID
  5
4BA
330
9
100
AcDbSymbolTableRecord
100
AcDbRegAppTableRecord
  2
ALFADenkiAttdef
 70
     0
  0
APPID
  5
58B
330
9
100
AcDbSymbolTableRecord
100
AcDbRegAppTableRecord
  2
ALFADenkiAddress
 70
     0
  0
APPID
  5
AB8
330
9
100
AcDbSymbolTableRecord
100
AcDbRegAppTableRecord
  2
ALFADenkiHistory_BackupText
 70
     0
  0
APPID
  5
EB3
330
9
100
AcDbSymbolTableRecord
100
AcDbRegAppTableRecord
  2
AcadAnnotative
 70
     0
  0
APPID
  5
EB4
330
9
100
AcDbSymbolTableRecord
100
AcDbRegAppTableRecord
  2
ACAD_PSEXT
 70
     0
  0
APPID
  5
EB5
330
9
100
AcDbSymbolTableRecord
100
AcDbRegAppTableRecord
  2
ACAD_NAV_VCDISPLAY
 70
     0
  0
ENDTAB
  0
TABLE
  2
DIMSTYLE
  5
A
330
0
100
AcDbSymbolTable
 70
     3
100
AcDbDimStyleTable
  0
DIMSTYLE
105
27
330
A
100
AcDbSymbolTableRecord
100
AcDbDimStyleTableRecord
  2
ISO-25
 70
     0
 41
2.5
 42
0.625
 43
3.75
 44
1.25
 73
     0
 74
     0
 77
     1
 78
     8
140
2.5
141
2.5
143
0.03937007874
147
0.625
171
     3
172
     1
178
     0
271
     2
272
     2
274
     3
278
    44
283
     0
284
     8
340
11
  0
DIMSTYLE
105
6E
330
A
100
AcDbSymbolTableRecord
100
AcDbDimStyleTableRecord
  2
Standard
 70
     0
178
     0
340
11
  0
DIMSTYLE
105
EB1
330
A
100
AcDbSymbolTableRecord
100
AcDbDimStyleTableRecord
  2
SC3
 70
     0
 40
3.0
 41
2.5
 42
1.0
 43
2.5
 44
1.0
 73
     0
 74
     0
 77
     1
140
2.5
141
2.5
143
0.03937
147
1.0
173
     1
176
   256
177
   256
271
     0
178
     4
271
     0
272
     0
278
     0
340
EB2
1001
AcadAnnotative
1000
AnnotativeData
1002
{
1070
     1
1070
     0
1002
}
  0
ENDTAB
  0
TABLE
  2
BLOCK_RECORD
  5
1
330
0
100
AcDbSymbolTable
 70
     2
  0
BLOCK_RECORD
  5
1F
330
1
100
AcDbSymbolTableRecord
100
AcDbBlockTableRecord
  2
*Model_Space
340
22
 70
     0
280
     1
281
     0
  0
BLOCK_RECORD
  5
23
330
1
100
AcDbSymbolTableRecord
100
AcDbBlockTableRecord
  2
*Paper_Space
340
26
 70
     0
280
     1
281
     0
  0
BLOCK_RECORD
  5
1B
330
1
100
AcDbSymbolTableRecord
100
AcDbBlockTableRecord
  2
*Paper_Space0
340
1E
 70
     0
280
     1
281
     0
  0
BLOCK_RECORD
  5
EA9
330
1
100
AcDbSymbolTableRecord
100
AcDbBlockTableRecord
  2
11C102C8
340
0
 70
     0
280
     1
281
     0
  0
ENDTAB
  0
ENDSEC
  0
SECTION
  2
BLOCKS
  0
BLOCK
  5
20
330
1F
100
AcDbEntity
  8
0
100
AcDbBlockBegin
  2
*Model_Space
 70
     2
 10
0.0
 20
0.0
 30
0.0
  3
*Model_Space
  1

  0
ENDBLK
  5
21
330
1F
100
AcDbEntity
  8
0
100
AcDbBlockEnd
  0
BLOCK
  5
24
330
23
100
AcDbEntity
 67
     1
  8
0
100
AcDbBlockBegin
  2
*Paper_Space
 70
     0
 10
0.0
 20
0.0
 30
0.0
  3
*Paper_Space
  1

  0
ENDBLK
  5
25
330
23
100
AcDbEntity
 67
     1
  8
0
100
AcDbBlockEnd
  0
BLOCK
  5
1C
330
1B
100
AcDbEntity
  8
0
100
AcDbBlockBegin
  2
*Paper_Space0
 70
     0
 10
0.0
 20
0.0
 30
0.0
  3
*Paper_Space0
  1

  0
VIEWPORT
  5
8C
330
1B
100
AcDbEntity
  8
0
100
AcDbViewport
 10
202.5
 20
128.5
 30
0.0
 40
556.786421052632
 41
314.226
 68
     1
 69
     1
 12
202.5
 22
128.5
 13
0.0
 23
0.0
 14
10.0
 24
10.0
 15
10.0
 25
10.0
 16
0.0
 26
0.0
 36
1.0
 17
0.0
 27
0.0
 37
0.0
 42
50.0
 43
0.0
 44
0.0
 45
314.226
 50
0.0
 51
0.0
 72
   100
 90
    32800
  1

281
     0
 71
     1
 74
     0
110
0.0
120
0.0
130
0.0
111
1.0
121
0.0
131
0.0
112
0.0
122
1.0
132
0.0
 79
     0
146
0.0
170
     0
 61
     5
348
E93
292
     1
282
     1
141
0.0
142
0.0
 63
   250
421
  3355443
  0
VIEWPORT
  5
8E
330
1B
100
AcDbEntity
  8
0
100
AcDbViewport
 10
202.5
 20
128.5
 30
0.0
 40
324.0
 41
205.6
 68
     2
 69
     2
 12
210.0
 22
148.5
 13
0.0
 23
0.0
 14
10.0
 24
10.0
 15
10.0
 25
10.0
 16
0.0
 26
0.0
 36
1.0
 17
0.0
 27
0.0
 37
0.0
 42
50.0
 43
0.0
 44
0.0
 45
302.335329341317
 50
0.0
 51
0.0
 72
   100
 90
    32864
  1

281
     0
 71
     1
 74
     0
110
0.0
120
0.0
130
0.0
111
1.0
121
0.0
131
0.0
112
0.0
122
1.0
132
0.0
 79
     0
146
0.0
170
     0
 61
     5
348
E93
292
     1
282
     1
141
0.0
142
0.0
 63
   250
421
  3355443
  0
ENDBLK
  5
1D
330
1B
100
AcDbEntity
  8
0
100
AcDbBlockEnd
  0
BLOCK
  5
1021
330
EA9
100
AcDbEntity
  8
0
100
AcDbBlockBegin
  2
11C102C8
 70
     0
 10
0.0
 20
0.0
 30
0.0
  3
11C102C8
  1

  0
LINE
  5
ED7
330
EA9
100
AcDbEntity
  8
FLAME
100
AcDbLine
 10
142.5
 20
197.519243884228
 30
0.0
 11
142.5
 21
92.519243884228
 31
0.0
  0
LINE
  5
ED8
330
EA9
100
AcDbEntity
  8
FLAME
100
AcDbLine
 10
52.5
 20
92.519243884228
 30
0.0
 11
52.5
 21
197.519243884228
 31
0.0
  0
LINE
  5
ED9
330
EA9
100
AcDbEntity
  8
FLAME
100
AcDbLine
 10
142.5
 20
92.519243884228
 30
0.0
 11
52.5
 21
92.519243884228
 31
0.0
  0
LINE
  5
EDA
330
EA9
100
AcDbEntity
  8
FLAME
100
AcDbLine
 10
142.5
 20
97.519243884228
 30
0.0
 11
52.5
 21
97.519243884228
 31
0.0
  0
LINE
  5
EDB
330
EA9
100
AcDbEntity
  8
FLAME
100
AcDbLine
 10
142.5
 20
102.519243884228
 30
0.0
 11
52.5
 21
102.519243884228
 31
0.0
  0
LINE
  5
EDC
330
EA9
100
AcDbEntity
  8
FLAME
100
AcDbLine
 10
142.5
 20
107.519243884228
 30
0.0
 11
52.5
 21
107.519243884228
 31
0.0
  0
LINE
  5
EDD
330
EA9
100
AcDbEntity
  8
FLAME
100
AcDbLine
 10
142.5
 20
197.519243884228
 30
0.0
 11
52.5
 21
197.519243884228
 31
0.0
  0
LWPOLYLINE
  5
EDE
330
EA9
100
AcDbEntity
  8
Defpoints
370
     0
100
AcDbPolyline
 90
        4
 70
     1
 43
0.0
 10
0.0
 20
282.0
 10
195.0
 20
282.0
 10
195.0
 20
0.0
 10
0.0
 20
0.0
  0
TEXT
  5
EDF
330
EA9
100
AcDbEntity
  8
text
  6
Continuous
100
AcDbText
 10
55.948885885664
 20
98.658981217843
 30
0.0
 40
2.5
  1
KP101A
  7
新規スタイル1
 11
55.948885885664
 21
99.908981217843
 31
0.0
100
AcDbText
 73
     2
  0
TEXT
  5
EE0
330
EA9
100
AcDbEntity
  8
text
  6
Continuous
100
AcDbText
 10
55.948885885664
 20
103.658981217843
 30
0.0
 40
2.5
  1
ペンダント 101A
  7
新規スタイル1
 11
55.948885885664
 21
104.908981217843
 31
0.0
100
AcDbText
 73
     2
  0
LINE
  5
EE1
330
EA9
100
AcDbEntity
  8
shade
100
AcDbLine
 10
98.467332570635
 20
165.352094903618
 30
0.0
 11
98.467332570635
 21
176.258931450066
 31
0.0
  0
LINE
  5
EE2
330
EA9
100
AcDbEntity
  8
shade
100
AcDbLine
 10
98.467332570635
 20
158.082524995599
 30
0.0
 11
98.467332570635
 21
164.944960496468
 31
0.0
  0
LINE
  5
EE3
330
EA9
100
AcDbEntity
  8
shade
100
AcDbLine
 10
98.467332570635
 20
152.210868873433
 30
0.0
 11
98.467332570635
 21
157.88339613012
 31
0.0
  0
LINE
  5
EE4
330
EA9
100
AcDbEntity
  8
shade
100
AcDbLine
 10
97.713925014192
 20
158.068517715551
 30
0.0
 11
98.286975461386
 21
158.13307290574
 31
0.0
  0
LINE
  5
EE5
330
EA9
100
AcDbEntity
  8
shade
100
AcDbLine
 10
98.343453043854
 20
158.13307290574
 30
0.0
 11
99.091406420073
 21
158.0181862419
 31
0.0
  0
LINE
  5
EE6
330
EA9
100
AcDbEntity
  8
shade
100
AcDbLine
 10
98.107514422212
 20
158.086086684115
 30
0.0
 11
99.07779295911
 21
157.947484942897
 31
0.0
  0
LINE
  5
EE7
330
EA9
100
AcDbEntity
  8
shade
100
AcDbLine
 10
98.343453043854
 20
158.13307290574
 30
0.0
 11
98.286975461386
 21
158.13307290574
 31
0.0
  0
LINE
  5
EE8
330
EA9
100
AcDbEntity
  8
shade
100
AcDbLine
 10
97.649435495612
 20
158.052362500101
 30
0.0
 11
97.713925014192
 21
158.068517715551
 31
0.0
  0
ARC
  5
EE9
330
EA9
100
AcDbEntity
  8
shade
100
AcDbCircle
 10
95.686497878924
 20
149.330936537132
 30
0.0
 40
0.096
100
AcDbArc
 50
90.0
 51
270.0
  0
LINE
  5
EEA
330
EA9
100
AcDbEntity
  8
shade
100
AcDbLine
 10
95.686497878924
 20
149.426936537132
 30
0.0
 11
98.230497878922
 21
149.426936537132
 31
0.0
  0
LINE
  5
EEB
330
EA9
100
AcDbEntity
  8
shade
100
AcDbLine
 10
95.686497878924
 20
149.234936537133
 30
0.0
 11
98.230497878922
 21
149.234936537133
 31
0.0
  0
ARC
  5
EEC
330
EA9
100
AcDbEntity
  8
shade
100
AcDbCircle
 10
98.230497878922
 20
153.287662456375
 30
0.0
 40
4.8
100
AcDbArc
 50
302.739227034955
 51
78.865095730032
  0
ARC
  5
EED
330
EA9
100
AcDbEntity
  8
shade
100
AcDbCircle
 10
98.230497878922
 20
153.287662456375
 30
0.0
 40
4.608000000000001
100
AcDbArc
 50
303.088202335836
 51
76.284946218466
  0
SPLINE
  5
EEE
330
EA9
100
AcDbEntity
  8
shade
100
AcDbSpline
210
0.0
220
0.0
230
1.0
 70
     8
 71
     3
 72
    18
 73
    14
 74
     0
 42
0.000000001
 43
0.0000000001
 40
0.0
 40
0.0
 40
0.0
 40
0.0
 40
0.3863909487008147
 40
0.6922606836850902
 40
1.003344482894169
 40
1.358089166201915
 40
2.008816250725916
 40
2.534370810349367
 40
3.10300808309935
 40
3.677505513072336
 40
4.326955806108508
 40
5.222992330637917
 40
5.692133854309811
 40
5.692133854309811
 40
5.692133854309811
 40
5.692133854309811
 10
99.0777929591095
 20
157.9474849428971
 30
0.0
 10
99.09001580379845
 20
157.9451314469725
 30
0.0
 10
99.11191433649219
 20
157.9409149074727
 30
0.0
 10
99.14021624383895
 20
157.9247624276968
 30
0.0
 10
99.16260342184978
 20
157.9025273007055
 30
0.0
 10
99.18211107297975
 20
157.8649201633334
 30
0.0
 10
99.20588981950641
 20
157.821898462068
 30
0.0
 10
99.21857304117293
 20
157.7667575774585
 30
0.0
 10
99.25207494681672
 20
157.72307753941
 30
0.0
 10
99.3010356449704
 20
157.6913974964127
 30
0.0
 10
99.36786943581319
 20
157.6749321101388
 30
0.0
 10
99.43517977165902
 20
157.6845655878969
 30
0.0
 10
99.47115223569199
 20
157.711489408548
 30
0.0
 10
99.4811817606751
 20
157.7226882542609
 30
0.0
  0
SPLINE
  5
EEF
330
EA9
100
AcDbEntity
  8
shade
100
AcDbSpline
210
0.0
220
0.0
230
1.0
 70
     8
 71
     3
 72
    66
 73
    62
 74
     0
 42
0.000000001
 43
0.0000000001
 40
0.0
 40
0.0
 40
0.0
 40
0.0
 40
0.8270636036914604
 40
0.8278781490344784
 40
1.330551280334955
 40
1.332687993193267
 40
2.042395565168135
 40
2.043962056491537
 40
3.09029646648607
 40
3.091631302465614
 40
3.894125950598673
 40
3.89461605837478
 40
4.720162677182064
 40
4.72374928145779
 40
7.08064000394692
 40
7.081554733794865
 40
9.422996350385352
 40
9.42326470344161
 40
10.48731232803223
 40
10.48826461252677
 40
11.84880922451731
 40
11.84933950069972
 40
12.50734044847304
 40
12.50738752890359
 40
13.36432857314333
 40
13.36439282637238
 40
13.99812141799035
 40
14.00242682618077
 40
15.52282794690887
 40
15.52399545411022
 40
18.03419141976972
 40
18.03622090701577
 40
20.70315672736083
 40
20.71064439734816
 40
21.98131126402563
 40
21.98183975445037
 40
23.35991427927853
 40
23.36069981959685
 40
24.11400749056567
 40
24.11545234566945
 40
25.35270761751439
 40
25.36161173628601
 40
26.77929860208505
 40
26.78009539323328
 40
27.90052138199711
 40
27.90286412217308
 40
29.10472259219753
 40
29.10710050890077
 40
30.58547868399183
 40
30.58618556049669
 40
34.0425917319215
 40
34.04608840196745
 40
40.15447040378994
 40
40.15902766870427
 40
45.89450635418914
 40
45.90614813932685
 40
51.62592421792318
 40
51.98545164540259
 40
57.35989879455808
 40
57.3620481231097
 40
59.54796097800287
 40
59.54796097800287
 40
59.54796097800287
 40
59.54796097800287
 10
99.09140642007333
 20
158.0181862419004
 30
0.0
 10
99.0941170150727
 20
158.0176643196746
 30
0.0
 10
99.09723229299561
 20
158.0170651461058
 30
0.0
 10
99.10233393355884
 20
158.0160329683458
 30
0.0
 10
99.10436501527874
 20
158.0156106314098
 30
0.0
 10
99.10939136964589
 20
158.0145159895355
 30
0.0
 10
99.11252268213866
 20
158.0137942723932
 30
0.0
 10
99.1205256010362
 20
158.011774622285
 30
0.0
 10
99.12567229905108
 20
158.0103275434894
 30
0.0
 10
99.13512850402549
 20
158.0071818792931
 30
0.0
 10
99.1392940788246
 20
158.0056414592509
 30
0.0
 10
99.14795831804804
 20
158.0020160673484
 30
0.0
 10
99.15226505788087
 20
158.0000003330488
 30
0.0
 10
99.16835783618444
 20
157.9916792078438
 30
0.0
 10
99.1795038542914
 20
157.984202778066
 30
0.0
 10
99.19961162523032
 20
157.9673941239998
 30
0.0
 10
99.20888871372881
 20
157.9578207715067
 30
0.0
 10
99.22075369687082
 20
157.9423175916363
 30
0.0
 10
99.2239786250866
 20
157.9375709198202
 30
0.0
 10
99.23042911534503
 20
157.9273568629442
 30
0.0
 10
99.23353300861709
 20
157.921847761475
 30
0.0
 10
99.23734977731874
 20
157.9148362733649
 30
0.0
 10
99.23853369161225
 20
157.912614776159
 30
0.0
 10
99.24099459927311
 20
157.9079779718149
 30
0.0
 10
99.24078384117456
 20
157.9083710033838
 30
0.0
 10
99.24227814685946
 20
157.9055564667751
 30
0.0
 10
99.24292403494474
 20
157.9043429987041
 30
0.0
 10
99.24515273690122
 20
157.9001587879548
 30
0.0
 10
99.246843000019
 20
157.896990762054
 30
0.0
 10
99.25127650810464
 20
157.8886023316245
 30
0.0
 10
99.25419943538509
 20
157.8829920952176
 30
0.0
 10
99.2601637075204
 20
157.8709770140622
 30
0.0
 10
99.26330131418581
 20
157.8643434102169
 30
0.0
 10
99.26773333608799
 20
157.8540348626557
 30
0.0
 10
99.26914712313373
 20
157.8505947476851
 30
0.0
 10
99.27198792129639
 20
157.8432699670147
 30
0.0
 10
99.2732762069827
 20
157.8397101062847
 30
0.0
 10
99.27523659055441
 20
157.8339780772558
 30
0.0
 10
99.27589037098369
 20
157.8320038260235
 30
0.0
 10
99.27750748155086
 20
157.8270242266181
 30
0.0
 10
99.27846102196054
 20
157.8239813715491
 30
0.0
 10
99.2802516758311
 20
157.8182562760667
 30
0.0
 10
99.28105468174545
 20
157.8156831026708
 30
0.0
 10
99.28250140115779
 20
157.8112032655408
 30
0.0
 10
99.28309270594036
 20
157.8094278537319
 30
0.0
 10
99.28427599893621
 20
157.8060362217248
 30
0.0
 10
99.28484273077265
 20
157.8045051803892
 30
0.0
 10
99.28603778595061
 20
157.8014841384311
 30
0.0
 10
99.28661588260002
 20
157.8001681723345
 30
0.0
 10
99.28845678829384
 20
157.796350964295
 30
0.0
 10
99.29010713108073
 20
157.7935384300445
 30
0.0
 10
99.2957621441492
 20
157.7855474076287
 30
0.0
 10
99.30041046340193
 20
157.7804827325508
 30
0.0
 10
99.31102399939118
 20
157.7714779188709
 30
0.0
 10
99.31677608225436
 20
157.7675892530415
 30
0.0
 10
99.32920093884968
 20
157.7609964982539
 30
0.0
 10
99.33624094370316
 20
157.7581441144712
 30
0.0
 10
99.35021540980597
 20
157.754160219657
 30
0.0
 10
99.35755322541809
 20
157.7528210555074
 30
0.0
 10
99.36753003713238
 20
157.7519250274836
 30
0.0
 10
99.37039485539935
 20
157.7517723317751
 30
0.0
 10
99.37321892110049
 20
157.7517248013419
 30
0.0
  0
ARC
  5
EF0
330
EA9
100
AcDbEntity
  8
shade
100
AcDbCircle
 10
98.230497878922
 20
153.287662456375
 30
0.0
 40
4.608000000000001
100
AcDbArc
 50
77.678302071188
 51
236.911797664111
  0
ARC
  5
EF1
330
EA9
100
AcDbEntity
  8
shade
100
AcDbCircle
 10
98.230497878922
 20
153.287662456375
 30
0.0
 40
4.8
100
AcDbArc
 50
91.468167542114
 51
237.260772965095
  0
LINE
  5
EF2
330
EA9
100
AcDbEntity
  8
shade
100
AcDbLine
 10
86.45658434504
 20
124.406794272252
 30
0.0
 11
84.904019729842
 21
131.433735054346
 31
0.0
  0
LINE
  5
EF3
330
EA9
100
AcDbEntity
  8
shade
100
AcDbLine
 10
86.45658434504
 20
138.389305687271
 30
0.0
 11
91.382338611795
 21
143.631704362565
 31
0.0
  0
LINE
  5
EF4
330
EA9
100
AcDbEntity
  8
shade
100
AcDbLine
 10
91.382338611795
 20
143.631704362565
 30
0.0
 11
86.954473046557
 21
138.389305687271
 31
0.0
  0
LINE
  5
EF5
330
EA9
100
AcDbEntity
  8
shade
100
AcDbLine
 10
96.759442048056
 20
143.631704362565
 30
0.0
 11
97.674564421235
 21
145.092078844996
 31
0.0
  0
LINE
  5
EF6
330
EA9
100
AcDbEntity
  8
shade
100
AcDbLine
 10
95.647447846532
 20
143.631704362565
 30
0.0
 11
97.168369696352
 21
145.092078844996
 31
0.0
  0
LINE
  5
EF7
330
EA9
100
AcDbEntity
  8
shade
100
AcDbLine
 10
94.577051290486
 20
143.631704362565
 30
0.0
 11
96.670413466192
 21
145.092078844996
 31
0.0
  0
LINE
  5
EF8
330
EA9
100
AcDbEntity
  8
shade
100
AcDbLine
 10
93.564661840723
 20
143.631704362565
 30
0.0
 11
96.189204340058
 21
145.092078844996
 31
0.0
  0
LINE
  5
EF9
330
EA9
100
AcDbEntity
  8
shade
100
AcDbLine
 10
92.801250506036
 20
143.631704362565
 30
0.0
 11
95.716233708641
 21
145.092078844996
 31
0.0
  0
LINE
  5
EFA
330
EA9
100
AcDbEntity
  8
shade
100
AcDbLine
 10
92.129137899745
 20
143.631704362565
 30
0.0
 11
95.500479687031
 21
145.092078844996
 31
0.0
  0
POLYLINE
  5
EFB
330
EA9
100
AcDbEntity
  8
shade
100
AcDb2dPolyline
 66
     1
 10
0.0
 20
0.0
 30
0.0
  0
VERTEX
  5
EFC
330
EFB
100
AcDbEntity
  8
shade
100
AcDbVertex
100
AcDb2dVertex
 10
91.556562516569
 20
143.632460148723
 30
0.0
  0
VERTEX
  5
EFD
330
EFB
100
AcDbEntity
  8
shade
100
AcDbVertex
100
AcDb2dVertex
 10
95.425793005372
 20
145.092078844996
 30
0.0
  0
VERTEX
  5
EFE
330
EFB
100
AcDbEntity
  8
shade
100
AcDbVertex
100
AcDb2dVertex
 10
91.382338611795
 20
143.631704362565
 30
0.0
  0
SEQEND
  5
EFF
330
EFB
100
AcDbEntity
  8
shade
  0
LINE
  5
F00
330
EA9
100
AcDbEntity
  8
shade
100
AcDbLine
 10
97.875344304422
 20
149.22950723122
 30
0.0
 11
97.666190869222
 21
145.092078844996
 31
0.0
  0
LINE
  5
F01
330
EA9
100
AcDbEntity
  8
shade
100
AcDbLine
 10
97.168369696352
 20
145.092078844996
 30
0.0
 11
97.484908056478
 21
149.22950723122
 31
0.0
  0
LINE
  5
F02
330
EA9
100
AcDbEntity
  8
shade
100
AcDbLine
 10
96.670413466192
 20
145.092078844996
 30
0.0
 11
97.119066195781
 21
149.22950723122
 31
0.0
  0
LINE
  5
F03
330
EA9
100
AcDbEntity
  8
shade
100
AcDbLine
 10
96.745107595412
 20
149.22950723122
 30
0.0
 11
96.189204340058
 21
145.092078844996
 31
0.0
  0
LINE
  5
F04
330
EA9
100
AcDbEntity
  8
shade
100
AcDbLine
 10
95.716233708641
 20
145.092078844996
 30
0.0
 11
96.45384462169
 21
149.22950723122
 31
0.0
  0
LINE
  5
F05
330
EA9
100
AcDbEntity
  8
shade
100
AcDbLine
 10
96.221559504003
 20
149.22950723122
 30
0.0
 11
95.500479687031
 21
145.092078844996
 31
0.0
  0
POLYLINE
  5
F06
330
EA9
100
AcDbEntity
  8
shade
100
AcDb2dPolyline
 66
     1
 10
0.0
 20
0.0
 30
0.0
  0
VERTEX
  5
F07
330
F06
100
AcDbEntity
  8
shade
100
AcDbVertex
100
AcDb2dVertex
 10
96.072550089575
 20
149.22950723122
 30
0.0
  0
VERTEX
  5
F08
330
F06
100
AcDbEntity
  8
shade
100
AcDbVertex
100
AcDb2dVertex
 10
95.425793005372
 20
145.092078844996
 30
0.0
  0
VERTEX
  5
F09
330
F06
100
AcDbEntity
  8
shade
100
AcDbVertex
100
AcDb2dVertex
 10
95.915706275577
 20
149.22950723122
 30
0.0
  0
SEQEND
  5
F0A
330
F06
100
AcDbEntity
  8
shade
  0
LINE
  5
F0B
330
EA9
100
AcDbEntity
  8
shade
100
AcDbLine
 10
95.767060810034
 20
149.22950723122
 30
0.0
 11
95.425793005372
 21
145.092078844996
 31
0.0
  0
LINE
  5
F0C
330
EA9
100
AcDbEntity
  8
shade
100
AcDbLine
 10
96.759442048056
 20
119.235765746124
 30
0.0
 11
97.94956781522
 21
117.65086844183
 31
0.0
  0
POLYLINE
  5
F0D
330
EA9
100
AcDbEntity
  8
shade
100
AcDb2dPolyline
 66
     1
 10
0.0
 20
0.0
 30
0.0
  0
VERTEX
  5
F0E
330
F0D
100
AcDbEntity
  8
shade
100
AcDbVertex
100
AcDb2dVertex
 10
98.230497878922
 20
119.235765746124
 30
0.0
  0
VERTEX
  5
F0F
330
F0D
100
AcDbEntity
  8
shade
100
AcDbVertex
100
AcDb2dVertex
 10
97.94956781522
 20
117.65086844183
 30
0.0
  0
VERTEX
  5
F10
330
F0D
100
AcDbEntity
  8
shade
100
AcDbVertex
100
AcDb2dVertex
 10
97.679433736317
 20
117.65086844183
 30
0.0
  0
VERTEX
  5
F11
330
F0D
100
AcDbEntity
  8
shade
100
AcDbVertex
100
AcDb2dVertex
 10
96.759442048056
 20
119.235765746124
 30
0.0
  0
SEQEND
  5
F12
330
F0D
100
AcDbEntity
  8
shade
  0
LINE
  5
F13
330
EA9
100
AcDbEntity
  8
shade
100
AcDbLine
 10
97.875652345232
 20
149.426936537132
 30
0.0
 11
97.70854914753
 21
151.618580955697
 31
0.0
  0
LINE
  5
F14
330
EA9
100
AcDbEntity
  8
shade
100
AcDbLine
 10
97.484984265335
 20
149.426936537132
 30
0.0
 11
97.25204294212
 21
151.618580955697
 31
0.0
  0
LINE
  5
F15
330
EA9
100
AcDbEntity
  8
shade
100
AcDbLine
 10
97.119451634378
 20
149.426936537132
 30
0.0
 11
96.857164655863
 21
151.618580955697
 31
0.0
  0
LINE
  5
F16
330
EA9
100
AcDbEntity
  8
shade
100
AcDbLine
 10
96.745879647933
 20
149.426936537132
 30
0.0
 11
96.471551042803
 21
151.618580955697
 31
0.0
  0
LINE
  5
F17
330
EA9
100
AcDbEntity
  8
shade
100
AcDbLine
 10
96.463586038277
 20
149.426936537132
 30
0.0
 11
96.175447371861
 21
151.618580955697
 31
0.0
  0
LINE
  5
F18
330
EA9
100
AcDbEntity
  8
shade
100
AcDbLine
 10
96.213673462156
 20
149.426936537132
 30
0.0
 11
95.83846778161
 21
151.618580955697
 31
0.0
  0
LINE
  5
F19
330
EA9
100
AcDbEntity
  8
shade
100
AcDbLine
 10
96.05402356691
 20
149.426936537132
 30
0.0
 11
95.501724432448
 21
151.618580955697
 31
0.0
  0
LINE
  5
F1A
330
EA9
100
AcDbEntity
  8
shade
100
AcDbLine
 10
95.877412005488
 20
149.426936537132
 30
0.0
 11
95.123507385288
 21
151.618580955697
 31
0.0
  0
LINE
  5
F1B
330
EA9
100
AcDbEntity
  8
shade
100
AcDbLine
 10
95.924331407092
 20
152.210868873433
 30
0.0
 11
94.844404476757
 21
151.618580955697
 31
0.0
  0
LINE
  5
F1C
330
EA9
100
AcDbEntity
  8
shade
100
AcDbLine
 10
94.844404476757
 20
151.618580955697
 30
0.0
 11
95.714854943908
 21
149.426936537132
 31
0.0
  0
LINE
  5
F1D
330
EA9
100
AcDbEntity
  8
shade
100
AcDbLine
 10
97.898624466216
 20
152.210868873433
 30
0.0
 11
97.70854914753
 21
151.618580955697
 31
0.0
  0
LINE
  5
F1E
330
EA9
100
AcDbEntity
  8
shade
100
AcDbLine
 10
97.70854914753
 20
151.618580955697
 30
0.0
 11
97.639624207404
 21
152.210868873433
 31
0.0
  0
LINE
  5
F1F
330
EA9
100
AcDbEntity
  8
shade
100
AcDbLine
 10
97.639624207404
 20
152.210868873433
 30
0.0
 11
97.25204294212
 21
151.618580955697
 31
0.0
  0
LINE
  5
F20
330
EA9
100
AcDbEntity
  8
shade
100
AcDbLine
 10
97.25204294212
 20
151.618580955697
 30
0.0
 11
97.347316353073
 21
152.210868873433
 31
0.0
  0
LINE
  5
F21
330
EA9
100
AcDbEntity
  8
shade
100
AcDbLine
 10
97.347316353073
 20
152.210868873433
 30
0.0
 11
96.857164655863
 21
151.618580955697
 31
0.0
  0
LINE
  5
F22
330
EA9
100
AcDbEntity
  8
shade
100
AcDbLine
 10
96.857164655863
 20
151.618580955697
 30
0.0
 11
97.105323785141
 21
152.210868873433
 31
0.0
  0
LINE
  5
F23
330
EA9
100
AcDbEntity
  8
shade
100
AcDbLine
 10
97.105323785141
 20
152.210868873433
 30
0.0
 11
96.471551042803
 21
151.618580955697
 31
0.0
  0
LINE
  5
F24
330
EA9
100
AcDbEntity
  8
shade
100
AcDbLine
 10
96.471551042803
 20
151.618580955697
 30
0.0
 11
96.865727183227
 21
152.210868873433
 31
0.0
  0
LINE
  5
F25
330
EA9
100
AcDbEntity
  8
shade
100
AcDbLine
 10
96.865727183227
 20
152.210868873433
 30
0.0
 11
96.175447371861
 21
151.618580955697
 31
0.0
  0
LINE
  5
F26
330
EA9
100
AcDbEntity
  8
shade
100
AcDbLine
 10
96.175447371861
 20
151.618580955697
 30
0.0
 11
96.664466037619
 21
152.210868873433
 31
0.0
  0
LINE
  5
F27
330
EA9
100
AcDbEntity
  8
shade
100
AcDbLine
 10
96.664466037619
 20
152.210868873433
 30
0.0
 11
95.83846778161
 21
151.618580955697
 31
0.0
  0
LINE
  5
F28
330
EA9
100
AcDbEntity
  8
shade
100
AcDbLine
 10
95.83846778161
 20
151.618580955697
 30
0.0
 11
96.454305589654
 21
152.210868873433
 31
0.0
  0
LINE
  5
F29
330
EA9
100
AcDbEntity
  8
shade
100
AcDbLine
 10
96.454305589654
 20
152.210868873433
 30
0.0
 11
95.501724432448
 21
151.618580955697
 31
0.0
  0
LINE
  5
F2A
330
EA9
100
AcDbEntity
  8
shade
100
AcDbLine
 10
95.501724432448
 20
151.618580955697
 30
0.0
 11
96.214708987744
 21
152.210868873433
 31
0.0
  0
LINE
  5
F2B
330
EA9
100
AcDbEntity
  8
shade
100
AcDbLine
 10
96.214708987744
 20
152.210868873433
 30
0.0
 11
95.123507385288
 21
151.618580955697
 31
0.0
  0
LINE
  5
F2C
330
EA9
100
AcDbEntity
  8
shade
100
AcDbLine
 10
95.123507385288
 20
151.618580955697
 30
0.0
 11
95.99589074554
 21
152.210868873433
 31
0.0
  0
LINE
  5
F2D
330
EA9
100
AcDbEntity
  8
shade
100
AcDbLine
 10
91.382338611795
 20
119.235765746124
 30
0.0
 11
86.45658434504
 21
124.406794272252
 31
0.0
  0
LINE
  5
F2E
330
EA9
100
AcDbEntity
  8
shade
100
AcDbLine
 10
98.230497878922
 20
117.65086844183
 30
0.0
 11
97.679433736317
 21
117.65086844183
 31
0.0
  0
LINE
  5
F2F
330
EA9
100
AcDbEntity
  8
shade
100
AcDbLine
 10
91.382338611795
 20
119.235765746124
 30
0.0
 11
96.790497878923
 21
117.65086844183
 31
0.0
  0
LINE
  5
F30
330
EA9
100
AcDbEntity
  8
shade
100
AcDbLine
 10
97.898624466216
 20
117.65086844183
 30
0.0
 11
97.679433736317
 21
117.65086844183
 31
0.0
  0
LINE
  5
F31
330
EA9
100
AcDbEntity
  8
shade
100
AcDbLine
 10
97.898624466216
 20
117.65086844183
 30
0.0
 11
96.790497878923
 21
117.65086844183
 31
0.0
  0
LINE
  5
F32
330
EA9
100
AcDbEntity
  8
shade
100
AcDbLine
 10
97.679433736317
 20
117.65086844183
 30
0.0
 11
95.647447846532
 21
119.235765746124
 31
0.0
  0
LINE
  5
F33
330
EA9
100
AcDbEntity
  8
shade
100
AcDbLine
 10
95.647447846532
 20
119.235765746124
 30
0.0
 11
97.430476743375
 21
117.65086844183
 31
0.0
  0
LINE
  5
F34
330
EA9
100
AcDbEntity
  8
shade
100
AcDbLine
 10
97.430476743375
 20
117.65086844183
 30
0.0
 11
94.577051290486
 21
119.235765746124
 31
0.0
  0
LINE
  5
F35
330
EA9
100
AcDbEntity
  8
shade
100
AcDbLine
 10
94.577051290486
 20
119.235765746124
 30
0.0
 11
97.212264114016
 21
117.65086844183
 31
0.0
  0
LINE
  5
F36
330
EA9
100
AcDbEntity
  8
shade
100
AcDbLine
 10
97.212264114016
 20
117.65086844183
 30
0.0
 11
93.564661840723
 21
119.235765746124
 31
0.0
  0
LINE
  5
F37
330
EA9
100
AcDbEntity
  8
shade
100
AcDbLine
 10
93.564661840723
 20
119.235765746124
 30
0.0
 11
97.033181637205
 21
117.65086844183
 31
0.0
  0
LINE
  5
F38
330
EA9
100
AcDbEntity
  8
shade
100
AcDbLine
 10
97.033181637205
 20
117.65086844183
 30
0.0
 11
92.801250506036
 21
119.235765746124
 31
0.0
  0
LINE
  5
F39
330
EA9
100
AcDbEntity
  8
shade
100
AcDbLine
 10
92.801250506036
 20
119.235765746124
 30
0.0
 11
96.900111352108
 21
117.65086844183
 31
0.0
  0
LINE
  5
F3A
330
EA9
100
AcDbEntity
  8
shade
100
AcDbLine
 10
96.900111352108
 20
117.65086844183
 30
0.0
 11
92.129137899745
 21
119.235765746124
 31
0.0
  0
LINE
  5
F3B
330
EA9
100
AcDbEntity
  8
shade
100
AcDbLine
 10
92.129137899745
 20
119.235765746124
 30
0.0
 11
96.818167075144
 21
117.65086844183
 31
0.0
  0
LINE
  5
F3C
330
EA9
100
AcDbEntity
  8
shade
100
AcDbLine
 10
96.818167075144
 20
117.65086844183
 30
0.0
 11
91.556562516569
 21
119.235009959965
 31
0.0
  0
LINE
  5
F3D
330
EA9
100
AcDbEntity
  8
shade
100
AcDbLine
 10
96.790497878923
 20
117.65086844183
 30
0.0
 11
91.556562516569
 21
119.235009959965
 31
0.0
  0
LINE
  5
F3E
330
EA9
100
AcDbEntity
  8
shade
100
AcDbLine
 10
95.924331407092
 20
152.210868873433
 30
0.0
 11
98.230497878922
 21
152.210868873433
 31
0.0
  0
LINE
  5
F3F
330
EA9
100
AcDbEntity
  8
shade
100
AcDbLine
 10
97.898624466216
 20
152.210868873433
 30
0.0
 11
98.230497878922
 21
151.618580955697
 31
0.0
  0
ARC
  5
F40
330
EA9
100
AcDbEntity
  8
shade
100
AcDbCircle
 10
95.686497878924
 20
149.330936537132
 30
0.0
 40
0.096
100
AcDbArc
 50
90.0
 51
270.0
  0
LINE
  5
F41
330
EA9
100
AcDbEntity
  8
shade
100
AcDbLine
 10
94.844404476757
 20
151.618580955697
 30
0.0
 11
95.99589074554
 21
152.210868873433
 31
0.0
  0
LINE
  5
F42
330
EA9
100
AcDbEntity
  8
shade
100
AcDbLine
 10
91.382338611795
 20
119.235765746124
 30
0.0
 11
86.45658434504
 21
124.406794272252
 31
0.0
  0
LINE
  5
F43
330
EA9
100
AcDbEntity
  8
shade
100
AcDbLine
 10
90.953235772395
 20
131.433735054346
 30
0.0
 11
92.845942173779
 21
138.389305687271
 31
0.0
  0
LINE
  5
F44
330
EA9
100
AcDbEntity
  8
shade
100
AcDbLine
 10
98.230497878922
 20
143.631704362565
 30
0.0
 11
96.947095100819
 21
138.389305687271
 31
0.0
  0
LINE
  5
F45
330
EA9
100
AcDbEntity
  8
shade
100
AcDbLine
 10
96.947095100819
 20
138.389305687271
 30
0.0
 11
98.230497878922
 21
131.433735054346
 31
0.0
  0
LINE
  5
F46
330
EA9
100
AcDbEntity
  8
shade
100
AcDbLine
 10
86.954473046557
 20
138.389305687271
 30
0.0
 11
91.556562516569
 21
143.632460148723
 31
0.0
  0
LINE
  5
F47
330
EA9
100
AcDbEntity
  8
shade
100
AcDbLine
 10
91.556562516569
 20
143.632460148723
 30
0.0
 11
87.597942985172
 21
138.395858876655
 31
0.0
  0
LINE
  5
F48
330
EA9
100
AcDbEntity
  8
shade
100
AcDbLine
 10
92.845942173779
 20
138.389305687271
 30
0.0
 11
94.577051290486
 21
143.631704362565
 31
0.0
  0
LINE
  5
F49
330
EA9
100
AcDbEntity
  8
shade
100
AcDbLine
 10
94.577051290486
 20
143.631704362565
 30
0.0
 11
91.186358187824
 21
138.389305687271
 31
0.0
  0
LINE
  5
F4A
330
EA9
100
AcDbEntity
  8
shade
100
AcDbLine
 10
91.186358187824
 20
138.389305687271
 30
0.0
 11
93.564661840723
 21
143.631704362565
 31
0.0
  0
LINE
  5
F4B
330
EA9
100
AcDbEntity
  8
shade
100
AcDbLine
 10
93.564661840723
 20
143.631704362565
 30
0.0
 11
89.74252822348
 21
138.389305687271
 31
0.0
  0
LINE
  5
F4C
330
EA9
100
AcDbEntity
  8
shade
100
AcDbLine
 10
89.74252822348
 20
138.389305687271
 30
0.0
 11
92.801250506036
 21
143.631704362565
 31
0.0
  0
LINE
  5
F4D
330
EA9
100
AcDbEntity
  8
shade
100
AcDbLine
 10
92.801250506036
 20
143.631704362565
 30
0.0
 11
88.539370350853
 21
138.389305687271
 31
0.0
  0
LINE
  5
F4E
330
EA9
100
AcDbEntity
  8
shade
100
AcDbLine
 10
88.539370350853
 20
138.389305687271
 30
0.0
 11
92.129137899745
 21
143.631704362565
 31
0.0
  0
LINE
  5
F4F
330
EA9
100
AcDbEntity
  8
shade
100
AcDbLine
 10
92.129137899745
 20
143.631704362565
 30
0.0
 11
87.597942985172
 21
138.395858876655
 31
0.0
  0
LINE
  5
F50
330
EA9
100
AcDbEntity
  8
shade
100
AcDbLine
 10
89.052979694727
 20
131.433735054346
 30
0.0
 11
89.74252822348
 21
138.389305687271
 31
0.0
  0
LINE
  5
F51
330
EA9
100
AcDbEntity
  8
shade
100
AcDbLine
 10
89.74252822348
 20
138.389305687271
 30
0.0
 11
87.509544978624
 21
131.433735054346
 31
0.0
  0
LINE
  5
F52
330
EA9
100
AcDbEntity
  8
shade
100
AcDbLine
 10
87.509544978624
 20
131.433735054346
 30
0.0
 11
88.539370350853
 21
138.389305687271
 31
0.0
  0
LINE
  5
F53
330
EA9
100
AcDbEntity
  8
shade
100
AcDbLine
 10
88.539370350853
 20
138.389305687271
 30
0.0
 11
86.389379811022
 21
131.433735054346
 31
0.0
  0
LINE
  5
F54
330
EA9
100
AcDbEntity
  8
shade
100
AcDbLine
 10
86.389379811022
 20
131.433735054346
 30
0.0
 11
87.597942985172
 21
138.395858876655
 31
0.0
  0
LINE
  5
F55
330
EA9
100
AcDbEntity
  8
shade
100
AcDbLine
 10
87.597942985172
 20
138.395858876655
 30
0.0
 11
85.53466974794
 21
131.433735054346
 31
0.0
  0
LINE
  5
F56
330
EA9
100
AcDbEntity
  8
shade
100
AcDbLine
 10
85.53466974794
 20
131.433735054346
 30
0.0
 11
86.954473046557
 21
138.389305687271
 31
0.0
  0
LINE
  5
F57
330
EA9
100
AcDbEntity
  8
shade
100
AcDbLine
 10
86.954473046557
 20
138.389305687271
 30
0.0
 11
84.904019729842
 21
131.433735054346
 31
0.0
  0
LINE
  5
F58
330
EA9
100
AcDbEntity
  8
shade
100
AcDbLine
 10
84.904019729842
 20
131.433735054346
 30
0.0
 11
86.45658434504
 21
138.389305687271
 31
0.0
  0
LINE
  5
F59
330
EA9
100
AcDbEntity
  8
shade
100
AcDbLine
 10
89.052979694727
 20
131.433735054346
 30
0.0
 11
91.186358187824
 21
138.389305687271
 31
0.0
  0
LINE
  5
F5A
330
EA9
100
AcDbEntity
  8
shade
100
AcDbLine
 10
91.186358187824
 20
138.389305687271
 30
0.0
 11
90.953235772395
 21
131.433735054346
 31
0.0
  0
LINE
  5
F5B
330
EA9
100
AcDbEntity
  8
shade
100
AcDbLine
 10
94.775998013873
 20
138.389305687271
 30
0.0
 11
95.647447846532
 21
143.631704362565
 31
0.0
  0
LINE
  5
F5C
330
EA9
100
AcDbEntity
  8
shade
100
AcDbLine
 10
95.647447846532
 20
143.631704362565
 30
0.0
 11
92.845942173779
 21
138.389305687271
 31
0.0
  0
LINE
  5
F5D
330
EA9
100
AcDbEntity
  8
shade
100
AcDbLine
 10
92.845942173779
 20
138.389305687271
 30
0.0
 11
92.919804979705
 21
131.433735054346
 31
0.0
  0
LINE
  5
F5E
330
EA9
100
AcDbEntity
  8
shade
100
AcDbLine
 10
92.919804979705
 20
131.433735054346
 30
0.0
 11
94.775998013873
 21
138.389305687271
 31
0.0
  0
LINE
  5
F5F
330
EA9
100
AcDbEntity
  8
shade
100
AcDbLine
 10
96.947095100819
 20
138.389305687271
 30
0.0
 11
95.41704803715
 21
131.433735054346
 31
0.0
  0
LINE
  5
F60
330
EA9
100
AcDbEntity
  8
shade
100
AcDbLine
 10
95.41704803715
 20
131.433735054346
 30
0.0
 11
94.775998013873
 21
138.389305687271
 31
0.0
  0
LINE
  5
F61
330
EA9
100
AcDbEntity
  8
shade
100
AcDbLine
 10
94.775998013873
 20
138.389305687271
 30
0.0
 11
96.759442048056
 21
143.631704362565
 31
0.0
  0
LINE
  5
F62
330
EA9
100
AcDbEntity
  8
shade
100
AcDbLine
 10
96.759442048056
 20
143.631704362565
 30
0.0
 11
96.947095100819
 21
138.389305687271
 31
0.0
  0
LINE
  5
F63
330
EA9
100
AcDbEntity
  8
shade
100
AcDbLine
 10
96.759442048056
 20
119.235765746124
 30
0.0
 11
96.947095100819
 21
124.478164421419
 31
0.0
  0
LINE
  5
F64
330
EA9
100
AcDbEntity
  8
shade
100
AcDbLine
 10
94.775998013873
 20
124.478164421419
 30
0.0
 11
96.759442048056
 21
119.235765746124
 31
0.0
  0
LINE
  5
F65
330
EA9
100
AcDbEntity
  8
shade
100
AcDbLine
 10
95.41704803715
 20
131.433735054346
 30
0.0
 11
94.775998013873
 21
124.478164421419
 31
0.0
  0
LINE
  5
F66
330
EA9
100
AcDbEntity
  8
shade
100
AcDbLine
 10
96.947095100819
 20
124.478164421419
 30
0.0
 11
95.41704803715
 21
131.433735054346
 31
0.0
  0
LINE
  5
F67
330
EA9
100
AcDbEntity
  8
shade
100
AcDbLine
 10
92.919804979705
 20
131.433735054346
 30
0.0
 11
94.775998013873
 21
124.478164421419
 31
0.0
  0
LINE
  5
F68
330
EA9
100
AcDbEntity
  8
shade
100
AcDbLine
 10
92.845942173779
 20
124.478164421419
 30
0.0
 11
92.919804979705
 21
131.433735054346
 31
0.0
  0
LINE
  5
F69
330
EA9
100
AcDbEntity
  8
shade
100
AcDbLine
 10
95.647447846532
 20
119.235765746124
 30
0.0
 11
92.845942173779
 21
124.478164421419
 31
0.0
  0
LINE
  5
F6A
330
EA9
100
AcDbEntity
  8
shade
100
AcDbLine
 10
94.775998013873
 20
124.478164421419
 30
0.0
 11
95.647447846532
 21
119.235765746124
 31
0.0
  0
LINE
  5
F6B
330
EA9
100
AcDbEntity
  8
shade
100
AcDbLine
 10
91.186358187824
 20
124.478164421419
 30
0.0
 11
90.953235772395
 21
131.433735054346
 31
0.0
  0
LINE
  5
F6C
330
EA9
100
AcDbEntity
  8
shade
100
AcDbLine
 10
89.052979694727
 20
131.433735054346
 30
0.0
 11
91.186358187824
 21
124.478164421419
 31
0.0
  0
LINE
  5
F6D
330
EA9
100
AcDbEntity
  8
shade
100
AcDbLine
 10
86.954473046557
 20
124.478164421419
 30
0.0
 11
84.904019729842
 21
131.433735054346
 31
0.0
  0
LINE
  5
F6E
330
EA9
100
AcDbEntity
  8
shade
100
AcDbLine
 10
85.53466974794
 20
131.433735054346
 30
0.0
 11
86.954473046557
 21
124.478164421419
 31
0.0
  0
LINE
  5
F6F
330
EA9
100
AcDbEntity
  8
shade
100
AcDbLine
 10
87.597942985172
 20
124.471611232035
 30
0.0
 11
85.53466974794
 21
131.433735054346
 31
0.0
  0
LINE
  5
F70
330
EA9
100
AcDbEntity
  8
shade
100
AcDbLine
 10
86.389379811022
 20
131.433735054346
 30
0.0
 11
87.597942985172
 21
124.471611232035
 31
0.0
  0
LINE
  5
F71
330
EA9
100
AcDbEntity
  8
shade
100
AcDbLine
 10
88.539370350853
 20
124.478164421419
 30
0.0
 11
86.389379811022
 21
131.433735054346
 31
0.0
  0
LINE
  5
F72
330
EA9
100
AcDbEntity
  8
shade
100
AcDbLine
 10
87.509544978624
 20
131.433735054346
 30
0.0
 11
88.539370350853
 21
124.478164421419
 31
0.0
  0
LINE
  5
F73
330
EA9
100
AcDbEntity
  8
shade
100
AcDbLine
 10
89.74252822348
 20
124.478164421419
 30
0.0
 11
87.509544978624
 21
131.433735054346
 31
0.0
  0
LINE
  5
F74
330
EA9
100
AcDbEntity
  8
shade
100
AcDbLine
 10
89.052979694727
 20
131.433735054346
 30
0.0
 11
89.74252822348
 21
124.478164421419
 31
0.0
  0
LINE
  5
F75
330
EA9
100
AcDbEntity
  8
shade
100
AcDbLine
 10
92.129137899745
 20
119.235765746124
 30
0.0
 11
87.597942985172
 21
124.471611232035
 31
0.0
  0
LINE
  5
F76
330
EA9
100
AcDbEntity
  8
shade
100
AcDbLine
 10
88.539370350853
 20
124.478164421419
 30
0.0
 11
92.129137899745
 21
119.235765746124
 31
0.0
  0
LINE
  5
F77
330
EA9
100
AcDbEntity
  8
shade
100
AcDbLine
 10
92.801250506036
 20
119.235765746124
 30
0.0
 11
88.539370350853
 21
124.478164421419
 31
0.0
  0
LINE
  5
F78
330
EA9
100
AcDbEntity
  8
shade
100
AcDbLine
 10
89.74252822348
 20
124.478164421419
 30
0.0
 11
92.801250506036
 21
119.235765746124
 31
0.0
  0
LINE
  5
F79
330
EA9
100
AcDbEntity
  8
shade
100
AcDbLine
 10
93.564661840723
 20
119.235765746124
 30
0.0
 11
89.74252822348
 21
124.478164421419
 31
0.0
  0
LINE
  5
F7A
330
EA9
100
AcDbEntity
  8
shade
100
AcDbLine
 10
91.186358187824
 20
124.478164421419
 30
0.0
 11
93.564661840723
 21
119.235765746124
 31
0.0
  0
LINE
  5
F7B
330
EA9
100
AcDbEntity
  8
shade
100
AcDbLine
 10
94.577051290486
 20
119.235765746124
 30
0.0
 11
91.186358187824
 21
124.478164421419
 31
0.0
  0
LINE
  5
F7C
330
EA9
100
AcDbEntity
  8
shade
100
AcDbLine
 10
92.845942173779
 20
124.478164421419
 30
0.0
 11
94.577051290486
 21
119.235765746124
 31
0.0
  0
LINE
  5
F7D
330
EA9
100
AcDbEntity
  8
shade
100
AcDbLine
 10
91.556562516569
 20
119.235009959965
 30
0.0
 11
87.597942985172
 21
124.471611232035
 31
0.0
  0
LINE
  5
F7E
330
EA9
100
AcDbEntity
  8
shade
100
AcDbLine
 10
86.954473046557
 20
124.478164421419
 30
0.0
 11
91.556562516569
 21
119.235009959965
 31
0.0
  0
LINE
  5
F7F
330
EA9
100
AcDbEntity
  8
shade
100
AcDbLine
 10
96.947095100819
 20
124.478164421419
 30
0.0
 11
98.230497878922
 21
131.433735054346
 31
0.0
  0
LINE
  5
F80
330
EA9
100
AcDbEntity
  8
shade
100
AcDbLine
 10
98.230497878922
 20
119.235765746124
 30
0.0
 11
96.947095100819
 21
124.478164421419
 31
0.0
  0
LINE
  5
F81
330
EA9
100
AcDbEntity
  8
shade
100
AcDbLine
 10
90.953235772395
 20
131.433735054346
 30
0.0
 11
92.845942173779
 21
124.478164421419
 31
0.0
  0
LINE
  5
F82
330
EA9
100
AcDbEntity
  8
shade
100
AcDbLine
 10
91.382338611795
 20
119.235765746124
 30
0.0
 11
86.954473046557
 21
124.478164421419
 31
0.0
  0
LINE
  5
F83
330
EA9
100
AcDbEntity
  8
shade
100
AcDbLine
 10
105.078657146048
 20
119.235765746124
 30
0.0
 11
109.506522711286
 21
124.478164421419
 31
0.0
  0
LINE
  5
F84
330
EA9
100
AcDbEntity
  8
shade
100
AcDbLine
 10
105.507759985452
 20
131.433735054346
 30
0.0
 11
103.615053584068
 21
124.478164421419
 31
0.0
  0
LINE
  5
F85
330
EA9
100
AcDbEntity
  8
shade
100
AcDbLine
 10
98.230497878922
 20
119.235765746124
 30
0.0
 11
99.513900657024
 21
124.478164421419
 31
0.0
  0
LINE
  5
F86
330
EA9
100
AcDbEntity
  8
shade
100
AcDbLine
 10
99.513900657024
 20
124.478164421419
 30
0.0
 11
98.230497878922
 21
131.433735054346
 31
0.0
  0
LINE
  5
F87
330
EA9
100
AcDbEntity
  8
shade
100
AcDbLine
 10
109.506522711286
 20
124.478164421419
 30
0.0
 11
104.904433241274
 21
119.235009959965
 31
0.0
  0
LINE
  5
F88
330
EA9
100
AcDbEntity
  8
shade
100
AcDbLine
 10
104.904433241274
 20
119.235009959965
 30
0.0
 11
108.863052772675
 21
124.471611232035
 31
0.0
  0
LINE
  5
F89
330
EA9
100
AcDbEntity
  8
shade
100
AcDbLine
 10
103.615053584068
 20
124.478164421419
 30
0.0
 11
101.883944467358
 21
119.235765746124
 31
0.0
  0
LINE
  5
F8A
330
EA9
100
AcDbEntity
  8
shade
100
AcDbLine
 10
101.883944467358
 20
119.235765746124
 30
0.0
 11
105.274637570023
 21
124.478164421419
 31
0.0
  0
LINE
  5
F8B
330
EA9
100
AcDbEntity
  8
shade
100
AcDbLine
 10
105.274637570023
 20
124.478164421419
 30
0.0
 11
102.896333917124
 21
119.235765746124
 31
0.0
  0
LINE
  5
F8C
330
EA9
100
AcDbEntity
  8
shade
100
AcDbLine
 10
102.896333917124
 20
119.235765746124
 30
0.0
 11
106.718467534363
 21
124.478164421419
 31
0.0
  0
LINE
  5
F8D
330
EA9
100
AcDbEntity
  8
shade
100
AcDbLine
 10
106.718467534363
 20
124.478164421419
 30
0.0
 11
103.659745251807
 21
119.235765746124
 31
0.0
  0
LINE
  5
F8E
330
EA9
100
AcDbEntity
  8
shade
100
AcDbLine
 10
103.659745251807
 20
119.235765746124
 30
0.0
 11
107.921625406994
 21
124.478164421419
 31
0.0
  0
LINE
  5
F8F
330
EA9
100
AcDbEntity
  8
shade
100
AcDbLine
 10
107.921625406994
 20
124.478164421419
 30
0.0
 11
104.331857858098
 21
119.235765746124
 31
0.0
  0
LINE
  5
F90
330
EA9
100
AcDbEntity
  8
shade
100
AcDbLine
 10
104.331857858098
 20
119.235765746124
 30
0.0
 11
108.863052772675
 21
124.471611232035
 31
0.0
  0
LINE
  5
F91
330
EA9
100
AcDbEntity
  8
shade
100
AcDbLine
 10
107.40801606312
 20
131.433735054346
 30
0.0
 11
106.718467534363
 21
124.478164421419
 31
0.0
  0
LINE
  5
F92
330
EA9
100
AcDbEntity
  8
shade
100
AcDbLine
 10
106.718467534363
 20
124.478164421419
 30
0.0
 11
108.951450779223
 21
131.433735054346
 31
0.0
  0
LINE
  5
F93
330
EA9
100
AcDbEntity
  8
shade
100
AcDbLine
 10
108.951450779223
 20
131.433735054346
 30
0.0
 11
107.921625406994
 21
124.478164421419
 31
0.0
  0
LINE
  5
F94
330
EA9
100
AcDbEntity
  8
shade
100
AcDbLine
 10
107.921625406994
 20
124.478164421419
 30
0.0
 11
110.071615946825
 21
131.433735054346
 31
0.0
  0
LINE
  5
F95
330
EA9
100
AcDbEntity
  8
shade
100
AcDbLine
 10
110.071615946825
 20
131.433735054346
 30
0.0
 11
108.863052772675
 21
124.471611232035
 31
0.0
  0
LINE
  5
F96
330
EA9
100
AcDbEntity
  8
shade
100
AcDbLine
 10
108.863052772675
 20
124.471611232035
 30
0.0
 11
110.926326009903
 21
131.433735054346
 31
0.0
  0
LINE
  5
F97
330
EA9
100
AcDbEntity
  8
shade
100
AcDbLine
 10
110.926326009903
 20
131.433735054346
 30
0.0
 11
109.506522711286
 21
124.478164421419
 31
0.0
  0
LINE
  5
F98
330
EA9
100
AcDbEntity
  8
shade
100
AcDbLine
 10
109.506522711286
 20
124.478164421419
 30
0.0
 11
111.556976028005
 21
131.433735054346
 31
0.0
  0
LINE
  5
F99
330
EA9
100
AcDbEntity
  8
shade
100
AcDbLine
 10
107.40801606312
 20
131.433735054346
 30
0.0
 11
105.274637570023
 21
124.478164421419
 31
0.0
  0
LINE
  5
F9A
330
EA9
100
AcDbEntity
  8
shade
100
AcDbLine
 10
105.274637570023
 20
124.478164421419
 30
0.0
 11
105.507759985452
 21
131.433735054346
 31
0.0
  0
LINE
  5
F9B
330
EA9
100
AcDbEntity
  8
shade
100
AcDbLine
 10
101.684997743971
 20
124.478164421419
 30
0.0
 11
100.813547911312
 21
119.235765746124
 31
0.0
  0
LINE
  5
F9C
330
EA9
100
AcDbEntity
  8
shade
100
AcDbLine
 10
100.813547911312
 20
119.235765746124
 30
0.0
 11
103.615053584068
 21
124.478164421419
 31
0.0
  0
LINE
  5
F9D
330
EA9
100
AcDbEntity
  8
shade
100
AcDbLine
 10
103.615053584068
 20
124.478164421419
 30
0.0
 11
103.541190778138
 21
131.433735054346
 31
0.0
  0
LINE
  5
F9E
330
EA9
100
AcDbEntity
  8
shade
100
AcDbLine
 10
103.541190778138
 20
131.433735054346
 30
0.0
 11
101.684997743971
 21
124.478164421419
 31
0.0
  0
LINE
  5
F9F
330
EA9
100
AcDbEntity
  8
shade
100
AcDbLine
 10
99.513900657024
 20
124.478164421419
 30
0.0
 11
101.043947720696
 21
131.433735054346
 31
0.0
  0
LINE
  5
FA0
330
EA9
100
AcDbEntity
  8
shade
100
AcDbLine
 10
101.043947720696
 20
131.433735054346
 30
0.0
 11
101.684997743971
 21
124.478164421419
 31
0.0
  0
LINE
  5
FA1
330
EA9
100
AcDbEntity
  8
shade
100
AcDbLine
 10
101.684997743971
 20
124.478164421419
 30
0.0
 11
99.701553709787
 21
119.235765746124
 31
0.0
  0
LINE
  5
FA2
330
EA9
100
AcDbEntity
  8
shade
100
AcDbLine
 10
99.701553709787
 20
119.235765746124
 30
0.0
 11
99.513900657024
 21
124.478164421419
 31
0.0
  0
LINE
  5
FA3
330
EA9
100
AcDbEntity
  8
shade
100
AcDbLine
 10
99.701553709787
 20
143.631704362565
 30
0.0
 11
99.513900657024
 21
138.389305687271
 31
0.0
  0
LINE
  5
FA4
330
EA9
100
AcDbEntity
  8
shade
100
AcDbLine
 10
101.684997743971
 20
138.389305687271
 30
0.0
 11
99.701553709787
 21
143.631704362565
 31
0.0
  0
LINE
  5
FA5
330
EA9
100
AcDbEntity
  8
shade
100
AcDbLine
 10
101.043947720696
 20
131.433735054346
 30
0.0
 11
101.684997743971
 21
138.389305687271
 31
0.0
  0
LINE
  5
FA6
330
EA9
100
AcDbEntity
  8
shade
100
AcDbLine
 10
99.513900657024
 20
138.389305687271
 30
0.0
 11
101.043947720696
 21
131.433735054346
 31
0.0
  0
LINE
  5
FA7
330
EA9
100
AcDbEntity
  8
shade
100
AcDbLine
 10
103.541190778138
 20
131.433735054346
 30
0.0
 11
101.684997743971
 21
138.389305687271
 31
0.0
  0
LINE
  5
FA8
330
EA9
100
AcDbEntity
  8
shade
100
AcDbLine
 10
103.615053584068
 20
138.389305687271
 30
0.0
 11
103.541190778138
 21
131.433735054346
 31
0.0
  0
LINE
  5
FA9
330
EA9
100
AcDbEntity
  8
shade
100
AcDbLine
 10
100.813547911312
 20
143.631704362565
 30
0.0
 11
103.615053584068
 21
138.389305687271
 31
0.0
  0
LINE
  5
FAA
330
EA9
100
AcDbEntity
  8
shade
100
AcDbLine
 10
101.684997743971
 20
138.389305687271
 30
0.0
 11
100.813547911312
 21
143.631704362565
 31
0.0
  0
LINE
  5
FAB
330
EA9
100
AcDbEntity
  8
shade
100
AcDbLine
 10
105.274637570023
 20
138.389305687271
 30
0.0
 11
105.507759985452
 21
131.433735054346
 31
0.0
  0
LINE
  5
FAC
330
EA9
100
AcDbEntity
  8
shade
100
AcDbLine
 10
107.40801606312
 20
131.433735054346
 30
0.0
 11
105.274637570023
 21
138.389305687271
 31
0.0
  0
LINE
  5
FAD
330
EA9
100
AcDbEntity
  8
shade
100
AcDbLine
 10
111.556976028005
 20
131.433735054346
 30
0.0
 11
110.004411412803
 21
138.389305687271
 31
0.0
  0
LINE
  5
FAE
330
EA9
100
AcDbEntity
  8
shade
100
AcDbLine
 10
109.506522711286
 20
138.389305687271
 30
0.0
 11
111.556976028005
 21
131.433735054346
 31
0.0
  0
LINE
  5
FAF
330
EA9
100
AcDbEntity
  8
shade
100
AcDbLine
 10
110.926326009903
 20
131.433735054346
 30
0.0
 11
109.506522711286
 21
138.389305687271
 31
0.0
  0
LINE
  5
FB0
330
EA9
100
AcDbEntity
  8
shade
100
AcDbLine
 10
108.863052772675
 20
138.395858876655
 30
0.0
 11
110.926326009903
 21
131.433735054346
 31
0.0
  0
LINE
  5
FB1
330
EA9
100
AcDbEntity
  8
shade
100
AcDbLine
 10
110.071615946825
 20
131.433735054346
 30
0.0
 11
108.863052772675
 21
138.395858876655
 31
0.0
  0
LINE
  5
FB2
330
EA9
100
AcDbEntity
  8
shade
100
AcDbLine
 10
107.921625406994
 20
138.389305687271
 30
0.0
 11
110.071615946825
 21
131.433735054346
 31
0.0
  0
LINE
  5
FB3
330
EA9
100
AcDbEntity
  8
shade
100
AcDbLine
 10
108.951450779223
 20
131.433735054346
 30
0.0
 11
107.921625406994
 21
138.389305687271
 31
0.0
  0
LINE
  5
FB4
330
EA9
100
AcDbEntity
  8
shade
100
AcDbLine
 10
106.718467534363
 20
138.389305687271
 30
0.0
 11
108.951450779223
 21
131.433735054346
 31
0.0
  0
LINE
  5
FB5
330
EA9
100
AcDbEntity
  8
shade
100
AcDbLine
 10
107.40801606312
 20
131.433735054346
 30
0.0
 11
106.718467534363
 21
138.389305687271
 31
0.0
  0
LINE
  5
FB6
330
EA9
100
AcDbEntity
  8
shade
100
AcDbLine
 10
104.331857858098
 20
143.631704362565
 30
0.0
 11
108.863052772675
 21
138.395858876655
 31
0.0
  0
LINE
  5
FB7
330
EA9
100
AcDbEntity
  8
shade
100
AcDbLine
 10
107.921625406994
 20
138.389305687271
 30
0.0
 11
104.331857858098
 21
143.631704362565
 31
0.0
  0
LINE
  5
FB8
330
EA9
100
AcDbEntity
  8
shade
100
AcDbLine
 10
103.659745251807
 20
143.631704362565
 30
0.0
 11
107.921625406994
 21
138.389305687271
 31
0.0
  0
LINE
  5
FB9
330
EA9
100
AcDbEntity
  8
shade
100
AcDbLine
 10
106.718467534363
 20
138.389305687271
 30
0.0
 11
103.659745251807
 21
143.631704362565
 31
0.0
  0
LINE
  5
FBA
330
EA9
100
AcDbEntity
  8
shade
100
AcDbLine
 10
102.896333917124
 20
143.631704362565
 30
0.0
 11
106.718467534363
 21
138.389305687271
 31
0.0
  0
LINE
  5
FBB
330
EA9
100
AcDbEntity
  8
shade
100
AcDbLine
 10
105.274637570023
 20
138.389305687271
 30
0.0
 11
102.896333917124
 21
143.631704362565
 31
0.0
  0
LINE
  5
FBC
330
EA9
100
AcDbEntity
  8
shade
100
AcDbLine
 10
101.883944467358
 20
143.631704362565
 30
0.0
 11
105.274637570023
 21
138.389305687271
 31
0.0
  0
LINE
  5
FBD
330
EA9
100
AcDbEntity
  8
shade
100
AcDbLine
 10
103.615053584068
 20
138.389305687271
 30
0.0
 11
101.883944467358
 21
143.631704362565
 31
0.0
  0
LINE
  5
FBE
330
EA9
100
AcDbEntity
  8
shade
100
AcDbLine
 10
104.904433241274
 20
143.632460148723
 30
0.0
 11
108.863052772675
 21
138.395858876655
 31
0.0
  0
LINE
  5
FBF
330
EA9
100
AcDbEntity
  8
shade
100
AcDbLine
 10
109.506522711286
 20
138.389305687271
 30
0.0
 11
104.904433241274
 21
143.632460148723
 31
0.0
  0
LINE
  5
FC0
330
EA9
100
AcDbEntity
  8
shade
100
AcDbLine
 10
99.513900657024
 20
138.389305687271
 30
0.0
 11
98.230497878922
 21
131.433735054346
 31
0.0
  0
LINE
  5
FC1
330
EA9
100
AcDbEntity
  8
shade
100
AcDbLine
 10
98.230497878922
 20
143.631704362565
 30
0.0
 11
99.513900657024
 21
138.389305687271
 31
0.0
  0
LINE
  5
FC2
330
EA9
100
AcDbEntity
  8
shade
100
AcDbLine
 10
105.507759985452
 20
131.433735054346
 30
0.0
 11
103.615053584068
 21
138.389305687271
 31
0.0
  0
LINE
  5
FC3
330
EA9
100
AcDbEntity
  8
shade
100
AcDbLine
 10
105.078657146048
 20
119.235765746124
 30
0.0
 11
110.004411412803
 21
124.406794272252
 31
0.0
  0
LINE
  5
FC4
330
EA9
100
AcDbEntity
  8
shade
100
AcDbLine
 10
101.616591281087
 20
151.618580955697
 30
0.0
 11
100.465105012307
 21
152.210868873433
 31
0.0
  0
ARC
  5
FC5
330
EA9
100
AcDbEntity
  8
shade
100
AcDbCircle
 10
100.774497878923
 20
149.330936537132
 30
0.0
 40
0.096
100
AcDbArc
 50
270.0
 51
90.0
  0
LINE
  5
FC6
330
EA9
100
AcDbEntity
  8
shade
100
AcDbLine
 10
98.562371291631
 20
152.210868873433
 30
0.0
 11
98.230497878922
 21
151.618580955697
 31
0.0
  0
LINE
  5
FC7
330
EA9
100
AcDbEntity
  8
shade
100
AcDbLine
 10
100.536664350751
 20
152.210868873433
 30
0.0
 11
98.230497878922
 21
152.210868873433
 31
0.0
  0
LINE
  5
FC8
330
EA9
100
AcDbEntity
  8
shade
100
AcDbLine
 10
99.67049787892
 20
117.65086844183
 30
0.0
 11
104.904433241274
 21
119.235009959965
 31
0.0
  0
LINE
  5
FC9
330
EA9
100
AcDbEntity
  8
shade
100
AcDbLine
 10
99.642828682703
 20
117.65086844183
 30
0.0
 11
104.904433241274
 21
119.235009959965
 31
0.0
  0
LINE
  5
FCA
330
EA9
100
AcDbEntity
  8
shade
100
AcDbLine
 10
104.331857858098
 20
119.235765746124
 30
0.0
 11
99.642828682703
 21
117.65086844183
 31
0.0
  0
LINE
  5
FCB
330
EA9
100
AcDbEntity
  8
shade
100
AcDbLine
 10
99.560884405739
 20
117.65086844183
 30
0.0
 11
104.331857858098
 21
119.235765746124
 31
0.0
  0
LINE
  5
FCC
330
EA9
100
AcDbEntity
  8
shade
100
AcDbLine
 10
103.659745251807
 20
119.235765746124
 30
0.0
 11
99.560884405739
 21
117.65086844183
 31
0.0
  0
LINE
  5
FCD
330
EA9
100
AcDbEntity
  8
shade
100
AcDbLine
 10
99.427814120638
 20
117.65086844183
 30
0.0
 11
103.659745251807
 21
119.235765746124
 31
0.0
  0
LINE
  5
FCE
330
EA9
100
AcDbEntity
  8
shade
100
AcDbLine
 10
102.896333917124
 20
119.235765746124
 30
0.0
 11
99.427814120638
 21
117.65086844183
 31
0.0
  0
LINE
  5
FCF
330
EA9
100
AcDbEntity
  8
shade
100
AcDbLine
 10
99.248731643831
 20
117.65086844183
 30
0.0
 11
102.896333917124
 21
119.235765746124
 31
0.0
  0
LINE
  5
FD0
330
EA9
100
AcDbEntity
  8
shade
100
AcDbLine
 10
101.883944467358
 20
119.235765746124
 30
0.0
 11
99.248731643831
 21
117.65086844183
 31
0.0
  0
LINE
  5
FD1
330
EA9
100
AcDbEntity
  8
shade
100
AcDbLine
 10
99.030519014472
 20
117.65086844183
 30
0.0
 11
101.883944467358
 21
119.235765746124
 31
0.0
  0
LINE
  5
FD2
330
EA9
100
AcDbEntity
  8
shade
100
AcDbLine
 10
100.813547911312
 20
119.235765746124
 30
0.0
 11
99.030519014472
 21
117.65086844183
 31
0.0
  0
LINE
  5
FD3
330
EA9
100
AcDbEntity
  8
shade
100
AcDbLine
 10
98.781562021526
 20
117.65086844183
 30
0.0
 11
100.813547911312
 21
119.235765746124
 31
0.0
  0
LINE
  5
FD4
330
EA9
100
AcDbEntity
  8
shade
100
AcDbLine
 10
98.562371291631
 20
117.65086844183
 30
0.0
 11
99.67049787892
 21
117.65086844183
 31
0.0
  0
LINE
  5
FD5
330
EA9
100
AcDbEntity
  8
shade
100
AcDbLine
 10
98.562371291631
 20
117.65086844183
 30
0.0
 11
98.781562021526
 21
117.65086844183
 31
0.0
  0
LINE
  5
FD6
330
EA9
100
AcDbEntity
  8
shade
100
AcDbLine
 10
105.078657146048
 20
119.235765746124
 30
0.0
 11
99.67049787892
 21
117.65086844183
 31
0.0
  0
LINE
  5
FD7
330
EA9
100
AcDbEntity
  8
shade
100
AcDbLine
 10
98.230497878922
 20
117.65086844183
 30
0.0
 11
98.781562021526
 21
117.65086844183
 31
0.0
  0
LINE
  5
FD8
330
EA9
100
AcDbEntity
  8
shade
100
AcDbLine
 10
105.078657146048
 20
119.235765746124
 30
0.0
 11
110.004411412803
 21
124.406794272252
 31
0.0
  0
LINE
  5
FD9
330
EA9
100
AcDbEntity
  8
shade
100
AcDbLine
 10
101.337488372556
 20
151.618580955697
 30
0.0
 11
100.465105012307
 21
152.210868873433
 31
0.0
  0
LINE
  5
FDA
330
EA9
100
AcDbEntity
  8
shade
100
AcDbLine
 10
100.246286770103
 20
152.210868873433
 30
0.0
 11
101.337488372556
 21
151.618580955697
 31
0.0
  0
LINE
  5
FDB
330
EA9
100
AcDbEntity
  8
shade
100
AcDbLine
 10
100.959271325399
 20
151.618580955697
 30
0.0
 11
100.246286770103
 21
152.210868873433
 31
0.0
  0
LINE
  5
FDC
330
EA9
100
AcDbEntity
  8
shade
100
AcDbLine
 10
100.006690168189
 20
152.210868873433
 30
0.0
 11
100.959271325399
 21
151.618580955697
 31
0.0
  0
LINE
  5
FDD
330
EA9
100
AcDbEntity
  8
shade
100
AcDbLine
 10
100.622527976233
 20
151.618580955697
 30
0.0
 11
100.006690168189
 21
152.210868873433
 31
0.0
  0
LINE
  5
FDE
330
EA9
100
AcDbEntity
  8
shade
100
AcDbLine
 10
99.796529720224
 20
152.210868873433
 30
0.0
 11
100.622527976233
 21
151.618580955697
 31
0.0
  0
LINE
  5
FDF
330
EA9
100
AcDbEntity
  8
shade
100
AcDbLine
 10
100.285548385986
 20
151.618580955697
 30
0.0
 11
99.796529720224
 21
152.210868873433
 31
0.0
  0
LINE
  5
FE0
330
EA9
100
AcDbEntity
  8
shade
100
AcDbLine
 10
99.595268574616
 20
152.210868873433
 30
0.0
 11
100.285548385986
 21
151.618580955697
 31
0.0
  0
LINE
  5
FE1
330
EA9
100
AcDbEntity
  8
shade
100
AcDbLine
 10
99.989444715044
 20
151.618580955697
 30
0.0
 11
99.595268574616
 21
152.210868873433
 31
0.0
  0
LINE
  5
FE2
330
EA9
100
AcDbEntity
  8
shade
100
AcDbLine
 10
99.355671972706
 20
152.210868873433
 30
0.0
 11
99.989444715044
 21
151.618580955697
 31
0.0
  0
LINE
  5
FE3
330
EA9
100
AcDbEntity
  8
shade
100
AcDbLine
 10
99.60383110198
 20
151.618580955697
 30
0.0
 11
99.355671972706
 21
152.210868873433
 31
0.0
  0
LINE
  5
FE4
330
EA9
100
AcDbEntity
  8
shade
100
AcDbLine
 10
99.113679404774
 20
152.210868873433
 30
0.0
 11
99.60383110198
 21
151.618580955697
 31
0.0
  0
LINE
  5
FE5
330
EA9
100
AcDbEntity
  8
shade
100
AcDbLine
 10
99.208952815723
 20
151.618580955697
 30
0.0
 11
99.113679404774
 21
152.210868873433
 31
0.0
  0
LINE
  5
FE6
330
EA9
100
AcDbEntity
  8
shade
100
AcDbLine
 10
98.821371550439
 20
152.210868873433
 30
0.0
 11
99.208952815723
 21
151.618580955697
 31
0.0
  0
LINE
  5
FE7
330
EA9
100
AcDbEntity
  8
shade
100
AcDbLine
 10
98.752446610313
 20
151.618580955697
 30
0.0
 11
98.821371550439
 21
152.210868873433
 31
0.0
  0
LINE
  5
FE8
330
EA9
100
AcDbEntity
  8
shade
100
AcDbLine
 10
98.562371291631
 20
152.210868873433
 30
0.0
 11
98.752446610313
 21
151.618580955697
 31
0.0
  0
LINE
  5
FE9
330
EA9
100
AcDbEntity
  8
shade
100
AcDbLine
 10
101.616591281087
 20
151.618580955697
 30
0.0
 11
100.746140813939
 21
149.426936537132
 31
0.0
  0
LINE
  5
FEA
330
EA9
100
AcDbEntity
  8
shade
100
AcDbLine
 10
100.536664350751
 20
152.210868873433
 30
0.0
 11
101.616591281087
 21
151.618580955697
 31
0.0
  0
LINE
  5
FEB
330
EA9
100
AcDbEntity
  8
shade
100
AcDbLine
 10
100.583583752355
 20
149.426936537132
 30
0.0
 11
101.337488372556
 21
151.618580955697
 31
0.0
  0
LINE
  5
FEC
330
EA9
100
AcDbEntity
  8
shade
100
AcDbLine
 10
100.406972190936
 20
149.426936537132
 30
0.0
 11
100.959271325399
 21
151.618580955697
 31
0.0
  0
LINE
  5
FED
330
EA9
100
AcDbEntity
  8
shade
100
AcDbLine
 10
100.247322295687
 20
149.426936537132
 30
0.0
 11
100.622527976233
 21
151.618580955697
 31
0.0
  0
LINE
  5
FEE
330
EA9
100
AcDbEntity
  8
shade
100
AcDbLine
 10
99.997409719566
 20
149.426936537132
 30
0.0
 11
100.285548385986
 21
151.618580955697
 31
0.0
  0
LINE
  5
FEF
330
EA9
100
AcDbEntity
  8
shade
100
AcDbLine
 10
99.71511610991
 20
149.426936537132
 30
0.0
 11
99.989444715044
 21
151.618580955697
 31
0.0
  0
LINE
  5
FF0
330
EA9
100
AcDbEntity
  8
shade
100
AcDbLine
 10
99.341544123465
 20
149.426936537132
 30
0.0
 11
99.60383110198
 21
151.618580955697
 31
0.0
  0
LINE
  5
FF1
330
EA9
100
AcDbEntity
  8
shade
100
AcDbLine
 10
98.976011492508
 20
149.426936537132
 30
0.0
 11
99.208952815723
 21
151.618580955697
 31
0.0
  0
LINE
  5
FF2
330
EA9
100
AcDbEntity
  8
shade
100
AcDbLine
 10
98.585343412615
 20
149.426936537132
 30
0.0
 11
98.752446610313
 21
151.618580955697
 31
0.0
  0
POLYLINE
  5
FF3
330
EA9
100
AcDbEntity
  8
shade
100
AcDb2dPolyline
 66
     1
 10
0.0
 20
0.0
 30
0.0
  0
VERTEX
  5
FF4
330
FF3
100
AcDbEntity
  8
shade
100
AcDbVertex
100
AcDb2dVertex
 10
98.230497878922
 20
119.235765746124
 30
0.0
  0
VERTEX
  5
FF5
330
FF3
100
AcDbEntity
  8
shade
100
AcDbVertex
100
AcDb2dVertex
 10
98.511427942623
 20
117.65086844183
 30
0.0
  0
VERTEX
  5
FF6
330
FF3
100
AcDbEntity
  8
shade
100
AcDbVertex
100
AcDb2dVertex
 10
98.781562021526
 20
117.65086844183
 30
0.0
  0
VERTEX
  5
FF7
330
FF3
100
AcDbEntity
  8
shade
100
AcDbVertex
100
AcDb2dVertex
 10
99.701553709787
 20
119.235765746124
 30
0.0
  0
SEQEND
  5
FF8
330
FF3
100
AcDbEntity
  8
shade
  0
LINE
  5
FF9
330
EA9
100
AcDbEntity
  8
shade
100
AcDbLine
 10
99.701553709787
 20
119.235765746124
 30
0.0
 11
98.511427942623
 21
117.65086844183
 31
0.0
  0
LINE
  5
FFA
330
EA9
100
AcDbEntity
  8
shade
100
AcDbLine
 10
100.693934947809
 20
149.22950723122
 30
0.0
 11
101.035202752471
 21
145.092078844996
 31
0.0
  0
POLYLINE
  5
FFB
330
EA9
100
AcDbEntity
  8
shade
100
AcDb2dPolyline
 66
     1
 10
0.0
 20
0.0
 30
0.0
  0
VERTEX
  5
FFC
330
FFB
100
AcDbEntity
  8
shade
100
AcDbVertex
100
AcDb2dVertex
 10
100.388445668272
 20
149.22950723122
 30
0.0
  0
VERTEX
  5
FFD
330
FFB
100
AcDbEntity
  8
shade
100
AcDbVertex
100
AcDb2dVertex
 10
101.035202752471
 20
145.092078844996
 30
0.0
  0
VERTEX
  5
FFE
330
FFB
100
AcDbEntity
  8
shade
100
AcDbVertex
100
AcDb2dVertex
 10
100.54528948227
 20
149.22950723122
 30
0.0
  0
SEQEND
  5
FFF
330
FFB
100
AcDbEntity
  8
shade
  0
LINE
  5
1000
330
EA9
100
AcDbEntity
  8
shade
100
AcDbLine
 10
100.23943625384
 20
149.22950723122
 30
0.0
 11
100.960516070812
 21
145.092078844996
 31
0.0
  0
LINE
  5
1001
330
EA9
100
AcDbEntity
  8
shade
100
AcDbLine
 10
100.744762049202
 20
145.092078844996
 30
0.0
 11
100.007151136153
 21
149.22950723122
 31
0.0
  0
LINE
  5
1002
330
EA9
100
AcDbEntity
  8
shade
100
AcDbLine
 10
99.715888162435
 20
149.22950723122
 30
0.0
 11
100.271791417788
 21
145.092078844996
 31
0.0
  0
LINE
  5
1003
330
EA9
100
AcDbEntity
  8
shade
100
AcDbLine
 10
99.790582291651
 20
145.092078844996
 30
0.0
 11
99.341929562066
 21
149.22950723122
 31
0.0
  0
LINE
  5
1004
330
EA9
100
AcDbEntity
  8
shade
100
AcDbLine
 10
99.292626061491
 20
145.092078844996
 30
0.0
 11
98.976087701365
 21
149.22950723122
 31
0.0
  0
LINE
  5
1005
330
EA9
100
AcDbEntity
  8
shade
100
AcDbLine
 10
98.585651453421
 20
149.22950723122
 30
0.0
 11
98.794804888621
 21
145.092078844996
 31
0.0
  0
POLYLINE
  5
1006
330
EA9
100
AcDbEntity
  8
shade
100
AcDb2dPolyline
 66
     1
 10
0.0
 20
0.0
 30
0.0
  0
VERTEX
  5
1007
330
1006
100
AcDbEntity
  8
shade
100
AcDbVertex
100
AcDb2dVertex
 10
104.904433241274
 20
143.632460148723
 30
0.0
  0
VERTEX
  5
1008
330
1006
100
AcDbEntity
  8
shade
100
AcDbVertex
100
AcDb2dVertex
 10
101.035202752471
 20
145.092078844996
 30
0.0
  0
VERTEX
  5
1009
330
1006
100
AcDbEntity
  8
shade
100
AcDbVertex
100
AcDb2dVertex
 10
105.078657146048
 20
143.631704362565
 30
0.0
  0
SEQEND
  5
100A
330
1006
100
AcDbEntity
  8
shade
  0
LINE
  5
100B
330
EA9
100
AcDbEntity
  8
shade
100
AcDbLine
 10
104.331857858098
 20
143.631704362565
 30
0.0
 11
100.960516070812
 21
145.092078844996
 31
0.0
  0
LINE
  5
100C
330
EA9
100
AcDbEntity
  8
shade
100
AcDbLine
 10
103.659745251807
 20
143.631704362565
 30
0.0
 11
100.744762049202
 21
145.092078844996
 31
0.0
  0
LINE
  5
100D
330
EA9
100
AcDbEntity
  8
shade
100
AcDbLine
 10
102.896333917124
 20
143.631704362565
 30
0.0
 11
100.271791417788
 21
145.092078844996
 31
0.0
  0
LINE
  5
100E
330
EA9
100
AcDbEntity
  8
shade
100
AcDbLine
 10
101.883944467358
 20
143.631704362565
 30
0.0
 11
99.790582291651
 21
145.092078844996
 31
0.0
  0
LINE
  5
100F
330
EA9
100
AcDbEntity
  8
shade
100
AcDbLine
 10
100.813547911312
 20
143.631704362565
 30
0.0
 11
99.292626061491
 21
145.092078844996
 31
0.0
  0
LINE
  5
1010
330
EA9
100
AcDbEntity
  8
shade
100
AcDbLine
 10
99.701553709787
 20
143.631704362565
 30
0.0
 11
98.786431336608
 21
145.092078844996
 31
0.0
  0
LINE
  5
1011
330
EA9
100
AcDbEntity
  8
shade
100
AcDbLine
 10
105.078657146048
 20
143.631704362565
 30
0.0
 11
109.506522711286
 21
138.389305687271
 31
0.0
  0
LINE
  5
1012
330
EA9
100
AcDbEntity
  8
shade
100
AcDbLine
 10
110.004411412803
 20
138.389305687271
 30
0.0
 11
105.078657146048
 21
143.631704362565
 31
0.0
  0
LINE
  5
1013
330
EA9
100
AcDbEntity
  8
shade
100
AcDbLine
 10
110.004411412803
 20
124.406794272252
 30
0.0
 11
111.556976028005
 21
131.433735054346
 31
0.0
  0
LINE
  5
1014
330
EA9
100
AcDbEntity
  8
shade
100
AcDbLine
 10
100.774497878923
 20
149.234936537133
 30
0.0
 11
98.230497878922
 21
149.234936537133
 31
0.0
  0
LINE
  5
1015
330
EA9
100
AcDbEntity
  8
shade
100
AcDbLine
 10
100.774497878923
 20
149.426936537132
 30
0.0
 11
98.230497878922
 21
149.426936537132
 31
0.0
  0
ARC
  5
1016
330
EA9
100
AcDbEntity
  8
shade
100
AcDbCircle
 10
100.774497878923
 20
149.330936537132
 30
0.0
 40
0.096
100
AcDbArc
 50
270.0
 51
90.0
  0
LINE
  5
1017
330
EA9
100
AcDbEntity
  8
shade
100
AcDbLine
 10
98.230497878922
 20
151.618580955697
 30
0.0
 11
98.230497878922
 21
149.426936537132
 31
0.0
  0
LINE
  5
1018
330
EA9
100
AcDbEntity
  8
shade
100
AcDbLine
 10
98.230497878922
 20
149.234936537133
 30
0.0
 11
98.230497878922
 21
143.631704362565
 31
0.0
  0
LWPOLYLINE
  5
1019
330
EA9
100
AcDbEntity
  8
shade
100
AcDbPolyline
 90
        4
 70
     0
 43
0.0
 10
98.230497878922
 20
184.034931450066
 10
94.342497878923
 20
184.034931450066
 42
0.217047275996
 10
97.884897878921
 20
176.258931450066
 10
98.230497878922
 20
176.258931450066
  0
LWPOLYLINE
  5
101A
330
EA9
100
AcDbEntity
  8
shade
100
AcDbPolyline
 90
        4
 70
     0
 43
0.0
 10
98.230497878922
 20
184.034931450066
 10
102.118497878921
 20
184.034931450066
 42
-0.217047275996
 10
98.576097878922
 20
176.258931450066
 10
98.230497878922
 20
176.258931450066
  0
LINE
  5
101B
330
EA9
100
AcDbEntity
  8
shade
100
AcDbLine
 10
97.993663187208
 20
165.352094903618
 30
0.0
 11
97.993663187208
 21
176.258931450066
 31
0.0
  0
LINE
  5
101C
330
EA9
100
AcDbEntity
  8
shade
100
AcDbLine
 10
97.993663187208
 20
158.082524995599
 30
0.0
 11
97.993663187208
 21
164.944960496468
 31
0.0
  0
LINE
  5
101D
330
EA9
100
AcDbEntity
  8
shade
100
AcDbLine
 10
97.993663187208
 20
152.210868873433
 30
0.0
 11
97.993663187208
 21
157.88339613012
 31
0.0
  0
TEXT
  5
101E
330
EA9
100
AcDbEntity
  8
text
  6
Continuous
100
AcDbText
 10
55.695709672025
 20
93.772175151576
 30
0.0
 40
2.5
  1
E26 LED電球(60W形相当　電球色　全方向/広配光タイプ）（別売）
 41
0.842190404457
  7
新規スタイル1
 72
     5
 11
139.83053107727
 21
93.772175151576
 31
0.0
100
AcDbText
  0
ENDBLK
  5
1022
330
EA9
100
AcDbEntity
  8
0
100
AcDbBlockEnd
  0
ENDSEC
  0
SECTION
  2
ENTITIES
  0
LINE
  5
119B
330
1F
100
AcDbEntity
  8
FLAME
100
AcDbLine
 10
313.5
 20
210.519243884228
 30
0.0
 11
313.5
 21
105.519243884228
 31
0.0
  0
LINE
  5
119C
330
1F
100
AcDbEntity
  8
FLAME
100
AcDbLine
 10
223.5
 20
105.519243884228
 30
0.0
 11
223.5
 21
210.519243884228
 31
0.0
  0
LINE
  5
119D
330
1F
100
AcDbEntity
  8
FLAME
100
AcDbLine
 10
313.5
 20
105.519243884228
 30
0.0
 11
223.5
 21
105.519243884228
 31
0.0
  0
LINE
  5
119E
330
1F
100
AcDbEntity
  8
FLAME
100
AcDbLine
 10
313.5
 20
110.519243884228
 30
0.0
 11
223.5
 21
110.519243884228
 31
0.0
  0
LINE
  5
119F
330
1F
100
AcDbEntity
  8
FLAME
100
AcDbLine
 10
313.5
 20
115.519243884228
 30
0.0
 11
223.5
 21
115.519243884228
 31
0.0
  0
LINE
  5
11A0
330
1F
100
AcDbEntity
  8
FLAME
100
AcDbLine
 10
313.5
 20
120.519243884228
 30
0.0
 11
223.5
 21
120.519243884228
 31
0.0
  0
LINE
  5
11A1
330
1F
100
AcDbEntity
  8
FLAME
100
AcDbLine
 10
313.5
 20
210.519243884228
 30
0.0
 11
223.5
 21
210.519243884228
 31
0.0
  0
LWPOLYLINE
  5
11A2
330
1F
100
AcDbEntity
  8
Defpoints
370
     0
100
AcDbPolyline
 90
        4
 70
     1
 43
0.0
 10
171.0
 20
295.0
 10
366.0
 20
295.0
 10
366.0
 20
13.0
 10
171.0
 20
13.0
  0
TEXT
  5
11A3
330
1F
100
AcDbEntity
  8
text
  6
Continuous
100
AcDbText
 10
226.948885885664
 20
111.658981217843
 30
0.0
 40
2.5
  1
KP101A
  7
新規スタイル1
 11
226.948885885664
 21
112.908981217843
 31
0.0
100
AcDbText
 73
     2
  0
TEXT
  5
11A4
330
1F
100
AcDbEntity
  8
text
  6
Continuous
100
AcDbText
 10
226.948885885664
 20
116.658981217843
 30
0.0
 40
2.5
  1
ペンダント 101A
  7
新規スタイル1
 11
226.948885885664
 21
117.908981217843
 31
0.0
100
AcDbText
 73
     2
  0
LINE
  5
11A5
330
1F
100
AcDbEntity
  8
shade
100
AcDbLine
 10
269.467332570635
 20
178.352094903618
 30
0.0
 11
269.467332570635
 21
189.258931450066
 31
0.0
  0
LINE
  5
11A6
330
1F
100
AcDbEntity
  8
shade
100
AcDbLine
 10
269.467332570635
 20
171.082524995599
 30
0.0
 11
269.467332570635
 21
177.944960496468
 31
0.0
  0
LINE
  5
11A7
330
1F
100
AcDbEntity
  8
shade
100
AcDbLine
 10
269.467332570635
 20
165.210868873433
 30
0.0
 11
269.467332570635
 21
170.88339613012
 31
0.0
  0
LINE
  5
11A8
330
1F
100
AcDbEntity
  8
shade
100
AcDbLine
 10
268.713925014192
 20
171.068517715551
 30
0.0
 11
269.286975461386
 21
171.13307290574
 31
0.0
  0
LINE
  5
11A9
330
1F
100
AcDbEntity
  8
shade
100
AcDbLine
 10
269.343453043854
 20
171.13307290574
 30
0.0
 11
270.091406420073
 21
171.0181862419
 31
0.0
  0
LINE
  5
11AA
330
1F
100
AcDbEntity
  8
shade
100
AcDbLine
 10
269.107514422212
 20
171.086086684115
 30
0.0
 11
270.07779295911
 21
170.947484942897
 31
0.0
  0
LINE
  5
11AB
330
1F
100
AcDbEntity
  8
shade
100
AcDbLine
 10
269.343453043854
 20
171.13307290574
 30
0.0
 11
269.286975461386
 21
171.13307290574
 31
0.0
  0
LINE
  5
11AC
330
1F
100
AcDbEntity
  8
shade
100
AcDbLine
 10
268.649435495612
 20
171.052362500101
 30
0.0
 11
268.713925014192
 21
171.068517715551
 31
0.0
  0
ARC
  5
11AD
330
1F
100
AcDbEntity
  8
shade
100
AcDbCircle
 10
266.686497878924
 20
162.330936537132
 30
0.0
 40
0.096
100
AcDbArc
 50
90.0
 51
270.0
  0
LINE
  5
11AE
330
1F
100
AcDbEntity
  8
shade
100
AcDbLine
 10
266.686497878924
 20
162.426936537132
 30
0.0
 11
269.230497878922
 21
162.426936537132
 31
0.0
  0
LINE
  5
11AF
330
1F
100
AcDbEntity
  8
shade
100
AcDbLine
 10
266.686497878924
 20
162.234936537133
 30
0.0
 11
269.230497878922
 21
162.234936537133
 31
0.0
  0
ARC
  5
11B0
330
1F
100
AcDbEntity
  8
shade
100
AcDbCircle
 10
269.230497878922
 20
166.287662456375
 30
0.0
 40
4.8
100
AcDbArc
 50
302.739227034956
 51
78.865095730032
  0
ARC
  5
11B1
330
1F
100
AcDbEntity
  8
shade
100
AcDbCircle
 10
269.230497878922
 20
166.287662456375
 30
0.0
 40
4.608000000000001
100
AcDbArc
 50
303.088202335835
 51
76.284946218466
  0
SPLINE
  5
11B2
330
1F
100
AcDbEntity
  8
shade
100
AcDbSpline
210
0.0
220
0.0
230
1.0
 70
     8
 71
     3
 72
    18
 73
    14
 74
     0
 42
0.000000001
 43
0.0000000001
 40
0.0
 40
0.0
 40
0.0
 40
0.0
 40
0.3863909487008147
 40
0.6922606836850902
 40
1.003344482894169
 40
1.358089166201915
 40
2.008816250725916
 40
2.534370810349367
 40
3.10300808309935
 40
3.677505513072336
 40
4.326955806108508
 40
5.222992330637917
 40
5.692133854309811
 40
5.692133854309811
 40
5.692133854309811
 40
5.692133854309811
 10
270.0777929591095
 20
170.9474849428971
 30
0.0
 10
270.0900158037985
 20
170.9451314469725
 30
0.0
 10
270.1119143364922
 20
170.9409149074727
 30
0.0
 10
270.1402162438389
 20
170.9247624276968
 30
0.0
 10
270.1626034218498
 20
170.9025273007055
 30
0.0
 10
270.1821110729798
 20
170.8649201633334
 30
0.0
 10
270.2058898195064
 20
170.821898462068
 30
0.0
 10
270.2185730411729
 20
170.7667575774585
 30
0.0
 10
270.2520749468167
 20
170.72307753941
 30
0.0
 10
270.3010356449704
 20
170.6913974964127
 30
0.0
 10
270.3678694358132
 20
170.6749321101388
 30
0.0
 10
270.435179771659
 20
170.6845655878969
 30
0.0
 10
270.471152235692
 20
170.711489408548
 30
0.0
 10
270.4811817606751
 20
170.7226882542609
 30
0.0
  0
SPLINE
  5
11B3
330
1F
100
AcDbEntity
  8
shade
100
AcDbSpline
210
0.0
220
0.0
230
1.0
 70
     8
 71
     3
 72
    66
 73
    62
 74
     0
 42
0.000000001
 43
0.0000000001
 40
0.0
 40
0.0
 40
0.0
 40
0.0
 40
0.8270636036914604
 40
0.8278781490344784
 40
1.330551280334955
 40
1.332687993193267
 40
2.042395565168135
 40
2.043962056491537
 40
3.09029646648607
 40
3.091631302465614
 40
3.894125950598673
 40
3.89461605837478
 40
4.720162677182064
 40
4.72374928145779
 40
7.08064000394692
 40
7.081554733794865
 40
9.422996350385352
 40
9.42326470344161
 40
10.48731232803223
 40
10.48826461252677
 40
11.84880922451731
 40
11.84933950069972
 40
12.50734044847304
 40
12.50738752890359
 40
13.36432857314333
 40
13.36439282637238
 40
13.99812141799035
 40
14.00242682618077
 40
15.52282794690887
 40
15.52399545411022
 40
18.03419141976972
 40
18.03622090701577
 40
20.70315672736083
 40
20.71064439734816
 40
21.98131126402563
 40
21.98183975445037
 40
23.35991427927853
 40
23.36069981959685
 40
24.11400749056567
 40
24.11545234566945
 40
25.35270761751439
 40
25.36161173628601
 40
26.77929860208505
 40
26.78009539323328
 40
27.90052138199711
 40
27.90286412217308
 40
29.10472259219753
 40
29.10710050890077
 40
30.58547868399183
 40
30.58618556049669
 40
34.0425917319215
 40
34.04608840196745
 40
40.15447040378994
 40
40.15902766870427
 40
45.89450635418914
 40
45.90614813932685
 40
51.62592421792318
 40
51.98545164540259
 40
57.35989879455808
 40
57.3620481231097
 40
59.54796097800287
 40
59.54796097800287
 40
59.54796097800287
 40
59.54796097800287
 10
270.0914064200733
 20
171.0181862419004
 30
0.0
 10
270.0941170150727
 20
171.0176643196746
 30
0.0
 10
270.0972322929956
 20
171.0170651461058
 30
0.0
 10
270.1023339335588
 20
171.0160329683458
 30
0.0
 10
270.1043650152787
 20
171.0156106314098
 30
0.0
 10
270.1093913696459
 20
171.0145159895355
 30
0.0
 10
270.1125226821387
 20
171.0137942723932
 30
0.0
 10
270.1205256010362
 20
171.011774622285
 30
0.0
 10
270.1256722990511
 20
171.0103275434894
 30
0.0
 10
270.1351285040255
 20
171.0071818792931
 30
0.0
 10
270.1392940788246
 20
171.0056414592509
 30
0.0
 10
270.147958318048
 20
171.0020160673484
 30
0.0
 10
270.1522650578809
 20
171.0000003330488
 30
0.0
 10
270.1683578361844
 20
170.9916792078438
 30
0.0
 10
270.1795038542914
 20
170.984202778066
 30
0.0
 10
270.1996116252303
 20
170.9673941239998
 30
0.0
 10
270.2088887137288
 20
170.9578207715067
 30
0.0
 10
270.2207536968708
 20
170.9423175916363
 30
0.0
 10
270.2239786250866
 20
170.9375709198202
 30
0.0
 10
270.230429115345
 20
170.9273568629442
 30
0.0
 10
270.2335330086171
 20
170.921847761475
 30
0.0
 10
270.2373497773187
 20
170.9148362733649
 30
0.0
 10
270.2385336916122
 20
170.912614776159
 30
0.0
 10
270.2409945992731
 20
170.9079779718149
 30
0.0
 10
270.2407838411746
 20
170.9083710033838
 30
0.0
 10
270.2422781468595
 20
170.9055564667751
 30
0.0
 10
270.2429240349447
 20
170.9043429987041
 30
0.0
 10
270.2451527369012
 20
170.9001587879548
 30
0.0
 10
270.246843000019
 20
170.896990762054
 30
0.0
 10
270.2512765081046
 20
170.8886023316245
 30
0.0
 10
270.2541994353851
 20
170.8829920952176
 30
0.0
 10
270.2601637075204
 20
170.8709770140622
 30
0.0
 10
270.2633013141858
 20
170.8643434102169
 30
0.0
 10
270.267733336088
 20
170.8540348626557
 30
0.0
 10
270.2691471231337
 20
170.8505947476851
 30
0.0
 10
270.2719879212964
 20
170.8432699670147
 30
0.0
 10
270.2732762069827
 20
170.8397101062847
 30
0.0
 10
270.2752365905544
 20
170.8339780772558
 30
0.0
 10
270.2758903709837
 20
170.8320038260235
 30
0.0
 10
270.2775074815509
 20
170.8270242266181
 30
0.0
 10
270.2784610219605
 20
170.8239813715491
 30
0.0
 10
270.2802516758311
 20
170.8182562760667
 30
0.0
 10
270.2810546817454
 20
170.8156831026708
 30
0.0
 10
270.2825014011578
 20
170.8112032655408
 30
0.0
 10
270.2830927059404
 20
170.8094278537319
 30
0.0
 10
270.2842759989362
 20
170.8060362217248
 30
0.0
 10
270.2848427307727
 20
170.8045051803892
 30
0.0
 10
270.2860377859506
 20
170.8014841384311
 30
0.0
 10
270.2866158826
 20
170.8001681723345
 30
0.0
 10
270.2884567882938
 20
170.796350964295
 30
0.0
 10
270.2901071310807
 20
170.7935384300445
 30
0.0
 10
270.2957621441492
 20
170.7855474076287
 30
0.0
 10
270.3004104634019
 20
170.7804827325508
 30
0.0
 10
270.3110239993912
 20
170.7714779188709
 30
0.0
 10
270.3167760822544
 20
170.7675892530415
 30
0.0
 10
270.3292009388497
 20
170.7609964982539
 30
0.0
 10
270.3362409437032
 20
170.7581441144712
 30
0.0
 10
270.350215409806
 20
170.754160219657
 30
0.0
 10
270.3575532254181
 20
170.7528210555074
 30
0.0
 10
270.3675300371324
 20
170.7519250274836
 30
0.0
 10
270.3703948553994
 20
170.7517723317751
 30
0.0
 10
270.3732189211005
 20
170.7517248013419
 30
0.0
  0
ARC
  5
11B4
330
1F
100
AcDbEntity
  8
shade
100
AcDbCircle
 10
269.230497878922
 20
166.287662456375
 30
0.0
 40
4.608000000000001
100
AcDbArc
 50
77.678302071188
 51
236.911797664111
  0
ARC
  5
11B5
330
1F
100
AcDbEntity
  8
shade
100
AcDbCircle
 10
269.230497878922
 20
166.287662456375
 30
0.0
 40
4.8
100
AcDbArc
 50
91.468167542114
 51
237.260772965095
  0
LINE
  5
11B6
330
1F
100
AcDbEntity
  8
shade
100
AcDbLine
 10
257.45658434504
 20
137.406794272252
 30
0.0
 11
255.904019729842
 21
144.433735054346
 31
0.0
  0
LINE
  5
11B7
330
1F
100
AcDbEntity
  8
shade
100
AcDbLine
 10
257.45658434504
 20
151.389305687271
 30
0.0
 11
262.382338611795
 21
156.631704362565
 31
0.0
  0
LINE
  5
11B8
330
1F
100
AcDbEntity
  8
shade
100
AcDbLine
 10
262.382338611795
 20
156.631704362565
 30
0.0
 11
257.954473046557
 21
151.389305687271
 31
0.0
  0
LINE
  5
11B9
330
1F
100
AcDbEntity
  8
shade
100
AcDbLine
 10
267.759442048056
 20
156.631704362565
 30
0.0
 11
268.674564421235
 21
158.092078844996
 31
0.0
  0
LINE
  5
11BA
330
1F
100
AcDbEntity
  8
shade
100
AcDbLine
 10
266.647447846532
 20
156.631704362565
 30
0.0
 11
268.168369696352
 21
158.092078844996
 31
0.0
  0
LINE
  5
11BB
330
1F
100
AcDbEntity
  8
shade
100
AcDbLine
 10
265.577051290486
 20
156.631704362565
 30
0.0
 11
267.670413466192
 21
158.092078844996
 31
0.0
  0
LINE
  5
11BC
330
1F
100
AcDbEntity
  8
shade
100
AcDbLine
 10
264.564661840723
 20
156.631704362565
 30
0.0
 11
267.189204340058
 21
158.092078844996
 31
0.0
  0
LINE
  5
11BD
330
1F
100
AcDbEntity
  8
shade
100
AcDbLine
 10
263.801250506036
 20
156.631704362565
 30
0.0
 11
266.716233708641
 21
158.092078844996
 31
0.0
  0
LINE
  5
11BE
330
1F
100
AcDbEntity
  8
shade
100
AcDbLine
 10
263.129137899745
 20
156.631704362565
 30
0.0
 11
266.500479687031
 21
158.092078844996
 31
0.0
  0
POLYLINE
  5
11BF
330
1F
100
AcDbEntity
  8
shade
100
AcDb2dPolyline
 66
     1
 10
0.0
 20
0.0
 30
0.0
  0
VERTEX
  5
11C0
330
11BF
100
AcDbEntity
  8
shade
100
AcDbVertex
100
AcDb2dVertex
 10
262.556562516569
 20
156.632460148723
 30
0.0
  0
VERTEX
  5
11C1
330
11BF
100
AcDbEntity
  8
shade
100
AcDbVertex
100
AcDb2dVertex
 10
266.425793005372
 20
158.092078844996
 30
0.0
  0
VERTEX
  5
11C2
330
11BF
100
AcDbEntity
  8
shade
100
AcDbVertex
100
AcDb2dVertex
 10
262.382338611795
 20
156.631704362565
 30
0.0
  0
SEQEND
  5
11C3
330
11BF
100
AcDbEntity
  8
shade
  0
LINE
  5
11C4
330
1F
100
AcDbEntity
  8
shade
100
AcDbLine
 10
268.875344304422
 20
162.22950723122
 30
0.0
 11
268.666190869222
 21
158.092078844996
 31
0.0
  0
LINE
  5
11C5
330
1F
100
AcDbEntity
  8
shade
100
AcDbLine
 10
268.168369696352
 20
158.092078844996
 30
0.0
 11
268.484908056478
 21
162.22950723122
 31
0.0
  0
LINE
  5
11C6
330
1F
100
AcDbEntity
  8
shade
100
AcDbLine
 10
267.670413466192
 20
158.092078844996
 30
0.0
 11
268.119066195781
 21
162.22950723122
 31
0.0
  0
LINE
  5
11C7
330
1F
100
AcDbEntity
  8
shade
100
AcDbLine
 10
267.745107595412
 20
162.22950723122
 30
0.0
 11
267.189204340058
 21
158.092078844996
 31
0.0
  0
LINE
  5
11C8
330
1F
100
AcDbEntity
  8
shade
100
AcDbLine
 10
266.716233708641
 20
158.092078844996
 30
0.0
 11
267.45384462169
 21
162.22950723122
 31
0.0
  0
LINE
  5
11C9
330
1F
100
AcDbEntity
  8
shade
100
AcDbLine
 10
267.221559504003
 20
162.22950723122
 30
0.0
 11
266.500479687031
 21
158.092078844996
 31
0.0
  0
POLYLINE
  5
11CA
330
1F
100
AcDbEntity
  8
shade
100
AcDb2dPolyline
 66
     1
 10
0.0
 20
0.0
 30
0.0
  0
VERTEX
  5
11CB
330
11CA
100
AcDbEntity
  8
shade
100
AcDbVertex
100
AcDb2dVertex
 10
267.072550089575
 20
162.22950723122
 30
0.0
  0
VERTEX
  5
11CC
330
11CA
100
AcDbEntity
  8
shade
100
AcDbVertex
100
AcDb2dVertex
 10
266.425793005372
 20
158.092078844996
 30
0.0
  0
VERTEX
  5
11CD
330
11CA
100
AcDbEntity
  8
shade
100
AcDbVertex
100
AcDb2dVertex
 10
266.915706275577
 20
162.22950723122
 30
0.0
  0
SEQEND
  5
11CE
330
11CA
100
AcDbEntity
  8
shade
  0
LINE
  5
11CF
330
1F
100
AcDbEntity
  8
shade
100
AcDbLine
 10
266.767060810034
 20
162.22950723122
 30
0.0
 11
266.425793005372
 21
158.092078844996
 31
0.0
  0
LINE
  5
11D0
330
1F
100
AcDbEntity
  8
shade
100
AcDbLine
 10
267.759442048056
 20
132.235765746124
 30
0.0
 11
268.94956781522
 21
130.65086844183
 31
0.0
  0
POLYLINE
  5
11D1
330
1F
100
AcDbEntity
  8
shade
100
AcDb2dPolyline
 66
     1
 10
0.0
 20
0.0
 30
0.0
  0
VERTEX
  5
11D2
330
11D1
100
AcDbEntity
  8
shade
100
AcDbVertex
100
AcDb2dVertex
 10
269.230497878922
 20
132.235765746124
 30
0.0
  0
VERTEX
  5
11D3
330
11D1
100
AcDbEntity
  8
shade
100
AcDbVertex
100
AcDb2dVertex
 10
268.94956781522
 20
130.65086844183
 30
0.0
  0
VERTEX
  5
11D4
330
11D1
100
AcDbEntity
  8
shade
100
AcDbVertex
100
AcDb2dVertex
 10
268.679433736317
 20
130.65086844183
 30
0.0
  0
VERTEX
  5
11D5
330
11D1
100
AcDbEntity
  8
shade
100
AcDbVertex
100
AcDb2dVertex
 10
267.759442048056
 20
132.235765746124
 30
0.0
  0
SEQEND
  5
11D6
330
11D1
100
AcDbEntity
  8
shade
  0
LINE
  5
11D7
330
1F
100
AcDbEntity
  8
shade
100
AcDbLine
 10
268.875652345232
 20
162.426936537132
 30
0.0
 11
268.70854914753
 21
164.618580955697
 31
0.0
  0
LINE
  5
11D8
330
1F
100
AcDbEntity
  8
shade
100
AcDbLine
 10
268.484984265335
 20
162.426936537132
 30
0.0
 11
268.25204294212
 21
164.618580955697
 31
0.0
  0
LINE
  5
11D9
330
1F
100
AcDbEntity
  8
shade
100
AcDbLine
 10
268.119451634378
 20
162.426936537132
 30
0.0
 11
267.857164655863
 21
164.618580955697
 31
0.0
  0
LINE
  5
11DA
330
1F
100
AcDbEntity
  8
shade
100
AcDbLine
 10
267.745879647933
 20
162.426936537132
 30
0.0
 11
267.471551042803
 21
164.618580955697
 31
0.0
  0
LINE
  5
11DB
330
1F
100
AcDbEntity
  8
shade
100
AcDbLine
 10
267.463586038277
 20
162.426936537132
 30
0.0
 11
267.175447371861
 21
164.618580955697
 31
0.0
  0
LINE
  5
11DC
330
1F
100
AcDbEntity
  8
shade
100
AcDbLine
 10
267.213673462156
 20
162.426936537132
 30
0.0
 11
266.83846778161
 21
164.618580955697
 31
0.0
  0
LINE
  5
11DD
330
1F
100
AcDbEntity
  8
shade
100
AcDbLine
 10
267.05402356691
 20
162.426936537132
 30
0.0
 11
266.501724432448
 21
164.618580955697
 31
0.0
  0
LINE
  5
11DE
330
1F
100
AcDbEntity
  8
shade
100
AcDbLine
 10
266.877412005488
 20
162.426936537132
 30
0.0
 11
266.123507385288
 21
164.618580955697
 31
0.0
  0
LINE
  5
11DF
330
1F
100
AcDbEntity
  8
shade
100
AcDbLine
 10
266.924331407092
 20
165.210868873433
 30
0.0
 11
265.844404476757
 21
164.618580955697
 31
0.0
  0
LINE
  5
11E0
330
1F
100
AcDbEntity
  8
shade
100
AcDbLine
 10
265.844404476757
 20
164.618580955697
 30
0.0
 11
266.714854943908
 21
162.426936537132
 31
0.0
  0
LINE
  5
11E1
330
1F
100
AcDbEntity
  8
shade
100
AcDbLine
 10
268.898624466216
 20
165.210868873433
 30
0.0
 11
268.70854914753
 21
164.618580955697
 31
0.0
  0
LINE
  5
11E2
330
1F
100
AcDbEntity
  8
shade
100
AcDbLine
 10
268.70854914753
 20
164.618580955697
 30
0.0
 11
268.639624207404
 21
165.210868873433
 31
0.0
  0
LINE
  5
11E3
330
1F
100
AcDbEntity
  8
shade
100
AcDbLine
 10
268.639624207404
 20
165.210868873433
 30
0.0
 11
268.25204294212
 21
164.618580955697
 31
0.0
  0
LINE
  5
11E4
330
1F
100
AcDbEntity
  8
shade
100
AcDbLine
 10
268.25204294212
 20
164.618580955697
 30
0.0
 11
268.347316353073
 21
165.210868873433
 31
0.0
  0
LINE
  5
11E5
330
1F
100
AcDbEntity
  8
shade
100
AcDbLine
 10
268.347316353073
 20
165.210868873433
 30
0.0
 11
267.857164655863
 21
164.618580955697
 31
0.0
  0
LINE
  5
11E6
330
1F
100
AcDbEntity
  8
shade
100
AcDbLine
 10
267.857164655863
 20
164.618580955697
 30
0.0
 11
268.105323785141
 21
165.210868873433
 31
0.0
  0
LINE
  5
11E7
330
1F
100
AcDbEntity
  8
shade
100
AcDbLine
 10
268.105323785141
 20
165.210868873433
 30
0.0
 11
267.471551042803
 21
164.618580955697
 31
0.0
  0
LINE
  5
11E8
330
1F
100
AcDbEntity
  8
shade
100
AcDbLine
 10
267.471551042803
 20
164.618580955697
 30
0.0
 11
267.865727183227
 21
165.210868873433
 31
0.0
  0
LINE
  5
11E9
330
1F
100
AcDbEntity
  8
shade
100
AcDbLine
 10
267.865727183227
 20
165.210868873433
 30
0.0
 11
267.175447371861
 21
164.618580955697
 31
0.0
  0
LINE
  5
11EA
330
1F
100
AcDbEntity
  8
shade
100
AcDbLine
 10
267.175447371861
 20
164.618580955697
 30
0.0
 11
267.664466037619
 21
165.210868873433
 31
0.0
  0
LINE
  5
11EB
330
1F
100
AcDbEntity
  8
shade
100
AcDbLine
 10
267.664466037619
 20
165.210868873433
 30
0.0
 11
266.83846778161
 21
164.618580955697
 31
0.0
  0
LINE
  5
11EC
330
1F
100
AcDbEntity
  8
shade
100
AcDbLine
 10
266.83846778161
 20
164.618580955697
 30
0.0
 11
267.454305589654
 21
165.210868873433
 31
0.0
  0
LINE
  5
11ED
330
1F
100
AcDbEntity
  8
shade
100
AcDbLine
 10
267.454305589654
 20
165.210868873433
 30
0.0
 11
266.501724432448
 21
164.618580955697
 31
0.0
  0
LINE
  5
11EE
330
1F
100
AcDbEntity
  8
shade
100
AcDbLine
 10
266.501724432448
 20
164.618580955697
 30
0.0
 11
267.214708987744
 21
165.210868873433
 31
0.0
  0
LINE
  5
11EF
330
1F
100
AcDbEntity
  8
shade
100
AcDbLine
 10
267.214708987744
 20
165.210868873433
 30
0.0
 11
266.123507385288
 21
164.618580955697
 31
0.0
  0
LINE
  5
11F0
330
1F
100
AcDbEntity
  8
shade
100
AcDbLine
 10
266.123507385288
 20
164.618580955697
 30
0.0
 11
266.99589074554
 21
165.210868873433
 31
0.0
  0
LINE
  5
11F1
330
1F
100
AcDbEntity
  8
shade
100
AcDbLine
 10
262.382338611795
 20
132.235765746124
 30
0.0
 11
257.45658434504
 21
137.406794272252
 31
0.0
  0
LINE
  5
11F2
330
1F
100
AcDbEntity
  8
shade
100
AcDbLine
 10
269.230497878922
 20
130.65086844183
 30
0.0
 11
268.679433736317
 21
130.65086844183
 31
0.0
  0
LINE
  5
11F3
330
1F
100
AcDbEntity
  8
shade
100
AcDbLine
 10
262.382338611795
 20
132.235765746124
 30
0.0
 11
267.790497878923
 21
130.65086844183
 31
0.0
  0
LINE
  5
11F4
330
1F
100
AcDbEntity
  8
shade
100
AcDbLine
 10
268.898624466216
 20
130.65086844183
 30
0.0
 11
268.679433736317
 21
130.65086844183
 31
0.0
  0
LINE
  5
11F5
330
1F
100
AcDbEntity
  8
shade
100
AcDbLine
 10
268.898624466216
 20
130.65086844183
 30
0.0
 11
267.790497878923
 21
130.65086844183
 31
0.0
  0
LINE
  5
11F6
330
1F
100
AcDbEntity
  8
shade
100
AcDbLine
 10
268.679433736317
 20
130.65086844183
 30
0.0
 11
266.647447846532
 21
132.235765746124
 31
0.0
  0
LINE
  5
11F7
330
1F
100
AcDbEntity
  8
shade
100
AcDbLine
 10
266.647447846532
 20
132.235765746124
 30
0.0
 11
268.430476743375
 21
130.65086844183
 31
0.0
  0
LINE
  5
11F8
330
1F
100
AcDbEntity
  8
shade
100
AcDbLine
 10
268.430476743375
 20
130.65086844183
 30
0.0
 11
265.577051290486
 21
132.235765746124
 31
0.0
  0
LINE
  5
11F9
330
1F
100
AcDbEntity
  8
shade
100
AcDbLine
 10
265.577051290486
 20
132.235765746124
 30
0.0
 11
268.212264114016
 21
130.65086844183
 31
0.0
  0
LINE
  5
11FA
330
1F
100
AcDbEntity
  8
shade
100
AcDbLine
 10
268.212264114016
 20
130.65086844183
 30
0.0
 11
264.564661840723
 21
132.235765746124
 31
0.0
  0
LINE
  5
11FB
330
1F
100
AcDbEntity
  8
shade
100
AcDbLine
 10
264.564661840723
 20
132.235765746124
 30
0.0
 11
268.033181637205
 21
130.65086844183
 31
0.0
  0
LINE
  5
11FC
330
1F
100
AcDbEntity
  8
shade
100
AcDbLine
 10
268.033181637205
 20
130.65086844183
 30
0.0
 11
263.801250506036
 21
132.235765746124
 31
0.0
  0
LINE
  5
11FD
330
1F
100
AcDbEntity
  8
shade
100
AcDbLine
 10
263.801250506036
 20
132.235765746124
 30
0.0
 11
267.900111352108
 21
130.65086844183
 31
0.0
  0
LINE
  5
11FE
330
1F
100
AcDbEntity
  8
shade
100
AcDbLine
 10
267.900111352108
 20
130.65086844183
 30
0.0
 11
263.129137899745
 21
132.235765746124
 31
0.0
  0
LINE
  5
11FF
330
1F
100
AcDbEntity
  8
shade
100
AcDbLine
 10
263.129137899745
 20
132.235765746124
 30
0.0
 11
267.818167075144
 21
130.65086844183
 31
0.0
  0
LINE
  5
1200
330
1F
100
AcDbEntity
  8
shade
100
AcDbLine
 10
267.818167075144
 20
130.65086844183
 30
0.0
 11
262.556562516569
 21
132.235009959965
 31
0.0
  0
LINE
  5
1201
330
1F
100
AcDbEntity
  8
shade
100
AcDbLine
 10
267.790497878923
 20
130.65086844183
 30
0.0
 11
262.556562516569
 21
132.235009959965
 31
0.0
  0
LINE
  5
1202
330
1F
100
AcDbEntity
  8
shade
100
AcDbLine
 10
266.924331407092
 20
165.210868873433
 30
0.0
 11
269.230497878922
 21
165.210868873433
 31
0.0
  0
LINE
  5
1203
330
1F
100
AcDbEntity
  8
shade
100
AcDbLine
 10
268.898624466216
 20
165.210868873433
 30
0.0
 11
269.230497878922
 21
164.618580955697
 31
0.0
  0
ARC
  5
1204
330
1F
100
AcDbEntity
  8
shade
100
AcDbCircle
 10
266.686497878924
 20
162.330936537132
 30
0.0
 40
0.096
100
AcDbArc
 50
90.0
 51
270.0
  0
LINE
  5
1205
330
1F
100
AcDbEntity
  8
shade
100
AcDbLine
 10
265.844404476757
 20
164.618580955697
 30
0.0
 11
266.99589074554
 21
165.210868873433
 31
0.0
  0
LINE
  5
1206
330
1F
100
AcDbEntity
  8
shade
100
AcDbLine
 10
262.382338611795
 20
132.235765746124
 30
0.0
 11
257.45658434504
 21
137.406794272252
 31
0.0
  0
LINE
  5
1207
330
1F
100
AcDbEntity
  8
shade
100
AcDbLine
 10
261.953235772395
 20
144.433735054346
 30
0.0
 11
263.845942173779
 21
151.389305687271
 31
0.0
  0
LINE
  5
1208
330
1F
100
AcDbEntity
  8
shade
100
AcDbLine
 10
269.230497878922
 20
156.631704362565
 30
0.0
 11
267.947095100819
 21
151.389305687271
 31
0.0
  0
LINE
  5
1209
330
1F
100
AcDbEntity
  8
shade
100
AcDbLine
 10
267.947095100819
 20
151.389305687271
 30
0.0
 11
269.230497878922
 21
144.433735054346
 31
0.0
  0
LINE
  5
120A
330
1F
100
AcDbEntity
  8
shade
100
AcDbLine
 10
257.954473046557
 20
151.389305687271
 30
0.0
 11
262.556562516569
 21
156.632460148723
 31
0.0
  0
LINE
  5
120B
330
1F
100
AcDbEntity
  8
shade
100
AcDbLine
 10
262.556562516569
 20
156.632460148723
 30
0.0
 11
258.597942985172
 21
151.395858876655
 31
0.0
  0
LINE
  5
120C
330
1F
100
AcDbEntity
  8
shade
100
AcDbLine
 10
263.845942173779
 20
151.389305687271
 30
0.0
 11
265.577051290486
 21
156.631704362565
 31
0.0
  0
LINE
  5
120D
330
1F
100
AcDbEntity
  8
shade
100
AcDbLine
 10
265.577051290486
 20
156.631704362565
 30
0.0
 11
262.186358187824
 21
151.389305687271
 31
0.0
  0
LINE
  5
120E
330
1F
100
AcDbEntity
  8
shade
100
AcDbLine
 10
262.186358187824
 20
151.389305687271
 30
0.0
 11
264.564661840723
 21
156.631704362565
 31
0.0
  0
LINE
  5
120F
330
1F
100
AcDbEntity
  8
shade
100
AcDbLine
 10
264.564661840723
 20
156.631704362565
 30
0.0
 11
260.74252822348
 21
151.389305687271
 31
0.0
  0
LINE
  5
1210
330
1F
100
AcDbEntity
  8
shade
100
AcDbLine
 10
260.74252822348
 20
151.389305687271
 30
0.0
 11
263.801250506036
 21
156.631704362565
 31
0.0
  0
LINE
  5
1211
330
1F
100
AcDbEntity
  8
shade
100
AcDbLine
 10
263.801250506036
 20
156.631704362565
 30
0.0
 11
259.539370350853
 21
151.389305687271
 31
0.0
  0
LINE
  5
1212
330
1F
100
AcDbEntity
  8
shade
100
AcDbLine
 10
259.539370350853
 20
151.389305687271
 30
0.0
 11
263.129137899745
 21
156.631704362565
 31
0.0
  0
LINE
  5
1213
330
1F
100
AcDbEntity
  8
shade
100
AcDbLine
 10
263.129137899745
 20
156.631704362565
 30
0.0
 11
258.597942985172
 21
151.395858876655
 31
0.0
  0
LINE
  5
1214
330
1F
100
AcDbEntity
  8
shade
100
AcDbLine
 10
260.052979694727
 20
144.433735054346
 30
0.0
 11
260.74252822348
 21
151.389305687271
 31
0.0
  0
LINE
  5
1215
330
1F
100
AcDbEntity
  8
shade
100
AcDbLine
 10
260.74252822348
 20
151.389305687271
 30
0.0
 11
258.509544978624
 21
144.433735054346
 31
0.0
  0
LINE
  5
1216
330
1F
100
AcDbEntity
  8
shade
100
AcDbLine
 10
258.509544978624
 20
144.433735054346
 30
0.0
 11
259.539370350853
 21
151.389305687271
 31
0.0
  0
LINE
  5
1217
330
1F
100
AcDbEntity
  8
shade
100
AcDbLine
 10
259.539370350853
 20
151.389305687271
 30
0.0
 11
257.389379811022
 21
144.433735054346
 31
0.0
  0
LINE
  5
1218
330
1F
100
AcDbEntity
  8
shade
100
AcDbLine
 10
257.389379811022
 20
144.433735054346
 30
0.0
 11
258.597942985172
 21
151.395858876655
 31
0.0
  0
LINE
  5
1219
330
1F
100
AcDbEntity
  8
shade
100
AcDbLine
 10
258.597942985172
 20
151.395858876655
 30
0.0
 11
256.53466974794
 21
144.433735054346
 31
0.0
  0
LINE
  5
121A
330
1F
100
AcDbEntity
  8
shade
100
AcDbLine
 10
256.53466974794
 20
144.433735054346
 30
0.0
 11
257.954473046557
 21
151.389305687271
 31
0.0
  0
LINE
  5
121B
330
1F
100
AcDbEntity
  8
shade
100
AcDbLine
 10
257.954473046557
 20
151.389305687271
 30
0.0
 11
255.904019729842
 21
144.433735054346
 31
0.0
  0
LINE
  5
121C
330
1F
100
AcDbEntity
  8
shade
100
AcDbLine
 10
255.904019729842
 20
144.433735054346
 30
0.0
 11
257.45658434504
 21
151.389305687271
 31
0.0
  0
LINE
  5
121D
330
1F
100
AcDbEntity
  8
shade
100
AcDbLine
 10
260.052979694727
 20
144.433735054346
 30
0.0
 11
262.186358187824
 21
151.389305687271
 31
0.0
  0
LINE
  5
121E
330
1F
100
AcDbEntity
  8
shade
100
AcDbLine
 10
262.186358187824
 20
151.389305687271
 30
0.0
 11
261.953235772395
 21
144.433735054346
 31
0.0
  0
LINE
  5
121F
330
1F
100
AcDbEntity
  8
shade
100
AcDbLine
 10
265.775998013873
 20
151.389305687271
 30
0.0
 11
266.647447846532
 21
156.631704362565
 31
0.0
  0
LINE
  5
1220
330
1F
100
AcDbEntity
  8
shade
100
AcDbLine
 10
266.647447846532
 20
156.631704362565
 30
0.0
 11
263.845942173779
 21
151.389305687271
 31
0.0
  0
LINE
  5
1221
330
1F
100
AcDbEntity
  8
shade
100
AcDbLine
 10
263.845942173779
 20
151.389305687271
 30
0.0
 11
263.919804979705
 21
144.433735054346
 31
0.0
  0
LINE
  5
1222
330
1F
100
AcDbEntity
  8
shade
100
AcDbLine
 10
263.919804979705
 20
144.433735054346
 30
0.0
 11
265.775998013873
 21
151.389305687271
 31
0.0
  0
LINE
  5
1223
330
1F
100
AcDbEntity
  8
shade
100
AcDbLine
 10
267.947095100819
 20
151.389305687271
 30
0.0
 11
266.41704803715
 21
144.433735054346
 31
0.0
  0
LINE
  5
1224
330
1F
100
AcDbEntity
  8
shade
100
AcDbLine
 10
266.41704803715
 20
144.433735054346
 30
0.0
 11
265.775998013873
 21
151.389305687271
 31
0.0
  0
LINE
  5
1225
330
1F
100
AcDbEntity
  8
shade
100
AcDbLine
 10
265.775998013873
 20
151.389305687271
 30
0.0
 11
267.759442048056
 21
156.631704362565
 31
0.0
  0
LINE
  5
1226
330
1F
100
AcDbEntity
  8
shade
100
AcDbLine
 10
267.759442048056
 20
156.631704362565
 30
0.0
 11
267.947095100819
 21
151.389305687271
 31
0.0
  0
LINE
  5
1227
330
1F
100
AcDbEntity
  8
shade
100
AcDbLine
 10
267.759442048056
 20
132.235765746124
 30
0.0
 11
267.947095100819
 21
137.478164421419
 31
0.0
  0
LINE
  5
1228
330
1F
100
AcDbEntity
  8
shade
100
AcDbLine
 10
265.775998013873
 20
137.478164421419
 30
0.0
 11
267.759442048056
 21
132.235765746124
 31
0.0
  0
LINE
  5
1229
330
1F
100
AcDbEntity
  8
shade
100
AcDbLine
 10
266.41704803715
 20
144.433735054346
 30
0.0
 11
265.775998013873
 21
137.478164421419
 31
0.0
  0
LINE
  5
122A
330
1F
100
AcDbEntity
  8
shade
100
AcDbLine
 10
267.947095100819
 20
137.478164421419
 30
0.0
 11
266.41704803715
 21
144.433735054346
 31
0.0
  0
LINE
  5
122B
330
1F
100
AcDbEntity
  8
shade
100
AcDbLine
 10
263.919804979705
 20
144.433735054346
 30
0.0
 11
265.775998013873
 21
137.478164421419
 31
0.0
  0
LINE
  5
122C
330
1F
100
AcDbEntity
  8
shade
100
AcDbLine
 10
263.845942173779
 20
137.478164421419
 30
0.0
 11
263.919804979705
 21
144.433735054346
 31
0.0
  0
LINE
  5
122D
330
1F
100
AcDbEntity
  8
shade
100
AcDbLine
 10
266.647447846532
 20
132.235765746124
 30
0.0
 11
263.845942173779
 21
137.478164421419
 31
0.0
  0
LINE
  5
122E
330
1F
100
AcDbEntity
  8
shade
100
AcDbLine
 10
265.775998013873
 20
137.478164421419
 30
0.0
 11
266.647447846532
 21
132.235765746124
 31
0.0
  0
LINE
  5
122F
330
1F
100
AcDbEntity
  8
shade
100
AcDbLine
 10
262.186358187824
 20
137.478164421419
 30
0.0
 11
261.953235772395
 21
144.433735054346
 31
0.0
  0
LINE
  5
1230
330
1F
100
AcDbEntity
  8
shade
100
AcDbLine
 10
260.052979694727
 20
144.433735054346
 30
0.0
 11
262.186358187824
 21
137.478164421419
 31
0.0
  0
LINE
  5
1231
330
1F
100
AcDbEntity
  8
shade
100
AcDbLine
 10
257.954473046557
 20
137.478164421419
 30
0.0
 11
255.904019729842
 21
144.433735054346
 31
0.0
  0
LINE
  5
1232
330
1F
100
AcDbEntity
  8
shade
100
AcDbLine
 10
256.53466974794
 20
144.433735054346
 30
0.0
 11
257.954473046557
 21
137.478164421419
 31
0.0
  0
LINE
  5
1233
330
1F
100
AcDbEntity
  8
shade
100
AcDbLine
 10
258.597942985172
 20
137.471611232035
 30
0.0
 11
256.53466974794
 21
144.433735054346
 31
0.0
  0
LINE
  5
1234
330
1F
100
AcDbEntity
  8
shade
100
AcDbLine
 10
257.389379811022
 20
144.433735054346
 30
0.0
 11
258.597942985172
 21
137.471611232035
 31
0.0
  0
LINE
  5
1235
330
1F
100
AcDbEntity
  8
shade
100
AcDbLine
 10
259.539370350853
 20
137.478164421419
 30
0.0
 11
257.389379811022
 21
144.433735054346
 31
0.0
  0
LINE
  5
1236
330
1F
100
AcDbEntity
  8
shade
100
AcDbLine
 10
258.509544978624
 20
144.433735054346
 30
0.0
 11
259.539370350853
 21
137.478164421419
 31
0.0
  0
LINE
  5
1237
330
1F
100
AcDbEntity
  8
shade
100
AcDbLine
 10
260.74252822348
 20
137.478164421419
 30
0.0
 11
258.509544978624
 21
144.433735054346
 31
0.0
  0
LINE
  5
1238
330
1F
100
AcDbEntity
  8
shade
100
AcDbLine
 10
260.052979694727
 20
144.433735054346
 30
0.0
 11
260.74252822348
 21
137.478164421419
 31
0.0
  0
LINE
  5
1239
330
1F
100
AcDbEntity
  8
shade
100
AcDbLine
 10
263.129137899745
 20
132.235765746124
 30
0.0
 11
258.597942985172
 21
137.471611232035
 31
0.0
  0
LINE
  5
123A
330
1F
100
AcDbEntity
  8
shade
100
AcDbLine
 10
259.539370350853
 20
137.478164421419
 30
0.0
 11
263.129137899745
 21
132.235765746124
 31
0.0
  0
LINE
  5
123B
330
1F
100
AcDbEntity
  8
shade
100
AcDbLine
 10
263.801250506036
 20
132.235765746124
 30
0.0
 11
259.539370350853
 21
137.478164421419
 31
0.0
  0
LINE
  5
123C
330
1F
100
AcDbEntity
  8
shade
100
AcDbLine
 10
260.74252822348
 20
137.478164421419
 30
0.0
 11
263.801250506036
 21
132.235765746124
 31
0.0
  0
LINE
  5
123D
330
1F
100
AcDbEntity
  8
shade
100
AcDbLine
 10
264.564661840723
 20
132.235765746124
 30
0.0
 11
260.74252822348
 21
137.478164421419
 31
0.0
  0
LINE
  5
123E
330
1F
100
AcDbEntity
  8
shade
100
AcDbLine
 10
262.186358187824
 20
137.478164421419
 30
0.0
 11
264.564661840723
 21
132.235765746124
 31
0.0
  0
LINE
  5
123F
330
1F
100
AcDbEntity
  8
shade
100
AcDbLine
 10
265.577051290486
 20
132.235765746124
 30
0.0
 11
262.186358187824
 21
137.478164421419
 31
0.0
  0
LINE
  5
1240
330
1F
100
AcDbEntity
  8
shade
100
AcDbLine
 10
263.845942173779
 20
137.478164421419
 30
0.0
 11
265.577051290486
 21
132.235765746124
 31
0.0
  0
LINE
  5
1241
330
1F
100
AcDbEntity
  8
shade
100
AcDbLine
 10
262.556562516569
 20
132.235009959965
 30
0.0
 11
258.597942985172
 21
137.471611232035
 31
0.0
  0
LINE
  5
1242
330
1F
100
AcDbEntity
  8
shade
100
AcDbLine
 10
257.954473046557
 20
137.478164421419
 30
0.0
 11
262.556562516569
 21
132.235009959965
 31
0.0
  0
LINE
  5
1243
330
1F
100
AcDbEntity
  8
shade
100
AcDbLine
 10
267.947095100819
 20
137.478164421419
 30
0.0
 11
269.230497878922
 21
144.433735054346
 31
0.0
  0
LINE
  5
1244
330
1F
100
AcDbEntity
  8
shade
100
AcDbLine
 10
269.230497878922
 20
132.235765746124
 30
0.0
 11
267.947095100819
 21
137.478164421419
 31
0.0
  0
LINE
  5
1245
330
1F
100
AcDbEntity
  8
shade
100
AcDbLine
 10
261.953235772395
 20
144.433735054346
 30
0.0
 11
263.845942173779
 21
137.478164421419
 31
0.0
  0
LINE
  5
1246
330
1F
100
AcDbEntity
  8
shade
100
AcDbLine
 10
262.382338611795
 20
132.235765746124
 30
0.0
 11
257.954473046557
 21
137.478164421419
 31
0.0
  0
LINE
  5
1247
330
1F
100
AcDbEntity
  8
shade
100
AcDbLine
 10
276.078657146048
 20
132.235765746124
 30
0.0
 11
280.506522711286
 21
137.478164421419
 31
0.0
  0
LINE
  5
1248
330
1F
100
AcDbEntity
  8
shade
100
AcDbLine
 10
276.507759985452
 20
144.433735054346
 30
0.0
 11
274.615053584068
 21
137.478164421419
 31
0.0
  0
LINE
  5
1249
330
1F
100
AcDbEntity
  8
shade
100
AcDbLine
 10
269.230497878922
 20
132.235765746124
 30
0.0
 11
270.513900657024
 21
137.478164421419
 31
0.0
  0
LINE
  5
124A
330
1F
100
AcDbEntity
  8
shade
100
AcDbLine
 10
270.513900657024
 20
137.478164421419
 30
0.0
 11
269.230497878922
 21
144.433735054346
 31
0.0
  0
LINE
  5
124B
330
1F
100
AcDbEntity
  8
shade
100
AcDbLine
 10
280.506522711286
 20
137.478164421419
 30
0.0
 11
275.904433241274
 21
132.235009959965
 31
0.0
  0
LINE
  5
124C
330
1F
100
AcDbEntity
  8
shade
100
AcDbLine
 10
275.904433241274
 20
132.235009959965
 30
0.0
 11
279.863052772675
 21
137.471611232035
 31
0.0
  0
LINE
  5
124D
330
1F
100
AcDbEntity
  8
shade
100
AcDbLine
 10
274.615053584068
 20
137.478164421419
 30
0.0
 11
272.883944467358
 21
132.235765746124
 31
0.0
  0
LINE
  5
124E
330
1F
100
AcDbEntity
  8
shade
100
AcDbLine
 10
272.883944467358
 20
132.235765746124
 30
0.0
 11
276.274637570023
 21
137.478164421419
 31
0.0
  0
LINE
  5
124F
330
1F
100
AcDbEntity
  8
shade
100
AcDbLine
 10
276.274637570023
 20
137.478164421419
 30
0.0
 11
273.896333917124
 21
132.235765746124
 31
0.0
  0
LINE
  5
1250
330
1F
100
AcDbEntity
  8
shade
100
AcDbLine
 10
273.896333917124
 20
132.235765746124
 30
0.0
 11
277.718467534363
 21
137.478164421419
 31
0.0
  0
LINE
  5
1251
330
1F
100
AcDbEntity
  8
shade
100
AcDbLine
 10
277.718467534363
 20
137.478164421419
 30
0.0
 11
274.659745251807
 21
132.235765746124
 31
0.0
  0
LINE
  5
1252
330
1F
100
AcDbEntity
  8
shade
100
AcDbLine
 10
274.659745251807
 20
132.235765746124
 30
0.0
 11
278.921625406994
 21
137.478164421419
 31
0.0
  0
LINE
  5
1253
330
1F
100
AcDbEntity
  8
shade
100
AcDbLine
 10
278.921625406994
 20
137.478164421419
 30
0.0
 11
275.331857858098
 21
132.235765746124
 31
0.0
  0
LINE
  5
1254
330
1F
100
AcDbEntity
  8
shade
100
AcDbLine
 10
275.331857858098
 20
132.235765746124
 30
0.0
 11
279.863052772675
 21
137.471611232035
 31
0.0
  0
LINE
  5
1255
330
1F
100
AcDbEntity
  8
shade
100
AcDbLine
 10
278.40801606312
 20
144.433735054346
 30
0.0
 11
277.718467534363
 21
137.478164421419
 31
0.0
  0
LINE
  5
1256
330
1F
100
AcDbEntity
  8
shade
100
AcDbLine
 10
277.718467534363
 20
137.478164421419
 30
0.0
 11
279.951450779223
 21
144.433735054346
 31
0.0
  0
LINE
  5
1257
330
1F
100
AcDbEntity
  8
shade
100
AcDbLine
 10
279.951450779223
 20
144.433735054346
 30
0.0
 11
278.921625406994
 21
137.478164421419
 31
0.0
  0
LINE
  5
1258
330
1F
100
AcDbEntity
  8
shade
100
AcDbLine
 10
278.921625406994
 20
137.478164421419
 30
0.0
 11
281.071615946825
 21
144.433735054346
 31
0.0
  0
LINE
  5
1259
330
1F
100
AcDbEntity
  8
shade
100
AcDbLine
 10
281.071615946825
 20
144.433735054346
 30
0.0
 11
279.863052772675
 21
137.471611232035
 31
0.0
  0
LINE
  5
125A
330
1F
100
AcDbEntity
  8
shade
100
AcDbLine
 10
279.863052772675
 20
137.471611232035
 30
0.0
 11
281.926326009903
 21
144.433735054346
 31
0.0
  0
LINE
  5
125B
330
1F
100
AcDbEntity
  8
shade
100
AcDbLine
 10
281.926326009903
 20
144.433735054346
 30
0.0
 11
280.506522711286
 21
137.478164421419
 31
0.0
  0
LINE
  5
125C
330
1F
100
AcDbEntity
  8
shade
100
AcDbLine
 10
280.506522711286
 20
137.478164421419
 30
0.0
 11
282.556976028005
 21
144.433735054346
 31
0.0
  0
LINE
  5
125D
330
1F
100
AcDbEntity
  8
shade
100
AcDbLine
 10
278.40801606312
 20
144.433735054346
 30
0.0
 11
276.274637570023
 21
137.478164421419
 31
0.0
  0
LINE
  5
125E
330
1F
100
AcDbEntity
  8
shade
100
AcDbLine
 10
276.274637570023
 20
137.478164421419
 30
0.0
 11
276.507759985452
 21
144.433735054346
 31
0.0
  0
LINE
  5
125F
330
1F
100
AcDbEntity
  8
shade
100
AcDbLine
 10
272.684997743971
 20
137.478164421419
 30
0.0
 11
271.813547911312
 21
132.235765746124
 31
0.0
  0
LINE
  5
1260
330
1F
100
AcDbEntity
  8
shade
100
AcDbLine
 10
271.813547911312
 20
132.235765746124
 30
0.0
 11
274.615053584068
 21
137.478164421419
 31
0.0
  0
LINE
  5
1261
330
1F
100
AcDbEntity
  8
shade
100
AcDbLine
 10
274.615053584068
 20
137.478164421419
 30
0.0
 11
274.541190778138
 21
144.433735054346
 31
0.0
  0
LINE
  5
1262
330
1F
100
AcDbEntity
  8
shade
100
AcDbLine
 10
274.541190778138
 20
144.433735054346
 30
0.0
 11
272.684997743971
 21
137.478164421419
 31
0.0
  0
LINE
  5
1263
330
1F
100
AcDbEntity
  8
shade
100
AcDbLine
 10
270.513900657024
 20
137.478164421419
 30
0.0
 11
272.043947720696
 21
144.433735054346
 31
0.0
  0
LINE
  5
1264
330
1F
100
AcDbEntity
  8
shade
100
AcDbLine
 10
272.043947720696
 20
144.433735054346
 30
0.0
 11
272.684997743971
 21
137.478164421419
 31
0.0
  0
LINE
  5
1265
330
1F
100
AcDbEntity
  8
shade
100
AcDbLine
 10
272.684997743971
 20
137.478164421419
 30
0.0
 11
270.701553709787
 21
132.235765746124
 31
0.0
  0
LINE
  5
1266
330
1F
100
AcDbEntity
  8
shade
100
AcDbLine
 10
270.701553709787
 20
132.235765746124
 30
0.0
 11
270.513900657024
 21
137.478164421419
 31
0.0
  0
LINE
  5
1267
330
1F
100
AcDbEntity
  8
shade
100
AcDbLine
 10
270.701553709787
 20
156.631704362565
 30
0.0
 11
270.513900657024
 21
151.389305687271
 31
0.0
  0
LINE
  5
1268
330
1F
100
AcDbEntity
  8
shade
100
AcDbLine
 10
272.684997743971
 20
151.389305687271
 30
0.0
 11
270.701553709787
 21
156.631704362565
 31
0.0
  0
LINE
  5
1269
330
1F
100
AcDbEntity
  8
shade
100
AcDbLine
 10
272.043947720696
 20
144.433735054346
 30
0.0
 11
272.684997743971
 21
151.389305687271
 31
0.0
  0
LINE
  5
126A
330
1F
100
AcDbEntity
  8
shade
100
AcDbLine
 10
270.513900657024
 20
151.389305687271
 30
0.0
 11
272.043947720696
 21
144.433735054346
 31
0.0
  0
LINE
  5
126B
330
1F
100
AcDbEntity
  8
shade
100
AcDbLine
 10
274.541190778138
 20
144.433735054346
 30
0.0
 11
272.684997743971
 21
151.389305687271
 31
0.0
  0
LINE
  5
126C
330
1F
100
AcDbEntity
  8
shade
100
AcDbLine
 10
274.615053584068
 20
151.389305687271
 30
0.0
 11
274.541190778138
 21
144.433735054346
 31
0.0
  0
LINE
  5
126D
330
1F
100
AcDbEntity
  8
shade
100
AcDbLine
 10
271.813547911312
 20
156.631704362565
 30
0.0
 11
274.615053584068
 21
151.389305687271
 31
0.0
  0
LINE
  5
126E
330
1F
100
AcDbEntity
  8
shade
100
AcDbLine
 10
272.684997743971
 20
151.389305687271
 30
0.0
 11
271.813547911312
 21
156.631704362565
 31
0.0
  0
LINE
  5
126F
330
1F
100
AcDbEntity
  8
shade
100
AcDbLine
 10
276.274637570023
 20
151.389305687271
 30
0.0
 11
276.507759985452
 21
144.433735054346
 31
0.0
  0
LINE
  5
1270
330
1F
100
AcDbEntity
  8
shade
100
AcDbLine
 10
278.40801606312
 20
144.433735054346
 30
0.0
 11
276.274637570023
 21
151.389305687271
 31
0.0
  0
LINE
  5
1271
330
1F
100
AcDbEntity
  8
shade
100
AcDbLine
 10
282.556976028005
 20
144.433735054346
 30
0.0
 11
281.004411412803
 21
151.389305687271
 31
0.0
  0
LINE
  5
1272
330
1F
100
AcDbEntity
  8
shade
100
AcDbLine
 10
280.506522711286
 20
151.389305687271
 30
0.0
 11
282.556976028005
 21
144.433735054346
 31
0.0
  0
LINE
  5
1273
330
1F
100
AcDbEntity
  8
shade
100
AcDbLine
 10
281.926326009903
 20
144.433735054346
 30
0.0
 11
280.506522711286
 21
151.389305687271
 31
0.0
  0
LINE
  5
1274
330
1F
100
AcDbEntity
  8
shade
100
AcDbLine
 10
279.863052772675
 20
151.395858876655
 30
0.0
 11
281.926326009903
 21
144.433735054346
 31
0.0
  0
LINE
  5
1275
330
1F
100
AcDbEntity
  8
shade
100
AcDbLine
 10
281.071615946825
 20
144.433735054346
 30
0.0
 11
279.863052772675
 21
151.395858876655
 31
0.0
  0
LINE
  5
1276
330
1F
100
AcDbEntity
  8
shade
100
AcDbLine
 10
278.921625406994
 20
151.389305687271
 30
0.0
 11
281.071615946825
 21
144.433735054346
 31
0.0
  0
LINE
  5
1277
330
1F
100
AcDbEntity
  8
shade
100
AcDbLine
 10
279.951450779223
 20
144.433735054346
 30
0.0
 11
278.921625406994
 21
151.389305687271
 31
0.0
  0
LINE
  5
1278
330
1F
100
AcDbEntity
  8
shade
100
AcDbLine
 10
277.718467534363
 20
151.389305687271
 30
0.0
 11
279.951450779223
 21
144.433735054346
 31
0.0
  0
LINE
  5
1279
330
1F
100
AcDbEntity
  8
shade
100
AcDbLine
 10
278.40801606312
 20
144.433735054346
 30
0.0
 11
277.718467534363
 21
151.389305687271
 31
0.0
  0
LINE
  5
127A
330
1F
100
AcDbEntity
  8
shade
100
AcDbLine
 10
275.331857858098
 20
156.631704362565
 30
0.0
 11
279.863052772675
 21
151.395858876655
 31
0.0
  0
LINE
  5
127B
330
1F
100
AcDbEntity
  8
shade
100
AcDbLine
 10
278.921625406994
 20
151.389305687271
 30
0.0
 11
275.331857858098
 21
156.631704362565
 31
0.0
  0
LINE
  5
127C
330
1F
100
AcDbEntity
  8
shade
100
AcDbLine
 10
274.659745251807
 20
156.631704362565
 30
0.0
 11
278.921625406994
 21
151.389305687271
 31
0.0
  0
LINE
  5
127D
330
1F
100
AcDbEntity
  8
shade
100
AcDbLine
 10
277.718467534363
 20
151.389305687271
 30
0.0
 11
274.659745251807
 21
156.631704362565
 31
0.0
  0
LINE
  5
127E
330
1F
100
AcDbEntity
  8
shade
100
AcDbLine
 10
273.896333917124
 20
156.631704362565
 30
0.0
 11
277.718467534363
 21
151.389305687271
 31
0.0
  0
LINE
  5
127F
330
1F
100
AcDbEntity
  8
shade
100
AcDbLine
 10
276.274637570023
 20
151.389305687271
 30
0.0
 11
273.896333917124
 21
156.631704362565
 31
0.0
  0
LINE
  5
1280
330
1F
100
AcDbEntity
  8
shade
100
AcDbLine
 10
272.883944467358
 20
156.631704362565
 30
0.0
 11
276.274637570023
 21
151.389305687271
 31
0.0
  0
LINE
  5
1281
330
1F
100
AcDbEntity
  8
shade
100
AcDbLine
 10
274.615053584068
 20
151.389305687271
 30
0.0
 11
272.883944467358
 21
156.631704362565
 31
0.0
  0
LINE
  5
1282
330
1F
100
AcDbEntity
  8
shade
100
AcDbLine
 10
275.904433241274
 20
156.632460148723
 30
0.0
 11
279.863052772675
 21
151.395858876655
 31
0.0
  0
LINE
  5
1283
330
1F
100
AcDbEntity
  8
shade
100
AcDbLine
 10
280.506522711286
 20
151.389305687271
 30
0.0
 11
275.904433241274
 21
156.632460148723
 31
0.0
  0
LINE
  5
1284
330
1F
100
AcDbEntity
  8
shade
100
AcDbLine
 10
270.513900657024
 20
151.389305687271
 30
0.0
 11
269.230497878922
 21
144.433735054346
 31
0.0
  0
LINE
  5
1285
330
1F
100
AcDbEntity
  8
shade
100
AcDbLine
 10
269.230497878922
 20
156.631704362565
 30
0.0
 11
270.513900657024
 21
151.389305687271
 31
0.0
  0
LINE
  5
1286
330
1F
100
AcDbEntity
  8
shade
100
AcDbLine
 10
276.507759985452
 20
144.433735054346
 30
0.0
 11
274.615053584068
 21
151.389305687271
 31
0.0
  0
LINE
  5
1287
330
1F
100
AcDbEntity
  8
shade
100
AcDbLine
 10
276.078657146048
 20
132.235765746124
 30
0.0
 11
281.004411412803
 21
137.406794272252
 31
0.0
  0
LINE
  5
1288
330
1F
100
AcDbEntity
  8
shade
100
AcDbLine
 10
272.616591281087
 20
164.618580955697
 30
0.0
 11
271.465105012307
 21
165.210868873433
 31
0.0
  0
ARC
  5
1289
330
1F
100
AcDbEntity
  8
shade
100
AcDbCircle
 10
271.774497878923
 20
162.330936537132
 30
0.0
 40
0.096
100
AcDbArc
 50
270.0
 51
90.0
  0
LINE
  5
128A
330
1F
100
AcDbEntity
  8
shade
100
AcDbLine
 10
269.562371291631
 20
165.210868873433
 30
0.0
 11
269.230497878922
 21
164.618580955697
 31
0.0
  0
LINE
  5
128B
330
1F
100
AcDbEntity
  8
shade
100
AcDbLine
 10
271.536664350751
 20
165.210868873433
 30
0.0
 11
269.230497878922
 21
165.210868873433
 31
0.0
  0
LINE
  5
128C
330
1F
100
AcDbEntity
  8
shade
100
AcDbLine
 10
270.67049787892
 20
130.65086844183
 30
0.0
 11
275.904433241274
 21
132.235009959965
 31
0.0
  0
LINE
  5
128D
330
1F
100
AcDbEntity
  8
shade
100
AcDbLine
 10
270.642828682703
 20
130.65086844183
 30
0.0
 11
275.904433241274
 21
132.235009959965
 31
0.0
  0
LINE
  5
128E
330
1F
100
AcDbEntity
  8
shade
100
AcDbLine
 10
275.331857858098
 20
132.235765746124
 30
0.0
 11
270.642828682703
 21
130.65086844183
 31
0.0
  0
LINE
  5
128F
330
1F
100
AcDbEntity
  8
shade
100
AcDbLine
 10
270.560884405739
 20
130.65086844183
 30
0.0
 11
275.331857858098
 21
132.235765746124
 31
0.0
  0
LINE
  5
1290
330
1F
100
AcDbEntity
  8
shade
100
AcDbLine
 10
274.659745251807
 20
132.235765746124
 30
0.0
 11
270.560884405739
 21
130.65086844183
 31
0.0
  0
LINE
  5
1291
330
1F
100
AcDbEntity
  8
shade
100
AcDbLine
 10
270.427814120638
 20
130.65086844183
 30
0.0
 11
274.659745251807
 21
132.235765746124
 31
0.0
  0
LINE
  5
1292
330
1F
100
AcDbEntity
  8
shade
100
AcDbLine
 10
273.896333917124
 20
132.235765746124
 30
0.0
 11
270.427814120638
 21
130.65086844183
 31
0.0
  0
LINE
  5
1293
330
1F
100
AcDbEntity
  8
shade
100
AcDbLine
 10
270.248731643831
 20
130.65086844183
 30
0.0
 11
273.896333917124
 21
132.235765746124
 31
0.0
  0
LINE
  5
1294
330
1F
100
AcDbEntity
  8
shade
100
AcDbLine
 10
272.883944467358
 20
132.235765746124
 30
0.0
 11
270.248731643831
 21
130.65086844183
 31
0.0
  0
LINE
  5
1295
330
1F
100
AcDbEntity
  8
shade
100
AcDbLine
 10
270.030519014472
 20
130.65086844183
 30
0.0
 11
272.883944467358
 21
132.235765746124
 31
0.0
  0
LINE
  5
1296
330
1F
100
AcDbEntity
  8
shade
100
AcDbLine
 10
271.813547911312
 20
132.235765746124
 30
0.0
 11
270.030519014472
 21
130.65086844183
 31
0.0
  0
LINE
  5
1297
330
1F
100
AcDbEntity
  8
shade
100
AcDbLine
 10
269.781562021526
 20
130.65086844183
 30
0.0
 11
271.813547911312
 21
132.235765746124
 31
0.0
  0
LINE
  5
1298
330
1F
100
AcDbEntity
  8
shade
100
AcDbLine
 10
269.562371291631
 20
130.65086844183
 30
0.0
 11
270.67049787892
 21
130.65086844183
 31
0.0
  0
LINE
  5
1299
330
1F
100
AcDbEntity
  8
shade
100
AcDbLine
 10
269.562371291631
 20
130.65086844183
 30
0.0
 11
269.781562021526
 21
130.65086844183
 31
0.0
  0
LINE
  5
129A
330
1F
100
AcDbEntity
  8
shade
100
AcDbLine
 10
276.078657146048
 20
132.235765746124
 30
0.0
 11
270.67049787892
 21
130.65086844183
 31
0.0
  0
LINE
  5
129B
330
1F
100
AcDbEntity
  8
shade
100
AcDbLine
 10
269.230497878922
 20
130.65086844183
 30
0.0
 11
269.781562021526
 21
130.65086844183
 31
0.0
  0
LINE
  5
129C
330
1F
100
AcDbEntity
  8
shade
100
AcDbLine
 10
276.078657146048
 20
132.235765746124
 30
0.0
 11
281.004411412803
 21
137.406794272252
 31
0.0
  0
LINE
  5
129D
330
1F
100
AcDbEntity
  8
shade
100
AcDbLine
 10
272.337488372556
 20
164.618580955697
 30
0.0
 11
271.465105012307
 21
165.210868873433
 31
0.0
  0
LINE
  5
129E
330
1F
100
AcDbEntity
  8
shade
100
AcDbLine
 10
271.246286770103
 20
165.210868873433
 30
0.0
 11
272.337488372556
 21
164.618580955697
 31
0.0
  0
LINE
  5
129F
330
1F
100
AcDbEntity
  8
shade
100
AcDbLine
 10
271.959271325399
 20
164.618580955697
 30
0.0
 11
271.246286770103
 21
165.210868873433
 31
0.0
  0
LINE
  5
12A0
330
1F
100
AcDbEntity
  8
shade
100
AcDbLine
 10
271.006690168189
 20
165.210868873433
 30
0.0
 11
271.959271325399
 21
164.618580955697
 31
0.0
  0
LINE
  5
12A1
330
1F
100
AcDbEntity
  8
shade
100
AcDbLine
 10
271.622527976233
 20
164.618580955697
 30
0.0
 11
271.006690168189
 21
165.210868873433
 31
0.0
  0
LINE
  5
12A2
330
1F
100
AcDbEntity
  8
shade
100
AcDbLine
 10
270.796529720224
 20
165.210868873433
 30
0.0
 11
271.622527976233
 21
164.618580955697
 31
0.0
  0
LINE
  5
12A3
330
1F
100
AcDbEntity
  8
shade
100
AcDbLine
 10
271.285548385986
 20
164.618580955697
 30
0.0
 11
270.796529720224
 21
165.210868873433
 31
0.0
  0
LINE
  5
12A4
330
1F
100
AcDbEntity
  8
shade
100
AcDbLine
 10
270.595268574616
 20
165.210868873433
 30
0.0
 11
271.285548385986
 21
164.618580955697
 31
0.0
  0
LINE
  5
12A5
330
1F
100
AcDbEntity
  8
shade
100
AcDbLine
 10
270.989444715044
 20
164.618580955697
 30
0.0
 11
270.595268574616
 21
165.210868873433
 31
0.0
  0
LINE
  5
12A6
330
1F
100
AcDbEntity
  8
shade
100
AcDbLine
 10
270.355671972706
 20
165.210868873433
 30
0.0
 11
270.989444715044
 21
164.618580955697
 31
0.0
  0
LINE
  5
12A7
330
1F
100
AcDbEntity
  8
shade
100
AcDbLine
 10
270.60383110198
 20
164.618580955697
 30
0.0
 11
270.355671972706
 21
165.210868873433
 31
0.0
  0
LINE
  5
12A8
330
1F
100
AcDbEntity
  8
shade
100
AcDbLine
 10
270.113679404774
 20
165.210868873433
 30
0.0
 11
270.60383110198
 21
164.618580955697
 31
0.0
  0
LINE
  5
12A9
330
1F
100
AcDbEntity
  8
shade
100
AcDbLine
 10
270.208952815723
 20
164.618580955697
 30
0.0
 11
270.113679404774
 21
165.210868873433
 31
0.0
  0
LINE
  5
12AA
330
1F
100
AcDbEntity
  8
shade
100
AcDbLine
 10
269.821371550439
 20
165.210868873433
 30
0.0
 11
270.208952815723
 21
164.618580955697
 31
0.0
  0
LINE
  5
12AB
330
1F
100
AcDbEntity
  8
shade
100
AcDbLine
 10
269.752446610313
 20
164.618580955697
 30
0.0
 11
269.821371550439
 21
165.210868873433
 31
0.0
  0
LINE
  5
12AC
330
1F
100
AcDbEntity
  8
shade
100
AcDbLine
 10
269.562371291631
 20
165.210868873433
 30
0.0
 11
269.752446610313
 21
164.618580955697
 31
0.0
  0
LINE
  5
12AD
330
1F
100
AcDbEntity
  8
shade
100
AcDbLine
 10
272.616591281087
 20
164.618580955697
 30
0.0
 11
271.746140813939
 21
162.426936537132
 31
0.0
  0
LINE
  5
12AE
330
1F
100
AcDbEntity
  8
shade
100
AcDbLine
 10
271.536664350751
 20
165.210868873433
 30
0.0
 11
272.616591281087
 21
164.618580955697
 31
0.0
  0
LINE
  5
12AF
330
1F
100
AcDbEntity
  8
shade
100
AcDbLine
 10
271.583583752355
 20
162.426936537132
 30
0.0
 11
272.337488372556
 21
164.618580955697
 31
0.0
  0
LINE
  5
12B0
330
1F
100
AcDbEntity
  8
shade
100
AcDbLine
 10
271.406972190936
 20
162.426936537132
 30
0.0
 11
271.959271325399
 21
164.618580955697
 31
0.0
  0
LINE
  5
12B1
330
1F
100
AcDbEntity
  8
shade
100
AcDbLine
 10
271.247322295687
 20
162.426936537132
 30
0.0
 11
271.622527976233
 21
164.618580955697
 31
0.0
  0
LINE
  5
12B2
330
1F
100
AcDbEntity
  8
shade
100
AcDbLine
 10
270.997409719566
 20
162.426936537132
 30
0.0
 11
271.285548385986
 21
164.618580955697
 31
0.0
  0
LINE
  5
12B3
330
1F
100
AcDbEntity
  8
shade
100
AcDbLine
 10
270.71511610991
 20
162.426936537132
 30
0.0
 11
270.989444715044
 21
164.618580955697
 31
0.0
  0
LINE
  5
12B4
330
1F
100
AcDbEntity
  8
shade
100
AcDbLine
 10
270.341544123465
 20
162.426936537132
 30
0.0
 11
270.60383110198
 21
164.618580955697
 31
0.0
  0
LINE
  5
12B5
330
1F
100
AcDbEntity
  8
shade
100
AcDbLine
 10
269.976011492508
 20
162.426936537132
 30
0.0
 11
270.208952815723
 21
164.618580955697
 31
0.0
  0
LINE
  5
12B6
330
1F
100
AcDbEntity
  8
shade
100
AcDbLine
 10
269.585343412615
 20
162.426936537132
 30
0.0
 11
269.752446610313
 21
164.618580955697
 31
0.0
  0
POLYLINE
  5
12B7
330
1F
100
AcDbEntity
  8
shade
100
AcDb2dPolyline
 66
     1
 10
0.0
 20
0.0
 30
0.0
  0
VERTEX
  5
12B8
330
12B7
100
AcDbEntity
  8
shade
100
AcDbVertex
100
AcDb2dVertex
 10
269.230497878922
 20
132.235765746124
 30
0.0
  0
VERTEX
  5
12B9
330
12B7
100
AcDbEntity
  8
shade
100
AcDbVertex
100
AcDb2dVertex
 10
269.511427942623
 20
130.65086844183
 30
0.0
  0
VERTEX
  5
12BA
330
12B7
100
AcDbEntity
  8
shade
100
AcDbVertex
100
AcDb2dVertex
 10
269.781562021526
 20
130.65086844183
 30
0.0
  0
VERTEX
  5
12BB
330
12B7
100
AcDbEntity
  8
shade
100
AcDbVertex
100
AcDb2dVertex
 10
270.701553709787
 20
132.235765746124
 30
0.0
  0
SEQEND
  5
12BC
330
12B7
100
AcDbEntity
  8
shade
  0
LINE
  5
12BD
330
1F
100
AcDbEntity
  8
shade
100
AcDbLine
 10
270.701553709787
 20
132.235765746124
 30
0.0
 11
269.511427942623
 21
130.65086844183
 31
0.0
  0
LINE
  5
12BE
330
1F
100
AcDbEntity
  8
shade
100
AcDbLine
 10
271.693934947809
 20
162.22950723122
 30
0.0
 11
272.035202752471
 21
158.092078844996
 31
0.0
  0
POLYLINE
  5
12BF
330
1F
100
AcDbEntity
  8
shade
100
AcDb2dPolyline
 66
     1
 10
0.0
 20
0.0
 30
0.0
  0
VERTEX
  5
12C0
330
12BF
100
AcDbEntity
  8
shade
100
AcDbVertex
100
AcDb2dVertex
 10
271.388445668272
 20
162.22950723122
 30
0.0
  0
VERTEX
  5
12C1
330
12BF
100
AcDbEntity
  8
shade
100
AcDbVertex
100
AcDb2dVertex
 10
272.035202752471
 20
158.092078844996
 30
0.0
  0
VERTEX
  5
12C2
330
12BF
100
AcDbEntity
  8
shade
100
AcDbVertex
100
AcDb2dVertex
 10
271.54528948227
 20
162.22950723122
 30
0.0
  0
SEQEND
  5
12C3
330
12BF
100
AcDbEntity
  8
shade
  0
LINE
  5
12C4
330
1F
100
AcDbEntity
  8
shade
100
AcDbLine
 10
271.23943625384
 20
162.22950723122
 30
0.0
 11
271.960516070812
 21
158.092078844996
 31
0.0
  0
LINE
  5
12C5
330
1F
100
AcDbEntity
  8
shade
100
AcDbLine
 10
271.744762049202
 20
158.092078844996
 30
0.0
 11
271.007151136153
 21
162.22950723122
 31
0.0
  0
LINE
  5
12C6
330
1F
100
AcDbEntity
  8
shade
100
AcDbLine
 10
270.715888162435
 20
162.22950723122
 30
0.0
 11
271.271791417788
 21
158.092078844996
 31
0.0
  0
LINE
  5
12C7
330
1F
100
AcDbEntity
  8
shade
100
AcDbLine
 10
270.790582291651
 20
158.092078844996
 30
0.0
 11
270.341929562066
 21
162.22950723122
 31
0.0
  0
LINE
  5
12C8
330
1F
100
AcDbEntity
  8
shade
100
AcDbLine
 10
270.292626061491
 20
158.092078844996
 30
0.0
 11
269.976087701365
 21
162.22950723122
 31
0.0
  0
LINE
  5
12C9
330
1F
100
AcDbEntity
  8
shade
100
AcDbLine
 10
269.585651453421
 20
162.22950723122
 30
0.0
 11
269.794804888621
 21
158.092078844996
 31
0.0
  0
POLYLINE
  5
12CA
330
1F
100
AcDbEntity
  8
shade
100
AcDb2dPolyline
 66
     1
 10
0.0
 20
0.0
 30
0.0
  0
VERTEX
  5
12CB
330
12CA
100
AcDbEntity
  8
shade
100
AcDbVertex
100
AcDb2dVertex
 10
275.904433241274
 20
156.632460148723
 30
0.0
  0
VERTEX
  5
12CC
330
12CA
100
AcDbEntity
  8
shade
100
AcDbVertex
100
AcDb2dVertex
 10
272.035202752471
 20
158.092078844996
 30
0.0
  0
VERTEX
  5
12CD
330
12CA
100
AcDbEntity
  8
shade
100
AcDbVertex
100
AcDb2dVertex
 10
276.078657146048
 20
156.631704362565
 30
0.0
  0
SEQEND
  5
12CE
330
12CA
100
AcDbEntity
  8
shade
  0
LINE
  5
12CF
330
1F
100
AcDbEntity
  8
shade
100
AcDbLine
 10
275.331857858098
 20
156.631704362565
 30
0.0
 11
271.960516070812
 21
158.092078844996
 31
0.0
  0
LINE
  5
12D0
330
1F
100
AcDbEntity
  8
shade
100
AcDbLine
 10
274.659745251807
 20
156.631704362565
 30
0.0
 11
271.744762049202
 21
158.092078844996
 31
0.0
  0
LINE
  5
12D1
330
1F
100
AcDbEntity
  8
shade
100
AcDbLine
 10
273.896333917124
 20
156.631704362565
 30
0.0
 11
271.271791417788
 21
158.092078844996
 31
0.0
  0
LINE
  5
12D2
330
1F
100
AcDbEntity
  8
shade
100
AcDbLine
 10
272.883944467358
 20
156.631704362565
 30
0.0
 11
270.790582291651
 21
158.092078844996
 31
0.0
  0
LINE
  5
12D3
330
1F
100
AcDbEntity
  8
shade
100
AcDbLine
 10
271.813547911312
 20
156.631704362565
 30
0.0
 11
270.292626061491
 21
158.092078844996
 31
0.0
  0
LINE
  5
12D4
330
1F
100
AcDbEntity
  8
shade
100
AcDbLine
 10
270.701553709787
 20
156.631704362565
 30
0.0
 11
269.786431336608
 21
158.092078844996
 31
0.0
  0
LINE
  5
12D5
330
1F
100
AcDbEntity
  8
shade
100
AcDbLine
 10
276.078657146048
 20
156.631704362565
 30
0.0
 11
280.506522711286
 21
151.389305687271
 31
0.0
  0
LINE
  5
12D6
330
1F
100
AcDbEntity
  8
shade
100
AcDbLine
 10
281.004411412803
 20
151.389305687271
 30
0.0
 11
276.078657146048
 21
156.631704362565
 31
0.0
  0
LINE
  5
12D7
330
1F
100
AcDbEntity
  8
shade
100
AcDbLine
 10
281.004411412803
 20
137.406794272252
 30
0.0
 11
282.556976028005
 21
144.433735054346
 31
0.0
  0
LINE
  5
12D8
330
1F
100
AcDbEntity
  8
shade
100
AcDbLine
 10
271.774497878923
 20
162.234936537133
 30
0.0
 11
269.230497878922
 21
162.234936537133
 31
0.0
  0
LINE
  5
12D9
330
1F
100
AcDbEntity
  8
shade
100
AcDbLine
 10
271.774497878923
 20
162.426936537132
 30
0.0
 11
269.230497878922
 21
162.426936537132
 31
0.0
  0
ARC
  5
12DA
330
1F
100
AcDbEntity
  8
shade
100
AcDbCircle
 10
271.774497878923
 20
162.330936537132
 30
0.0
 40
0.096
100
AcDbArc
 50
270.0
 51
90.0
  0
LINE
  5
12DB
330
1F
100
AcDbEntity
  8
shade
100
AcDbLine
 10
269.230497878922
 20
164.618580955697
 30
0.0
 11
269.230497878922
 21
162.426936537132
 31
0.0
  0
LINE
  5
12DC
330
1F
100
AcDbEntity
  8
shade
100
AcDbLine
 10
269.230497878922
 20
162.234936537133
 30
0.0
 11
269.230497878922
 21
156.631704362565
 31
0.0
  0
LWPOLYLINE
  5
12DD
330
1F
100
AcDbEntity
  8
shade
100
AcDbPolyline
 90
        4
 70
     0
 43
0.0
 10
269.230497878922
 20
197.034931450066
 10
265.342497878923
 20
197.034931450066
 42
0.217047275996
 10
268.884897878921
 20
189.258931450066
 10
269.230497878922
 20
189.258931450066
  0
LWPOLYLINE
  5
12DE
330
1F
100
AcDbEntity
  8
shade
100
AcDbPolyline
 90
        4
 70
     0
 43
0.0
 10
269.230497878922
 20
197.034931450066
 10
273.118497878921
 20
197.034931450066
 42
-0.217047275996
 10
269.576097878922
 20
189.258931450066
 10
269.230497878922
 20
189.258931450066
  0
LINE
  5
12DF
330
1F
100
AcDbEntity
  8
shade
100
AcDbLine
 10
268.993663187208
 20
178.352094903618
 30
0.0
 11
268.993663187208
 21
189.258931450066
 31
0.0
  0
LINE
  5
12E0
330
1F
100
AcDbEntity
  8
shade
100
AcDbLine
 10
268.993663187208
 20
171.082524995599
 30
0.0
 11
268.993663187208
 21
177.944960496468
 31
0.0
  0
LINE
  5
12E1
330
1F
100
AcDbEntity
  8
shade
100
AcDbLine
 10
268.993663187208
 20
165.210868873433
 30
0.0
 11
268.993663187208
 21
170.88339613012
 31
0.0
  0
TEXT
  5
12E2
330
1F
100
AcDbEntity
  8
text
  6
Continuous
100
AcDbText
 10
226.695709672025
 20
106.772175151576
 30
0.0
 40
2.5
  1
E26 LED電球(60W形相当　電球色　全方向/広配光タイプ）（別売）
 41
0.842190404457
  7
新規スタイル1
 72
     5
 11
310.83053107727
 21
106.772175151576
 31
0.0
100
AcDbText
  0
VIEWPORT
  5
92
330
23
100
AcDbEntity
 67
     1
  8
0
100
AcDbViewport
 10
202.5
 20
168.661532219742
 30
0.0
 40
556.786421052632
 41
394.549064439485
 68
     2
 69
     1
 12
202.5
 22
168.661532219742
 13
0.0
 23
0.0
 14
10.0
 24
10.0
 15
10.0
 25
10.0
 16
0.0
 26
0.0
 36
1.0
 17
0.0
 27
0.0
 37
0.0
 42
50.0
 43
0.0
 44
0.0
 45
394.549064439485
 50
0.0
 51
0.0
 72
   100
 90
    32800
  1

281
     0
 71
     1
 74
     0
110
0.0
120
0.0
130
0.0
111
1.0
121
0.0
131
0.0
112
0.0
122
1.0
132
0.0
 79
     0
146
0.0
170
     0
 61
     5
348
E93
292
     1
282
     1
141
0.0
142
0.0
 63
   250
421
  3355443
  0
VIEWPORT
  5
94
330
23
100
AcDbEntity
 67
     1
  8
0
100
AcDbViewport
 10
202.5
 20
128.5
 30
0.0
 40
324.0
 41
205.6
 68
     1
 69
     2
 12
210.0
 22
148.5
 13
0.0
 23
0.0
 14
10.0
 24
10.0
 15
10.0
 25
10.0
 16
0.0
 26
0.0
 36
1.0
 17
0.0
 27
0.0
 37
0.0
 42
50.0
 43
0.0
 44
0.0
 45
302.335329341317
 50
0.0
 51
0.0
 72
   100
 90
    32864
  1

281
     0
 71
     1
 74
     0
110
0.0
120
0.0
130
0.0
111
1.0
121
0.0
131
0.0
112
0.0
122
1.0
132
0.0
 79
     0
146
0.0
170
     0
 61
     5
348
E93
292
     1
282
     1
141
0.0
142
0.0
 63
   250
421
  3355443
  0
ENDSEC
  0
SECTION
  2
OBJECTS
  0
DICTIONARY
  5
C
330
0
100
AcDbDictionary
281
     1
  3
ACAD_COLOR
350
C8E
  3
ACAD_DETAILVIEWSTYLE
350
12E6
  3
ACAD_GROUP
350
D
  3
ACAD_LAYOUT
350
1A
  3
ACAD_MATERIAL
350
C8D
  3
ACAD_MLEADERSTYLE
350
E8C
  3
ACAD_MLINESTYLE
350
17
  3
ACAD_PLOTSETTINGS
350
19
  3
ACAD_PLOTSTYLENAME
350
E
  3
ACAD_SCALELIST
350
E62
  3
ACAD_SECTIONVIEWSTYLE
350
12E7
  3
ACAD_TABLESTYLE
350
E87
  3
ACAD_VISUALSTYLE
350
E8E
  3
ACDB_RECOMPOSE_DATA
350
131C
  3
AcDbVariableDictionary
350
4A4
  0
SUN
  5
E8A
330
E61
100
AcDbSun
 90
        1
290
     0
 63
     7
421
 16777215
 40
1.0
291
     1
 91
  2455461
 92
 54000000
292
     0
 70
     2
 71
   256
280
     1
  0
DICTIONARY
  5
101F
330
2
100
AcDbDictionary
280
     1
281
     1
  3
ACAD_LAYERSTATES
360
1020
  0
DICTIONARY
  5
C8E
102
{ACAD_REACTORS
330
C
102
}
330
C
100
AcDbDictionary
281
     1
  0
DICTIONARY
  5
12E6
102
{ACAD_REACTORS
330
C
102
}
330
C
100
AcDbDictionary
281
     1
  0
DICTIONARY
  5
D
102
{ACAD_REACTORS
330
C
102
}
330
C
100
AcDbDictionary
281
     1
  0
DICTIONARY
  5
1A
102
{ACAD_REACTORS
330
C
102
}
330
C
100
AcDbDictionary
281
     1
  3
Model
350
22
  3
ﾚｲｱｳﾄ1
350
1E
  3
ﾚｲｱｳﾄ2
350
26
  0
DICTIONARY
  5
C8D
102
{ACAD_REACTORS
330
C
102
}
330
C
100
AcDbDictionary
281
     1
  3
ByBlock
350
E85
  3
ByLayer
350
E84
  3
Global
350
E86
  0
DICTIONARY
  5
E8C
102
{ACAD_REACTORS
330
C
102
}
330
C
100
AcDbDictionary
281
     1
  3
Standard
350
EA7
  0
DICTIONARY
  5
17
102
{ACAD_REACTORS
330
C
102
}
330
C
100
AcDbDictionary
281
     1
  3
Standard
350
18
  0
DICTIONARY
  5
19
102
{ACAD_REACTORS
330
C
102
}
330
C
100
AcDbDictionary
281
     1
  0
ACDBDICTIONARYWDFLT
  5
E
102
{ACAD_REACTORS
330
C
102
}
330
C
100
AcDbDictionary
281
     1
  3
Normal
350
F
100
AcDbDictionaryWithDefault
340
F
  0
DICTIONARY
  5
E62
102
{ACAD_REACTORS
330
C
102
}
330
C
100
AcDbDictionary
281
     1
  3
A0
350
E63
  3
A1
350
E64
  3
A2
350
E65
  3
A3
350
E66
  3
A4
350
E67
  3
A5
350
E68
  3
A6
350
E69
  3
A7
350
E6A
  3
A8
350
E6B
  3
A9
350
E6C
  3
B0
350
E6D
  3
B1
350
E6E
  3
B2
350
E6F
  3
B3
350
E70
  3
B4
350
E71
  3
B5
350
E72
  3
B6
350
E73
  3
B7
350
E74
  3
B8
350
E75
  3
B9
350
E76
  3
C0
350
E77
  3
C1
350
E78
  3
C2
350
E79
  3
C3
350
E7A
  3
C4
350
E7B
  3
C5
350
E7C
  3
C6
350
E7D
  3
C7
350
E7E
  3
C8
350
E7F
  3
C9
350
E80
  3
D0
350
E81
  3
D1
350
E82
  3
D2
350
E83
  0
DICTIONARY
  5
12E7
102
{ACAD_REACTORS
330
C
102
}
330
C
100
AcDbDictionary
281
     1
  0
DICTIONARY
  5
E87
102
{ACAD_REACTORS
330
C
102
}
330
C
100
AcDbDictionary
281
     1
  3
Standard
350
E88
  0
DICTIONARY
  5
E8E
102
{ACAD_REACTORS
330
C
102
}
330
C
100
AcDbDictionary
281
     1
  3
2dWireframe
350
E93
  3
Basic
350
E96
  3
Brighten
350
E9A
  3
ColorChange
350
E9E
  3
Conceptual
350
E98
  3
Dim
350
E99
  3
EdgeColorOff
350
EA1
  3
Facepattern
350
E9D
  3
Flat
350
E8F
  3
FlatWithEdges
350
E90
  3
Gouraud
350
E91
  3
GouraudWithEdges
350
E92
  3
Hidden
350
E95
  3
JitterOff
350
E9F
  3
Linepattern
350
E9C
  3
Modeling
350
EA8
  3
OverhangOff
350
EA0
  3
Realistic
350
E97
  3
Shaded
350
EA6
  3
Shaded with edges
350
EA5
  3
Shades of Gray
350
EA2
  3
Sketchy
350
EA3
  3
Thicken
350
E9B
  3
Wireframe
350
E94
  3
X-Ray
350
EA4
  0
XRECORD
  5
131C
102
{ACAD_REACTORS
330
C
102
}
330
C
100
AcDbXrecord
280
     1
 90
        1
330
E88
  0
DICTIONARY
  5
4A4
102
{ACAD_REACTORS
330
C
102
}
330
C
100
AcDbDictionary
281
     1
  3
CANNOSCALE
350
E8B
  3
CMLEADERSTYLE
350
12E4
  3
CTABLESTYLE
350
12E3
  3
DIMASSOC
350
4A5
  3
PROJECTNAME
350
D6B
  3
XCLIPFRAME
350
12E5
  0
DICTIONARY
  5
1020
102
{ACAD_REACTORS
330
101F
102
}
330
101F
100
AcDbDictionary
281
     1
  0
LAYOUT
  5
22
102
{ACAD_REACTORS
330
1A
102
}
330
1A
100
AcDbPlotSettings
  1

  2
default.pc3
  4
A4
  6

 40
5.08
 41
5.08
 42
5.08
 43
5.08
 44
210.0
 45
297.0
 46
0.0
 47
0.0
 48
0.0
 49
0.0
140
0.0
141
0.0
142
1.0
143
2.872255699296
 70
 11952
 72
     1
 73
     0
 74
     0
  7

 75
     0
 76
     0
 77
     2
 78
   300
147
0.348158417875
148
0.0
149
0.0
100
AcDbLayout
  1
Model
 70
     1
 71
     0
 10
0.0
 20
0.0
 11
12.0
 21
9.0
 12
0.0
 22
0.0
 32
0.0
 14
171.0
 24
13.0
 34
0.0
 15
366.0
 25
295.0
 35
0.0
146
0.0
 13
0.0
 23
0.0
 33
0.0
 16
1.0
 26
0.0
 36
0.0
 17
0.0
 27
1.0
 37
0.0
 76
     0
330
1F
331
E61
  0
LAYOUT
  5
1E
102
{ACAD_REACTORS
330
1A
102
}
330
1A
100
AcDbPlotSettings
  1

  2
none_device
  4
ISO_A3_(420.00_x_297.00_MM)
  6

 40
7.5
 41
20.0
 42
7.5
 43
20.0
 44
420.0
 45
297.0
 46
0.0
 47
0.0
 48
0.0
 49
0.0
140
0.0
141
0.0
142
1.0
143
1.0
 70
   688
 72
     1
 73
     0
 74
     5
  7

 75
    16
 76
     0
 77
     2
 78
   300
147
1.0
148
0.0
149
0.0
100
AcDbLayout
  1
ﾚｲｱｳﾄ1
 70
     1
 71
     1
 10
-7.5
 20
-20.0
 11
412.5
 21
277.0
 12
0.0
 22
0.0
 32
0.0
 14
40.5
 24
25.7
 34
0.0
 15
364.5
 25
231.3
 35
0.0
146
0.0
 13
0.0
 23
0.0
 33
0.0
 16
1.0
 26
0.0
 36
0.0
 17
0.0
 27
1.0
 37
0.0
 76
     0
330
1B
331
8C
  0
LAYOUT
  5
26
102
{ACAD_REACTORS
330
1A
102
}
330
1A
100
AcDbPlotSettings
  1

  2
none_device
  4
ISO_A3_(420.00_x_297.00_MM)
  6

 40
7.5
 41
20.0
 42
7.5
 43
20.0
 44
420.0
 45
297.0
 46
0.0
 47
0.0
 48
0.0
 49
0.0
140
0.0
141
0.0
142
1.0
143
1.0
 70
   688
 72
     1
 73
     0
 74
     5
  7

 75
    16
 76
     0
 77
     2
 78
   300
147
1.0
148
0.0
149
0.0
100
AcDbLayout
  1
ﾚｲｱｳﾄ2
 70
     1
 71
     2
 10
-7.5
 20
-20.0
 11
412.5
 21
277.0
 12
0.0
 22
0.0
 32
0.0
 14
40.5
 24
25.7
 34
0.0
 15
364.5
 25
231.3
 35
0.0
146
0.0
 13
0.0
 23
0.0
 33
0.0
 16
1.0
 26
0.0
 36
0.0
 17
0.0
 27
1.0
 37
0.0
 76
     0
330
23
331
94
  0
MATERIAL
  5
E85
102
{ACAD_REACTORS
330
C8D
102
}
330
C8D
100
AcDbMaterial
  1
ByBlock
 72
     1
 94
       63
  0
MATERIAL
  5
E84
102
{ACAD_REACTORS
330
C8D
102
}
330
C8D
100
AcDbMaterial
  1
ByLayer
 72
     1
 94
       63
  0
MATERIAL
  5
E86
102
{ACAD_REACTORS
330
C8D
102
}
330
C8D
100
AcDbMaterial
  1
Global
 72
     1
 94
       63
  0
MLEADERSTYLE
  5
EA7
102
{ACAD_REACTORS
330
E8C
102
}
330
E8C
100
AcDbMLeaderStyle
179
     2
170
     2
171
     1
172
     0
 90
        2
 40
0.0
 41
0.0
173
     1
 91
-1056964608
340
14
 92
       -2
290
     1
 42
2.0
291
     1
 43
8.0
  3
Standard
341
0
 44
4.0
300

342
11
174
     1
178
     6
175
     1
176
     0
 93
-1056964608
 45
4.0
292
     0
297
     0
 46
4.0
343
0
 94
-1056964608
 47
1.0
 49
1.0
140
1.0
293
     1
141
0.0
294
     1
177
     0
142
1.0
295
     0
296
     0
143
3.75
271
     0
272
     9
273
     9
  0
MLINESTYLE
  5
18
102
{ACAD_REACTORS
330
17
102
}
330
17
100
AcDbMlineStyle
  2
STANDARD
 70
     0
  3

 62
   256
 51
90.0
 52
90.0
 71
     2
 49
0.5
 62
   256
  6
BYLAYER
 49
-0.5
 62
   256
  6
BYLAYER
  0
ACDBPLACEHOLDER
  5
F
102
{ACAD_REACTORS
330
E
102
}
330
E
  0
SCALE
  5
E63
102
{ACAD_REACTORS
330
E62
102
}
330
E62
100
AcDbScale
 70
     0
300
1:1
140
1.0
141
1.0
290
     1
  0
SCALE
  5
E64
102
{ACAD_REACTORS
330
E62
102
}
330
E62
100
AcDbScale
 70
     0
300
1:2
140
1.0
141
2.0
290
     0
  0
SCALE
  5
E65
102
{ACAD_REACTORS
330
E62
102
}
330
E62
100
AcDbScale
 70
     0
300
1:4
140
1.0
141
4.0
290
     0
  0
SCALE
  5
E66
102
{ACAD_REACTORS
330
E62
102
}
330
E62
100
AcDbScale
 70
     0
300
1:5
140
1.0
141
5.0
290
     0
  0
SCALE
  5
E67
102
{ACAD_REACTORS
330
E62
102
}
330
E62
100
AcDbScale
 70
     0
300
1:8
140
1.0
141
8.0
290
     0
  0
SCALE
  5
E68
102
{ACAD_REACTORS
330
E62
102
}
330
E62
100
AcDbScale
 70
     0
300
1:10
140
1.0
141
10.0
290
     0
  0
SCALE
  5
E69
102
{ACAD_REACTORS
330
E62
102
}
330
E62
100
AcDbScale
 70
     0
300
1:16
140
1.0
141
16.0
290
     0
  0
SCALE
  5
E6A
102
{ACAD_REACTORS
330
E62
102
}
330
E62
100
AcDbScale
 70
     0
300
1:20
140
1.0
141
20.0
290
     0
  0
SCALE
  5
E6B
102
{ACAD_REACTORS
330
E62
102
}
330
E62
100
AcDbScale
 70
     0
300
1:30
140
1.0
141
30.0
290
     0
  0
SCALE
  5
E6C
102
{ACAD_REACTORS
330
E62
102
}
330
E62
100
AcDbScale
 70
     0
300
1:40
140
1.0
141
40.0
290
     0
  0
SCALE
  5
E6D
102
{ACAD_REACTORS
330
E62
102
}
330
E62
100
AcDbScale
 70
     0
300
1:50
140
1.0
141
50.0
290
     0
  0
SCALE
  5
E6E
102
{ACAD_REACTORS
330
E62
102
}
330
E62
100
AcDbScale
 70
     0
300
1:100
140
1.0
141
100.0
290
     0
  0
SCALE
  5
E6F
102
{ACAD_REACTORS
330
E62
102
}
330
E62
100
AcDbScale
 70
     0
300
2:1
140
2.0
141
1.0
290
     0
  0
SCALE
  5
E70
102
{ACAD_REACTORS
330
E62
102
}
330
E62
100
AcDbScale
 70
     0
300
4:1
140
4.0
141
1.0
290
     0
  0
SCALE
  5
E71
102
{ACAD_REACTORS
330
E62
102
}
330
E62
100
AcDbScale
 70
     0
300
8:1
140
8.0
141
1.0
290
     0
  0
SCALE
  5
E72
102
{ACAD_REACTORS
330
E62
102
}
330
E62
100
AcDbScale
 70
     0
300
10:1
140
10.0
141
1.0
290
     0
  0
SCALE
  5
E73
102
{ACAD_REACTORS
330
E62
102
}
330
E62
100
AcDbScale
 70
     0
300
100:1
140
100.0
141
1.0
290
     0
  0
SCALE
  5
E74
102
{ACAD_REACTORS
330
E62
102
}
330
E62
100
AcDbScale
 70
     0
300
1/128" = 1'-0"
140
0.0078125
141
12.0
290
     0
  0
SCALE
  5
E75
102
{ACAD_REACTORS
330
E62
102
}
330
E62
100
AcDbScale
 70
     0
300
1/64" = 1'-0"
140
0.015625
141
12.0
290
     0
  0
SCALE
  5
E76
102
{ACAD_REACTORS
330
E62
102
}
330
E62
100
AcDbScale
 70
     0
300
1/32" = 1'-0"
140
0.03125
141
12.0
290
     0
  0
SCALE
  5
E77
102
{ACAD_REACTORS
330
E62
102
}
330
E62
100
AcDbScale
 70
     0
300
1/16" = 1'-0"
140
0.0625
141
12.0
290
     0
  0
SCALE
  5
E78
102
{ACAD_REACTORS
330
E62
102
}
330
E62
100
AcDbScale
 70
     0
300
3/32" = 1'-0"
140
0.09375
141
12.0
290
     0
  0
SCALE
  5
E79
102
{ACAD_REACTORS
330
E62
102
}
330
E62
100
AcDbScale
 70
     0
300
1/8" = 1'-0"
140
0.125
141
12.0
290
     0
  0
SCALE
  5
E7A
102
{ACAD_REACTORS
330
E62
102
}
330
E62
100
AcDbScale
 70
     0
300
3/16" = 1'-0"
140
0.1875
141
12.0
290
     0
  0
SCALE
  5
E7B
102
{ACAD_REACTORS
330
E62
102
}
330
E62
100
AcDbScale
 70
     0
300
1/4" = 1'-0"
140
0.25
141
12.0
290
     0
  0
SCALE
  5
E7C
102
{ACAD_REACTORS
330
E62
102
}
330
E62
100
AcDbScale
 70
     0
300
3/8" = 1'-0"
140
0.375
141
12.0
290
     0
  0
SCALE
  5
E7D
102
{ACAD_REACTORS
330
E62
102
}
330
E62
100
AcDbScale
 70
     0
300
1/2" = 1'-0"
140
0.5
141
12.0
290
     0
  0
SCALE
  5
E7E
102
{ACAD_REACTORS
330
E62
102
}
330
E62
100
AcDbScale
 70
     0
300
3/4" = 1'-0"
140
0.75
141
12.0
290
     0
  0
SCALE
  5
E7F
102
{ACAD_REACTORS
330
E62
102
}
330
E62
100
AcDbScale
 70
     0
300
1" = 1'-0"
140
1.0
141
12.0
290
     0
  0
SCALE
  5
E80
102
{ACAD_REACTORS
330
E62
102
}
330
E62
100
AcDbScale
 70
     0
300
1-1/2" = 1'-0"
140
1.5
141
12.0
290
     0
  0
SCALE
  5
E81
102
{ACAD_REACTORS
330
E62
102
}
330
E62
100
AcDbScale
 70
     0
300
3" = 1'-0"
140
3.0
141
12.0
290
     0
  0
SCALE
  5
E82
102
{ACAD_REACTORS
330
E62
102
}
330
E62
100
AcDbScale
 70
     0
300
6" = 1'-0"
140
6.0
141
12.0
290
     0
  0
SCALE
  5
E83
102
{ACAD_REACTORS
330
E62
102
}
330
E62
100
AcDbScale
 70
     0
300
1'-0" = 1'-0"
140
12.0
141
12.0
290
     0
  0
TABLESTYLE
  5
E88
102
{ACAD_REACTORS
330
E87
102
}
102
{ACAD_XDICTIONARY
360
12E8
102
}
330
E87
100
AcDbTableStyle
  3

 70
     0
 71
     0
 40
0.06
 41
0.06
280
     0
281
     0
  7
Standard
140
4.5
170
     2
 62
     0
 63
   257
283
     0
 90
        4
 91
        0
  1

274
    -2
284
     1
 64
     0
275
    -2
285
     1
 65
     0
276
    -2
286
     1
 66
     0
277
    -2
287
     1
 67
     0
278
    -2
288
     1
 68
     0
279
    -2
289
     1
 69
     0
  7
Standard
140
6.0
170
     5
 62
     0
 63
   257
283
     0
 90
        4
 91
        0
  1

274
    -2
284
     1
 64
     0
275
    -2
285
     1
 65
     0
276
    -2
286
     1
 66
     0
277
    -2
287
     1
 67
     0
278
    -2
288
     1
 68
     0
279
    -2
289
     1
 69
     0
  7
Standard
140
4.5
170
     5
 62
     0
 63
   257
283
     0
 90
        4
 91
        0
  1

274
    -2
284
     1
 64
     0
275
    -2
285
     1
 65
     0
276
    -2
286
     1
 66
     0
277
    -2
287
     1
 67
     0
278
    -2
288
     1
 68
     0
279
    -2
289
     1
 69
     0
  0
VISUALSTYLE
  5
E93
102
{ACAD_REACTORS
330
E8E
102
}
102
{ACAD_XDICTIONARY
360
12F2
102
}
330
E8E
100
AcDbVisualStyle
  2
2dWireframe
 70
     4
177
     2
291
     0
 71
     0
176
     1
 72
     2
176
     1
 73
     0
176
     1
 90
        0
176
     1
 40
0.6
176
     1
 41
30.0
176
     1
 62
     5
 63
     7
421
 16777215
176
     1
 74
     1
176
     1
 91
        4
176
     1
 64
     7
176
     1
 65
   257
176
     1
 75
     1
176
     1
175
     1
176
     1
 42
1.0
176
     1
 92
        0
176
     1
 66
   257
176
     1
 43
1.0
176
     1
 76
     1
176
     1
 77
     6
176
     1
 78
     2
176
     1
 67
     7
176
     1
 79
     5
176
     1
170
     0
176
     1
171
     0
176
     1
290
     0
176
     1
 93
        1
176
     1
 44
0.0
176
     1
173
     0
176
     1
  0
VISUALSTYLE
  5
E96
102
{ACAD_REACTORS
330
E8E
102
}
102
{ACAD_XDICTIONARY
360
12F8
102
}
330
E8E
100
AcDbVisualStyle
  2
Basic
 70
     7
177
     2
291
     1
 71
     1
176
     1
 72
     0
176
     1
 73
     1
176
     1
 90
        0
176
     1
 40
0.6
176
     1
 41
30.0
176
     1
 62
     5
 63
     7
421
 16777215
176
     1
 74
     0
176
     1
 91
        4
176
     1
 64
     7
176
     1
 65
   257
176
     1
 75
     1
176
     1
175
     1
176
     1
 42
1.0
176
     1
 92
        8
176
     1
 66
     7
176
     1
 43
1.0
176
     1
 76
     1
176
     1
 77
     6
176
     1
 78
     2
176
     1
 67
     7
176
     1
 79
     5
176
     1
170
     0
176
     1
171
     0
176
     1
290
     0
176
     1
 93
        1
176
     1
 44
0.0
176
     1
173
     0
176
     1
  0
VISUALSTYLE
  5
E9A
102
{ACAD_REACTORS
330
E8E
102
}
102
{ACAD_XDICTIONARY
360
1300
102
}
330
E8E
100
AcDbVisualStyle
  2
Brighten
 70
    12
177
     2
291
     1
 71
     2
176
     1
 72
     2
176
     1
 73
     0
176
     1
 90
        0
176
     1
 40
0.6
176
     1
 41
30.0
176
     1
 62
     5
 63
     7
421
 16777215
176
     1
 74
     1
176
     1
 91
        4
176
     1
 64
     7
176
     1
 65
   257
176
     1
 75
     1
176
     1
175
     1
176
     1
 42
1.0
176
     1
 92
        8
176
     1
 66
     7
176
     1
 43
1.0
176
     1
 76
     1
176
     1
 77
     6
176
     1
 78
     2
176
     1
 67
     7
176
     1
 79
     5
176
     1
170
     0
176
     1
171
     0
176
     1
290
     0
176
     1
 93
        1
176
     1
 44
50.0
176
     1
173
     0
176
     1
  0
VISUALSTYLE
  5
E9E
102
{ACAD_REACTORS
330
E8E
102
}
102
{ACAD_XDICTIONARY
360
1308
102
}
330
E8E
100
AcDbVisualStyle
  2
ColorChange
 70
    16
177
     2
291
     1
 71
     2
176
     1
 72
     2
176
     1
 73
     3
176
     1
 90
        0
176
     1
 40
0.6
176
     1
 41
30.0
176
     1
 62
     5
 63
     8
421
  8421504
176
     1
 74
     1
176
     1
 91
        4
176
     1
 64
     7
176
     1
 65
   257
176
     1
 75
     1
176
     1
175
     1
176
     1
 42
1.0
176
     1
 92
        8
176
     1
 66
     8
424
  8421504
176
     1
 43
1.0
176
     1
 76
     1
176
     1
 77
     6
176
     1
 78
     2
176
     1
 67
     7
176
     1
 79
     5
176
     1
170
     0
176
     1
171
     0
176
     1
290
     0
176
     1
 93
        1
176
     1
 44
0.0
176
     1
173
     0
176
     1
  0
VISUALSTYLE
  5
E98
102
{ACAD_REACTORS
330
E8E
102
}
102
{ACAD_XDICTIONARY
360
12FC
102
}
330
E8E
100
AcDbVisualStyle
  2
Conceptual
 70
     9
177
     2
291
     0
 71
     3
176
     1
 72
     2
176
     1
 73
     0
176
     1
 90
        0
176
     1
 40
0.6
176
     1
 41
30.0
176
     1
 62
     5
 63
     7
421
 16777215
176
     1
 74
     2
176
     1
 91
        2
176
     1
 64
     7
176
     1
 65
   257
176
     1
 75
     1
176
     1
175
     1
176
     1
 42
179.0
176
     1
 92
        8
176
     1
 66
     7
176
     1
 43
1.0
176
     1
 76
     1
176
     1
 77
     6
176
     1
 78
     2
176
     1
 67
     7
176
     1
 79
     3
176
     1
170
     0
176
     1
171
     0
176
     1
290
     0
176
     1
 93
        1
176
     1
 44
0.0
176
     1
173
     0
176
     1
  0
VISUALSTYLE
  5
E99
102
{ACAD_REACTORS
330
E8E
102
}
102
{ACAD_XDICTIONARY
360
12FE
102
}
330
E8E
100
AcDbVisualStyle
  2
Dim
 70
    11
177
     2
291
     1
 71
     2
176
     1
 72
     2
176
     1
 73
     0
176
     1
 90
        0
176
     1
 40
0.6
176
     1
 41
30.0
176
     1
 62
     5
 63
     7
421
 16777215
176
     1
 74
     1
176
     1
 91
        4
176
     1
 64
     7
176
     1
 65
   257
176
     1
 75
     1
176
     1
175
     1
176
     1
 42
1.0
176
     1
 92
        8
176
     1
 66
     7
176
     1
 43
1.0
176
     1
 76
     1
176
     1
 77
     6
176
     1
 78
     2
176
     1
 67
     7
176
     1
 79
     5
176
     1
170
     0
176
     1
171
     0
176
     1
290
     0
176
     1
 93
        1
176
     1
 44
-50.0
176
     1
173
     0
176
     1
  0
VISUALSTYLE
  5
EA1
102
{ACAD_REACTORS
330
E8E
102
}
102
{ACAD_XDICTIONARY
360
130E
102
}
330
E8E
100
AcDbVisualStyle
  2
EdgeColorOff
 70
    22
177
     2
291
     1
 71
     2
176
     0
 72
     2
176
     0
 73
     0
176
     0
 90
        0
176
     0
 40
0.6
176
     0
 41
30.0
176
     0
 62
     5
 63
     7
421
 16777215
176
     0
 74
     1
176
     0
 91
        4
176
     0
 64
     7
176
     0
 65
   257
176
     0
 75
     1
176
     0
175
     1
176
     0
 42
1.0
176
     0
 92
        8
176
     2
 66
     7
176
     0
 43
1.0
176
     0
 76
     1
176
     0
 77
     6
176
     0
 78
     2
176
     0
 67
     7
176
     0
 79
     5
176
     0
170
     0
176
     0
171
     0
176
     0
290
     0
176
     0
 93
        1
176
     0
 44
0.0
176
     0
173
     0
176
     0
  0
VISUALSTYLE
  5
E9D
102
{ACAD_REACTORS
330
E8E
102
}
102
{ACAD_XDICTIONARY
360
1306
102
}
330
E8E
100
AcDbVisualStyle
  2
Facepattern
 70
    15
177
     2
291
     1
 71
     2
176
     1
 72
     2
176
     1
 73
     0
176
     1
 90
        0
176
     1
 40
0.6
176
     1
 41
30.0
176
     1
 62
     5
 63
     7
421
 16777215
176
     1
 74
     1
176
     1
 91
        4
176
     1
 64
     7
176
     1
 65
   257
176
     1
 75
     1
176
     1
175
     1
176
     1
 42
1.0
176
     1
 92
        8
176
     1
 66
     7
176
     1
 43
1.0
176
     1
 76
     1
176
     1
 77
     6
176
     1
 78
     2
176
     1
 67
     7
176
     1
 79
     5
176
     1
170
     0
176
     1
171
     0
176
     1
290
     0
176
     1
 93
        1
176
     1
 44
0.0
176
     1
173
     0
176
     1
  0
VISUALSTYLE
  5
E8F
102
{ACAD_REACTORS
330
E8E
102
}
102
{ACAD_XDICTIONARY
360
12EA
102
}
330
E8E
100
AcDbVisualStyle
  2
Flat
 70
     0
177
     2
291
     1
 71
     2
176
     1
 72
     1
176
     1
 73
     1
176
     1
 90
        2
176
     1
 40
0.6
176
     1
 41
30.0
176
     1
 62
     5
 63
     7
421
 16777215
176
     1
 74
     0
176
     1
 91
        0
176
     1
 64
     7
176
     1
 65
   257
176
     1
 75
     1
176
     1
175
     1
176
     1
 42
1.0
176
     1
 92
        8
176
     1
 66
     7
176
     1
 43
1.0
176
     1
 76
     1
176
     1
 77
     6
176
     1
 78
     2
176
     1
 67
     7
176
     1
 79
     5
176
     1
170
     0
176
     1
171
     0
176
     1
290
     0
176
     1
 93
       13
176
     1
 44
0.0
176
     1
173
     0
176
     1
  0
VISUALSTYLE
  5
E90
102
{ACAD_REACTORS
330
E8E
102
}
102
{ACAD_XDICTIONARY
360
12EC
102
}
330
E8E
100
AcDbVisualStyle
  2
FlatWithEdges
 70
     1
177
     2
291
     1
 71
     2
176
     1
 72
     1
176
     1
 73
     1
176
     1
 90
        2
176
     1
 40
0.6
176
     1
 41
30.0
176
     1
 62
     5
 63
     7
421
 16777215
176
     1
 74
     1
176
     1
 91
        0
176
     1
 64
     7
176
     1
 65
   257
176
     1
 75
     1
176
     1
175
     1
176
     1
 42
1.0
176
     1
 92
        0
176
     1
 66
   257
176
     1
 43
1.0
176
     1
 76
     1
176
     1
 77
     6
176
     1
 78
     2
176
     1
 67
     7
176
     1
 79
     5
176
     1
170
     0
176
     1
171
     0
176
     1
290
     0
176
     1
 93
       13
176
     1
 44
0.0
176
     1
173
     0
176
     1
  0
VISUALSTYLE
  5
E91
102
{ACAD_REACTORS
330
E8E
102
}
102
{ACAD_XDICTIONARY
360
12EE
102
}
330
E8E
100
AcDbVisualStyle
  2
Gouraud
 70
     2
177
     2
291
     1
 71
     2
176
     1
 72
     2
176
     1
 73
     1
176
     1
 90
        2
176
     1
 40
0.6
176
     1
 41
30.0
176
     1
 62
     5
 63
     7
421
 16777215
176
     1
 74
     0
176
     1
 91
        0
176
     1
 64
     7
176
     1
 65
   257
176
     1
 75
     1
176
     1
175
     1
176
     1
 42
1.0
176
     1
 92
        0
176
     1
 66
     7
176
     1
 43
1.0
176
     1
 76
     1
176
     1
 77
     6
176
     1
 78
     2
176
     1
 67
     7
176
     1
 79
     5
176
     1
170
     0
176
     1
171
     0
176
     1
290
     0
176
     1
 93
       13
176
     1
 44
0.0
176
     1
173
     0
176
     1
  0
VISUALSTYLE
  5
E92
102
{ACAD_REACTORS
330
E8E
102
}
102
{ACAD_XDICTIONARY
360
12F0
102
}
330
E8E
100
AcDbVisualStyle
  2
GouraudWithEdges
 70
     3
177
     2
291
     1
 71
     2
176
     1
 72
     2
176
     1
 73
     1
176
     1
 90
        2
176
     1
 40
0.6
176
     1
 41
30.0
176
     1
 62
     5
 63
     7
421
 16777215
176
     1
 74
     1
176
     1
 91
        0
176
     1
 64
     7
176
     1
 65
   257
176
     1
 75
     1
176
     1
175
     1
176
     1
 42
1.0
176
     1
 92
        0
176
     1
 66
   257
176
     1
 43
1.0
176
     1
 76
     1
176
     1
 77
     6
176
     1
 78
     2
176
     1
 67
     7
176
     1
 79
     5
176
     1
170
     0
176
     1
171
     0
176
     1
290
     0
176
     1
 93
       13
176
     1
 44
0.0
176
     1
173
     0
176
     1
  0
VISUALSTYLE
  5
E95
102
{ACAD_REACTORS
330
E8E
102
}
102
{ACAD_XDICTIONARY
360
12F6
102
}
330
E8E
100
AcDbVisualStyle
  2
Hidden
 70
     6
177
     2
291
     0
 71
     1
176
     1
 72
     2
176
     1
 73
     2
176
     1
 90
        0
176
     1
 40
0.6
176
     1
 41
30.0
176
     1
 62
     5
 63
     7
421
 16777215
176
     1
 74
     2
176
     1
 91
        2
176
     1
 64
     7
176
     1
 65
   257
176
     1
 75
     2
176
     1
175
     1
176
     1
 42
40.0
176
     1
 92
        0
176
     1
 66
   257
176
     1
 43
1.0
176
     1
 76
     1
176
     1
 77
     6
176
     1
 78
     2
176
     1
 67
     7
176
     1
 79
     3
176
     1
170
     0
176
     1
171
     0
176
     1
290
     0
176
     1
 93
        1
176
     1
 44
0.0
176
     1
173
     0
176
     1
  0
VISUALSTYLE
  5
E9F
102
{ACAD_REACTORS
330
E8E
102
}
102
{ACAD_XDICTIONARY
360
130A
102
}
330
E8E
100
AcDbVisualStyle
  2
JitterOff
 70
    20
177
     2
291
     1
 71
     2
176
     0
 72
     2
176
     0
 73
     0
176
     0
 90
        0
176
     0
 40
0.6
176
     0
 41
30.0
176
     0
 62
     5
 63
     7
421
 16777215
176
     0
 74
     1
176
     0
 91
        4
176
     0
 64
     7
176
     0
 65
   257
176
     0
 75
     1
176
     0
175
     1
176
     0
 42
1.0
176
     0
 92
       10
176
     2
 66
     7
176
     0
 43
1.0
176
     0
 76
     1
176
     0
 77
     6
176
     0
 78
     2
176
     0
 67
     7
176
     0
 79
     5
176
     0
170
     0
176
     0
171
     0
176
     0
290
     0
176
     0
 93
        1
176
     0
 44
0.0
176
     0
173
     0
176
     0
  0
VISUALSTYLE
  5
E9C
102
{ACAD_REACTORS
330
E8E
102
}
102
{ACAD_XDICTIONARY
360
1304
102
}
330
E8E
100
AcDbVisualStyle
  2
Linepattern
 70
    14
177
     2
291
     1
 71
     2
176
     1
 72
     2
176
     1
 73
     0
176
     1
 90
        0
176
     1
 40
0.6
176
     1
 41
30.0
176
     1
 62
     5
 63
     7
421
 16777215
176
     1
 74
     1
176
     1
 91
        4
176
     1
 64
     7
176
     1
 65
   257
176
     1
 75
     7
176
     1
175
     7
176
     1
 42
1.0
176
     1
 92
        8
176
     1
 66
     7
176
     1
 43
1.0
176
     1
 76
     1
176
     1
 77
     6
176
     1
 78
     2
176
     1
 67
     7
176
     1
 79
     5
176
     1
170
     0
176
     1
171
     0
176
     1
290
     0
176
     1
 93
        1
176
     1
 44
0.0
176
     1
173
     0
176
     1
  0
VISUALSTYLE
  5
EA8
102
{ACAD_REACTORS
330
E8E
102
}
102
{ACAD_XDICTIONARY
360
131A
102
}
330
E8E
100
AcDbVisualStyle
  2
Modeling
 70
    10
177
     2
291
     0
 71
     2
176
     1
 72
     3
176
     1
 73
     0
176
     1
 90
        2
176
     1
 40
0.6
176
     1
 41
30.0
176
     1
 62
     5
 63
     7
421
 16777215
176
     1
 74
     2
176
     1
 91
        0
176
     1
 64
     7
176
     1
 65
   257
176
     1
 75
     1
176
     1
175
     1
176
     1
 42
180.0
176
     1
 92
        8
176
     1
 66
     8
424
  7895160
176
     1
 43
1.0
176
     1
 76
     1
176
     1
 77
     6
176
     1
 78
     2
176
     1
 67
     7
176
     1
 79
     5
176
     1
170
     0
176
     1
171
     0
176
     1
290
     0
176
     1
 93
       13
176
     1
 44
0.0
176
     1
173
     0
176
     1
  0
VISUALSTYLE
  5
EA0
102
{ACAD_REACTORS
330
E8E
102
}
102
{ACAD_XDICTIONARY
360
130C
102
}
330
E8E
100
AcDbVisualStyle
  2
OverhangOff
 70
    21
177
     2
291
     1
 71
     2
176
     0
 72
     2
176
     0
 73
     0
176
     0
 90
        0
176
     0
 40
0.6
176
     0
 41
30.0
176
     0
 62
     5
 63
     7
421
 16777215
176
     0
 74
     1
176
     0
 91
        4
176
     0
 64
     7
176
     0
 65
   257
176
     0
 75
     1
176
     0
175
     1
176
     0
 42
1.0
176
     0
 92
        9
176
     2
 66
     7
176
     0
 43
1.0
176
     0
 76
     1
176
     0
 77
     6
176
     0
 78
     2
176
     0
 67
     7
176
     0
 79
     5
176
     0
170
     0
176
     0
171
     0
176
     0
290
     0
176
     0
 93
        1
176
     0
 44
0.0
176
     0
173
     0
176
     0
  0
VISUALSTYLE
  5
E97
102
{ACAD_REACTORS
330
E8E
102
}
102
{ACAD_XDICTIONARY
360
12FA
102
}
330
E8E
100
AcDbVisualStyle
  2
Realistic
 70
     8
177
     2
291
     0
 71
     2
176
     1
 72
     3
176
     1
 73
     0
176
     1
 90
        2
176
     1
 40
0.6
176
     1
 41
30.0
176
     1
 62
     5
 63
     7
421
 16777215
176
     1
 74
     0
176
     1
 91
        0
176
     1
 64
     7
176
     1
 65
   257
176
     1
 75
     1
176
     1
175
     1
176
     1
 42
1.0
176
     1
 92
        8
176
     1
 66
   257
176
     1
 43
1.0
176
     1
 76
     1
176
     1
 77
     6
176
     1
 78
     2
176
     1
 67
     7
176
     1
 79
     3
176
     1
170
     0
176
     1
171
     0
176
     1
290
     0
176
     1
 93
       13
176
     1
 44
0.0
176
     1
173
     0
176
     1
  0
VISUALSTYLE
  5
EA6
102
{ACAD_REACTORS
330
E8E
102
}
102
{ACAD_XDICTIONARY
360
1318
102
}
330
E8E
100
AcDbVisualStyle
  2
Shaded
 70
    27
177
     2
291
     0
 71
     2
176
     1
 72
     2
176
     1
 73
     1
176
     1
 90
        2
176
     1
 40
0.6
176
     1
 41
30.0
176
     1
 62
     5
 63
     7
421
 16777215
176
     1
 74
     0
176
     1
 91
        4
176
     1
 64
     7
176
     1
 65
   257
176
     1
 75
     1
176
     1
175
     1
176
     1
 42
1.0
176
     1
 92
        8
176
     1
 66
   257
176
     1
 43
1.0
176
     1
 76
     1
176
     1
 77
     6
176
     1
 78
     2
176
     1
 67
     8
425
  7895160
176
     1
 79
     3
176
     1
170
     0
176
     1
171
     0
176
     1
290
     0
176
     1
 93
        5
176
     1
 44
0.0
176
     1
173
     0
176
     1
  0
VISUALSTYLE
  5
EA5
102
{ACAD_REACTORS
330
E8E
102
}
102
{ACAD_XDICTIONARY
360
1316
102
}
330
E8E
100
AcDbVisualStyle
  2
Shaded with edges
 70
    26
177
     2
291
     0
 71
     2
176
     1
 72
     2
176
     1
 73
     1
176
     1
 90
        2
176
     1
 40
0.6
176
     1
 41
30.0
176
     1
 62
     5
 63
     7
421
 16777215
176
     1
 74
     1
176
     1
 91
       10
176
     1
 64
     7
176
     1
 65
   257
176
     1
 75
     2
176
     1
175
     1
176
     1
 42
1.0
176
     1
 92
        8
176
     1
 66
   257
176
     1
 43
1.0
176
     1
 76
     1
176
     1
 77
     6
176
     1
 78
     2
176
     1
 67
     7
176
     1
 79
     3
176
     1
170
     0
176
     1
171
     0
176
     1
290
     0
176
     1
 93
        5
176
     1
 44
0.0
176
     1
173
     0
176
     1
  0
VISUALSTYLE
  5
EA2
102
{ACAD_REACTORS
330
E8E
102
}
102
{ACAD_XDICTIONARY
360
1310
102
}
330
E8E
100
AcDbVisualStyle
  2
Shades of Gray
 70
    23
177
     2
291
     0
 71
     2
176
     1
 72
     2
176
     1
 73
     3
176
     1
 90
        0
176
     1
 40
0.6
176
     1
 41
30.0
176
     1
 62
     5
 63
     7
421
 16777215
176
     1
 74
     2
176
     1
 91
        2
176
     1
 64
     7
176
     1
 65
     7
176
     1
 75
     1
176
     1
175
     1
176
     1
 42
40.0
176
     1
 92
        8
176
     1
 66
     7
176
     1
 43
1.0
176
     1
 76
     1
176
     1
 77
     6
176
     1
 78
     2
176
     1
 67
     7
176
     1
 79
     3
176
     1
170
     0
176
     1
171
     0
176
     1
290
     0
176
     1
 93
        1
176
     1
 44
0.0
176
     1
173
     0
176
     1
  0
VISUALSTYLE
  5
EA3
102
{ACAD_REACTORS
330
E8E
102
}
102
{ACAD_XDICTIONARY
360
1312
102
}
330
E8E
100
AcDbVisualStyle
  2
Sketchy
 70
    24
177
     2
291
     0
 71
     1
176
     1
 72
     2
176
     1
 73
     2
176
     1
 90
        0
176
     1
 40
0.6
176
     1
 41
30.0
176
     1
 62
     5
 63
     7
421
 16777215
176
     1
 74
     2
176
     1
 91
        2
176
     1
 64
     7
176
     1
 65
     7
176
     1
 75
     1
176
     1
175
     1
176
     1
 42
40.0
176
     1
 92
       11
176
     1
 66
     7
176
     1
 43
1.0
176
     1
 76
     1
176
     1
 77
     6
176
     1
 78
     2
176
     1
 67
     7
176
     1
 79
     6
176
     1
170
     0
176
     1
171
     0
176
     1
290
     0
176
     1
 93
        1
176
     1
 44
0.0
176
     1
173
     0
176
     1
  0
VISUALSTYLE
  5
E9B
102
{ACAD_REACTORS
330
E8E
102
}
102
{ACAD_XDICTIONARY
360
1302
102
}
330
E8E
100
AcDbVisualStyle
  2
Thicken
 70
    13
177
     2
291
     1
 71
     2
176
     1
 72
     2
176
     1
 73
     0
176
     1
 90
        0
176
     1
 40
0.6
176
     1
 41
30.0
176
     1
 62
     5
 63
     7
421
 16777215
176
     1
 74
     1
176
     1
 91
        4
176
     1
 64
     7
176
     1
 65
   257
176
     1
 75
     1
176
     1
175
     1
176
     1
 42
1.0
176
     1
 92
       12
176
     1
 66
     7
176
     1
 43
1.0
176
     1
 76
     1
176
     1
 77
     6
176
     1
 78
     2
176
     1
 67
     7
176
     1
 79
     5
176
     1
170
     0
176
     1
171
     0
176
     1
290
     0
176
     1
 93
        1
176
     1
 44
0.0
176
     1
173
     0
176
     1
  0
VISUALSTYLE
  5
E94
102
{ACAD_REACTORS
330
E8E
102
}
102
{ACAD_XDICTIONARY
360
12F4
102
}
330
E8E
100
AcDbVisualStyle
  2
Wireframe
 70
     5
177
     2
291
     0
 71
     0
176
     1
 72
     2
176
     1
 73
     0
176
     1
 90
        0
176
     1
 40
0.6
176
     1
 41
30.0
176
     1
 62
     5
 63
     7
421
 16777215
176
     1
 74
     1
176
     1
 91
        4
176
     1
 64
     7
176
     1
 65
   257
176
     1
 75
     1
176
     1
175
     1
176
     1
 42
1.0
176
     1
 92
        0
176
     1
 66
   257
176
     1
 43
1.0
176
     1
 76
     1
176
     1
 77
     6
176
     1
 78
     2
176
     1
 67
     7
176
     1
 79
     3
176
     1
170
     0
176
     1
171
     0
176
     1
290
     0
176
     1
 93
        1
176
     1
 44
0.0
176
     1
173
     0
176
     1
  0
VISUALSTYLE
  5
EA4
102
{ACAD_REACTORS
330
E8E
102
}
102
{ACAD_XDICTIONARY
360
1314
102
}
330
E8E
100
AcDbVisualStyle
  2
X-Ray
 70
    25
177
     2
291
     0
 71
     2
176
     1
 72
     2
176
     1
 73
     1
176
     1
 90
        1
176
     1
 40
0.5
176
     1
 41
30.0
176
     1
 62
     5
 63
     7
421
 16777215
176
     1
 74
     1
176
     1
 91
        0
176
     1
 64
     7
176
     1
 65
   257
176
     1
 75
     1
176
     1
175
     1
176
     1
 42
1.0
176
     1
 92
        8
176
     1
 66
     7
176
     1
 43
1.0
176
     1
 76
     1
176
     1
 77
     6
176
     1
 78
     2
176
     1
 67
     7
176
     1
 79
     3
176
     1
170
     0
176
     1
171
     0
176
     1
290
     0
176
     1
 93
       13
176
     1
 44
0.0
176
     1
173
     0
176
     1
  0
DICTIONARYVAR
  5
E8B
102
{ACAD_REACTORS
330
4A4
102
}
330
4A4
100
DictionaryVariables
280
     0
  1
1:1
  0
DICTIONARYVAR
  5
12E4
102
{ACAD_REACTORS
330
4A4
102
}
330
4A4
100
DictionaryVariables
280
     0
  1
Standard
  0
DICTIONARYVAR
  5
12E3
102
{ACAD_REACTORS
330
4A4
102
}
330
4A4
100
DictionaryVariables
280
     0
  1
Standard
  0
DICTIONARYVAR
  5
4A5
102
{ACAD_REACTORS
330
4A4
102
}
330
4A4
100
DictionaryVariables
280
     0
  1
1
  0
DICTIONARYVAR
  5
D6B
102
{ACAD_REACTORS
330
4A4
102
}
330
4A4
100
DictionaryVariables
280
     0
  1

  0
DICTIONARYVAR
  5
12E5
102
{ACAD_REACTORS
330
4A4
102
}
330
4A4
100
DictionaryVariables
280
     0
  1
0
  0
DICTIONARY
  5
12E8
330
E88
100
AcDbDictionary
280
     1
281
     1
  3
ACAD_ROUNDTRIP_2008_TABLESTYLE_CELLSTYLEMAP
360
12E9
  0
DICTIONARY
  5
12F2
330
E93
100
AcDbDictionary
280
     1
281
     1
  3
ACAD_XREC_ROUNDTRIP
360
12F3
  0
DICTIONARY
  5
12F8
330
E96
100
AcDbDictionary
280
     1
281
     1
  3
ACAD_XREC_ROUNDTRIP
360
12F9
  0
DICTIONARY
  5
1300
330
E9A
100
AcDbDictionary
280
     1
281
     1
  3
ACAD_XREC_ROUNDTRIP
360
1301
  0
DICTIONARY
  5
1308
330
E9E
100
AcDbDictionary
280
     1
281
     1
  3
ACAD_XREC_ROUNDTRIP
360
1309
  0
DICTIONARY
  5
12FC
330
E98
100
AcDbDictionary
280
     1
281
     1
  3
ACAD_XREC_ROUNDTRIP
360
12FD
  0
DICTIONARY
  5
12FE
330
E99
100
AcDbDictionary
280
     1
281
     1
  3
ACAD_XREC_ROUNDTRIP
360
12FF
  0
DICTIONARY
  5
130E
330
EA1
100
AcDbDictionary
280
     1
281
     1
  3
ACAD_XREC_ROUNDTRIP
360
130F
  0
DICTIONARY
  5
1306
330
E9D
100
AcDbDictionary
280
     1
281
     1
  3
ACAD_XREC_ROUNDTRIP
360
1307
  0
DICTIONARY
  5
12EA
330
E8F
100
AcDbDictionary
280
     1
281
     1
  3
ACAD_XREC_ROUNDTRIP
360
12EB
  0
DICTIONARY
  5
12EC
330
E90
100
AcDbDictionary
280
     1
281
     1
  3
ACAD_XREC_ROUNDTRIP
360
12ED
  0
DICTIONARY
  5
12EE
330
E91
100
AcDbDictionary
280
     1
281
     1
  3
ACAD_XREC_ROUNDTRIP
360
12EF
  0
DICTIONARY
  5
12F0
330
E92
100
AcDbDictionary
280
     1
281
     1
  3
ACAD_XREC_ROUNDTRIP
360
12F1
  0
DICTIONARY
  5
12F6
330
E95
100
AcDbDictionary
280
     1
281
     1
  3
ACAD_XREC_ROUNDTRIP
360
12F7
  0
DICTIONARY
  5
130A
330
E9F
100
AcDbDictionary
280
     1
281
     1
  3
ACAD_XREC_ROUNDTRIP
360
130B
  0
DICTIONARY
  5
1304
330
E9C
100
AcDbDictionary
280
     1
281
     1
  3
ACAD_XREC_ROUNDTRIP
360
1305
  0
DICTIONARY
  5
131A
330
EA8
100
AcDbDictionary
280
     1
281
     1
  3
ACAD_XREC_ROUNDTRIP
360
131B
  0
DICTIONARY
  5
130C
330
EA0
100
AcDbDictionary
280
     1
281
     1
  3
ACAD_XREC_ROUNDTRIP
360
130D
  0
DICTIONARY
  5
12FA
330
E97
100
AcDbDictionary
280
     1
281
     1
  3
ACAD_XREC_ROUNDTRIP
360
12FB
  0
DICTIONARY
  5
1318
330
EA6
100
AcDbDictionary
280
     1
281
     1
  3
ACAD_XREC_ROUNDTRIP
360
1319
  0
DICTIONARY
  5
1316
330
EA5
100
AcDbDictionary
280
     1
281
     1
  3
ACAD_XREC_ROUNDTRIP
360
1317
  0
DICTIONARY
  5
1310
330
EA2
100
AcDbDictionary
280
     1
281
     1
  3
ACAD_XREC_ROUNDTRIP
360
1311
  0
DICTIONARY
  5
1312
330
EA3
100
AcDbDictionary
280
     1
281
     1
  3
ACAD_XREC_ROUNDTRIP
360
1313
  0
DICTIONARY
  5
1302
330
E9B
100
AcDbDictionary
280
     1
281
     1
  3
ACAD_XREC_ROUNDTRIP
360
1303
  0
DICTIONARY
  5
12F4
330
E94
100
AcDbDictionary
280
     1
281
     1
  3
ACAD_XREC_ROUNDTRIP
360
12F5
  0
DICTIONARY
  5
1314
330
EA4
100
AcDbDictionary
280
     1
281
     1
  3
ACAD_XREC_ROUNDTRIP
360
1315
  0
CELLSTYLEMAP
  5
12E9
102
{ACAD_REACTORS
330
12E8
102
}
330
12E8
100
AcDbCellStyleMap
 90
        3
300
CELLSTYLE
  1
TABLEFORMAT_BEGIN
 90
        5
170
     1
 91
        0
 92
        0
 62
   257
 93
        1
300
CONTENTFORMAT
  1
CONTENTFORMAT_BEGIN
 90
        0
 91
        0
 92
        4
 93
        0
300

 40
0.0
140
1.0
 94
        5
 62
     0
340
11
144
6.0
309
CONTENTFORMAT_END
171
     0
 94
        6
 95
        1
302
GRIDFORMAT
  1
GRIDFORMAT_BEGIN
 90
        0
 91
        1
 62
     0
 92
       -2
340
14
 93
        0
 40
0.045
309
GRIDFORMAT_END
 95
        2
302
GRIDFORMAT
  1
GRIDFORMAT_BEGIN
 90
        0
 91
        1
 62
     0
 92
       -2
340
14
 93
        0
 40
0.045
309
GRIDFORMAT_END
 95
        4
302
GRIDFORMAT
  1
GRIDFORMAT_BEGIN
 90
        0
 91
        1
 62
     0
 92
       -2
340
14
 93
        0
 40
0.045
309
GRIDFORMAT_END
 95
        8
302
GRIDFORMAT
  1
GRIDFORMAT_BEGIN
 90
        0
 91
        1
 62
     0
 92
       -2
340
14
 93
        0
 40
0.045
309
GRIDFORMAT_END
 95
       16
302
GRIDFORMAT
  1
GRIDFORMAT_BEGIN
 90
        0
 91
        1
 62
     0
 92
       -2
340
14
 93
        0
 40
0.045
309
GRIDFORMAT_END
 95
       32
302
GRIDFORMAT
  1
GRIDFORMAT_BEGIN
 90
        0
 91
        1
 62
     0
 92
       -2
340
14
 93
        0
 40
0.045
309
GRIDFORMAT_END
309
TABLEFORMAT_END
  1
CELLSTYLE_BEGIN
 90
        1
 91
        1
300
_TITLE
309
CELLSTYLE_END
300
CELLSTYLE
  1
TABLEFORMAT_BEGIN
 90
        5
170
     1
 91
        0
 92
        0
 62
   257
 93
        1
300
CONTENTFORMAT
  1
CONTENTFORMAT_BEGIN
 90
        0
 91
        0
 92
        4
 93
        0
300

 40
0.0
140
1.0
 94
        5
 62
     0
340
11
144
4.5
309
CONTENTFORMAT_END
171
     0
 94
        6
 95
        1
302
GRIDFORMAT
  1
GRIDFORMAT_BEGIN
 90
        0
 91
        1
 62
     0
 92
       -2
340
14
 93
        0
 40
0.045
309
GRIDFORMAT_END
 95
        2
302
GRIDFORMAT
  1
GRIDFORMAT_BEGIN
 90
        0
 91
        1
 62
     0
 92
       -2
340
14
 93
        0
 40
0.045
309
GRIDFORMAT_END
 95
        4
302
GRIDFORMAT
  1
GRIDFORMAT_BEGIN
 90
        0
 91
        1
 62
     0
 92
       -2
340
14
 93
        0
 40
0.045
309
GRIDFORMAT_END
 95
        8
302
GRIDFORMAT
  1
GRIDFORMAT_BEGIN
 90
        0
 91
        1
 62
     0
 92
       -2
340
14
 93
        0
 40
0.045
309
GRIDFORMAT_END
 95
       16
302
GRIDFORMAT
  1
GRIDFORMAT_BEGIN
 90
        0
 91
        1
 62
     0
 92
       -2
340
14
 93
        0
 40
0.045
309
GRIDFORMAT_END
 95
       32
302
GRIDFORMAT
  1
GRIDFORMAT_BEGIN
 90
        0
 91
        1
 62
     0
 92
       -2
340
14
 93
        0
 40
0.045
309
GRIDFORMAT_END
309
TABLEFORMAT_END
  1
CELLSTYLE_BEGIN
 90
        2
 91
        1
300
_HEADER
309
CELLSTYLE_END
300
CELLSTYLE
  1
TABLEFORMAT_BEGIN
 90
        5
170
     1
 91
        0
 92
        0
 62
   257
 93
        1
300
CONTENTFORMAT
  1
CONTENTFORMAT_BEGIN
 90
        0
 91
        0
 92
        4
 93
        0
300

 40
0.0
140
1.0
 94
        2
 62
     0
340
11
144
4.5
309
CONTENTFORMAT_END
171
     0
 94
        6
 95
        1
302
GRIDFORMAT
  1
GRIDFORMAT_BEGIN
 90
        0
 91
        1
 62
     0
 92
       -2
340
14
 93
        0
 40
0.045
309
GRIDFORMAT_END
 95
        2
302
GRIDFORMAT
  1
GRIDFORMAT_BEGIN
 90
        0
 91
        1
 62
     0
 92
       -2
340
14
 93
        0
 40
0.045
309
GRIDFORMAT_END
 95
        4
302
GRIDFORMAT
  1
GRIDFORMAT_BEGIN
 90
        0
 91
        1
 62
     0
 92
       -2
340
14
 93
        0
 40
0.045
309
GRIDFORMAT_END
 95
        8
302
GRIDFORMAT
  1
GRIDFORMAT_BEGIN
 90
        0
 91
        1
 62
     0
 92
       -2
340
14
 93
        0
 40
0.045
309
GRIDFORMAT_END
 95
       16
302
GRIDFORMAT
  1
GRIDFORMAT_BEGIN
 90
        0
 91
        1
 62
     0
 92
       -2
340
14
 93
        0
 40
0.045
309
GRIDFORMAT_END
 95
       32
302
GRIDFORMAT
  1
GRIDFORMAT_BEGIN
 90
        0
 91
        1
 62
     0
 92
       -2
340
14
 93
        0
 40
0.045
309
GRIDFORMAT_END
309
TABLEFORMAT_END
  1
CELLSTYLE_BEGIN
 90
        3
 91
        2
300
_DATA
309
CELLSTYLE_END
  0
XRECORD
  5
12F3
102
{ACAD_REACTORS
330
12F2
102
}
330
12F2
100
AcDbXrecord
280
     1
102
RTVSPost2010Prop28
280
     1
102
RTVSPost2010PropOp28
 70
     1
102
RTVSPost2010Prop29
280
     1
102
RTVSPost2010PropOp29
 70
     1
102
RTVSPost2010Prop30
280
     0
102
RTVSPost2010PropOp30
 70
     1
102
RTVSPost2010Prop31
280
     0
102
RTVSPost2010PropOp31
 70
     1
102
RTVSPost2010Prop32
280
     0
102
RTVSPost2010PropOp32
 70
     1
102
RTVSPost2010Prop33
280
     0
102
RTVSPost2010PropOp33
 70
     1
102
RTVSPost2010Prop34
280
     0
102
RTVSPost2010PropOp34
 70
     1
102
RTVSPost2010Prop35
280
     0
102
RTVSPost2010PropOp35
 70
     1
102
RTVSPost2010Prop36
280
     0
102
RTVSPost2010PropOp36
 70
     1
102
RTVSPost2010Prop37
 90
       50
102
RTVSPost2010PropOp37
 70
     1
102
RTVSPost2010Prop38
140
0.0
102
RTVSPost2010PropOp38
 70
     1
102
RTVSPost2010Prop39
140
1.0
102
RTVSPost2010PropOp39
 70
     1
102
RTVSPost2010Prop40
 90
        0
102
RTVSPost2010PropOp40
 70
     1
102
RTVSPost2010Prop41ColorIndex
 90
       18
102
RTVSPost2010Prop41ColorRGB
 90
        0
102
RTVSPost2010PropOp41
 70
     1
102
RTVSPost2010Prop42
 90
       50
102
RTVSPost2010PropOp42
 70
     1
102
RTVSPost2010Prop43
 90
        3
102
RTVSPost2010PropOp43
 70
     1
102
RTVSPost2010Prop44ColorIndex
 90
        5
102
RTVSPost2010Prop44ColorRGB
 90
      255
102
RTVSPost2010PropOp44
 70
     1
102
RTVSPost2010Prop45
280
     0
102
RTVSPost2010PropOp45
 70
     1
102
RTVSPost2010Prop46
 90
       50
102
RTVSPost2010PropOp46
 70
     1
102
RTVSPost2010Prop47
 90
       50
102
RTVSPost2010PropOp47
 70
     1
102
RTVSPost2010Prop48
 90
       50
102
RTVSPost2010PropOp48
 70
     1
102
RTVSPost2010Prop49
280
     0
102
RTVSPost2010PropOp49
 70
     1
102
RTVSPost2010Prop50
 90
       50
102
RTVSPost2010PropOp50
 70
     1
102
RTVSPost2010Prop51ColorIndex
 90
      256
102
RTVSPost2010Prop51ColorRGB
 90
-16777216
102
RTVSPost2010PropOp51
 70
     0
102
RTVSPost2010Prop52
140
1.0
102
RTVSPost2010PropOp52
 70
     0
102
RTVSPost2010Prop53
 90
        2
102
RTVSPost2010PropOp53
 70
     1
102
RTVSPost2010Prop54
  1
strokes_ogs.tif
102
RTVSPost2010PropOp54
 70
     1
102
RTVSPost2010Prop55
280
     0
102
RTVSPost2010PropOp55
 70
     1
102
RTVSPost2010Prop56
140
1.0
102
RTVSPost2010PropOp56
 70
     1
102
RTVSPost2010Prop57
140
1.0
102
RTVSPost2010PropOp57
 70
     1
  0
XRECORD
  5
12F9
102
{ACAD_REACTORS
330
12F8
102
}
330
12F8
100
AcDbXrecord
280
     1
102
RTVSPost2010Prop28
280
     0
102
RTVSPost2010PropOp28
 70
     1
102
RTVSPost2010Prop29
280
     1
102
RTVSPost2010PropOp29
 70
     1
102
RTVSPost2010Prop30
280
     1
102
RTVSPost2010PropOp30
 70
     1
102
RTVSPost2010Prop31
280
     0
102
RTVSPost2010PropOp31
 70
     1
102
RTVSPost2010Prop32
280
     0
102
RTVSPost2010PropOp32
 70
     1
102
RTVSPost2010Prop33
280
     0
102
RTVSPost2010PropOp33
 70
     1
102
RTVSPost2010Prop34
280
     0
102
RTVSPost2010PropOp34
 70
     1
102
RTVSPost2010Prop35
280
     0
102
RTVSPost2010PropOp35
 70
     1
102
RTVSPost2010Prop36
280
     0
102
RTVSPost2010PropOp36
 70
     1
102
RTVSPost2010Prop37
 90
       50
102
RTVSPost2010PropOp37
 70
     1
102
RTVSPost2010Prop38
140
0.0
102
RTVSPost2010PropOp38
 70
     1
102
RTVSPost2010Prop39
140
1.0
102
RTVSPost2010PropOp39
 70
     1
102
RTVSPost2010Prop40
 90
        0
102
RTVSPost2010PropOp40
 70
     1
102
RTVSPost2010Prop41ColorIndex
 90
       18
102
RTVSPost2010Prop41ColorRGB
 90
        0
102
RTVSPost2010PropOp41
 70
     1
102
RTVSPost2010Prop42
 90
       50
102
RTVSPost2010PropOp42
 70
     1
102
RTVSPost2010Prop43
 90
        3
102
RTVSPost2010PropOp43
 70
     1
102
RTVSPost2010Prop44ColorIndex
 90
        5
102
RTVSPost2010Prop44ColorRGB
 90
      255
102
RTVSPost2010PropOp44
 70
     1
102
RTVSPost2010Prop45
280
     0
102
RTVSPost2010PropOp45
 70
     1
102
RTVSPost2010Prop46
 90
       50
102
RTVSPost2010PropOp46
 70
     1
102
RTVSPost2010Prop47
 90
       50
102
RTVSPost2010PropOp47
 70
     1
102
RTVSPost2010Prop48
 90
       50
102
RTVSPost2010PropOp48
 70
     1
102
RTVSPost2010Prop49
280
     0
102
RTVSPost2010PropOp49
 70
     1
102
RTVSPost2010Prop50
 90
       50
102
RTVSPost2010PropOp50
 70
     1
102
RTVSPost2010Prop51ColorIndex
 90
      256
102
RTVSPost2010Prop51ColorRGB
 90
-16777216
102
RTVSPost2010PropOp51
 70
     0
102
RTVSPost2010Prop52
140
1.0
102
RTVSPost2010PropOp52
 70
     0
102
RTVSPost2010Prop53
 90
        2
102
RTVSPost2010PropOp53
 70
     1
102
RTVSPost2010Prop54
  1
strokes_ogs.tif
102
RTVSPost2010PropOp54
 70
     1
102
RTVSPost2010Prop55
280
     0
102
RTVSPost2010PropOp55
 70
     1
102
RTVSPost2010Prop56
140
1.0
102
RTVSPost2010PropOp56
 70
     1
102
RTVSPost2010Prop57
140
1.0
102
RTVSPost2010PropOp57
 70
     1
  0
XRECORD
  5
1301
102
{ACAD_REACTORS
330
1300
102
}
330
1300
100
AcDbXrecord
280
     1
102
RTVSPost2010Prop28
280
     0
102
RTVSPost2010PropOp28
 70
     1
102
RTVSPost2010Prop29
280
     1
102
RTVSPost2010PropOp29
 70
     1
102
RTVSPost2010Prop30
280
     1
102
RTVSPost2010PropOp30
 70
     1
102
RTVSPost2010Prop31
280
     0
102
RTVSPost2010PropOp31
 70
     1
102
RTVSPost2010Prop32
280
     0
102
RTVSPost2010PropOp32
 70
     1
102
RTVSPost2010Prop33
280
     0
102
RTVSPost2010PropOp33
 70
     1
102
RTVSPost2010Prop34
280
     0
102
RTVSPost2010PropOp34
 70
     1
102
RTVSPost2010Prop35
280
     0
102
RTVSPost2010PropOp35
 70
     1
102
RTVSPost2010Prop36
280
     0
102
RTVSPost2010PropOp36
 70
     1
102
RTVSPost2010Prop37
 90
       50
102
RTVSPost2010PropOp37
 70
     1
102
RTVSPost2010Prop38
140
0.0
102
RTVSPost2010PropOp38
 70
     1
102
RTVSPost2010Prop39
140
1.0
102
RTVSPost2010PropOp39
 70
     1
102
RTVSPost2010Prop40
 90
        0
102
RTVSPost2010PropOp40
 70
     1
102
RTVSPost2010Prop41ColorIndex
 90
       18
102
RTVSPost2010Prop41ColorRGB
 90
        0
102
RTVSPost2010PropOp41
 70
     1
102
RTVSPost2010Prop42
 90
       50
102
RTVSPost2010PropOp42
 70
     1
102
RTVSPost2010Prop43
 90
        3
102
RTVSPost2010PropOp43
 70
     1
102
RTVSPost2010Prop44ColorIndex
 90
        5
102
RTVSPost2010Prop44ColorRGB
 90
      255
102
RTVSPost2010PropOp44
 70
     1
102
RTVSPost2010Prop45
280
     0
102
RTVSPost2010PropOp45
 70
     1
102
RTVSPost2010Prop46
 90
       50
102
RTVSPost2010PropOp46
 70
     1
102
RTVSPost2010Prop47
 90
       50
102
RTVSPost2010PropOp47
 70
     1
102
RTVSPost2010Prop48
 90
       50
102
RTVSPost2010PropOp48
 70
     1
102
RTVSPost2010Prop49
280
     0
102
RTVSPost2010PropOp49
 70
     1
102
RTVSPost2010Prop50
 90
       50
102
RTVSPost2010PropOp50
 70
     1
102
RTVSPost2010Prop51ColorIndex
 90
      256
102
RTVSPost2010Prop51ColorRGB
 90
-16777216
102
RTVSPost2010PropOp51
 70
     0
102
RTVSPost2010Prop52
140
1.0
102
RTVSPost2010PropOp52
 70
     0
102
RTVSPost2010Prop53
 90
        2
102
RTVSPost2010PropOp53
 70
     1
102
RTVSPost2010Prop54
  1
strokes_ogs.tif
102
RTVSPost2010PropOp54
 70
     1
102
RTVSPost2010Prop55
280
     0
102
RTVSPost2010PropOp55
 70
     1
102
RTVSPost2010Prop56
140
1.0
102
RTVSPost2010PropOp56
 70
     1
102
RTVSPost2010Prop57
140
1.0
102
RTVSPost2010PropOp57
 70
     1
  0
XRECORD
  5
1309
102
{ACAD_REACTORS
330
1308
102
}
330
1308
100
AcDbXrecord
280
     1
102
RTVSPost2010Prop28
280
     0
102
RTVSPost2010PropOp28
 70
     1
102
RTVSPost2010Prop29
280
     1
102
RTVSPost2010PropOp29
 70
     1
102
RTVSPost2010Prop30
280
     1
102
RTVSPost2010PropOp30
 70
     1
102
RTVSPost2010Prop31
280
     0
102
RTVSPost2010PropOp31
 70
     1
102
RTVSPost2010Prop32
280
     0
102
RTVSPost2010PropOp32
 70
     1
102
RTVSPost2010Prop33
280
     0
102
RTVSPost2010PropOp33
 70
     1
102
RTVSPost2010Prop34
280
     0
102
RTVSPost2010PropOp34
 70
     1
102
RTVSPost2010Prop35
280
     0
102
RTVSPost2010PropOp35
 70
     1
102
RTVSPost2010Prop36
280
     0
102
RTVSPost2010PropOp36
 70
     1
102
RTVSPost2010Prop37
 90
       50
102
RTVSPost2010PropOp37
 70
     1
102
RTVSPost2010Prop38
140
0.0
102
RTVSPost2010PropOp38
 70
     1
102
RTVSPost2010Prop39
140
1.0
102
RTVSPost2010PropOp39
 70
     1
102
RTVSPost2010Prop40
 90
        0
102
RTVSPost2010PropOp40
 70
     1
102
RTVSPost2010Prop41ColorIndex
 90
       18
102
RTVSPost2010Prop41ColorRGB
 90
        0
102
RTVSPost2010PropOp41
 70
     1
102
RTVSPost2010Prop42
 90
       50
102
RTVSPost2010PropOp42
 70
     1
102
RTVSPost2010Prop43
 90
        3
102
RTVSPost2010PropOp43
 70
     1
102
RTVSPost2010Prop44ColorIndex
 90
        5
102
RTVSPost2010Prop44ColorRGB
 90
      255
102
RTVSPost2010PropOp44
 70
     1
102
RTVSPost2010Prop45
280
     0
102
RTVSPost2010PropOp45
 70
     1
102
RTVSPost2010Prop46
 90
       50
102
RTVSPost2010PropOp46
 70
     1
102
RTVSPost2010Prop47
 90
       50
102
RTVSPost2010PropOp47
 70
     1
102
RTVSPost2010Prop48
 90
       50
102
RTVSPost2010PropOp48
 70
     1
102
RTVSPost2010Prop49
280
     0
102
RTVSPost2010PropOp49
 70
     1
102
RTVSPost2010Prop50
 90
       50
102
RTVSPost2010PropOp50
 70
     1
102
RTVSPost2010Prop51ColorIndex
 90
      256
102
RTVSPost2010Prop51ColorRGB
 90
-16777216
102
RTVSPost2010PropOp51
 70
     0
102
RTVSPost2010Prop52
140
1.0
102
RTVSPost2010PropOp52
 70
     0
102
RTVSPost2010Prop53
 90
        2
102
RTVSPost2010PropOp53
 70
     1
102
RTVSPost2010Prop54
  1
strokes_ogs.tif
102
RTVSPost2010PropOp54
 70
     1
102
RTVSPost2010Prop55
280
     0
102
RTVSPost2010PropOp55
 70
     1
102
RTVSPost2010Prop56
140
1.0
102
RTVSPost2010PropOp56
 70
     1
102
RTVSPost2010Prop57
140
1.0
102
RTVSPost2010PropOp57
 70
     1
  0
XRECORD
  5
12FD
102
{ACAD_REACTORS
330
12FC
102
}
330
12FC
100
AcDbXrecord
280
     1
102
RTVSPost2010Prop28
280
     0
102
RTVSPost2010PropOp28
 70
     1
102
RTVSPost2010Prop29
280
     1
102
RTVSPost2010PropOp29
 70
     1
102
RTVSPost2010Prop30
280
     1
102
RTVSPost2010PropOp30
 70
     1
102
RTVSPost2010Prop31
280
     0
102
RTVSPost2010PropOp31
 70
     1
102
RTVSPost2010Prop32
280
     0
102
RTVSPost2010PropOp32
 70
     1
102
RTVSPost2010Prop33
280
     0
102
RTVSPost2010PropOp33
 70
     1
102
RTVSPost2010Prop34
280
     0
102
RTVSPost2010PropOp34
 70
     1
102
RTVSPost2010Prop35
280
     0
102
RTVSPost2010PropOp35
 70
     1
102
RTVSPost2010Prop36
280
     0
102
RTVSPost2010PropOp36
 70
     1
102
RTVSPost2010Prop37
 90
       50
102
RTVSPost2010PropOp37
 70
     1
102
RTVSPost2010Prop38
140
0.0
102
RTVSPost2010PropOp38
 70
     1
102
RTVSPost2010Prop39
140
1.0
102
RTVSPost2010PropOp39
 70
     1
102
RTVSPost2010Prop40
 90
        0
102
RTVSPost2010PropOp40
 70
     1
102
RTVSPost2010Prop41ColorIndex
 90
       18
102
RTVSPost2010Prop41ColorRGB
 90
        0
102
RTVSPost2010PropOp41
 70
     1
102
RTVSPost2010Prop42
 90
       50
102
RTVSPost2010PropOp42
 70
     1
102
RTVSPost2010Prop43
 90
        3
102
RTVSPost2010PropOp43
 70
     1
102
RTVSPost2010Prop44ColorIndex
 90
        5
102
RTVSPost2010Prop44ColorRGB
 90
      255
102
RTVSPost2010PropOp44
 70
     1
102
RTVSPost2010Prop45
280
     0
102
RTVSPost2010PropOp45
 70
     1
102
RTVSPost2010Prop46
 90
       50
102
RTVSPost2010PropOp46
 70
     1
102
RTVSPost2010Prop47
 90
       50
102
RTVSPost2010PropOp47
 70
     1
102
RTVSPost2010Prop48
 90
       50
102
RTVSPost2010PropOp48
 70
     1
102
RTVSPost2010Prop49
280
     0
102
RTVSPost2010PropOp49
 70
     1
102
RTVSPost2010Prop50
 90
       50
102
RTVSPost2010PropOp50
 70
     1
102
RTVSPost2010Prop51ColorIndex
 90
      256
102
RTVSPost2010Prop51ColorRGB
 90
-16777216
102
RTVSPost2010PropOp51
 70
     0
102
RTVSPost2010Prop52
140
1.0
102
RTVSPost2010PropOp52
 70
     0
102
RTVSPost2010Prop53
 90
        2
102
RTVSPost2010PropOp53
 70
     1
102
RTVSPost2010Prop54
  1
strokes_ogs.tif
102
RTVSPost2010PropOp54
 70
     1
102
RTVSPost2010Prop55
280
     0
102
RTVSPost2010PropOp55
 70
     1
102
RTVSPost2010Prop56
140
1.0
102
RTVSPost2010PropOp56
 70
     1
102
RTVSPost2010Prop57
140
1.0
102
RTVSPost2010PropOp57
 70
     1
  0
XRECORD
  5
12FF
102
{ACAD_REACTORS
330
12FE
102
}
330
12FE
100
AcDbXrecord
280
     1
102
RTVSPost2010Prop28
280
     0
102
RTVSPost2010PropOp28
 70
     1
102
RTVSPost2010Prop29
280
     1
102
RTVSPost2010PropOp29
 70
     1
102
RTVSPost2010Prop30
280
     1
102
RTVSPost2010PropOp30
 70
     1
102
RTVSPost2010Prop31
280
     0
102
RTVSPost2010PropOp31
 70
     1
102
RTVSPost2010Prop32
280
     0
102
RTVSPost2010PropOp32
 70
     1
102
RTVSPost2010Prop33
280
     0
102
RTVSPost2010PropOp33
 70
     1
102
RTVSPost2010Prop34
280
     0
102
RTVSPost2010PropOp34
 70
     1
102
RTVSPost2010Prop35
280
     0
102
RTVSPost2010PropOp35
 70
     1
102
RTVSPost2010Prop36
280
     0
102
RTVSPost2010PropOp36
 70
     1
102
RTVSPost2010Prop37
 90
       50
102
RTVSPost2010PropOp37
 70
     1
102
RTVSPost2010Prop38
140
0.0
102
RTVSPost2010PropOp38
 70
     1
102
RTVSPost2010Prop39
140
1.0
102
RTVSPost2010PropOp39
 70
     1
102
RTVSPost2010Prop40
 90
        0
102
RTVSPost2010PropOp40
 70
     1
102
RTVSPost2010Prop41ColorIndex
 90
       18
102
RTVSPost2010Prop41ColorRGB
 90
        0
102
RTVSPost2010PropOp41
 70
     1
102
RTVSPost2010Prop42
 90
       50
102
RTVSPost2010PropOp42
 70
     1
102
RTVSPost2010Prop43
 90
        3
102
RTVSPost2010PropOp43
 70
     1
102
RTVSPost2010Prop44ColorIndex
 90
        5
102
RTVSPost2010Prop44ColorRGB
 90
      255
102
RTVSPost2010PropOp44
 70
     1
102
RTVSPost2010Prop45
280
     0
102
RTVSPost2010PropOp45
 70
     1
102
RTVSPost2010Prop46
 90
       50
102
RTVSPost2010PropOp46
 70
     1
102
RTVSPost2010Prop47
 90
       50
102
RTVSPost2010PropOp47
 70
     1
102
RTVSPost2010Prop48
 90
       50
102
RTVSPost2010PropOp48
 70
     1
102
RTVSPost2010Prop49
280
     0
102
RTVSPost2010PropOp49
 70
     1
102
RTVSPost2010Prop50
 90
       50
102
RTVSPost2010PropOp50
 70
     1
102
RTVSPost2010Prop51ColorIndex
 90
      256
102
RTVSPost2010Prop51ColorRGB
 90
-16777216
102
RTVSPost2010PropOp51
 70
     0
102
RTVSPost2010Prop52
140
1.0
102
RTVSPost2010PropOp52
 70
     0
102
RTVSPost2010Prop53
 90
        2
102
RTVSPost2010PropOp53
 70
     1
102
RTVSPost2010Prop54
  1
strokes_ogs.tif
102
RTVSPost2010PropOp54
 70
     1
102
RTVSPost2010Prop55
280
     0
102
RTVSPost2010PropOp55
 70
     1
102
RTVSPost2010Prop56
140
1.0
102
RTVSPost2010PropOp56
 70
     1
102
RTVSPost2010Prop57
140
1.0
102
RTVSPost2010PropOp57
 70
     1
  0
XRECORD
  5
130F
102
{ACAD_REACTORS
330
130E
102
}
330
130E
100
AcDbXrecord
280
     1
102
RTVSPost2010Prop28
280
     0
102
RTVSPost2010PropOp28
 70
     0
102
RTVSPost2010Prop29
280
     1
102
RTVSPost2010PropOp29
 70
     0
102
RTVSPost2010Prop30
280
     1
102
RTVSPost2010PropOp30
 70
     0
102
RTVSPost2010Prop31
280
     0
102
RTVSPost2010PropOp31
 70
     0
102
RTVSPost2010Prop32
280
     0
102
RTVSPost2010PropOp32
 70
     0
102
RTVSPost2010Prop33
280
     0
102
RTVSPost2010PropOp33
 70
     0
102
RTVSPost2010Prop34
280
     0
102
RTVSPost2010PropOp34
 70
     0
102
RTVSPost2010Prop35
280
     0
102
RTVSPost2010PropOp35
 70
     0
102
RTVSPost2010Prop36
280
     0
102
RTVSPost2010PropOp36
 70
     0
102
RTVSPost2010Prop37
 90
       50
102
RTVSPost2010PropOp37
 70
     0
102
RTVSPost2010Prop38
140
0.0
102
RTVSPost2010PropOp38
 70
     0
102
RTVSPost2010Prop39
140
1.0
102
RTVSPost2010PropOp39
 70
     0
102
RTVSPost2010Prop40
 90
        0
102
RTVSPost2010PropOp40
 70
     0
102
RTVSPost2010Prop41ColorIndex
 90
       18
102
RTVSPost2010Prop41ColorRGB
 90
        0
102
RTVSPost2010PropOp41
 70
     0
102
RTVSPost2010Prop42
 90
       50
102
RTVSPost2010PropOp42
 70
     0
102
RTVSPost2010Prop43
 90
        3
102
RTVSPost2010PropOp43
 70
     0
102
RTVSPost2010Prop44ColorIndex
 90
        5
102
RTVSPost2010Prop44ColorRGB
 90
      255
102
RTVSPost2010PropOp44
 70
     0
102
RTVSPost2010Prop45
280
     0
102
RTVSPost2010PropOp45
 70
     0
102
RTVSPost2010Prop46
 90
       50
102
RTVSPost2010PropOp46
 70
     0
102
RTVSPost2010Prop47
 90
       50
102
RTVSPost2010PropOp47
 70
     0
102
RTVSPost2010Prop48
 90
       50
102
RTVSPost2010PropOp48
 70
     0
102
RTVSPost2010Prop49
280
     0
102
RTVSPost2010PropOp49
 70
     0
102
RTVSPost2010Prop50
 90
       50
102
RTVSPost2010PropOp50
 70
     0
102
RTVSPost2010Prop51ColorIndex
 90
      256
102
RTVSPost2010Prop51ColorRGB
 90
-16777216
102
RTVSPost2010PropOp51
 70
     0
102
RTVSPost2010Prop52
140
1.0
102
RTVSPost2010PropOp52
 70
     0
102
RTVSPost2010Prop53
 90
        2
102
RTVSPost2010PropOp53
 70
     0
102
RTVSPost2010Prop54
  1
strokes_ogs.tif
102
RTVSPost2010PropOp54
 70
     0
102
RTVSPost2010Prop55
280
     0
102
RTVSPost2010PropOp55
 70
     0
102
RTVSPost2010Prop56
140
1.0
102
RTVSPost2010PropOp56
 70
     0
102
RTVSPost2010Prop57
140
1.0
102
RTVSPost2010PropOp57
 70
     0
  0
XRECORD
  5
1307
102
{ACAD_REACTORS
330
1306
102
}
330
1306
100
AcDbXrecord
280
     1
102
RTVSPost2010Prop28
280
     0
102
RTVSPost2010PropOp28
 70
     1
102
RTVSPost2010Prop29
280
     1
102
RTVSPost2010PropOp29
 70
     1
102
RTVSPost2010Prop30
280
     1
102
RTVSPost2010PropOp30
 70
     1
102
RTVSPost2010Prop31
280
     0
102
RTVSPost2010PropOp31
 70
     1
102
RTVSPost2010Prop32
280
     0
102
RTVSPost2010PropOp32
 70
     1
102
RTVSPost2010Prop33
280
     0
102
RTVSPost2010PropOp33
 70
     1
102
RTVSPost2010Prop34
280
     0
102
RTVSPost2010PropOp34
 70
     1
102
RTVSPost2010Prop35
280
     0
102
RTVSPost2010PropOp35
 70
     1
102
RTVSPost2010Prop36
280
     0
102
RTVSPost2010PropOp36
 70
     1
102
RTVSPost2010Prop37
 90
       50
102
RTVSPost2010PropOp37
 70
     1
102
RTVSPost2010Prop38
140
0.0
102
RTVSPost2010PropOp38
 70
     1
102
RTVSPost2010Prop39
140
1.0
102
RTVSPost2010PropOp39
 70
     1
102
RTVSPost2010Prop40
 90
        0
102
RTVSPost2010PropOp40
 70
     1
102
RTVSPost2010Prop41ColorIndex
 90
       18
102
RTVSPost2010Prop41ColorRGB
 90
        0
102
RTVSPost2010PropOp41
 70
     1
102
RTVSPost2010Prop42
 90
       50
102
RTVSPost2010PropOp42
 70
     1
102
RTVSPost2010Prop43
 90
        3
102
RTVSPost2010PropOp43
 70
     1
102
RTVSPost2010Prop44ColorIndex
 90
        5
102
RTVSPost2010Prop44ColorRGB
 90
      255
102
RTVSPost2010PropOp44
 70
     1
102
RTVSPost2010Prop45
280
     0
102
RTVSPost2010PropOp45
 70
     1
102
RTVSPost2010Prop46
 90
       50
102
RTVSPost2010PropOp46
 70
     1
102
RTVSPost2010Prop47
 90
       50
102
RTVSPost2010PropOp47
 70
     1
102
RTVSPost2010Prop48
 90
       50
102
RTVSPost2010PropOp48
 70
     1
102
RTVSPost2010Prop49
280
     0
102
RTVSPost2010PropOp49
 70
     1
102
RTVSPost2010Prop50
 90
       50
102
RTVSPost2010PropOp50
 70
     1
102
RTVSPost2010Prop51ColorIndex
 90
      256
102
RTVSPost2010Prop51ColorRGB
 90
-16777216
102
RTVSPost2010PropOp51
 70
     0
102
RTVSPost2010Prop52
140
1.0
102
RTVSPost2010PropOp52
 70
     0
102
RTVSPost2010Prop53
 90
        2
102
RTVSPost2010PropOp53
 70
     1
102
RTVSPost2010Prop54
  1
strokes_ogs.tif
102
RTVSPost2010PropOp54
 70
     1
102
RTVSPost2010Prop55
280
     0
102
RTVSPost2010PropOp55
 70
     1
102
RTVSPost2010Prop56
140
1.0
102
RTVSPost2010PropOp56
 70
     1
102
RTVSPost2010Prop57
140
1.0
102
RTVSPost2010PropOp57
 70
     1
  0
XRECORD
  5
12EB
102
{ACAD_REACTORS
330
12EA
102
}
330
12EA
100
AcDbXrecord
280
     1
102
RTVSPost2010Prop28
280
     0
102
RTVSPost2010PropOp28
 70
     1
102
RTVSPost2010Prop29
280
     1
102
RTVSPost2010PropOp29
 70
     1
102
RTVSPost2010Prop30
280
     1
102
RTVSPost2010PropOp30
 70
     1
102
RTVSPost2010Prop31
280
     0
102
RTVSPost2010PropOp31
 70
     1
102
RTVSPost2010Prop32
280
     0
102
RTVSPost2010PropOp32
 70
     1
102
RTVSPost2010Prop33
280
     0
102
RTVSPost2010PropOp33
 70
     1
102
RTVSPost2010Prop34
280
     0
102
RTVSPost2010PropOp34
 70
     1
102
RTVSPost2010Prop35
280
     0
102
RTVSPost2010PropOp35
 70
     1
102
RTVSPost2010Prop36
280
     0
102
RTVSPost2010PropOp36
 70
     1
102
RTVSPost2010Prop37
 90
       50
102
RTVSPost2010PropOp37
 70
     1
102
RTVSPost2010Prop38
140
0.0
102
RTVSPost2010PropOp38
 70
     1
102
RTVSPost2010Prop39
140
1.0
102
RTVSPost2010PropOp39
 70
     1
102
RTVSPost2010Prop40
 90
        0
102
RTVSPost2010PropOp40
 70
     1
102
RTVSPost2010Prop41ColorIndex
 90
       18
102
RTVSPost2010Prop41ColorRGB
 90
        0
102
RTVSPost2010PropOp41
 70
     1
102
RTVSPost2010Prop42
 90
       50
102
RTVSPost2010PropOp42
 70
     1
102
RTVSPost2010Prop43
 90
        3
102
RTVSPost2010PropOp43
 70
     1
102
RTVSPost2010Prop44ColorIndex
 90
        5
102
RTVSPost2010Prop44ColorRGB
 90
      255
102
RTVSPost2010PropOp44
 70
     1
102
RTVSPost2010Prop45
280
     0
102
RTVSPost2010PropOp45
 70
     1
102
RTVSPost2010Prop46
 90
       50
102
RTVSPost2010PropOp46
 70
     1
102
RTVSPost2010Prop47
 90
       50
102
RTVSPost2010PropOp47
 70
     1
102
RTVSPost2010Prop48
 90
       50
102
RTVSPost2010PropOp48
 70
     1
102
RTVSPost2010Prop49
280
     0
102
RTVSPost2010PropOp49
 70
     1
102
RTVSPost2010Prop50
 90
       50
102
RTVSPost2010PropOp50
 70
     1
102
RTVSPost2010Prop51ColorIndex
 90
      256
102
RTVSPost2010Prop51ColorRGB
 90
-16777216
102
RTVSPost2010PropOp51
 70
     0
102
RTVSPost2010Prop52
140
1.0
102
RTVSPost2010PropOp52
 70
     0
102
RTVSPost2010Prop53
 90
        2
102
RTVSPost2010PropOp53
 70
     1
102
RTVSPost2010Prop54
  1
strokes_ogs.tif
102
RTVSPost2010PropOp54
 70
     1
102
RTVSPost2010Prop55
280
     0
102
RTVSPost2010PropOp55
 70
     1
102
RTVSPost2010Prop56
140
1.0
102
RTVSPost2010PropOp56
 70
     1
102
RTVSPost2010Prop57
140
1.0
102
RTVSPost2010PropOp57
 70
     1
  0
XRECORD
  5
12ED
102
{ACAD_REACTORS
330
12EC
102
}
330
12EC
100
AcDbXrecord
280
     1
102
RTVSPost2010Prop28
280
     0
102
RTVSPost2010PropOp28
 70
     1
102
RTVSPost2010Prop29
280
     1
102
RTVSPost2010PropOp29
 70
     1
102
RTVSPost2010Prop30
280
     1
102
RTVSPost2010PropOp30
 70
     1
102
RTVSPost2010Prop31
280
     0
102
RTVSPost2010PropOp31
 70
     1
102
RTVSPost2010Prop32
280
     0
102
RTVSPost2010PropOp32
 70
     1
102
RTVSPost2010Prop33
280
     0
102
RTVSPost2010PropOp33
 70
     1
102
RTVSPost2010Prop34
280
     0
102
RTVSPost2010PropOp34
 70
     1
102
RTVSPost2010Prop35
280
     0
102
RTVSPost2010PropOp35
 70
     1
102
RTVSPost2010Prop36
280
     0
102
RTVSPost2010PropOp36
 70
     1
102
RTVSPost2010Prop37
 90
       50
102
RTVSPost2010PropOp37
 70
     1
102
RTVSPost2010Prop38
140
0.0
102
RTVSPost2010PropOp38
 70
     1
102
RTVSPost2010Prop39
140
1.0
102
RTVSPost2010PropOp39
 70
     1
102
RTVSPost2010Prop40
 90
        0
102
RTVSPost2010PropOp40
 70
     1
102
RTVSPost2010Prop41ColorIndex
 90
       18
102
RTVSPost2010Prop41ColorRGB
 90
        0
102
RTVSPost2010PropOp41
 70
     1
102
RTVSPost2010Prop42
 90
       50
102
RTVSPost2010PropOp42
 70
     1
102
RTVSPost2010Prop43
 90
        3
102
RTVSPost2010PropOp43
 70
     1
102
RTVSPost2010Prop44ColorIndex
 90
        5
102
RTVSPost2010Prop44ColorRGB
 90
      255
102
RTVSPost2010PropOp44
 70
     1
102
RTVSPost2010Prop45
280
     0
102
RTVSPost2010PropOp45
 70
     1
102
RTVSPost2010Prop46
 90
       50
102
RTVSPost2010PropOp46
 70
     1
102
RTVSPost2010Prop47
 90
       50
102
RTVSPost2010PropOp47
 70
     1
102
RTVSPost2010Prop48
 90
       50
102
RTVSPost2010PropOp48
 70
     1
102
RTVSPost2010Prop49
280
     0
102
RTVSPost2010PropOp49
 70
     1
102
RTVSPost2010Prop50
 90
       50
102
RTVSPost2010PropOp50
 70
     1
102
RTVSPost2010Prop51ColorIndex
 90
      256
102
RTVSPost2010Prop51ColorRGB
 90
-16777216
102
RTVSPost2010PropOp51
 70
     0
102
RTVSPost2010Prop52
140
1.0
102
RTVSPost2010PropOp52
 70
     0
102
RTVSPost2010Prop53
 90
        2
102
RTVSPost2010PropOp53
 70
     1
102
RTVSPost2010Prop54
  1
strokes_ogs.tif
102
RTVSPost2010PropOp54
 70
     1
102
RTVSPost2010Prop55
280
     0
102
RTVSPost2010PropOp55
 70
     1
102
RTVSPost2010Prop56
140
1.0
102
RTVSPost2010PropOp56
 70
     1
102
RTVSPost2010Prop57
140
1.0
102
RTVSPost2010PropOp57
 70
     1
  0
XRECORD
  5
12EF
102
{ACAD_REACTORS
330
12EE
102
}
330
12EE
100
AcDbXrecord
280
     1
102
RTVSPost2010Prop28
280
     0
102
RTVSPost2010PropOp28
 70
     1
102
RTVSPost2010Prop29
280
     1
102
RTVSPost2010PropOp29
 70
     1
102
RTVSPost2010Prop30
280
     1
102
RTVSPost2010PropOp30
 70
     1
102
RTVSPost2010Prop31
280
     0
102
RTVSPost2010PropOp31
 70
     1
102
RTVSPost2010Prop32
280
     0
102
RTVSPost2010PropOp32
 70
     1
102
RTVSPost2010Prop33
280
     0
102
RTVSPost2010PropOp33
 70
     1
102
RTVSPost2010Prop34
280
     0
102
RTVSPost2010PropOp34
 70
     1
102
RTVSPost2010Prop35
280
     0
102
RTVSPost2010PropOp35
 70
     1
102
RTVSPost2010Prop36
280
     0
102
RTVSPost2010PropOp36
 70
     1
102
RTVSPost2010Prop37
 90
       50
102
RTVSPost2010PropOp37
 70
     1
102
RTVSPost2010Prop38
140
0.0
102
RTVSPost2010PropOp38
 70
     1
102
RTVSPost2010Prop39
140
1.0
102
RTVSPost2010PropOp39
 70
     1
102
RTVSPost2010Prop40
 90
        0
102
RTVSPost2010PropOp40
 70
     1
102
RTVSPost2010Prop41ColorIndex
 90
       18
102
RTVSPost2010Prop41ColorRGB
 90
        0
102
RTVSPost2010PropOp41
 70
     1
102
RTVSPost2010Prop42
 90
       50
102
RTVSPost2010PropOp42
 70
     1
102
RTVSPost2010Prop43
 90
        3
102
RTVSPost2010PropOp43
 70
     1
102
RTVSPost2010Prop44ColorIndex
 90
        5
102
RTVSPost2010Prop44ColorRGB
 90
      255
102
RTVSPost2010PropOp44
 70
     1
102
RTVSPost2010Prop45
280
     0
102
RTVSPost2010PropOp45
 70
     1
102
RTVSPost2010Prop46
 90
       50
102
RTVSPost2010PropOp46
 70
     1
102
RTVSPost2010Prop47
 90
       50
102
RTVSPost2010PropOp47
 70
     1
102
RTVSPost2010Prop48
 90
       50
102
RTVSPost2010PropOp48
 70
     1
102
RTVSPost2010Prop49
280
     0
102
RTVSPost2010PropOp49
 70
     1
102
RTVSPost2010Prop50
 90
       50
102
RTVSPost2010PropOp50
 70
     1
102
RTVSPost2010Prop51ColorIndex
 90
      256
102
RTVSPost2010Prop51ColorRGB
 90
-16777216
102
RTVSPost2010PropOp51
 70
     0
102
RTVSPost2010Prop52
140
1.0
102
RTVSPost2010PropOp52
 70
     0
102
RTVSPost2010Prop53
 90
        2
102
RTVSPost2010PropOp53
 70
     1
102
RTVSPost2010Prop54
  1
strokes_ogs.tif
102
RTVSPost2010PropOp54
 70
     1
102
RTVSPost2010Prop55
280
     0
102
RTVSPost2010PropOp55
 70
     1
102
RTVSPost2010Prop56
140
1.0
102
RTVSPost2010PropOp56
 70
     1
102
RTVSPost2010Prop57
140
1.0
102
RTVSPost2010PropOp57
 70
     1
  0
XRECORD
  5
12F1
102
{ACAD_REACTORS
330
12F0
102
}
330
12F0
100
AcDbXrecord
280
     1
102
RTVSPost2010Prop28
280
     0
102
RTVSPost2010PropOp28
 70
     1
102
RTVSPost2010Prop29
280
     1
102
RTVSPost2010PropOp29
 70
     1
102
RTVSPost2010Prop30
280
     1
102
RTVSPost2010PropOp30
 70
     1
102
RTVSPost2010Prop31
280
     0
102
RTVSPost2010PropOp31
 70
     1
102
RTVSPost2010Prop32
280
     0
102
RTVSPost2010PropOp32
 70
     1
102
RTVSPost2010Prop33
280
     0
102
RTVSPost2010PropOp33
 70
     1
102
RTVSPost2010Prop34
280
     0
102
RTVSPost2010PropOp34
 70
     1
102
RTVSPost2010Prop35
280
     0
102
RTVSPost2010PropOp35
 70
     1
102
RTVSPost2010Prop36
280
     0
102
RTVSPost2010PropOp36
 70
     1
102
RTVSPost2010Prop37
 90
       50
102
RTVSPost2010PropOp37
 70
     1
102
RTVSPost2010Prop38
140
0.0
102
RTVSPost2010PropOp38
 70
     1
102
RTVSPost2010Prop39
140
1.0
102
RTVSPost2010PropOp39
 70
     1
102
RTVSPost2010Prop40
 90
        0
102
RTVSPost2010PropOp40
 70
     1
102
RTVSPost2010Prop41ColorIndex
 90
       18
102
RTVSPost2010Prop41ColorRGB
 90
        0
102
RTVSPost2010PropOp41
 70
     1
102
RTVSPost2010Prop42
 90
       50
102
RTVSPost2010PropOp42
 70
     1
102
RTVSPost2010Prop43
 90
        3
102
RTVSPost2010PropOp43
 70
     1
102
RTVSPost2010Prop44ColorIndex
 90
        5
102
RTVSPost2010Prop44ColorRGB
 90
      255
102
RTVSPost2010PropOp44
 70
     1
102
RTVSPost2010Prop45
280
     0
102
RTVSPost2010PropOp45
 70
     1
102
RTVSPost2010Prop46
 90
       50
102
RTVSPost2010PropOp46
 70
     1
102
RTVSPost2010Prop47
 90
       50
102
RTVSPost2010PropOp47
 70
     1
102
RTVSPost2010Prop48
 90
       50
102
RTVSPost2010PropOp48
 70
     1
102
RTVSPost2010Prop49
280
     0
102
RTVSPost2010PropOp49
 70
     1
102
RTVSPost2010Prop50
 90
       50
102
RTVSPost2010PropOp50
 70
     1
102
RTVSPost2010Prop51ColorIndex
 90
      256
102
RTVSPost2010Prop51ColorRGB
 90
-16777216
102
RTVSPost2010PropOp51
 70
     0
102
RTVSPost2010Prop52
140
1.0
102
RTVSPost2010PropOp52
 70
     0
102
RTVSPost2010Prop53
 90
        2
102
RTVSPost2010PropOp53
 70
     1
102
RTVSPost2010Prop54
  1
strokes_ogs.tif
102
RTVSPost2010PropOp54
 70
     1
102
RTVSPost2010Prop55
280
     0
102
RTVSPost2010PropOp55
 70
     1
102
RTVSPost2010Prop56
140
1.0
102
RTVSPost2010PropOp56
 70
     1
102
RTVSPost2010Prop57
140
1.0
102
RTVSPost2010PropOp57
 70
     1
  0
XRECORD
  5
12F7
102
{ACAD_REACTORS
330
12F6
102
}
330
12F6
100
AcDbXrecord
280
     1
102
RTVSPost2010Prop28
280
     0
102
RTVSPost2010PropOp28
 70
     1
102
RTVSPost2010Prop29
280
     1
102
RTVSPost2010PropOp29
 70
     1
102
RTVSPost2010Prop30
280
     1
102
RTVSPost2010PropOp30
 70
     1
102
RTVSPost2010Prop31
280
     0
102
RTVSPost2010PropOp31
 70
     1
102
RTVSPost2010Prop32
280
     0
102
RTVSPost2010PropOp32
 70
     1
102
RTVSPost2010Prop33
280
     0
102
RTVSPost2010PropOp33
 70
     1
102
RTVSPost2010Prop34
280
     0
102
RTVSPost2010PropOp34
 70
     1
102
RTVSPost2010Prop35
280
     0
102
RTVSPost2010PropOp35
 70
     1
102
RTVSPost2010Prop36
280
     0
102
RTVSPost2010PropOp36
 70
     1
102
RTVSPost2010Prop37
 90
       50
102
RTVSPost2010PropOp37
 70
     1
102
RTVSPost2010Prop38
140
0.0
102
RTVSPost2010PropOp38
 70
     1
102
RTVSPost2010Prop39
140
1.0
102
RTVSPost2010PropOp39
 70
     1
102
RTVSPost2010Prop40
 90
        0
102
RTVSPost2010PropOp40
 70
     1
102
RTVSPost2010Prop41ColorIndex
 90
       18
102
RTVSPost2010Prop41ColorRGB
 90
        0
102
RTVSPost2010PropOp41
 70
     1
102
RTVSPost2010Prop42
 90
       50
102
RTVSPost2010PropOp42
 70
     1
102
RTVSPost2010Prop43
 90
        3
102
RTVSPost2010PropOp43
 70
     1
102
RTVSPost2010Prop44ColorIndex
 90
        5
102
RTVSPost2010Prop44ColorRGB
 90
      255
102
RTVSPost2010PropOp44
 70
     1
102
RTVSPost2010Prop45
280
     0
102
RTVSPost2010PropOp45
 70
     1
102
RTVSPost2010Prop46
 90
       50
102
RTVSPost2010PropOp46
 70
     1
102
RTVSPost2010Prop47
 90
       50
102
RTVSPost2010PropOp47
 70
     1
102
RTVSPost2010Prop48
 90
       50
102
RTVSPost2010PropOp48
 70
     1
102
RTVSPost2010Prop49
280
     0
102
RTVSPost2010PropOp49
 70
     1
102
RTVSPost2010Prop50
 90
       50
102
RTVSPost2010PropOp50
 70
     1
102
RTVSPost2010Prop51ColorIndex
 90
      256
102
RTVSPost2010Prop51ColorRGB
 90
-16777216
102
RTVSPost2010PropOp51
 70
     0
102
RTVSPost2010Prop52
140
1.0
102
RTVSPost2010PropOp52
 70
     0
102
RTVSPost2010Prop53
 90
        2
102
RTVSPost2010PropOp53
 70
     1
102
RTVSPost2010Prop54
  1
strokes_ogs.tif
102
RTVSPost2010PropOp54
 70
     1
102
RTVSPost2010Prop55
280
     0
102
RTVSPost2010PropOp55
 70
     1
102
RTVSPost2010Prop56
140
1.0
102
RTVSPost2010PropOp56
 70
     1
102
RTVSPost2010Prop57
140
1.0
102
RTVSPost2010PropOp57
 70
     1
  0
XRECORD
  5
130B
102
{ACAD_REACTORS
330
130A
102
}
330
130A
100
AcDbXrecord
280
     1
102
RTVSPost2010Prop28
280
     0
102
RTVSPost2010PropOp28
 70
     0
102
RTVSPost2010Prop29
280
     1
102
RTVSPost2010PropOp29
 70
     0
102
RTVSPost2010Prop30
280
     1
102
RTVSPost2010PropOp30
 70
     0
102
RTVSPost2010Prop31
280
     0
102
RTVSPost2010PropOp31
 70
     0
102
RTVSPost2010Prop32
280
     0
102
RTVSPost2010PropOp32
 70
     0
102
RTVSPost2010Prop33
280
     0
102
RTVSPost2010PropOp33
 70
     0
102
RTVSPost2010Prop34
280
     0
102
RTVSPost2010PropOp34
 70
     0
102
RTVSPost2010Prop35
280
     0
102
RTVSPost2010PropOp35
 70
     0
102
RTVSPost2010Prop36
280
     0
102
RTVSPost2010PropOp36
 70
     0
102
RTVSPost2010Prop37
 90
       50
102
RTVSPost2010PropOp37
 70
     0
102
RTVSPost2010Prop38
140
0.0
102
RTVSPost2010PropOp38
 70
     0
102
RTVSPost2010Prop39
140
1.0
102
RTVSPost2010PropOp39
 70
     0
102
RTVSPost2010Prop40
 90
        0
102
RTVSPost2010PropOp40
 70
     0
102
RTVSPost2010Prop41ColorIndex
 90
       18
102
RTVSPost2010Prop41ColorRGB
 90
        0
102
RTVSPost2010PropOp41
 70
     0
102
RTVSPost2010Prop42
 90
       50
102
RTVSPost2010PropOp42
 70
     0
102
RTVSPost2010Prop43
 90
        3
102
RTVSPost2010PropOp43
 70
     0
102
RTVSPost2010Prop44ColorIndex
 90
        5
102
RTVSPost2010Prop44ColorRGB
 90
      255
102
RTVSPost2010PropOp44
 70
     0
102
RTVSPost2010Prop45
280
     0
102
RTVSPost2010PropOp45
 70
     0
102
RTVSPost2010Prop46
 90
       50
102
RTVSPost2010PropOp46
 70
     0
102
RTVSPost2010Prop47
 90
       50
102
RTVSPost2010PropOp47
 70
     0
102
RTVSPost2010Prop48
 90
       50
102
RTVSPost2010PropOp48
 70
     0
102
RTVSPost2010Prop49
280
     0
102
RTVSPost2010PropOp49
 70
     0
102
RTVSPost2010Prop50
 90
       50
102
RTVSPost2010PropOp50
 70
     0
102
RTVSPost2010Prop51ColorIndex
 90
      256
102
RTVSPost2010Prop51ColorRGB
 90
-16777216
102
RTVSPost2010PropOp51
 70
     0
102
RTVSPost2010Prop52
140
1.0
102
RTVSPost2010PropOp52
 70
     0
102
RTVSPost2010Prop53
 90
        2
102
RTVSPost2010PropOp53
 70
     0
102
RTVSPost2010Prop54
  1
strokes_ogs.tif
102
RTVSPost2010PropOp54
 70
     0
102
RTVSPost2010Prop55
280
     0
102
RTVSPost2010PropOp55
 70
     0
102
RTVSPost2010Prop56
140
1.0
102
RTVSPost2010PropOp56
 70
     0
102
RTVSPost2010Prop57
140
1.0
102
RTVSPost2010PropOp57
 70
     0
  0
XRECORD
  5
1305
102
{ACAD_REACTORS
330
1304
102
}
330
1304
100
AcDbXrecord
280
     1
102
RTVSPost2010Prop28
280
     0
102
RTVSPost2010PropOp28
 70
     1
102
RTVSPost2010Prop29
280
     1
102
RTVSPost2010PropOp29
 70
     1
102
RTVSPost2010Prop30
280
     1
102
RTVSPost2010PropOp30
 70
     1
102
RTVSPost2010Prop31
280
     0
102
RTVSPost2010PropOp31
 70
     1
102
RTVSPost2010Prop32
280
     0
102
RTVSPost2010PropOp32
 70
     1
102
RTVSPost2010Prop33
280
     0
102
RTVSPost2010PropOp33
 70
     1
102
RTVSPost2010Prop34
280
     0
102
RTVSPost2010PropOp34
 70
     1
102
RTVSPost2010Prop35
280
     0
102
RTVSPost2010PropOp35
 70
     1
102
RTVSPost2010Prop36
280
     0
102
RTVSPost2010PropOp36
 70
     1
102
RTVSPost2010Prop37
 90
       50
102
RTVSPost2010PropOp37
 70
     1
102
RTVSPost2010Prop38
140
0.0
102
RTVSPost2010PropOp38
 70
     1
102
RTVSPost2010Prop39
140
1.0
102
RTVSPost2010PropOp39
 70
     1
102
RTVSPost2010Prop40
 90
        0
102
RTVSPost2010PropOp40
 70
     1
102
RTVSPost2010Prop41ColorIndex
 90
       18
102
RTVSPost2010Prop41ColorRGB
 90
        0
102
RTVSPost2010PropOp41
 70
     1
102
RTVSPost2010Prop42
 90
       50
102
RTVSPost2010PropOp42
 70
     1
102
RTVSPost2010Prop43
 90
        3
102
RTVSPost2010PropOp43
 70
     1
102
RTVSPost2010Prop44ColorIndex
 90
        5
102
RTVSPost2010Prop44ColorRGB
 90
      255
102
RTVSPost2010PropOp44
 70
     1
102
RTVSPost2010Prop45
280
     0
102
RTVSPost2010PropOp45
 70
     1
102
RTVSPost2010Prop46
 90
       50
102
RTVSPost2010PropOp46
 70
     1
102
RTVSPost2010Prop47
 90
       50
102
RTVSPost2010PropOp47
 70
     1
102
RTVSPost2010Prop48
 90
       50
102
RTVSPost2010PropOp48
 70
     1
102
RTVSPost2010Prop49
280
     0
102
RTVSPost2010PropOp49
 70
     1
102
RTVSPost2010Prop50
 90
       50
102
RTVSPost2010PropOp50
 70
     1
102
RTVSPost2010Prop51ColorIndex
 90
      256
102
RTVSPost2010Prop51ColorRGB
 90
-16777216
102
RTVSPost2010PropOp51
 70
     0
102
RTVSPost2010Prop52
140
1.0
102
RTVSPost2010PropOp52
 70
     0
102
RTVSPost2010Prop53
 90
        2
102
RTVSPost2010PropOp53
 70
     1
102
RTVSPost2010Prop54
  1
strokes_ogs.tif
102
RTVSPost2010PropOp54
 70
     1
102
RTVSPost2010Prop55
280
     0
102
RTVSPost2010PropOp55
 70
     1
102
RTVSPost2010Prop56
140
1.0
102
RTVSPost2010PropOp56
 70
     1
102
RTVSPost2010Prop57
140
1.0
102
RTVSPost2010PropOp57
 70
     1
  0
XRECORD
  5
131B
102
{ACAD_REACTORS
330
131A
102
}
330
131A
100
AcDbXrecord
280
     1
102
RTVSPost2010Prop28
280
     0
102
RTVSPost2010PropOp28
 70
     1
102
RTVSPost2010Prop29
280
     1
102
RTVSPost2010PropOp29
 70
     1
102
RTVSPost2010Prop30
280
     1
102
RTVSPost2010PropOp30
 70
     1
102
RTVSPost2010Prop31
280
     0
102
RTVSPost2010PropOp31
 70
     1
102
RTVSPost2010Prop32
280
     0
102
RTVSPost2010PropOp32
 70
     1
102
RTVSPost2010Prop33
280
     0
102
RTVSPost2010PropOp33
 70
     1
102
RTVSPost2010Prop34
280
     0
102
RTVSPost2010PropOp34
 70
     1
102
RTVSPost2010Prop35
280
     0
102
RTVSPost2010PropOp35
 70
     1
102
RTVSPost2010Prop36
280
     0
102
RTVSPost2010PropOp36
 70
     1
102
RTVSPost2010Prop37
 90
       50
102
RTVSPost2010PropOp37
 70
     1
102
RTVSPost2010Prop38
140
0.0
102
RTVSPost2010PropOp38
 70
     1
102
RTVSPost2010Prop39
140
1.0
102
RTVSPost2010PropOp39
 70
     1
102
RTVSPost2010Prop40
 90
        0
102
RTVSPost2010PropOp40
 70
     1
102
RTVSPost2010Prop41ColorIndex
 90
       18
102
RTVSPost2010Prop41ColorRGB
 90
        0
102
RTVSPost2010PropOp41
 70
     1
102
RTVSPost2010Prop42
 90
       50
102
RTVSPost2010PropOp42
 70
     1
102
RTVSPost2010Prop43
 90
        3
102
RTVSPost2010PropOp43
 70
     1
102
RTVSPost2010Prop44ColorIndex
 90
        5
102
RTVSPost2010Prop44ColorRGB
 90
      255
102
RTVSPost2010PropOp44
 70
     1
102
RTVSPost2010Prop45
280
     0
102
RTVSPost2010PropOp45
 70
     1
102
RTVSPost2010Prop46
 90
       50
102
RTVSPost2010PropOp46
 70
     1
102
RTVSPost2010Prop47
 90
       50
102
RTVSPost2010PropOp47
 70
     1
102
RTVSPost2010Prop48
 90
       50
102
RTVSPost2010PropOp48
 70
     1
102
RTVSPost2010Prop49
280
     0
102
RTVSPost2010PropOp49
 70
     1
102
RTVSPost2010Prop50
 90
       50
102
RTVSPost2010PropOp50
 70
     1
102
RTVSPost2010Prop51ColorIndex
 90
      256
102
RTVSPost2010Prop51ColorRGB
 90
-16777216
102
RTVSPost2010PropOp51
 70
     0
102
RTVSPost2010Prop52
140
1.0
102
RTVSPost2010PropOp52
 70
     0
102
RTVSPost2010Prop53
 90
        2
102
RTVSPost2010PropOp53
 70
     1
102
RTVSPost2010Prop54
  1
strokes_ogs.tif
102
RTVSPost2010PropOp54
 70
     1
102
RTVSPost2010Prop55
280
     0
102
RTVSPost2010PropOp55
 70
     1
102
RTVSPost2010Prop56
140
1.0
102
RTVSPost2010PropOp56
 70
     1
102
RTVSPost2010Prop57
140
1.0
102
RTVSPost2010PropOp57
 70
     1
  0
XRECORD
  5
130D
102
{ACAD_REACTORS
330
130C
102
}
330
130C
100
AcDbXrecord
280
     1
102
RTVSPost2010Prop28
280
     0
102
RTVSPost2010PropOp28
 70
     0
102
RTVSPost2010Prop29
280
     1
102
RTVSPost2010PropOp29
 70
     0
102
RTVSPost2010Prop30
280
     1
102
RTVSPost2010PropOp30
 70
     0
102
RTVSPost2010Prop31
280
     0
102
RTVSPost2010PropOp31
 70
     0
102
RTVSPost2010Prop32
280
     0
102
RTVSPost2010PropOp32
 70
     0
102
RTVSPost2010Prop33
280
     0
102
RTVSPost2010PropOp33
 70
     0
102
RTVSPost2010Prop34
280
     0
102
RTVSPost2010PropOp34
 70
     0
102
RTVSPost2010Prop35
280
     0
102
RTVSPost2010PropOp35
 70
     0
102
RTVSPost2010Prop36
280
     0
102
RTVSPost2010PropOp36
 70
     0
102
RTVSPost2010Prop37
 90
       50
102
RTVSPost2010PropOp37
 70
     0
102
RTVSPost2010Prop38
140
0.0
102
RTVSPost2010PropOp38
 70
     0
102
RTVSPost2010Prop39
140
1.0
102
RTVSPost2010PropOp39
 70
     0
102
RTVSPost2010Prop40
 90
        0
102
RTVSPost2010PropOp40
 70
     0
102
RTVSPost2010Prop41ColorIndex
 90
       18
102
RTVSPost2010Prop41ColorRGB
 90
        0
102
RTVSPost2010PropOp41
 70
     0
102
RTVSPost2010Prop42
 90
       50
102
RTVSPost2010PropOp42
 70
     0
102
RTVSPost2010Prop43
 90
        3
102
RTVSPost2010PropOp43
 70
     0
102
RTVSPost2010Prop44ColorIndex
 90
        5
102
RTVSPost2010Prop44ColorRGB
 90
      255
102
RTVSPost2010PropOp44
 70
     0
102
RTVSPost2010Prop45
280
     0
102
RTVSPost2010PropOp45
 70
     0
102
RTVSPost2010Prop46
 90
       50
102
RTVSPost2010PropOp46
 70
     0
102
RTVSPost2010Prop47
 90
       50
102
RTVSPost2010PropOp47
 70
     0
102
RTVSPost2010Prop48
 90
       50
102
RTVSPost2010PropOp48
 70
     0
102
RTVSPost2010Prop49
280
     0
102
RTVSPost2010PropOp49
 70
     0
102
RTVSPost2010Prop50
 90
       50
102
RTVSPost2010PropOp50
 70
     0
102
RTVSPost2010Prop51ColorIndex
 90
      256
102
RTVSPost2010Prop51ColorRGB
 90
-16777216
102
RTVSPost2010PropOp51
 70
     0
102
RTVSPost2010Prop52
140
1.0
102
RTVSPost2010PropOp52
 70
     0
102
RTVSPost2010Prop53
 90
        2
102
RTVSPost2010PropOp53
 70
     0
102
RTVSPost2010Prop54
  1
strokes_ogs.tif
102
RTVSPost2010PropOp54
 70
     0
102
RTVSPost2010Prop55
280
     0
102
RTVSPost2010PropOp55
 70
     0
102
RTVSPost2010Prop56
140
1.0
102
RTVSPost2010PropOp56
 70
     0
102
RTVSPost2010Prop57
140
1.0
102
RTVSPost2010PropOp57
 70
     0
  0
XRECORD
  5
12FB
102
{ACAD_REACTORS
330
12FA
102
}
330
12FA
100
AcDbXrecord
280
     1
102
RTVSPost2010Prop28
280
     0
102
RTVSPost2010PropOp28
 70
     1
102
RTVSPost2010Prop29
280
     1
102
RTVSPost2010PropOp29
 70
     1
102
RTVSPost2010Prop30
280
     1
102
RTVSPost2010PropOp30
 70
     1
102
RTVSPost2010Prop31
280
     0
102
RTVSPost2010PropOp31
 70
     1
102
RTVSPost2010Prop32
280
     0
102
RTVSPost2010PropOp32
 70
     1
102
RTVSPost2010Prop33
280
     0
102
RTVSPost2010PropOp33
 70
     1
102
RTVSPost2010Prop34
280
     0
102
RTVSPost2010PropOp34
 70
     1
102
RTVSPost2010Prop35
280
     0
102
RTVSPost2010PropOp35
 70
     1
102
RTVSPost2010Prop36
280
     0
102
RTVSPost2010PropOp36
 70
     1
102
RTVSPost2010Prop37
 90
       50
102
RTVSPost2010PropOp37
 70
     1
102
RTVSPost2010Prop38
140
0.0
102
RTVSPost2010PropOp38
 70
     1
102
RTVSPost2010Prop39
140
1.0
102
RTVSPost2010PropOp39
 70
     1
102
RTVSPost2010Prop40
 90
        0
102
RTVSPost2010PropOp40
 70
     1
102
RTVSPost2010Prop41ColorIndex
 90
       18
102
RTVSPost2010Prop41ColorRGB
 90
        0
102
RTVSPost2010PropOp41
 70
     1
102
RTVSPost2010Prop42
 90
       50
102
RTVSPost2010PropOp42
 70
     1
102
RTVSPost2010Prop43
 90
        3
102
RTVSPost2010PropOp43
 70
     1
102
RTVSPost2010Prop44ColorIndex
 90
        5
102
RTVSPost2010Prop44ColorRGB
 90
      255
102
RTVSPost2010PropOp44
 70
     1
102
RTVSPost2010Prop45
280
     0
102
RTVSPost2010PropOp45
 70
     1
102
RTVSPost2010Prop46
 90
       50
102
RTVSPost2010PropOp46
 70
     1
102
RTVSPost2010Prop47
 90
       50
102
RTVSPost2010PropOp47
 70
     1
102
RTVSPost2010Prop48
 90
       50
102
RTVSPost2010PropOp48
 70
     1
102
RTVSPost2010Prop49
280
     0
102
RTVSPost2010PropOp49
 70
     1
102
RTVSPost2010Prop50
 90
       50
102
RTVSPost2010PropOp50
 70
     1
102
RTVSPost2010Prop51ColorIndex
 90
      256
102
RTVSPost2010Prop51ColorRGB
 90
-16777216
102
RTVSPost2010PropOp51
 70
     0
102
RTVSPost2010Prop52
140
1.0
102
RTVSPost2010PropOp52
 70
     0
102
RTVSPost2010Prop53
 90
        2
102
RTVSPost2010PropOp53
 70
     1
102
RTVSPost2010Prop54
  1
strokes_ogs.tif
102
RTVSPost2010PropOp54
 70
     1
102
RTVSPost2010Prop55
280
     0
102
RTVSPost2010PropOp55
 70
     1
102
RTVSPost2010Prop56
140
1.0
102
RTVSPost2010PropOp56
 70
     1
102
RTVSPost2010Prop57
140
1.0
102
RTVSPost2010PropOp57
 70
     1
  0
XRECORD
  5
1319
102
{ACAD_REACTORS
330
1318
102
}
330
1318
100
AcDbXrecord
280
     1
102
RTVSPost2010Prop28
280
     0
102
RTVSPost2010PropOp28
 70
     1
102
RTVSPost2010Prop29
280
     1
102
RTVSPost2010PropOp29
 70
     1
102
RTVSPost2010Prop30
280
     1
102
RTVSPost2010PropOp30
 70
     1
102
RTVSPost2010Prop31
280
     0
102
RTVSPost2010PropOp31
 70
     1
102
RTVSPost2010Prop32
280
     0
102
RTVSPost2010PropOp32
 70
     1
102
RTVSPost2010Prop33
280
     0
102
RTVSPost2010PropOp33
 70
     1
102
RTVSPost2010Prop34
280
     0
102
RTVSPost2010PropOp34
 70
     1
102
RTVSPost2010Prop35
280
     0
102
RTVSPost2010PropOp35
 70
     1
102
RTVSPost2010Prop36
280
     0
102
RTVSPost2010PropOp36
 70
     1
102
RTVSPost2010Prop37
 90
       50
102
RTVSPost2010PropOp37
 70
     1
102
RTVSPost2010Prop38
140
0.0
102
RTVSPost2010PropOp38
 70
     1
102
RTVSPost2010Prop39
140
1.0
102
RTVSPost2010PropOp39
 70
     1
102
RTVSPost2010Prop40
 90
        0
102
RTVSPost2010PropOp40
 70
     1
102
RTVSPost2010Prop41ColorIndex
 90
       18
102
RTVSPost2010Prop41ColorRGB
 90
        0
102
RTVSPost2010PropOp41
 70
     1
102
RTVSPost2010Prop42
 90
       50
102
RTVSPost2010PropOp42
 70
     1
102
RTVSPost2010Prop43
 90
        3
102
RTVSPost2010PropOp43
 70
     1
102
RTVSPost2010Prop44ColorIndex
 90
        5
102
RTVSPost2010Prop44ColorRGB
 90
      255
102
RTVSPost2010PropOp44
 70
     1
102
RTVSPost2010Prop45
280
     0
102
RTVSPost2010PropOp45
 70
     1
102
RTVSPost2010Prop46
 90
       50
102
RTVSPost2010PropOp46
 70
     1
102
RTVSPost2010Prop47
 90
       50
102
RTVSPost2010PropOp47
 70
     1
102
RTVSPost2010Prop48
 90
       50
102
RTVSPost2010PropOp48
 70
     1
102
RTVSPost2010Prop49
280
     0
102
RTVSPost2010PropOp49
 70
     1
102
RTVSPost2010Prop50
 90
       50
102
RTVSPost2010PropOp50
 70
     1
102
RTVSPost2010Prop51ColorIndex
 90
      256
102
RTVSPost2010Prop51ColorRGB
 90
-16777216
102
RTVSPost2010PropOp51
 70
     0
102
RTVSPost2010Prop52
140
1.0
102
RTVSPost2010PropOp52
 70
     0
102
RTVSPost2010Prop53
 90
        2
102
RTVSPost2010PropOp53
 70
     1
102
RTVSPost2010Prop54
  1
strokes_ogs.tif
102
RTVSPost2010PropOp54
 70
     1
102
RTVSPost2010Prop55
280
     0
102
RTVSPost2010PropOp55
 70
     1
102
RTVSPost2010Prop56
140
1.0
102
RTVSPost2010PropOp56
 70
     1
102
RTVSPost2010Prop57
140
1.0
102
RTVSPost2010PropOp57
 70
     1
  0
XRECORD
  5
1317
102
{ACAD_REACTORS
330
1316
102
}
330
1316
100
AcDbXrecord
280
     1
102
RTVSPost2010Prop28
280
     0
102
RTVSPost2010PropOp28
 70
     1
102
RTVSPost2010Prop29
280
     1
102
RTVSPost2010PropOp29
 70
     1
102
RTVSPost2010Prop30
280
     1
102
RTVSPost2010PropOp30
 70
     1
102
RTVSPost2010Prop31
280
     0
102
RTVSPost2010PropOp31
 70
     1
102
RTVSPost2010Prop32
280
     0
102
RTVSPost2010PropOp32
 70
     1
102
RTVSPost2010Prop33
280
     0
102
RTVSPost2010PropOp33
 70
     1
102
RTVSPost2010Prop34
280
     0
102
RTVSPost2010PropOp34
 70
     1
102
RTVSPost2010Prop35
280
     0
102
RTVSPost2010PropOp35
 70
     1
102
RTVSPost2010Prop36
280
     0
102
RTVSPost2010PropOp36
 70
     1
102
RTVSPost2010Prop37
 90
       50
102
RTVSPost2010PropOp37
 70
     1
102
RTVSPost2010Prop38
140
0.0
102
RTVSPost2010PropOp38
 70
     1
102
RTVSPost2010Prop39
140
1.0
102
RTVSPost2010PropOp39
 70
     1
102
RTVSPost2010Prop40
 90
        0
102
RTVSPost2010PropOp40
 70
     1
102
RTVSPost2010Prop41ColorIndex
 90
       18
102
RTVSPost2010Prop41ColorRGB
 90
        0
102
RTVSPost2010PropOp41
 70
     1
102
RTVSPost2010Prop42
 90
       50
102
RTVSPost2010PropOp42
 70
     1
102
RTVSPost2010Prop43
 90
        3
102
RTVSPost2010PropOp43
 70
     1
102
RTVSPost2010Prop44ColorIndex
 90
        5
102
RTVSPost2010Prop44ColorRGB
 90
      255
102
RTVSPost2010PropOp44
 70
     1
102
RTVSPost2010Prop45
280
     0
102
RTVSPost2010PropOp45
 70
     1
102
RTVSPost2010Prop46
 90
       50
102
RTVSPost2010PropOp46
 70
     1
102
RTVSPost2010Prop47
 90
       50
102
RTVSPost2010PropOp47
 70
     1
102
RTVSPost2010Prop48
 90
       50
102
RTVSPost2010PropOp48
 70
     1
102
RTVSPost2010Prop49
280
     0
102
RTVSPost2010PropOp49
 70
     1
102
RTVSPost2010Prop50
 90
       50
102
RTVSPost2010PropOp50
 70
     1
102
RTVSPost2010Prop51ColorIndex
 90
      256
102
RTVSPost2010Prop51ColorRGB
 90
-16777216
102
RTVSPost2010PropOp51
 70
     0
102
RTVSPost2010Prop52
140
1.0
102
RTVSPost2010PropOp52
 70
     0
102
RTVSPost2010Prop53
 90
        2
102
RTVSPost2010PropOp53
 70
     1
102
RTVSPost2010Prop54
  1
strokes_ogs.tif
102
RTVSPost2010PropOp54
 70
     1
102
RTVSPost2010Prop55
280
     0
102
RTVSPost2010PropOp55
 70
     1
102
RTVSPost2010Prop56
140
1.0
102
RTVSPost2010PropOp56
 70
     1
102
RTVSPost2010Prop57
140
1.0
102
RTVSPost2010PropOp57
 70
     1
  0
XRECORD
  5
1311
102
{ACAD_REACTORS
330
1310
102
}
330
1310
100
AcDbXrecord
280
     1
102
RTVSPost2010Prop28
280
     0
102
RTVSPost2010PropOp28
 70
     1
102
RTVSPost2010Prop29
280
     1
102
RTVSPost2010PropOp29
 70
     1
102
RTVSPost2010Prop30
280
     1
102
RTVSPost2010PropOp30
 70
     1
102
RTVSPost2010Prop31
280
     0
102
RTVSPost2010PropOp31
 70
     1
102
RTVSPost2010Prop32
280
     0
102
RTVSPost2010PropOp32
 70
     1
102
RTVSPost2010Prop33
280
     0
102
RTVSPost2010PropOp33
 70
     1
102
RTVSPost2010Prop34
280
     0
102
RTVSPost2010PropOp34
 70
     1
102
RTVSPost2010Prop35
280
     0
102
RTVSPost2010PropOp35
 70
     1
102
RTVSPost2010Prop36
280
     0
102
RTVSPost2010PropOp36
 70
     1
102
RTVSPost2010Prop37
 90
       50
102
RTVSPost2010PropOp37
 70
     1
102
RTVSPost2010Prop38
140
0.0
102
RTVSPost2010PropOp38
 70
     1
102
RTVSPost2010Prop39
140
1.0
102
RTVSPost2010PropOp39
 70
     1
102
RTVSPost2010Prop40
 90
        0
102
RTVSPost2010PropOp40
 70
     1
102
RTVSPost2010Prop41ColorIndex
 90
       18
102
RTVSPost2010Prop41ColorRGB
 90
        0
102
RTVSPost2010PropOp41
 70
     1
102
RTVSPost2010Prop42
 90
       50
102
RTVSPost2010PropOp42
 70
     1
102
RTVSPost2010Prop43
 90
        3
102
RTVSPost2010PropOp43
 70
     1
102
RTVSPost2010Prop44ColorIndex
 90
        5
102
RTVSPost2010Prop44ColorRGB
 90
      255
102
RTVSPost2010PropOp44
 70
     1
102
RTVSPost2010Prop45
280
     0
102
RTVSPost2010PropOp45
 70
     1
102
RTVSPost2010Prop46
 90
       50
102
RTVSPost2010PropOp46
 70
     1
102
RTVSPost2010Prop47
 90
       50
102
RTVSPost2010PropOp47
 70
     1
102
RTVSPost2010Prop48
 90
       50
102
RTVSPost2010PropOp48
 70
     1
102
RTVSPost2010Prop49
280
     0
102
RTVSPost2010PropOp49
 70
     1
102
RTVSPost2010Prop50
 90
       50
102
RTVSPost2010PropOp50
 70
     1
102
RTVSPost2010Prop51ColorIndex
 90
      256
102
RTVSPost2010Prop51ColorRGB
 90
-16777216
102
RTVSPost2010PropOp51
 70
     0
102
RTVSPost2010Prop52
140
1.0
102
RTVSPost2010PropOp52
 70
     0
102
RTVSPost2010Prop53
 90
        2
102
RTVSPost2010PropOp53
 70
     1
102
RTVSPost2010Prop54
  1
strokes_ogs.tif
102
RTVSPost2010PropOp54
 70
     1
102
RTVSPost2010Prop55
280
     0
102
RTVSPost2010PropOp55
 70
     1
102
RTVSPost2010Prop56
140
1.0
102
RTVSPost2010PropOp56
 70
     1
102
RTVSPost2010Prop57
140
1.0
102
RTVSPost2010PropOp57
 70
     1
  0
XRECORD
  5
1313
102
{ACAD_REACTORS
330
1312
102
}
330
1312
100
AcDbXrecord
280
     1
102
RTVSPost2010Prop28
280
     0
102
RTVSPost2010PropOp28
 70
     1
102
RTVSPost2010Prop29
280
     1
102
RTVSPost2010PropOp29
 70
     1
102
RTVSPost2010Prop30
280
     1
102
RTVSPost2010PropOp30
 70
     1
102
RTVSPost2010Prop31
280
     0
102
RTVSPost2010PropOp31
 70
     1
102
RTVSPost2010Prop32
280
     0
102
RTVSPost2010PropOp32
 70
     1
102
RTVSPost2010Prop33
280
     0
102
RTVSPost2010PropOp33
 70
     1
102
RTVSPost2010Prop34
280
     0
102
RTVSPost2010PropOp34
 70
     1
102
RTVSPost2010Prop35
280
     0
102
RTVSPost2010PropOp35
 70
     1
102
RTVSPost2010Prop36
280
     0
102
RTVSPost2010PropOp36
 70
     1
102
RTVSPost2010Prop37
 90
       50
102
RTVSPost2010PropOp37
 70
     1
102
RTVSPost2010Prop38
140
0.0
102
RTVSPost2010PropOp38
 70
     1
102
RTVSPost2010Prop39
140
1.0
102
RTVSPost2010PropOp39
 70
     1
102
RTVSPost2010Prop40
 90
        0
102
RTVSPost2010PropOp40
 70
     1
102
RTVSPost2010Prop41ColorIndex
 90
       18
102
RTVSPost2010Prop41ColorRGB
 90
        0
102
RTVSPost2010PropOp41
 70
     1
102
RTVSPost2010Prop42
 90
       50
102
RTVSPost2010PropOp42
 70
     1
102
RTVSPost2010Prop43
 90
        3
102
RTVSPost2010PropOp43
 70
     1
102
RTVSPost2010Prop44ColorIndex
 90
        5
102
RTVSPost2010Prop44ColorRGB
 90
      255
102
RTVSPost2010PropOp44
 70
     1
102
RTVSPost2010Prop45
280
     0
102
RTVSPost2010PropOp45
 70
     1
102
RTVSPost2010Prop46
 90
       50
102
RTVSPost2010PropOp46
 70
     1
102
RTVSPost2010Prop47
 90
       50
102
RTVSPost2010PropOp47
 70
     1
102
RTVSPost2010Prop48
 90
       50
102
RTVSPost2010PropOp48
 70
     1
102
RTVSPost2010Prop49
280
     0
102
RTVSPost2010PropOp49
 70
     1
102
RTVSPost2010Prop50
 90
       50
102
RTVSPost2010PropOp50
 70
     1
102
RTVSPost2010Prop51ColorIndex
 90
      256
102
RTVSPost2010Prop51ColorRGB
 90
-16777216
102
RTVSPost2010PropOp51
 70
     0
102
RTVSPost2010Prop52
140
1.0
102
RTVSPost2010PropOp52
 70
     0
102
RTVSPost2010Prop53
 90
        2
102
RTVSPost2010PropOp53
 70
     1
102
RTVSPost2010Prop54
  1
strokes_ogs.tif
102
RTVSPost2010PropOp54
 70
     1
102
RTVSPost2010Prop55
280
     0
102
RTVSPost2010PropOp55
 70
     1
102
RTVSPost2010Prop56
140
1.0
102
RTVSPost2010PropOp56
 70
     1
102
RTVSPost2010Prop57
140
1.0
102
RTVSPost2010PropOp57
 70
     1
  0
XRECORD
  5
1303
102
{ACAD_REACTORS
330
1302
102
}
330
1302
100
AcDbXrecord
280
     1
102
RTVSPost2010Prop28
280
     0
102
RTVSPost2010PropOp28
 70
     1
102
RTVSPost2010Prop29
280
     1
102
RTVSPost2010PropOp29
 70
     1
102
RTVSPost2010Prop30
280
     1
102
RTVSPost2010PropOp30
 70
     1
102
RTVSPost2010Prop31
280
     0
102
RTVSPost2010PropOp31
 70
     1
102
RTVSPost2010Prop32
280
     0
102
RTVSPost2010PropOp32
 70
     1
102
RTVSPost2010Prop33
280
     0
102
RTVSPost2010PropOp33
 70
     1
102
RTVSPost2010Prop34
280
     0
102
RTVSPost2010PropOp34
 70
     1
102
RTVSPost2010Prop35
280
     0
102
RTVSPost2010PropOp35
 70
     1
102
RTVSPost2010Prop36
280
     0
102
RTVSPost2010PropOp36
 70
     1
102
RTVSPost2010Prop37
 90
       50
102
RTVSPost2010PropOp37
 70
     1
102
RTVSPost2010Prop38
140
0.0
102
RTVSPost2010PropOp38
 70
     1
102
RTVSPost2010Prop39
140
1.0
102
RTVSPost2010PropOp39
 70
     1
102
RTVSPost2010Prop40
 90
        0
102
RTVSPost2010PropOp40
 70
     1
102
RTVSPost2010Prop41ColorIndex
 90
       18
102
RTVSPost2010Prop41ColorRGB
 90
        0
102
RTVSPost2010PropOp41
 70
     1
102
RTVSPost2010Prop42
 90
       50
102
RTVSPost2010PropOp42
 70
     1
102
RTVSPost2010Prop43
 90
        3
102
RTVSPost2010PropOp43
 70
     1
102
RTVSPost2010Prop44ColorIndex
 90
        5
102
RTVSPost2010Prop44ColorRGB
 90
      255
102
RTVSPost2010PropOp44
 70
     1
102
RTVSPost2010Prop45
280
     0
102
RTVSPost2010PropOp45
 70
     1
102
RTVSPost2010Prop46
 90
       50
102
RTVSPost2010PropOp46
 70
     1
102
RTVSPost2010Prop47
 90
       50
102
RTVSPost2010PropOp47
 70
     1
102
RTVSPost2010Prop48
 90
       50
102
RTVSPost2010PropOp48
 70
     1
102
RTVSPost2010Prop49
280
     0
102
RTVSPost2010PropOp49
 70
     1
102
RTVSPost2010Prop50
 90
       50
102
RTVSPost2010PropOp50
 70
     1
102
RTVSPost2010Prop51ColorIndex
 90
      256
102
RTVSPost2010Prop51ColorRGB
 90
-16777216
102
RTVSPost2010PropOp51
 70
     0
102
RTVSPost2010Prop52
140
1.0
102
RTVSPost2010PropOp52
 70
     0
102
RTVSPost2010Prop53
 90
        2
102
RTVSPost2010PropOp53
 70
     1
102
RTVSPost2010Prop54
  1
strokes_ogs.tif
102
RTVSPost2010PropOp54
 70
     1
102
RTVSPost2010Prop55
280
     0
102
RTVSPost2010PropOp55
 70
     1
102
RTVSPost2010Prop56
140
1.0
102
RTVSPost2010PropOp56
 70
     1
102
RTVSPost2010Prop57
140
1.0
102
RTVSPost2010PropOp57
 70
     1
  0
XRECORD
  5
12F5
102
{ACAD_REACTORS
330
12F4
102
}
330
12F4
100
AcDbXrecord
280
     1
102
RTVSPost2010Prop28
280
     0
102
RTVSPost2010PropOp28
 70
     1
102
RTVSPost2010Prop29
280
     1
102
RTVSPost2010PropOp29
 70
     1
102
RTVSPost2010Prop30
280
     1
102
RTVSPost2010PropOp30
 70
     1
102
RTVSPost2010Prop31
280
     0
102
RTVSPost2010PropOp31
 70
     1
102
RTVSPost2010Prop32
280
     0
102
RTVSPost2010PropOp32
 70
     1
102
RTVSPost2010Prop33
280
     0
102
RTVSPost2010PropOp33
 70
     1
102
RTVSPost2010Prop34
280
     0
102
RTVSPost2010PropOp34
 70
     1
102
RTVSPost2010Prop35
280
     0
102
RTVSPost2010PropOp35
 70
     1
102
RTVSPost2010Prop36
280
     0
102
RTVSPost2010PropOp36
 70
     1
102
RTVSPost2010Prop37
 90
       50
102
RTVSPost2010PropOp37
 70
     1
102
RTVSPost2010Prop38
140
0.0
102
RTVSPost2010PropOp38
 70
     1
102
RTVSPost2010Prop39
140
1.0
102
RTVSPost2010PropOp39
 70
     1
102
RTVSPost2010Prop40
 90
        0
102
RTVSPost2010PropOp40
 70
     1
102
RTVSPost2010Prop41ColorIndex
 90
       18
102
RTVSPost2010Prop41ColorRGB
 90
        0
102
RTVSPost2010PropOp41
 70
     1
102
RTVSPost2010Prop42
 90
       50
102
RTVSPost2010PropOp42
 70
     1
102
RTVSPost2010Prop43
 90
        3
102
RTVSPost2010PropOp43
 70
     1
102
RTVSPost2010Prop44ColorIndex
 90
        5
102
RTVSPost2010Prop44ColorRGB
 90
      255
102
RTVSPost2010PropOp44
 70
     1
102
RTVSPost2010Prop45
280
     0
102
RTVSPost2010PropOp45
 70
     1
102
RTVSPost2010Prop46
 90
       50
102
RTVSPost2010PropOp46
 70
     1
102
RTVSPost2010Prop47
 90
       50
102
RTVSPost2010PropOp47
 70
     1
102
RTVSPost2010Prop48
 90
       50
102
RTVSPost2010PropOp48
 70
     1
102
RTVSPost2010Prop49
280
     0
102
RTVSPost2010PropOp49
 70
     1
102
RTVSPost2010Prop50
 90
       50
102
RTVSPost2010PropOp50
 70
     1
102
RTVSPost2010Prop51ColorIndex
 90
      256
102
RTVSPost2010Prop51ColorRGB
 90
-16777216
102
RTVSPost2010PropOp51
 70
     0
102
RTVSPost2010Prop52
140
1.0
102
RTVSPost2010PropOp52
 70
     0
102
RTVSPost2010Prop53
 90
        2
102
RTVSPost2010PropOp53
 70
     1
102
RTVSPost2010Prop54
  1
strokes_ogs.tif
102
RTVSPost2010PropOp54
 70
     1
102
RTVSPost2010Prop55
280
     0
102
RTVSPost2010PropOp55
 70
     1
102
RTVSPost2010Prop56
140
1.0
102
RTVSPost2010PropOp56
 70
     1
102
RTVSPost2010Prop57
140
1.0
102
RTVSPost2010PropOp57
 70
     1
  0
XRECORD
  5
1315
102
{ACAD_REACTORS
330
1314
102
}
330
1314
100
AcDbXrecord
280
     1
102
RTVSPost2010Prop28
280
     0
102
RTVSPost2010PropOp28
 70
     1
102
RTVSPost2010Prop29
280
     1
102
RTVSPost2010PropOp29
 70
     1
102
RTVSPost2010Prop30
280
     1
102
RTVSPost2010PropOp30
 70
     1
102
RTVSPost2010Prop31
280
     0
102
RTVSPost2010PropOp31
 70
     1
102
RTVSPost2010Prop32
280
     0
102
RTVSPost2010PropOp32
 70
     1
102
RTVSPost2010Prop33
280
     0
102
RTVSPost2010PropOp33
 70
     1
102
RTVSPost2010Prop34
280
     0
102
RTVSPost2010PropOp34
 70
     1
102
RTVSPost2010Prop35
280
     0
102
RTVSPost2010PropOp35
 70
     1
102
RTVSPost2010Prop36
280
     0
102
RTVSPost2010PropOp36
 70
     1
102
RTVSPost2010Prop37
 90
       50
102
RTVSPost2010PropOp37
 70
     1
102
RTVSPost2010Prop38
140
0.0
102
RTVSPost2010PropOp38
 70
     1
102
RTVSPost2010Prop39
140
1.0
102
RTVSPost2010PropOp39
 70
     1
102
RTVSPost2010Prop40
 90
        0
102
RTVSPost2010PropOp40
 70
     1
102
RTVSPost2010Prop41ColorIndex
 90
       18
102
RTVSPost2010Prop41ColorRGB
 90
        0
102
RTVSPost2010PropOp41
 70
     1
102
RTVSPost2010Prop42
 90
       50
102
RTVSPost2010PropOp42
 70
     1
102
RTVSPost2010Prop43
 90
        3
102
RTVSPost2010PropOp43
 70
     1
102
RTVSPost2010Prop44ColorIndex
 90
        5
102
RTVSPost2010Prop44ColorRGB
 90
      255
102
RTVSPost2010PropOp44
 70
     1
102
RTVSPost2010Prop45
280
     0
102
RTVSPost2010PropOp45
 70
     1
102
RTVSPost2010Prop46
 90
       50
102
RTVSPost2010PropOp46
 70
     1
102
RTVSPost2010Prop47
 90
       50
102
RTVSPost2010PropOp47
 70
     1
102
RTVSPost2010Prop48
 90
       50
102
RTVSPost2010PropOp48
 70
     1
102
RTVSPost2010Prop49
280
     0
102
RTVSPost2010PropOp49
 70
     1
102
RTVSPost2010Prop50
 90
       50
102
RTVSPost2010PropOp50
 70
     1
102
RTVSPost2010Prop51ColorIndex
 90
      256
102
RTVSPost2010Prop51ColorRGB
 90
-16777216
102
RTVSPost2010PropOp51
 70
     0
102
RTVSPost2010Prop52
140
1.0
102
RTVSPost2010PropOp52
 70
     0
102
RTVSPost2010Prop53
 90
        2
102
RTVSPost2010PropOp53
 70
     1
102
RTVSPost2010Prop54
  1
strokes_ogs.tif
102
RTVSPost2010PropOp54
 70
     1
102
RTVSPost2010Prop55
280
     0
102
RTVSPost2010PropOp55
 70
     1
102
RTVSPost2010Prop56
140
1.0
102
RTVSPost2010PropOp56
 70
     1
102
RTVSPost2010Prop57
140
1.0
102
RTVSPost2010PropOp57
 70
     1
  0
ENDSEC
  0
SECTION
  2
THUMBNAILIMAGE
 90
    17448
310
28000000800000008000000001000800000000000040000000000000000000000000000000000000FFFFFFFF0000FFFF00FFFFFF00FF00FFFFFF00FFFF0000FFFF00FFFF000000FF808080FFC0C0C0FF0000FFFF7F7FFFFF0000A5FF5252A5FF00007FFF3F3F7FFF00004CFF26264CFF000026FF131326FF003FFFFF7F9FFF
310
FF0029A5FF5267A5FF001F7FFF3F4F7FFF00134CFF262F4CFF000926FF131726FF007FFFFF7FBFFFFF0052A5FF527CA5FF003F7FFF3F5F7FFF00264CFF26394CFF001326FF131C26FF00BFFFFF7FDFFFFF007CA5FF5291A5FF005F7FFF3F6F7FFF00394CFF26424CFF001C26FF132126FF00FFFFFF7FFFFFFF00A5A5FF52A5
310
A5FF007F7FFF3F7F7FFF004C4CFF264C4CFF002626FF132626FF00FFBFFF7FFFDFFF00A57CFF52A591FF007F5FFF3F7F6FFF004C39FF264C42FF00261CFF132621FF00FF7FFF7FFFBFFF00A552FF52A57CFF007F3FFF3F7F5FFF004C26FF264C39FF002613FF13261CFF00FF3FFF7FFF9FFF00A529FF52A567FF007F1FFF3F
310
7F4FFF004C13FF264C2FFF002609FF132617FF00FF00FF7FFF7FFF00A500FF52A552FF007F00FF3F7F3FFF004C00FF264C26FF002600FF132613FF3FFF00FF9FFF7FFF29A500FF67A552FF1F7F00FF4F7F3FFF134C00FF2F4C26FF092600FF172613FF7FFF00FFBFFF7FFF52A500FF7CA552FF3F7F00FF5F7F3FFF264C00FF
310
394C26FF132600FF1C2613FFBFFF00FFDFFF7FFF7CA500FF91A552FF5F7F00FF6F7F3FFF394C00FF424C26FF1C2600FF212613FFFFFF00FFFFFF7FFFA5A500FFA5A552FF7F7F00FF7F7F3FFF4C4C00FF4C4C26FF262600FF262613FFFFBF00FFFFDF7FFFA57C00FFA59152FF7F5F00FF7F6F3FFF4C3900FF4C4226FF261C00
310
FF262113FFFF7F00FFFFBF7FFFA55200FFA57C52FF7F3F00FF7F5F3FFF4C2600FF4C3926FF261300FF261C13FFFF3F00FFFF9F7FFFA52900FFA56752FF7F1F00FF7F4F3FFF4C1300FF4C2F26FF260900FF261713FFFF0000FFFF7F7FFFA50000FFA55252FF7F0000FF7F3F3FFF4C0000FF4C2626FF260000FF261313FFFF00
310
3FFFFF7F9FFFA50029FFA55267FF7F001FFF7F3F4FFF4C0013FF4C262FFF260009FF261317FFFF007FFFFF7FBFFFA50052FFA5527CFF7F003FFF7F3F5FFF4C0026FF4C2639FF260013FF26131CFFFF00BFFFFF7FDFFFA5007CFFA55291FF7F005FFF7F3F6FFF4C0039FF4C2642FF26001CFF261321FFFF00FFFFFF7FFFFFA5
310
00A5FFA552A5FF7F007FFF7F3F7FFF4C004CFF4C264CFF260026FF261326FFBF00FFFFDF7FFFFF7C00A5FF9152A5FF5F007FFF6F3F7FFF39004CFF42264CFF1C0026FF211326FF7F00FFFFBF7FFFFF5200A5FF7C52A5FF3F007FFF5F3F7FFF26004CFF39264CFF130026FF1C1326FF3F00FFFF9F7FFFFF2900A5FF6752A5FF
310
1F007FFF4F3F7FFF13004CFF2F264CFF090026FF171326FF000000FF2D2D2DFF5B5B5BFF898989FFB7B7B7FFB3B3B3FF00000000000000000000000000000000000000000000000000000000000000000000000000000000000000000000000000000000000000000000000000000000000000000000000000000000000000
310
00000000000000000000000000000000000000000000000000000000000000000000000000000000000000000000000000000000000000000000000000000000000000000000000000000000000000000000000000000000000000000000000000000000000000000000000000000000000000000000000000000000000000
310
00000000000000000000000000000000000000000000000000000000000000000000000000000000000000000000000000000000000000000000000000000000000000000000000000000000000000000000000000000000000000000000000000000000000000000000000000000000000000000000000000000000000000
310
00000000000000000000000000000000000000000000000000000000000000000000000000000000000000000000000000000000000000000000000000000000000000000000000000000000070707070707070707070707070707070707070707070707070707070707070707070707070707070707070707070707070707
310
07070707070707070707070707070707070707070707070707070707070707070707070707070707070707070707070707070707000000000000000000000000000000000000000000000000070000000000000000000000000000000000000000000000000000000000000000000000000000000000000000000000000000
310
00000000000000000000000000000000000000000000000000000000000000000000000000000000000000000000000000000000000000000000000000000000000000000000000000000000000700000000000000000000000000000000000000000000000000000000000000000000000000000000000000000000000000
310
00000000000000000000000000000000000000000000000000000000000000000000000000000000000000000000000000000000000000000000000000000000000000000000000000000000000007000000000000000000000000000000000000000000000000000000000000000000000000000000000000000000000000
310
00000000000000000000000000000000000000000000000000000000000000000000000000000000000000000000000000000000000000000000000000000000000000000000000000000000000000070000000000000000000000000000000000000000000000000000000000000000000000000000000000000000000000
310
00000000000000000000000000000000000000000000000000000000000000000000000000000000000000000000000000000000000000000000000000000000000000000000000000000000000000000700000000000000000000000000000000000000000000000000000000000000000000000000000000000000000000
310
00000000000000000000000000000000000000000000000000000000000000000000000000000000000000000000000000000000000000000000000000000000000000000000000000000000000000000007000000000000000000000000000000000000000000000000000000000000000000000000000000000000000000
310
00000000000000000000000000000000000000000000000000000000000000000000000000000000000000000000000000000000000000000000000000000000000000000000000000000000000000000000070000000000000000000000000000000000000000000000000000000000000000000000000000000000000000
310
00000000000000000000000000000000000000000000000000000000000000000000000000000000000000000000000000000000000000000000000000000000000000000000000000000000000000000000000700000000000000000000000000000000000000000000000000000000000000000000000000000000000000
310
00000000000000000000000000000000000000000000000000000000000000000000000000000000000000000000000000000000000000000000000000000000000000000000000000000000000000000000000007000000000000000000000000000000000000000000000000000000000000000000000000000000000000
310
00000000000000000000000000000000000000000000000000000000000000000000000000000000000000000000000000000000000000000000000000000000000000000000000000000000000000000000000000070000000000000000000000000000000000000000000000000000000000000000000000000000000000
310
00000000000000000000000000000000000000000000000000000000000000000000000000000000000000000000000000000000000000000000000000000000000000000000000000000000000000000000000000000700000000000000000000000000000000000000000000000000000000000000000000000000000000
310
00000000000000000000000000000000000000000000000000000000000000000000000000000000000000000000000000000000000000000000000000000000000000000000000000000000000000000000000000000007000000000000000000000000000000000000000000000000000000000000000000000000000000
310
00000000000000000000000000000000000000000000000000000000000000000000000000000000000000000000000000000000000000000000000000000000000000000000000000000000000000000000000000000000070000000000000000000000000000000000000000000000000000000000000000000000000000
310
00000000000000000000000000000000000000000000000000000000000000000000000000000000000000000000000000000000000000000000000000000000000000000000000000000000000000000000000000000000000700000000000000000000000000000000000000000000000000000000000000000000000000
310
00000000000000000000000000000000000000000000000000000000000000000000000000000000000000000000000000000000000000000000000000000000000000000000000000000000000000000000000000000000000007000000000000000000000000000000000000000000000000000000000000000000000000
310
00000000000000000000000000000000000000000000000000000000000000000000000000000000000000000000000000000000000000000000000000000000000000000000000000000000000000000000000000000000000000070000000000000000000000000000000000000000000000000000000000000000000000
310
00000000000000000000000000000000000000000000000000000000000000000000000000000000000000000000000000000000000000000000000000000000000000000000000000000000000000000000000000000000000000000700000000000000000000000000000000000000000000000000000000000000000000
310
00000000000000000000000000000000000000000000000000000000000000000000000000000000000000000000000000000000000000000000000000000000000000000000000000000000000000000000000000000000000000000007000000000000000000000000000000000000000000000000000000000000000000
310
00000000000000000000000000000000000000000000000000000000000000000000000000000000000000000000000000000000000000000000000000000000000000000000000000000000000000000000000000000000000000000000070000000000000000000000000000000000000000000000000000000000000000
310
00000000000000000000000000000000000000000000000000000000000000000000000000000000000000000000000000000000000000000000000000000000000000000000000000000000000000000000000000000000000000000000000700000000000000000000000000000000000000000000000000000000000000
310
00000000000000000000000000000000000000000000000000000000000000000000000000000000000000000000000000000000000000000000000000000000000000000000000000000000000000000000000000000000000000000000000007000000000000000000000000000000000000000000000000000000000000
310
00000000000000000000000000000000000000000000000000000000000000000000000000000000000000000000000000000000000000000000000000000000000000000000000000000000000000000000000000000000000000000000000000070000000000000000000000000000000000000000000000000000000000
310
00000000000000000000000000000000000000000000000000000000000000000000000000000000000000000000000000000000000000000000000000000000000000000000000000000000000000000000000000000000000000000000000000000700000000000000000000000000000000000000000000000000000000
310
00000000000000000000000000000000000000000000000000000000000000000000000000000000000000000000000000000000000000000000000000000000000000000000000000000000000000000000000000000000000000000000000000000007000000000000000000000000000000000000000000000000000000
310
00000000000000000000000000000000000000000000000000000000000000000000000000000000000000000000000000000000000000000000000000000000000000000000000000000000000000000000000000000000000000000000000000000000070000000000000000000000000000000000000000000000000000
310
00000000000000000000000000000000000000000000000000000000000000000000000000000000000000000000000000000000000000000000000000000000000000000000000000000000000000000000000000000000000000000000000000000000000700000000000000000000000000000000000000000000000000
310
00000000000000000000000000000000000000000000000000000000000000000000000000000000000000000000000000000000000000000000000000000000000000000000000000000000000000000000000000000000000000000000000000000000000007000000000000000000000000000000000000000000000000
310
00000000000000000000000000000000000000000000000000000000000000000000000000000000000000000000000000000000000000000000000000000000000000000000000000000000000000000000000000000000000000000000000000000000000000070000000000000000000000000000000000000000000000
310
00000000000000000000000000000000000000000000000000000000000000000000000000000000000000000000000000000000000000000000000000000000000000000000000000000000000000000000000000000000000000000000000000000000000000000700000000000000000000000000000000000000000000
310
00000000000000000000000000000000000000000000000000000000000000000000000000000000000000000000000000000000000000000000000000000000000000000000000000000000000000000000000000000000000000000000000000000000000000000007000000000000000000000000000000000000000000
310
00000000000000000000000000000000000000000000000000000000000000000000000000000000000000000000000000000000000000000000000000000000000000000000000000000000000000000000000000000000000000000000000000000000000000000000070000000000000000000000000000000000000000
310
00000000000000000000000000000000000000000000000000000000000000000000000000000000000000000000000000000000000000000000000000000000000000000000000000000000000000000000000000000000000000000000000000000000000000000000000700000000000000000000000000000000000000
310
00000000000000000000000000000000000000000000000000000000000000000000000000000000000000000000000000000000000000000000000000000000000000000000000000000000000000000000000000000000000000000000000000000000000000000000000007000000000000000000000000000000000000
310
00000000000000000000000000000000000000000000000000000000000000000000000000000000000000000000000000000000000000000000000000000000000000000000000000000000000000000000000000000000000000000000000000000000000000000000000000070000000000000000000000000000000000
310
00000000000000000000000000000000000000000000000000000000000000000000000000000000000000000000000000000000000000000000000000000000000000000000000000000000000000000000000000000000000000000000000000000000000000000000000000000700000000000000000000000000000000
310
00000000000000000000000000000000000000000000000000000000000000000000000000000000000000000000000000000000000000000000000000000000000000000000000000000000000000000000000000000000000000000000000000000000000000000000000000000007000000000000000000000000000000
310
00000000000000000000000000000000000000000000000000000000000000000000000000000000000000000000000000000000000000000000000000000000000000000000000000000000000000000000000000000000000000000000000000000000000000000000000000000000070000000000000000000000000000
310
00000000000000000000000000000000000000000000000000000000000000000000000000000000000000000000000000000000000000000000000000000000000000000000000000000000000000000000000000000000000000000000000000000000000000000000000000000000000700000000000000000000000000
310
00000000000000000000000000000000000000000000000000000000000000000000000000000000000000000000000000000000000000000000000000000000000000000000000000000000000000000000000000000000000000000000000000000000000000000000000000000000000007000000000000000000000000
310
00000000000000000000000000000000000000000000000000000000000000000000000000000000000000000000000000000000000000000000000000000000000000000000000000000000000000000000000000000000000000000000000000000000000000000000000000000000000000070000000000000000000000
310
00000000000000000000000000000000000000000000000000000000000000000000000000000000000000000000000000000000000000000000000000000000000000000000000000000000000000000000000000000000000000000000000000000000000000000000000000000000000000000700000000000000000000
310
00000000000000000000000000000000000000000000000000000000000000000000000000000000000000000000000000000000000000000000000000000000000000000000000000000000000000000000000000000000000000000000000000000000000000000000000000000000000000000007000000000000000000
310
00000000000000000000000000000000000000000000000000000000000000000000000000000000000000000000000000000000000000000000000000000000000000000000000000000000000000000000000000000000000000000000000000000000000000000000000000000000000000000000070000000000000000
310
00000000000000000000000000000000000000000000000000000000000000000000000000000000000000000000000000000000000000000000000000000000000000000000000000000000000000000000000000000000000000000000000000000000000000000000000000000000000000000000000700000000000000
310
00000000000000000000000000000000000000000000000000000000000000000000000000000000000000000000000000000000000000000000000000000000000000000000000000000000000000000000000000000000000000000000000000000000000000000000000000000000000000000000000007000000000000
310
00000000000000000000000000000000000000000000000000000000000000000000000000000000000000000000000000000000000000000000000000000000000000000000000000000000000000000000000000000000000000000000000000000000000000000000000000000000000000000000000000070000000000
310
00000000000000000000000000000000000000000000000000000000000000000000000000000000000000000000000000000000000000000000000000000000000000000000000000000000000000000000000000000000000000000000000000000000000000000000000000000000000000000000000000000700000000
310
00000000000000000000000000000000000000000000000000000000000000000000000000000000000000000000000000000000000000000000000000000000000000000000000000000000000000000000000000000000000000000000000000000000000000000000000000000000000000000000000000000007000000
310
00000000000000000000000000000000000000000000000000000000000000000000000000000000000000000000000000000000000000000000000000000000000000000000000000000000000000000000000000000000000000000000000000000000000000000000000000000000000000000000000000000000070000
310
00000000000000000000000000000000000000000000000000000000000000000000000000000000000000000000000000000000000000000000000000000000000000000000000000000000000000000000000000000000000000000000000000000000000000000000000000000000000000000000000000000000000700
310
00000000000000000000000000000000000000000000000000000000000000000000000000000000000000000000000000000000000000000000000000000000000000000000000000000000000000000000000000000000000000000000000000000000000000000000000000000000000000000000000000000000000007
310
00000000000000000000000000000000000000000000000000000000000000000000000000000000000000000000000000000000000000000000000000000000000000000000000000000000000000000000000000000000000000000000000000000000000000000000000000000000000000000000000000000000000000
310
07000000000000000000000000000000000000000000000000000000000000000000000000000000000000000000000000000000000000000000000000000000000000000000000000000000000000000000000000000000000000000000000000000000000000000000000000000000000000000000000000000000000000
310
00070000000000000000000000000000000000000000000000000000000000000000000000000000000000000000000000000000000000000000000000000000000000000000000000000000000000000000000000000000000000000000000000000000000000000000000000000000000000000000000000000000000000
310
00000700000000000000000000000000000000000000000000000000000000000000000000000000000000000000000000000000000000000000000000000000000000000000000000000000000000000000000000000000000000000000000000000000000000000000000000000000000000000000000000000000000000
310
0000000700000000000000000000000000000000000000000000000000000000000000020202020202020202023C020202020202020202020202023C02020202020202020202020202020202020202020202020202020202020000000000000000000000000000000000000000000000000000000000000000000000000000
310
00000000070000000000000000000000000000000000000000000000000000000000000200830404040404048304040404048304040404040404830404040404838304040404040404040404040483048383830404040404000200000000000000000000000000000000000000000000000000000000000000000000000000
310
00000000000700000000000000000000000000000000000000000000000000000000000002008304040404040404040404040404040404040404048304040404048383040404040404040404040404040404048304040404040002000000000000000000000000000000000000000000000000000000000000000000000000
310
000000000000070000000000000000000000000000000000000000000000000000000000000202025B51475151653C5B655B5B5B5B515B5B5B5B5B47025B655B3C5B02025B475B5B47515B655B5B5B513C51476F3C655B65655102020000000000000000000000000000000000000000000000000000000000000000000000
310
00000000000000070000000000000000000000000000000000000000000000000000000000000200000404830404040483000000000000000000000000000000000000000000000000000000000000000000000000000000000000000200000000000000000000000000000000000000000000000000000000000000000000
310
00000000000000000700000000000000000000000000000000000000000000000000000000000002000004040404040404830000000000000000000000000000000000000000000000000000000000000000000000000000000000000002000000000000000000000000000000000000000000000000000000000000000000
310
00000000000000000007000000000000000000000000000000000000000000000000000000000000020202473C3C3C3C3C3C0202020202020202020202020202020202020202020202020202020202020202020202020202020202020202020000000000000000000000000000000000000000000000000000000000000000
310
00000000000000000000070000000000000000000000000000000000000000000000000000000000000200008383048304830483048304040404830000000000000000000000000000000000000000000000000000000000000000000000000200000000000000000000000000000000000000000000000000000000000000
310
00000000000000000000000700000000000000000000000000000000000000000000000000000000000002000083040483040404830483040404048300000000000000000000000000000000000000000000000000000000000000000000000002000000000000000000000000000000000000000000000000000000000000
310
0000000000000000000000000700000000000000000000000000000000000000000000000000000000000002020202473C023C513C0247023C3C3C3C02020202020202020202020202020202020202020202020202020202020202020202020202020000000000000000000000000000000000000000000000000000000000
310
00000000000000000000000000070000000000000000000000000000000000000000000000000000000000000200000000000000000000000000000000000000000000000000000000000000000000000000000000000000000000000000000000000200000000000000000000000000000000000000000000000000000000
310
00000000000000000000000000000700000000000000000000000000000000000000000000000000000000000002000000000000000000000000000000000000000000000000000000000000000000000000000000000000000000000000000000000002000000000000000000000000000000000000000000000000000000
310
00000000000000000000000000000007000000000000000000000000000000000000000000000000000000000000020000000000000000000000000000000000000000000000000000000000000000000000000000000000000000000000000000000000020000000000000000000000000000000000000000000000000000
310
00000000000000000000000000000000070000000000000000000000000000000000000000000000000000000000000200000000000000000000000000000000000000000000000000000000000000000000000000000000000000000000000000000000000200000000000000000000000000000000000000000000000000
310
00000000000000000000000000000000000700000000000000000000000000000000000000000000000000000000000002000000000000000000000000000000000000000000000000000000000000000000000000000000000000000000000000000000000002000000000000000000000000000000000000000000000000
310
00000000000000000000000000000000000007000000000000000000000000000000000000000000000000000000000000020000000000000000000000000000000000000000000000000000060606000000000000000000000000000000000000000000000000020000000000000000000000000000000000000000000000
310
00000000000000000000000000000000000000070000000000000000000000000000000000000000000000000000000000000200000000000000000000000000000000000000000000000606060606060606000000000000000000000000000000000000000000000200000000000000000000000000000000000000000000
310
00000000000000000000000000000000000000000700000000000000000000000000000000000000000000000000000000000002000000000000000000000000000000000000000000000606060606060606060600000000000000000000000000000000000000000002000000000000000000000000000000000000000000
310
00000000000000000000000000000000000000000007000000000000000000000000000000000000000000000000000000000000020000000000000000000000000000000000000000000606060606060606060606060000000000000000000000000000000000000000020000000000000000000000000000000000000000
310
00000000000000000000000000000000000000000000070000000000000000000000000000000000000000000000000000000000000200000000000000000000000000000000000000000606060606060606000606060606000000000000000000000000000000000000000200000000000000000000000000000000000000
310
00000000000000000000000000000000000000000000000700000000000000000000000000000000000000000000000000000000000002000000000000000000000000000000000000000606060606060606060606060606060600000000000000000000000000000000000002000000000000000000000000000000000000
310
00000000000000000000000000000000000000000000000007000000000000000000000000000000000000000000000000000000000000020000000000000000000000000000000000000006060606060606060606060606060606000000000000000000000000000000000000020000000000000000000000000000000000
310
00000000000000000000000000000000000000000000000000070000000000000000000000000000000000000000000000000000000000000200000000000000000000000000000000000000060606060606060606060606060606060000000000000000000000000000000000000200000000000000000000000000000000
310
00000000000000000000000000000000000000000000000000000700000000000000000000000000000000000000000000000000000000000002000000000000000000000000000000000000000606060606060600060600060606060600000000000000000000000000000000000002000000000000000000000000000000
310
00000000000000000000000000000000000000000000000000000007000000000000000000000000000000000000000000000000000000000000020000000000000000000000000000000000000006060606060606000606000606060606000000000000000000000000000000000000020000000000000000000000000000
310
00000000000000000000000000000000000000000000000000000000070000000000000000000000000000000000000000000000000000000000000200000000000000000000000000000000000000060606060606060606060606060606060000000000000000000000000000000000000200000000000000000000000000
310
00000000000000000000000000000000000000000000000000000000000700000000000000000000000000000000000000000000000000000000000002000000000000000000000000000000000000000606060606060606060606060606060600000000000000000000000000000000000002000000000000000000000000
310
00000000000000000000000000000000000000000000000000000000000007000000000000000000000000000000000000000000000000000000000000020000000000000000000000000000000000000006060606060606060606060606060606000000000000000000000000000000000000020000000000000000000000
310
00000000000000000000000000000000000000000000000000000000000000070000000000000000000000000000000000000000000000000000000000000200000000000000000000000000000000000000000606060606060606000606060606000000000000000000000000000000000000000200000000000000000000
310
00000000000000000000000000000000000000000000000000000000000000000700000000000000000000000000000000000000000000000000000000000002000000000000000000000000000000000000000000060606060606060606060606000000000000000000000000000000000000000002000000000000000000
310
00000000000000000000000000000000000000000000000000000000000000000007000000000000000000000000000000000000000000000000000000000000020000000000000000000000000000000000000000000006060606060606060606000000000000000000000000000000000000000000020000000000000000
310
00000000000000000000000000000000000000000000000000000000000000000000070000000000000000000000000000000000000000000000000000000000000200000000000000000000000000000000000000000000000606060606060606000000000000000000000000000000000000000000000200000000000000
310
00000000000000000000000000000000000000000000000000000000000000000000000700000000000000000000000000000000000000000000000000000000000002000000000000000000000000000000000000000000000000000606060600000000000000000000000000000000000000000000000002000000000000
310
00000000000000000000000000000000000000000000000000000000000000000000000007000000000000000000000000000000000000000000000000000000000000020000000000000000000000000000000000000000000000000006060606000000000000000000000000000000000000000000000000020000000000
310
00000000000000000000000000000000000000000000000000000000000000000000000000070000000000000000000000000000000000000000000000000000000000000200000000000000000000000000000000000000000000000000060606060000000000000000000000000000000000000000000000000200000000
310
00000000000000000000000000000000000000000000000000000000000000000000000000000700000000000000000000000000000000000000000000000000000000000002000000000000000000000000000000000000000000000000060606060606000000000000000000000000000000000000000000000002000000
310
00000000000000000000000000000000000000000000000000000000000000000000000000000007000000000000000000000000000000000000000000000000000000000000020000000000000000000000000000000000000000000000000606060606060000000000000000000000000000000000000000000000020000
310
00000000000000000000000000000000000000000000000000000000000000000000000000000000070000000000000000000000000000000000000000000000000000000000000200000000000000000000000000000000000000000000000006000006000600000000000000000000000000000000000000000000000200
310
00000000000000000000000000000000000000000000000000000000000000000000000000000000000700000000000000000000000000000000000000000000000000000000000002000000000000000000000000000000000000000000000000060600060006000000000000000000000000000000000000000000000002
310
00000000000000000000000000000000000000000000000000000000000000000000000000000000000007000000000000000000000000000000000000000000000000000000000000020000000000000000000000000000000000000000000000000006060606000000000000000000000000000000000000000000000000
310
02000000000000000000000000000000000000000000000000000000000000000000000000000000000000070000000000000000000000000000000000000000000000000000000000000200000000000000000000000000000000000000000000000000000006000000000000000000000000000000000000000000000000
310
00020000000000000000000000000000000000000000000000000000000000000000000000000000000000000700000000000000000000000000000000000000000000000000000000000002000000000000000000000000000000000000000000000000000000060000000000000000000000000000000000000000000000
310
00000200000000000000000000000000000000000000000000000000000000000000000000000000000000000007000000000000000000000000000000000000000000000000000000000000020000000000000000000000000000000000000000000000000000000600000000000000000000000000000000000000000000
310
00000002000000000000000000000000000000000000000000000000000000000000000000000000000000000000070000000000000000000000000000000000000000000000000000000000000200000000000000000000000000000000000000000000000000000006000000000000000000000000000000000000000000
310
00000000020000000000000000000000000000000000000000000000000000000000000000000000000000000000000700000000000000000000000000000000000000000000000000000000000002000000000000000000000000000000000000000000000000000000060000000000000000000000000000000000000000
310
00000000000200000000000000000000000000000000000000000000000000000000000000000000000000000000000007000000000000000000000000000000000000000000000000000000000000020000000000000000000000000000000000000000000000000000000600000000000000000000000000000000000000
310
00000000000002000000000000000000000000000000000000000000000000000000000000000000000000000000000000070000000000000000000000000000000000000000000000000000000000000200000000000000000000000000000000000000000000000000000006000000000000000000000000000000000000
310
00000000000000020000000000000000000000000000000000000000000000000000000000000000000000000000000000000700000000000000000000000000000000000000000000000000000000000002000000000000000000000000000000000000000000000000000000060000000000000000000000000000000000
310
00000000000000000200000000000000000000000000000000000000000000000000000000000000000000000000000000000007000000000000000000000000000000000000000000000000000000000000020000000000000000000000000000000000000000000000000000000600000000000000000000000000000000
310
00000000000000000002000000000000000000000000000000000000000000000000000000000000000000000000000000000000070000000000000000000000000000000000000000000000000000000000000200000000000000000000000000000000000000000000000000000006000000000000000000000000000000
310
00000000000000000000020000000000000000000000000000000000000000000000000000000000000000000000000000000000000700000000000000000000000000000000000000000000000000000000000002000000000000000000000000000000000000000000000000000000060000000000000000000000000000
310
00000000000000000000000200000000000000000000000000000000000000000000000000000000000000000000000000000000000007000000000000000000000000000000000000000000000000000000000000020000000000000000000000000000000000000000000000000000060006000000000000000000000000
310
00000000000000000000000002000000000000000000000000000000000000000000000000000000000000000000000000000000000000070000000000000000000000000000000000000000000000000000000000000200000000000000000000000000000000000000000000000000060000060000000000000000000000
310
00000000000000000000000000020000000000000000000000000000000000000000000000000000000000000000000000000000000000000700000000000000000000000000000000000000000000000000000000000002000000000000000000000000000000000000000000000000000600000006000000000000000000
310
00000000000000000000000000000200000000000000000000000000000000000000000000000000000000000000000000000000000000000007000000000000000000000000000000000000000000000000000000000000020000000000000000000000000000000000000000000000000600000000060000000000000000
310
00000000000000000000000000000002000000000000000000000000000000000000000000000000000000000000000000000000000000000000070000000000000000000000000000000000000000000000000000000000000200000000000000000000000000000000000000000000000000060606060600000000000000
310
00000000000000000000000000000000020000000000000000000000000000000000000000000000000000000000000000000000000000000000000700000000000000000000000000000000000000000000000000000000000002000000000000000000000000000000000000000000000000000000000000000000000000
310
00000000000000000000000000000000000200000000000000000000000000000000000000000000000000000000000000000000000000000000000007000000000000000000000000000000000000000000000000000000000000020000000000000000000000000000000000000000000000000000000000000000000000
310
00000000000000000000000000000000000002000000000000000000000000000000000000000000000000000000000000000000000000000000000000070000000000000000000000000000000000000000000000000000000000000200000000000000000000000000000000000000000000000000000000000000000000
310
00000000000000000000000000000000000000020000000000000000000000000000000000000000000000000000000000000000000000000000000000000700000000000000000000000000000000000000000000000000000000000002000000000000000000000000000000000000000000000000000000000000000000
310
00000000000000000000000000000000000000000200000000000000000000000000000000000000000000000000000000000000000000000000000000000007000000000000000000000000000000000000000000000000000000000000020000000000000000000000000000000000000000000000000000000000000000
310
00000000000000000000000000000000000000000002000000000000000000000000000000000000000000000000000000000000000000000000000000000000070000000000000000000000000000000000000000000000000000000000000200000000000000000000000000000000000000000000000000000000000000
310
00000000000000000000000000000000000000000000020000000000000000000000000000000000000000000000000000000000000000000000000000000000000700000000000000000000000000000000000000000000000000000000000002000000000000000000000000000000000000000000000000000000000000
310
00000000000000000000000000000000000000000000000200000000000000000000000000000000000000000000000000000000000000000000000000000000000007000000000000000000000000000000000000000000000000000000000000000202020202020202020202020202020202020202020202020202020202
310
02020202020202020202020202020202020202020202020202000000000000000000000000000000000000000000000000000000000000000000000000000000000000070000000000000000000000000000000000000000000000000000000000000000000000000000000000000000000000000000000000000000000000
310
00000000000000000000000000000000000000000000000000000000000000000000000000000000000000000000000000000000000000000000000000000000000000000700000000000000000000000000000000000000000000000000000000000000000000000000000000000000000000000000000000000000000000
310
00000000000000000000000000000000000000000000000000000000000000000000000000000000000000000000000000000000000000000000000000000000000000000007000000000000000000000000000000000000000000000000000000000000000000000000000000000000000000000000000000000000000000
310
00000000000000000000000000000000000000000000000000000000000000000000000000000000000000000000000000000000000000000000000000000000000000000000070000000000000000000000000000000000000000000000000000000000000000000000000000000000000000000000000000000000000000
310
00000000000000000000000000000000000000000000000000000000000000000000000000000000000000000000000000000000000000000000000000000000000000000000000700000000000000000000000000000000000000000000000000000000000000000000000000000000000000000000000000000000000000
310
00000000000000000000000000000000000000000000000000000000000000000000000000000000000000000000000000000000000000000000000000000000000000000000000007000000000000000000000000000000000000000000000000000000000000000000000000000000000000000000000000000000000000
310
00000000000000000000000000000000000000000000000000000000000000000000000000000000000000000000000000
  0
ENDSEC
  0
EOF
