  0
SECTION
  2
HEADER
  9
$ACADVER
  1
AC1032
  9
$ACADMAINTVER
 90
      228
  9
$DWGCODEPAGE
  3
ANSI_932
  9
$REQUIREDVERSIONS
160
                 0
  9
$INSBASE
 10
0.0
 20
0.0
 30
0.0
  9
$EXTMIN
 10
1.000000000000000E+20
 20
1.000000000000000E+20
 30
1.000000000000000E+20
  9
$EXTMAX
 10
-1.000000000000000E+20
 20
-1.000000000000000E+20
 30
-1.000000000000000E+20
  9
$LIMMIN
 10
0.0
 20
0.0
  9
$LIMMAX
 10
12.0
 20
9.0
  9
$ORTHOMODE
 70
     0
  9
$REGENMODE
 70
     1
  9
$FILLMODE
 70
     1
  9
$QTEXTMODE
 70
     0
  9
$MIRRTEXT
 70
     0
  9
$LTSCALE
 40
1.0
  9
$ATTMODE
 70
     1
  9
$TEXTSIZE
 40
0.2
  9
$TRACEWID
 40
0.05
  9
$TEXTSTYLE
  7
Standard
  9
$CLAYER
  8
0
  9
$CELTYPE
  6
ByLayer
  9
$CECOLOR
 62
   256
  9
$CELTSCALE
 40
1.0
  9
$DISPSILH
 70
     0
  9
$DIMSCALE
 40
1.0
  9
$DIMASZ
 40
0.18
  9
$DIMEXO
 40
0.0625
  9
$DIMDLI
 40
0.38
  9
$DIMRND
 40
0.0
  9
$DIMDLE
 40
0.0
  9
$DIMEXE
 40
0.18
  9
$DIMTP
 40
0.0
  9
$DIMTM
 40
0.0
  9
$DIMTXT
 40
0.18
  9
$DIMCEN
 40
0.09
  9
$DIMTSZ
 40
0.0
  9
$DIMTOL
 70
     0
  9
$DIMLIM
 70
     0
  9
$DIMTIH
 70
     1
  9
$DIMTOH
 70
     1
  9
$DIMSE1
 70
     0
  9
$DIMSE2
 70
     0
  9
$DIMTAD
 70
     0
  9
$DIMZIN
 70
     0
  9
$DIMBLK
  1

  9
$DIMASO
 70
     1
  9
$DIMSHO
 70
     1
  9
$DIMPOST
  1

  9
$DIMAPOST
  1

  9
$DIMALT
 70
     0
  9
$DIMALTD
 70
     2
  9
$DIMALTF
 40
25.4
  9
$DIMLFAC
 40
1.0
  9
$DIMTOFL
 70
     0
  9
$DIMTVP
 40
0.0
  9
$DIMTIX
 70
     0
  9
$DIMSOXD
 70
     0
  9
$DIMSAH
 70
     0
  9
$DIMBLK1
  1

  9
$DIMBLK2
  1

  9
$DIMSTYLE
  2
Standard
  9
$DIMCLRD
 70
     0
  9
$DIMCLRE
 70
     0
  9
$DIMCLRT
 70
     0
  9
$DIMTFAC
 40
1.0
  9
$DIMGAP
 40
0.09
  9
$DIMJUST
 70
     0
  9
$DIMSD1
 70
     0
  9
$DIMSD2
 70
     0
  9
$DIMTOLJ
 70
     1
  9
$DIMTZIN
 70
     0
  9
$DIMALTZ
 70
     0
  9
$DIMALTTZ
 70
     0
  9
$DIMUPT
 70
     0
  9
$DIMDEC
 70
     4
  9
$DIMTDEC
 70
     4
  9
$DIMALTU
 70
     2
  9
$DIMALTTD
 70
     2
  9
$DIMTXSTY
  7
Standard
  9
$DIMAUNIT
 70
     0
  9
$DIMADEC
 70
     0
  9
$DIMALTRND
 40
0.0
  9
$DIMAZIN
 70
     0
  9
$DIMDSEP
 70
    46
  9
$DIMATFIT
 70
     3
  9
$DIMFRAC
 70
     0
  9
$DIMLDRBLK
  1

  9
$DIMLUNIT
 70
     2
  9
$DIMLWD
 70
    -2
  9
$DIMLWE
 70
    -2
  9
$DIMTMOVE
 70
     0
  9
$DIMFXL
 40
1.0
  9
$DIMFXLON
 70
     0
  9
$DIMJOGANG
 40
0.7853981633974483
  9
$DIMTFILL
 70
     0
  9
$DIMTFILLCLR
 70
     0
  9
$DIMARCSYM
 70
     0
  9
$DIMLTYPE
  6

  9
$DIMLTEX1
  6

  9
$DIMLTEX2
  6

  9
$DIMTXTDIRECTION
 70
     0
  9
$LUNITS
 70
     2
  9
$LUPREC
 70
     4
  9
$SKETCHINC
 40
0.1
  9
$FILLETRAD
 40
0.0
  9
$AUNITS
 70
     0
  9
$AUPREC
 70
     0
  9
$MENU
  1
.
  9
$ELEVATION
 40
0.0
  9
$PELEVATION
 40
0.0
  9
$THICKNESS
 40
0.0
  9
$LIMCHECK
 70
     0
  9
$CHAMFERA
 40
0.0
  9
$CHAMFERB
 40
0.0
  9
$CHAMFERC
 40
0.0
  9
$CHAMFERD
 40
0.0
  9
$SKPOLY
 70
     0
  9
$TDCREATE
 40
2460061.534363426
  9
$TDUCREATE
 40
2460061.159363426
  9
$TDUPDATE
 40
2460061.534363426
  9
$TDUUPDATE
 40
2460061.159363426
  9
$TDINDWG
 40
0.0000000000
  9
$TDUSRTIMER
 40
0.0000000000
  9
$USRTIMER
 70
     1
  9
$ANGBASE
 50
0.0
  9
$ANGDIR
 70
     0
  9
$PDMODE
 70
     0
  9
$PDSIZE
 40
0.0
  9
$PLINEWID
 40
0.0
  9
$SPLFRAME
 70
     0
  9
$SPLINETYPE
 70
     6
  9
$SPLINESEGS
 70
     8
  9
$HANDSEED
  5
114
  9
$SURFTAB1
 70
     6
  9
$SURFTAB2
 70
     6
  9
$SURFTYPE
 70
     6
  9
$SURFU
 70
     6
  9
$SURFV
 70
     6
  9
$UCSBASE
  2

  9
$UCSNAME
  2

  9
$UCSORG
 10
0.0
 20
0.0
 30
0.0
  9
$UCSXDIR
 10
1.0
 20
0.0
 30
0.0
  9
$UCSYDIR
 10
0.0
 20
1.0
 30
0.0
  9
$UCSORTHOREF
  2

  9
$UCSORTHOVIEW
 70
     0
  9
$UCSORGTOP
 10
0.0
 20
0.0
 30
0.0
  9
$UCSORGBOTTOM
 10
0.0
 20
0.0
 30
0.0
  9
$UCSORGLEFT
 10
0.0
 20
0.0
 30
0.0
  9
$UCSORGRIGHT
 10
0.0
 20
0.0
 30
0.0
  9
$UCSORGFRONT
 10
0.0
 20
0.0
 30
0.0
  9
$UCSORGBACK
 10
0.0
 20
0.0
 30
0.0
  9
$PUCSBASE
  2

  9
$PUCSNAME
  2

  9
$PUCSORG
 10
0.0
 20
0.0
 30
0.0
  9
$PUCSXDIR
 10
1.0
 20
0.0
 30
0.0
  9
$PUCSYDIR
 10
0.0
 20
1.0
 30
0.0
  9
$PUCSORTHOREF
  2

  9
$PUCSORTHOVIEW
 70
     0
  9
$PUCSORGTOP
 10
0.0
 20
0.0
 30
0.0
  9
$PUCSORGBOTTOM
 10
0.0
 20
0.0
 30
0.0
  9
$PUCSORGLEFT
 10
0.0
 20
0.0
 30
0.0
  9
$PUCSORGRIGHT
 10
0.0
 20
0.0
 30
0.0
  9
$PUCSORGFRONT
 10
0.0
 20
0.0
 30
0.0
  9
$PUCSORGBACK
 10
0.0
 20
0.0
 30
0.0
  9
$USERI1
 70
     0
  9
$USERI2
 70
     0
  9
$USERI3
 70
     0
  9
$USERI4
 70
     0
  9
$USERI5
 70
     0
  9
$USERR1
 40
0.0
  9
$USERR2
 40
0.0
  9
$USERR3
 40
0.0
  9
$USERR4
 40
0.0
  9
$USERR5
 40
0.0
  9
$WORLDVIEW
 70
     1
  9
$SHADEDGE
 70
     3
  9
$SHADEDIF
 70
    70
  9
$TILEMODE
 70
     1
  9
$MAXACTVP
 70
    64
  9
$PINSBASE
 10
0.0
 20
0.0
 30
0.0
  9
$PLIMCHECK
 70
     0
  9
$PEXTMIN
 10
1.000000000000000E+20
 20
1.000000000000000E+20
 30
1.000000000000000E+20
  9
$PEXTMAX
 10
-1.000000000000000E+20
 20
-1.000000000000000E+20
 30
-1.000000000000000E+20
  9
$PLIMMIN
 10
0.0
 20
0.0
  9
$PLIMMAX
 10
12.0
 20
9.0
  9
$UNITMODE
 70
     0
  9
$VISRETAIN
 70
     1
  9
$PLINEGEN
 70
     0
  9
$PSLTSCALE
 70
     1
  9
$TREEDEPTH
 70
  3020
  9
$CMLSTYLE
  2
Standard
  9
$CMLJUST
 70
     0
  9
$CMLSCALE
 40
1.0
  9
$PROXYGRAPHICS
 70
     1
  9
$MEASUREMENT
 70
     0
  9
$CELWEIGHT
370
    -1
  9
$ENDCAPS
280
     0
  9
$JOINSTYLE
280
     0
  9
$LWDISPLAY
290
     1
  9
$INSUNITS
 70
     4
  9
$HYPERLINKBASE
  1

  9
$STYLESHEET
  1

  9
$XEDIT
290
     1
  9
$CEPSNTYPE
380
     0
  9
$PSTYLEMODE
290
     1
  9
$FINGERPRINTGUID
  2
{340394B0-14D5-9B4D-B3A5-7F2BF3AA44FE}
  9
$VERSIONGUID
  2
{26ABB35D-7403-9040-B472-353CEC86299D}
  9
$EXTNAMES
290
     1
  9
$PSVPSCALE
 40
0.0
  9
$OLESTARTUP
290
     0
  9
$SORTENTS
280
   127
  9
$INDEXCTL
280
     0
  9
$HIDETEXT
280
     1
  9
$XCLIPFRAME
280
     2
  9
$HALOGAP
280
     0
  9
$OBSCOLOR
 70
   257
  9
$OBSLTYPE
280
     0
  9
$INTERSECTIONDISPLAY
280
     0
  9
$INTERSECTIONCOLOR
 70
   257
  9
$DIMASSOC
280
     2
  9
$PROJECTNAME
  1

  9
$CAMERADISPLAY
290
     0
  9
$LENSLENGTH
 40
50.0
  9
$CAMERAHEIGHT
 40
0.0
  9
$STEPSPERSEC
 40
2.0
  9
$STEPSIZE
 40
6.0
  9
$3DDWFPREC
 40
2.0
  9
$PSOLWIDTH
 40
0.25
  9
$PSOLHEIGHT
 40
4.0
  9
$LOFTANG1
 40
1.570796326794896
  9
$LOFTANG2
 40
1.570796326794896
  9
$LOFTMAG1
 40
0.0
  9
$LOFTMAG2
 40
0.0
  9
$LOFTPARAM
 70
     7
  9
$LOFTNORMALS
280
     1
  9
$LATITUDE
 40
37.795
  9
$LONGITUDE
 40
-122.394
  9
$NORTHDIRECTION
 40
0.0
  9
$TIMEZONE
 70
 -8000
  9
$LIGHTGLYPHDISPLAY
280
     1
  9
$TILEMODELIGHTSYNCH
280
     1
  9
$CMATERIAL
347
11
  9
$SOLIDHIST
280
     0
  9
$SHOWHIST
280
     1
  9
$DWFFRAME
280
     2
  9
$DGNFRAME
280
     0
  9
$REALWORLDSCALE
290
     1
  9
$INTERFERECOLOR
 62
     1
  9
$INTERFEREOBJVS
345
33
  9
$INTERFEREVPVS
346
30
  9
$CSHADOW
280
     0
  9
$SHADOWPLANELOCATION
 40
0.0
  0
ENDSEC
  0
SECTION
  2
CLASSES
  0
CLASS
  1
ACDBDICTIONARYWDFLT
  2
AcDbDictionaryWithDefault
  3
ObjectDBX Classes
 90
        0
 91
        1
280
     0
281
     0
  0
CLASS
  1
MATERIAL
  2
AcDbMaterial
  3
ObjectDBX Classes
 90
     1153
 91
        3
280
     0
281
     0
  0
CLASS
  1
VISUALSTYLE
  2
AcDbVisualStyle
  3
ObjectDBX Classes
 90
     4095
 91
       24
280
     0
281
     0
  0
CLASS
  1
SCALE
  2
AcDbScale
  3
ObjectDBX Classes
 90
     1153
 91
       17
280
     0
281
     0
  0
CLASS
  1
TABLESTYLE
  2
AcDbTableStyle
  3
ObjectDBX Classes
 90
     4095
 91
        1
280
     0
281
     0
  0
CLASS
  1
MLEADERSTYLE
  2
AcDbMLeaderStyle
  3
ACDB_MLEADERSTYLE_CLASS
 90
     4095
 91
        1
280
     0
281
     0
  0
CLASS
  1
ACDBSECTIONVIEWSTYLE
  2
AcDbSectionViewStyle
  3
ObjectDBX Classes
 90
     1025
 91
        1
280
     0
281
     0
  0
CLASS
  1
ACDBDETAILVIEWSTYLE
  2
AcDbDetailViewStyle
  3
ObjectDBX Classes
 90
     1025
 91
        1
280
     0
281
     0
  0
CLASS
  1
DICTIONARYVAR
  2
AcDbDictionaryVar
  3
ObjectDBX Classes
 90
        0
 91
        5
280
     0
281
     0
  0
CLASS
  1
CELLSTYLEMAP
  2
AcDbCellStyleMap
  3
ObjectDBX Classes
 90
     1152
 91
        1
280
     0
281
     0
  0
ENDSEC
  0
SECTION
  2
TABLES
  0
TABLE
  2
VPORT
  5
8
330
0
100
AcDbSymbolTable
 70
     1
  0
VPORT
  5
57
330
8
100
AcDbSymbolTableRecord
100
AcDbViewportTableRecord
  2
*Active
 70
     0
 10
0.0
 20
0.0
 11
1.0
 21
1.0
 12
0.0
 22
0.0
 13
0.0
 23
0.0
 14
1.0
 24
1.0
 15
0.0
 25
0.0
 16
0.0
 26
0.0
 36
1.0
 17
338.666666582
 27
190.499999952375
 37
0.0
 40
388.619999902845
 41
1.777777777777777
 42
50.0
 43
0.0
 44
0.0
 50
0.0
 51
0.0
 71
     0
 72
   100
 73
     1
 74
     1
 75
     0
 76
     0
 77
     0
 78
     0
281
     0
 65
     1
110
0.0
120
0.0
130
0.0
111
1.0
121
0.0
131
0.0
112
0.0
122
1.0
132
0.0
 79
     0
146
0.0
 60
     3
 61
     5
292
     1
282
     1
141
0.0
142
0.0
 63
   250
421
  3355443
  0
ENDTAB
  0
TABLE
  2
LTYPE
  5
5
330
0
100
AcDbSymbolTable
 70
     1
  0
LTYPE
  5
5B
330
5
100
AcDbSymbolTableRecord
100
AcDbLinetypeTableRecord
  2
ByBlock
 70
     0
  3

 72
    65
 73
     0
 40
0.0
  0
LTYPE
  5
5C
330
5
100
AcDbSymbolTableRecord
100
AcDbLinetypeTableRecord
  2
ByLayer
 70
     0
  3

 72
    65
 73
     0
 40
0.0
  0
LTYPE
  5
5D
330
5
100
AcDbSymbolTableRecord
100
AcDbLinetypeTableRecord
  2
Continuous
 70
     0
  3
Solid line
 72
    65
 73
     0
 40
0.0
  0
ENDTAB
  0
TABLE
  2
LAYER
  5
2
330
0
100
AcDbSymbolTable
 70
     3
  0
LAYER
  5
54
330
2
100
AcDbSymbolTableRecord
100
AcDbLayerTableRecord
  2
0
 70
     0
 62
     7
  6
Continuous
370
    -3
390
F
347
21
348
0
  0
LAYER
  5
78
330
2
100
AcDbSymbolTableRecord
100
AcDbLayerTableRecord
  2
レイヤー_1
 70
     0
 62
     7
  6
Continuous
370
     0
390
F
347
21
348
0
  0
LAYER
  5
85
330
2
100
AcDbSymbolTableRecord
100
AcDbLayerTableRecord
  2
shade
 70
     0
 62
     7
  6
Continuous
370
     0
390
F
347
21
348
0
  0
ENDTAB
  0
TABLE
  2
STYLE
  5
3
330
0
100
AcDbSymbolTable
 70
     2
  0
STYLE
  5
55
330
3
100
AcDbSymbolTableRecord
100
AcDbTextStyleTableRecord
  2
Standard
 70
     0
 40
0.0
 41
1.0
 50
0.0
 71
     0
 42
0.2
  3
txt
  4

  0
STYLE
  5
5A
330
3
100
AcDbSymbolTableRecord
100
AcDbTextStyleTableRecord
  2
Annotative
 70
     0
 40
0.0
 41
1.0
 50
0.0
 71
     0
 42
0.2
  3
txt
  4

1001
AcadAnnotative
1000
AnnotativeData
1002
{
1070
     1
1070
     1
1002
}
  0
ENDTAB
  0
TABLE
  2
VIEW
  5
6
330
0
100
AcDbSymbolTable
 70
     0
  0
ENDTAB
  0
TABLE
  2
UCS
  5
7
330
0
100
AcDbSymbolTable
 70
     0
  0
ENDTAB
  0
TABLE
  2
APPID
  5
9
330
0
100
AcDbSymbolTable
 70
     2
  0
APPID
  5
56
330
9
100
AcDbSymbolTableRecord
100
AcDbRegAppTableRecord
  2
ACAD
 70
     0
  0
APPID
  5
5E
330
9
100
AcDbSymbolTableRecord
100
AcDbRegAppTableRecord
  2
AcadAnnotative
 70
     0
  0
ENDTAB
  0
TABLE
  2
DIMSTYLE
  5
A
330
0
100
AcDbSymbolTable
 70
     2
100
AcDbDimStyleTable
 71
     0
  0
DIMSTYLE
105
58
330
A
100
AcDbSymbolTableRecord
100
AcDbDimStyleTableRecord
  2
Standard
 70
     0
340
55
  0
DIMSTYLE
105
59
330
A
100
AcDbSymbolTableRecord
100
AcDbDimStyleTableRecord
  2
Annotative
 70
     0
340
55
1001
AcadAnnotative
1000
AnnotativeData
1002
{
1070
     1
1070
     1
1002
}
  0
ENDTAB
  0
TABLE
  2
BLOCK_RECORD
  5
1
330
0
100
AcDbSymbolTable
 70
     1
  0
BLOCK_RECORD
  5
70
330
1
100
AcDbSymbolTableRecord
100
AcDbBlockTableRecord
  2
*Model_Space
340
73
 70
     0
280
     1
281
     0
  0
BLOCK_RECORD
  5
6C
330
1
100
AcDbSymbolTableRecord
100
AcDbBlockTableRecord
  2
*Paper_Space
340
6F
 70
     0
280
     1
281
     0
  0
BLOCK_RECORD
  5
74
330
1
100
AcDbSymbolTableRecord
100
AcDbBlockTableRecord
  2
*Paper_Space0
340
77
 70
     0
280
     1
281
     0
  0
ENDTAB
  0
ENDSEC
  0
SECTION
  2
BLOCKS
  0
BLOCK
  5
71
330
70
100
AcDbEntity
  8
0
100
AcDbBlockBegin
  2
*Model_Space
 70
     0
 10
0.0
 20
0.0
 30
0.0
  3
*Model_Space
  1

  0
ENDBLK
  5
72
330
70
100
AcDbEntity
  8
0
100
AcDbBlockEnd
  0
BLOCK
  5
6D
330
6C
100
AcDbEntity
 67
     1
  8
0
100
AcDbBlockBegin
  2
*Paper_Space
 70
     0
 10
0.0
 20
0.0
 30
0.0
  3
*Paper_Space
  1

  0
ENDBLK
  5
6E
330
6C
100
AcDbEntity
 67
     1
  8
0
100
AcDbBlockEnd
  0
BLOCK
  5
75
330
74
100
AcDbEntity
 67
     1
  8
0
100
AcDbBlockBegin
  2
*Paper_Space0
 70
     0
 10
0.0
 20
0.0
 30
0.0
  3
*Paper_Space0
  1

  0
ENDBLK
  5
76
330
74
100
AcDbEntity
 67
     1
  8
0
100
AcDbBlockEnd
  0
ENDSEC
  0
SECTION
  2
ENTITIES
  0
SPLINE
  5
79
330
70
100
AcDbEntity
  8
レイヤー_1
 62
    18
420
        0
370
     0
100
AcDbSpline
210
0.0
220
0.0
230
1.0
 70
     9
 71
     3
 72
    11
 73
     7
 74
     0
 42
0.0000000001
 43
0.0000000001
 40
0.0
 40
0.0
 40
0.0
 40
0.0
 40
1.0
 40
1.0
 40
1.0
 40
2.0
 40
2.0
 40
2.0
 40
2.0
 10
450.9641905330735
 20
375.6167304444036
 30
0.0
 10
450.9750403990303
 20
375.6141344642051
 30
0.0
 10
450.9866557463282
 20
375.6154213603718
 30
0.0
 10
450.9975943637453
 20
375.6167304444036
 30
0.0
 10
450.9975943637453
 20
375.6167304444036
 30
0.0
 10
450.9641905330735
 20
375.6167304444036
 30
0.0
 10
450.9641905330735
 20
375.6167304444036
 30
0.0
  0
SPLINE
  5
7A
330
70
100
AcDbEntity
  8
レイヤー_1
100
AcDbSpline
210
0.0
220
0.0
230
1.0
 70
     9
 71
     3
 72
    11
 73
     7
 74
     0
 42
0.0000000001
 43
0.0000000001
 40
0.0
 40
0.0
 40
0.0
 40
0.0
 40
1.0
 40
1.0
 40
1.0
 40
2.0
 40
2.0
 40
2.0
 40
2.0
 10
450.9641905330735
 20
375.6167304444042
 30
0.0
 10
450.9750403990297
 20
375.6141344642054
 30
0.0
 10
450.9866557463282
 20
375.6154213603712
 30
0.0
 10
450.9975943637453
 20
375.6167304444042
 30
0.0
 10
450.9975943637453
 20
375.6167304444042
 30
0.0
 10
450.9641905330735
 20
375.6167304444042
 30
0.0
 10
450.9641905330735
 20
375.6167304444042
 30
0.0
  0
HATCH
  5
7B
330
70
100
AcDbEntity
  8
レイヤー_1
 62
    18
420
        0
440
 33554687
100
AcDbHatch
 10
0.0
 20
0.0
 30
0.0
210
0.0
220
0.0
230
1.0
  2
SOLID
 70
     1
 71
     1
 91
        1
 92
        1
 93
        1
 72
     4
 94
        3
 73
     0
 74
     0
 95
       11
 96
        7
 40
0.0
 40
0.0
 40
0.0
 40
0.0
 40
1.0
 40
1.0
 40
1.0
 40
2.0
 40
2.0
 40
2.0
 40
2.0
 10
450.9641905330735
 20
375.6167304444042
 10
450.9750403990297
 20
375.6141344642054
 10
450.9866557463282
 20
375.6154213603712
 10
450.9975943637453
 20
375.6167304444042
 10
450.9975943637453
 20
375.6167304444042
 10
450.9641905330735
 20
375.6167304444042
 10
450.9641905330735
 20
375.6167304444042
 97
        0
 97
        1
330
7A
 75
     0
 76
     1
 98
        1
 10
0.0
 20
0.0
450
        0
451
        0
460
0.0
461
0.0
452
        0
462
0.0
453
        0
470

  0
LWPOLYLINE
  5
7C
330
70
100
AcDbEntity
  8
レイヤー_1
 62
    18
420
        0
370
     0
100
AcDbPolyline
 90
        4
 70
     1
 43
0.0
 10
317.0091271535668
 20
188.6777652129047
 10
317.0074305627858
 20
188.6777652129047
 10
317.0612486473947
 20
188.676905824419
 10
317.0672284345729
 20
188.6777652129047
  0
LWPOLYLINE
  5
7D
330
70
100
AcDbEntity
  8
レイヤー_1
100
AcDbPolyline
 90
        4
 70
     1
 43
0.0
 10
317.0091271535675
 20
188.6777652129041
 10
317.0074305627855
 20
188.6777652129041
 10
317.0612486473944
 20
188.676905824419
 10
317.0672284345735
 20
188.6777652129041
  0
HATCH
  5
7E
330
70
100
AcDbEntity
  8
レイヤー_1
 62
    18
420
        0
440
 33554687
100
AcDbHatch
 10
0.0
 20
0.0
 30
0.0
210
0.0
220
0.0
230
1.0
  2
SOLID
 70
     1
 71
     1
 91
        1
 92
        1
 93
        4
 72
     1
 10
317.0091271535675
 20
188.6777652129041
 11
317.0074305627855
 21
188.6777652129041
 72
     1
 10
317.0074305627855
 20
188.6777652129041
 11
317.0612486473944
 21
188.676905824419
 72
     1
 10
317.0612486473944
 20
188.676905824419
 11
317.0672284345735
 21
188.6777652129041
 72
     1
 10
317.0672284345735
 20
188.6777652129041
 11
317.0091271535675
 21
188.6777652129041
 97
        1
330
7D
 75
     0
 76
     1
 98
        1
 10
0.0
 20
0.0
450
        0
451
        0
460
0.0
461
0.0
452
        0
462
0.0
453
        0
470

  0
SPLINE
  5
7F
330
70
100
AcDbEntity
  8
レイヤー_1
 62
    18
420
        0
370
     0
100
AcDbSpline
210
0.0
220
0.0
230
1.0
 70
     9
 71
     3
 72
    11
 73
     7
 74
     0
 42
0.0000000001
 43
0.0000000001
 40
0.0
 40
0.0
 40
0.0
 40
0.0
 40
1.0
 40
1.0
 40
1.0
 40
2.0
 40
2.0
 40
2.0
 40
2.0
 10
318.6179958472392
 20
189.2279124548901
 30
0.0
 10
318.6315963864501
 20
189.2246689564118
 30
0.0
 10
318.6461564729059
 20
189.2262768445461
 30
0.0
 10
318.6598682639719
 20
189.2279124548901
 30
0.0
 10
318.6598682639719
 20
189.2279124548901
 30
0.0
 10
318.6179958472392
 20
189.2279124548901
 30
0.0
 10
318.6179958472392
 20
189.2279124548901
 30
0.0
  0
SPLINE
  5
80
330
70
100
AcDbEntity
  8
レイヤー_1
100
AcDbSpline
210
0.0
220
0.0
230
1.0
 70
     9
 71
     3
 72
    11
 73
     7
 74
     0
 42
0.0000000001
 43
0.0000000001
 40
0.0
 40
0.0
 40
0.0
 40
0.0
 40
1.0
 40
1.0
 40
1.0
 40
2.0
 40
2.0
 40
2.0
 40
2.0
 10
318.6179958472392
 20
189.2279124548894
 30
0.0
 10
318.6315963864495
 20
189.2246689564125
 30
0.0
 10
318.6461564729059
 20
189.2262768445455
 30
0.0
 10
318.6598682639723
 20
189.2279124548894
 30
0.0
 10
318.6598682639723
 20
189.2279124548894
 30
0.0
 10
318.6179958472392
 20
189.2279124548894
 30
0.0
 10
318.6179958472392
 20
189.2279124548894
 30
0.0
  0
HATCH
  5
81
330
70
100
AcDbEntity
  8
レイヤー_1
 62
    18
420
        0
440
 33554687
100
AcDbHatch
 10
0.0
 20
0.0
 30
0.0
210
0.0
220
0.0
230
1.0
  2
SOLID
 70
     1
 71
     1
 91
        1
 92
        1
 93
        1
 72
     4
 94
        3
 73
     0
 74
     0
 95
       11
 96
        7
 40
0.0
 40
0.0
 40
0.0
 40
0.0
 40
1.0
 40
1.0
 40
1.0
 40
2.0
 40
2.0
 40
2.0
 40
2.0
 10
318.6179958472392
 20
189.2279124548894
 10
318.6315963864495
 20
189.2246689564125
 10
318.6461564729059
 20
189.2262768445455
 10
318.6598682639723
 20
189.2279124548894
 10
318.6598682639723
 20
189.2279124548894
 10
318.6179958472392
 20
189.2279124548894
 10
318.6179958472392
 20
189.2279124548894
 97
        0
 97
        1
330
80
 75
     0
 76
     1
 98
        1
 10
0.0
 20
0.0
450
        0
451
        0
460
0.0
461
0.0
452
        0
462
0.0
453
        0
470

  0
LWPOLYLINE
  5
82
330
70
100
AcDbEntity
  8
レイヤー_1
 62
    18
420
        0
370
     0
100
AcDbPolyline
 90
        4
 70
     1
 43
0.0
 10
314.6013936590246
 20
188.7160773060483
 10
314.5996831617617
 20
188.7160773060483
 10
314.6509494069582
 20
188.7152317786674
 10
314.6569291941367
 20
188.7160773060483
  0
LWPOLYLINE
  5
83
330
70
100
AcDbEntity
  8
レイヤー_1
100
AcDbPolyline
 90
        4
 70
     1
 43
0.0
 10
314.601393659025
 20
188.7160773060477
 10
314.599683161762
 20
188.7160773060477
 10
314.6509494069584
 20
188.7152317786674
 10
314.6569291941367
 20
188.7160773060477
  0
HATCH
  5
84
330
70
100
AcDbEntity
  8
レイヤー_1
 62
    18
420
        0
440
 33554687
100
AcDbHatch
 10
0.0
 20
0.0
 30
0.0
210
0.0
220
0.0
230
1.0
  2
SOLID
 70
     1
 71
     1
 91
        1
 92
        1
 93
        4
 72
     1
 10
314.601393659025
 20
188.7160773060477
 11
314.599683161762
 21
188.7160773060477
 72
     1
 10
314.599683161762
 20
188.7160773060477
 11
314.6509494069584
 21
188.7152317786674
 72
     1
 10
314.6509494069584
 20
188.7152317786674
 11
314.6569291941367
 21
188.7160773060477
 72
     1
 10
314.6569291941367
 20
188.7160773060477
 11
314.601393659025
 21
188.7160773060477
 97
        1
330
83
 75
     0
 76
     1
 98
        1
 10
0.0
 20
0.0
450
        0
451
        0
460
0.0
461
0.0
452
        0
462
0.0
453
        0
470

  0
LINE
  5
86
330
70
100
AcDbEntity
  8
shade
 62
     2
420
 16776960
370
    25
100
AcDbLine
 10
397.3564672909511
 20
266.861106032173
 30
0.0
 11
397.3564672909511
 21
124.9994039400008
 31
0.0
  0
LINE
  5
87
330
70
100
AcDbEntity
  8
shade
 62
     2
420
 16776960
370
    25
100
AcDbLine
 10
279.9768658730248
 20
124.9994039400008
 30
0.0
 11
279.9768658730248
 21
266.861106032173
 31
0.0
  0
LINE
  5
88
330
70
100
AcDbEntity
  8
shade
 62
     2
420
 16776960
370
    25
100
AcDbLine
 10
397.3564672909511
 20
124.9994039400008
 30
0.0
 11
279.9768658730248
 21
124.9994039400008
 31
0.0
  0
LINE
  5
89
330
70
100
AcDbEntity
  8
shade
 62
     2
420
 16776960
370
    25
100
AcDbLine
 10
397.3564672909511
 20
131.7547230872458
 30
0.0
 11
279.9768658730248
 21
131.7547230872458
 31
0.0
  0
LINE
  5
8A
330
70
100
AcDbEntity
  8
shade
 62
     2
420
 16776960
370
    25
100
AcDbLine
 10
397.3564672909511
 20
138.5100422344882
 30
0.0
 11
279.9768658730248
 21
138.5100422344882
 31
0.0
  0
LINE
  5
8B
330
70
100
AcDbEntity
  8
shade
 62
     2
420
 16776960
370
    25
100
AcDbLine
 10
397.3564672909511
 20
145.2653613817326
 30
0.0
 11
279.9768658730248
 21
145.2653613817326
 31
0.0
  0
LINE
  5
8C
330
70
100
AcDbEntity
  8
shade
 62
     2
420
 16776960
370
    25
100
AcDbLine
 10
397.3564672909511
 20
266.861106032173
 30
0.0
 11
279.9768658730248
 21
266.861106032173
 31
0.0
  0
LWPOLYLINE
  5
8D
330
70
100
AcDbEntity
  8
shade
 62
    18
420
        0
370
     0
100
AcDbPolyline
 90
        4
 70
     1
 43
0.0
 10
211.5054317125722
 20
380.9999999047501
 10
465.8279014514278
 20
380.9999999047501
 10
465.8279014514278
 20
0.0
 10
211.5054317125722
 20
0.0
  0
MTEXT
  5
8E
330
70
100
AcDbEntity
  8
shade
100
AcDbMText
 10
284.2513618606321
 20
133.6695648706896
 30
0.0
 40
0.2
 41
0.0
 46
0.0
 71
     7
 72
     1
  1
\C4;\c16776960;\FMS PMincho|b0|i0|c128;\H3.377660;\W0.965326;KP101BST/BBR
 73
     1
 44
1.0
  0
MTEXT
  5
8F
330
70
100
AcDbEntity
  8
shade
100
AcDbMText
 10
284.2696854622442
 20
140.3270719389308
 30
0.0
 40
0.2
 41
0.0
 46
0.0
 71
     7
 72
     1
  1
\C4;\c16776960;\FMS PMincho|b0|i0|c128;\H3.377660;\W0.965326;ペンダント 101B (M) スチール/ブラス
 73
     1
 44
1.0
  0
MTEXT
  5
90
330
70
100
AcDbEntity
  8
shade
100
AcDbMText
 10
283.9233457067427
 20
126.6229019696192
 30
0.0
 40
0.2
 41
0.0
 46
0.0
 71
     7
 72
     1
  1
\C4;\c16776960;\FMS PMincho|b0|i0|c128;\H3.496733;\W0.965326;E26 LED電球(100W相当 電球色 全方向/広配光ﾀｲﾌﾟ）
 73
     1
 44
1.0
  0
SPLINE
  5
91
330
70
100
AcDbEntity
  8
shade
 62
     6
420
 16711935
370
    25
100
AcDbSpline
210
0.0
220
0.0
230
1.0
 70
     8
 71
     3
 72
    14
 73
    10
 74
     0
 42
0.0000000001
 43
0.0000000001
 40
0.0
 40
0.0
 40
0.0
 40
0.0
 40
1.0
 40
1.0
 40
1.0
 40
2.0
 40
2.0
 40
2.0
 40
3.0
 40
3.0
 40
3.0
 40
3.0
 10
339.1471927872008
 20
250.1941520591679
 30
0.0
 10
339.1471927872008
 20
250.1941520591679
 30
0.0
 10
334.7454577340375
 20
250.1941520591679
 30
0.0
 10
334.7454577340375
 20
250.1941520591679
 30
0.0
 10
334.7454577340375
 20
246.6963146881319
 30
0.0
 10
336.2082351746067
 20
243.3700052135434
 30
0.0
 10
338.7559274491274
 20
241.0744712104057
 30
0.0
 10
338.7559274491274
 20
241.0744712104057
 30
0.0
 10
339.1471927872008
 20
241.0744712104057
 30
0.0
 10
339.1471927872008
 20
241.0744712104057
 30
0.0
  0
LINE
  5
92
330
70
100
AcDbEntity
  8
shade
 62
     6
420
 16711935
370
    25
100
AcDbLine
 10
338.8537439757029
 20
228.3686834620493
 30
0.0
 11
338.8537438367879
 21
241.0744712104057
 31
0.0
  0
LINE
  5
93
330
70
100
AcDbEntity
  8
shade
 62
     6
420
 16711935
370
    25
100
AcDbLine
 10
339.1471927872008
 20
197.0936451723279
 30
0.0
 11
339.1471927872008
 21
202.9684824375082
 31
0.0
  0
LINE
  5
94
330
70
100
AcDbEntity
  8
shade
 62
     6
420
 16711935
370
    25
100
AcDbLine
 10
339.1471927872008
 20
204.5897590328393
 30
0.0
 11
339.1471927872008
 21
207.6246671103223
 31
0.0
  0
LWPOLYLINE
  5
95
330
70
100
AcDbEntity
  8
shade
 62
     6
420
 16711935
370
    25
100
AcDbPolyline
 90
        5
 70
     0
 43
0.0
 10
339.1471927872008
 20
197.0936451723279
 10
337.6668105984554
 20
190.3267819773888
 10
339.1471927872008
 20
179.7207055190123
 10
337.5736338000985
 20
169.8330579116386
 10
339.1471927872008
 20
163.6988345054692
  0
LWPOLYLINE
  5
96
330
70
100
AcDbEntity
  8
shade
 62
     6
420
 16711935
370
    25
100
AcDbPolyline
 90
        4
 70
     1
 43
0.0
 10
337.5736338000985
 20
169.8330579116386
 10
337.4597323250861
 20
163.7738890258478
 10
334.9544896010674
 20
169.7150652237816
 10
335.8654486613044
 20
179.6241819148798
  0
LWPOLYLINE
  5
97
330
70
100
AcDbEntity
  8
shade
 62
     6
420
 16711935
370
    25
100
AcDbPolyline
 90
        4
 70
     1
 43
0.0
 10
337.6668105984554
 20
190.3267819773888
 10
335.8654486613044
 20
179.6241819148798
 10
335.0476663994247
 20
190.0586802487444
 10
337.7599873968117
 20
197.1472306089808
  0
LWPOLYLINE
  5
98
330
70
100
AcDbEntity
  8
shade
 62
     6
420
 16711935
370
    25
100
AcDbPolyline
 90
        4
 70
     1
 43
0.0
 10
335.0476663994247
 20
190.0586802487444
 10
336.3726977597959
 20
197.1150269833781
 10
332.7390553638057
 20
190.1766729366008
 10
332.9357712988346
 20
179.73135278819
  0
LWPOLYLINE
  5
99
330
70
100
AcDbEntity
  8
shade
 62
     6
420
 16711935
370
    25
100
AcDbPolyline
 90
        5
 70
     0
 43
0.0
 10
334.9544896010674
 20
169.7150652237816
 10
332.9357712988342
 20
179.73135278819
 10
332.5630641054061
 20
170.0046360361755
 10
330.4823402664912
 20
179.73135278819
 10
332.7390553638057
 20
190.1766729366303
  0
LWPOLYLINE
  5
9A
330
70
100
AcDbEntity
  8
shade
 62
     6
420
 16711935
370
    25
100
AcDbPolyline
 90
       10
 70
     0
 43
0.0
 10
334.9544896010674
 20
169.7150652237816
 10
335.9482631213456
 20
163.7632417566714
 10
332.5630641054061
 20
170.0046360361755
 10
334.6232317609735
 20
163.9990525870395
 10
330.6272445098696
 20
170.0582214728303
 10
333.246388708926
 20
164.4602015239459
 10
328.660337899338
 20
170.3156759322932
 10
332.0661773452792
 20
164.5996632955556
 10
327.1488686955998
 20
170.7015958034494
 10
331.3518499734188
 20
164.803357772994
  0
LWPOLYLINE
  5
9B
330
70
100
AcDbEntity
  8
shade
 62
     6
420
 16711935
370
    25
100
AcDbPolyline
 90
        9
 70
     0
 43
0.0
 10
330.4823402664912
 20
179.73135278819
 10
330.6272445098692
 20
170.0582214728303
 10
328.1116394475111
 20
179.8599927452228
 10
328.660337899338
 20
170.3156759322932
 10
326.1860979436605
 20
180.0959781209619
 10
327.1488686955998
 20
170.7015958034494
 10
324.7886144616127
 20
180.3855489333847
 10
326.0101066852875
 20
171.1091593037009
 10
323.7223045729764
 20
180.4927198066655
  0
LWPOLYLINE
  5
9C
330
70
100
AcDbEntity
  8
shade
 62
     6
420
 16711935
370
    25
100
AcDbPolyline
 90
        3
 70
     0
 43
0.0
 10
331.3518499734188
 20
164.803357772994
 10
326.0101066852875
 20
171.1091593037009
 10
330.5133430348584
 20
165.167983105796
  0
LWPOLYLINE
  5
9D
330
70
100
AcDbEntity
  8
shade
 62
     6
420
 16711935
370
    25
100
AcDbPolyline
 90
        3
 70
     0
 43
0.0
 10
330.0785460580677
 20
165.2859757936524
 10
325.4614924801389
 20
171.1950356386545
 10
323.7223045729764
 20
180.4927198066655
  0
LINE
  5
9E
330
70
100
AcDbEntity
  8
shade
 62
     6
420
 16711935
370
    25
100
AcDbLine
 10
325.4614924801389
 20
171.1950356386545
 30
0.0
 11
322.9355250794394
 21
180.9002833069453
 31
0.0
  0
LWPOLYLINE
  5
9F
330
70
100
AcDbEntity
  8
shade
 62
     6
420
 16711935
370
    25
100
AcDbPolyline
 90
        3
 70
     0
 43
0.0
 10
328.1116394475108
 20
179.8599927452228
 10
330.6686096165511
 20
189.9406875608617
 10
330.4823402664912
 20
179.73135278819
  0
LWPOLYLINE
  5
A0
330
70
100
AcDbEntity
  8
shade
 62
     6
420
 16711935
370
    25
100
AcDbPolyline
 90
       10
 70
     0
 43
0.0
 10
328.1116394475108
 20
179.8599927452228
 10
328.8673319260804
 20
189.7905785200756
 10
326.1860979436605
 20
180.0959781209619
 10
327.3663093073073
 20
189.8333421421824
 10
324.7886144616127
 20
180.3855489333847
 10
326.1860979436605
 20
189.7155239996957
 10
323.7223045729764
 20
180.4927198066655
 10
325.3890403584362
 20
189.6832331013982
 10
322.9355250794394
 20
180.9002833069453
 10
324.7678897849324
 20
189.619000395567
  0
LWPOLYLINE
  5
A1
330
70
100
AcDbEntity
  8
shade
 62
     6
420
 16711935
370
    25
100
AcDbPolyline
 90
        9
 70
     0
 43
0.0
 10
332.7390553638057
 20
190.1766729366303
 10
335.0373040610832
 20
197.0399724629741
 10
330.6686096165511
 20
189.9406875608617
 10
333.774278237419
 20
196.8148089018084
 10
328.8673319260804
 20
189.7905785200756
 10
332.8218698238238
 20
196.7504016505806
 10
327.366309307307
 20
189.8333421421824
 10
331.9833628852637
 20
196.7397543814038
 10
326.1860979436605
 20
189.7155239996957
  0
LINE
  5
A2
330
70
100
AcDbEntity
  8
shade
 62
     6
420
 16711935
370
    25
100
AcDbLine
 10
324.7678897849324
 20
189.619000395567
 30
0.0
 11
331.0516791483198
 21
196.6646998610239
 31
0.0
  0
LWPOLYLINE
  5
A3
330
70
100
AcDbEntity
  8
shade
 62
     6
420
 16711935
370
    25
100
AcDbPolyline
 90
        3
 70
     0
 43
0.0
 10
325.3890403584362
 20
189.6832331013982
 10
331.269035513401
 20
196.6111144243691
 10
326.1860979436605
 20
189.7155239996957
  0
LINE
  5
A4
330
70
100
AcDbEntity
  8
shade
 62
     6
420
 16711935
370
    25
100
AcDbLine
 10
331.0516791483198
 20
196.6646998610239
 30
0.0
 11
325.3890403584362
 21
189.6832331013982
 31
0.0
  0
LINE
  5
A5
330
70
100
AcDbEntity
  8
shade
 62
     6
420
 16711935
370
    25
100
AcDbLine
 10
337.7599873968117
 20
197.1472306089808
 30
0.0
 11
338.8676623921292
 21
198.5520592307781
 31
0.0
  0
LINE
  5
A6
330
70
100
AcDbEntity
  8
shade
 62
     6
420
 16711935
370
    25
100
AcDbLine
 10
336.3726977597959
 20
197.1150269833781
 30
0.0
 11
338.2361494802839
 21
198.5520592307781
 31
0.0
  0
LINE
  5
A7
330
70
100
AcDbEntity
  8
shade
 62
     6
420
 16711935
370
    25
100
AcDbLine
 10
335.0373040610832
 20
197.0399724629741
 30
0.0
 11
337.6149146601259
 21
198.5520592307781
 31
0.0
  0
LINE
  5
A8
330
70
100
AcDbEntity
  8
shade
 62
     6
420
 16711935
370
    25
100
AcDbLine
 10
333.7742782374194
 20
196.8148089018084
 30
0.0
 11
337.0145730099559
 21
198.5520592307781
 31
0.0
  0
LINE
  5
A9
330
70
100
AcDbEntity
  8
shade
 62
     6
420
 16711935
370
    25
100
AcDbLine
 10
332.8218698238238
 20
196.7504016505806
 30
0.0
 11
336.4245094514731
 21
198.5520592307781
 31
0.0
  0
LINE
  5
AA
330
70
100
AcDbEntity
  8
shade
 62
     6
420
 16711935
370
    25
100
AcDbLine
 10
331.9833628852358
 20
196.7397543814038
 30
0.0
 11
336.1553413947153
 21
198.5520592307781
 31
0.0
  0
LWPOLYLINE
  5
AB
330
70
100
AcDbEntity
  8
shade
 62
     6
420
 16711935
370
    25
100
AcDbPolyline
 90
        3
 70
     0
 43
0.0
 10
331.269035513401
 20
196.6111144243691
 10
336.062164596358
 20
198.5520592307781
 10
331.0516791483198
 20
196.6646998610239
  0
LINE
  5
AC
330
70
100
AcDbEntity
  8
shade
 62
     6
420
 16711935
370
    25
100
AcDbLine
 10
338.9261071549232
 20
202.9684824375082
 30
0.0
 11
338.8572158071339
 21
198.5520592307781
 31
0.0
  0
LINE
  5
AD
330
70
100
AcDbEntity
  8
shade
 62
     6
420
 16711935
370
    25
100
AcDbLine
 10
338.2361494802839
 20
198.5520592307781
 30
0.0
 11
338.4045782365516
 21
202.9684824375082
 31
0.0
  0
LINE
  5
AE
330
70
100
AcDbEntity
  8
shade
 62
     6
420
 16711935
370
    25
100
AcDbLine
 10
337.6149146601259
 20
198.5520592307781
 30
0.0
 11
337.9058030816372
 21
202.9684824375082
 31
0.0
  0
LINE
  5
AF
330
70
100
AcDbEntity
  8
shade
 62
     6
420
 16711935
370
    25
100
AcDbLine
 10
337.4048742624586
 20
202.9684824375082
 30
0.0
 11
337.0145730099559
 21
198.5520592307781
 31
0.0
  0
LINE
  5
B0
330
70
100
AcDbEntity
  8
shade
 62
     6
420
 16711935
370
    25
100
AcDbLine
 10
336.4245094514731
 20
198.5520592307781
 30
0.0
 11
336.9832394602434
 21
202.9684824375082
 31
0.0
  0
LINE
  5
B1
330
70
100
AcDbEntity
  8
shade
 62
     6
420
 16711935
370
    25
100
AcDbLine
 10
336.6987483731539
 20
202.9684824375082
 30
0.0
 11
336.1553413947153
 21
198.5520592307781
 31
0.0
  0
LWPOLYLINE
  5
B2
330
70
100
AcDbEntity
  8
shade
 62
     6
420
 16711935
370
    25
100
AcDbPolyline
 90
        3
 70
     0
 43
0.0
 10
336.5366802270074
 20
202.9684824375082
 10
336.062164596358
 20
198.5520592307781
 10
336.3912983049955
 20
202.9684824375082
  0
LINE
  5
B3
330
70
100
AcDbEntity
  8
shade
 62
     6
420
 16711935
370
    25
100
AcDbLine
 10
336.2535156093919
 20
202.9684824375082
 30
0.0
 11
336.062164596358
 21
198.5520592307781
 31
0.0
  0
LWPOLYLINE
  5
B4
330
70
100
AcDbEntity
  8
shade
 62
     6
420
 16711935
370
    25
100
AcDbPolyline
 90
        4
 70
     0
 43
0.0
 10
330.0785460580677
 20
165.2859757936524
 10
330.5133430348584
 20
165.167983105796
 10
330.7928734299304
 20
164.8892341079489
 10
331.2380327450346
 20
164.9321722754279
  0
LWPOLYLINE
  5
B5
330
70
100
AcDbEntity
  8
shade
 62
     6
420
 16711935
370
    25
100
AcDbPolyline
 90
        9
 70
     0
 43
0.0
 10
331.3518499734188
 20
164.803357772994
 10
331.3932993267526
 20
164.7497723363392
 10
331.7141948285062
 20
164.6532487322111
 10
331.8073716268638
 20
164.5675469426503
 10
332.0661773452792
 20
164.5996632955556
 10
332.1386294669558
 20
164.5246087751757
 10
333.246388708926
 20
164.4602015239459
 10
333.6086493173602
 20
164.1170452748978
 10
334.5404173009307
 20
164.1170452748978
  0
LINE
  5
B6
330
70
100
AcDbEntity
  8
shade
 62
     6
420
 16711935
370
    25
100
AcDbLine
 10
334.6232317609735
 20
163.9990525870395
 30
0.0
 11
335.9482631213456
 21
163.7632417566714
 31
0.0
  0
LINE
  5
B7
330
70
100
AcDbEntity
  8
shade
 62
     6
420
 16711935
370
    25
100
AcDbLine
 10
337.4597323250861
 20
163.7738890258478
 30
0.0
 11
338.5881319970582
 21
163.0875765277516
 31
0.0
  0
LINE
  5
B8
330
70
100
AcDbEntity
  8
shade
 62
     6
420
 16711935
370
    25
100
AcDbLine
 10
338.3913318153505
 20
163.0875765277516
 30
0.0
 11
335.9482631213456
 21
163.7632417566714
 31
0.0
  0
LWPOLYLINE
  5
B9
330
70
100
AcDbEntity
  8
shade
 62
     6
420
 16711935
370
    25
100
AcDbPolyline
 90
        4
 70
     0
 43
0.0
 10
339.1471927872008
 20
163.6988345054692
 10
338.8469377154477
 20
163.0875765277516
 10
338.3913318153505
 20
163.0875765277516
 10
337.4597323250861
 20
163.7738890258478
  0
LINE
  5
BA
330
70
100
AcDbEntity
  8
shade
 62
     6
420
 16711935
370
    25
100
AcDbLine
 10
339.1471927872008
 20
163.6988345054692
 30
0.0
 11
339.4472793656424
 21
163.0875765277516
 31
0.0
  0
LINE
  5
BB
330
70
100
AcDbEntity
  8
shade
 62
     6
420
 16711935
370
    25
100
AcDbLine
 10
339.4472793656424
 20
163.0875765277516
 30
0.0
 11
339.9546127107652
 21
163.1519837789802
 31
0.0
  0
SPLINE
  5
BC
330
70
100
AcDbEntity
  8
shade
 62
     6
420
 16711935
370
    25
100
AcDbSpline
210
0.0
220
0.0
230
1.0
 70
     8
 71
     3
 72
    26
 73
    22
 74
     0
 42
0.0000000001
 43
0.0000000001
 40
0.0
 40
0.0
 40
0.0
 40
0.0
 40
1.0
 40
1.0
 40
1.0
 40
2.0
 40
2.0
 40
2.0
 40
3.0
 40
3.0
 40
3.0
 40
4.0
 40
4.0
 40
4.0
 40
5.0
 40
5.0
 40
5.0
 40
6.0
 40
6.0
 40
6.0
 40
7.0
 40
7.0
 40
7.0
 40
7.0
 10
339.1471927872008
 20
207.6246671103223
 30
0.0
 10
338.2418782526904
 20
207.6239689287319
 30
0.0
 10
337.3342048119267
 20
207.4475035331119
 30
0.0
 10
336.4969615731475
 20
207.0884636530126
 30
0.0
 10
336.4969615731475
 20
207.0884636530126
 30
0.0
 10
336.0000748129962
 20
206.8632128191466
 30
0.0
 10
336.0000748129962
 20
206.8632128191466
 30
0.0
 10
336.0000748129962
 20
206.8632128191466
 30
0.0
 10
335.523828482895
 20
206.5951110904769
 30
0.0
 10
335.523828482895
 20
206.5951110904769
 30
0.0
 10
335.523828482895
 20
206.5951110904769
 30
0.0
 10
335.4410140228539
 20
206.5093220282216
 30
0.0
 10
335.4410140228539
 20
206.5093220282216
 30
0.0
 10
335.4410140228539
 20
206.5093220282216
 30
0.0
 10
335.3892865778315
 20
206.4020638822158
 30
0.0
 10
335.3892865778315
 20
206.4020638822158
 30
0.0
 10
335.3892865778315
 20
206.4020638822158
 30
0.0
 10
335.3789242395167
 20
206.2841584670292
 30
0.0
 10
335.3789242395167
 20
206.2841584670292
 30
0.0
 10
335.3789242395167
 20
206.2841584670292
 30
0.0
 10
335.4202893461987
 20
206.1769003210502
 30
0.0
 10
335.4202893461987
 20
206.1769003210502
 30
0.0
  0
LINE
  5
BD
330
70
100
AcDbEntity
  8
shade
 62
     6
420
 16711935
370
    25
100
AcDbLine
 10
338.95288247014
 20
204.5897590328393
 30
0.0
 11
338.8986651604707
 21
207.6246671103223
 31
0.0
  0
LINE
  5
BE
330
70
100
AcDbEntity
  8
shade
 62
     6
420
 16711935
370
    25
100
AcDbLine
 10
338.4715713620282
 20
204.5897590328393
 30
0.0
 11
338.3086016019866
 21
207.5709944009679
 31
0.0
  0
LINE
  5
BF
330
70
100
AcDbEntity
  8
shade
 62
     6
420
 16711935
370
    25
100
AcDbLine
 10
338.0182516119654
 20
204.5897590328393
 30
0.0
 11
337.811714841834
 21
207.4959398805921
 31
0.0
  0
LINE
  5
C0
330
70
100
AcDbEntity
  8
shade
 62
     6
420
 16711935
370
    25
100
AcDbLine
 10
337.5533057135842
 20
204.5897590328393
 30
0.0
 11
337.3355527583614
 21
207.3886817345822
 31
0.0
  0
LINE
  5
C1
330
70
100
AcDbEntity
  8
shade
 62
     6
420
 16711935
370
    25
100
AcDbLine
 10
337.2023990587057
 20
204.5897590328393
 30
0.0
 11
336.9731236566195
 21
207.2707763193956
 31
0.0
  0
LINE
  5
C2
330
70
100
AcDbEntity
  8
shade
 62
     6
420
 16711935
370
    25
100
AcDbLine
 10
336.8986487820822
 20
204.5897590328393
 30
0.0
 11
336.5590513565106
 21
207.1205800059128
 31
0.0
  0
LINE
  5
C3
330
70
100
AcDbEntity
  8
shade
 62
     6
420
 16711935
370
    25
100
AcDbLine
 10
336.7158134189801
 20
204.5897590328393
 30
0.0
 11
336.165703733056
 21
206.9490018814019
 31
0.0
  0
LINE
  5
C4
330
70
100
AcDbEntity
  8
shade
 62
     6
420
 16711935
370
    25
100
AcDbLine
 10
336.3272031675204
 20
204.5897590328393
 30
0.0
 11
335.451376361193
 21
206.5307911119496
 31
0.0
  0
LINE
  5
C5
330
70
100
AcDbEntity
  8
shade
 62
     6
420
 16711935
370
    25
100
AcDbLine
 10
336.5140787230083
 20
204.5897590328393
 30
0.0
 11
335.7722718629456
 21
206.7345728620863
 31
0.0
  0
LINE
  5
C6
330
70
100
AcDbEntity
  8
shade
 62
     6
420
 16711935
370
    25
100
AcDbLine
 10
335.4202893461987
 20
206.1769003210502
 30
0.0
 11
336.3241263877565
 21
204.5897590328393
 31
0.0
  0
LINE
  5
C7
330
70
100
AcDbEntity
  8
shade
 62
     6
420
 16711935
370
    25
100
AcDbLine
 10
339.1471927872008
 20
202.9684824375082
 30
0.0
 11
339.1471927872008
 21
200.2893968324711
 31
0.0
  0
LINE
  5
C8
330
70
100
AcDbEntity
  8
shade
 62
     6
420
 16711935
370
    25
100
AcDbLine
 10
339.1471927872008
 20
199.6459352291518
 30
0.0
 11
339.1471927872008
 21
199.0024736258332
 31
0.0
  0
LINE
  5
C9
330
70
100
AcDbEntity
  8
shade
 62
     6
420
 16711935
370
    25
100
AcDbLine
 10
339.1471927872008
 20
198.3590120225145
 30
0.0
 11
339.1471927872008
 21
194.4984169480247
 31
0.0
  0
LINE
  5
CA
330
70
100
AcDbEntity
  8
shade
 62
     6
420
 16711935
370
    25
100
AcDbLine
 10
338.8830881398239
 20
207.6194709716618
 30
0.0
 11
338.8830881230614
 21
227.9283360190158
 31
0.0
  0
LINE
  5
CB
330
70
100
AcDbEntity
  8
shade
 62
     6
420
 16711935
370
    25
100
AcDbLine
 10
339.1471927872008
 20
204.5897590328393
 30
0.0
 11
336.0170700827097
 21
204.5897590328393
 31
0.0
  0
LINE
  5
CC
330
70
100
AcDbEntity
  8
shade
 62
     6
420
 16711935
370
    25
100
AcDbLine
 10
339.1471927872008
 20
202.9684824375082
 30
0.0
 11
336.0170700827097
 21
202.9684824375082
 31
0.0
  0
LINE
  5
CD
330
70
100
AcDbEntity
  8
shade
 62
     6
420
 16711935
370
    25
100
AcDbLine
 10
336.0170700827097
 20
204.5897590328393
 30
0.0
 11
336.0170700827097
 21
202.9684824375082
 31
0.0
  0
SPLINE
  5
CE
330
70
100
AcDbEntity
  8
shade
 62
     6
420
 16711935
370
    25
100
AcDbSpline
210
0.0
220
0.0
230
1.0
 70
     8
 71
     3
 72
    14
 73
    10
 74
     0
 42
0.0000000001
 43
0.0000000001
 40
0.0
 40
0.0
 40
0.0
 40
0.0
 40
1.0
 40
1.0
 40
1.0
 40
2.0
 40
2.0
 40
2.0
 40
3.0
 40
3.0
 40
3.0
 40
3.0
 10
339.1471927872008
 20
250.1941520591679
 30
0.0
 10
339.1471927872008
 20
250.1941520591679
 30
0.0
 10
343.5489278403623
 20
250.1941520591679
 30
0.0
 10
343.5489278403623
 20
250.1941520591679
 30
0.0
 10
343.5489278403623
 20
246.6963146881319
 30
0.0
 10
342.0861503997934
 20
243.3700052135434
 30
0.0
 10
339.5384581252454
 20
241.0744712104057
 30
0.0
 10
339.5384581252454
 20
241.0744712104057
 30
0.0
 10
339.1471927872008
 20
241.0744712104057
 30
0.0
 10
339.1471927872008
 20
241.0744712104057
 30
0.0
  0
LINE
  5
CF
330
70
100
AcDbEntity
  8
shade
 62
     6
420
 16711935
370
    25
100
AcDbLine
 10
339.4406415986982
 20
228.3686834620493
 30
0.0
 11
339.4406417376112
 21
241.0744712104057
 31
0.0
  0
LINE
  5
D0
330
70
100
AcDbEntity
  8
shade
 62
     6
420
 16711935
370
    25
100
AcDbLine
 10
339.1471927872008
 20
197.0936451723279
 30
0.0
 11
339.1471927872008
 21
202.9684824375082
 31
0.0
  0
LINE
  5
D1
330
70
100
AcDbEntity
  8
shade
 62
     6
420
 16711935
370
    25
100
AcDbLine
 10
339.1471927872008
 20
204.5897590328393
 30
0.0
 11
339.1471927872008
 21
207.6246671103223
 31
0.0
  0
LWPOLYLINE
  5
D2
330
70
100
AcDbEntity
  8
shade
 62
     6
420
 16711935
370
    25
100
AcDbPolyline
 90
        5
 70
     0
 43
0.0
 10
339.1471927872008
 20
197.0936451723279
 10
340.627574975919
 20
190.3267819773888
 10
339.1471927872008
 20
179.7207055190123
 10
340.7207517743025
 20
169.8330579116386
 10
339.1471927872008
 20
163.6988345054692
  0
LWPOLYLINE
  5
D3
330
70
100
AcDbEntity
  8
shade
 62
     6
420
 16711935
370
    25
100
AcDbPolyline
 90
        4
 70
     1
 43
0.0
 10
340.7207517743025
 20
169.8330579116386
 10
340.834653249313
 20
163.7738890258478
 10
343.3398959733336
 20
169.7150652237816
 10
342.4289369130693
 20
179.6241819148798
  0
LWPOLYLINE
  5
D4
330
70
100
AcDbEntity
  8
shade
 62
     6
420
 16711935
370
    25
100
AcDbPolyline
 90
        4
 70
     1
 43
0.0
 10
340.627574975919
 20
190.3267819773888
 10
342.4289369130693
 20
179.6241819148798
 10
343.2467191749751
 20
190.0586802487444
 10
340.5343981775875
 20
197.1472306089808
  0
LWPOLYLINE
  5
D5
330
70
100
AcDbEntity
  8
shade
 62
     6
420
 16711935
370
    25
100
AcDbPolyline
 90
        4
 70
     1
 43
0.0
 10
343.2467191749751
 20
190.0586802487444
 10
341.9216878146029
 20
197.1150269833781
 10
345.5553302105937
 20
190.1766729366008
 10
345.3586142755398
 20
179.73135278819
  0
LWPOLYLINE
  5
D6
330
70
100
AcDbEntity
  8
shade
 62
     6
420
 16711935
370
    25
100
AcDbPolyline
 90
        5
 70
     0
 43
0.0
 10
343.3398959733336
 20
169.7150652237816
 10
345.3586142755398
 20
179.73135278819
 10
345.7313214689674
 20
170.0046360361755
 10
347.8120453078828
 20
179.73135278819
 10
345.5553302105937
 20
190.1766729366303
  0
LWPOLYLINE
  5
D7
330
70
100
AcDbEntity
  8
shade
 62
     6
420
 16711935
370
    25
100
AcDbPolyline
 90
       10
 70
     0
 43
0.0
 10
343.3398959733336
 20
169.7150652237816
 10
342.3461224530535
 20
163.7632417566714
 10
345.731321468993
 20
170.0046360361755
 10
343.6711538134251
 20
163.9990525870395
 10
347.6671410645046
 20
170.0582214728303
 10
345.0479968654735
 20
164.4602015239459
 10
349.6340476750614
 20
170.3156759322932
 10
346.22820822912
 20
164.5996632955556
 10
351.1455168788007
 20
170.7015958034494
 10
346.9425356009816
 20
164.803357772994
  0
LWPOLYLINE
  5
D8
330
70
100
AcDbEntity
  8
shade
 62
     6
420
 16711935
370
    25
100
AcDbPolyline
 90
        9
 70
     0
 43
0.0
 10
347.8120453078828
 20
179.73135278819
 10
347.6671410645302
 20
170.0582214728303
 10
350.1827461268633
 20
179.8599927452228
 10
349.6340476750614
 20
170.3156759322932
 10
352.1082876307129
 20
180.0959781209619
 10
351.1455168788007
 20
170.7015958034494
 10
353.5057711127871
 20
180.3855489333847
 10
352.2842788891129
 20
171.1091593037009
 10
354.5720810013961
 20
180.4927198066655
  0
LWPOLYLINE
  5
D9
330
70
100
AcDbEntity
  8
shade
 62
     6
420
 16711935
370
    25
100
AcDbPolyline
 90
        3
 70
     0
 43
0.0
 10
346.9425356009816
 20
164.803357772994
 10
352.2842788891129
 20
171.1091593037009
 10
347.7810425395426
 20
165.167983105796
  0
LWPOLYLINE
  5
DA
330
70
100
AcDbEntity
  8
shade
 62
     6
420
 16711935
370
    25
100
AcDbPolyline
 90
        3
 70
     0
 43
0.0
 10
348.215839516332
 20
165.2859757936524
 10
352.8328930942603
 20
171.1950356386545
 10
354.5720810013961
 20
180.4927198066655
  0
LINE
  5
DB
330
70
100
AcDbEntity
  8
shade
 62
     6
420
 16711935
370
    25
100
AcDbLine
 10
352.8328930942603
 20
171.1950356386545
 30
0.0
 11
355.3588604949604
 21
180.9002833069453
 31
0.0
  0
LWPOLYLINE
  5
DC
330
70
100
AcDbEntity
  8
shade
 62
     6
420
 16711935
370
    25
100
AcDbPolyline
 90
        3
 70
     0
 43
0.0
 10
350.1827461268633
 20
179.8599927452228
 10
347.625775957823
 20
189.9406875608617
 10
347.8120453078828
 20
179.73135278819
  0
LWPOLYLINE
  5
DD
330
70
100
AcDbEntity
  8
shade
 62
     6
420
 16711935
370
    25
100
AcDbPolyline
 90
       10
 70
     0
 43
0.0
 10
350.1827461268633
 20
179.8599927452228
 10
349.4270536483194
 20
189.7905785200756
 10
352.1082876307129
 20
180.0959781209619
 10
350.9280762670665
 20
189.8333421421824
 10
353.5057711127871
 20
180.3855489333847
 10
352.1082876307129
 20
189.7155239996957
 10
354.5720810013961
 20
180.4927198066655
 10
352.9053452159629
 20
189.6832331013982
 10
355.3588604949604
 20
180.9002833069453
 10
353.5264957894417
 20
189.619000395567
  0
LWPOLYLINE
  5
DE
330
70
100
AcDbEntity
  8
shade
 62
     6
420
 16711935
370
    25
100
AcDbPolyline
 90
        9
 70
     0
 43
0.0
 10
345.5553302105937
 20
190.1766729366303
 10
343.2570815133159
 20
197.0399724629741
 10
347.625775957823
 20
189.9406875608617
 10
344.5201073369795
 20
196.8148089018084
 10
349.4270536483194
 20
189.7905785200756
 10
345.472515750576
 20
196.7504016505806
 10
350.9280762670665
 20
189.8333421421824
 10
346.3110226891383
 20
196.7397543814038
 10
352.1082876307129
 20
189.7155239996957
  0
LINE
  5
DF
330
70
100
AcDbEntity
  8
shade
 62
     6
420
 16711935
370
    25
100
AcDbLine
 10
353.5264957894417
 20
189.619000395567
 30
0.0
 11
347.2427064260533
 21
196.6646998610239
 31
0.0
  0
LWPOLYLINE
  5
E0
330
70
100
AcDbEntity
  8
shade
 62
     6
420
 16711935
370
    25
100
AcDbPolyline
 90
        3
 70
     0
 43
0.0
 10
352.9053452159629
 20
189.6832331013982
 10
347.0253500609981
 20
196.6111144243691
 10
352.1082876307129
 20
189.7155239996957
  0
LINE
  5
E1
330
70
100
AcDbEntity
  8
shade
 62
     6
420
 16711935
370
    25
100
AcDbLine
 10
347.2427064260533
 20
196.6646998610239
 30
0.0
 11
352.9053452159629
 21
189.6832331013982
 31
0.0
  0
LINE
  5
E2
330
70
100
AcDbEntity
  8
shade
 62
     6
420
 16711935
370
    25
100
AcDbLine
 10
340.5343981775875
 20
197.1472306089808
 30
0.0
 11
339.4267231822718
 21
198.5520592307781
 31
0.0
  0
LINE
  5
E3
330
70
100
AcDbEntity
  8
shade
 62
     6
420
 16711935
370
    25
100
AcDbLine
 10
341.9216878146029
 20
197.1150269833781
 30
0.0
 11
340.0582360941152
 21
198.5520592307781
 31
0.0
  0
LINE
  5
E4
330
70
100
AcDbEntity
  8
shade
 62
     6
420
 16711935
370
    25
100
AcDbLine
 10
343.2570815133159
 20
197.0399724629741
 30
0.0
 11
340.6794709142479
 21
198.5520592307781
 31
0.0
  0
LINE
  5
E5
330
70
100
AcDbEntity
  8
shade
 62
     6
420
 16711935
370
    25
100
AcDbLine
 10
344.5201073369795
 20
196.8148089018084
 30
0.0
 11
341.2798125644432
 21
198.5520592307781
 31
0.0
  0
LINE
  5
E6
330
70
100
AcDbEntity
  8
shade
 62
     6
420
 16711935
370
    25
100
AcDbLine
 10
345.472515750576
 20
196.7504016505806
 30
0.0
 11
341.8698761229293
 21
198.5520592307781
 31
0.0
  0
LINE
  5
E7
330
70
100
AcDbEntity
  8
shade
 62
     6
420
 16711935
370
    25
100
AcDbLine
 10
346.3110226891383
 20
196.7397543814038
 30
0.0
 11
342.1390441796588
 21
198.5520592307781
 31
0.0
  0
LWPOLYLINE
  5
E8
330
70
100
AcDbEntity
  8
shade
 62
     6
420
 16711935
370
    25
100
AcDbPolyline
 90
        3
 70
     0
 43
0.0
 10
347.0253500609981
 20
196.6111144243691
 10
342.2322209780417
 20
198.5520592307781
 10
347.2427064260533
 20
196.6646998610239
  0
LINE
  5
E9
330
70
100
AcDbEntity
  8
shade
 62
     6
420
 16711935
370
    25
100
AcDbLine
 10
339.3682784194502
 20
202.9684824375082
 30
0.0
 11
339.4371697672652
 21
198.5520592307781
 31
0.0
  0
LINE
  5
EA
330
70
100
AcDbEntity
  8
shade
 62
     6
420
 16711935
370
    25
100
AcDbLine
 10
340.0582360941152
 20
198.5520592307781
 30
0.0
 11
339.8898073378225
 21
202.9684824375082
 31
0.0
  0
LINE
  5
EB
330
70
100
AcDbEntity
  8
shade
 62
     6
420
 16711935
370
    25
100
AcDbLine
 10
340.6794709142479
 20
198.5520592307781
 30
0.0
 11
340.3885824927343
 21
202.9684824375082
 31
0.0
  0
LINE
  5
EC
330
70
100
AcDbEntity
  8
shade
 62
     6
420
 16711935
370
    25
100
AcDbLine
 10
340.8895113119143
 20
202.9684824375082
 30
0.0
 11
341.2798125644432
 21
198.5520592307781
 31
0.0
  0
LINE
  5
ED
330
70
100
AcDbEntity
  8
shade
 62
     6
420
 16711935
370
    25
100
AcDbLine
 10
341.8698761229293
 20
198.5520592307781
 30
0.0
 11
341.3111461141577
 21
202.9684824375082
 31
0.0
  0
LINE
  5
EE
330
70
100
AcDbEntity
  8
shade
 62
     6
420
 16711935
370
    25
100
AcDbLine
 10
341.5956372012193
 20
202.9684824375082
 30
0.0
 11
342.1390441796588
 21
198.5520592307781
 31
0.0
  0
LWPOLYLINE
  5
EF
330
70
100
AcDbEntity
  8
shade
 62
     6
420
 16711935
370
    25
100
AcDbPolyline
 90
        3
 70
     0
 43
0.0
 10
341.757705347392
 20
202.9684824375082
 10
342.2322209780417
 20
198.5520592307781
 10
341.9030872694043
 20
202.9684824375082
  0
LINE
  5
F0
330
70
100
AcDbEntity
  8
shade
 62
     6
420
 16711935
370
    25
100
AcDbLine
 10
342.0408699649822
 20
202.9684824375082
 30
0.0
 11
342.2322209780417
 21
198.5520592307781
 31
0.0
  0
LWPOLYLINE
  5
F1
330
70
100
AcDbEntity
  8
shade
 62
     6
420
 16711935
370
    25
100
AcDbPolyline
 90
        4
 70
     0
 43
0.0
 10
348.215839516332
 20
165.2859757936524
 10
347.7810425395426
 20
165.167983105796
 10
347.501512144471
 20
164.8892341079489
 10
347.0563528293395
 20
164.9321722754279
  0
LWPOLYLINE
  5
F2
330
70
100
AcDbEntity
  8
shade
 62
     6
420
 16711935
370
    25
100
AcDbPolyline
 90
        9
 70
     0
 43
0.0
 10
346.9425356009816
 20
164.803357772994
 10
346.9010862476468
 20
164.7497723363392
 10
346.5801907458679
 20
164.6532487322111
 10
346.4870139475094
 20
164.5675469426503
 10
346.22820822912
 20
164.5996632955556
 10
346.1557561074436
 20
164.5246087751757
 10
345.0479968654735
 20
164.4602015239459
 10
344.6857362570386
 20
164.1170452748978
 10
343.7539682734428
 20
164.1170452748978
  0
LINE
  5
F3
330
70
100
AcDbEntity
  8
shade
 62
     6
420
 16711935
370
    25
100
AcDbLine
 10
343.6711538134251
 20
163.9990525870395
 30
0.0
 11
342.3461224530535
 21
163.7632417566714
 31
0.0
  0
LINE
  5
F4
330
70
100
AcDbEntity
  8
shade
 62
     6
420
 16711935
370
    25
100
AcDbLine
 10
340.834653249313
 20
163.7738890258478
 30
0.0
 11
339.7062535773415
 21
163.0875765277516
 31
0.0
  0
LINE
  5
F5
330
70
100
AcDbEntity
  8
shade
 62
     6
420
 16711935
370
    25
100
AcDbLine
 10
339.9030537590513
 20
163.0875765277516
 30
0.0
 11
342.3461224530535
 21
163.7632417566714
 31
0.0
  0
LWPOLYLINE
  5
F6
330
70
100
AcDbEntity
  8
shade
 62
     6
420
 16711935
370
    25
100
AcDbPolyline
 90
        4
 70
     0
 43
0.0
 10
339.1471927872008
 20
163.6988345054692
 10
339.4474478589514
 20
163.0875765277516
 10
339.9030537590513
 20
163.0875765277516
 10
340.834653249313
 20
163.7738890258478
  0
LINE
  5
F7
330
70
100
AcDbEntity
  8
shade
 62
     6
420
 16711935
370
    25
100
AcDbLine
 10
339.1471927872008
 20
163.6988345054692
 30
0.0
 11
338.8471062087561
 21
163.0875765277516
 31
0.0
  0
LINE
  5
F8
330
70
100
AcDbEntity
  8
shade
 62
     6
420
 16711935
370
    25
100
AcDbLine
 10
338.8471062087561
 20
163.0875765277516
 30
0.0
 11
338.3397728636336
 21
163.1519837789802
 31
0.0
  0
SPLINE
  5
F9
330
70
100
AcDbEntity
  8
shade
 62
     6
420
 16711935
370
    25
100
AcDbSpline
210
0.0
220
0.0
230
1.0
 70
     8
 71
     3
 72
    26
 73
    22
 74
     0
 42
0.0000000001
 43
0.0000000001
 40
0.0
 40
0.0
 40
0.0
 40
0.0
 40
1.0
 40
1.0
 40
1.0
 40
2.0
 40
2.0
 40
2.0
 40
3.0
 40
3.0
 40
3.0
 40
4.0
 40
4.0
 40
4.0
 40
5.0
 40
5.0
 40
5.0
 40
6.0
 40
6.0
 40
6.0
 40
7.0
 40
7.0
 40
7.0
 40
7.0
 10
339.1471927872008
 20
207.6246671103223
 30
0.0
 10
340.0525073216837
 20
207.6239689287319
 30
0.0
 10
340.9601807624731
 20
207.4475035331119
 30
0.0
 10
341.7974240012517
 20
207.0884636530126
 30
0.0
 10
341.7974240012517
 20
207.0884636530126
 30
0.0
 10
342.2943107613766
 20
206.8632128191466
 30
0.0
 10
342.2943107613766
 20
206.8632128191466
 30
0.0
 10
342.2943107613766
 20
206.8632128191466
 30
0.0
 10
342.7705570915041
 20
206.5951110904769
 30
0.0
 10
342.7705570915041
 20
206.5951110904769
 30
0.0
 10
342.7705570915041
 20
206.5951110904769
 30
0.0
 10
342.8533715515205
 20
206.5093220282216
 30
0.0
 10
342.8533715515205
 20
206.5093220282216
 30
0.0
 10
342.8533715515205
 20
206.5093220282216
 30
0.0
 10
342.9050989965416
 20
206.4020638822158
 30
0.0
 10
342.9050989965416
 20
206.4020638822158
 30
0.0
 10
342.9050989965416
 20
206.4020638822158
 30
0.0
 10
342.9154613348824
 20
206.2841584670292
 30
0.0
 10
342.9154613348824
 20
206.2841584670292
 30
0.0
 10
342.9154613348824
 20
206.2841584670292
 30
0.0
 10
342.8740962282014
 20
206.1769003210502
 30
0.0
 10
342.8740962282014
 20
206.1769003210502
 30
0.0
  0
LINE
  5
FA
330
70
100
AcDbEntity
  8
shade
 62
     6
420
 16711935
370
    25
100
AcDbLine
 10
339.3415031042327
 20
204.5897590328393
 30
0.0
 11
339.3957204139297
 21
207.6246671103223
 31
0.0
  0
LINE
  5
FB
330
70
100
AcDbEntity
  8
shade
 62
     6
420
 16711935
370
    25
100
AcDbLine
 10
339.8228142123433
 20
204.5897590328393
 30
0.0
 11
339.9857839724126
 21
207.5709944009679
 31
0.0
  0
LINE
  5
FC
330
70
100
AcDbEntity
  8
shade
 62
     6
420
 16711935
370
    25
100
AcDbLine
 10
340.276133962408
 20
204.5897590328393
 30
0.0
 11
340.4826707325651
 21
207.4959398805921
 31
0.0
  0
LINE
  5
FD
330
70
100
AcDbEntity
  8
shade
 62
     6
420
 16711935
370
    25
100
AcDbLine
 10
340.7410798608155
 20
204.5897590328393
 30
0.0
 11
340.958832816038
 21
207.3886817345822
 31
0.0
  0
LINE
  5
FE
330
70
100
AcDbEntity
  8
shade
 62
     6
420
 16711935
370
    25
100
AcDbLine
 10
341.0919865156947
 20
204.5897590328393
 30
0.0
 11
341.3212619177794
 21
207.2707763193956
 31
0.0
  0
LINE
  5
FF
330
70
100
AcDbEntity
  8
shade
 62
     6
420
 16711935
370
    25
100
AcDbLine
 10
341.3957367923166
 20
204.5897590328393
 30
0.0
 11
341.7353342178892
 21
207.1205800059128
 31
0.0
  0
LINE
  5
100
330
70
100
AcDbEntity
  8
shade
 62
     6
420
 16711935
370
    25
100
AcDbLine
 10
341.5785721554191
 20
204.5897590328393
 30
0.0
 11
342.1286818413437
 21
206.9490018814019
 31
0.0
  0
LINE
  5
101
330
70
100
AcDbEntity
  8
shade
 62
     6
420
 16711935
370
    25
100
AcDbLine
 10
341.9671824068797
 20
204.5897590328393
 30
0.0
 11
342.8430092132061
 21
206.5307911119496
 31
0.0
  0
LINE
  5
102
330
70
100
AcDbEntity
  8
shade
 62
     6
420
 16711935
370
    25
100
AcDbLine
 10
341.7803068513927
 20
204.5897590328393
 30
0.0
 11
342.5221137114278
 21
206.7345728620863
 31
0.0
  0
LINE
  5
103
330
70
100
AcDbEntity
  8
shade
 62
     6
420
 16711935
370
    25
100
AcDbLine
 10
342.8740962282014
 20
206.1769003210502
 30
0.0
 11
341.9702591866439
 21
204.5897590328393
 31
0.0
  0
LINE
  5
104
330
70
100
AcDbEntity
  8
shade
 62
     6
420
 16711935
370
    25
100
AcDbLine
 10
339.1471927872008
 20
202.9684824375082
 30
0.0
 11
339.1471927872008
 21
200.2893968324711
 31
0.0
  0
LINE
  5
105
330
70
100
AcDbEntity
  8
shade
 62
     6
420
 16711935
370
    25
100
AcDbLine
 10
339.1471927872008
 20
199.6459352291518
 30
0.0
 11
339.1471927872008
 21
199.0024736258332
 31
0.0
  0
LINE
  5
106
330
70
100
AcDbEntity
  8
shade
 62
     6
420
 16711935
370
    25
100
AcDbLine
 10
339.1471927872008
 20
198.3590120225145
 30
0.0
 11
339.1471927872008
 21
163.6988345054692
 31
0.0
  0
LINE
  5
107
330
70
100
AcDbEntity
  8
shade
 62
     6
420
 16711935
370
    25
100
AcDbLine
 10
339.4112974345752
 20
207.6194709716618
 30
0.0
 11
339.4112974513126
 21
227.9283360190158
 31
0.0
  0
LINE
  5
108
330
70
100
AcDbEntity
  8
shade
 62
     6
420
 16711935
370
    25
100
AcDbLine
 10
339.1471927872008
 20
204.5897590328393
 30
0.0
 11
342.2773154916641
 21
204.5897590328393
 31
0.0
  0
LINE
  5
109
330
70
100
AcDbEntity
  8
shade
 62
     6
420
 16711935
370
    25
100
AcDbLine
 10
339.1471927872008
 20
202.9684824375082
 30
0.0
 11
342.2773154916641
 21
202.9684824375082
 31
0.0
  0
LINE
  5
10A
330
70
100
AcDbEntity
  8
shade
 62
     6
420
 16711935
370
    25
100
AcDbLine
 10
342.2773154916641
 20
204.5897590328393
 30
0.0
 11
342.2773154916641
 21
202.9684824375082
 31
0.0
  0
ENDSEC
  0
SECTION
  2
OBJECTS
  0
DICTIONARY
  5
C
330
0
100
AcDbDictionary
281
     1
  3
ACAD_COLOR
350
63
  3
ACAD_DETAILVIEWSTYLE
350
6A
  3
ACAD_GROUP
350
D
  3
ACAD_LAYOUT
350
62
  3
ACAD_MATERIAL
350
10
  3
ACAD_MLEADERSTYLE
350
66
  3
ACAD_MLINESTYLE
350
5F
  3
ACAD_PLOTSETTINGS
350
61
  3
ACAD_PLOTSTYLENAME
350
E
  3
ACAD_SCALELIST
350
42
  3
ACAD_SECTIONVIEWSTYLE
350
68
  3
ACAD_TABLESTYLE
350
64
  3
ACAD_VISUALSTYLE
350
29
  3
ACDB_RECOMPOSE_DATA
350
113
  3
AcDbVariableDictionary
350
10B
  0
DICTIONARY
  5
63
102
{ACAD_REACTORS
330
C
102
}
330
C
100
AcDbDictionary
281
     1
  0
DICTIONARY
  5
6A
102
{ACAD_REACTORS
330
C
102
}
330
C
100
AcDbDictionary
281
     1
  3
Imperial24
350
6B
  0
DICTIONARY
  5
D
102
{ACAD_REACTORS
330
C
102
}
330
C
100
AcDbDictionary
281
     1
  0
DICTIONARY
  5
62
102
{ACAD_REACTORS
330
C
102
}
330
C
100
AcDbDictionary
281
     1
  3
Layout1
350
6F
  3
Layout2
350
77
  3
Model
350
73
  0
DICTIONARY
  5
10
102
{ACAD_REACTORS
330
C
102
}
330
C
100
AcDbDictionary
281
     1
  3
ByBlock
350
19
  3
ByLayer
350
11
  3
Global
350
21
  0
DICTIONARY
  5
66
102
{ACAD_REACTORS
330
C
102
}
330
C
100
AcDbDictionary
281
     1
  3
Standard
350
67
  0
DICTIONARY
  5
5F
102
{ACAD_REACTORS
330
C
102
}
330
C
100
AcDbDictionary
281
     1
  3
Standard
350
60
  0
DICTIONARY
  5
61
102
{ACAD_REACTORS
330
C
102
}
330
C
100
AcDbDictionary
281
     1
  0
ACDBDICTIONARYWDFLT
  5
E
102
{ACAD_REACTORS
330
C
102
}
330
C
100
AcDbDictionary
281
     1
  3
Normal
350
F
100
AcDbDictionaryWithDefault
340
F
  0
DICTIONARY
  5
42
102
{ACAD_REACTORS
330
C
102
}
330
C
100
AcDbDictionary
281
     1
  3
A0
350
43
  3
A1
350
44
  3
A2
350
45
  3
A3
350
46
  3
A4
350
47
  3
A5
350
48
  3
A6
350
49
  3
A7
350
4A
  3
A8
350
4B
  3
A9
350
4C
  3
B0
350
4D
  3
B1
350
4E
  3
B2
350
4F
  3
B3
350
50
  3
B4
350
51
  3
B5
350
52
  3
B6
350
53
  0
DICTIONARY
  5
68
102
{ACAD_REACTORS
330
C
102
}
330
C
100
AcDbDictionary
281
     1
  3
Imperial24
350
69
  0
DICTIONARY
  5
64
102
{ACAD_REACTORS
330
C
102
}
330
C
100
AcDbDictionary
281
     1
  3
Standard
350
65
  0
DICTIONARY
  5
29
102
{ACAD_REACTORS
330
C
102
}
330
C
100
AcDbDictionary
281
     1
  3
2dWireframe
350
2F
  3
Basic
350
2E
  3
Brighten
350
35
  3
ColorChange
350
39
  3
Conceptual
350
32
  3
Dim
350
34
  3
EdgeColorOff
350
41
  3
Facepattern
350
38
  3
Flat
350
2A
  3
FlatWithEdges
350
2B
  3
Gouraud
350
2C
  3
GouraudWithEdges
350
2D
  3
Hidden
350
31
  3
JitterOff
350
3F
  3
Linepattern
350
37
  3
OverhangOff
350
40
  3
Realistic
350
33
  3
Shaded
350
3E
  3
Shaded with edges
350
3D
  3
Shades of Gray
350
3A
  3
Sketchy
350
3B
  3
Thicken
350
36
  3
Wireframe
350
30
  3
X-Ray
350
3C
  0
XRECORD
  5
113
102
{ACAD_REACTORS
330
C
102
}
330
C
100
AcDbXrecord
280
     1
 90
        1
330
65
  0
DICTIONARY
  5
10B
102
{ACAD_REACTORS
330
C
102
}
330
C
100
AcDbDictionary
281
     1
  3
CANNOSCALE
350
110
  3
CMLEADERSTYLE
350
10D
  3
CTABLESTYLE
350
10C
  3
CVIEWDETAILSTYLE
350
10E
  3
CVIEWSECTIONSTYLE
350
10F
  0
ACDBDETAILVIEWSTYLE
  5
6B
102
{ACAD_REACTORS
330
6A
102
}
330
6A
100
AcDbModelDocViewStyle
 70
     0
  3
Imperial24
290
     1
300
Imperial24
 90
        0
100
AcDbDetailViewStyle
 70
     0
 71
     0
 90
        3
 71
     1
340
55
 62
   256
 40
0.24
340
0
 62
   256
 40
0.24
300

 40
0.36
280
     3
 71
     2
340
5D
 90
       25
 62
   256
 71
     3
340
55
 62
   256
 40
0.24
 90
        1
 40
0.75
 90
        1
300
%<\AcVar ViewType \f "%tc1">% %<\AcVar ViewDetailId>%\PSCALE %<\AcVar ViewScale \f "%sn">%
 71
     4
340
5D
 90
       25
 62
   256
340
5D
 90
       25
 62
   256
280
     0
  0
LAYOUT
  5
6F
102
{ACAD_REACTORS
330
62
102
}
330
62
100
AcDbPlotSettings
  1

  2

  4

  6

 40
0.0
 41
0.0
 42
0.0
 43
0.0
 44
0.0
 45
0.0
 46
0.0
 47
0.0
 48
0.0
 49
0.0
140
0.0
141
0.0
142
1.0
143
1.0
 70
   688
 72
     0
 73
     0
 74
     5
  7

 75
    16
147
1.0
 76
     0
 77
     2
 78
   300
148
0.0
149
0.0
100
AcDbLayout
  1
Layout1
 70
     1
 71
     1
 10
0.0
 20
0.0
 11
12.0
 21
9.0
 12
0.0
 22
0.0
 32
0.0
 14
0.0
 24
0.0
 34
0.0
 15
0.0
 25
0.0
 35
0.0
146
0.0
 13
0.0
 23
0.0
 33
0.0
 16
1.0
 26
0.0
 36
0.0
 17
0.0
 27
1.0
 37
0.0
 76
     0
330
6C
  0
LAYOUT
  5
77
102
{ACAD_REACTORS
330
62
102
}
330
62
100
AcDbPlotSettings
  1

  2

  4

  6

 40
0.0
 41
0.0
 42
0.0
 43
0.0
 44
0.0
 45
0.0
 46
0.0
 47
0.0
 48
0.0
 49
0.0
140
0.0
141
0.0
142
1.0
143
1.0
 70
   688
 72
     0
 73
     0
 74
     5
  7

 75
    16
147
1.0
 76
     0
 77
     2
 78
   300
148
0.0
149
0.0
100
AcDbLayout
  1
Layout2
 70
     1
 71
     2
 10
0.0
 20
0.0
 11
12.0
 21
9.0
 12
0.0
 22
0.0
 32
0.0
 14
0.0
 24
0.0
 34
0.0
 15
0.0
 25
0.0
 35
0.0
146
0.0
 13
0.0
 23
0.0
 33
0.0
 16
1.0
 26
0.0
 36
0.0
 17
0.0
 27
1.0
 37
0.0
 76
     0
330
74
  0
LAYOUT
  5
73
102
{ACAD_REACTORS
330
62
102
}
330
62
100
AcDbPlotSettings
  1

  2

  4

  6

 40
0.0
 41
0.0
 42
0.0
 43
0.0
 44
0.0
 45
0.0
 46
0.0
 47
0.0
 48
0.0
 49
0.0
140
0.0
141
0.0
142
1.0
143
1.0
 70
  1712
 72
     0
 73
     0
 74
     0
  7

 75
     0
147
1.0
 76
     0
 77
     2
 78
   300
148
0.0
149
0.0
100
AcDbLayout
  1
Model
 70
     1
 71
     0
 10
0.0
 20
0.0
 11
12.0
 21
9.0
 12
0.0
 22
0.0
 32
0.0
 14
0.0
 24
0.0
 34
0.0
 15
0.0
 25
0.0
 35
0.0
146
0.0
 13
0.0
 23
0.0
 33
0.0
 16
1.0
 26
0.0
 36
0.0
 17
0.0
 27
1.0
 37
0.0
 76
     0
330
70
  0
MATERIAL
  5
19
102
{ACAD_XDICTIONARY
360
1A
102
}
102
{ACAD_REACTORS
330
10
102
}
330
10
100
AcDbMaterial
  1
ByBlock
 72
     0
 43
0.0208333333333333
 43
0.0
 43
0.0
 43
0.0
 43
0.0
 43
0.0208333333333333
 43
0.0
 43
0.0
 43
0.0
 43
0.0
 43
1.0
 43
0.0
 43
0.0
 43
0.0
 43
0.0
 43
1.0
 77
     0
 47
0.0208333333333333
 47
0.0
 47
0.0
 47
0.0
 47
0.0
 47
0.0208333333333333
 47
0.0
 47
0.0
 47
0.0
 47
0.0
 47
1.0
 47
0.0
 47
0.0
 47
0.0
 47
0.0
 47
1.0
171
     0
 49
0.0208333333333333
 49
0.0
 49
0.0
 49
0.0
 49
0.0
 49
0.0208333333333333
 49
0.0
 49
0.0
 49
0.0
 49
0.0
 49
1.0
 49
0.0
 49
0.0
 49
0.0
 49
0.0
 49
1.0
175
     0
142
0.0208333333333333
142
0.0
142
0.0
142
0.0
142
0.0
142
0.0208333333333333
142
0.0
142
0.0
142
0.0
142
0.0
142
1.0
142
0.0
142
0.0
142
0.0
142
0.0
142
1.0
179
     0
144
0.0208333333333333
144
0.0
144
0.0
144
0.0
144
0.0
144
0.0208333333333333
144
0.0
144
0.0
144
0.0
144
0.0
144
1.0
144
0.0
144
0.0
144
0.0
144
0.0
144
1.0
147
0.0208333333333333
147
0.0
147
0.0
147
0.0
147
0.0
147
0.0208333333333333
147
0.0
147
0.0
147
0.0
147
0.0
147
1.0
147
0.0
147
0.0
147
0.0
147
0.0
147
1.0
  0
MATERIAL
  5
11
102
{ACAD_XDICTIONARY
360
12
102
}
102
{ACAD_REACTORS
330
10
102
}
330
10
100
AcDbMaterial
  1
ByLayer
 72
     0
 43
0.0208333333333333
 43
0.0
 43
0.0
 43
0.0
 43
0.0
 43
0.0208333333333333
 43
0.0
 43
0.0
 43
0.0
 43
0.0
 43
1.0
 43
0.0
 43
0.0
 43
0.0
 43
0.0
 43
1.0
 77
     0
 47
0.0208333333333333
 47
0.0
 47
0.0
 47
0.0
 47
0.0
 47
0.0208333333333333
 47
0.0
 47
0.0
 47
0.0
 47
0.0
 47
1.0
 47
0.0
 47
0.0
 47
0.0
 47
0.0
 47
1.0
171
     0
 49
0.0208333333333333
 49
0.0
 49
0.0
 49
0.0
 49
0.0
 49
0.0208333333333333
 49
0.0
 49
0.0
 49
0.0
 49
0.0
 49
1.0
 49
0.0
 49
0.0
 49
0.0
 49
0.0
 49
1.0
175
     0
142
0.0208333333333333
142
0.0
142
0.0
142
0.0
142
0.0
142
0.0208333333333333
142
0.0
142
0.0
142
0.0
142
0.0
142
1.0
142
0.0
142
0.0
142
0.0
142
0.0
142
1.0
179
     0
144
0.0208333333333333
144
0.0
144
0.0
144
0.0
144
0.0
144
0.0208333333333333
144
0.0
144
0.0
144
0.0
144
0.0
144
1.0
144
0.0
144
0.0
144
0.0
144
0.0
144
1.0
147
0.0208333333333333
147
0.0
147
0.0
147
0.0
147
0.0
147
0.0208333333333333
147
0.0
147
0.0
147
0.0
147
0.0
147
1.0
147
0.0
147
0.0
147
0.0
147
0.0
147
1.0
  0
MATERIAL
  5
21
102
{ACAD_XDICTIONARY
360
22
102
}
102
{ACAD_REACTORS
330
10
102
}
330
10
100
AcDbMaterial
  1
Global
 72
     0
 43
0.0208333333333333
 43
0.0
 43
0.0
 43
0.0
 43
0.0
 43
0.0208333333333333
 43
0.0
 43
0.0
 43
0.0
 43
0.0
 43
1.0
 43
0.0
 43
0.0
 43
0.0
 43
0.0
 43
1.0
 77
     0
 47
0.0208333333333333
 47
0.0
 47
0.0
 47
0.0
 47
0.0
 47
0.0208333333333333
 47
0.0
 47
0.0
 47
0.0
 47
0.0
 47
1.0
 47
0.0
 47
0.0
 47
0.0
 47
0.0
 47
1.0
171
     0
 49
0.0208333333333333
 49
0.0
 49
0.0
 49
0.0
 49
0.0
 49
0.0208333333333333
 49
0.0
 49
0.0
 49
0.0
 49
0.0
 49
1.0
 49
0.0
 49
0.0
 49
0.0
 49
0.0
 49
1.0
175
     0
142
0.0208333333333333
142
0.0
142
0.0
142
0.0
142
0.0
142
0.0208333333333333
142
0.0
142
0.0
142
0.0
142
0.0
142
1.0
142
0.0
142
0.0
142
0.0
142
0.0
142
1.0
179
     0
144
0.0208333333333333
144
0.0
144
0.0
144
0.0
144
0.0
144
0.0208333333333333
144
0.0
144
0.0
144
0.0
144
0.0
144
1.0
144
0.0
144
0.0
144
0.0
144
0.0
144
1.0
147
0.0208333333333333
147
0.0
147
0.0
147
0.0
147
0.0
147
0.0208333333333333
147
0.0
147
0.0
147
0.0
147
0.0
147
1.0
147
0.0
147
0.0
147
0.0
147
0.0
147
1.0
  0
MLEADERSTYLE
  5
67
102
{ACAD_REACTORS
330
66
102
}
330
66
100
AcDbMLeaderStyle
179
     2
170
     2
171
     1
172
     0
 90
        2
 40
0.0
 41
0.0
173
     1
 91
-1056964608
340
5B
 92
       -2
290
     1
 42
0.09
291
     1
 43
0.36
  3
Standard
 44
0.18
300

342
55
174
     1
178
     6
175
     1
176
     0
 93
-1056964608
 45
0.18
292
     0
297
     0
 46
0.18
 94
-1056964608
 47
1.0
 49
1.0
140
1.0
293
     1
141
0.0
294
     1
177
     0
142
1.0
295
     1
296
     0
143
0.125
271
     0
272
     9
273
     9
298
     1
  0
MLINESTYLE
  5
60
102
{ACAD_REACTORS
330
5F
102
}
330
5F
100
AcDbMlineStyle
  2
STANDARD
 70
     0
  3

 62
   256
 51
90.0
 52
90.0
 71
     2
 49
0.5
 62
   256
  6
BYLAYER
 49
-0.5
 62
   256
  6
BYLAYER
  0
ACDBPLACEHOLDER
  5
F
102
{ACAD_REACTORS
330
E
102
}
330
E
  0
SCALE
  5
43
102
{ACAD_REACTORS
330
42
102
}
330
42
100
AcDbScale
 70
     0
300
1:1
140
1.0
141
1.0
290
     1
  0
SCALE
  5
44
102
{ACAD_REACTORS
330
42
102
}
330
42
100
AcDbScale
 70
     0
300
1/128" = 1'-0"
140
0.0078125
141
12.0
290
     0
  0
SCALE
  5
45
102
{ACAD_REACTORS
330
42
102
}
330
42
100
AcDbScale
 70
     0
300
1/64" = 1'-0"
140
0.015625
141
12.0
290
     0
  0
SCALE
  5
46
102
{ACAD_REACTORS
330
42
102
}
330
42
100
AcDbScale
 70
     0
300
1/32" = 1'-0"
140
0.03125
141
12.0
290
     0
  0
SCALE
  5
47
102
{ACAD_REACTORS
330
42
102
}
330
42
100
AcDbScale
 70
     0
300
1/16" = 1'-0"
140
0.0625
141
12.0
290
     0
  0
SCALE
  5
48
102
{ACAD_REACTORS
330
42
102
}
330
42
100
AcDbScale
 70
     0
300
3/32" = 1'-0"
140
0.09375
141
12.0
290
     0
  0
SCALE
  5
49
102
{ACAD_REACTORS
330
42
102
}
330
42
100
AcDbScale
 70
     0
300
1/8" = 1'-0"
140
0.125
141
12.0
290
     0
  0
SCALE
  5
4A
102
{ACAD_REACTORS
330
42
102
}
330
42
100
AcDbScale
 70
     0
300
3/16" = 1'-0"
140
0.1875
141
12.0
290
     0
  0
SCALE
  5
4B
102
{ACAD_REACTORS
330
42
102
}
330
42
100
AcDbScale
 70
     0
300
1/4" = 1'-0"
140
0.25
141
12.0
290
     0
  0
SCALE
  5
4C
102
{ACAD_REACTORS
330
42
102
}
330
42
100
AcDbScale
 70
     0
300
3/8" = 1'-0"
140
0.375
141
12.0
290
     0
  0
SCALE
  5
4D
102
{ACAD_REACTORS
330
42
102
}
330
42
100
AcDbScale
 70
     0
300
1/2" = 1'-0"
140
0.5
141
12.0
290
     0
  0
SCALE
  5
4E
102
{ACAD_REACTORS
330
42
102
}
330
42
100
AcDbScale
 70
     0
300
3/4" = 1'-0"
140
0.75
141
12.0
290
     0
  0
SCALE
  5
4F
102
{ACAD_REACTORS
330
42
102
}
330
42
100
AcDbScale
 70
     0
300
1" = 1'-0"
140
1.0
141
12.0
290
     0
  0
SCALE
  5
50
102
{ACAD_REACTORS
330
42
102
}
330
42
100
AcDbScale
 70
     0
300
1-1/2" = 1'-0"
140
1.5
141
12.0
290
     0
  0
SCALE
  5
51
102
{ACAD_REACTORS
330
42
102
}
330
42
100
AcDbScale
 70
     0
300
3" = 1'-0"
140
3.0
141
12.0
290
     0
  0
SCALE
  5
52
102
{ACAD_REACTORS
330
42
102
}
330
42
100
AcDbScale
 70
     0
300
6" = 1'-0"
140
6.0
141
12.0
290
     0
  0
SCALE
  5
53
102
{ACAD_REACTORS
330
42
102
}
330
42
100
AcDbScale
 70
     0
300
1'-0" = 1'-0"
140
12.0
141
12.0
290
     0
  0
ACDBSECTIONVIEWSTYLE
  5
69
102
{ACAD_REACTORS
330
68
102
}
330
68
100
AcDbModelDocViewStyle
 70
     0
  3
Imperial24
290
     1
300
Imperial24
 90
        0
100
AcDbSectionViewStyle
 70
     0
 71
     0
 90
       78
 71
     1
340
55
 62
   256
 40
0.24
340
0
340
0
 62
   256
 40
0.24
300
I, O, Q, S, X, Z
 40
0.48
 90
        3
 40
0.18
 90
        1
 71
     2
340
5D
 90
       25
 62
   256
340
5D
 90
       50
 62
   256
 40
0.24
 40
0.0
 40
0.24
 71
     3
340
55
 62
   256
 40
0.24
 90
        1
 40
0.75
 90
        1
300
%<\AcVar ViewType \f "%tc1">% %<\AcVar ViewSectionStartId>%-%<\AcVar ViewSectionEndId>%\PSCALE %<\AcVar ViewScale \f "%sn">%
 71
     4
 62
   256
 62
   257
300
ANSI31
 40
1.0
 90
        0
290
     0
290
     0
 90
        6
 40
0.0
 40
1.570796326794896
 40
0.2617993877991494
 40
1.308996938995747
 40
-0.2617993877991494
 40
1.832595714594046
  0
TABLESTYLE
  5
65
102
{ACAD_XDICTIONARY
360
111
102
}
102
{ACAD_REACTORS
330
64
102
}
330
64
100
AcDbTableStyle
280
     0
  3
Standard
 70
     0
 71
     0
 40
0.06
 41
0.06
280
     0
281
     0
  7
Standard
140
0.18
170
     2
 62
     0
 63
     7
283
     0
 90
      512
 91
        0
  1

274
    -2
284
     1
 64
     0
275
    -2
285
     1
 65
     0
276
    -2
286
     1
 66
     0
277
    -2
287
     1
 67
     0
278
    -2
288
     1
 68
     0
279
    -2
289
     1
 69
     0
  7
Standard
140
0.25
170
     5
 62
     0
 63
     7
283
     0
 90
      512
 91
        0
  1

274
    -2
284
     1
 64
     0
275
    -2
285
     1
 65
     0
276
    -2
286
     1
 66
     0
277
    -2
287
     1
 67
     0
278
    -2
288
     1
 68
     0
279
    -2
289
     1
 69
     0
  7
Standard
140
0.18
170
     5
 62
     0
 63
     7
283
     0
 90
      512
 91
        0
  1

274
    -2
284
     1
 64
     0
275
    -2
285
     1
 65
     0
276
    -2
286
     1
 66
     0
277
    -2
287
     1
 67
     0
278
    -2
288
     1
 68
     0
279
    -2
289
     1
 69
     0
  0
VISUALSTYLE
  5
2F
102
{ACAD_REACTORS
330
29
102
}
330
29
100
AcDbVisualStyle
  2
2dWireframe
 70
     4
177
     3
291
     0
 70
    58
 90
        0
176
     1
 90
        2
176
     1
 90
        0
176
     1
 90
        0
176
     1
 40
0.6
176
     1
 40
30.0
176
     1
 62
     7
420
 16777215
176
     1
 90
        1
176
     1
 90
        4
176
     1
 62
     7
176
     1
 62
   257
176
     1
 90
        1
176
     1
 90
        1
176
     1
 40
1.0
176
     1
 90
        0
176
     1
 62
   257
176
     1
 40
1.0
176
     1
 90
        1
176
     1
 90
        6
176
     1
 90
        2
176
     1
 62
     7
176
     1
 90
        5
176
     1
 90
        0
176
     1
 90
        0
176
     1
290
     0
176
     1
 90
        1
176
     1
 40
0.0
176
     1
 90
        0
176
     1
290
     1
176
     1
290
     1
176
     1
290
     0
176
     1
290
     0
176
     1
290
     0
176
     1
290
     0
176
     1
290
     0
176
     1
290
     0
176
     1
290
     0
176
     1
 90
       50
176
     1
 40
0.0
176
     1
 40
1.0
176
     1
 90
        0
176
     1
 62
    18
420
        0
176
     1
 90
       50
176
     1
 90
        3
176
     1
 62
     5
420
      255
176
     1
290
     0
176
     1
 90
       50
176
     1
 90
       50
176
     1
 90
       50
176
     1
290
     0
176
     1
 90
       50
176
     1
 62
   256
176
     0
 40
1.0
176
     0
 90
        2
176
     1
  1
strokes_ogs.tif
176
     1
290
     0
176
     1
 40
1.0
176
     1
 40
1.0
176
     1
  0
VISUALSTYLE
  5
2E
102
{ACAD_REACTORS
330
29
102
}
330
29
100
AcDbVisualStyle
  2
Basic
 70
     7
177
     3
291
     1
 70
    58
 90
        1
176
     1
 90
        0
176
     1
 90
        1
176
     1
 90
        0
176
     1
 40
0.6
176
     1
 40
30.0
176
     1
 62
     7
420
 16777215
176
     1
 90
        0
176
     1
 90
        4
176
     1
 62
     7
176
     1
 62
   257
176
     1
 90
        1
176
     1
 90
        1
176
     1
 40
1.0
176
     1
 90
        8
176
     1
 62
     7
176
     1
 40
1.0
176
     1
 90
        1
176
     1
 90
        6
176
     1
 90
        2
176
     1
 62
     7
176
     1
 90
        5
176
     1
 90
        0
176
     1
 90
        0
176
     1
290
     0
176
     1
 90
        1
176
     1
 40
0.0
176
     1
 90
        0
176
     1
290
     0
176
     1
290
     1
176
     1
290
     1
176
     1
290
     0
176
     1
290
     0
176
     1
290
     0
176
     1
290
     0
176
     1
290
     0
176
     1
290
     0
176
     1
 90
       50
176
     1
 40
0.0
176
     1
 40
1.0
176
     1
 90
        0
176
     1
 62
    18
420
        0
176
     1
 90
       50
176
     1
 90
        3
176
     1
 62
     5
420
      255
176
     1
290
     0
176
     1
 90
       50
176
     1
 90
       50
176
     1
 90
       50
176
     1
290
     0
176
     1
 90
       50
176
     1
 62
   256
176
     0
 40
1.0
176
     0
 90
        2
176
     1
  1
strokes_ogs.tif
176
     1
290
     0
176
     1
 40
1.0
176
     1
 40
1.0
176
     1
  0
VISUALSTYLE
  5
35
102
{ACAD_REACTORS
330
29
102
}
330
29
100
AcDbVisualStyle
  2
Brighten
 70
    12
177
     3
291
     1
 70
    58
 90
        2
176
     1
 90
        2
176
     1
 90
        0
176
     1
 90
        0
176
     1
 40
0.6
176
     1
 40
30.0
176
     1
 62
     7
420
 16777215
176
     1
 90
        1
176
     1
 90
        4
176
     1
 62
     7
176
     1
 62
   257
176
     1
 90
        1
176
     1
 90
        1
176
     1
 40
1.0
176
     1
 90
        8
176
     1
 62
     7
176
     1
 40
1.0
176
     1
 90
        1
176
     1
 90
        6
176
     1
 90
        2
176
     1
 62
     7
176
     1
 90
        5
176
     1
 90
        0
176
     1
 90
        0
176
     1
290
     0
176
     1
 90
        1
176
     1
 40
50.0
176
     1
 90
        0
176
     1
290
     0
176
     1
290
     1
176
     1
290
     1
176
     1
290
     0
176
     1
290
     0
176
     1
290
     0
176
     1
290
     0
176
     1
290
     0
176
     1
290
     0
176
     1
 90
       50
176
     1
 40
0.0
176
     1
 40
1.0
176
     1
 90
        0
176
     1
 62
    18
420
        0
176
     1
 90
       50
176
     1
 90
        3
176
     1
 62
     5
420
      255
176
     1
290
     0
176
     1
 90
       50
176
     1
 90
       50
176
     1
 90
       50
176
     1
290
     0
176
     1
 90
       50
176
     1
 62
   256
176
     0
 40
1.0
176
     0
 90
        2
176
     1
  1
strokes_ogs.tif
176
     1
290
     0
176
     1
 40
1.0
176
     1
 40
1.0
176
     1
  0
VISUALSTYLE
  5
39
102
{ACAD_REACTORS
330
29
102
}
330
29
100
AcDbVisualStyle
  2
ColorChange
 70
    16
177
     3
291
     1
 70
    58
 90
        2
176
     1
 90
        2
176
     1
 90
        3
176
     1
 90
        0
176
     1
 40
0.6
176
     1
 40
30.0
176
     1
 62
     8
420
  8421504
176
     1
 90
        1
176
     1
 90
        4
176
     1
 62
     7
176
     1
 62
   257
176
     1
 90
        1
176
     1
 90
        1
176
     1
 40
1.0
176
     1
 90
        8
176
     1
 62
     8
420
  8421504
176
     1
 40
1.0
176
     1
 90
        1
176
     1
 90
        6
176
     1
 90
        2
176
     1
 62
     7
176
     1
 90
        5
176
     1
 90
        0
176
     1
 90
        0
176
     1
290
     0
176
     1
 90
        1
176
     1
 40
0.0
176
     1
 90
        0
176
     1
290
     0
176
     1
290
     1
176
     1
290
     1
176
     1
290
     0
176
     1
290
     0
176
     1
290
     0
176
     1
290
     0
176
     1
290
     0
176
     1
290
     0
176
     1
 90
       50
176
     1
 40
0.0
176
     1
 40
1.0
176
     1
 90
        0
176
     1
 62
    18
420
        0
176
     1
 90
       50
176
     1
 90
        3
176
     1
 62
     5
420
      255
176
     1
290
     0
176
     1
 90
       50
176
     1
 90
       50
176
     1
 90
       50
176
     1
290
     0
176
     1
 90
       50
176
     1
 62
   256
176
     0
 40
1.0
176
     0
 90
        2
176
     1
  1
strokes_ogs.tif
176
     1
290
     0
176
     1
 40
1.0
176
     1
 40
1.0
176
     1
  0
VISUALSTYLE
  5
32
102
{ACAD_REACTORS
330
29
102
}
330
29
100
AcDbVisualStyle
  2
Conceptual
 70
     9
177
     3
291
     0
 70
    58
 90
        3
176
     1
 90
        2
176
     1
 90
        0
176
     1
 90
        0
176
     1
 40
0.6
176
     1
 40
30.0
176
     1
 62
     7
420
 16777215
176
     1
 90
        2
176
     1
 90
        2
176
     1
 62
     7
176
     1
 62
   257
176
     1
 90
        1
176
     1
 90
        1
176
     1
 40
179.0
176
     1
 90
        8
176
     1
 62
     7
176
     1
 40
1.0
176
     1
 90
        1
176
     1
 90
        6
176
     1
 90
        2
176
     1
 62
     7
176
     1
 90
        3
176
     1
 90
        0
176
     1
 90
        0
176
     1
290
     0
176
     1
 90
        1
176
     1
 40
0.0
176
     1
 90
        0
176
     1
290
     0
176
     1
290
     1
176
     1
290
     1
176
     1
290
     0
176
     1
290
     0
176
     1
290
     0
176
     1
290
     0
176
     1
290
     0
176
     1
290
     0
176
     1
 90
       50
176
     1
 40
0.0
176
     1
 40
1.0
176
     1
 90
        0
176
     1
 62
    18
420
        0
176
     1
 90
       50
176
     1
 90
        3
176
     1
 62
     5
420
      255
176
     1
290
     0
176
     1
 90
       50
176
     1
 90
       50
176
     1
 90
       50
176
     1
290
     0
176
     1
 90
       50
176
     1
 62
   256
176
     0
 40
1.0
176
     0
 90
        2
176
     1
  1
strokes_ogs.tif
176
     1
290
     0
176
     1
 40
1.0
176
     1
 40
1.0
176
     1
  0
VISUALSTYLE
  5
34
102
{ACAD_REACTORS
330
29
102
}
330
29
100
AcDbVisualStyle
  2
Dim
 70
    11
177
     3
291
     1
 70
    58
 90
        2
176
     1
 90
        2
176
     1
 90
        0
176
     1
 90
        0
176
     1
 40
0.6
176
     1
 40
30.0
176
     1
 62
     7
420
 16777215
176
     1
 90
        1
176
     1
 90
        4
176
     1
 62
     7
176
     1
 62
   257
176
     1
 90
        1
176
     1
 90
        1
176
     1
 40
1.0
176
     1
 90
        8
176
     1
 62
     7
176
     1
 40
1.0
176
     1
 90
        1
176
     1
 90
        6
176
     1
 90
        2
176
     1
 62
     7
176
     1
 90
        5
176
     1
 90
        0
176
     1
 90
        0
176
     1
290
     0
176
     1
 90
        1
176
     1
 40
-50.0
176
     1
 90
        0
176
     1
290
     0
176
     1
290
     1
176
     1
290
     1
176
     1
290
     0
176
     1
290
     0
176
     1
290
     0
176
     1
290
     0
176
     1
290
     0
176
     1
290
     0
176
     1
 90
       50
176
     1
 40
0.0
176
     1
 40
1.0
176
     1
 90
        0
176
     1
 62
    18
420
        0
176
     1
 90
       50
176
     1
 90
        3
176
     1
 62
     5
420
      255
176
     1
290
     0
176
     1
 90
       50
176
     1
 90
       50
176
     1
 90
       50
176
     1
290
     0
176
     1
 90
       50
176
     1
 62
   256
176
     0
 40
1.0
176
     0
 90
        2
176
     1
  1
strokes_ogs.tif
176
     1
290
     0
176
     1
 40
1.0
176
     1
 40
1.0
176
     1
  0
VISUALSTYLE
  5
41
102
{ACAD_REACTORS
330
29
102
}
330
29
100
AcDbVisualStyle
  2
EdgeColorOff
 70
    22
177
     3
291
     1
 70
    58
 90
        2
176
     0
 90
        2
176
     0
 90
        0
176
     0
 90
        0
176
     0
 40
0.6
176
     0
 40
30.0
176
     0
 62
     7
420
 16777215
176
     0
 90
        1
176
     0
 90
        4
176
     0
 62
     7
176
     0
 62
   257
176
     0
 90
        1
176
     0
 90
        1
176
     0
 40
1.0
176
     0
 90
        8
176
     2
 62
     7
176
     0
 40
1.0
176
     0
 90
        1
176
     0
 90
        6
176
     0
 90
        2
176
     0
 62
     7
176
     0
 90
        5
176
     0
 90
        0
176
     0
 90
        0
176
     0
290
     0
176
     0
 90
        1
176
     0
 40
0.0
176
     0
 90
        0
176
     0
290
     0
176
     0
290
     1
176
     0
290
     1
176
     0
290
     0
176
     0
290
     0
176
     0
290
     0
176
     0
290
     0
176
     0
290
     0
176
     0
290
     0
176
     0
 90
       50
176
     0
 40
0.0
176
     0
 40
1.0
176
     0
 90
        0
176
     0
 62
    18
420
        0
176
     0
 90
       50
176
     0
 90
        3
176
     0
 62
     5
420
      255
176
     0
290
     0
176
     0
 90
       50
176
     0
 90
       50
176
     0
 90
       50
176
     0
290
     0
176
     0
 90
       50
176
     0
 62
   256
176
     0
 40
1.0
176
     0
 90
        2
176
     0
  1
strokes_ogs.tif
176
     0
290
     0
176
     0
 40
1.0
176
     0
 40
1.0
176
     0
  0
VISUALSTYLE
  5
38
102
{ACAD_REACTORS
330
29
102
}
330
29
100
AcDbVisualStyle
  2
Facepattern
 70
    15
177
     3
291
     1
 70
    58
 90
        2
176
     1
 90
        2
176
     1
 90
        0
176
     1
 90
        0
176
     1
 40
0.6
176
     1
 40
30.0
176
     1
 62
     7
420
 16777215
176
     1
 90
        1
176
     1
 90
        4
176
     1
 62
     7
176
     1
 62
   257
176
     1
 90
        1
176
     1
 90
        1
176
     1
 40
1.0
176
     1
 90
        8
176
     1
 62
     7
176
     1
 40
1.0
176
     1
 90
        1
176
     1
 90
        6
176
     1
 90
        2
176
     1
 62
     7
176
     1
 90
        5
176
     1
 90
        0
176
     1
 90
        0
176
     1
290
     0
176
     1
 90
        1
176
     1
 40
0.0
176
     1
 90
        0
176
     1
290
     0
176
     1
290
     1
176
     1
290
     1
176
     1
290
     0
176
     1
290
     0
176
     1
290
     0
176
     1
290
     0
176
     1
290
     0
176
     1
290
     0
176
     1
 90
       50
176
     1
 40
0.0
176
     1
 40
1.0
176
     1
 90
        0
176
     1
 62
    18
420
        0
176
     1
 90
       50
176
     1
 90
        3
176
     1
 62
     5
420
      255
176
     1
290
     0
176
     1
 90
       50
176
     1
 90
       50
176
     1
 90
       50
176
     1
290
     0
176
     1
 90
       50
176
     1
 62
   256
176
     0
 40
1.0
176
     0
 90
        2
176
     1
  1
strokes_ogs.tif
176
     1
290
     0
176
     1
 40
1.0
176
     1
 40
1.0
176
     1
  0
VISUALSTYLE
  5
2A
102
{ACAD_REACTORS
330
29
102
}
330
29
100
AcDbVisualStyle
  2
Flat
 70
     0
177
     3
291
     1
 70
    58
 90
        2
176
     1
 90
        1
176
     1
 90
        1
176
     1
 90
        2
176
     1
 40
0.6
176
     1
 40
30.0
176
     1
 62
     7
420
 16777215
176
     1
 90
        0
176
     1
 90
        0
176
     1
 62
     7
176
     1
 62
   257
176
     1
 90
        1
176
     1
 90
        1
176
     1
 40
1.0
176
     1
 90
        8
176
     1
 62
     7
176
     1
 40
1.0
176
     1
 90
        1
176
     1
 90
        6
176
     1
 90
        2
176
     1
 62
     7
176
     1
 90
        5
176
     1
 90
        0
176
     1
 90
        0
176
     1
290
     0
176
     1
 90
       13
176
     1
 40
0.0
176
     1
 90
        0
176
     1
290
     0
176
     1
290
     1
176
     1
290
     1
176
     1
290
     0
176
     1
290
     0
176
     1
290
     0
176
     1
290
     0
176
     1
290
     0
176
     1
290
     0
176
     1
 90
       50
176
     1
 40
0.0
176
     1
 40
1.0
176
     1
 90
        0
176
     1
 62
    18
420
        0
176
     1
 90
       50
176
     1
 90
        3
176
     1
 62
     5
420
      255
176
     1
290
     0
176
     1
 90
       50
176
     1
 90
       50
176
     1
 90
       50
176
     1
290
     0
176
     1
 90
       50
176
     1
 62
   256
176
     0
 40
1.0
176
     0
 90
        2
176
     1
  1
strokes_ogs.tif
176
     1
290
     0
176
     1
 40
1.0
176
     1
 40
1.0
176
     1
  0
VISUALSTYLE
  5
2B
102
{ACAD_REACTORS
330
29
102
}
330
29
100
AcDbVisualStyle
  2
FlatWithEdges
 70
     1
177
     3
291
     1
 70
    58
 90
        2
176
     1
 90
        1
176
     1
 90
        1
176
     1
 90
        2
176
     1
 40
0.6
176
     1
 40
30.0
176
     1
 62
     7
420
 16777215
176
     1
 90
        1
176
     1
 90
        0
176
     1
 62
     7
176
     1
 62
   257
176
     1
 90
        1
176
     1
 90
        1
176
     1
 40
1.0
176
     1
 90
        0
176
     1
 62
   257
176
     1
 40
1.0
176
     1
 90
        1
176
     1
 90
        6
176
     1
 90
        2
176
     1
 62
     7
176
     1
 90
        5
176
     1
 90
        0
176
     1
 90
        0
176
     1
290
     0
176
     1
 90
       13
176
     1
 40
0.0
176
     1
 90
        0
176
     1
290
     0
176
     1
290
     1
176
     1
290
     1
176
     1
290
     0
176
     1
290
     0
176
     1
290
     0
176
     1
290
     0
176
     1
290
     0
176
     1
290
     0
176
     1
 90
       50
176
     1
 40
0.0
176
     1
 40
1.0
176
     1
 90
        0
176
     1
 62
    18
420
        0
176
     1
 90
       50
176
     1
 90
        3
176
     1
 62
     5
420
      255
176
     1
290
     0
176
     1
 90
       50
176
     1
 90
       50
176
     1
 90
       50
176
     1
290
     0
176
     1
 90
       50
176
     1
 62
   256
176
     0
 40
1.0
176
     0
 90
        2
176
     1
  1
strokes_ogs.tif
176
     1
290
     0
176
     1
 40
1.0
176
     1
 40
1.0
176
     1
  0
VISUALSTYLE
  5
2C
102
{ACAD_REACTORS
330
29
102
}
330
29
100
AcDbVisualStyle
  2
Gouraud
 70
     2
177
     3
291
     1
 70
    58
 90
        2
176
     1
 90
        2
176
     1
 90
        1
176
     1
 90
        2
176
     1
 40
0.6
176
     1
 40
30.0
176
     1
 62
     7
420
 16777215
176
     1
 90
        0
176
     1
 90
        0
176
     1
 62
     7
176
     1
 62
   257
176
     1
 90
        1
176
     1
 90
        1
176
     1
 40
1.0
176
     1
 90
        0
176
     1
 62
     7
176
     1
 40
1.0
176
     1
 90
        1
176
     1
 90
        6
176
     1
 90
        2
176
     1
 62
     7
176
     1
 90
        5
176
     1
 90
        0
176
     1
 90
        0
176
     1
290
     0
176
     1
 90
       13
176
     1
 40
0.0
176
     1
 90
        0
176
     1
290
     0
176
     1
290
     1
176
     1
290
     1
176
     1
290
     0
176
     1
290
     0
176
     1
290
     0
176
     1
290
     0
176
     1
290
     0
176
     1
290
     0
176
     1
 90
       50
176
     1
 40
0.0
176
     1
 40
1.0
176
     1
 90
        0
176
     1
 62
    18
420
        0
176
     1
 90
       50
176
     1
 90
        3
176
     1
 62
     5
420
      255
176
     1
290
     0
176
     1
 90
       50
176
     1
 90
       50
176
     1
 90
       50
176
     1
290
     0
176
     1
 90
       50
176
     1
 62
   256
176
     0
 40
1.0
176
     0
 90
        2
176
     1
  1
strokes_ogs.tif
176
     1
290
     0
176
     1
 40
1.0
176
     1
 40
1.0
176
     1
  0
VISUALSTYLE
  5
2D
102
{ACAD_REACTORS
330
29
102
}
330
29
100
AcDbVisualStyle
  2
GouraudWithEdges
 70
     3
177
     3
291
     1
 70
    58
 90
        2
176
     1
 90
        2
176
     1
 90
        1
176
     1
 90
        2
176
     1
 40
0.6
176
     1
 40
30.0
176
     1
 62
     7
420
 16777215
176
     1
 90
        1
176
     1
 90
        0
176
     1
 62
     7
176
     1
 62
   257
176
     1
 90
        1
176
     1
 90
        1
176
     1
 40
1.0
176
     1
 90
        0
176
     1
 62
   257
176
     1
 40
1.0
176
     1
 90
        1
176
     1
 90
        6
176
     1
 90
        2
176
     1
 62
     7
176
     1
 90
        5
176
     1
 90
        0
176
     1
 90
        0
176
     1
290
     0
176
     1
 90
       13
176
     1
 40
0.0
176
     1
 90
        0
176
     1
290
     0
176
     1
290
     1
176
     1
290
     1
176
     1
290
     0
176
     1
290
     0
176
     1
290
     0
176
     1
290
     0
176
     1
290
     0
176
     1
290
     0
176
     1
 90
       50
176
     1
 40
0.0
176
     1
 40
1.0
176
     1
 90
        0
176
     1
 62
    18
420
        0
176
     1
 90
       50
176
     1
 90
        3
176
     1
 62
     5
420
      255
176
     1
290
     0
176
     1
 90
       50
176
     1
 90
       50
176
     1
 90
       50
176
     1
290
     0
176
     1
 90
       50
176
     1
 62
   256
176
     0
 40
1.0
176
     0
 90
        2
176
     1
  1
strokes_ogs.tif
176
     1
290
     0
176
     1
 40
1.0
176
     1
 40
1.0
176
     1
  0
VISUALSTYLE
  5
31
102
{ACAD_REACTORS
330
29
102
}
330
29
100
AcDbVisualStyle
  2
Hidden
 70
     6
177
     3
291
     0
 70
    58
 90
        1
176
     1
 90
        2
176
     1
 90
        2
176
     1
 90
        0
176
     1
 40
0.6
176
     1
 40
30.0
176
     1
 62
     7
420
 16777215
176
     1
 90
        2
176
     1
 90
        2
176
     1
 62
     7
176
     1
 62
   257
176
     1
 90
        2
176
     1
 90
        1
176
     1
 40
40.0
176
     1
 90
        0
176
     1
 62
   257
176
     1
 40
1.0
176
     1
 90
        1
176
     1
 90
        6
176
     1
 90
        2
176
     1
 62
     7
176
     1
 90
        3
176
     1
 90
        0
176
     1
 90
        0
176
     1
290
     0
176
     1
 90
        1
176
     1
 40
0.0
176
     1
 90
        0
176
     1
290
     0
176
     1
290
     1
176
     1
290
     1
176
     1
290
     0
176
     1
290
     0
176
     1
290
     0
176
     1
290
     0
176
     1
290
     0
176
     1
290
     0
176
     1
 90
       50
176
     1
 40
0.0
176
     1
 40
1.0
176
     1
 90
        0
176
     1
 62
    18
420
        0
176
     1
 90
       50
176
     1
 90
        3
176
     1
 62
     5
420
      255
176
     1
290
     0
176
     1
 90
       50
176
     1
 90
       50
176
     1
 90
       50
176
     1
290
     0
176
     1
 90
       50
176
     1
 62
   256
176
     0
 40
1.0
176
     0
 90
        2
176
     1
  1
strokes_ogs.tif
176
     1
290
     0
176
     1
 40
1.0
176
     1
 40
1.0
176
     1
  0
VISUALSTYLE
  5
3F
102
{ACAD_REACTORS
330
29
102
}
330
29
100
AcDbVisualStyle
  2
JitterOff
 70
    20
177
     3
291
     1
 70
    58
 90
        2
176
     0
 90
        2
176
     0
 90
        0
176
     0
 90
        0
176
     0
 40
0.6
176
     0
 40
30.0
176
     0
 62
     7
420
 16777215
176
     0
 90
        1
176
     0
 90
        4
176
     0
 62
     7
176
     0
 62
   257
176
     0
 90
        1
176
     0
 90
        1
176
     0
 40
1.0
176
     0
 90
       10
176
     2
 62
     7
176
     0
 40
1.0
176
     0
 90
        1
176
     0
 90
        6
176
     0
 90
        2
176
     0
 62
     7
176
     0
 90
        5
176
     0
 90
        0
176
     0
 90
        0
176
     0
290
     0
176
     0
 90
        1
176
     0
 40
0.0
176
     0
 90
        0
176
     0
290
     0
176
     0
290
     1
176
     0
290
     1
176
     0
290
     0
176
     0
290
     0
176
     0
290
     0
176
     0
290
     0
176
     0
290
     0
176
     0
290
     0
176
     0
 90
       50
176
     0
 40
0.0
176
     0
 40
1.0
176
     0
 90
        0
176
     0
 62
    18
420
        0
176
     0
 90
       50
176
     0
 90
        3
176
     0
 62
     5
420
      255
176
     0
290
     0
176
     0
 90
       50
176
     0
 90
       50
176
     0
 90
       50
176
     0
290
     0
176
     0
 90
       50
176
     0
 62
   256
176
     0
 40
1.0
176
     0
 90
        2
176
     0
  1
strokes_ogs.tif
176
     0
290
     0
176
     0
 40
1.0
176
     0
 40
1.0
176
     0
  0
VISUALSTYLE
  5
37
102
{ACAD_REACTORS
330
29
102
}
330
29
100
AcDbVisualStyle
  2
Linepattern
 70
    14
177
     3
291
     1
 70
    58
 90
        2
176
     1
 90
        2
176
     1
 90
        0
176
     1
 90
        0
176
     1
 40
0.6
176
     1
 40
30.0
176
     1
 62
     7
420
 16777215
176
     1
 90
        1
176
     1
 90
        4
176
     1
 62
     7
176
     1
 62
   257
176
     1
 90
        7
176
     1
 90
        7
176
     1
 40
1.0
176
     1
 90
        8
176
     1
 62
     7
176
     1
 40
1.0
176
     1
 90
        1
176
     1
 90
        6
176
     1
 90
        2
176
     1
 62
     7
176
     1
 90
        5
176
     1
 90
        0
176
     1
 90
        0
176
     1
290
     0
176
     1
 90
        1
176
     1
 40
0.0
176
     1
 90
        0
176
     1
290
     0
176
     1
290
     1
176
     1
290
     1
176
     1
290
     0
176
     1
290
     0
176
     1
290
     0
176
     1
290
     0
176
     1
290
     0
176
     1
290
     0
176
     1
 90
       50
176
     1
 40
0.0
176
     1
 40
1.0
176
     1
 90
        0
176
     1
 62
    18
420
        0
176
     1
 90
       50
176
     1
 90
        3
176
     1
 62
     5
420
      255
176
     1
290
     0
176
     1
 90
       50
176
     1
 90
       50
176
     1
 90
       50
176
     1
290
     0
176
     1
 90
       50
176
     1
 62
   256
176
     0
 40
1.0
176
     0
 90
        2
176
     1
  1
strokes_ogs.tif
176
     1
290
     0
176
     1
 40
1.0
176
     1
 40
1.0
176
     1
  0
VISUALSTYLE
  5
40
102
{ACAD_REACTORS
330
29
102
}
330
29
100
AcDbVisualStyle
  2
OverhangOff
 70
    21
177
     3
291
     1
 70
    58
 90
        2
176
     0
 90
        2
176
     0
 90
        0
176
     0
 90
        0
176
     0
 40
0.6
176
     0
 40
30.0
176
     0
 62
     7
420
 16777215
176
     0
 90
        1
176
     0
 90
        4
176
     0
 62
     7
176
     0
 62
   257
176
     0
 90
        1
176
     0
 90
        1
176
     0
 40
1.0
176
     0
 90
        9
176
     2
 62
     7
176
     0
 40
1.0
176
     0
 90
        1
176
     0
 90
        6
176
     0
 90
        2
176
     0
 62
     7
176
     0
 90
        5
176
     0
 90
        0
176
     0
 90
        0
176
     0
290
     0
176
     0
 90
        1
176
     0
 40
0.0
176
     0
 90
        0
176
     0
290
     0
176
     0
290
     1
176
     0
290
     1
176
     0
290
     0
176
     0
290
     0
176
     0
290
     0
176
     0
290
     0
176
     0
290
     0
176
     0
290
     0
176
     0
 90
       50
176
     0
 40
0.0
176
     0
 40
1.0
176
     0
 90
        0
176
     0
 62
    18
420
        0
176
     0
 90
       50
176
     0
 90
        3
176
     0
 62
     5
420
      255
176
     0
290
     0
176
     0
 90
       50
176
     0
 90
       50
176
     0
 90
       50
176
     0
290
     0
176
     0
 90
       50
176
     0
 62
   256
176
     0
 40
1.0
176
     0
 90
        2
176
     0
  1
strokes_ogs.tif
176
     0
290
     0
176
     0
 40
1.0
176
     0
 40
1.0
176
     0
  0
VISUALSTYLE
  5
33
102
{ACAD_REACTORS
330
29
102
}
330
29
100
AcDbVisualStyle
  2
Realistic
 70
     8
177
     3
291
     0
 70
    58
 90
        2
176
     1
 90
        3
176
     1
 90
        0
176
     1
 90
        2
176
     1
 40
0.6
176
     1
 40
30.0
176
     1
 62
     7
420
 16777215
176
     1
 90
        0
176
     1
 90
        0
176
     1
 62
     7
176
     1
 62
   257
176
     1
 90
        1
176
     1
 90
        1
176
     1
 40
1.0
176
     1
 90
        8
176
     1
 62
   257
176
     1
 40
1.0
176
     1
 90
        1
176
     1
 90
        6
176
     1
 90
        2
176
     1
 62
     7
176
     1
 90
        3
176
     1
 90
        0
176
     1
 90
        0
176
     1
290
     0
176
     1
 90
       13
176
     1
 40
0.0
176
     1
 90
        0
176
     1
290
     0
176
     1
290
     1
176
     1
290
     1
176
     1
290
     0
176
     1
290
     0
176
     1
290
     0
176
     1
290
     0
176
     1
290
     0
176
     1
290
     0
176
     1
 90
       50
176
     1
 40
0.0
176
     1
 40
1.0
176
     1
 90
        0
176
     1
 62
    18
420
        0
176
     1
 90
       50
176
     1
 90
        3
176
     1
 62
     5
420
      255
176
     1
290
     0
176
     1
 90
       50
176
     1
 90
       50
176
     1
 90
       50
176
     1
290
     0
176
     1
 90
       50
176
     1
 62
   256
176
     0
 40
1.0
176
     0
 90
        2
176
     1
  1
strokes_ogs.tif
176
     1
290
     0
176
     1
 40
1.0
176
     1
 40
1.0
176
     1
  0
VISUALSTYLE
  5
3E
102
{ACAD_REACTORS
330
29
102
}
330
29
100
AcDbVisualStyle
  2
Shaded
 70
    27
177
     3
291
     0
 70
    58
 90
        2
176
     1
 90
        2
176
     1
 90
        1
176
     1
 90
        2
176
     1
 40
0.6
176
     1
 40
30.0
176
     1
 62
     7
420
 16777215
176
     1
 90
        0
176
     1
 90
        4
176
     1
 62
     7
176
     1
 62
   257
176
     1
 90
        1
176
     1
 90
        1
176
     1
 40
1.0
176
     1
 90
        8
176
     1
 62
   257
176
     1
 40
1.0
176
     1
 90
        1
176
     1
 90
        6
176
     1
 90
        2
176
     1
 62
     8
420
  7895160
176
     1
 90
        3
176
     1
 90
        0
176
     1
 90
        0
176
     1
290
     0
176
     1
 90
        5
176
     1
 40
0.0
176
     1
 90
        0
176
     1
290
     0
176
     1
290
     1
176
     1
290
     1
176
     1
290
     0
176
     1
290
     0
176
     1
290
     0
176
     1
290
     0
176
     1
290
     0
176
     1
290
     0
176
     1
 90
       50
176
     1
 40
0.0
176
     1
 40
1.0
176
     1
 90
        0
176
     1
 62
    18
420
        0
176
     1
 90
       50
176
     1
 90
        3
176
     1
 62
     5
420
      255
176
     1
290
     0
176
     1
 90
       50
176
     1
 90
       50
176
     1
 90
       50
176
     1
290
     0
176
     1
 90
       50
176
     1
 62
   256
176
     0
 40
1.0
176
     0
 90
        2
176
     1
  1
strokes_ogs.tif
176
     1
290
     0
176
     1
 40
1.0
176
     1
 40
1.0
176
     1
  0
VISUALSTYLE
  5
3D
102
{ACAD_REACTORS
330
29
102
}
330
29
100
AcDbVisualStyle
  2
Shaded with edges
 70
    26
177
     3
291
     0
 70
    58
 90
        2
176
     1
 90
        2
176
     1
 90
        1
176
     1
 90
        2
176
     1
 40
0.6
176
     1
 40
30.0
176
     1
 62
     7
420
 16777215
176
     1
 90
        1
176
     1
 90
        2
176
     1
 62
     7
176
     1
 62
   257
176
     1
 90
        2
176
     1
 90
        1
176
     1
 40
1.0
176
     1
 90
        8
176
     1
 62
   257
176
     1
 40
1.0
176
     1
 90
        1
176
     1
 90
        6
176
     1
 90
        2
176
     1
 62
     7
176
     1
 90
        3
176
     1
 90
        0
176
     1
 90
        0
176
     1
290
     0
176
     1
 90
        5
176
     1
 40
0.0
176
     1
 90
        0
176
     1
290
     0
176
     1
290
     1
176
     1
290
     1
176
     1
290
     0
176
     1
290
     0
176
     1
290
     0
176
     1
290
     0
176
     1
290
     0
176
     1
290
     0
176
     1
 90
       50
176
     1
 40
0.0
176
     1
 40
1.0
176
     1
 90
        0
176
     1
 62
    18
420
        0
176
     1
 90
       50
176
     1
 90
        3
176
     1
 62
     5
420
      255
176
     1
290
     0
176
     1
 90
       50
176
     1
 90
       50
176
     1
 90
       50
176
     1
290
     0
176
     1
 90
       50
176
     1
 62
   256
176
     0
 40
1.0
176
     0
 90
        2
176
     1
  1
strokes_ogs.tif
176
     1
290
     0
176
     1
 40
1.0
176
     1
 40
1.0
176
     1
  0
VISUALSTYLE
  5
3A
102
{ACAD_REACTORS
330
29
102
}
330
29
100
AcDbVisualStyle
  2
Shades of Gray
 70
    23
177
     3
291
     0
 70
    58
 90
        2
176
     1
 90
        2
176
     1
 90
        3
176
     1
 90
        0
176
     1
 40
0.6
176
     1
 40
30.0
176
     1
 62
     7
420
 16777215
176
     1
 90
        2
176
     1
 90
        2
176
     1
 62
     7
176
     1
 62
     7
176
     1
 90
        1
176
     1
 90
        1
176
     1
 40
40.0
176
     1
 90
        8
176
     1
 62
     7
176
     1
 40
1.0
176
     1
 90
        1
176
     1
 90
        6
176
     1
 90
        2
176
     1
 62
     7
176
     1
 90
        3
176
     1
 90
        0
176
     1
 90
        0
176
     1
290
     0
176
     1
 90
        1
176
     1
 40
0.0
176
     1
 90
        0
176
     1
290
     0
176
     1
290
     1
176
     1
290
     1
176
     1
290
     0
176
     1
290
     0
176
     1
290
     0
176
     1
290
     0
176
     1
290
     0
176
     1
290
     0
176
     1
 90
       50
176
     1
 40
0.0
176
     1
 40
1.0
176
     1
 90
        0
176
     1
 62
    18
420
        0
176
     1
 90
       50
176
     1
 90
        3
176
     1
 62
     5
420
      255
176
     1
290
     0
176
     1
 90
       50
176
     1
 90
       50
176
     1
 90
       50
176
     1
290
     0
176
     1
 90
       50
176
     1
 62
   256
176
     0
 40
1.0
176
     0
 90
        2
176
     1
  1
strokes_ogs.tif
176
     1
290
     0
176
     1
 40
1.0
176
     1
 40
1.0
176
     1
  0
VISUALSTYLE
  5
3B
102
{ACAD_REACTORS
330
29
102
}
330
29
100
AcDbVisualStyle
  2
Sketchy
 70
    24
177
     3
291
     0
 70
    58
 90
        1
176
     1
 90
        2
176
     1
 90
        2
176
     1
 90
        0
176
     1
 40
0.6
176
     1
 40
30.0
176
     1
 62
     7
420
 16777215
176
     1
 90
        2
176
     1
 90
        2
176
     1
 62
     7
176
     1
 62
     7
176
     1
 90
        1
176
     1
 90
        1
176
     1
 40
40.0
176
     1
 90
       11
176
     1
 62
     7
176
     1
 40
1.0
176
     1
 90
        1
176
     1
 90
        6
176
     1
 90
        2
176
     1
 62
     7
176
     1
 90
        6
176
     1
 90
        0
176
     1
 90
        0
176
     1
290
     0
176
     1
 90
        1
176
     1
 40
0.0
176
     1
 90
        0
176
     1
290
     0
176
     1
290
     1
176
     1
290
     1
176
     1
290
     0
176
     1
290
     0
176
     1
290
     0
176
     1
290
     0
176
     1
290
     0
176
     1
290
     0
176
     1
 90
       50
176
     1
 40
0.0
176
     1
 40
1.0
176
     1
 90
        0
176
     1
 62
    18
420
        0
176
     1
 90
       50
176
     1
 90
        3
176
     1
 62
     5
420
      255
176
     1
290
     0
176
     1
 90
       50
176
     1
 90
       50
176
     1
 90
       50
176
     1
290
     0
176
     1
 90
       50
176
     1
 62
   256
176
     0
 40
1.0
176
     0
 90
        2
176
     1
  1
strokes_ogs.tif
176
     1
290
     0
176
     1
 40
1.0
176
     1
 40
1.0
176
     1
  0
VISUALSTYLE
  5
36
102
{ACAD_REACTORS
330
29
102
}
330
29
100
AcDbVisualStyle
  2
Thicken
 70
    13
177
     3
291
     1
 70
    58
 90
        2
176
     1
 90
        2
176
     1
 90
        0
176
     1
 90
        0
176
     1
 40
0.6
176
     1
 40
30.0
176
     1
 62
     7
420
 16777215
176
     1
 90
        1
176
     1
 90
        4
176
     1
 62
     7
176
     1
 62
   257
176
     1
 90
        1
176
     1
 90
        1
176
     1
 40
1.0
176
     1
 90
       12
176
     1
 62
     7
176
     1
 40
1.0
176
     1
 90
        1
176
     1
 90
        6
176
     1
 90
        2
176
     1
 62
     7
176
     1
 90
        5
176
     1
 90
        0
176
     1
 90
        0
176
     1
290
     0
176
     1
 90
        1
176
     1
 40
0.0
176
     1
 90
        0
176
     1
290
     0
176
     1
290
     1
176
     1
290
     1
176
     1
290
     0
176
     1
290
     0
176
     1
290
     0
176
     1
290
     0
176
     1
290
     0
176
     1
290
     0
176
     1
 90
       50
176
     1
 40
0.0
176
     1
 40
1.0
176
     1
 90
        0
176
     1
 62
    18
420
        0
176
     1
 90
       50
176
     1
 90
        3
176
     1
 62
     5
420
      255
176
     1
290
     0
176
     1
 90
       50
176
     1
 90
       50
176
     1
 90
       50
176
     1
290
     0
176
     1
 90
       50
176
     1
 62
   256
176
     0
 40
1.0
176
     0
 90
        2
176
     1
  1
strokes_ogs.tif
176
     1
290
     0
176
     1
 40
1.0
176
     1
 40
1.0
176
     1
  0
VISUALSTYLE
  5
30
102
{ACAD_REACTORS
330
29
102
}
330
29
100
AcDbVisualStyle
  2
Wireframe
 70
     5
177
     3
291
     0
 70
    58
 90
        0
176
     1
 90
        2
176
     1
 90
        0
176
     1
 90
        0
176
     1
 40
0.6
176
     1
 40
30.0
176
     1
 62
     7
420
 16777215
176
     1
 90
        1
176
     1
 90
        4
176
     1
 62
     7
176
     1
 62
   257
176
     1
 90
        1
176
     1
 90
        1
176
     1
 40
1.0
176
     1
 90
        0
176
     1
 62
   257
176
     1
 40
1.0
176
     1
 90
        1
176
     1
 90
        6
176
     1
 90
        2
176
     1
 62
     7
176
     1
 90
        3
176
     1
 90
        0
176
     1
 90
        0
176
     1
290
     0
176
     1
 90
        1
176
     1
 40
0.0
176
     1
 90
        0
176
     1
290
     0
176
     1
290
     1
176
     1
290
     1
176
     1
290
     0
176
     1
290
     0
176
     1
290
     0
176
     1
290
     0
176
     1
290
     0
176
     1
290
     0
176
     1
 90
       50
176
     1
 40
0.0
176
     1
 40
1.0
176
     1
 90
        0
176
     1
 62
    18
420
        0
176
     1
 90
       50
176
     1
 90
        3
176
     1
 62
     5
420
      255
176
     1
290
     0
176
     1
 90
       50
176
     1
 90
       50
176
     1
 90
       50
176
     1
290
     0
176
     1
 90
       50
176
     1
 62
   256
176
     0
 40
1.0
176
     0
 90
        2
176
     1
  1
strokes_ogs.tif
176
     1
290
     0
176
     1
 40
1.0
176
     1
 40
1.0
176
     1
  0
VISUALSTYLE
  5
3C
102
{ACAD_REACTORS
330
29
102
}
330
29
100
AcDbVisualStyle
  2
X-Ray
 70
    25
177
     3
291
     0
 70
    58
 90
        2
176
     1
 90
        2
176
     1
 90
        1
176
     1
 90
        1
176
     1
 40
0.5
176
     1
 40
30.0
176
     1
 62
     7
420
 16777215
176
     1
 90
        1
176
     1
 90
        0
176
     1
 62
     7
176
     1
 62
   257
176
     1
 90
        1
176
     1
 90
        1
176
     1
 40
1.0
176
     1
 90
        8
176
     1
 62
     7
176
     1
 40
1.0
176
     1
 90
        1
176
     1
 90
        6
176
     1
 90
        2
176
     1
 62
     7
176
     1
 90
        3
176
     1
 90
        0
176
     1
 90
        0
176
     1
290
     0
176
     1
 90
       13
176
     1
 40
0.0
176
     1
 90
        0
176
     1
290
     0
176
     1
290
     1
176
     1
290
     1
176
     1
290
     0
176
     1
290
     0
176
     1
290
     0
176
     1
290
     0
176
     1
290
     0
176
     1
290
     0
176
     1
 90
       50
176
     1
 40
0.0
176
     1
 40
1.0
176
     1
 90
        0
176
     1
 62
    18
420
        0
176
     1
 90
       50
176
     1
 90
        3
176
     1
 62
     5
420
      255
176
     1
290
     0
176
     1
 90
       50
176
     1
 90
       50
176
     1
 90
       50
176
     1
290
     0
176
     1
 90
       50
176
     1
 62
   256
176
     0
 40
1.0
176
     0
 90
        2
176
     1
  1
strokes_ogs.tif
176
     1
290
     0
176
     1
 40
1.0
176
     1
 40
1.0
176
     1
  0
DICTIONARYVAR
  5
110
102
{ACAD_REACTORS
330
10B
102
}
330
10B
100
DictionaryVariables
280
     0
  1
1:1
  0
DICTIONARYVAR
  5
10D
102
{ACAD_REACTORS
330
10B
102
}
330
10B
100
DictionaryVariables
280
     0
  1
STANDARD
  0
DICTIONARYVAR
  5
10C
102
{ACAD_REACTORS
330
10B
102
}
330
10B
100
DictionaryVariables
280
     0
  1
STANDARD
  0
DICTIONARYVAR
  5
10E
102
{ACAD_REACTORS
330
10B
102
}
330
10B
100
DictionaryVariables
280
     0
  1
Imperial24
  0
DICTIONARYVAR
  5
10F
102
{ACAD_REACTORS
330
10B
102
}
330
10B
100
DictionaryVariables
280
     0
  1
Imperial24
  0
DICTIONARY
  5
1A
330
19
100
AcDbDictionary
280
     1
281
     1
  3
BUMPTILE
360
1C
  3
DIFFUSETILE
360
1B
  3
OPACITYTILE
360
1F
  3
REFLECTIONTILE
360
1E
  3
REFRACTIONTILE
360
20
  3
SPECULARTILE
360
1D
  0
DICTIONARY
  5
12
330
11
100
AcDbDictionary
280
     1
281
     1
  3
BUMPTILE
360
14
  3
DIFFUSETILE
360
13
  3
OPACITYTILE
360
17
  3
REFLECTIONTILE
360
16
  3
REFRACTIONTILE
360
18
  3
SPECULARTILE
360
15
  0
DICTIONARY
  5
22
330
21
100
AcDbDictionary
280
     1
281
     1
  3
BUMPTILE
360
24
  3
DIFFUSETILE
360
23
  3
OPACITYTILE
360
27
  3
REFLECTIONTILE
360
26
  3
REFRACTIONTILE
360
28
  3
SPECULARTILE
360
25
  0
DICTIONARY
  5
111
330
65
100
AcDbDictionary
280
     1
281
     1
  3
ACAD_ROUNDTRIP_2008_TABLESTYLE_CELLSTYLEMAP
360
112
  0
XRECORD
  5
1C
102
{ACAD_REACTORS
330
1A
102
}
330
1A
100
AcDbXrecord
280
     1
270
     1
271
     1
  0
XRECORD
  5
1B
102
{ACAD_REACTORS
330
1A
102
}
330
1A
100
AcDbXrecord
280
     1
270
     1
271
     1
  0
XRECORD
  5
1F
102
{ACAD_REACTORS
330
1A
102
}
330
1A
100
AcDbXrecord
280
     1
270
     1
271
     1
  0
XRECORD
  5
1E
102
{ACAD_REACTORS
330
1A
102
}
330
1A
100
AcDbXrecord
280
     1
270
     1
271
     1
  0
XRECORD
  5
20
102
{ACAD_REACTORS
330
1A
102
}
330
1A
100
AcDbXrecord
280
     1
270
     1
271
     1
  0
XRECORD
  5
1D
102
{ACAD_REACTORS
330
1A
102
}
330
1A
100
AcDbXrecord
280
     1
270
     1
271
     1
  0
XRECORD
  5
14
102
{ACAD_REACTORS
330
12
102
}
330
12
100
AcDbXrecord
280
     1
270
     1
271
     1
  0
XRECORD
  5
13
102
{ACAD_REACTORS
330
12
102
}
330
12
100
AcDbXrecord
280
     1
270
     1
271
     1
  0
XRECORD
  5
17
102
{ACAD_REACTORS
330
12
102
}
330
12
100
AcDbXrecord
280
     1
270
     1
271
     1
  0
XRECORD
  5
16
102
{ACAD_REACTORS
330
12
102
}
330
12
100
AcDbXrecord
280
     1
270
     1
271
     1
  0
XRECORD
  5
18
102
{ACAD_REACTORS
330
12
102
}
330
12
100
AcDbXrecord
280
     1
270
     1
271
     1
  0
XRECORD
  5
15
102
{ACAD_REACTORS
330
12
102
}
330
12
100
AcDbXrecord
280
     1
270
     1
271
     1
  0
XRECORD
  5
24
102
{ACAD_REACTORS
330
22
102
}
330
22
100
AcDbXrecord
280
     1
270
     1
271
     1
  0
XRECORD
  5
23
102
{ACAD_REACTORS
330
22
102
}
330
22
100
AcDbXrecord
280
     1
270
     1
271
     1
  0
XRECORD
  5
27
102
{ACAD_REACTORS
330
22
102
}
330
22
100
AcDbXrecord
280
     1
270
     1
271
     1
  0
XRECORD
  5
26
102
{ACAD_REACTORS
330
22
102
}
330
22
100
AcDbXrecord
280
     1
270
     1
271
     1
  0
XRECORD
  5
28
102
{ACAD_REACTORS
330
22
102
}
330
22
100
AcDbXrecord
280
     1
270
     1
271
     1
  0
XRECORD
  5
25
102
{ACAD_REACTORS
330
22
102
}
330
22
100
AcDbXrecord
280
     1
270
     1
271
     1
  0
CELLSTYLEMAP
  5
112
102
{ACAD_REACTORS
330
111
102
}
330
111
100
AcDbCellStyleMap
 90
        3
300
CELLSTYLE
  1
TABLEFORMAT_BEGIN
 90
        5
170
     1
 91
        0
 92
    32768
 62
   257
 93
        1
300
CONTENTFORMAT
  1
CONTENTFORMAT_BEGIN
 90
        0
 91
        0
 92
      512
 93
        0
300

 40
0.0
140
1.0
 94
        5
 62
     0
340
55
144
0.25
309
CONTENTFORMAT_END
171
     0
 94
        0
309
TABLEFORMAT_END
  1
CELLSTYLE_BEGIN
 90
        1
 91
        1
300
_TITLE
309
CELLSTYLE_END
300
CELLSTYLE
  1
TABLEFORMAT_BEGIN
 90
        5
170
     1
 91
        0
 92
        0
 62
   257
 93
        1
300
CONTENTFORMAT
  1
CONTENTFORMAT_BEGIN
 90
        0
 91
        0
 92
      512
 93
        0
300

 40
0.0
140
1.0
 94
        5
 62
     0
340
55
144
0.18
309
CONTENTFORMAT_END
171
     0
 94
        0
309
TABLEFORMAT_END
  1
CELLSTYLE_BEGIN
 90
        2
 91
        1
300
_HEADER
309
CELLSTYLE_END
300
CELLSTYLE
  1
TABLEFORMAT_BEGIN
 90
        5
170
     1
 91
        0
 92
        0
 62
   257
 93
        1
300
CONTENTFORMAT
  1
CONTENTFORMAT_BEGIN
 90
        0
 91
        0
 92
      512
 93
        0
300

 40
0.0
140
1.0
 94
        2
 62
     0
340
55
144
0.18
309
CONTENTFORMAT_END
171
     0
 94
        0
309
TABLEFORMAT_END
  1
CELLSTYLE_BEGIN
 90
        3
 91
        2
300
_DATA
309
CELLSTYLE_END
  0
ENDSEC
  0
EOF
