  0
SECTION
  2
HEADER
  9
$ACADVER
  1
AC1032
  9
$ACADMAINTVER
 90
      228
  9
$DWGCODEPAGE
  3
ANSI_932
  9
$REQUIREDVERSIONS
160
                 0
  9
$INSBASE
 10
0.0
 20
0.0
 30
0.0
  9
$EXTMIN
 10
1.000000000000000E+20
 20
1.000000000000000E+20
 30
1.000000000000000E+20
  9
$EXTMAX
 10
-1.000000000000000E+20
 20
-1.000000000000000E+20
 30
-1.000000000000000E+20
  9
$LIMMIN
 10
0.0
 20
0.0
  9
$LIMMAX
 10
12.0
 20
9.0
  9
$ORTHOMODE
 70
     0
  9
$REGENMODE
 70
     1
  9
$FILLMODE
 70
     1
  9
$QTEXTMODE
 70
     0
  9
$MIRRTEXT
 70
     0
  9
$LTSCALE
 40
1.0
  9
$ATTMODE
 70
     1
  9
$TEXTSIZE
 40
0.2
  9
$TRACEWID
 40
0.05
  9
$TEXTSTYLE
  7
Standard
  9
$CLAYER
  8
0
  9
$CELTYPE
  6
ByLayer
  9
$CECOLOR
 62
   256
  9
$CELTSCALE
 40
1.0
  9
$DISPSILH
 70
     0
  9
$DIMSCALE
 40
1.0
  9
$DIMASZ
 40
0.18
  9
$DIMEXO
 40
0.0625
  9
$DIMDLI
 40
0.38
  9
$DIMRND
 40
0.0
  9
$DIMDLE
 40
0.0
  9
$DIMEXE
 40
0.18
  9
$DIMTP
 40
0.0
  9
$DIMTM
 40
0.0
  9
$DIMTXT
 40
0.18
  9
$DIMCEN
 40
0.09
  9
$DIMTSZ
 40
0.0
  9
$DIMTOL
 70
     0
  9
$DIMLIM
 70
     0
  9
$DIMTIH
 70
     1
  9
$DIMTOH
 70
     1
  9
$DIMSE1
 70
     0
  9
$DIMSE2
 70
     0
  9
$DIMTAD
 70
     0
  9
$DIMZIN
 70
     0
  9
$DIMBLK
  1

  9
$DIMASO
 70
     1
  9
$DIMSHO
 70
     1
  9
$DIMPOST
  1

  9
$DIMAPOST
  1

  9
$DIMALT
 70
     0
  9
$DIMALTD
 70
     2
  9
$DIMALTF
 40
25.4
  9
$DIMLFAC
 40
1.0
  9
$DIMTOFL
 70
     0
  9
$DIMTVP
 40
0.0
  9
$DIMTIX
 70
     0
  9
$DIMSOXD
 70
     0
  9
$DIMSAH
 70
     0
  9
$DIMBLK1
  1

  9
$DIMBLK2
  1

  9
$DIMSTYLE
  2
Standard
  9
$DIMCLRD
 70
     0
  9
$DIMCLRE
 70
     0
  9
$DIMCLRT
 70
     0
  9
$DIMTFAC
 40
1.0
  9
$DIMGAP
 40
0.09
  9
$DIMJUST
 70
     0
  9
$DIMSD1
 70
     0
  9
$DIMSD2
 70
     0
  9
$DIMTOLJ
 70
     1
  9
$DIMTZIN
 70
     0
  9
$DIMALTZ
 70
     0
  9
$DIMALTTZ
 70
     0
  9
$DIMUPT
 70
     0
  9
$DIMDEC
 70
     4
  9
$DIMTDEC
 70
     4
  9
$DIMALTU
 70
     2
  9
$DIMALTTD
 70
     2
  9
$DIMTXSTY
  7
Standard
  9
$DIMAUNIT
 70
     0
  9
$DIMADEC
 70
     0
  9
$DIMALTRND
 40
0.0
  9
$DIMAZIN
 70
     0
  9
$DIMDSEP
 70
    46
  9
$DIMATFIT
 70
     3
  9
$DIMFRAC
 70
     0
  9
$DIMLDRBLK
  1

  9
$DIMLUNIT
 70
     2
  9
$DIMLWD
 70
    -2
  9
$DIMLWE
 70
    -2
  9
$DIMTMOVE
 70
     0
  9
$DIMFXL
 40
1.0
  9
$DIMFXLON
 70
     0
  9
$DIMJOGANG
 40
0.7853981633974483
  9
$DIMTFILL
 70
     0
  9
$DIMTFILLCLR
 70
     0
  9
$DIMARCSYM
 70
     0
  9
$DIMLTYPE
  6

  9
$DIMLTEX1
  6

  9
$DIMLTEX2
  6

  9
$DIMTXTDIRECTION
 70
     0
  9
$LUNITS
 70
     2
  9
$LUPREC
 70
     4
  9
$SKETCHINC
 40
0.1
  9
$FILLETRAD
 40
0.0
  9
$AUNITS
 70
     0
  9
$AUPREC
 70
     0
  9
$MENU
  1
.
  9
$ELEVATION
 40
0.0
  9
$PELEVATION
 40
0.0
  9
$THICKNESS
 40
0.0
  9
$LIMCHECK
 70
     0
  9
$CHAMFERA
 40
0.0
  9
$CHAMFERB
 40
0.0
  9
$CHAMFERC
 40
0.0
  9
$CHAMFERD
 40
0.0
  9
$SKPOLY
 70
     0
  9
$TDCREATE
 40
2460061.535798611
  9
$TDUCREATE
 40
2460061.160798611
  9
$TDUPDATE
 40
2460061.535798611
  9
$TDUUPDATE
 40
2460061.160798611
  9
$TDINDWG
 40
0.0000000000
  9
$TDUSRTIMER
 40
0.0000000000
  9
$USRTIMER
 70
     1
  9
$ANGBASE
 50
0.0
  9
$ANGDIR
 70
     0
  9
$PDMODE
 70
     0
  9
$PDSIZE
 40
0.0
  9
$PLINEWID
 40
0.0
  9
$SPLFRAME
 70
     0
  9
$SPLINETYPE
 70
     6
  9
$SPLINESEGS
 70
     8
  9
$HANDSEED
  5
1B4
  9
$SURFTAB1
 70
     6
  9
$SURFTAB2
 70
     6
  9
$SURFTYPE
 70
     6
  9
$SURFU
 70
     6
  9
$SURFV
 70
     6
  9
$UCSBASE
  2

  9
$UCSNAME
  2

  9
$UCSORG
 10
0.0
 20
0.0
 30
0.0
  9
$UCSXDIR
 10
1.0
 20
0.0
 30
0.0
  9
$UCSYDIR
 10
0.0
 20
1.0
 30
0.0
  9
$UCSORTHOREF
  2

  9
$UCSORTHOVIEW
 70
     0
  9
$UCSORGTOP
 10
0.0
 20
0.0
 30
0.0
  9
$UCSORGBOTTOM
 10
0.0
 20
0.0
 30
0.0
  9
$UCSORGLEFT
 10
0.0
 20
0.0
 30
0.0
  9
$UCSORGRIGHT
 10
0.0
 20
0.0
 30
0.0
  9
$UCSORGFRONT
 10
0.0
 20
0.0
 30
0.0
  9
$UCSORGBACK
 10
0.0
 20
0.0
 30
0.0
  9
$PUCSBASE
  2

  9
$PUCSNAME
  2

  9
$PUCSORG
 10
0.0
 20
0.0
 30
0.0
  9
$PUCSXDIR
 10
1.0
 20
0.0
 30
0.0
  9
$PUCSYDIR
 10
0.0
 20
1.0
 30
0.0
  9
$PUCSORTHOREF
  2

  9
$PUCSORTHOVIEW
 70
     0
  9
$PUCSORGTOP
 10
0.0
 20
0.0
 30
0.0
  9
$PUCSORGBOTTOM
 10
0.0
 20
0.0
 30
0.0
  9
$PUCSORGLEFT
 10
0.0
 20
0.0
 30
0.0
  9
$PUCSORGRIGHT
 10
0.0
 20
0.0
 30
0.0
  9
$PUCSORGFRONT
 10
0.0
 20
0.0
 30
0.0
  9
$PUCSORGBACK
 10
0.0
 20
0.0
 30
0.0
  9
$USERI1
 70
     0
  9
$USERI2
 70
     0
  9
$USERI3
 70
     0
  9
$USERI4
 70
     0
  9
$USERI5
 70
     0
  9
$USERR1
 40
0.0
  9
$USERR2
 40
0.0
  9
$USERR3
 40
0.0
  9
$USERR4
 40
0.0
  9
$USERR5
 40
0.0
  9
$WORLDVIEW
 70
     1
  9
$SHADEDGE
 70
     3
  9
$SHADEDIF
 70
    70
  9
$TILEMODE
 70
     1
  9
$MAXACTVP
 70
    64
  9
$PINSBASE
 10
0.0
 20
0.0
 30
0.0
  9
$PLIMCHECK
 70
     0
  9
$PEXTMIN
 10
1.000000000000000E+20
 20
1.000000000000000E+20
 30
1.000000000000000E+20
  9
$PEXTMAX
 10
-1.000000000000000E+20
 20
-1.000000000000000E+20
 30
-1.000000000000000E+20
  9
$PLIMMIN
 10
0.0
 20
0.0
  9
$PLIMMAX
 10
12.0
 20
9.0
  9
$UNITMODE
 70
     0
  9
$VISRETAIN
 70
     1
  9
$PLINEGEN
 70
     0
  9
$PSLTSCALE
 70
     1
  9
$TREEDEPTH
 70
  3020
  9
$CMLSTYLE
  2
Standard
  9
$CMLJUST
 70
     0
  9
$CMLSCALE
 40
1.0
  9
$PROXYGRAPHICS
 70
     1
  9
$MEASUREMENT
 70
     0
  9
$CELWEIGHT
370
    -1
  9
$ENDCAPS
280
     0
  9
$JOINSTYLE
280
     0
  9
$LWDISPLAY
290
     1
  9
$INSUNITS
 70
     4
  9
$HYPERLINKBASE
  1

  9
$STYLESHEET
  1

  9
$XEDIT
290
     1
  9
$CEPSNTYPE
380
     0
  9
$PSTYLEMODE
290
     1
  9
$FINGERPRINTGUID
  2
{A211B396-C8D6-4044-A12C-FD5EB0661367}
  9
$VERSIONGUID
  2
{7992863C-68A3-9045-97F7-95AC5E071E16}
  9
$EXTNAMES
290
     1
  9
$PSVPSCALE
 40
0.0
  9
$OLESTARTUP
290
     0
  9
$SORTENTS
280
   127
  9
$INDEXCTL
280
     0
  9
$HIDETEXT
280
     1
  9
$XCLIPFRAME
280
     2
  9
$HALOGAP
280
     0
  9
$OBSCOLOR
 70
   257
  9
$OBSLTYPE
280
     0
  9
$INTERSECTIONDISPLAY
280
     0
  9
$INTERSECTIONCOLOR
 70
   257
  9
$DIMASSOC
280
     2
  9
$PROJECTNAME
  1

  9
$CAMERADISPLAY
290
     0
  9
$LENSLENGTH
 40
50.0
  9
$CAMERAHEIGHT
 40
0.0
  9
$STEPSPERSEC
 40
2.0
  9
$STEPSIZE
 40
6.0
  9
$3DDWFPREC
 40
2.0
  9
$PSOLWIDTH
 40
0.25
  9
$PSOLHEIGHT
 40
4.0
  9
$LOFTANG1
 40
1.570796326794896
  9
$LOFTANG2
 40
1.570796326794896
  9
$LOFTMAG1
 40
0.0
  9
$LOFTMAG2
 40
0.0
  9
$LOFTPARAM
 70
     7
  9
$LOFTNORMALS
280
     1
  9
$LATITUDE
 40
37.795
  9
$LONGITUDE
 40
-122.394
  9
$NORTHDIRECTION
 40
0.0
  9
$TIMEZONE
 70
 -8000
  9
$LIGHTGLYPHDISPLAY
280
     1
  9
$TILEMODELIGHTSYNCH
280
     1
  9
$CMATERIAL
347
11
  9
$SOLIDHIST
280
     0
  9
$SHOWHIST
280
     1
  9
$DWFFRAME
280
     2
  9
$DGNFRAME
280
     0
  9
$REALWORLDSCALE
290
     1
  9
$INTERFERECOLOR
 62
     1
  9
$INTERFEREOBJVS
345
33
  9
$INTERFEREVPVS
346
30
  9
$CSHADOW
280
     0
  9
$SHADOWPLANELOCATION
 40
0.0
  0
ENDSEC
  0
SECTION
  2
CLASSES
  0
CLASS
  1
ACDBDICTIONARYWDFLT
  2
AcDbDictionaryWithDefault
  3
ObjectDBX Classes
 90
        0
 91
        1
280
     0
281
     0
  0
CLASS
  1
MATERIAL
  2
AcDbMaterial
  3
ObjectDBX Classes
 90
     1153
 91
        3
280
     0
281
     0
  0
CLASS
  1
VISUALSTYLE
  2
AcDbVisualStyle
  3
ObjectDBX Classes
 90
     4095
 91
       24
280
     0
281
     0
  0
CLASS
  1
SCALE
  2
AcDbScale
  3
ObjectDBX Classes
 90
     1153
 91
       17
280
     0
281
     0
  0
CLASS
  1
TABLESTYLE
  2
AcDbTableStyle
  3
ObjectDBX Classes
 90
     4095
 91
        1
280
     0
281
     0
  0
CLASS
  1
MLEADERSTYLE
  2
AcDbMLeaderStyle
  3
ACDB_MLEADERSTYLE_CLASS
 90
     4095
 91
        1
280
     0
281
     0
  0
CLASS
  1
ACDBSECTIONVIEWSTYLE
  2
AcDbSectionViewStyle
  3
ObjectDBX Classes
 90
     1025
 91
        1
280
     0
281
     0
  0
CLASS
  1
ACDBDETAILVIEWSTYLE
  2
AcDbDetailViewStyle
  3
ObjectDBX Classes
 90
     1025
 91
        1
280
     0
281
     0
  0
CLASS
  1
DICTIONARYVAR
  2
AcDbDictionaryVar
  3
ObjectDBX Classes
 90
        0
 91
        5
280
     0
281
     0
  0
CLASS
  1
CELLSTYLEMAP
  2
AcDbCellStyleMap
  3
ObjectDBX Classes
 90
     1152
 91
        1
280
     0
281
     0
  0
ENDSEC
  0
SECTION
  2
TABLES
  0
TABLE
  2
VPORT
  5
8
330
0
100
AcDbSymbolTable
 70
     1
  0
VPORT
  5
57
330
8
100
AcDbSymbolTableRecord
100
AcDbViewportTableRecord
  2
*Active
 70
     0
 10
0.0
 20
0.0
 11
1.0
 21
1.0
 12
0.0
 22
0.0
 13
0.0
 23
0.0
 14
1.0
 24
1.0
 15
0.0
 25
0.0
 16
0.0
 26
0.0
 36
1.0
 17
338.666666582
 27
190.499999952375
 37
0.0
 40
388.619999902845
 41
1.777777777777777
 42
50.0
 43
0.0
 44
0.0
 50
0.0
 51
0.0
 71
     0
 72
   100
 73
     1
 74
     1
 75
     0
 76
     0
 77
     0
 78
     0
281
     0
 65
     1
110
0.0
120
0.0
130
0.0
111
1.0
121
0.0
131
0.0
112
0.0
122
1.0
132
0.0
 79
     0
146
0.0
 60
     3
 61
     5
292
     1
282
     1
141
0.0
142
0.0
 63
   250
421
  3355443
  0
ENDTAB
  0
TABLE
  2
LTYPE
  5
5
330
0
100
AcDbSymbolTable
 70
     1
  0
LTYPE
  5
5B
330
5
100
AcDbSymbolTableRecord
100
AcDbLinetypeTableRecord
  2
ByBlock
 70
     0
  3

 72
    65
 73
     0
 40
0.0
  0
LTYPE
  5
5C
330
5
100
AcDbSymbolTableRecord
100
AcDbLinetypeTableRecord
  2
ByLayer
 70
     0
  3

 72
    65
 73
     0
 40
0.0
  0
LTYPE
  5
5D
330
5
100
AcDbSymbolTableRecord
100
AcDbLinetypeTableRecord
  2
Continuous
 70
     0
  3
Solid line
 72
    65
 73
     0
 40
0.0
  0
ENDTAB
  0
TABLE
  2
LAYER
  5
2
330
0
100
AcDbSymbolTable
 70
     5
  0
LAYER
  5
54
330
2
100
AcDbSymbolTableRecord
100
AcDbLayerTableRecord
  2
0
 70
     0
 62
     7
  6
Continuous
370
    -3
390
F
347
21
348
0
  0
LAYER
  5
78
330
2
100
AcDbSymbolTableRecord
100
AcDbLayerTableRecord
  2
FLAME
 70
     0
 62
     7
  6
Continuous
370
     0
390
F
347
21
348
0
  0
LAYER
  5
81
330
2
100
AcDbSymbolTableRecord
100
AcDbLayerTableRecord
  2
Defpoints
 70
     0
 62
     7
  6
Continuous
290
     0
370
     0
390
F
347
21
348
0
  0
LAYER
  5
83
330
2
100
AcDbSymbolTableRecord
100
AcDbLayerTableRecord
  2
text
 70
     0
 62
     7
  6
Continuous
370
     0
390
F
347
21
348
0
  0
LAYER
  5
87
330
2
100
AcDbSymbolTableRecord
100
AcDbLayerTableRecord
  2
shade
 70
     0
 62
     7
  6
Continuous
370
     0
390
F
347
21
348
0
  0
ENDTAB
  0
TABLE
  2
STYLE
  5
3
330
0
100
AcDbSymbolTable
 70
     2
  0
STYLE
  5
55
330
3
100
AcDbSymbolTableRecord
100
AcDbTextStyleTableRecord
  2
Standard
 70
     0
 40
0.0
 41
1.0
 50
0.0
 71
     0
 42
0.2
  3
txt
  4

  0
STYLE
  5
5A
330
3
100
AcDbSymbolTableRecord
100
AcDbTextStyleTableRecord
  2
Annotative
 70
     0
 40
0.0
 41
1.0
 50
0.0
 71
     0
 42
0.2
  3
txt
  4

1001
AcadAnnotative
1000
AnnotativeData
1002
{
1070
     1
1070
     1
1002
}
  0
ENDTAB
  0
TABLE
  2
VIEW
  5
6
330
0
100
AcDbSymbolTable
 70
     0
  0
ENDTAB
  0
TABLE
  2
UCS
  5
7
330
0
100
AcDbSymbolTable
 70
     0
  0
ENDTAB
  0
TABLE
  2
APPID
  5
9
330
0
100
AcDbSymbolTable
 70
     2
  0
APPID
  5
56
330
9
100
AcDbSymbolTableRecord
100
AcDbRegAppTableRecord
  2
ACAD
 70
     0
  0
APPID
  5
5E
330
9
100
AcDbSymbolTableRecord
100
AcDbRegAppTableRecord
  2
AcadAnnotative
 70
     0
  0
ENDTAB
  0
TABLE
  2
DIMSTYLE
  5
A
330
0
100
AcDbSymbolTable
 70
     2
100
AcDbDimStyleTable
 71
     0
  0
DIMSTYLE
105
58
330
A
100
AcDbSymbolTableRecord
100
AcDbDimStyleTableRecord
  2
Standard
 70
     0
340
55
  0
DIMSTYLE
105
59
330
A
100
AcDbSymbolTableRecord
100
AcDbDimStyleTableRecord
  2
Annotative
 70
     0
340
55
1001
AcadAnnotative
1000
AnnotativeData
1002
{
1070
     1
1070
     1
1002
}
  0
ENDTAB
  0
TABLE
  2
BLOCK_RECORD
  5
1
330
0
100
AcDbSymbolTable
 70
     1
  0
BLOCK_RECORD
  5
70
330
1
100
AcDbSymbolTableRecord
100
AcDbBlockTableRecord
  2
*Model_Space
340
73
 70
     0
280
     1
281
     0
  0
BLOCK_RECORD
  5
6C
330
1
100
AcDbSymbolTableRecord
100
AcDbBlockTableRecord
  2
*Paper_Space
340
6F
 70
     0
280
     1
281
     0
  0
BLOCK_RECORD
  5
74
330
1
100
AcDbSymbolTableRecord
100
AcDbBlockTableRecord
  2
*Paper_Space0
340
77
 70
     0
280
     1
281
     0
  0
ENDTAB
  0
ENDSEC
  0
SECTION
  2
BLOCKS
  0
BLOCK
  5
71
330
70
100
AcDbEntity
  8
0
100
AcDbBlockBegin
  2
*Model_Space
 70
     0
 10
0.0
 20
0.0
 30
0.0
  3
*Model_Space
  1

  0
ENDBLK
  5
72
330
70
100
AcDbEntity
  8
0
100
AcDbBlockEnd
  0
BLOCK
  5
6D
330
6C
100
AcDbEntity
 67
     1
  8
0
100
AcDbBlockBegin
  2
*Paper_Space
 70
     0
 10
0.0
 20
0.0
 30
0.0
  3
*Paper_Space
  1

  0
ENDBLK
  5
6E
330
6C
100
AcDbEntity
 67
     1
  8
0
100
AcDbBlockEnd
  0
BLOCK
  5
75
330
74
100
AcDbEntity
 67
     1
  8
0
100
AcDbBlockBegin
  2
*Paper_Space0
 70
     0
 10
0.0
 20
0.0
 30
0.0
  3
*Paper_Space0
  1

  0
ENDBLK
  5
76
330
74
100
AcDbEntity
 67
     1
  8
0
100
AcDbBlockEnd
  0
ENDSEC
  0
SECTION
  2
ENTITIES
  0
LINE
  5
79
330
70
100
AcDbEntity
  8
FLAME
 62
     2
420
 16776960
370
    25
100
AcDbLine
 10
399.464538907226
 20
266.8611060321881
 30
0.0
 11
399.464538907226
 21
124.9994039399938
 31
0.0
  0
LINE
  5
7A
330
70
100
AcDbEntity
  8
FLAME
 62
     2
420
 16776960
370
    25
100
AcDbLine
 10
277.868794256774
 20
124.9994039399938
 30
0.0
 11
277.868794256774
 21
266.8611060321881
 31
0.0
  0
LINE
  5
7B
330
70
100
AcDbEntity
  8
FLAME
 62
     2
420
 16776960
370
    25
100
AcDbLine
 10
399.464538907226
 20
124.9994039399938
 30
0.0
 11
277.868794256774
 21
124.9994039399938
 31
0.0
  0
LINE
  5
7C
330
70
100
AcDbEntity
  8
FLAME
 62
     2
420
 16776960
370
    25
100
AcDbLine
 10
399.464538907226
 20
131.7547230872413
 30
0.0
 11
277.868794256774
 21
131.7547230872413
 31
0.0
  0
LINE
  5
7D
330
70
100
AcDbEntity
  8
FLAME
 62
     2
420
 16776960
370
    25
100
AcDbLine
 10
399.464538907226
 20
138.5100422344889
 30
0.0
 11
277.868794256774
 21
138.5100422344889
 31
0.0
  0
LINE
  5
7E
330
70
100
AcDbEntity
  8
FLAME
 62
     2
420
 16776960
370
    25
100
AcDbLine
 10
399.464538907226
 20
266.8611060321881
 30
0.0
 11
277.868794256774
 21
266.8611060321881
 31
0.0
  0
LINE
  5
7F
330
70
100
AcDbEntity
  8
FLAME
 62
     2
420
 16776960
370
    25
100
AcDbLine
 10
399.464538907226
 20
138.5100422344889
 30
0.0
 11
277.868794256774
 21
138.5100422344889
 31
0.0
  0
LINE
  5
80
330
70
100
AcDbEntity
  8
FLAME
 62
     2
420
 16776960
370
    25
100
AcDbLine
 10
400.2853296689456
 20
146.071638346409
 30
0.0
 11
278.6895850184937
 21
146.071638346409
 31
0.0
  0
LWPOLYLINE
  5
82
330
70
100
AcDbEntity
  8
Defpoints
 62
    18
420
        0
370
     0
100
AcDbPolyline
 90
        4
 70
     1
 43
0.0
 10
206.937943210677
 20
380.9999999047501
 10
470.395389953323
 20
380.9999999047501
 10
470.395389953323
 20
0.0
 10
206.937943210677
 20
0.0
  0
MTEXT
  5
84
330
70
100
AcDbEntity
  8
text
100
AcDbMText
 10
281.8453717692739
 20
133.2945769930435
 30
0.0
 40
0.2
 41
0.0
 46
0.0
 71
     7
 72
     1
  1
\C4;\c16776960;\FMS PMincho|b0|i0|c128;\H3.377660;\W1.000000;KP101B
 73
     1
 44
1.0
  0
MTEXT
  5
85
330
70
100
AcDbEntity
  8
text
100
AcDbMText
 10
281.9022804403209
 20
141.0556019748272
 30
0.0
 40
0.2
 41
0.0
 46
0.0
 71
     7
 72
     1
  1
\C4;\c16776960;\FMS PMincho|b0|i0|c128;\H3.377660;\W1.000000;ペンダント 101B (M)
 73
     1
 44
1.0
  0
MTEXT
  5
86
330
70
100
AcDbEntity
  8
text
100
AcDbMText
 10
281.6111052762769
 20
127.2847263441825
 30
0.0
 40
0.2
 41
0.0
 46
0.0
 71
     7
 72
     1
  1
\C4;\c16776960;\FMS PMincho|b0|i0|c128;\H3.377660;\W0.842190;E26 LED電球(100W形相当　電球色　全方向/広配光タイプ）
 73
     1
 44
1.0
  0
LINE
  5
88
330
70
100
AcDbEntity
  8
shade
 62
     6
420
 16711935
370
    25
100
AcDbLine
 10
339.9735946292337
 20
223.4012345479744
 30
0.0
 11
339.9735946292337
 21
238.1370668995979
 31
0.0
  0
LINE
  5
89
330
70
100
AcDbEntity
  8
shade
 62
     6
420
 16711935
370
    25
100
AcDbLine
 10
339.9735946292337
 20
213.5795815895949
 30
0.0
 11
339.9735946292337
 21
222.8511699767485
 31
0.0
  0
LINE
  5
8A
330
70
100
AcDbEntity
  8
shade
 62
     6
420
 16711935
370
    25
100
AcDbLine
 10
339.9735946292337
 20
205.6465993839716
 30
0.0
 11
339.9735946292337
 21
213.3105457820469
 31
0.0
  0
LINE
  5
8B
330
70
100
AcDbEntity
  8
shade
 62
     6
420
 16711935
370
    25
100
AcDbLine
 10
338.9556929308889
 20
213.5606568601736
 30
0.0
 11
339.7299206625429
 21
213.6478750426409
 31
0.0
  0
LINE
  5
8C
330
70
100
AcDbEntity
  8
shade
 62
     6
420
 16711935
370
    25
100
AcDbLine
 10
339.8062254813894
 20
213.6478750426409
 30
0.0
 11
340.8167582341148
 21
213.4926558266411
 31
0.0
  0
LINE
  5
8D
330
70
100
AcDbEntity
  8
shade
 62
     6
420
 16711935
370
    25
100
AcDbLine
 10
339.4874573437196
 20
213.5843936581208
 30
0.0
 11
340.7983655794128
 21
213.3971338588627
 31
0.0
  0
LINE
  5
8E
330
70
100
AcDbEntity
  8
shade
 62
     6
420
 16711935
370
    25
100
AcDbLine
 10
339.8062254813894
 20
213.6478750426409
 30
0.0
 11
339.7299206625429
 21
213.6478750426409
 31
0.0
  0
LINE
  5
8F
330
70
100
AcDbEntity
  8
shade
 62
     6
420
 16711935
370
    25
100
AcDbLine
 10
338.8685634749574
 20
213.5388301329226
 30
0.0
 11
338.9556929308889
 21
213.5606568601736
 31
0.0
  0
SPLINE
  5
90
330
70
100
AcDbEntity
  8
shade
 62
     6
420
 16711935
370
    25
100
AcDbSpline
210
0.0
220
0.0
230
1.0
 70
     8
 71
     3
 72
    11
 73
     7
 74
     0
 42
0.0000000001
 43
0.0000000001
 40
0.0
 40
0.0
 40
0.0
 40
0.0
 40
1.0
 40
1.0
 40
1.0
 40
2.0
 40
2.0
 40
2.0
 40
2.0
 10
336.2165094615841
 20
201.885329100761
 30
0.0
 10
336.144876954475
 20
201.885329100761
 30
0.0
 10
336.0868073339569
 20
201.8272594802428
 30
0.0
 10
336.0868073339569
 20
201.7556269731338
 30
0.0
 10
336.0868073339569
 20
201.6839944660246
 30
0.0
 10
336.144876954475
 20
201.6259248455066
 30
0.0
 10
336.2165094615841
 20
201.6259248455066
 30
0.0
  0
LINE
  5
91
330
70
100
AcDbEntity
  8
shade
 62
     6
420
 16711935
370
    25
100
AcDbLine
 10
336.2165094615841
 20
201.8853291007603
 30
0.0
 11
339.6536158437003
 21
201.8853291007603
 31
0.0
  0
LINE
  5
92
330
70
100
AcDbEntity
  8
shade
 62
     6
420
 16711935
370
    25
100
AcDbLine
 10
336.2165094615841
 20
201.6259248455072
 30
0.0
 11
339.6536158437003
 21
201.6259248455072
 31
0.0
  0
SPLINE
  5
93
330
70
100
AcDbEntity
  8
shade
 62
     6
420
 16711935
370
    25
100
AcDbSpline
210
0.0
220
0.0
230
1.0
 70
     8
 71
     3
 72
    11
 73
     7
 74
     0
 42
0.0000000001
 43
0.0000000001
 40
0.0
 40
0.0
 40
0.0
 40
0.0
 40
1.0
 40
1.0
 40
1.0
 40
2.0
 40
2.0
 40
2.0
 40
2.0
 10
343.1608672540274
 20
201.6465292328796
 30
0.0
 10
346.17351816324
 20
203.5835307006257
 30
0.0
 10
347.0455043242344
 20
207.5960167467818
 30
0.0
 10
345.1085028564884
 20
210.6086676559946
 30
0.0
 10
344.1544168268505
 20
212.0925736790502
 30
0.0
 10
342.6369669587395
 20
213.1237478654915
 30
0.0
 10
340.906017829267
 20
213.4644417873478
 30
0.0
  0
SPLINE
  5
94
330
70
100
AcDbEntity
  8
shade
 62
     6
420
 16711935
370
    25
100
AcDbSpline
210
0.0
220
0.0
230
1.0
 70
     8
 71
     3
 72
    11
 73
     7
 74
     0
 42
0.0000000001
 43
0.0000000001
 40
0.0
 40
0.0
 40
0.0
 40
0.0
 40
1.0
 40
1.0
 40
1.0
 40
2.0
 40
2.0
 40
2.0
 40
2.0
 10
343.0524100210073
 20
201.88532910076
 30
0.0
 10
345.9331754049284
 20
203.7624312927006
 30
0.0
 10
346.7468051805483
 20
207.6194450390536
 30
0.0
 10
344.8697029886077
 20
210.5002104229745
 30
0.0
 10
344.0052968297152
 20
211.8268038023222
 30
0.0
 10
342.6679080311726
 20
212.7741984178625
 30
0.0
 10
341.12968873322
 20
213.1496040558956
 30
0.0
  0
SPLINE
  5
95
330
70
100
AcDbEntity
  8
shade
 62
     6
420
 16711935
370
    25
100
AcDbSpline
210
0.0
220
0.0
230
1.0
 70
     8
 71
     3
 72
    38
 73
    34
 74
     0
 42
0.0000000001
 43
0.0000000001
 40
0.0
 40
0.0
 40
0.0
 40
0.0
 40
1.0
 40
1.0
 40
1.0
 40
2.0
 40
2.0
 40
2.0
 40
3.0
 40
3.0
 40
3.0
 40
4.0
 40
4.0
 40
4.0
 40
5.0
 40
5.0
 40
5.0
 40
6.0
 40
6.0
 40
6.0
 40
7.0
 40
7.0
 40
7.0
 40
8.0
 40
8.0
 40
8.0
 40
9.0
 40
9.0
 40
9.0
 40
10.0
 40
10.0
 40
10.0
 40
11.0
 40
11.0
 40
11.0
 40
11.0
 10
340.7983655794128
 20
213.3971338588627
 30
0.0
 10
340.814879422765
 20
213.3939541356463
 30
0.0
 10
340.831393266121
 20
213.3907744124304
 30
0.0
 10
340.8469089007519
 20
213.3846786527026
 30
0.0
 10
340.8591911839388
 20
213.3798532073377
 30
0.0
 10
340.870847948154
 20
213.373200452598
 30
0.0
 10
340.8814458308659
 20
213.3651577791599
 30
0.0
 10
340.8922243723179
 20
213.3569780048219
 30
0.0
 10
340.9019076237338
 20
213.3473605208846
 30
0.0
 10
340.909976338353
 20
213.3366272716727
 30
0.0
 10
340.9191775041463
 20
213.3243876015187
 30
0.0
 10
340.9262791260903
 20
213.3106969900642
 30
0.0
 10
340.9335014936492
 20
213.2970849893681
 30
0.0
 10
340.9467498674975
 20
213.2721157708166
 30
0.0
 10
340.9604045324786
 20
213.2474110658376
 30
0.0
 10
340.9700405646387
 20
213.2210036360727
 30
0.0
 10
340.9778230294523
 20
213.1996758852366
 30
0.0
 10
340.9829841975884
 20
213.1772374713906
 30
0.0
 10
340.9925135744728
 20
213.1566491079105
 30
0.0
 10
341.0028241288824
 20
213.1343729985216
 30
0.0
 10
341.018248420594
 20
213.1142626902905
 30
0.0
 10
341.0364380936951
 20
213.0974020819826
 30
0.0
 10
341.0548152225775
 20
213.0803677147241
 30
0.0
 10
341.0760150244652
 20
213.0666503728428
 30
0.0
 10
341.0987496209651
 20
213.0565420641
 30
0.0
 10
341.1244503283811
 20
213.0451149562795
 30
0.0
 10
341.1521124346624
 20
213.0383000313839
 30
0.0
 10
341.1804696567277
 20
213.0361120551592
 30
0.0
 10
341.2195936774214
 20
213.0330933382027
 30
0.0
 10
341.2600408714527
 20
213.038882154128
 30
0.0
 10
341.2948777067959
 20
213.0565420641006
 30
0.0
 10
341.3131173717705
 20
213.0657883357041
 30
0.0
 10
341.3298190699819
 20
213.0782888284922
 30
0.0
 10
341.3433695984135
 20
213.0934191838665
 30
0.0
  0
SPLINE
  5
96
330
70
100
AcDbEntity
  8
shade
 62
     6
420
 16711935
370
    25
100
AcDbSpline
210
0.0
220
0.0
230
1.0
 70
     8
 71
     3
 72
   182
 73
   178
 74
     0
 42
0.0000000001
 43
0.0000000001
 40
0.0
 40
0.0
 40
0.0
 40
0.0
 40
1.0
 40
1.0
 40
1.0
 40
2.0
 40
2.0
 40
2.0
 40
3.0
 40
3.0
 40
3.0
 40
4.0
 40
4.0
 40
4.0
 40
5.0
 40
5.0
 40
5.0
 40
6.0
 40
6.0
 40
6.0
 40
7.0
 40
7.0
 40
7.0
 40
8.0
 40
8.0
 40
8.0
 40
9.0
 40
9.0
 40
9.0
 40
10.0
 40
10.0
 40
10.0
 40
11.0
 40
11.0
 40
11.0
 40
12.0
 40
12.0
 40
12.0
 40
13.0
 40
13.0
 40
13.0
 40
14.0
 40
14.0
 40
14.0
 40
15.0
 40
15.0
 40
15.0
 40
16.0
 40
16.0
 40
16.0
 40
17.0
 40
17.0
 40
17.0
 40
18.0
 40
18.0
 40
18.0
 40
19.0
 40
19.0
 40
19.0
 40
20.0
 40
20.0
 40
20.0
 40
21.0
 40
21.0
 40
21.0
 40
22.0
 40
22.0
 40
22.0
 40
23.0
 40
23.0
 40
23.0
 40
24.0
 40
24.0
 40
24.0
 40
25.0
 40
25.0
 40
25.0
 40
26.0
 40
26.0
 40
26.0
 40
27.0
 40
27.0
 40
27.0
 40
28.0
 40
28.0
 40
28.0
 40
29.0
 40
29.0
 40
29.0
 40
30.0
 40
30.0
 40
30.0
 40
31.0
 40
31.0
 40
31.0
 40
32.0
 40
32.0
 40
32.0
 40
33.0
 40
33.0
 40
33.0
 40
34.0
 40
34.0
 40
34.0
 40
35.0
 40
35.0
 40
35.0
 40
36.0
 40
36.0
 40
36.0
 40
37.0
 40
37.0
 40
37.0
 40
38.0
 40
38.0
 40
38.0
 40
39.0
 40
39.0
 40
39.0
 40
40.0
 40
40.0
 40
40.0
 40
41.0
 40
41.0
 40
41.0
 40
42.0
 40
42.0
 40
42.0
 40
43.0
 40
43.0
 40
43.0
 40
44.0
 40
44.0
 40
44.0
 40
45.0
 40
45.0
 40
45.0
 40
46.0
 40
46.0
 40
46.0
 40
47.0
 40
47.0
 40
47.0
 40
48.0
 40
48.0
 40
48.0
 40
49.0
 40
49.0
 40
49.0
 40
50.0
 40
50.0
 40
50.0
 40
51.0
 40
51.0
 40
51.0
 40
52.0
 40
52.0
 40
52.0
 40
53.0
 40
53.0
 40
53.0
 40
54.0
 40
54.0
 40
54.0
 40
55.0
 40
55.0
 40
55.0
 40
56.0
 40
56.0
 40
56.0
 40
57.0
 40
57.0
 40
57.0
 40
58.0
 40
58.0
 40
58.0
 40
59.0
 40
59.0
 40
59.0
 40
59.0
 10
340.8167582341148
 20
213.4926558266411
 30
0.0
 10
340.8204204209746
 20
213.4919506764004
 30
0.0
 10
340.8246252191398
 20
213.4911419511482
 30
0.0
 10
340.8289095704445
 20
213.490275170893
 30
0.0
 10
340.8289137899487
 20
213.4902743172322
 30
0.0
 10
340.8289180095299
 20
213.4902734635151
 30
0.0
 10
340.8289222294365
 20
213.4902726096919
 30
0.0
 10
340.8315264230256
 20
213.4897456974009
 30
0.0
 10
340.8342545270244
 20
213.4891784237789
 30
0.0
 10
340.8370648542369
 20
213.4885665030314
 30
0.0
 10
340.8370768000953
 20
213.4885639019396
 30
0.0
 10
340.8370887474399
 20
213.4885613000412
 30
0.0
 10
340.8371006969566
 20
213.4885586971867
 30
0.0
 10
340.8410697198951
 20
213.4876941609788
 30
0.0
 10
340.8452783625416
 20
213.4867241365716
 30
0.0
 10
340.8496439944433
 20
213.4856226102414
 30
0.0
 10
340.8496536304182
 20
213.485620178914
 30
0.0
 10
340.8496632671585
 20
213.4856177469462
 30
0.0
 10
340.8496729050116
 20
213.4856153142501
 30
0.0
 10
340.8561104877417
 20
213.4839904003656
 30
0.0
 10
340.8630447775323
 20
213.4820407107413
 30
0.0
 10
340.8702696596852
 20
213.479637764586
 30
0.0
 10
340.8702788766555
 20
213.479634699085
 30
0.0
 10
340.8702880940982
 20
213.4796316328465
 30
0.0
 10
340.8702973117442
 20
213.4796285659643
 30
0.0
 10
340.8758389003593
 20
213.4777847764202
 30
0.0
 10
340.8814540883653
 20
213.4757082927267
 30
0.0
 10
340.8872223543483
 20
213.4732948343633
 30
0.0
 10
340.8872258772029
 20
213.4732933603912
 30
0.0
 10
340.8872294001146
 20
213.4732918862936
 30
0.0
 10
340.8872329229762
 20
213.4732904121158
 30
0.0
 10
340.893166895395
 20
213.4708072798225
 30
0.0
 10
340.8989569832105
 20
213.4680972766505
 30
0.0
 10
340.9045914339231
 20
213.4651850879292
 30
0.0
 10
340.9046159129101
 20
213.4651724358656
 30
0.0
 10
340.9046403889593
 20
213.4651597799855
 30
0.0
 10
340.904664862572
 20
213.4651471200239
 30
0.0
 10
340.9207473814074
 20
213.4568277895775
 30
0.0
 10
340.9357776575728
 20
213.4467459107203
 30
0.0
 10
340.9494036560295
 20
213.4353565165265
 30
0.0
 10
340.9494089443984
 20
213.4353520962032
 30
0.0
 10
340.9494142325554
 20
213.4353476756829
 30
0.0
 10
340.9494195205592
 20
213.4353432549168
 30
0.0
 10
340.9629552671153
 20
213.4240273828748
 30
0.0
 10
340.9754828758818
 20
213.4110997046883
 30
0.0
 10
340.986503835139
 20
213.3966997487386
 30
0.0
 10
340.986505098253
 20
213.3966980983571
 30
0.0
 10
340.9865063613478
 20
213.3966964479562
 30
0.0
 10
340.9865076244001
 20
213.3966947975641
 30
0.0
 10
340.9915157588319
 20
213.3901508219591
 30
0.0
 10
340.9958678501325
 20
213.3837451137586
 30
0.0
 10
340.9996914649061
 20
213.3776910285358
 30
0.0
 10
340.9996948869042
 20
213.3776856103464
 30
0.0
 10
340.9996983084794
 20
213.3776801924387
 30
0.0
 10
340.9997017297119
 20
213.3776747746806
 30
0.0
 10
341.0045897011666
 20
213.3699343340787
 30
0.0
 10
341.008778694427
 20
213.3624992881848
 30
0.0
 10
341.0122537890908
 20
213.3561155641871
 30
0.0
 10
341.0122551435192
 20
213.3561130761123
 30
0.0
 10
341.0122564978385
 20
213.3561105881971
 30
0.0
 10
341.0122578521052
 20
213.3561081003395
 30
0.0
 10
341.0139383131635
 20
213.3530210057138
 30
0.0
 10
341.0155364546684
 20
213.350022252419
 30
0.0
 10
341.0169805355536
 20
213.3473013383275
 30
0.0
 10
341.0169806388787
 20
213.347301143644
 30
0.0
 10
341.0169807422031
 20
213.3473009489621
 30
0.0
 10
341.0169808455205
 20
213.3473007542928
 30
0.0
 10
341.0188613967026
 20
213.3437574483924
 30
0.0
 10
341.0185766860486
 20
213.3442883901491
 30
0.0
 10
341.0197371337836
 20
213.3421026772386
 30
0.0
 10
341.0197372207935
 20
213.3421025133544
 30
0.0
 10
341.0197373078117
 20
213.3421023494549
 30
0.0
 10
341.01973739483
 20
213.3421021855553
 30
0.0
 10
341.0205956549322
 20
213.3404856462639
 30
0.0
 10
341.021462315199
 20
213.3388574004638
 30
0.0
 10
341.0223462788611
 20
213.3371978211318
 30
0.0
 10
341.0223522843093
 20
213.3371865463267
 30
0.0
 10
341.0223582905565
 20
213.3371752700751
 30
0.0
 10
341.022364298039
 20
213.3371639915625
 30
0.0
 10
341.0244857652515
 20
213.3331811257005
 30
0.0
 10
341.0267612277384
 20
213.328916272484
 30
0.0
 10
341.0290200852578
 20
213.3246424263085
 30
0.0
 10
341.0290218198216
 20
213.3246391444469
 30
0.0
 10
341.0290235543752
 20
213.3246358625799
 30
0.0
 10
341.0290252889749
 20
213.3246325806018
 30
0.0
 10
341.0327547618606
 20
213.3175761716683
 30
0.0
 10
341.0366988000442
 20
213.3100060255493
 30
0.0
 10
341.0406043749254
 20
213.3021385120432
 30
0.0
 10
341.040607532573
 20
213.3021321511777
 30
0.0
 10
341.0406106901955
 20
213.3021257901181
 30
0.0
 10
341.0406138478611
 20
213.3021194287277
 30
0.0
 10
341.0447633155492
 20
213.2937599675676
 30
0.0
 10
341.0489873486521
 20
213.2848294146899
 30
0.0
 10
341.0530357752385
 20
213.275415584406
 30
0.0
 10
341.0530471415721
 20
213.2753891542031
 30
0.0
 10
341.0530585065215
 20
213.2753627201909
 30
0.0
 10
341.053069870418
 20
213.2753362815946
 30
0.0
 10
341.0549983376979
 20
213.2708496190677
 30
0.0
 10
341.0568964795736
 20
213.2662309416645
 30
0.0
 10
341.0587373675735
 20
213.2614844673815
 30
0.0
 10
341.0587381332283
 20
213.2614824932479
 30
0.0
 10
341.0587388988728
 20
213.261480519092
 30
0.0
 10
341.0587396644794
 20
213.2614785449867
 30
0.0
 10
341.0607360355509
 20
213.2563309317411
 30
0.0
 10
341.0624749336579
 20
213.2515259143826
 30
0.0
 10
341.064186809119
 20
213.2465206654452
 30
0.0
 10
341.0641877849354
 20
213.2465178123159
 30
0.0
 10
341.0641887607421
 20
213.2465149591217
 30
0.0
 10
341.0641897364897
 20
213.2465121060103
 30
0.0
 10
341.0651254465879
 20
213.2437760650415
 30
0.0
 10
341.0660061381245
 20
213.2411165997635
 30
0.0
 10
341.0668324647452
 20
213.2385721768783
 30
0.0
 10
341.066834049652
 20
213.238567296638
 30
0.0
 10
341.0668356343586
 20
213.238562416821
 30
0.0
 10
341.0668372189568
 20
213.2385575371426
 30
0.0
 10
341.0681941388772
 20
213.2343789811585
 30
0.0
 10
341.0694717463365
 20
213.2303019915583
 30
0.0
 10
341.070596513391
 20
213.226705931354
 30
0.0
 10
341.0706046079687
 20
213.2266800516927
 30
0.0
 10
341.0706126946312
 20
213.22665419694
 30
0.0
 10
341.0706207730612
 20
213.226628368202
 30
0.0
 10
341.0719069962707
 20
213.2225159946593
 30
0.0
 10
341.0729845351621
 20
213.2190631005293
 30
0.0
 10
341.0740759507273
 20
213.215683413774
 30
0.0
 10
341.0740765641422
 20
213.2156815142681
 30
0.0
 10
341.0740771775615
 20
213.2156796147854
 30
0.0
 10
341.0740777909476
 20
213.2156777154436
 30
0.0
 10
341.0749403175906
 20
213.2130069129045
 30
0.0
 10
341.0757369757889
 20
213.2106149207975
 30
0.0
 10
341.0765075753002
 20
213.2084059514144
 30
0.0
 10
341.0765091865757
 20
213.2084013325985
 30
0.0
 10
341.0765107977363
 20
213.2083967145828
 30
0.0
 10
341.076512408655
 20
213.2083920977379
 30
0.0
 10
341.0773388326126
 20
213.2060235916191
 30
0.0
 10
341.0781015277855
 20
213.2039631500468
 30
0.0
 10
341.0788249727487
 20
213.202134054596
 30
0.0
 10
341.0788264041085
 20
213.2021304356701
 30
0.0
 10
341.0788278353149
 20
213.2021268176499
 30
0.0
 10
341.0788292662357
 20
213.2021232008567
 30
0.0
 10
341.0797188862945
 20
213.1998745990593
 30
0.0
 10
341.0804983054272
 20
213.1981003470307
 30
0.0
 10
341.0812433326683
 20
213.1965554210358
 30
0.0
 10
341.0812436888979
 20
213.1965546823397
 30
0.0
 10
341.0812440451199
 20
213.1965539436964
 30
0.0
 10
341.0812444013623
 20
213.1965532050453
 30
0.0
 10
341.0829863146475
 20
213.1929414307888
 30
0.0
 10
341.0852133246904
 20
213.189146133187
 30
0.0
 10
341.0879727293707
 20
213.185246200557
 30
0.0
 10
341.08797552092
 20
213.1852422551936
 30
0.0
 10
341.0879783130142
 20
213.1852383097235
 30
0.0
 10
341.0879811055645
 20
213.1852343642725
 30
0.0
 10
341.0928594515323
 20
213.178342000468
 30
0.0
 10
341.0991313579993
 20
213.1715083114188
 30
0.0
 10
341.1065232004056
 20
213.1652357429911
 30
0.0
 10
341.1065287152185
 20
213.1652310632317
 30
0.0
 10
341.1065342306545
 20
213.1652263837852
 30
0.0
 10
341.1065397466006
 20
213.1652217047485
 30
0.0
 10
341.1134817594317
 20
213.1593329721655
 30
0.0
 10
341.1212313030401
 20
213.1540939333443
 30
0.0
 10
341.129626352355
 20
213.1496371520867
 30
0.0
 10
341.1296433924953
 20
213.1496281057816
 30
0.0
 10
341.1296604352947
 20
213.1496190626995
 30
0.0
 10
341.1296774804037
 20
213.1496100230245
 30
0.0
 10
341.1380519868487
 20
213.1451687009156
 30
0.0
 10
341.1469838724948
 20
213.141549787819
 30
0.0
 10
341.1563829986249
 20
213.1388068168846
 30
0.0
 10
341.1569737986125
 20
213.1386344022185
 30
0.0
 10
341.1575664446629
 20
213.1384654483916
 30
0.0
 10
341.1581608922693
 20
213.1382999776936
 30
0.0
 10
341.1670470772969
 20
213.1358264153096
 30
0.0
 10
341.176335841412
 20
213.1341311996547
 30
0.0
 10
341.1859150636725
 20
213.1332705353779
 30
0.0
 10
341.1859188945587
 20
213.1332701911844
 30
0.0
 10
341.1859227254917
 20
213.1332698471243
 30
0.0
 10
341.1859265563958
 20
213.1332695032028
 30
0.0
 10
341.1898226676151
 20
213.1329197280076
 30
0.0
 10
341.1936894179185
 20
213.1327136290086
 30
0.0
 10
341.197504910939
 20
213.1326494123598
 30
0.0
  0
SPLINE
  5
97
330
70
100
AcDbEntity
  8
shade
 62
     6
420
 16711935
370
    25
100
AcDbSpline
210
0.0
220
0.0
230
1.0
 70
     8
 71
     3
 72
    11
 73
     7
 74
     0
 42
0.0000000001
 43
0.0000000001
 40
0.0
 40
0.0
 40
0.0
 40
0.0
 40
1.0
 40
1.0
 40
1.0
 40
2.0
 40
2.0
 40
2.0
 40
2.0
 10
340.9821830334732
 20
213.183708263092
 30
0.0
 10
337.6230259082323
 20
213.9174556611291
 30
0.0
 10
334.3050712243132
 20
211.7891405606812
 30
0.0
 10
333.5713238262764
 20
208.42998343544
 30
0.0
 10
333.0193030010208
 20
205.9027858012137
 30
0.0
 10
334.0875329116306
 20
203.2975310436359
 30
0.0
 10
336.2548216663891
 20
201.8853291007632
 30
0.0
  0
SPLINE
  5
98
330
70
100
AcDbEntity
  8
shade
 62
     6
420
 16711935
370
    25
100
AcDbSpline
210
0.0
220
0.0
230
1.0
 70
     8
 71
     3
 72
    11
 73
     7
 74
     0
 42
0.0000000001
 43
0.0000000001
 40
0.0
 40
0.0
 40
0.0
 40
0.0
 40
1.0
 40
1.0
 40
1.0
 40
2.0
 40
2.0
 40
2.0
 40
2.0
 10
339.4874573437196
 20
213.5843936581231
 30
0.0
 10
335.9070077853232
 20
213.492626852529
 30
0.0
 10
333.0788716256511
 20
210.5157073040835
 30
0.0
 10
333.1706384312449
 20
206.9352577456871
 30
0.0
 10
333.2256628233059
 20
204.7883805717543
 30
0.0
 10
334.3399456123529
 20
202.8079767464214
 30
0.0
 10
336.1463644333785
 20
201.6465292328764
 30
0.0
  0
LINE
  5
99
330
70
100
AcDbEntity
  8
shade
 62
     6
420
 16711935
370
    25
100
AcDbLine
 10
323.7463071370078
 20
168.0815198790011
 30
0.0
 11
321.6486932425302
 21
177.5753654013709
 31
0.0
  0
LINE
  5
9A
330
70
100
AcDbEntity
  8
shade
 62
     6
420
 16711935
370
    25
100
AcDbLine
 10
323.7463071370078
 20
186.9727852966975
 30
0.0
 11
330.4013155595764
 21
194.0556005264409
 31
0.0
  0
LINE
  5
9B
330
70
100
AcDbEntity
  8
shade
 62
     6
420
 16711935
370
    25
100
AcDbLine
 10
330.4013155595764
 20
194.0556005264409
 30
0.0
 11
324.4189865527188
 21
186.9727852966975
 31
0.0
  0
LINE
  5
9C
330
70
100
AcDbEntity
  8
shade
 62
     6
420
 16711935
370
    25
100
AcDbLine
 10
337.6661255195182
 20
194.0556005264409
 30
0.0
 11
338.9025142574397
 21
196.0286596671042
 31
0.0
  0
LINE
  5
9D
330
70
100
AcDbEntity
  8
shade
 62
     6
420
 16711935
370
    25
100
AcDbLine
 10
336.1637503752804
 20
194.0556005264409
 30
0.0
 11
338.2186128739921
 21
196.0286596671042
 31
0.0
  0
LINE
  5
9E
330
70
100
AcDbEntity
  8
shade
 62
     6
420
 16711935
370
    25
100
AcDbLine
 10
334.7175763052394
 20
194.0556005264409
 30
0.0
 11
337.5458422227745
 21
196.0286596671042
 31
0.0
  0
LINE
  5
9F
330
70
100
AcDbEntity
  8
shade
 62
     6
420
 16711935
370
    25
100
AcDbLine
 10
333.3497735383485
 20
194.0556005264409
 30
0.0
 11
336.895697978054
 21
196.0286596671042
 31
0.0
  0
LINE
  5
A0
330
70
100
AcDbEntity
  8
shade
 62
     6
420
 16711935
370
    25
100
AcDbLine
 10
332.3183560970615
 20
194.0556005264409
 30
0.0
 11
336.2566844655541
 21
196.0286596671042
 31
0.0
  0
LINE
  5
A1
330
70
100
AcDbEntity
  8
shade
 62
     6
420
 16711935
370
    25
100
AcDbLine
 10
331.4102890653842
 20
194.0556005264409
 30
0.0
 11
335.965187010898
 21
196.0286596671042
 31
0.0
  0
LWPOLYLINE
  5
A2
330
70
100
AcDbEntity
  8
shade
 62
     6
420
 16711935
370
    25
100
AcDbPolyline
 90
        3
 70
     0
 43
0.0
 10
330.6367031755426
 20
194.0566216417821
 10
335.864280536767
 20
196.0286596671042
 10
330.4013155595764
 20
194.0556005264409
  0
LINE
  5
A3
330
70
100
AcDbEntity
  8
shade
 62
     6
420
 16711935
370
    25
100
AcDbLine
 10
339.1737806952952
 20
201.6185895066691
 30
0.0
 11
338.891201054191
 21
196.0286596671042
 31
0.0
  0
LINE
  5
A4
330
70
100
AcDbEntity
  8
shade
 62
     6
420
 16711935
370
    25
100
AcDbLine
 10
338.2186128739921
 20
196.0286596671042
 30
0.0
 11
338.646276402992
 21
201.6185895066691
 31
0.0
  0
LINE
  5
A5
330
70
100
AcDbEntity
  8
shade
 62
     6
420
 16711935
370
    25
100
AcDbLine
 10
337.5458422227745
 20
196.0286596671042
 30
0.0
 11
338.1520006977053
 21
201.6185895066691
 31
0.0
  0
LINE
  5
A6
330
70
100
AcDbEntity
  8
shade
 62
     6
420
 16711935
370
    25
100
AcDbLine
 10
337.6467587590355
 20
201.6185895066691
 30
0.0
 11
336.895697978054
 21
196.0286596671042
 31
0.0
  0
LINE
  5
A7
330
70
100
AcDbEntity
  8
shade
 62
     6
420
 16711935
370
    25
100
AcDbLine
 10
336.2566844655541
 20
196.0286596671042
 30
0.0
 11
337.253243890382
 21
201.6185895066691
 31
0.0
  0
LINE
  5
A8
330
70
100
AcDbEntity
  8
shade
 62
     6
420
 16711935
370
    25
100
AcDbLine
 10
336.9394118697559
 20
201.6185895066691
 30
0.0
 11
335.965187010898
 21
196.0286596671042
 31
0.0
  0
LWPOLYLINE
  5
A9
330
70
100
AcDbEntity
  8
shade
 62
     6
420
 16711935
370
    25
100
AcDbPolyline
 90
        3
 70
     0
 43
0.0
 10
336.7380906396742
 20
201.6185895066691
 10
335.864280536767
 20
196.0286596671042
 10
336.5261846357076
 20
201.6185895066691
  0
LINE
  5
AA
330
70
100
AcDbEntity
  8
shade
 62
     6
420
 16711935
370
    25
100
AcDbLine
 10
336.3253551238019
 20
201.6185895066691
 30
0.0
 11
335.864280536767
 21
196.0286596671042
 31
0.0
  0
LINE
  5
AB
330
70
100
AcDbEntity
  8
shade
 62
     6
420
 16711935
370
    25
100
AcDbLine
 10
337.6661255195182
 20
161.0951302762986
 30
0.0
 11
339.2740613960279
 21
158.9538328550751
 31
0.0
  0
LWPOLYLINE
  5
AC
330
70
100
AcDbEntity
  8
shade
 62
     6
420
 16711935
370
    25
100
AcDbPolyline
 90
        4
 70
     0
 43
0.0
 10
339.6536158437003
 20
161.0951302762986
 10
339.2740613960279
 20
158.9538328550751
 10
338.9090930129209
 20
158.9538328550751
 10
337.6661255195182
 20
161.0951302762986
  0
LINE
  5
AD
330
70
100
AcDbEntity
  8
shade
 62
     6
420
 16711935
370
    25
100
AcDbLine
 10
339.1741968780908
 20
201.8853291007603
 30
0.0
 11
338.94842979189
 21
204.8463806016986
 31
0.0
  0
LINE
  5
AE
330
70
100
AcDbEntity
  8
shade
 62
     6
420
 16711935
370
    25
100
AcDbLine
 10
338.6463793660217
 20
201.8853291007603
 30
0.0
 11
338.3316607698423
 21
204.8463806016986
 31
0.0
  0
LINE
  5
AF
330
70
100
AcDbEntity
  8
shade
 62
     6
420
 16711935
370
    25
100
AcDbLine
 10
338.1525214498529
 20
201.8853291007603
 30
0.0
 11
337.7981550002452
 21
204.8463806016986
 31
0.0
  0
LINE
  5
B0
330
70
100
AcDbEntity
  8
shade
 62
     6
420
 16711935
370
    25
100
AcDbLine
 10
337.6478018512713
 20
201.8853291007603
 30
0.0
 11
337.2771663954964
 21
204.8463806016986
 31
0.0
  0
LINE
  5
B1
330
70
100
AcDbEntity
  8
shade
 62
     6
420
 16711935
370
    25
100
AcDbLine
 10
337.2664051659798
 20
201.8853291007603
 30
0.0
 11
336.8771114359193
 21
204.8463806016986
 31
0.0
  0
LINE
  5
B2
330
70
100
AcDbEntity
  8
shade
 62
     6
420
 16711935
370
    25
100
AcDbLine
 10
336.9287573238587
 20
201.8853291007603
 30
0.0
 11
336.421830500269
 21
204.8463806016986
 31
0.0
  0
LINE
  5
B3
330
70
100
AcDbEntity
  8
shade
 62
     6
420
 16711935
370
    25
100
AcDbLine
 10
336.7130601250162
 20
201.8853291007603
 30
0.0
 11
335.9668687414083
 21
204.8463806016986
 31
0.0
  0
LINE
  5
B4
330
70
100
AcDbEntity
  8
shade
 62
     6
420
 16711935
370
    25
100
AcDbLine
 10
336.4744466325158
 20
201.8853291007603
 30
0.0
 11
335.4558733693086
 21
204.8463806016986
 31
0.0
  0
LINE
  5
B5
330
70
100
AcDbEntity
  8
shade
 62
     6
420
 16711935
370
    25
100
AcDbLine
 10
336.537837738922
 20
205.6465993839716
 30
0.0
 11
335.0787875248982
 21
204.8463806016986
 31
0.0
  0
LINE
  5
B6
330
70
100
AcDbEntity
  8
shade
 62
     6
420
 16711935
370
    25
100
AcDbLine
 10
335.0787875248982
 20
204.8463806016986
 30
0.0
 11
336.2548216663939
 21
201.8853291007603
 31
0.0
  0
LINE
  5
B7
330
70
100
AcDbEntity
  8
shade
 62
     6
420
 16711935
370
    25
100
AcDbLine
 10
339.2052336798373
 20
205.6465993839716
 30
0.0
 11
338.94842979189
 21
204.8463806016986
 31
0.0
  0
LINE
  5
B8
330
70
100
AcDbEntity
  8
shade
 62
     6
420
 16711935
370
    25
100
AcDbLine
 10
338.94842979189
 20
204.8463806016986
 30
0.0
 11
338.8553077983392
 21
205.6465993839716
 31
0.0
  0
LINE
  5
B9
330
70
100
AcDbEntity
  8
shade
 62
     6
420
 16711935
370
    25
100
AcDbLine
 10
338.8553077983392
 20
205.6465993839716
 30
0.0
 11
338.3316607698423
 21
204.8463806016986
 31
0.0
  0
LINE
  5
BA
330
70
100
AcDbEntity
  8
shade
 62
     6
420
 16711935
370
    25
100
AcDbLine
 10
338.3316607698423
 20
204.8463806016986
 30
0.0
 11
338.4603812292879
 21
205.6465993839716
 31
0.0
  0
LINE
  5
BB
330
70
100
AcDbEntity
  8
shade
 62
     6
420
 16711935
370
    25
100
AcDbLine
 10
338.4603812292879
 20
205.6465993839716
 30
0.0
 11
337.7981550002452
 21
204.8463806016986
 31
0.0
  0
LINE
  5
BC
330
70
100
AcDbEntity
  8
shade
 62
     6
420
 16711935
370
    25
100
AcDbLine
 10
337.7981550002452
 20
204.8463806016986
 30
0.0
 11
338.1334338237604
 21
205.6465993839716
 31
0.0
  0
LINE
  5
BD
330
70
100
AcDbEntity
  8
shade
 62
     6
420
 16711935
370
    25
100
AcDbLine
 10
338.1334338237604
 20
205.6465993839716
 30
0.0
 11
337.2771663954964
 21
204.8463806016986
 31
0.0
  0
LINE
  5
BE
330
70
100
AcDbEntity
  8
shade
 62
     6
420
 16711935
370
    25
100
AcDbLine
 10
337.2771663954964
 20
204.8463806016986
 30
0.0
 11
337.8097235212556
 21
205.6465993839716
 31
0.0
  0
LINE
  5
BF
330
70
100
AcDbEntity
  8
shade
 62
     6
420
 16711935
370
    25
100
AcDbLine
 10
337.8097235212556
 20
205.6465993839716
 30
0.0
 11
336.8771114359193
 21
204.8463806016986
 31
0.0
  0
LINE
  5
C0
330
70
100
AcDbEntity
  8
shade
 62
     6
420
 16711935
370
    25
100
AcDbLine
 10
336.8771114359193
 20
204.8463806016986
 30
0.0
 11
337.5378068671503
 21
205.6465993839716
 31
0.0
  0
LINE
  5
C1
330
70
100
AcDbEntity
  8
shade
 62
     6
420
 16711935
370
    25
100
AcDbLine
 10
337.5378068671503
 20
205.6465993839716
 30
0.0
 11
336.421830500269
 21
204.8463806016986
 31
0.0
  0
LINE
  5
C2
330
70
100
AcDbEntity
  8
shade
 62
     6
420
 16711935
370
    25
100
AcDbLine
 10
336.421830500269
 20
204.8463806016986
 30
0.0
 11
337.2538666875239
 21
205.6465993839716
 31
0.0
  0
LINE
  5
C3
330
70
100
AcDbEntity
  8
shade
 62
     6
420
 16711935
370
    25
100
AcDbLine
 10
337.2538666875239
 20
205.6465993839716
 30
0.0
 11
335.9668687414083
 21
204.8463806016986
 31
0.0
  0
LINE
  5
C4
330
70
100
AcDbEntity
  8
shade
 62
     6
420
 16711935
370
    25
100
AcDbLine
 10
335.9668687414083
 20
204.8463806016986
 30
0.0
 11
336.9301563850242
 21
205.6465993839716
 31
0.0
  0
LINE
  5
C5
330
70
100
AcDbEntity
  8
shade
 62
     6
420
 16711935
370
    25
100
AcDbLine
 10
336.9301563850242
 20
205.6465993839716
 30
0.0
 11
335.4558733693086
 21
204.8463806016986
 31
0.0
  0
LINE
  5
C6
330
70
100
AcDbEntity
  8
shade
 62
     6
420
 16711935
370
    25
100
AcDbLine
 10
335.4558733693086
 20
204.8463806016986
 30
0.0
 11
336.6345189727596
 21
205.6465993839716
 31
0.0
  0
LINE
  5
C7
330
70
100
AcDbEntity
  8
shade
 62
     6
420
 16711935
370
    25
100
AcDbLine
 10
330.4013155595764
 20
161.0951302762986
 30
0.0
 11
323.7463071370078
 21
168.0815198790011
 31
0.0
  0
LINE
  5
C8
330
70
100
AcDbEntity
  8
shade
 62
     6
420
 16711935
370
    25
100
AcDbLine
 10
339.6536158437003
 20
158.9538328550751
 30
0.0
 11
338.9090930129209
 21
158.9538328550751
 31
0.0
  0
LINE
  5
C9
330
70
100
AcDbEntity
  8
shade
 62
     6
420
 16711935
370
    25
100
AcDbLine
 10
330.4013155595764
 20
161.0951302762986
 30
0.0
 11
337.7080839292951
 21
158.9538328550751
 31
0.0
  0
LINE
  5
CA
330
70
100
AcDbEntity
  8
shade
 62
     6
420
 16711935
370
    25
100
AcDbLine
 10
339.2052336798373
 20
158.9538328550751
 30
0.0
 11
338.9090930129209
 21
158.9538328550751
 31
0.0
  0
LINE
  5
CB
330
70
100
AcDbEntity
  8
shade
 62
     6
420
 16711935
370
    25
100
AcDbLine
 10
339.2052336798373
 20
158.9538328550751
 30
0.0
 11
337.7080839292951
 21
158.9538328550751
 31
0.0
  0
LINE
  5
CC
330
70
100
AcDbEntity
  8
shade
 62
     6
420
 16711935
370
    25
100
AcDbLine
 10
338.9090930129209
 20
158.9538328550751
 30
0.0
 11
336.1637503752804
 21
161.0951302762986
 31
0.0
  0
LINE
  5
CD
330
70
100
AcDbEntity
  8
shade
 62
     6
420
 16711935
370
    25
100
AcDbLine
 10
336.1637503752804
 20
161.0951302762986
 30
0.0
 11
338.5727362246683
 21
158.9538328550751
 31
0.0
  0
LINE
  5
CE
330
70
100
AcDbEntity
  8
shade
 62
     6
420
 16711935
370
    25
100
AcDbLine
 10
338.5727362246683
 20
158.9538328550751
 30
0.0
 11
334.7175763052394
 21
161.0951302762986
 31
0.0
  0
LINE
  5
CF
330
70
100
AcDbEntity
  8
shade
 62
     6
420
 16711935
370
    25
100
AcDbLine
 10
334.7175763052394
 20
161.0951302762986
 30
0.0
 11
338.2779170340127
 21
158.9538328550751
 31
0.0
  0
LINE
  5
D0
330
70
100
AcDbEntity
  8
shade
 62
     6
420
 16711935
370
    25
100
AcDbLine
 10
338.2779170340127
 20
158.9538328550751
 30
0.0
 11
333.3497735383485
 21
161.0951302762986
 31
0.0
  0
LINE
  5
D1
330
70
100
AcDbEntity
  8
shade
 62
     6
420
 16711935
370
    25
100
AcDbLine
 10
333.3497735383485
 20
161.0951302762986
 30
0.0
 11
338.0359651771058
 21
158.9538328550751
 31
0.0
  0
LINE
  5
D2
330
70
100
AcDbEntity
  8
shade
 62
     6
420
 16711935
370
    25
100
AcDbLine
 10
338.0359651771058
 20
158.9538328550751
 30
0.0
 11
332.3183560970615
 21
161.0951302762986
 31
0.0
  0
LINE
  5
D3
330
70
100
AcDbEntity
  8
shade
 62
     6
420
 16711935
370
    25
100
AcDbLine
 10
332.3183560970615
 20
161.0951302762986
 30
0.0
 11
337.8561787281363
 21
158.9538328550751
 31
0.0
  0
LINE
  5
D4
330
70
100
AcDbEntity
  8
shade
 62
     6
420
 16711935
370
    25
100
AcDbLine
 10
337.8561787281363
 20
158.9538328550751
 30
0.0
 11
331.4102890653842
 21
161.0951302762986
 31
0.0
  0
LINE
  5
D5
330
70
100
AcDbEntity
  8
shade
 62
     6
420
 16711935
370
    25
100
AcDbLine
 10
331.4102890653842
 20
161.0951302762986
 30
0.0
 11
337.7454667794994
 21
158.9538328550751
 31
0.0
  0
LINE
  5
D6
330
70
100
AcDbEntity
  8
shade
 62
     6
420
 16711935
370
    25
100
AcDbLine
 10
337.7454667794994
 20
158.9538328550751
 30
0.0
 11
330.6367031755426
 21
161.0941091609564
 31
0.0
  0
LINE
  5
D7
330
70
100
AcDbEntity
  8
shade
 62
     6
420
 16711935
370
    25
100
AcDbLine
 10
337.7080839292951
 20
158.9538328550751
 30
0.0
 11
330.6367031755426
 21
161.0941091609564
 31
0.0
  0
LINE
  5
D8
330
70
100
AcDbEntity
  8
shade
 62
     6
420
 16711935
370
    25
100
AcDbLine
 10
336.537837738922
 20
205.6465993839716
 30
0.0
 11
339.6536158437003
 21
205.6465993839716
 31
0.0
  0
LINE
  5
D9
330
70
100
AcDbEntity
  8
shade
 62
     6
420
 16711935
370
    25
100
AcDbLine
 10
339.2052336798373
 20
205.6465993839716
 30
0.0
 11
339.6536158437003
 21
204.8463806016986
 31
0.0
  0
SPLINE
  5
DA
330
70
100
AcDbEntity
  8
shade
 62
     6
420
 16711935
370
    25
100
AcDbSpline
210
0.0
220
0.0
230
1.0
 70
     8
 71
     3
 72
    11
 73
     7
 74
     0
 42
0.0000000001
 43
0.0000000001
 40
0.0
 40
0.0
 40
0.0
 40
0.0
 40
1.0
 40
1.0
 40
1.0
 40
2.0
 40
2.0
 40
2.0
 40
2.0
 10
336.2165094615841
 20
201.885329100761
 30
0.0
 10
336.144876954475
 20
201.885329100761
 30
0.0
 10
336.0868073339569
 20
201.8272594802428
 30
0.0
 10
336.0868073339569
 20
201.7556269731338
 30
0.0
 10
336.0868073339569
 20
201.6839944660246
 30
0.0
 10
336.144876954475
 20
201.6259248455066
 30
0.0
 10
336.2165094615841
 20
201.6259248455066
 30
0.0
  0
LINE
  5
DB
330
70
100
AcDbEntity
  8
shade
 62
     6
420
 16711935
370
    25
100
AcDbLine
 10
335.0787875248982
 20
204.8463806016986
 30
0.0
 11
336.6345189727596
 21
205.6465993839716
 31
0.0
  0
LINE
  5
DC
330
70
100
AcDbEntity
  8
shade
 62
     6
420
 16711935
370
    25
100
AcDbLine
 10
330.4013155595764
 20
161.0951302762986
 30
0.0
 11
323.7463071370078
 21
168.0815198790011
 31
0.0
  0
LINE
  5
DD
330
70
100
AcDbEntity
  8
shade
 62
     6
420
 16711935
370
    25
100
AcDbLine
 10
329.821570234149
 20
177.5753654013709
 30
0.0
 11
332.3787373928267
 21
186.9727852966975
 31
0.0
  0
LINE
  5
DE
330
70
100
AcDbEntity
  8
shade
 62
     6
420
 16711935
370
    25
100
AcDbLine
 10
339.6536158437003
 20
194.0556005264409
 30
0.0
 11
337.9196567715912
 21
186.9727852966975
 31
0.0
  0
LINE
  5
DF
330
70
100
AcDbEntity
  8
shade
 62
     6
420
 16711935
370
    25
100
AcDbLine
 10
337.9196567715912
 20
186.9727852966975
 30
0.0
 11
339.6536158437003
 21
177.5753654013709
 31
0.0
  0
LINE
  5
E0
330
70
100
AcDbEntity
  8
shade
 62
     6
420
 16711935
370
    25
100
AcDbLine
 10
324.4189865527188
 20
186.9727852966975
 30
0.0
 11
330.6367031755426
 21
194.0566216417821
 31
0.0
  0
LINE
  5
E1
330
70
100
AcDbEntity
  8
shade
 62
     6
420
 16711935
370
    25
100
AcDbLine
 10
330.6367031755426
 20
194.0566216417821
 30
0.0
 11
325.2883555121197
 21
186.9816390738421
 31
0.0
  0
LINE
  5
E2
330
70
100
AcDbEntity
  8
shade
 62
     6
420
 16711935
370
    25
100
AcDbLine
 10
332.3787373928267
 20
186.9727852966975
 30
0.0
 11
334.7175763052394
 21
194.0556005264409
 31
0.0
  0
LINE
  5
E3
330
70
100
AcDbEntity
  8
shade
 62
     6
420
 16711935
370
    25
100
AcDbLine
 10
334.7175763052394
 20
194.0556005264409
 30
0.0
 11
330.1365334974696
 21
186.9727852966975
 31
0.0
  0
LINE
  5
E4
330
70
100
AcDbEntity
  8
shade
 62
     6
420
 16711935
370
    25
100
AcDbLine
 10
330.1365334974696
 20
186.9727852966975
 30
0.0
 11
333.3497735383485
 21
194.0556005264409
 31
0.0
  0
LINE
  5
E5
330
70
100
AcDbEntity
  8
shade
 62
     6
420
 16711935
370
    25
100
AcDbLine
 10
333.3497735383485
 20
194.0556005264409
 30
0.0
 11
328.1858270567687
 21
186.9727852966975
 31
0.0
  0
LINE
  5
E6
330
70
100
AcDbEntity
  8
shade
 62
     6
420
 16711935
370
    25
100
AcDbLine
 10
328.1858270567687
 20
186.9727852966975
 30
0.0
 11
332.3183560970615
 21
194.0556005264409
 31
0.0
  0
LINE
  5
E7
330
70
100
AcDbEntity
  8
shade
 62
     6
420
 16711935
370
    25
100
AcDbLine
 10
332.3183560970615
 20
194.0556005264409
 30
0.0
 11
326.5602839739448
 21
186.9727852966975
 31
0.0
  0
LINE
  5
E8
330
70
100
AcDbEntity
  8
shade
 62
     6
420
 16711935
370
    25
100
AcDbLine
 10
326.5602839739448
 20
186.9727852966975
 30
0.0
 11
331.4102890653842
 21
194.0556005264409
 31
0.0
  0
LINE
  5
E9
330
70
100
AcDbEntity
  8
shade
 62
     6
420
 16711935
370
    25
100
AcDbLine
 10
331.4102890653842
 20
194.0556005264409
 30
0.0
 11
325.2883555121197
 21
186.9816390738421
 31
0.0
  0
LINE
  5
EA
330
70
100
AcDbEntity
  8
shade
 62
     6
420
 16711935
370
    25
100
AcDbLine
 10
327.2542029809203
 20
177.5753654013709
 30
0.0
 11
328.1858270567687
 21
186.9727852966975
 31
0.0
  0
LINE
  5
EB
330
70
100
AcDbEntity
  8
shade
 62
     6
420
 16711935
370
    25
100
AcDbLine
 10
328.1858270567687
 20
186.9727852966975
 30
0.0
 11
325.1689241628773
 21
177.5753654013709
 31
0.0
  0
LINE
  5
EC
330
70
100
AcDbEntity
  8
shade
 62
     6
420
 16711935
370
    25
100
AcDbLine
 10
325.1689241628773
 20
177.5753654013709
 30
0.0
 11
326.5602839739448
 21
186.9727852966975
 31
0.0
  0
LINE
  5
ED
330
70
100
AcDbEntity
  8
shade
 62
     6
420
 16711935
370
    25
100
AcDbLine
 10
326.5602839739448
 20
186.9727852966975
 30
0.0
 11
323.6555095219211
 21
177.5753654013709
 31
0.0
  0
LINE
  5
EE
330
70
100
AcDbEntity
  8
shade
 62
     6
420
 16711935
370
    25
100
AcDbLine
 10
323.6555095219211
 20
177.5753654013709
 30
0.0
 11
325.2883555121197
 21
186.9816390738421
 31
0.0
  0
LINE
  5
EF
330
70
100
AcDbEntity
  8
shade
 62
     6
420
 16711935
370
    25
100
AcDbLine
 10
325.2883555121197
 20
186.9816390738421
 30
0.0
 11
322.5007416710245
 21
177.5753654013709
 31
0.0
  0
LINE
  5
F0
330
70
100
AcDbEntity
  8
shade
 62
     6
420
 16711935
370
    25
100
AcDbLine
 10
322.5007416710245
 20
177.5753654013709
 30
0.0
 11
324.4189865527188
 21
186.9727852966975
 31
0.0
  0
LINE
  5
F1
330
70
100
AcDbEntity
  8
shade
 62
     6
420
 16711935
370
    25
100
AcDbLine
 10
324.4189865527188
 20
186.9727852966975
 30
0.0
 11
321.6486932425302
 21
177.5753654013709
 31
0.0
  0
LINE
  5
F2
330
70
100
AcDbEntity
  8
shade
 62
     6
420
 16711935
370
    25
100
AcDbLine
 10
321.6486932425302
 20
177.5753654013709
 30
0.0
 11
323.7463071370078
 21
186.9727852966975
 31
0.0
  0
LINE
  5
F3
330
70
100
AcDbEntity
  8
shade
 62
     6
420
 16711935
370
    25
100
AcDbLine
 10
327.2542029809203
 20
177.5753654013709
 30
0.0
 11
330.1365334974696
 21
186.9727852966975
 31
0.0
  0
LINE
  5
F4
330
70
100
AcDbEntity
  8
shade
 62
     6
420
 16711935
370
    25
100
AcDbLine
 10
330.1365334974696
 20
186.9727852966975
 30
0.0
 11
329.821570234149
 21
177.5753654013709
 31
0.0
  0
LINE
  5
F5
330
70
100
AcDbEntity
  8
shade
 62
     6
420
 16711935
370
    25
100
AcDbLine
 10
334.9863660271951
 20
186.9727852966975
 30
0.0
 11
336.1637503752804
 21
194.0556005264409
 31
0.0
  0
LINE
  5
F6
330
70
100
AcDbEntity
  8
shade
 62
     6
420
 16711935
370
    25
100
AcDbLine
 10
336.1637503752804
 20
194.0556005264409
 30
0.0
 11
332.3787373928267
 21
186.9727852966975
 31
0.0
  0
LINE
  5
F7
330
70
100
AcDbEntity
  8
shade
 62
     6
420
 16711935
370
    25
100
AcDbLine
 10
332.3787373928267
 20
186.9727852966975
 30
0.0
 11
332.4785307582554
 21
177.5753654013709
 31
0.0
  0
LINE
  5
F8
330
70
100
AcDbEntity
  8
shade
 62
     6
420
 16711935
370
    25
100
AcDbLine
 10
332.4785307582554
 20
177.5753654013709
 30
0.0
 11
334.9863660271951
 21
186.9727852966975
 31
0.0
  0
LINE
  5
F9
330
70
100
AcDbEntity
  8
shade
 62
     6
420
 16711935
370
    25
100
AcDbLine
 10
337.9196567715912
 20
186.9727852966975
 30
0.0
 11
335.8524655265135
 21
177.5753654013709
 31
0.0
  0
LINE
  5
FA
330
70
100
AcDbEntity
  8
shade
 62
     6
420
 16711935
370
    25
100
AcDbLine
 10
335.8524655265135
 20
177.5753654013709
 30
0.0
 11
334.9863660271951
 21
186.9727852966975
 31
0.0
  0
LINE
  5
FB
330
70
100
AcDbEntity
  8
shade
 62
     6
420
 16711935
370
    25
100
AcDbLine
 10
334.9863660271951
 20
186.9727852966975
 30
0.0
 11
337.6661255195182
 21
194.0556005264409
 31
0.0
  0
LINE
  5
FC
330
70
100
AcDbEntity
  8
shade
 62
     6
420
 16711935
370
    25
100
AcDbLine
 10
337.6661255195182
 20
194.0556005264409
 30
0.0
 11
337.9196567715912
 21
186.9727852966975
 31
0.0
  0
LINE
  5
FD
330
70
100
AcDbEntity
  8
shade
 62
     6
420
 16711935
370
    25
100
AcDbLine
 10
337.6661255195182
 20
161.0951302762986
 30
0.0
 11
337.9196567715912
 21
168.1779455060429
 31
0.0
  0
LINE
  5
FE
330
70
100
AcDbEntity
  8
shade
 62
     6
420
 16711935
370
    25
100
AcDbLine
 10
334.9863660271951
 20
168.1779455060429
 30
0.0
 11
337.6661255195182
 21
161.0951302762986
 31
0.0
  0
LINE
  5
FF
330
70
100
AcDbEntity
  8
shade
 62
     6
420
 16711935
370
    25
100
AcDbLine
 10
335.8524655265135
 20
177.5753654013709
 30
0.0
 11
334.9863660271951
 21
168.1779455060429
 31
0.0
  0
LINE
  5
100
330
70
100
AcDbEntity
  8
shade
 62
     6
420
 16711935
370
    25
100
AcDbLine
 10
337.9196567715912
 20
168.1779455060429
 30
0.0
 11
335.8524655265135
 21
177.5753654013709
 31
0.0
  0
LINE
  5
101
330
70
100
AcDbEntity
  8
shade
 62
     6
420
 16711935
370
    25
100
AcDbLine
 10
332.4785307582554
 20
177.5753654013709
 30
0.0
 11
334.9863660271951
 21
168.1779455060429
 31
0.0
  0
LINE
  5
102
330
70
100
AcDbEntity
  8
shade
 62
     6
420
 16711935
370
    25
100
AcDbLine
 10
332.3787373928267
 20
168.1779455060429
 30
0.0
 11
332.4785307582554
 21
177.5753654013709
 31
0.0
  0
LINE
  5
103
330
70
100
AcDbEntity
  8
shade
 62
     6
420
 16711935
370
    25
100
AcDbLine
 10
336.1637503752804
 20
161.0951302762986
 30
0.0
 11
332.3787373928267
 21
168.1779455060429
 31
0.0
  0
LINE
  5
104
330
70
100
AcDbEntity
  8
shade
 62
     6
420
 16711935
370
    25
100
AcDbLine
 10
334.9863660271951
 20
168.1779455060429
 30
0.0
 11
336.1637503752804
 21
161.0951302762986
 31
0.0
  0
LINE
  5
105
330
70
100
AcDbEntity
  8
shade
 62
     6
420
 16711935
370
    25
100
AcDbLine
 10
330.1365334974696
 20
168.1779455060429
 30
0.0
 11
329.821570234149
 21
177.5753654013709
 31
0.0
  0
LINE
  5
106
330
70
100
AcDbEntity
  8
shade
 62
     6
420
 16711935
370
    25
100
AcDbLine
 10
327.2542029809203
 20
177.5753654013709
 30
0.0
 11
330.1365334974696
 21
168.1779455060429
 31
0.0
  0
LINE
  5
107
330
70
100
AcDbEntity
  8
shade
 62
     6
420
 16711935
370
    25
100
AcDbLine
 10
324.4189865527188
 20
168.1779455060429
 30
0.0
 11
321.6486932425302
 21
177.5753654013709
 31
0.0
  0
LINE
  5
108
330
70
100
AcDbEntity
  8
shade
 62
     6
420
 16711935
370
    25
100
AcDbLine
 10
322.5007416710245
 20
177.5753654013709
 30
0.0
 11
324.4189865527188
 21
168.1779455060429
 31
0.0
  0
LINE
  5
109
330
70
100
AcDbEntity
  8
shade
 62
     6
420
 16711935
370
    25
100
AcDbLine
 10
325.2883555121197
 20
168.1690917288984
 30
0.0
 11
322.5007416710245
 21
177.5753654013709
 31
0.0
  0
LINE
  5
10A
330
70
100
AcDbEntity
  8
shade
 62
     6
420
 16711935
370
    25
100
AcDbLine
 10
323.6555095219211
 20
177.5753654013709
 30
0.0
 11
325.2883555121197
 21
168.1690917288984
 31
0.0
  0
LINE
  5
10B
330
70
100
AcDbEntity
  8
shade
 62
     6
420
 16711935
370
    25
100
AcDbLine
 10
326.5602839739448
 20
168.1779455060429
 30
0.0
 11
323.6555095219211
 21
177.5753654013709
 31
0.0
  0
LINE
  5
10C
330
70
100
AcDbEntity
  8
shade
 62
     6
420
 16711935
370
    25
100
AcDbLine
 10
325.1689241628773
 20
177.5753654013709
 30
0.0
 11
326.5602839739448
 21
168.1779455060429
 31
0.0
  0
LINE
  5
10D
330
70
100
AcDbEntity
  8
shade
 62
     6
420
 16711935
370
    25
100
AcDbLine
 10
328.1858270567687
 20
168.1779455060429
 30
0.0
 11
325.1689241628773
 21
177.5753654013709
 31
0.0
  0
LINE
  5
10E
330
70
100
AcDbEntity
  8
shade
 62
     6
420
 16711935
370
    25
100
AcDbLine
 10
327.2542029809203
 20
177.5753654013709
 30
0.0
 11
328.1858270567687
 21
168.1779455060429
 31
0.0
  0
LINE
  5
10F
330
70
100
AcDbEntity
  8
shade
 62
     6
420
 16711935
370
    25
100
AcDbLine
 10
331.4102890653842
 20
161.0951302762986
 30
0.0
 11
325.2883555121197
 21
168.1690917288984
 31
0.0
  0
LINE
  5
110
330
70
100
AcDbEntity
  8
shade
 62
     6
420
 16711935
370
    25
100
AcDbLine
 10
326.5602839739448
 20
168.1779455060429
 30
0.0
 11
331.4102890653842
 21
161.0951302762986
 31
0.0
  0
LINE
  5
111
330
70
100
AcDbEntity
  8
shade
 62
     6
420
 16711935
370
    25
100
AcDbLine
 10
332.3183560970615
 20
161.0951302762986
 30
0.0
 11
326.5602839739448
 21
168.1779455060429
 31
0.0
  0
LINE
  5
112
330
70
100
AcDbEntity
  8
shade
 62
     6
420
 16711935
370
    25
100
AcDbLine
 10
328.1858270567687
 20
168.1779455060429
 30
0.0
 11
332.3183560970615
 21
161.0951302762986
 31
0.0
  0
LINE
  5
113
330
70
100
AcDbEntity
  8
shade
 62
     6
420
 16711935
370
    25
100
AcDbLine
 10
333.3497735383485
 20
161.0951302762986
 30
0.0
 11
328.1858270567687
 21
168.1779455060429
 31
0.0
  0
LINE
  5
114
330
70
100
AcDbEntity
  8
shade
 62
     6
420
 16711935
370
    25
100
AcDbLine
 10
330.1365334974696
 20
168.1779455060429
 30
0.0
 11
333.3497735383485
 21
161.0951302762986
 31
0.0
  0
LINE
  5
115
330
70
100
AcDbEntity
  8
shade
 62
     6
420
 16711935
370
    25
100
AcDbLine
 10
334.7175763052394
 20
161.0951302762986
 30
0.0
 11
330.1365334974696
 21
168.1779455060429
 31
0.0
  0
LINE
  5
116
330
70
100
AcDbEntity
  8
shade
 62
     6
420
 16711935
370
    25
100
AcDbLine
 10
332.3787373928267
 20
168.1779455060429
 30
0.0
 11
334.7175763052394
 21
161.0951302762986
 31
0.0
  0
LINE
  5
117
330
70
100
AcDbEntity
  8
shade
 62
     6
420
 16711935
370
    25
100
AcDbLine
 10
330.6367031755426
 20
161.0941091609564
 30
0.0
 11
325.2883555121197
 21
168.1690917288984
 31
0.0
  0
LINE
  5
118
330
70
100
AcDbEntity
  8
shade
 62
     6
420
 16711935
370
    25
100
AcDbLine
 10
324.4189865527188
 20
168.1779455060429
 30
0.0
 11
330.6367031755426
 21
161.0941091609564
 31
0.0
  0
LINE
  5
119
330
70
100
AcDbEntity
  8
shade
 62
     6
420
 16711935
370
    25
100
AcDbLine
 10
337.9196567715912
 20
168.1779455060429
 30
0.0
 11
339.6536158437003
 21
177.5753654013709
 31
0.0
  0
LINE
  5
11A
330
70
100
AcDbEntity
  8
shade
 62
     6
420
 16711935
370
    25
100
AcDbLine
 10
339.6536158437003
 20
161.0951302762986
 30
0.0
 11
337.9196567715912
 21
168.1779455060429
 31
0.0
  0
LINE
  5
11B
330
70
100
AcDbEntity
  8
shade
 62
     6
420
 16711935
370
    25
100
AcDbLine
 10
329.821570234149
 20
177.5753654013709
 30
0.0
 11
332.3787373928267
 21
168.1779455060429
 31
0.0
  0
LINE
  5
11C
330
70
100
AcDbEntity
  8
shade
 62
     6
420
 16711935
370
    25
100
AcDbLine
 10
330.4013155595764
 20
161.0951302762986
 30
0.0
 11
324.4189865527188
 21
168.1779455060429
 31
0.0
  0
LINE
  5
11D
330
70
100
AcDbEntity
  8
shade
 62
     6
420
 16711935
370
    25
100
AcDbLine
 10
348.9059161278252
 20
161.0951302762986
 30
0.0
 11
354.8882451346825
 21
168.1779455060429
 31
0.0
  0
LINE
  5
11E
330
70
100
AcDbEntity
  8
shade
 62
     6
420
 16711935
370
    25
100
AcDbLine
 10
349.4856614532571
 20
177.5753654013709
 30
0.0
 11
346.9284942945793
 21
168.1779455060429
 31
0.0
  0
LINE
  5
11F
330
70
100
AcDbEntity
  8
shade
 62
     6
420
 16711935
370
    25
100
AcDbLine
 10
339.6536158437003
 20
161.0951302762986
 30
0.0
 11
341.3875749158103
 21
168.1779455060429
 31
0.0
  0
LINE
  5
120
330
70
100
AcDbEntity
  8
shade
 62
     6
420
 16711935
370
    25
100
AcDbLine
 10
341.3875749158103
 20
168.1779455060429
 30
0.0
 11
339.6536158437003
 21
177.5753654013709
 31
0.0
  0
LINE
  5
121
330
70
100
AcDbEntity
  8
shade
 62
     6
420
 16711935
370
    25
100
AcDbLine
 10
354.8882451346825
 20
168.1779455060429
 30
0.0
 11
348.6705285118587
 21
161.0941091609564
 31
0.0
  0
LINE
  5
122
330
70
100
AcDbEntity
  8
shade
 62
     6
420
 16711935
370
    25
100
AcDbLine
 10
348.6705285118587
 20
161.0941091609564
 30
0.0
 11
354.018876175286
 21
168.1690917288984
 31
0.0
  0
LINE
  5
123
330
70
100
AcDbEntity
  8
shade
 62
     6
420
 16711935
370
    25
100
AcDbLine
 10
346.9284942945793
 20
168.1779455060429
 30
0.0
 11
344.5896553821621
 21
161.0951302762986
 31
0.0
  0
LINE
  5
124
330
70
100
AcDbEntity
  8
shade
 62
     6
420
 16711935
370
    25
100
AcDbLine
 10
344.5896553821621
 20
161.0951302762986
 30
0.0
 11
349.1706981899363
 21
168.1779455060429
 31
0.0
  0
LINE
  5
125
330
70
100
AcDbEntity
  8
shade
 62
     6
420
 16711935
370
    25
100
AcDbLine
 10
349.1706981899363
 20
168.1779455060429
 30
0.0
 11
345.9574581490575
 21
161.0951302762986
 31
0.0
  0
LINE
  5
126
330
70
100
AcDbEntity
  8
shade
 62
     6
420
 16711935
370
    25
100
AcDbLine
 10
345.9574581490575
 20
161.0951302762986
 30
0.0
 11
351.1214046306328
 21
168.1779455060429
 31
0.0
  0
LINE
  5
127
330
70
100
AcDbEntity
  8
shade
 62
     6
420
 16711935
370
    25
100
AcDbLine
 10
351.1214046306328
 20
168.1779455060429
 30
0.0
 11
346.9888755903398
 21
161.0951302762986
 31
0.0
  0
LINE
  5
128
330
70
100
AcDbEntity
  8
shade
 62
     6
420
 16711935
370
    25
100
AcDbLine
 10
346.9888755903398
 20
161.0951302762986
 30
0.0
 11
352.7469477134616
 21
168.1779455060429
 31
0.0
  0
LINE
  5
129
330
70
100
AcDbEntity
  8
shade
 62
     6
420
 16711935
370
    25
100
AcDbLine
 10
352.7469477134616
 20
168.1779455060429
 30
0.0
 11
347.896942622017
 21
161.0951302762986
 31
0.0
  0
LINE
  5
12A
330
70
100
AcDbEntity
  8
shade
 62
     6
420
 16711935
370
    25
100
AcDbLine
 10
347.896942622017
 20
161.0951302762986
 30
0.0
 11
354.018876175286
 21
168.1690917288984
 31
0.0
  0
LINE
  5
12B
330
70
100
AcDbEntity
  8
shade
 62
     6
420
 16711935
370
    25
100
AcDbLine
 10
352.0530287064858
 20
177.5753654013709
 30
0.0
 11
351.1214046306328
 21
168.1779455060429
 31
0.0
  0
LINE
  5
12C
330
70
100
AcDbEntity
  8
shade
 62
     6
420
 16711935
370
    25
100
AcDbLine
 10
351.1214046306328
 20
168.1779455060429
 30
0.0
 11
354.1383075245288
 21
177.5753654013709
 31
0.0
  0
LINE
  5
12D
330
70
100
AcDbEntity
  8
shade
 62
     6
420
 16711935
370
    25
100
AcDbLine
 10
354.1383075245288
 20
177.5753654013709
 30
0.0
 11
352.7469477134616
 21
168.1779455060429
 31
0.0
  0
LINE
  5
12E
330
70
100
AcDbEntity
  8
shade
 62
     6
420
 16711935
370
    25
100
AcDbLine
 10
352.7469477134616
 20
168.1779455060429
 30
0.0
 11
355.6517221654849
 21
177.5753654013709
 31
0.0
  0
LINE
  5
12F
330
70
100
AcDbEntity
  8
shade
 62
     6
420
 16711935
370
    25
100
AcDbLine
 10
355.6517221654849
 20
177.5753654013709
 30
0.0
 11
354.018876175286
 21
168.1690917288984
 31
0.0
  0
LINE
  5
130
330
70
100
AcDbEntity
  8
shade
 62
     6
420
 16711935
370
    25
100
AcDbLine
 10
354.018876175286
 20
168.1690917288984
 30
0.0
 11
356.8064900163768
 21
177.5753654013709
 31
0.0
  0
LINE
  5
131
330
70
100
AcDbEntity
  8
shade
 62
     6
420
 16711935
370
    25
100
AcDbLine
 10
356.8064900163768
 20
177.5753654013709
 30
0.0
 11
354.8882451346825
 21
168.1779455060429
 31
0.0
  0
LINE
  5
132
330
70
100
AcDbEntity
  8
shade
 62
     6
420
 16711935
370
    25
100
AcDbLine
 10
354.8882451346825
 20
168.1779455060429
 30
0.0
 11
357.6585384448761
 21
177.5753654013709
 31
0.0
  0
LINE
  5
133
330
70
100
AcDbEntity
  8
shade
 62
     6
420
 16711935
370
    25
100
AcDbLine
 10
352.0530287064858
 20
177.5753654013709
 30
0.0
 11
349.1706981899363
 21
168.1779455060429
 31
0.0
  0
LINE
  5
134
330
70
100
AcDbEntity
  8
shade
 62
     6
420
 16711935
370
    25
100
AcDbLine
 10
349.1706981899363
 20
168.1779455060429
 30
0.0
 11
349.4856614532571
 21
177.5753654013709
 31
0.0
  0
LINE
  5
135
330
70
100
AcDbEntity
  8
shade
 62
     6
420
 16711935
370
    25
100
AcDbLine
 10
344.3208656602061
 20
168.1779455060429
 30
0.0
 11
343.1434813121208
 21
161.0951302762986
 31
0.0
  0
LINE
  5
136
330
70
100
AcDbEntity
  8
shade
 62
     6
420
 16711935
370
    25
100
AcDbLine
 10
343.1434813121208
 20
161.0951302762986
 30
0.0
 11
346.9284942945793
 21
168.1779455060429
 31
0.0
  0
LINE
  5
137
330
70
100
AcDbEntity
  8
shade
 62
     6
420
 16711935
370
    25
100
AcDbLine
 10
346.9284942945793
 20
168.1779455060429
 30
0.0
 11
346.8287009291461
 21
177.5753654013709
 31
0.0
  0
LINE
  5
138
330
70
100
AcDbEntity
  8
shade
 62
     6
420
 16711935
370
    25
100
AcDbLine
 10
346.8287009291461
 20
177.5753654013709
 30
0.0
 11
344.3208656602061
 21
168.1779455060429
 31
0.0
  0
LINE
  5
139
330
70
100
AcDbEntity
  8
shade
 62
     6
420
 16711935
370
    25
100
AcDbLine
 10
341.3875749158103
 20
168.1779455060429
 30
0.0
 11
343.4547661608929
 21
177.5753654013709
 31
0.0
  0
LINE
  5
13A
330
70
100
AcDbEntity
  8
shade
 62
     6
420
 16711935
370
    25
100
AcDbLine
 10
343.4547661608929
 20
177.5753654013709
 30
0.0
 11
344.3208656602061
 21
168.1779455060429
 31
0.0
  0
LINE
  5
13B
330
70
100
AcDbEntity
  8
shade
 62
     6
420
 16711935
370
    25
100
AcDbLine
 10
344.3208656602061
 20
168.1779455060429
 30
0.0
 11
341.6411061678834
 21
161.0951302762986
 31
0.0
  0
LINE
  5
13C
330
70
100
AcDbEntity
  8
shade
 62
     6
420
 16711935
370
    25
100
AcDbLine
 10
341.6411061678834
 20
161.0951302762986
 30
0.0
 11
341.3875749158103
 21
168.1779455060429
 31
0.0
  0
LINE
  5
13D
330
70
100
AcDbEntity
  8
shade
 62
     6
420
 16711935
370
    25
100
AcDbLine
 10
341.6411061678834
 20
194.0556005264409
 30
0.0
 11
341.3875749158103
 21
186.9727852966975
 31
0.0
  0
LINE
  5
13E
330
70
100
AcDbEntity
  8
shade
 62
     6
420
 16711935
370
    25
100
AcDbLine
 10
344.3208656602061
 20
186.9727852966975
 30
0.0
 11
341.6411061678834
 21
194.0556005264409
 31
0.0
  0
LINE
  5
13F
330
70
100
AcDbEntity
  8
shade
 62
     6
420
 16711935
370
    25
100
AcDbLine
 10
343.4547661608929
 20
177.5753654013709
 30
0.0
 11
344.3208656602061
 21
186.9727852966975
 31
0.0
  0
LINE
  5
140
330
70
100
AcDbEntity
  8
shade
 62
     6
420
 16711935
370
    25
100
AcDbLine
 10
341.3875749158103
 20
186.9727852966975
 30
0.0
 11
343.4547661608929
 21
177.5753654013709
 31
0.0
  0
LINE
  5
141
330
70
100
AcDbEntity
  8
shade
 62
     6
420
 16711935
370
    25
100
AcDbLine
 10
346.8287009291461
 20
177.5753654013709
 30
0.0
 11
344.3208656602061
 21
186.9727852966975
 31
0.0
  0
LINE
  5
142
330
70
100
AcDbEntity
  8
shade
 62
     6
420
 16711935
370
    25
100
AcDbLine
 10
346.9284942945793
 20
186.9727852966975
 30
0.0
 11
346.8287009291461
 21
177.5753654013709
 31
0.0
  0
LINE
  5
143
330
70
100
AcDbEntity
  8
shade
 62
     6
420
 16711935
370
    25
100
AcDbLine
 10
343.1434813121208
 20
194.0556005264409
 30
0.0
 11
346.9284942945793
 21
186.9727852966975
 31
0.0
  0
LINE
  5
144
330
70
100
AcDbEntity
  8
shade
 62
     6
420
 16711935
370
    25
100
AcDbLine
 10
344.3208656602061
 20
186.9727852966975
 30
0.0
 11
343.1434813121208
 21
194.0556005264409
 31
0.0
  0
LINE
  5
145
330
70
100
AcDbEntity
  8
shade
 62
     6
420
 16711935
370
    25
100
AcDbLine
 10
349.1706981899363
 20
186.9727852966975
 30
0.0
 11
349.4856614532571
 21
177.5753654013709
 31
0.0
  0
LINE
  5
146
330
70
100
AcDbEntity
  8
shade
 62
     6
420
 16711935
370
    25
100
AcDbLine
 10
352.0530287064858
 20
177.5753654013709
 30
0.0
 11
349.1706981899363
 21
186.9727852966975
 31
0.0
  0
LINE
  5
147
330
70
100
AcDbEntity
  8
shade
 62
     6
420
 16711935
370
    25
100
AcDbLine
 10
357.6585384448761
 20
177.5753654013709
 30
0.0
 11
355.5609245503938
 21
186.9727852966975
 31
0.0
  0
LINE
  5
148
330
70
100
AcDbEntity
  8
shade
 62
     6
420
 16711935
370
    25
100
AcDbLine
 10
354.8882451346825
 20
186.9727852966975
 30
0.0
 11
357.6585384448761
 21
177.5753654013709
 31
0.0
  0
LINE
  5
149
330
70
100
AcDbEntity
  8
shade
 62
     6
420
 16711935
370
    25
100
AcDbLine
 10
356.8064900163768
 20
177.5753654013709
 30
0.0
 11
354.8882451346825
 21
186.9727852966975
 31
0.0
  0
LINE
  5
14A
330
70
100
AcDbEntity
  8
shade
 62
     6
420
 16711935
370
    25
100
AcDbLine
 10
354.018876175286
 20
186.9816390738421
 30
0.0
 11
356.8064900163768
 21
177.5753654013709
 31
0.0
  0
LINE
  5
14B
330
70
100
AcDbEntity
  8
shade
 62
     6
420
 16711935
370
    25
100
AcDbLine
 10
355.6517221654849
 20
177.5753654013709
 30
0.0
 11
354.018876175286
 21
186.9816390738421
 31
0.0
  0
LINE
  5
14C
330
70
100
AcDbEntity
  8
shade
 62
     6
420
 16711935
370
    25
100
AcDbLine
 10
352.7469477134616
 20
186.9727852966975
 30
0.0
 11
355.6517221654849
 21
177.5753654013709
 31
0.0
  0
LINE
  5
14D
330
70
100
AcDbEntity
  8
shade
 62
     6
420
 16711935
370
    25
100
AcDbLine
 10
354.1383075245288
 20
177.5753654013709
 30
0.0
 11
352.7469477134616
 21
186.9727852966975
 31
0.0
  0
LINE
  5
14E
330
70
100
AcDbEntity
  8
shade
 62
     6
420
 16711935
370
    25
100
AcDbLine
 10
351.1214046306328
 20
186.9727852966975
 30
0.0
 11
354.1383075245288
 21
177.5753654013709
 31
0.0
  0
LINE
  5
14F
330
70
100
AcDbEntity
  8
shade
 62
     6
420
 16711935
370
    25
100
AcDbLine
 10
352.0530287064858
 20
177.5753654013709
 30
0.0
 11
351.1214046306328
 21
186.9727852966975
 31
0.0
  0
LINE
  5
150
330
70
100
AcDbEntity
  8
shade
 62
     6
420
 16711935
370
    25
100
AcDbLine
 10
347.896942622017
 20
194.0556005264409
 30
0.0
 11
354.018876175286
 21
186.9816390738421
 31
0.0
  0
LINE
  5
151
330
70
100
AcDbEntity
  8
shade
 62
     6
420
 16711935
370
    25
100
AcDbLine
 10
352.7469477134616
 20
186.9727852966975
 30
0.0
 11
347.896942622017
 21
194.0556005264409
 31
0.0
  0
LINE
  5
152
330
70
100
AcDbEntity
  8
shade
 62
     6
420
 16711935
370
    25
100
AcDbLine
 10
346.9888755903398
 20
194.0556005264409
 30
0.0
 11
352.7469477134616
 21
186.9727852966975
 31
0.0
  0
LINE
  5
153
330
70
100
AcDbEntity
  8
shade
 62
     6
420
 16711935
370
    25
100
AcDbLine
 10
351.1214046306328
 20
186.9727852966975
 30
0.0
 11
346.9888755903398
 21
194.0556005264409
 31
0.0
  0
LINE
  5
154
330
70
100
AcDbEntity
  8
shade
 62
     6
420
 16711935
370
    25
100
AcDbLine
 10
345.9574581490575
 20
194.0556005264409
 30
0.0
 11
351.1214046306328
 21
186.9727852966975
 31
0.0
  0
LINE
  5
155
330
70
100
AcDbEntity
  8
shade
 62
     6
420
 16711935
370
    25
100
AcDbLine
 10
349.1706981899363
 20
186.9727852966975
 30
0.0
 11
345.9574581490575
 21
194.0556005264409
 31
0.0
  0
LINE
  5
156
330
70
100
AcDbEntity
  8
shade
 62
     6
420
 16711935
370
    25
100
AcDbLine
 10
344.5896553821621
 20
194.0556005264409
 30
0.0
 11
349.1706981899363
 21
186.9727852966975
 31
0.0
  0
LINE
  5
157
330
70
100
AcDbEntity
  8
shade
 62
     6
420
 16711935
370
    25
100
AcDbLine
 10
346.9284942945793
 20
186.9727852966975
 30
0.0
 11
344.5896553821621
 21
194.0556005264409
 31
0.0
  0
LINE
  5
158
330
70
100
AcDbEntity
  8
shade
 62
     6
420
 16711935
370
    25
100
AcDbLine
 10
348.6705285118587
 20
194.0566216417821
 30
0.0
 11
354.018876175286
 21
186.9816390738421
 31
0.0
  0
LINE
  5
159
330
70
100
AcDbEntity
  8
shade
 62
     6
420
 16711935
370
    25
100
AcDbLine
 10
354.8882451346825
 20
186.9727852966975
 30
0.0
 11
348.6705285118587
 21
194.0566216417821
 31
0.0
  0
LINE
  5
15A
330
70
100
AcDbEntity
  8
shade
 62
     6
420
 16711935
370
    25
100
AcDbLine
 10
341.3875749158103
 20
186.9727852966975
 30
0.0
 11
339.6536158437003
 21
177.5753654013709
 31
0.0
  0
LINE
  5
15B
330
70
100
AcDbEntity
  8
shade
 62
     6
420
 16711935
370
    25
100
AcDbLine
 10
339.6536158437003
 20
194.0556005264409
 30
0.0
 11
341.3875749158103
 21
186.9727852966975
 31
0.0
  0
LINE
  5
15C
330
70
100
AcDbEntity
  8
shade
 62
     6
420
 16711935
370
    25
100
AcDbLine
 10
349.4856614532571
 20
177.5753654013709
 30
0.0
 11
346.9284942945793
 21
186.9727852966975
 31
0.0
  0
LINE
  5
15D
330
70
100
AcDbEntity
  8
shade
 62
     6
420
 16711935
370
    25
100
AcDbLine
 10
348.9059161278252
 20
161.0951302762986
 30
0.0
 11
355.5609245503938
 21
168.0815198790011
 31
0.0
  0
LINE
  5
15E
330
70
100
AcDbEntity
  8
shade
 62
     6
420
 16711935
370
    25
100
AcDbLine
 10
344.228444162503
 20
204.8463806016986
 30
0.0
 11
342.6727127146467
 21
205.6465993839716
 31
0.0
  0
SPLINE
  5
15F
330
70
100
AcDbEntity
  8
shade
 62
     6
420
 16711935
370
    25
100
AcDbSpline
210
0.0
220
0.0
230
1.0
 70
     8
 71
     3
 72
    11
 73
     7
 74
     0
 42
0.0000000001
 43
0.0000000001
 40
0.0
 40
0.0
 40
0.0
 40
0.0
 40
1.0
 40
1.0
 40
1.0
 40
2.0
 40
2.0
 40
2.0
 40
2.0
 10
343.0907222258225
 20
201.6259248455066
 30
0.0
 10
343.1623547329313
 20
201.6259248455066
 30
0.0
 10
343.2204243534495
 20
201.6839944660246
 30
0.0
 10
343.2204243534495
 20
201.7556269731338
 30
0.0
 10
343.2204243534495
 20
201.8272594802428
 30
0.0
 10
343.1623547329313
 20
201.885329100761
 30
0.0
 10
343.0907222258225
 20
201.885329100761
 30
0.0
  0
LINE
  5
160
330
70
100
AcDbEntity
  8
shade
 62
     6
420
 16711935
370
    25
100
AcDbLine
 10
340.1019980075684
 20
205.6465993839716
 30
0.0
 11
339.6536158437003
 21
204.8463806016986
 31
0.0
  0
LINE
  5
161
330
70
100
AcDbEntity
  8
shade
 62
     6
420
 16711935
370
    25
100
AcDbLine
 10
342.7693939484785
 20
205.6465993839716
 30
0.0
 11
339.6536158437003
 21
205.6465993839716
 31
0.0
  0
LINE
  5
162
330
70
100
AcDbEntity
  8
shade
 62
     6
420
 16711935
370
    25
100
AcDbLine
 10
341.5991477581061
 20
158.9538328550751
 30
0.0
 11
348.6705285118587
 21
161.0941091609564
 31
0.0
  0
LINE
  5
163
330
70
100
AcDbEntity
  8
shade
 62
     6
420
 16711935
370
    25
100
AcDbLine
 10
341.5617649079073
 20
158.9538328550751
 30
0.0
 11
348.6705285118587
 21
161.0941091609564
 31
0.0
  0
LINE
  5
164
330
70
100
AcDbEntity
  8
shade
 62
     6
420
 16711935
370
    25
100
AcDbLine
 10
347.896942622017
 20
161.0951302762986
 30
0.0
 11
341.5617649079073
 21
158.9538328550751
 31
0.0
  0
LINE
  5
165
330
70
100
AcDbEntity
  8
shade
 62
     6
420
 16711935
370
    25
100
AcDbLine
 10
341.45105295927
 20
158.9538328550751
 30
0.0
 11
347.896942622017
 21
161.0951302762986
 31
0.0
  0
LINE
  5
166
330
70
100
AcDbEntity
  8
shade
 62
     6
420
 16711935
370
    25
100
AcDbLine
 10
346.9888755903398
 20
161.0951302762986
 30
0.0
 11
341.45105295927
 21
158.9538328550751
 31
0.0
  0
LINE
  5
167
330
70
100
AcDbEntity
  8
shade
 62
     6
420
 16711935
370
    25
100
AcDbLine
 10
341.2712665102954
 20
158.9538328550751
 30
0.0
 11
346.9888755903398
 21
161.0951302762986
 31
0.0
  0
LINE
  5
168
330
70
100
AcDbEntity
  8
shade
 62
     6
420
 16711935
370
    25
100
AcDbLine
 10
345.9574581490575
 20
161.0951302762986
 30
0.0
 11
341.2712665102954
 21
158.9538328550751
 31
0.0
  0
LINE
  5
169
330
70
100
AcDbEntity
  8
shade
 62
     6
420
 16711935
370
    25
100
AcDbLine
 10
341.0293146533939
 20
158.9538328550751
 30
0.0
 11
345.9574581490575
 21
161.0951302762986
 31
0.0
  0
LINE
  5
16A
330
70
100
AcDbEntity
  8
shade
 62
     6
420
 16711935
370
    25
100
AcDbLine
 10
344.5896553821621
 20
161.0951302762986
 30
0.0
 11
341.0293146533939
 21
158.9538328550751
 31
0.0
  0
LINE
  5
16B
330
70
100
AcDbEntity
  8
shade
 62
     6
420
 16711935
370
    25
100
AcDbLine
 10
340.7344954627374
 20
158.9538328550751
 30
0.0
 11
344.5896553821621
 21
161.0951302762986
 31
0.0
  0
LINE
  5
16C
330
70
100
AcDbEntity
  8
shade
 62
     6
420
 16711935
370
    25
100
AcDbLine
 10
343.1434813121208
 20
161.0951302762986
 30
0.0
 11
340.7344954627374
 21
158.9538328550751
 31
0.0
  0
LINE
  5
16D
330
70
100
AcDbEntity
  8
shade
 62
     6
420
 16711935
370
    25
100
AcDbLine
 10
340.3981386744797
 20
158.9538328550751
 30
0.0
 11
343.1434813121208
 21
161.0951302762986
 31
0.0
  0
LINE
  5
16E
330
70
100
AcDbEntity
  8
shade
 62
     6
420
 16711935
370
    25
100
AcDbLine
 10
340.1019980075684
 20
158.9538328550751
 30
0.0
 11
341.5991477581061
 21
158.9538328550751
 31
0.0
  0
LINE
  5
16F
330
70
100
AcDbEntity
  8
shade
 62
     6
420
 16711935
370
    25
100
AcDbLine
 10
340.1019980075684
 20
158.9538328550751
 30
0.0
 11
340.3981386744797
 21
158.9538328550751
 31
0.0
  0
LINE
  5
170
330
70
100
AcDbEntity
  8
shade
 62
     6
420
 16711935
370
    25
100
AcDbLine
 10
348.9059161278252
 20
161.0951302762986
 30
0.0
 11
341.5991477581061
 21
158.9538328550751
 31
0.0
  0
LINE
  5
171
330
70
100
AcDbEntity
  8
shade
 62
     6
420
 16711935
370
    25
100
AcDbLine
 10
339.6536158437003
 20
158.9538328550751
 30
0.0
 11
340.3981386744797
 21
158.9538328550751
 31
0.0
  0
LINE
  5
172
330
70
100
AcDbEntity
  8
shade
 62
     6
420
 16711935
370
    25
100
AcDbLine
 10
348.9059161278252
 20
161.0951302762986
 30
0.0
 11
355.5609245503938
 21
168.0815198790011
 31
0.0
  0
LINE
  5
173
330
70
100
AcDbEntity
  8
shade
 62
     6
420
 16711935
370
    25
100
AcDbLine
 10
343.8513583180929
 20
204.8463806016986
 30
0.0
 11
342.6727127146467
 21
205.6465993839716
 31
0.0
  0
LINE
  5
174
330
70
100
AcDbEntity
  8
shade
 62
     6
420
 16711935
370
    25
100
AcDbLine
 10
342.3770753023825
 20
205.6465993839716
 30
0.0
 11
343.8513583180929
 21
204.8463806016986
 31
0.0
  0
LINE
  5
175
330
70
100
AcDbEntity
  8
shade
 62
     6
420
 16711935
370
    25
100
AcDbLine
 10
343.340362945998
 20
204.8463806016986
 30
0.0
 11
342.3770753023825
 21
205.6465993839716
 31
0.0
  0
LINE
  5
176
330
70
100
AcDbEntity
  8
shade
 62
     6
420
 16711935
370
    25
100
AcDbLine
 10
342.0533649998773
 20
205.6465993839716
 30
0.0
 11
343.340362945998
 21
204.8463806016986
 31
0.0
  0
LINE
  5
177
330
70
100
AcDbEntity
  8
shade
 62
     6
420
 16711935
370
    25
100
AcDbLine
 10
342.8854011871325
 20
204.8463806016986
 30
0.0
 11
342.0533649998773
 21
205.6465993839716
 31
0.0
  0
LINE
  5
178
330
70
100
AcDbEntity
  8
shade
 62
     6
420
 16711935
370
    25
100
AcDbLine
 10
341.7694248202509
 20
205.6465993839716
 30
0.0
 11
342.8854011871325
 21
204.8463806016986
 31
0.0
  0
LINE
  5
179
330
70
100
AcDbEntity
  8
shade
 62
     6
420
 16711935
370
    25
100
AcDbLine
 10
342.4301202514866
 20
204.8463806016986
 30
0.0
 11
341.7694248202509
 21
205.6465993839716
 31
0.0
  0
LINE
  5
17A
330
70
100
AcDbEntity
  8
shade
 62
     6
420
 16711935
370
    25
100
AcDbLine
 10
341.4975081661457
 20
205.6465993839716
 30
0.0
 11
342.4301202514866
 21
204.8463806016986
 31
0.0
  0
LINE
  5
17B
330
70
100
AcDbEntity
  8
shade
 62
     6
420
 16711935
370
    25
100
AcDbLine
 10
342.0300652919096
 20
204.8463806016986
 30
0.0
 11
341.4975081661457
 21
205.6465993839716
 31
0.0
  0
LINE
  5
17C
330
70
100
AcDbEntity
  8
shade
 62
     6
420
 16711935
370
    25
100
AcDbLine
 10
341.1737978636456
 20
205.6465993839716
 30
0.0
 11
342.0300652919096
 21
204.8463806016986
 31
0.0
  0
LINE
  5
17D
330
70
100
AcDbEntity
  8
shade
 62
     6
420
 16711935
370
    25
100
AcDbLine
 10
341.5090766871561
 20
204.8463806016986
 30
0.0
 11
341.1737978636456
 21
205.6465993839716
 31
0.0
  0
LINE
  5
17E
330
70
100
AcDbEntity
  8
shade
 62
     6
420
 16711935
370
    25
100
AcDbLine
 10
340.8468504581178
 20
205.6465993839716
 30
0.0
 11
341.5090766871561
 21
204.8463806016986
 31
0.0
  0
LINE
  5
17F
330
70
100
AcDbEntity
  8
shade
 62
     6
420
 16711935
370
    25
100
AcDbLine
 10
340.9755709175593
 20
204.8463806016986
 30
0.0
 11
340.8468504581178
 21
205.6465993839716
 31
0.0
  0
LINE
  5
180
330
70
100
AcDbEntity
  8
shade
 62
     6
420
 16711935
370
    25
100
AcDbLine
 10
340.4519238890614
 20
205.6465993839716
 30
0.0
 11
340.9755709175593
 21
204.8463806016986
 31
0.0
  0
LINE
  5
181
330
70
100
AcDbEntity
  8
shade
 62
     6
420
 16711935
370
    25
100
AcDbLine
 10
340.3588018955105
 20
204.8463806016986
 30
0.0
 11
340.4519238890614
 21
205.6465993839716
 31
0.0
  0
LINE
  5
182
330
70
100
AcDbEntity
  8
shade
 62
     6
420
 16711935
370
    25
100
AcDbLine
 10
340.1019980075684
 20
205.6465993839716
 30
0.0
 11
340.3588018955105
 21
204.8463806016986
 31
0.0
  0
LINE
  5
183
330
70
100
AcDbEntity
  8
shade
 62
     6
420
 16711935
370
    25
100
AcDbLine
 10
344.228444162503
 20
204.8463806016986
 30
0.0
 11
343.0524100210124
 21
201.8853291007603
 31
0.0
  0
LINE
  5
184
330
70
100
AcDbEntity
  8
shade
 62
     6
420
 16711935
370
    25
100
AcDbLine
 10
342.7693939484785
 20
205.6465993839716
 30
0.0
 11
344.228444162503
 21
204.8463806016986
 31
0.0
  0
LINE
  5
185
330
70
100
AcDbEntity
  8
shade
 62
     6
420
 16711935
370
    25
100
AcDbLine
 10
342.8327850548854
 20
201.8853291007603
 30
0.0
 11
343.8513583180929
 21
204.8463806016986
 31
0.0
  0
LINE
  5
186
330
70
100
AcDbEntity
  8
shade
 62
     6
420
 16711935
370
    25
100
AcDbLine
 10
342.5941715623895
 20
201.8853291007603
 30
0.0
 11
343.340362945998
 21
204.8463806016986
 31
0.0
  0
LINE
  5
187
330
70
100
AcDbEntity
  8
shade
 62
     6
420
 16711935
370
    25
100
AcDbLine
 10
342.3784743635425
 20
201.8853291007603
 30
0.0
 11
342.8854011871325
 21
204.8463806016986
 31
0.0
  0
LINE
  5
188
330
70
100
AcDbEntity
  8
shade
 62
     6
420
 16711935
370
    25
100
AcDbLine
 10
342.0408265214214
 20
201.8853291007603
 30
0.0
 11
342.4301202514866
 21
204.8463806016986
 31
0.0
  0
LINE
  5
189
330
70
100
AcDbEntity
  8
shade
 62
     6
420
 16711935
370
    25
100
AcDbLine
 10
341.6594298361303
 20
201.8853291007603
 30
0.0
 11
342.0300652919096
 21
204.8463806016986
 31
0.0
  0
LINE
  5
18A
330
70
100
AcDbEntity
  8
shade
 62
     6
420
 16711935
370
    25
100
AcDbLine
 10
341.1547102375483
 20
201.8853291007603
 30
0.0
 11
341.5090766871561
 21
204.8463806016986
 31
0.0
  0
LINE
  5
18B
330
70
100
AcDbEntity
  8
shade
 62
     6
420
 16711935
370
    25
100
AcDbLine
 10
340.6608523213798
 20
201.8853291007603
 30
0.0
 11
340.9755709175593
 21
204.8463806016986
 31
0.0
  0
LINE
  5
18C
330
70
100
AcDbEntity
  8
shade
 62
     6
420
 16711935
370
    25
100
AcDbLine
 10
340.1330348093149
 20
201.8853291007603
 30
0.0
 11
340.3588018955105
 21
204.8463806016986
 31
0.0
  0
LWPOLYLINE
  5
18D
330
70
100
AcDbEntity
  8
shade
 62
     6
420
 16711935
370
    25
100
AcDbPolyline
 90
        4
 70
     0
 43
0.0
 10
339.6536158437003
 20
161.0951302762986
 10
340.0331702913732
 20
158.9538328550751
 10
340.3981386744797
 20
158.9538328550751
 10
341.6411061678834
 20
161.0951302762986
  0
LINE
  5
18E
330
70
100
AcDbEntity
  8
shade
 62
     6
420
 16711935
370
    25
100
AcDbLine
 10
341.6411061678834
 20
161.0951302762986
 30
0.0
 11
340.0331702913732
 21
158.9538328550751
 31
0.0
  0
LINE
  5
18F
330
70
100
AcDbEntity
  8
shade
 62
     6
420
 16711935
370
    25
100
AcDbLine
 10
342.9818765635993
 20
201.6185895066691
 30
0.0
 11
343.4429511506343
 21
196.0286596671042
 31
0.0
  0
LWPOLYLINE
  5
190
330
70
100
AcDbEntity
  8
shade
 62
     6
420
 16711935
370
    25
100
AcDbPolyline
 90
        3
 70
     0
 43
0.0
 10
342.5691410477321
 20
201.6185895066691
 10
343.4429511506343
 20
196.0286596671042
 10
342.781047051698
 20
201.6185895066691
  0
LINE
  5
191
330
70
100
AcDbEntity
  8
shade
 62
     6
420
 16711935
370
    25
100
AcDbLine
 10
342.3678198176453
 20
201.6185895066691
 30
0.0
 11
343.3420446765032
 21
196.0286596671042
 31
0.0
  0
LINE
  5
192
330
70
100
AcDbEntity
  8
shade
 62
     6
420
 16711935
370
    25
100
AcDbLine
 10
343.0505472218471
 20
196.0286596671042
 30
0.0
 11
342.0539877970195
 21
201.6185895066691
 31
0.0
  0
LINE
  5
193
330
70
100
AcDbEntity
  8
shade
 62
     6
420
 16711935
370
    25
100
AcDbLine
 10
341.6604729283708
 20
201.6185895066691
 30
0.0
 11
342.411533709352
 21
196.0286596671042
 31
0.0
  0
LINE
  5
194
330
70
100
AcDbEntity
  8
shade
 62
     6
420
 16711935
370
    25
100
AcDbLine
 10
341.761389464627
 20
196.0286596671042
 30
0.0
 11
341.1552309897014
 21
201.6185895066691
 31
0.0
  0
LINE
  5
195
330
70
100
AcDbEntity
  8
shade
 62
     6
420
 16711935
370
    25
100
AcDbLine
 10
341.0886188134091
 20
196.0286596671042
 30
0.0
 11
340.6609552844092
 21
201.6185895066691
 31
0.0
  0
LINE
  5
196
330
70
100
AcDbEntity
  8
shade
 62
     6
420
 16711935
370
    25
100
AcDbLine
 10
340.1334509921061
 20
201.6185895066691
 30
0.0
 11
340.4160306332102
 21
196.0286596671042
 31
0.0
  0
LWPOLYLINE
  5
197
330
70
100
AcDbEntity
  8
shade
 62
     6
420
 16711935
370
    25
100
AcDbPolyline
 90
        3
 70
     0
 43
0.0
 10
348.6705285118587
 20
194.0566216417821
 10
343.4429511506343
 20
196.0286596671042
 10
348.9059161278246
 20
194.0556005264409
  0
LINE
  5
198
330
70
100
AcDbEntity
  8
shade
 62
     6
420
 16711935
370
    25
100
AcDbLine
 10
347.896942622017
 20
194.0556005264409
 30
0.0
 11
343.3420446765032
 21
196.0286596671042
 31
0.0
  0
LINE
  5
199
330
70
100
AcDbEntity
  8
shade
 62
     6
420
 16711935
370
    25
100
AcDbLine
 10
346.9888755903398
 20
194.0556005264409
 30
0.0
 11
343.0505472218471
 21
196.0286596671042
 31
0.0
  0
LINE
  5
19A
330
70
100
AcDbEntity
  8
shade
 62
     6
420
 16711935
370
    25
100
AcDbLine
 10
345.9574581490575
 20
194.0556005264409
 30
0.0
 11
342.411533709352
 21
196.0286596671042
 31
0.0
  0
LINE
  5
19B
330
70
100
AcDbEntity
  8
shade
 62
     6
420
 16711935
370
    25
100
AcDbLine
 10
344.5896553821621
 20
194.0556005264409
 30
0.0
 11
341.761389464627
 21
196.0286596671042
 31
0.0
  0
LINE
  5
19C
330
70
100
AcDbEntity
  8
shade
 62
     6
420
 16711935
370
    25
100
AcDbLine
 10
343.1434813121208
 20
194.0556005264409
 30
0.0
 11
341.0886188134091
 21
196.0286596671042
 31
0.0
  0
LINE
  5
19D
330
70
100
AcDbEntity
  8
shade
 62
     6
420
 16711935
370
    25
100
AcDbLine
 10
341.6411061678834
 20
194.0556005264409
 30
0.0
 11
340.4047174299615
 21
196.0286596671042
 31
0.0
  0
LINE
  5
19E
330
70
100
AcDbEntity
  8
shade
 62
     6
420
 16711935
370
    25
100
AcDbLine
 10
348.9059161278252
 20
194.0556005264409
 30
0.0
 11
354.8882451346825
 21
186.9727852966975
 31
0.0
  0
LINE
  5
19F
330
70
100
AcDbEntity
  8
shade
 62
     6
420
 16711935
370
    25
100
AcDbLine
 10
355.5609245503938
 20
186.9727852966975
 30
0.0
 11
348.9059161278252
 21
194.0556005264409
 31
0.0
  0
LINE
  5
1A0
330
70
100
AcDbEntity
  8
shade
 62
     6
420
 16711935
370
    25
100
AcDbLine
 10
355.5609245503938
 20
168.0815198790011
 30
0.0
 11
357.6585384448761
 21
177.5753654013709
 31
0.0
  0
LINE
  5
1A1
330
70
100
AcDbEntity
  8
shade
 62
     6
420
 16711935
370
    25
100
AcDbLine
 10
343.0907222258225
 20
201.6259248455072
 30
0.0
 11
339.6536158437003
 21
201.6259248455072
 31
0.0
  0
LINE
  5
1A2
330
70
100
AcDbEntity
  8
shade
 62
     6
420
 16711935
370
    25
100
AcDbLine
 10
343.0907222258225
 20
201.8853291007603
 30
0.0
 11
339.6536158437003
 21
201.8853291007603
 31
0.0
  0
SPLINE
  5
1A3
330
70
100
AcDbEntity
  8
shade
 62
     6
420
 16711935
370
    25
100
AcDbSpline
210
0.0
220
0.0
230
1.0
 70
     8
 71
     3
 72
    11
 73
     7
 74
     0
 42
0.0000000001
 43
0.0000000001
 40
0.0
 40
0.0
 40
0.0
 40
0.0
 40
1.0
 40
1.0
 40
1.0
 40
2.0
 40
2.0
 40
2.0
 40
2.0
 10
343.0907222258225
 20
201.6259248455066
 30
0.0
 10
343.1623547329313
 20
201.6259248455066
 30
0.0
 10
343.2204243534495
 20
201.6839944660246
 30
0.0
 10
343.2204243534495
 20
201.7556269731338
 30
0.0
 10
343.2204243534495
 20
201.8272594802428
 30
0.0
 10
343.1623547329313
 20
201.885329100761
 30
0.0
 10
343.0907222258225
 20
201.885329100761
 30
0.0
  0
LINE
  5
1A4
330
70
100
AcDbEntity
  8
shade
 62
     6
420
 16711935
370
    25
100
AcDbLine
 10
339.6536158437003
 20
204.8463806016986
 30
0.0
 11
339.6536158437003
 21
201.8853291007603
 31
0.0
  0
LINE
  5
1A5
330
70
100
AcDbEntity
  8
shade
 62
     6
420
 16711935
370
    25
100
AcDbLine
 10
339.6536158437003
 20
201.6259248455072
 30
0.0
 11
339.6536158437003
 21
194.0556005264409
 31
0.0
  0
SPLINE
  5
1A6
330
70
100
AcDbEntity
  8
shade
 62
     6
420
 16711935
370
    25
100
AcDbSpline
210
0.0
220
0.0
230
1.0
 70
     8
 71
     3
 72
    14
 73
    10
 74
     0
 42
0.0000000001
 43
0.0000000001
 40
0.0
 40
0.0
 40
0.0
 40
0.0
 40
1.0
 40
1.0
 40
1.0
 40
2.0
 40
2.0
 40
2.0
 40
3.0
 40
3.0
 40
3.0
 40
3.0
 10
339.6536158437003
 20
248.6429392373971
 30
0.0
 10
339.6536158437003
 20
248.6429392373971
 30
0.0
 10
334.4006796748026
 20
248.6429392373971
 30
0.0
 10
334.4006796748026
 20
248.6429392373971
 30
0.0
 10
334.400679674802
 20
244.6134305859509
 30
0.0
 10
336.1463268870672
 20
240.7815220712202
 30
0.0
 10
339.1866881842422
 20
238.1370668995979
 30
0.0
 10
339.1866881842422
 20
238.1370668995979
 30
0.0
 10
339.6536158437003
 20
238.1370668995979
 30
0.0
 10
339.6536158437003
 20
238.1370668995979
 30
0.0
  0
SPLINE
  5
1A7
330
70
100
AcDbEntity
  8
shade
 62
     6
420
 16711935
370
    25
100
AcDbSpline
210
0.0
220
0.0
230
1.0
 70
     8
 71
     3
 72
    14
 73
    10
 74
     0
 42
0.0000000001
 43
0.0000000001
 40
0.0
 40
0.0
 40
0.0
 40
0.0
 40
1.0
 40
1.0
 40
1.0
 40
2.0
 40
2.0
 40
2.0
 40
3.0
 40
3.0
 40
3.0
 40
3.0
 10
339.6536158437003
 20
248.6429392373971
 30
0.0
 10
339.6536158437003
 20
248.6429392373971
 30
0.0
 10
344.9065520125989
 20
248.6429392373971
 30
0.0
 10
344.9065520125989
 20
248.6429392373971
 30
0.0
 10
344.9065520126002
 20
244.6134305859509
 30
0.0
 10
343.1609048003336
 20
240.7815220712202
 30
0.0
 10
340.1205435031589
 20
238.1370668995979
 30
0.0
 10
340.1205435031589
 20
238.1370668995979
 30
0.0
 10
339.6536158437003
 20
238.1370668995979
 30
0.0
 10
339.6536158437003
 20
238.1370668995979
 30
0.0
  0
LINE
  5
1A8
330
70
100
AcDbEntity
  8
shade
 62
     6
420
 16711935
370
    25
100
AcDbLine
 10
339.3336370581675
 20
223.4012345479744
 30
0.0
 11
339.3336370581675
 21
238.1370668995979
 31
0.0
  0
LINE
  5
1A9
330
70
100
AcDbEntity
  8
shade
 62
     6
420
 16711935
370
    25
100
AcDbLine
 10
339.3336370581675
 20
213.5795815895949
 30
0.0
 11
339.3336370581675
 21
222.8511699767485
 31
0.0
  0
LINE
  5
1AA
330
70
100
AcDbEntity
  8
shade
 62
     6
420
 16711935
370
    25
100
AcDbLine
 10
339.3336370581675
 20
205.6465993839716
 30
0.0
 11
339.3336370581675
 21
213.3105457820469
 31
0.0
  0
ENDSEC
  0
SECTION
  2
OBJECTS
  0
DICTIONARY
  5
C
330
0
100
AcDbDictionary
281
     1
  3
ACAD_COLOR
350
63
  3
ACAD_DETAILVIEWSTYLE
350
6A
  3
ACAD_GROUP
350
D
  3
ACAD_LAYOUT
350
62
  3
ACAD_MATERIAL
350
10
  3
ACAD_MLEADERSTYLE
350
66
  3
ACAD_MLINESTYLE
350
5F
  3
ACAD_PLOTSETTINGS
350
61
  3
ACAD_PLOTSTYLENAME
350
E
  3
ACAD_SCALELIST
350
42
  3
ACAD_SECTIONVIEWSTYLE
350
68
  3
ACAD_TABLESTYLE
350
64
  3
ACAD_VISUALSTYLE
350
29
  3
ACDB_RECOMPOSE_DATA
350
1B3
  3
AcDbVariableDictionary
350
1AB
  0
DICTIONARY
  5
63
102
{ACAD_REACTORS
330
C
102
}
330
C
100
AcDbDictionary
281
     1
  0
DICTIONARY
  5
6A
102
{ACAD_REACTORS
330
C
102
}
330
C
100
AcDbDictionary
281
     1
  3
Imperial24
350
6B
  0
DICTIONARY
  5
D
102
{ACAD_REACTORS
330
C
102
}
330
C
100
AcDbDictionary
281
     1
  0
DICTIONARY
  5
62
102
{ACAD_REACTORS
330
C
102
}
330
C
100
AcDbDictionary
281
     1
  3
Layout1
350
6F
  3
Layout2
350
77
  3
Model
350
73
  0
DICTIONARY
  5
10
102
{ACAD_REACTORS
330
C
102
}
330
C
100
AcDbDictionary
281
     1
  3
ByBlock
350
19
  3
ByLayer
350
11
  3
Global
350
21
  0
DICTIONARY
  5
66
102
{ACAD_REACTORS
330
C
102
}
330
C
100
AcDbDictionary
281
     1
  3
Standard
350
67
  0
DICTIONARY
  5
5F
102
{ACAD_REACTORS
330
C
102
}
330
C
100
AcDbDictionary
281
     1
  3
Standard
350
60
  0
DICTIONARY
  5
61
102
{ACAD_REACTORS
330
C
102
}
330
C
100
AcDbDictionary
281
     1
  0
ACDBDICTIONARYWDFLT
  5
E
102
{ACAD_REACTORS
330
C
102
}
330
C
100
AcDbDictionary
281
     1
  3
Normal
350
F
100
AcDbDictionaryWithDefault
340
F
  0
DICTIONARY
  5
42
102
{ACAD_REACTORS
330
C
102
}
330
C
100
AcDbDictionary
281
     1
  3
A0
350
43
  3
A1
350
44
  3
A2
350
45
  3
A3
350
46
  3
A4
350
47
  3
A5
350
48
  3
A6
350
49
  3
A7
350
4A
  3
A8
350
4B
  3
A9
350
4C
  3
B0
350
4D
  3
B1
350
4E
  3
B2
350
4F
  3
B3
350
50
  3
B4
350
51
  3
B5
350
52
  3
B6
350
53
  0
DICTIONARY
  5
68
102
{ACAD_REACTORS
330
C
102
}
330
C
100
AcDbDictionary
281
     1
  3
Imperial24
350
69
  0
DICTIONARY
  5
64
102
{ACAD_REACTORS
330
C
102
}
330
C
100
AcDbDictionary
281
     1
  3
Standard
350
65
  0
DICTIONARY
  5
29
102
{ACAD_REACTORS
330
C
102
}
330
C
100
AcDbDictionary
281
     1
  3
2dWireframe
350
2F
  3
Basic
350
2E
  3
Brighten
350
35
  3
ColorChange
350
39
  3
Conceptual
350
32
  3
Dim
350
34
  3
EdgeColorOff
350
41
  3
Facepattern
350
38
  3
Flat
350
2A
  3
FlatWithEdges
350
2B
  3
Gouraud
350
2C
  3
GouraudWithEdges
350
2D
  3
Hidden
350
31
  3
JitterOff
350
3F
  3
Linepattern
350
37
  3
OverhangOff
350
40
  3
Realistic
350
33
  3
Shaded
350
3E
  3
Shaded with edges
350
3D
  3
Shades of Gray
350
3A
  3
Sketchy
350
3B
  3
Thicken
350
36
  3
Wireframe
350
30
  3
X-Ray
350
3C
  0
XRECORD
  5
1B3
102
{ACAD_REACTORS
330
C
102
}
330
C
100
AcDbXrecord
280
     1
 90
        1
330
65
  0
DICTIONARY
  5
1AB
102
{ACAD_REACTORS
330
C
102
}
330
C
100
AcDbDictionary
281
     1
  3
CANNOSCALE
350
1B0
  3
CMLEADERSTYLE
350
1AD
  3
CTABLESTYLE
350
1AC
  3
CVIEWDETAILSTYLE
350
1AE
  3
CVIEWSECTIONSTYLE
350
1AF
  0
ACDBDETAILVIEWSTYLE
  5
6B
102
{ACAD_REACTORS
330
6A
102
}
330
6A
100
AcDbModelDocViewStyle
 70
     0
  3
Imperial24
290
     1
300
Imperial24
 90
        0
100
AcDbDetailViewStyle
 70
     0
 71
     0
 90
        3
 71
     1
340
55
 62
   256
 40
0.24
340
0
 62
   256
 40
0.24
300

 40
0.36
280
     3
 71
     2
340
5D
 90
       25
 62
   256
 71
     3
340
55
 62
   256
 40
0.24
 90
        1
 40
0.75
 90
        1
300
%<\AcVar ViewType \f "%tc1">% %<\AcVar ViewDetailId>%\PSCALE %<\AcVar ViewScale \f "%sn">%
 71
     4
340
5D
 90
       25
 62
   256
340
5D
 90
       25
 62
   256
280
     0
  0
LAYOUT
  5
6F
102
{ACAD_REACTORS
330
62
102
}
330
62
100
AcDbPlotSettings
  1

  2

  4

  6

 40
0.0
 41
0.0
 42
0.0
 43
0.0
 44
0.0
 45
0.0
 46
0.0
 47
0.0
 48
0.0
 49
0.0
140
0.0
141
0.0
142
1.0
143
1.0
 70
   688
 72
     0
 73
     0
 74
     5
  7

 75
    16
147
1.0
 76
     0
 77
     2
 78
   300
148
0.0
149
0.0
100
AcDbLayout
  1
Layout1
 70
     1
 71
     1
 10
0.0
 20
0.0
 11
12.0
 21
9.0
 12
0.0
 22
0.0
 32
0.0
 14
0.0
 24
0.0
 34
0.0
 15
0.0
 25
0.0
 35
0.0
146
0.0
 13
0.0
 23
0.0
 33
0.0
 16
1.0
 26
0.0
 36
0.0
 17
0.0
 27
1.0
 37
0.0
 76
     0
330
6C
  0
LAYOUT
  5
77
102
{ACAD_REACTORS
330
62
102
}
330
62
100
AcDbPlotSettings
  1

  2

  4

  6

 40
0.0
 41
0.0
 42
0.0
 43
0.0
 44
0.0
 45
0.0
 46
0.0
 47
0.0
 48
0.0
 49
0.0
140
0.0
141
0.0
142
1.0
143
1.0
 70
   688
 72
     0
 73
     0
 74
     5
  7

 75
    16
147
1.0
 76
     0
 77
     2
 78
   300
148
0.0
149
0.0
100
AcDbLayout
  1
Layout2
 70
     1
 71
     2
 10
0.0
 20
0.0
 11
12.0
 21
9.0
 12
0.0
 22
0.0
 32
0.0
 14
0.0
 24
0.0
 34
0.0
 15
0.0
 25
0.0
 35
0.0
146
0.0
 13
0.0
 23
0.0
 33
0.0
 16
1.0
 26
0.0
 36
0.0
 17
0.0
 27
1.0
 37
0.0
 76
     0
330
74
  0
LAYOUT
  5
73
102
{ACAD_REACTORS
330
62
102
}
330
62
100
AcDbPlotSettings
  1

  2

  4

  6

 40
0.0
 41
0.0
 42
0.0
 43
0.0
 44
0.0
 45
0.0
 46
0.0
 47
0.0
 48
0.0
 49
0.0
140
0.0
141
0.0
142
1.0
143
1.0
 70
  1712
 72
     0
 73
     0
 74
     0
  7

 75
     0
147
1.0
 76
     0
 77
     2
 78
   300
148
0.0
149
0.0
100
AcDbLayout
  1
Model
 70
     1
 71
     0
 10
0.0
 20
0.0
 11
12.0
 21
9.0
 12
0.0
 22
0.0
 32
0.0
 14
0.0
 24
0.0
 34
0.0
 15
0.0
 25
0.0
 35
0.0
146
0.0
 13
0.0
 23
0.0
 33
0.0
 16
1.0
 26
0.0
 36
0.0
 17
0.0
 27
1.0
 37
0.0
 76
     0
330
70
  0
MATERIAL
  5
19
102
{ACAD_XDICTIONARY
360
1A
102
}
102
{ACAD_REACTORS
330
10
102
}
330
10
100
AcDbMaterial
  1
ByBlock
 72
     0
 43
0.0208333333333333
 43
0.0
 43
0.0
 43
0.0
 43
0.0
 43
0.0208333333333333
 43
0.0
 43
0.0
 43
0.0
 43
0.0
 43
1.0
 43
0.0
 43
0.0
 43
0.0
 43
0.0
 43
1.0
 77
     0
 47
0.0208333333333333
 47
0.0
 47
0.0
 47
0.0
 47
0.0
 47
0.0208333333333333
 47
0.0
 47
0.0
 47
0.0
 47
0.0
 47
1.0
 47
0.0
 47
0.0
 47
0.0
 47
0.0
 47
1.0
171
     0
 49
0.0208333333333333
 49
0.0
 49
0.0
 49
0.0
 49
0.0
 49
0.0208333333333333
 49
0.0
 49
0.0
 49
0.0
 49
0.0
 49
1.0
 49
0.0
 49
0.0
 49
0.0
 49
0.0
 49
1.0
175
     0
142
0.0208333333333333
142
0.0
142
0.0
142
0.0
142
0.0
142
0.0208333333333333
142
0.0
142
0.0
142
0.0
142
0.0
142
1.0
142
0.0
142
0.0
142
0.0
142
0.0
142
1.0
179
     0
144
0.0208333333333333
144
0.0
144
0.0
144
0.0
144
0.0
144
0.0208333333333333
144
0.0
144
0.0
144
0.0
144
0.0
144
1.0
144
0.0
144
0.0
144
0.0
144
0.0
144
1.0
147
0.0208333333333333
147
0.0
147
0.0
147
0.0
147
0.0
147
0.0208333333333333
147
0.0
147
0.0
147
0.0
147
0.0
147
1.0
147
0.0
147
0.0
147
0.0
147
0.0
147
1.0
  0
MATERIAL
  5
11
102
{ACAD_XDICTIONARY
360
12
102
}
102
{ACAD_REACTORS
330
10
102
}
330
10
100
AcDbMaterial
  1
ByLayer
 72
     0
 43
0.0208333333333333
 43
0.0
 43
0.0
 43
0.0
 43
0.0
 43
0.0208333333333333
 43
0.0
 43
0.0
 43
0.0
 43
0.0
 43
1.0
 43
0.0
 43
0.0
 43
0.0
 43
0.0
 43
1.0
 77
     0
 47
0.0208333333333333
 47
0.0
 47
0.0
 47
0.0
 47
0.0
 47
0.0208333333333333
 47
0.0
 47
0.0
 47
0.0
 47
0.0
 47
1.0
 47
0.0
 47
0.0
 47
0.0
 47
0.0
 47
1.0
171
     0
 49
0.0208333333333333
 49
0.0
 49
0.0
 49
0.0
 49
0.0
 49
0.0208333333333333
 49
0.0
 49
0.0
 49
0.0
 49
0.0
 49
1.0
 49
0.0
 49
0.0
 49
0.0
 49
0.0
 49
1.0
175
     0
142
0.0208333333333333
142
0.0
142
0.0
142
0.0
142
0.0
142
0.0208333333333333
142
0.0
142
0.0
142
0.0
142
0.0
142
1.0
142
0.0
142
0.0
142
0.0
142
0.0
142
1.0
179
     0
144
0.0208333333333333
144
0.0
144
0.0
144
0.0
144
0.0
144
0.0208333333333333
144
0.0
144
0.0
144
0.0
144
0.0
144
1.0
144
0.0
144
0.0
144
0.0
144
0.0
144
1.0
147
0.0208333333333333
147
0.0
147
0.0
147
0.0
147
0.0
147
0.0208333333333333
147
0.0
147
0.0
147
0.0
147
0.0
147
1.0
147
0.0
147
0.0
147
0.0
147
0.0
147
1.0
  0
MATERIAL
  5
21
102
{ACAD_XDICTIONARY
360
22
102
}
102
{ACAD_REACTORS
330
10
102
}
330
10
100
AcDbMaterial
  1
Global
 72
     0
 43
0.0208333333333333
 43
0.0
 43
0.0
 43
0.0
 43
0.0
 43
0.0208333333333333
 43
0.0
 43
0.0
 43
0.0
 43
0.0
 43
1.0
 43
0.0
 43
0.0
 43
0.0
 43
0.0
 43
1.0
 77
     0
 47
0.0208333333333333
 47
0.0
 47
0.0
 47
0.0
 47
0.0
 47
0.0208333333333333
 47
0.0
 47
0.0
 47
0.0
 47
0.0
 47
1.0
 47
0.0
 47
0.0
 47
0.0
 47
0.0
 47
1.0
171
     0
 49
0.0208333333333333
 49
0.0
 49
0.0
 49
0.0
 49
0.0
 49
0.0208333333333333
 49
0.0
 49
0.0
 49
0.0
 49
0.0
 49
1.0
 49
0.0
 49
0.0
 49
0.0
 49
0.0
 49
1.0
175
     0
142
0.0208333333333333
142
0.0
142
0.0
142
0.0
142
0.0
142
0.0208333333333333
142
0.0
142
0.0
142
0.0
142
0.0
142
1.0
142
0.0
142
0.0
142
0.0
142
0.0
142
1.0
179
     0
144
0.0208333333333333
144
0.0
144
0.0
144
0.0
144
0.0
144
0.0208333333333333
144
0.0
144
0.0
144
0.0
144
0.0
144
1.0
144
0.0
144
0.0
144
0.0
144
0.0
144
1.0
147
0.0208333333333333
147
0.0
147
0.0
147
0.0
147
0.0
147
0.0208333333333333
147
0.0
147
0.0
147
0.0
147
0.0
147
1.0
147
0.0
147
0.0
147
0.0
147
0.0
147
1.0
  0
MLEADERSTYLE
  5
67
102
{ACAD_REACTORS
330
66
102
}
330
66
100
AcDbMLeaderStyle
179
     2
170
     2
171
     1
172
     0
 90
        2
 40
0.0
 41
0.0
173
     1
 91
-1056964608
340
5B
 92
       -2
290
     1
 42
0.09
291
     1
 43
0.36
  3
Standard
 44
0.18
300

342
55
174
     1
178
     6
175
     1
176
     0
 93
-1056964608
 45
0.18
292
     0
297
     0
 46
0.18
 94
-1056964608
 47
1.0
 49
1.0
140
1.0
293
     1
141
0.0
294
     1
177
     0
142
1.0
295
     1
296
     0
143
0.125
271
     0
272
     9
273
     9
298
     1
  0
MLINESTYLE
  5
60
102
{ACAD_REACTORS
330
5F
102
}
330
5F
100
AcDbMlineStyle
  2
STANDARD
 70
     0
  3

 62
   256
 51
90.0
 52
90.0
 71
     2
 49
0.5
 62
   256
  6
BYLAYER
 49
-0.5
 62
   256
  6
BYLAYER
  0
ACDBPLACEHOLDER
  5
F
102
{ACAD_REACTORS
330
E
102
}
330
E
  0
SCALE
  5
43
102
{ACAD_REACTORS
330
42
102
}
330
42
100
AcDbScale
 70
     0
300
1:1
140
1.0
141
1.0
290
     1
  0
SCALE
  5
44
102
{ACAD_REACTORS
330
42
102
}
330
42
100
AcDbScale
 70
     0
300
1/128" = 1'-0"
140
0.0078125
141
12.0
290
     0
  0
SCALE
  5
45
102
{ACAD_REACTORS
330
42
102
}
330
42
100
AcDbScale
 70
     0
300
1/64" = 1'-0"
140
0.015625
141
12.0
290
     0
  0
SCALE
  5
46
102
{ACAD_REACTORS
330
42
102
}
330
42
100
AcDbScale
 70
     0
300
1/32" = 1'-0"
140
0.03125
141
12.0
290
     0
  0
SCALE
  5
47
102
{ACAD_REACTORS
330
42
102
}
330
42
100
AcDbScale
 70
     0
300
1/16" = 1'-0"
140
0.0625
141
12.0
290
     0
  0
SCALE
  5
48
102
{ACAD_REACTORS
330
42
102
}
330
42
100
AcDbScale
 70
     0
300
3/32" = 1'-0"
140
0.09375
141
12.0
290
     0
  0
SCALE
  5
49
102
{ACAD_REACTORS
330
42
102
}
330
42
100
AcDbScale
 70
     0
300
1/8" = 1'-0"
140
0.125
141
12.0
290
     0
  0
SCALE
  5
4A
102
{ACAD_REACTORS
330
42
102
}
330
42
100
AcDbScale
 70
     0
300
3/16" = 1'-0"
140
0.1875
141
12.0
290
     0
  0
SCALE
  5
4B
102
{ACAD_REACTORS
330
42
102
}
330
42
100
AcDbScale
 70
     0
300
1/4" = 1'-0"
140
0.25
141
12.0
290
     0
  0
SCALE
  5
4C
102
{ACAD_REACTORS
330
42
102
}
330
42
100
AcDbScale
 70
     0
300
3/8" = 1'-0"
140
0.375
141
12.0
290
     0
  0
SCALE
  5
4D
102
{ACAD_REACTORS
330
42
102
}
330
42
100
AcDbScale
 70
     0
300
1/2" = 1'-0"
140
0.5
141
12.0
290
     0
  0
SCALE
  5
4E
102
{ACAD_REACTORS
330
42
102
}
330
42
100
AcDbScale
 70
     0
300
3/4" = 1'-0"
140
0.75
141
12.0
290
     0
  0
SCALE
  5
4F
102
{ACAD_REACTORS
330
42
102
}
330
42
100
AcDbScale
 70
     0
300
1" = 1'-0"
140
1.0
141
12.0
290
     0
  0
SCALE
  5
50
102
{ACAD_REACTORS
330
42
102
}
330
42
100
AcDbScale
 70
     0
300
1-1/2" = 1'-0"
140
1.5
141
12.0
290
     0
  0
SCALE
  5
51
102
{ACAD_REACTORS
330
42
102
}
330
42
100
AcDbScale
 70
     0
300
3" = 1'-0"
140
3.0
141
12.0
290
     0
  0
SCALE
  5
52
102
{ACAD_REACTORS
330
42
102
}
330
42
100
AcDbScale
 70
     0
300
6" = 1'-0"
140
6.0
141
12.0
290
     0
  0
SCALE
  5
53
102
{ACAD_REACTORS
330
42
102
}
330
42
100
AcDbScale
 70
     0
300
1'-0" = 1'-0"
140
12.0
141
12.0
290
     0
  0
ACDBSECTIONVIEWSTYLE
  5
69
102
{ACAD_REACTORS
330
68
102
}
330
68
100
AcDbModelDocViewStyle
 70
     0
  3
Imperial24
290
     1
300
Imperial24
 90
        0
100
AcDbSectionViewStyle
 70
     0
 71
     0
 90
       78
 71
     1
340
55
 62
   256
 40
0.24
340
0
340
0
 62
   256
 40
0.24
300
I, O, Q, S, X, Z
 40
0.48
 90
        3
 40
0.18
 90
        1
 71
     2
340
5D
 90
       25
 62
   256
340
5D
 90
       50
 62
   256
 40
0.24
 40
0.0
 40
0.24
 71
     3
340
55
 62
   256
 40
0.24
 90
        1
 40
0.75
 90
        1
300
%<\AcVar ViewType \f "%tc1">% %<\AcVar ViewSectionStartId>%-%<\AcVar ViewSectionEndId>%\PSCALE %<\AcVar ViewScale \f "%sn">%
 71
     4
 62
   256
 62
   257
300
ANSI31
 40
1.0
 90
        0
290
     0
290
     0
 90
        6
 40
0.0
 40
1.570796326794896
 40
0.2617993877991494
 40
1.308996938995747
 40
-0.2617993877991494
 40
1.832595714594046
  0
TABLESTYLE
  5
65
102
{ACAD_XDICTIONARY
360
1B1
102
}
102
{ACAD_REACTORS
330
64
102
}
330
64
100
AcDbTableStyle
280
     0
  3
Standard
 70
     0
 71
     0
 40
0.06
 41
0.06
280
     0
281
     0
  7
Standard
140
0.18
170
     2
 62
     0
 63
     7
283
     0
 90
      512
 91
        0
  1

274
    -2
284
     1
 64
     0
275
    -2
285
     1
 65
     0
276
    -2
286
     1
 66
     0
277
    -2
287
     1
 67
     0
278
    -2
288
     1
 68
     0
279
    -2
289
     1
 69
     0
  7
Standard
140
0.25
170
     5
 62
     0
 63
     7
283
     0
 90
      512
 91
        0
  1

274
    -2
284
     1
 64
     0
275
    -2
285
     1
 65
     0
276
    -2
286
     1
 66
     0
277
    -2
287
     1
 67
     0
278
    -2
288
     1
 68
     0
279
    -2
289
     1
 69
     0
  7
Standard
140
0.18
170
     5
 62
     0
 63
     7
283
     0
 90
      512
 91
        0
  1

274
    -2
284
     1
 64
     0
275
    -2
285
     1
 65
     0
276
    -2
286
     1
 66
     0
277
    -2
287
     1
 67
     0
278
    -2
288
     1
 68
     0
279
    -2
289
     1
 69
     0
  0
VISUALSTYLE
  5
2F
102
{ACAD_REACTORS
330
29
102
}
330
29
100
AcDbVisualStyle
  2
2dWireframe
 70
     4
177
     3
291
     0
 70
    58
 90
        0
176
     1
 90
        2
176
     1
 90
        0
176
     1
 90
        0
176
     1
 40
0.6
176
     1
 40
30.0
176
     1
 62
     7
420
 16777215
176
     1
 90
        1
176
     1
 90
        4
176
     1
 62
     7
176
     1
 62
   257
176
     1
 90
        1
176
     1
 90
        1
176
     1
 40
1.0
176
     1
 90
        0
176
     1
 62
   257
176
     1
 40
1.0
176
     1
 90
        1
176
     1
 90
        6
176
     1
 90
        2
176
     1
 62
     7
176
     1
 90
        5
176
     1
 90
        0
176
     1
 90
        0
176
     1
290
     0
176
     1
 90
        1
176
     1
 40
0.0
176
     1
 90
        0
176
     1
290
     1
176
     1
290
     1
176
     1
290
     0
176
     1
290
     0
176
     1
290
     0
176
     1
290
     0
176
     1
290
     0
176
     1
290
     0
176
     1
290
     0
176
     1
 90
       50
176
     1
 40
0.0
176
     1
 40
1.0
176
     1
 90
        0
176
     1
 62
    18
420
        0
176
     1
 90
       50
176
     1
 90
        3
176
     1
 62
     5
420
      255
176
     1
290
     0
176
     1
 90
       50
176
     1
 90
       50
176
     1
 90
       50
176
     1
290
     0
176
     1
 90
       50
176
     1
 62
   256
176
     0
 40
1.0
176
     0
 90
        2
176
     1
  1
strokes_ogs.tif
176
     1
290
     0
176
     1
 40
1.0
176
     1
 40
1.0
176
     1
  0
VISUALSTYLE
  5
2E
102
{ACAD_REACTORS
330
29
102
}
330
29
100
AcDbVisualStyle
  2
Basic
 70
     7
177
     3
291
     1
 70
    58
 90
        1
176
     1
 90
        0
176
     1
 90
        1
176
     1
 90
        0
176
     1
 40
0.6
176
     1
 40
30.0
176
     1
 62
     7
420
 16777215
176
     1
 90
        0
176
     1
 90
        4
176
     1
 62
     7
176
     1
 62
   257
176
     1
 90
        1
176
     1
 90
        1
176
     1
 40
1.0
176
     1
 90
        8
176
     1
 62
     7
176
     1
 40
1.0
176
     1
 90
        1
176
     1
 90
        6
176
     1
 90
        2
176
     1
 62
     7
176
     1
 90
        5
176
     1
 90
        0
176
     1
 90
        0
176
     1
290
     0
176
     1
 90
        1
176
     1
 40
0.0
176
     1
 90
        0
176
     1
290
     0
176
     1
290
     1
176
     1
290
     1
176
     1
290
     0
176
     1
290
     0
176
     1
290
     0
176
     1
290
     0
176
     1
290
     0
176
     1
290
     0
176
     1
 90
       50
176
     1
 40
0.0
176
     1
 40
1.0
176
     1
 90
        0
176
     1
 62
    18
420
        0
176
     1
 90
       50
176
     1
 90
        3
176
     1
 62
     5
420
      255
176
     1
290
     0
176
     1
 90
       50
176
     1
 90
       50
176
     1
 90
       50
176
     1
290
     0
176
     1
 90
       50
176
     1
 62
   256
176
     0
 40
1.0
176
     0
 90
        2
176
     1
  1
strokes_ogs.tif
176
     1
290
     0
176
     1
 40
1.0
176
     1
 40
1.0
176
     1
  0
VISUALSTYLE
  5
35
102
{ACAD_REACTORS
330
29
102
}
330
29
100
AcDbVisualStyle
  2
Brighten
 70
    12
177
     3
291
     1
 70
    58
 90
        2
176
     1
 90
        2
176
     1
 90
        0
176
     1
 90
        0
176
     1
 40
0.6
176
     1
 40
30.0
176
     1
 62
     7
420
 16777215
176
     1
 90
        1
176
     1
 90
        4
176
     1
 62
     7
176
     1
 62
   257
176
     1
 90
        1
176
     1
 90
        1
176
     1
 40
1.0
176
     1
 90
        8
176
     1
 62
     7
176
     1
 40
1.0
176
     1
 90
        1
176
     1
 90
        6
176
     1
 90
        2
176
     1
 62
     7
176
     1
 90
        5
176
     1
 90
        0
176
     1
 90
        0
176
     1
290
     0
176
     1
 90
        1
176
     1
 40
50.0
176
     1
 90
        0
176
     1
290
     0
176
     1
290
     1
176
     1
290
     1
176
     1
290
     0
176
     1
290
     0
176
     1
290
     0
176
     1
290
     0
176
     1
290
     0
176
     1
290
     0
176
     1
 90
       50
176
     1
 40
0.0
176
     1
 40
1.0
176
     1
 90
        0
176
     1
 62
    18
420
        0
176
     1
 90
       50
176
     1
 90
        3
176
     1
 62
     5
420
      255
176
     1
290
     0
176
     1
 90
       50
176
     1
 90
       50
176
     1
 90
       50
176
     1
290
     0
176
     1
 90
       50
176
     1
 62
   256
176
     0
 40
1.0
176
     0
 90
        2
176
     1
  1
strokes_ogs.tif
176
     1
290
     0
176
     1
 40
1.0
176
     1
 40
1.0
176
     1
  0
VISUALSTYLE
  5
39
102
{ACAD_REACTORS
330
29
102
}
330
29
100
AcDbVisualStyle
  2
ColorChange
 70
    16
177
     3
291
     1
 70
    58
 90
        2
176
     1
 90
        2
176
     1
 90
        3
176
     1
 90
        0
176
     1
 40
0.6
176
     1
 40
30.0
176
     1
 62
     8
420
  8421504
176
     1
 90
        1
176
     1
 90
        4
176
     1
 62
     7
176
     1
 62
   257
176
     1
 90
        1
176
     1
 90
        1
176
     1
 40
1.0
176
     1
 90
        8
176
     1
 62
     8
420
  8421504
176
     1
 40
1.0
176
     1
 90
        1
176
     1
 90
        6
176
     1
 90
        2
176
     1
 62
     7
176
     1
 90
        5
176
     1
 90
        0
176
     1
 90
        0
176
     1
290
     0
176
     1
 90
        1
176
     1
 40
0.0
176
     1
 90
        0
176
     1
290
     0
176
     1
290
     1
176
     1
290
     1
176
     1
290
     0
176
     1
290
     0
176
     1
290
     0
176
     1
290
     0
176
     1
290
     0
176
     1
290
     0
176
     1
 90
       50
176
     1
 40
0.0
176
     1
 40
1.0
176
     1
 90
        0
176
     1
 62
    18
420
        0
176
     1
 90
       50
176
     1
 90
        3
176
     1
 62
     5
420
      255
176
     1
290
     0
176
     1
 90
       50
176
     1
 90
       50
176
     1
 90
       50
176
     1
290
     0
176
     1
 90
       50
176
     1
 62
   256
176
     0
 40
1.0
176
     0
 90
        2
176
     1
  1
strokes_ogs.tif
176
     1
290
     0
176
     1
 40
1.0
176
     1
 40
1.0
176
     1
  0
VISUALSTYLE
  5
32
102
{ACAD_REACTORS
330
29
102
}
330
29
100
AcDbVisualStyle
  2
Conceptual
 70
     9
177
     3
291
     0
 70
    58
 90
        3
176
     1
 90
        2
176
     1
 90
        0
176
     1
 90
        0
176
     1
 40
0.6
176
     1
 40
30.0
176
     1
 62
     7
420
 16777215
176
     1
 90
        2
176
     1
 90
        2
176
     1
 62
     7
176
     1
 62
   257
176
     1
 90
        1
176
     1
 90
        1
176
     1
 40
179.0
176
     1
 90
        8
176
     1
 62
     7
176
     1
 40
1.0
176
     1
 90
        1
176
     1
 90
        6
176
     1
 90
        2
176
     1
 62
     7
176
     1
 90
        3
176
     1
 90
        0
176
     1
 90
        0
176
     1
290
     0
176
     1
 90
        1
176
     1
 40
0.0
176
     1
 90
        0
176
     1
290
     0
176
     1
290
     1
176
     1
290
     1
176
     1
290
     0
176
     1
290
     0
176
     1
290
     0
176
     1
290
     0
176
     1
290
     0
176
     1
290
     0
176
     1
 90
       50
176
     1
 40
0.0
176
     1
 40
1.0
176
     1
 90
        0
176
     1
 62
    18
420
        0
176
     1
 90
       50
176
     1
 90
        3
176
     1
 62
     5
420
      255
176
     1
290
     0
176
     1
 90
       50
176
     1
 90
       50
176
     1
 90
       50
176
     1
290
     0
176
     1
 90
       50
176
     1
 62
   256
176
     0
 40
1.0
176
     0
 90
        2
176
     1
  1
strokes_ogs.tif
176
     1
290
     0
176
     1
 40
1.0
176
     1
 40
1.0
176
     1
  0
VISUALSTYLE
  5
34
102
{ACAD_REACTORS
330
29
102
}
330
29
100
AcDbVisualStyle
  2
Dim
 70
    11
177
     3
291
     1
 70
    58
 90
        2
176
     1
 90
        2
176
     1
 90
        0
176
     1
 90
        0
176
     1
 40
0.6
176
     1
 40
30.0
176
     1
 62
     7
420
 16777215
176
     1
 90
        1
176
     1
 90
        4
176
     1
 62
     7
176
     1
 62
   257
176
     1
 90
        1
176
     1
 90
        1
176
     1
 40
1.0
176
     1
 90
        8
176
     1
 62
     7
176
     1
 40
1.0
176
     1
 90
        1
176
     1
 90
        6
176
     1
 90
        2
176
     1
 62
     7
176
     1
 90
        5
176
     1
 90
        0
176
     1
 90
        0
176
     1
290
     0
176
     1
 90
        1
176
     1
 40
-50.0
176
     1
 90
        0
176
     1
290
     0
176
     1
290
     1
176
     1
290
     1
176
     1
290
     0
176
     1
290
     0
176
     1
290
     0
176
     1
290
     0
176
     1
290
     0
176
     1
290
     0
176
     1
 90
       50
176
     1
 40
0.0
176
     1
 40
1.0
176
     1
 90
        0
176
     1
 62
    18
420
        0
176
     1
 90
       50
176
     1
 90
        3
176
     1
 62
     5
420
      255
176
     1
290
     0
176
     1
 90
       50
176
     1
 90
       50
176
     1
 90
       50
176
     1
290
     0
176
     1
 90
       50
176
     1
 62
   256
176
     0
 40
1.0
176
     0
 90
        2
176
     1
  1
strokes_ogs.tif
176
     1
290
     0
176
     1
 40
1.0
176
     1
 40
1.0
176
     1
  0
VISUALSTYLE
  5
41
102
{ACAD_REACTORS
330
29
102
}
330
29
100
AcDbVisualStyle
  2
EdgeColorOff
 70
    22
177
     3
291
     1
 70
    58
 90
        2
176
     0
 90
        2
176
     0
 90
        0
176
     0
 90
        0
176
     0
 40
0.6
176
     0
 40
30.0
176
     0
 62
     7
420
 16777215
176
     0
 90
        1
176
     0
 90
        4
176
     0
 62
     7
176
     0
 62
   257
176
     0
 90
        1
176
     0
 90
        1
176
     0
 40
1.0
176
     0
 90
        8
176
     2
 62
     7
176
     0
 40
1.0
176
     0
 90
        1
176
     0
 90
        6
176
     0
 90
        2
176
     0
 62
     7
176
     0
 90
        5
176
     0
 90
        0
176
     0
 90
        0
176
     0
290
     0
176
     0
 90
        1
176
     0
 40
0.0
176
     0
 90
        0
176
     0
290
     0
176
     0
290
     1
176
     0
290
     1
176
     0
290
     0
176
     0
290
     0
176
     0
290
     0
176
     0
290
     0
176
     0
290
     0
176
     0
290
     0
176
     0
 90
       50
176
     0
 40
0.0
176
     0
 40
1.0
176
     0
 90
        0
176
     0
 62
    18
420
        0
176
     0
 90
       50
176
     0
 90
        3
176
     0
 62
     5
420
      255
176
     0
290
     0
176
     0
 90
       50
176
     0
 90
       50
176
     0
 90
       50
176
     0
290
     0
176
     0
 90
       50
176
     0
 62
   256
176
     0
 40
1.0
176
     0
 90
        2
176
     0
  1
strokes_ogs.tif
176
     0
290
     0
176
     0
 40
1.0
176
     0
 40
1.0
176
     0
  0
VISUALSTYLE
  5
38
102
{ACAD_REACTORS
330
29
102
}
330
29
100
AcDbVisualStyle
  2
Facepattern
 70
    15
177
     3
291
     1
 70
    58
 90
        2
176
     1
 90
        2
176
     1
 90
        0
176
     1
 90
        0
176
     1
 40
0.6
176
     1
 40
30.0
176
     1
 62
     7
420
 16777215
176
     1
 90
        1
176
     1
 90
        4
176
     1
 62
     7
176
     1
 62
   257
176
     1
 90
        1
176
     1
 90
        1
176
     1
 40
1.0
176
     1
 90
        8
176
     1
 62
     7
176
     1
 40
1.0
176
     1
 90
        1
176
     1
 90
        6
176
     1
 90
        2
176
     1
 62
     7
176
     1
 90
        5
176
     1
 90
        0
176
     1
 90
        0
176
     1
290
     0
176
     1
 90
        1
176
     1
 40
0.0
176
     1
 90
        0
176
     1
290
     0
176
     1
290
     1
176
     1
290
     1
176
     1
290
     0
176
     1
290
     0
176
     1
290
     0
176
     1
290
     0
176
     1
290
     0
176
     1
290
     0
176
     1
 90
       50
176
     1
 40
0.0
176
     1
 40
1.0
176
     1
 90
        0
176
     1
 62
    18
420
        0
176
     1
 90
       50
176
     1
 90
        3
176
     1
 62
     5
420
      255
176
     1
290
     0
176
     1
 90
       50
176
     1
 90
       50
176
     1
 90
       50
176
     1
290
     0
176
     1
 90
       50
176
     1
 62
   256
176
     0
 40
1.0
176
     0
 90
        2
176
     1
  1
strokes_ogs.tif
176
     1
290
     0
176
     1
 40
1.0
176
     1
 40
1.0
176
     1
  0
VISUALSTYLE
  5
2A
102
{ACAD_REACTORS
330
29
102
}
330
29
100
AcDbVisualStyle
  2
Flat
 70
     0
177
     3
291
     1
 70
    58
 90
        2
176
     1
 90
        1
176
     1
 90
        1
176
     1
 90
        2
176
     1
 40
0.6
176
     1
 40
30.0
176
     1
 62
     7
420
 16777215
176
     1
 90
        0
176
     1
 90
        0
176
     1
 62
     7
176
     1
 62
   257
176
     1
 90
        1
176
     1
 90
        1
176
     1
 40
1.0
176
     1
 90
        8
176
     1
 62
     7
176
     1
 40
1.0
176
     1
 90
        1
176
     1
 90
        6
176
     1
 90
        2
176
     1
 62
     7
176
     1
 90
        5
176
     1
 90
        0
176
     1
 90
        0
176
     1
290
     0
176
     1
 90
       13
176
     1
 40
0.0
176
     1
 90
        0
176
     1
290
     0
176
     1
290
     1
176
     1
290
     1
176
     1
290
     0
176
     1
290
     0
176
     1
290
     0
176
     1
290
     0
176
     1
290
     0
176
     1
290
     0
176
     1
 90
       50
176
     1
 40
0.0
176
     1
 40
1.0
176
     1
 90
        0
176
     1
 62
    18
420
        0
176
     1
 90
       50
176
     1
 90
        3
176
     1
 62
     5
420
      255
176
     1
290
     0
176
     1
 90
       50
176
     1
 90
       50
176
     1
 90
       50
176
     1
290
     0
176
     1
 90
       50
176
     1
 62
   256
176
     0
 40
1.0
176
     0
 90
        2
176
     1
  1
strokes_ogs.tif
176
     1
290
     0
176
     1
 40
1.0
176
     1
 40
1.0
176
     1
  0
VISUALSTYLE
  5
2B
102
{ACAD_REACTORS
330
29
102
}
330
29
100
AcDbVisualStyle
  2
FlatWithEdges
 70
     1
177
     3
291
     1
 70
    58
 90
        2
176
     1
 90
        1
176
     1
 90
        1
176
     1
 90
        2
176
     1
 40
0.6
176
     1
 40
30.0
176
     1
 62
     7
420
 16777215
176
     1
 90
        1
176
     1
 90
        0
176
     1
 62
     7
176
     1
 62
   257
176
     1
 90
        1
176
     1
 90
        1
176
     1
 40
1.0
176
     1
 90
        0
176
     1
 62
   257
176
     1
 40
1.0
176
     1
 90
        1
176
     1
 90
        6
176
     1
 90
        2
176
     1
 62
     7
176
     1
 90
        5
176
     1
 90
        0
176
     1
 90
        0
176
     1
290
     0
176
     1
 90
       13
176
     1
 40
0.0
176
     1
 90
        0
176
     1
290
     0
176
     1
290
     1
176
     1
290
     1
176
     1
290
     0
176
     1
290
     0
176
     1
290
     0
176
     1
290
     0
176
     1
290
     0
176
     1
290
     0
176
     1
 90
       50
176
     1
 40
0.0
176
     1
 40
1.0
176
     1
 90
        0
176
     1
 62
    18
420
        0
176
     1
 90
       50
176
     1
 90
        3
176
     1
 62
     5
420
      255
176
     1
290
     0
176
     1
 90
       50
176
     1
 90
       50
176
     1
 90
       50
176
     1
290
     0
176
     1
 90
       50
176
     1
 62
   256
176
     0
 40
1.0
176
     0
 90
        2
176
     1
  1
strokes_ogs.tif
176
     1
290
     0
176
     1
 40
1.0
176
     1
 40
1.0
176
     1
  0
VISUALSTYLE
  5
2C
102
{ACAD_REACTORS
330
29
102
}
330
29
100
AcDbVisualStyle
  2
Gouraud
 70
     2
177
     3
291
     1
 70
    58
 90
        2
176
     1
 90
        2
176
     1
 90
        1
176
     1
 90
        2
176
     1
 40
0.6
176
     1
 40
30.0
176
     1
 62
     7
420
 16777215
176
     1
 90
        0
176
     1
 90
        0
176
     1
 62
     7
176
     1
 62
   257
176
     1
 90
        1
176
     1
 90
        1
176
     1
 40
1.0
176
     1
 90
        0
176
     1
 62
     7
176
     1
 40
1.0
176
     1
 90
        1
176
     1
 90
        6
176
     1
 90
        2
176
     1
 62
     7
176
     1
 90
        5
176
     1
 90
        0
176
     1
 90
        0
176
     1
290
     0
176
     1
 90
       13
176
     1
 40
0.0
176
     1
 90
        0
176
     1
290
     0
176
     1
290
     1
176
     1
290
     1
176
     1
290
     0
176
     1
290
     0
176
     1
290
     0
176
     1
290
     0
176
     1
290
     0
176
     1
290
     0
176
     1
 90
       50
176
     1
 40
0.0
176
     1
 40
1.0
176
     1
 90
        0
176
     1
 62
    18
420
        0
176
     1
 90
       50
176
     1
 90
        3
176
     1
 62
     5
420
      255
176
     1
290
     0
176
     1
 90
       50
176
     1
 90
       50
176
     1
 90
       50
176
     1
290
     0
176
     1
 90
       50
176
     1
 62
   256
176
     0
 40
1.0
176
     0
 90
        2
176
     1
  1
strokes_ogs.tif
176
     1
290
     0
176
     1
 40
1.0
176
     1
 40
1.0
176
     1
  0
VISUALSTYLE
  5
2D
102
{ACAD_REACTORS
330
29
102
}
330
29
100
AcDbVisualStyle
  2
GouraudWithEdges
 70
     3
177
     3
291
     1
 70
    58
 90
        2
176
     1
 90
        2
176
     1
 90
        1
176
     1
 90
        2
176
     1
 40
0.6
176
     1
 40
30.0
176
     1
 62
     7
420
 16777215
176
     1
 90
        1
176
     1
 90
        0
176
     1
 62
     7
176
     1
 62
   257
176
     1
 90
        1
176
     1
 90
        1
176
     1
 40
1.0
176
     1
 90
        0
176
     1
 62
   257
176
     1
 40
1.0
176
     1
 90
        1
176
     1
 90
        6
176
     1
 90
        2
176
     1
 62
     7
176
     1
 90
        5
176
     1
 90
        0
176
     1
 90
        0
176
     1
290
     0
176
     1
 90
       13
176
     1
 40
0.0
176
     1
 90
        0
176
     1
290
     0
176
     1
290
     1
176
     1
290
     1
176
     1
290
     0
176
     1
290
     0
176
     1
290
     0
176
     1
290
     0
176
     1
290
     0
176
     1
290
     0
176
     1
 90
       50
176
     1
 40
0.0
176
     1
 40
1.0
176
     1
 90
        0
176
     1
 62
    18
420
        0
176
     1
 90
       50
176
     1
 90
        3
176
     1
 62
     5
420
      255
176
     1
290
     0
176
     1
 90
       50
176
     1
 90
       50
176
     1
 90
       50
176
     1
290
     0
176
     1
 90
       50
176
     1
 62
   256
176
     0
 40
1.0
176
     0
 90
        2
176
     1
  1
strokes_ogs.tif
176
     1
290
     0
176
     1
 40
1.0
176
     1
 40
1.0
176
     1
  0
VISUALSTYLE
  5
31
102
{ACAD_REACTORS
330
29
102
}
330
29
100
AcDbVisualStyle
  2
Hidden
 70
     6
177
     3
291
     0
 70
    58
 90
        1
176
     1
 90
        2
176
     1
 90
        2
176
     1
 90
        0
176
     1
 40
0.6
176
     1
 40
30.0
176
     1
 62
     7
420
 16777215
176
     1
 90
        2
176
     1
 90
        2
176
     1
 62
     7
176
     1
 62
   257
176
     1
 90
        2
176
     1
 90
        1
176
     1
 40
40.0
176
     1
 90
        0
176
     1
 62
   257
176
     1
 40
1.0
176
     1
 90
        1
176
     1
 90
        6
176
     1
 90
        2
176
     1
 62
     7
176
     1
 90
        3
176
     1
 90
        0
176
     1
 90
        0
176
     1
290
     0
176
     1
 90
        1
176
     1
 40
0.0
176
     1
 90
        0
176
     1
290
     0
176
     1
290
     1
176
     1
290
     1
176
     1
290
     0
176
     1
290
     0
176
     1
290
     0
176
     1
290
     0
176
     1
290
     0
176
     1
290
     0
176
     1
 90
       50
176
     1
 40
0.0
176
     1
 40
1.0
176
     1
 90
        0
176
     1
 62
    18
420
        0
176
     1
 90
       50
176
     1
 90
        3
176
     1
 62
     5
420
      255
176
     1
290
     0
176
     1
 90
       50
176
     1
 90
       50
176
     1
 90
       50
176
     1
290
     0
176
     1
 90
       50
176
     1
 62
   256
176
     0
 40
1.0
176
     0
 90
        2
176
     1
  1
strokes_ogs.tif
176
     1
290
     0
176
     1
 40
1.0
176
     1
 40
1.0
176
     1
  0
VISUALSTYLE
  5
3F
102
{ACAD_REACTORS
330
29
102
}
330
29
100
AcDbVisualStyle
  2
JitterOff
 70
    20
177
     3
291
     1
 70
    58
 90
        2
176
     0
 90
        2
176
     0
 90
        0
176
     0
 90
        0
176
     0
 40
0.6
176
     0
 40
30.0
176
     0
 62
     7
420
 16777215
176
     0
 90
        1
176
     0
 90
        4
176
     0
 62
     7
176
     0
 62
   257
176
     0
 90
        1
176
     0
 90
        1
176
     0
 40
1.0
176
     0
 90
       10
176
     2
 62
     7
176
     0
 40
1.0
176
     0
 90
        1
176
     0
 90
        6
176
     0
 90
        2
176
     0
 62
     7
176
     0
 90
        5
176
     0
 90
        0
176
     0
 90
        0
176
     0
290
     0
176
     0
 90
        1
176
     0
 40
0.0
176
     0
 90
        0
176
     0
290
     0
176
     0
290
     1
176
     0
290
     1
176
     0
290
     0
176
     0
290
     0
176
     0
290
     0
176
     0
290
     0
176
     0
290
     0
176
     0
290
     0
176
     0
 90
       50
176
     0
 40
0.0
176
     0
 40
1.0
176
     0
 90
        0
176
     0
 62
    18
420
        0
176
     0
 90
       50
176
     0
 90
        3
176
     0
 62
     5
420
      255
176
     0
290
     0
176
     0
 90
       50
176
     0
 90
       50
176
     0
 90
       50
176
     0
290
     0
176
     0
 90
       50
176
     0
 62
   256
176
     0
 40
1.0
176
     0
 90
        2
176
     0
  1
strokes_ogs.tif
176
     0
290
     0
176
     0
 40
1.0
176
     0
 40
1.0
176
     0
  0
VISUALSTYLE
  5
37
102
{ACAD_REACTORS
330
29
102
}
330
29
100
AcDbVisualStyle
  2
Linepattern
 70
    14
177
     3
291
     1
 70
    58
 90
        2
176
     1
 90
        2
176
     1
 90
        0
176
     1
 90
        0
176
     1
 40
0.6
176
     1
 40
30.0
176
     1
 62
     7
420
 16777215
176
     1
 90
        1
176
     1
 90
        4
176
     1
 62
     7
176
     1
 62
   257
176
     1
 90
        7
176
     1
 90
        7
176
     1
 40
1.0
176
     1
 90
        8
176
     1
 62
     7
176
     1
 40
1.0
176
     1
 90
        1
176
     1
 90
        6
176
     1
 90
        2
176
     1
 62
     7
176
     1
 90
        5
176
     1
 90
        0
176
     1
 90
        0
176
     1
290
     0
176
     1
 90
        1
176
     1
 40
0.0
176
     1
 90
        0
176
     1
290
     0
176
     1
290
     1
176
     1
290
     1
176
     1
290
     0
176
     1
290
     0
176
     1
290
     0
176
     1
290
     0
176
     1
290
     0
176
     1
290
     0
176
     1
 90
       50
176
     1
 40
0.0
176
     1
 40
1.0
176
     1
 90
        0
176
     1
 62
    18
420
        0
176
     1
 90
       50
176
     1
 90
        3
176
     1
 62
     5
420
      255
176
     1
290
     0
176
     1
 90
       50
176
     1
 90
       50
176
     1
 90
       50
176
     1
290
     0
176
     1
 90
       50
176
     1
 62
   256
176
     0
 40
1.0
176
     0
 90
        2
176
     1
  1
strokes_ogs.tif
176
     1
290
     0
176
     1
 40
1.0
176
     1
 40
1.0
176
     1
  0
VISUALSTYLE
  5
40
102
{ACAD_REACTORS
330
29
102
}
330
29
100
AcDbVisualStyle
  2
OverhangOff
 70
    21
177
     3
291
     1
 70
    58
 90
        2
176
     0
 90
        2
176
     0
 90
        0
176
     0
 90
        0
176
     0
 40
0.6
176
     0
 40
30.0
176
     0
 62
     7
420
 16777215
176
     0
 90
        1
176
     0
 90
        4
176
     0
 62
     7
176
     0
 62
   257
176
     0
 90
        1
176
     0
 90
        1
176
     0
 40
1.0
176
     0
 90
        9
176
     2
 62
     7
176
     0
 40
1.0
176
     0
 90
        1
176
     0
 90
        6
176
     0
 90
        2
176
     0
 62
     7
176
     0
 90
        5
176
     0
 90
        0
176
     0
 90
        0
176
     0
290
     0
176
     0
 90
        1
176
     0
 40
0.0
176
     0
 90
        0
176
     0
290
     0
176
     0
290
     1
176
     0
290
     1
176
     0
290
     0
176
     0
290
     0
176
     0
290
     0
176
     0
290
     0
176
     0
290
     0
176
     0
290
     0
176
     0
 90
       50
176
     0
 40
0.0
176
     0
 40
1.0
176
     0
 90
        0
176
     0
 62
    18
420
        0
176
     0
 90
       50
176
     0
 90
        3
176
     0
 62
     5
420
      255
176
     0
290
     0
176
     0
 90
       50
176
     0
 90
       50
176
     0
 90
       50
176
     0
290
     0
176
     0
 90
       50
176
     0
 62
   256
176
     0
 40
1.0
176
     0
 90
        2
176
     0
  1
strokes_ogs.tif
176
     0
290
     0
176
     0
 40
1.0
176
     0
 40
1.0
176
     0
  0
VISUALSTYLE
  5
33
102
{ACAD_REACTORS
330
29
102
}
330
29
100
AcDbVisualStyle
  2
Realistic
 70
     8
177
     3
291
     0
 70
    58
 90
        2
176
     1
 90
        3
176
     1
 90
        0
176
     1
 90
        2
176
     1
 40
0.6
176
     1
 40
30.0
176
     1
 62
     7
420
 16777215
176
     1
 90
        0
176
     1
 90
        0
176
     1
 62
     7
176
     1
 62
   257
176
     1
 90
        1
176
     1
 90
        1
176
     1
 40
1.0
176
     1
 90
        8
176
     1
 62
   257
176
     1
 40
1.0
176
     1
 90
        1
176
     1
 90
        6
176
     1
 90
        2
176
     1
 62
     7
176
     1
 90
        3
176
     1
 90
        0
176
     1
 90
        0
176
     1
290
     0
176
     1
 90
       13
176
     1
 40
0.0
176
     1
 90
        0
176
     1
290
     0
176
     1
290
     1
176
     1
290
     1
176
     1
290
     0
176
     1
290
     0
176
     1
290
     0
176
     1
290
     0
176
     1
290
     0
176
     1
290
     0
176
     1
 90
       50
176
     1
 40
0.0
176
     1
 40
1.0
176
     1
 90
        0
176
     1
 62
    18
420
        0
176
     1
 90
       50
176
     1
 90
        3
176
     1
 62
     5
420
      255
176
     1
290
     0
176
     1
 90
       50
176
     1
 90
       50
176
     1
 90
       50
176
     1
290
     0
176
     1
 90
       50
176
     1
 62
   256
176
     0
 40
1.0
176
     0
 90
        2
176
     1
  1
strokes_ogs.tif
176
     1
290
     0
176
     1
 40
1.0
176
     1
 40
1.0
176
     1
  0
VISUALSTYLE
  5
3E
102
{ACAD_REACTORS
330
29
102
}
330
29
100
AcDbVisualStyle
  2
Shaded
 70
    27
177
     3
291
     0
 70
    58
 90
        2
176
     1
 90
        2
176
     1
 90
        1
176
     1
 90
        2
176
     1
 40
0.6
176
     1
 40
30.0
176
     1
 62
     7
420
 16777215
176
     1
 90
        0
176
     1
 90
        4
176
     1
 62
     7
176
     1
 62
   257
176
     1
 90
        1
176
     1
 90
        1
176
     1
 40
1.0
176
     1
 90
        8
176
     1
 62
   257
176
     1
 40
1.0
176
     1
 90
        1
176
     1
 90
        6
176
     1
 90
        2
176
     1
 62
     8
420
  7895160
176
     1
 90
        3
176
     1
 90
        0
176
     1
 90
        0
176
     1
290
     0
176
     1
 90
        5
176
     1
 40
0.0
176
     1
 90
        0
176
     1
290
     0
176
     1
290
     1
176
     1
290
     1
176
     1
290
     0
176
     1
290
     0
176
     1
290
     0
176
     1
290
     0
176
     1
290
     0
176
     1
290
     0
176
     1
 90
       50
176
     1
 40
0.0
176
     1
 40
1.0
176
     1
 90
        0
176
     1
 62
    18
420
        0
176
     1
 90
       50
176
     1
 90
        3
176
     1
 62
     5
420
      255
176
     1
290
     0
176
     1
 90
       50
176
     1
 90
       50
176
     1
 90
       50
176
     1
290
     0
176
     1
 90
       50
176
     1
 62
   256
176
     0
 40
1.0
176
     0
 90
        2
176
     1
  1
strokes_ogs.tif
176
     1
290
     0
176
     1
 40
1.0
176
     1
 40
1.0
176
     1
  0
VISUALSTYLE
  5
3D
102
{ACAD_REACTORS
330
29
102
}
330
29
100
AcDbVisualStyle
  2
Shaded with edges
 70
    26
177
     3
291
     0
 70
    58
 90
        2
176
     1
 90
        2
176
     1
 90
        1
176
     1
 90
        2
176
     1
 40
0.6
176
     1
 40
30.0
176
     1
 62
     7
420
 16777215
176
     1
 90
        1
176
     1
 90
        2
176
     1
 62
     7
176
     1
 62
   257
176
     1
 90
        2
176
     1
 90
        1
176
     1
 40
1.0
176
     1
 90
        8
176
     1
 62
   257
176
     1
 40
1.0
176
     1
 90
        1
176
     1
 90
        6
176
     1
 90
        2
176
     1
 62
     7
176
     1
 90
        3
176
     1
 90
        0
176
     1
 90
        0
176
     1
290
     0
176
     1
 90
        5
176
     1
 40
0.0
176
     1
 90
        0
176
     1
290
     0
176
     1
290
     1
176
     1
290
     1
176
     1
290
     0
176
     1
290
     0
176
     1
290
     0
176
     1
290
     0
176
     1
290
     0
176
     1
290
     0
176
     1
 90
       50
176
     1
 40
0.0
176
     1
 40
1.0
176
     1
 90
        0
176
     1
 62
    18
420
        0
176
     1
 90
       50
176
     1
 90
        3
176
     1
 62
     5
420
      255
176
     1
290
     0
176
     1
 90
       50
176
     1
 90
       50
176
     1
 90
       50
176
     1
290
     0
176
     1
 90
       50
176
     1
 62
   256
176
     0
 40
1.0
176
     0
 90
        2
176
     1
  1
strokes_ogs.tif
176
     1
290
     0
176
     1
 40
1.0
176
     1
 40
1.0
176
     1
  0
VISUALSTYLE
  5
3A
102
{ACAD_REACTORS
330
29
102
}
330
29
100
AcDbVisualStyle
  2
Shades of Gray
 70
    23
177
     3
291
     0
 70
    58
 90
        2
176
     1
 90
        2
176
     1
 90
        3
176
     1
 90
        0
176
     1
 40
0.6
176
     1
 40
30.0
176
     1
 62
     7
420
 16777215
176
     1
 90
        2
176
     1
 90
        2
176
     1
 62
     7
176
     1
 62
     7
176
     1
 90
        1
176
     1
 90
        1
176
     1
 40
40.0
176
     1
 90
        8
176
     1
 62
     7
176
     1
 40
1.0
176
     1
 90
        1
176
     1
 90
        6
176
     1
 90
        2
176
     1
 62
     7
176
     1
 90
        3
176
     1
 90
        0
176
     1
 90
        0
176
     1
290
     0
176
     1
 90
        1
176
     1
 40
0.0
176
     1
 90
        0
176
     1
290
     0
176
     1
290
     1
176
     1
290
     1
176
     1
290
     0
176
     1
290
     0
176
     1
290
     0
176
     1
290
     0
176
     1
290
     0
176
     1
290
     0
176
     1
 90
       50
176
     1
 40
0.0
176
     1
 40
1.0
176
     1
 90
        0
176
     1
 62
    18
420
        0
176
     1
 90
       50
176
     1
 90
        3
176
     1
 62
     5
420
      255
176
     1
290
     0
176
     1
 90
       50
176
     1
 90
       50
176
     1
 90
       50
176
     1
290
     0
176
     1
 90
       50
176
     1
 62
   256
176
     0
 40
1.0
176
     0
 90
        2
176
     1
  1
strokes_ogs.tif
176
     1
290
     0
176
     1
 40
1.0
176
     1
 40
1.0
176
     1
  0
VISUALSTYLE
  5
3B
102
{ACAD_REACTORS
330
29
102
}
330
29
100
AcDbVisualStyle
  2
Sketchy
 70
    24
177
     3
291
     0
 70
    58
 90
        1
176
     1
 90
        2
176
     1
 90
        2
176
     1
 90
        0
176
     1
 40
0.6
176
     1
 40
30.0
176
     1
 62
     7
420
 16777215
176
     1
 90
        2
176
     1
 90
        2
176
     1
 62
     7
176
     1
 62
     7
176
     1
 90
        1
176
     1
 90
        1
176
     1
 40
40.0
176
     1
 90
       11
176
     1
 62
     7
176
     1
 40
1.0
176
     1
 90
        1
176
     1
 90
        6
176
     1
 90
        2
176
     1
 62
     7
176
     1
 90
        6
176
     1
 90
        0
176
     1
 90
        0
176
     1
290
     0
176
     1
 90
        1
176
     1
 40
0.0
176
     1
 90
        0
176
     1
290
     0
176
     1
290
     1
176
     1
290
     1
176
     1
290
     0
176
     1
290
     0
176
     1
290
     0
176
     1
290
     0
176
     1
290
     0
176
     1
290
     0
176
     1
 90
       50
176
     1
 40
0.0
176
     1
 40
1.0
176
     1
 90
        0
176
     1
 62
    18
420
        0
176
     1
 90
       50
176
     1
 90
        3
176
     1
 62
     5
420
      255
176
     1
290
     0
176
     1
 90
       50
176
     1
 90
       50
176
     1
 90
       50
176
     1
290
     0
176
     1
 90
       50
176
     1
 62
   256
176
     0
 40
1.0
176
     0
 90
        2
176
     1
  1
strokes_ogs.tif
176
     1
290
     0
176
     1
 40
1.0
176
     1
 40
1.0
176
     1
  0
VISUALSTYLE
  5
36
102
{ACAD_REACTORS
330
29
102
}
330
29
100
AcDbVisualStyle
  2
Thicken
 70
    13
177
     3
291
     1
 70
    58
 90
        2
176
     1
 90
        2
176
     1
 90
        0
176
     1
 90
        0
176
     1
 40
0.6
176
     1
 40
30.0
176
     1
 62
     7
420
 16777215
176
     1
 90
        1
176
     1
 90
        4
176
     1
 62
     7
176
     1
 62
   257
176
     1
 90
        1
176
     1
 90
        1
176
     1
 40
1.0
176
     1
 90
       12
176
     1
 62
     7
176
     1
 40
1.0
176
     1
 90
        1
176
     1
 90
        6
176
     1
 90
        2
176
     1
 62
     7
176
     1
 90
        5
176
     1
 90
        0
176
     1
 90
        0
176
     1
290
     0
176
     1
 90
        1
176
     1
 40
0.0
176
     1
 90
        0
176
     1
290
     0
176
     1
290
     1
176
     1
290
     1
176
     1
290
     0
176
     1
290
     0
176
     1
290
     0
176
     1
290
     0
176
     1
290
     0
176
     1
290
     0
176
     1
 90
       50
176
     1
 40
0.0
176
     1
 40
1.0
176
     1
 90
        0
176
     1
 62
    18
420
        0
176
     1
 90
       50
176
     1
 90
        3
176
     1
 62
     5
420
      255
176
     1
290
     0
176
     1
 90
       50
176
     1
 90
       50
176
     1
 90
       50
176
     1
290
     0
176
     1
 90
       50
176
     1
 62
   256
176
     0
 40
1.0
176
     0
 90
        2
176
     1
  1
strokes_ogs.tif
176
     1
290
     0
176
     1
 40
1.0
176
     1
 40
1.0
176
     1
  0
VISUALSTYLE
  5
30
102
{ACAD_REACTORS
330
29
102
}
330
29
100
AcDbVisualStyle
  2
Wireframe
 70
     5
177
     3
291
     0
 70
    58
 90
        0
176
     1
 90
        2
176
     1
 90
        0
176
     1
 90
        0
176
     1
 40
0.6
176
     1
 40
30.0
176
     1
 62
     7
420
 16777215
176
     1
 90
        1
176
     1
 90
        4
176
     1
 62
     7
176
     1
 62
   257
176
     1
 90
        1
176
     1
 90
        1
176
     1
 40
1.0
176
     1
 90
        0
176
     1
 62
   257
176
     1
 40
1.0
176
     1
 90
        1
176
     1
 90
        6
176
     1
 90
        2
176
     1
 62
     7
176
     1
 90
        3
176
     1
 90
        0
176
     1
 90
        0
176
     1
290
     0
176
     1
 90
        1
176
     1
 40
0.0
176
     1
 90
        0
176
     1
290
     0
176
     1
290
     1
176
     1
290
     1
176
     1
290
     0
176
     1
290
     0
176
     1
290
     0
176
     1
290
     0
176
     1
290
     0
176
     1
290
     0
176
     1
 90
       50
176
     1
 40
0.0
176
     1
 40
1.0
176
     1
 90
        0
176
     1
 62
    18
420
        0
176
     1
 90
       50
176
     1
 90
        3
176
     1
 62
     5
420
      255
176
     1
290
     0
176
     1
 90
       50
176
     1
 90
       50
176
     1
 90
       50
176
     1
290
     0
176
     1
 90
       50
176
     1
 62
   256
176
     0
 40
1.0
176
     0
 90
        2
176
     1
  1
strokes_ogs.tif
176
     1
290
     0
176
     1
 40
1.0
176
     1
 40
1.0
176
     1
  0
VISUALSTYLE
  5
3C
102
{ACAD_REACTORS
330
29
102
}
330
29
100
AcDbVisualStyle
  2
X-Ray
 70
    25
177
     3
291
     0
 70
    58
 90
        2
176
     1
 90
        2
176
     1
 90
        1
176
     1
 90
        1
176
     1
 40
0.5
176
     1
 40
30.0
176
     1
 62
     7
420
 16777215
176
     1
 90
        1
176
     1
 90
        0
176
     1
 62
     7
176
     1
 62
   257
176
     1
 90
        1
176
     1
 90
        1
176
     1
 40
1.0
176
     1
 90
        8
176
     1
 62
     7
176
     1
 40
1.0
176
     1
 90
        1
176
     1
 90
        6
176
     1
 90
        2
176
     1
 62
     7
176
     1
 90
        3
176
     1
 90
        0
176
     1
 90
        0
176
     1
290
     0
176
     1
 90
       13
176
     1
 40
0.0
176
     1
 90
        0
176
     1
290
     0
176
     1
290
     1
176
     1
290
     1
176
     1
290
     0
176
     1
290
     0
176
     1
290
     0
176
     1
290
     0
176
     1
290
     0
176
     1
290
     0
176
     1
 90
       50
176
     1
 40
0.0
176
     1
 40
1.0
176
     1
 90
        0
176
     1
 62
    18
420
        0
176
     1
 90
       50
176
     1
 90
        3
176
     1
 62
     5
420
      255
176
     1
290
     0
176
     1
 90
       50
176
     1
 90
       50
176
     1
 90
       50
176
     1
290
     0
176
     1
 90
       50
176
     1
 62
   256
176
     0
 40
1.0
176
     0
 90
        2
176
     1
  1
strokes_ogs.tif
176
     1
290
     0
176
     1
 40
1.0
176
     1
 40
1.0
176
     1
  0
DICTIONARYVAR
  5
1B0
102
{ACAD_REACTORS
330
1AB
102
}
330
1AB
100
DictionaryVariables
280
     0
  1
1:1
  0
DICTIONARYVAR
  5
1AD
102
{ACAD_REACTORS
330
1AB
102
}
330
1AB
100
DictionaryVariables
280
     0
  1
STANDARD
  0
DICTIONARYVAR
  5
1AC
102
{ACAD_REACTORS
330
1AB
102
}
330
1AB
100
DictionaryVariables
280
     0
  1
STANDARD
  0
DICTIONARYVAR
  5
1AE
102
{ACAD_REACTORS
330
1AB
102
}
330
1AB
100
DictionaryVariables
280
     0
  1
Imperial24
  0
DICTIONARYVAR
  5
1AF
102
{ACAD_REACTORS
330
1AB
102
}
330
1AB
100
DictionaryVariables
280
     0
  1
Imperial24
  0
DICTIONARY
  5
1A
330
19
100
AcDbDictionary
280
     1
281
     1
  3
BUMPTILE
360
1C
  3
DIFFUSETILE
360
1B
  3
OPACITYTILE
360
1F
  3
REFLECTIONTILE
360
1E
  3
REFRACTIONTILE
360
20
  3
SPECULARTILE
360
1D
  0
DICTIONARY
  5
12
330
11
100
AcDbDictionary
280
     1
281
     1
  3
BUMPTILE
360
14
  3
DIFFUSETILE
360
13
  3
OPACITYTILE
360
17
  3
REFLECTIONTILE
360
16
  3
REFRACTIONTILE
360
18
  3
SPECULARTILE
360
15
  0
DICTIONARY
  5
22
330
21
100
AcDbDictionary
280
     1
281
     1
  3
BUMPTILE
360
24
  3
DIFFUSETILE
360
23
  3
OPACITYTILE
360
27
  3
REFLECTIONTILE
360
26
  3
REFRACTIONTILE
360
28
  3
SPECULARTILE
360
25
  0
DICTIONARY
  5
1B1
330
65
100
AcDbDictionary
280
     1
281
     1
  3
ACAD_ROUNDTRIP_2008_TABLESTYLE_CELLSTYLEMAP
360
1B2
  0
XRECORD
  5
1C
102
{ACAD_REACTORS
330
1A
102
}
330
1A
100
AcDbXrecord
280
     1
270
     1
271
     1
  0
XRECORD
  5
1B
102
{ACAD_REACTORS
330
1A
102
}
330
1A
100
AcDbXrecord
280
     1
270
     1
271
     1
  0
XRECORD
  5
1F
102
{ACAD_REACTORS
330
1A
102
}
330
1A
100
AcDbXrecord
280
     1
270
     1
271
     1
  0
XRECORD
  5
1E
102
{ACAD_REACTORS
330
1A
102
}
330
1A
100
AcDbXrecord
280
     1
270
     1
271
     1
  0
XRECORD
  5
20
102
{ACAD_REACTORS
330
1A
102
}
330
1A
100
AcDbXrecord
280
     1
270
     1
271
     1
  0
XRECORD
  5
1D
102
{ACAD_REACTORS
330
1A
102
}
330
1A
100
AcDbXrecord
280
     1
270
     1
271
     1
  0
XRECORD
  5
14
102
{ACAD_REACTORS
330
12
102
}
330
12
100
AcDbXrecord
280
     1
270
     1
271
     1
  0
XRECORD
  5
13
102
{ACAD_REACTORS
330
12
102
}
330
12
100
AcDbXrecord
280
     1
270
     1
271
     1
  0
XRECORD
  5
17
102
{ACAD_REACTORS
330
12
102
}
330
12
100
AcDbXrecord
280
     1
270
     1
271
     1
  0
XRECORD
  5
16
102
{ACAD_REACTORS
330
12
102
}
330
12
100
AcDbXrecord
280
     1
270
     1
271
     1
  0
XRECORD
  5
18
102
{ACAD_REACTORS
330
12
102
}
330
12
100
AcDbXrecord
280
     1
270
     1
271
     1
  0
XRECORD
  5
15
102
{ACAD_REACTORS
330
12
102
}
330
12
100
AcDbXrecord
280
     1
270
     1
271
     1
  0
XRECORD
  5
24
102
{ACAD_REACTORS
330
22
102
}
330
22
100
AcDbXrecord
280
     1
270
     1
271
     1
  0
XRECORD
  5
23
102
{ACAD_REACTORS
330
22
102
}
330
22
100
AcDbXrecord
280
     1
270
     1
271
     1
  0
XRECORD
  5
27
102
{ACAD_REACTORS
330
22
102
}
330
22
100
AcDbXrecord
280
     1
270
     1
271
     1
  0
XRECORD
  5
26
102
{ACAD_REACTORS
330
22
102
}
330
22
100
AcDbXrecord
280
     1
270
     1
271
     1
  0
XRECORD
  5
28
102
{ACAD_REACTORS
330
22
102
}
330
22
100
AcDbXrecord
280
     1
270
     1
271
     1
  0
XRECORD
  5
25
102
{ACAD_REACTORS
330
22
102
}
330
22
100
AcDbXrecord
280
     1
270
     1
271
     1
  0
CELLSTYLEMAP
  5
1B2
102
{ACAD_REACTORS
330
1B1
102
}
330
1B1
100
AcDbCellStyleMap
 90
        3
300
CELLSTYLE
  1
TABLEFORMAT_BEGIN
 90
        5
170
     1
 91
        0
 92
    32768
 62
   257
 93
        1
300
CONTENTFORMAT
  1
CONTENTFORMAT_BEGIN
 90
        0
 91
        0
 92
      512
 93
        0
300

 40
0.0
140
1.0
 94
        5
 62
     0
340
55
144
0.25
309
CONTENTFORMAT_END
171
     0
 94
        0
309
TABLEFORMAT_END
  1
CELLSTYLE_BEGIN
 90
        1
 91
        1
300
_TITLE
309
CELLSTYLE_END
300
CELLSTYLE
  1
TABLEFORMAT_BEGIN
 90
        5
170
     1
 91
        0
 92
        0
 62
   257
 93
        1
300
CONTENTFORMAT
  1
CONTENTFORMAT_BEGIN
 90
        0
 91
        0
 92
      512
 93
        0
300

 40
0.0
140
1.0
 94
        5
 62
     0
340
55
144
0.18
309
CONTENTFORMAT_END
171
     0
 94
        0
309
TABLEFORMAT_END
  1
CELLSTYLE_BEGIN
 90
        2
 91
        1
300
_HEADER
309
CELLSTYLE_END
300
CELLSTYLE
  1
TABLEFORMAT_BEGIN
 90
        5
170
     1
 91
        0
 92
        0
 62
   257
 93
        1
300
CONTENTFORMAT
  1
CONTENTFORMAT_BEGIN
 90
        0
 91
        0
 92
      512
 93
        0
300

 40
0.0
140
1.0
 94
        2
 62
     0
340
55
144
0.18
309
CONTENTFORMAT_END
171
     0
 94
        0
309
TABLEFORMAT_END
  1
CELLSTYLE_BEGIN
 90
        3
 91
        2
300
_DATA
309
CELLSTYLE_END
  0
ENDSEC
  0
EOF
