  0
SECTION
  2
HEADER
  9
$ACADVER
  1
AC1024
  9
$ACADMAINTVER
 70
     6
  9
$DWGCODEPAGE
  3
ANSI_932
  9
$LASTSAVEDBY
  1
takeshitobe
  9
$INSBASE
 10
0.0
 20
0.0
 30
0.0
  9
$EXTMIN
 10
155.0
 20
56.0
 30
0.0
  9
$EXTMAX
 10
350.0
 20
338.0
 30
0.0
  9
$LIMMIN
 10
0.0
 20
0.0
  9
$LIMMAX
 10
420.0
 20
297.0
  9
$ORTHOMODE
 70
     0
  9
$REGENMODE
 70
     1
  9
$FILLMODE
 70
     1
  9
$QTEXTMODE
 70
     0
  9
$MIRRTEXT
 70
     1
  9
$LTSCALE
 40
1.0
  9
$ATTMODE
 70
     1
  9
$TEXTSIZE
 40
2.5
  9
$TRACEWID
 40
1.0
  9
$TEXTSTYLE
  7
Standard
  9
$CLAYER
  8
0
  9
$CELTYPE
  6
ByLayer
  9
$CECOLOR
 62
   256
  9
$CELTSCALE
 40
1.0
  9
$DISPSILH
 70
     0
  9
$DIMSCALE
 40
1.0
  9
$DIMASZ
 40
2.5
  9
$DIMEXO
 40
0.625
  9
$DIMDLI
 40
3.75
  9
$DIMRND
 40
0.0
  9
$DIMDLE
 40
0.0
  9
$DIMEXE
 40
1.25
  9
$DIMTP
 40
0.0
  9
$DIMTM
 40
0.0
  9
$DIMTXT
 40
2.5
  9
$DIMCEN
 40
2.5
  9
$DIMTSZ
 40
0.0
  9
$DIMTOL
 70
     0
  9
$DIMLIM
 70
     0
  9
$DIMTIH
 70
     0
  9
$DIMTOH
 70
     0
  9
$DIMSE1
 70
     0
  9
$DIMSE2
 70
     0
  9
$DIMTAD
 70
     1
  9
$DIMZIN
 70
     8
  9
$DIMBLK
  1

  9
$DIMASO
 70
     1
  9
$DIMSHO
 70
     1
  9
$DIMPOST
  1

  9
$DIMAPOST
  1

  9
$DIMALT
 70
     0
  9
$DIMALTD
 70
     3
  9
$DIMALTF
 40
0.03937007874
  9
$DIMLFAC
 40
1.0
  9
$DIMTOFL
 70
     1
  9
$DIMTVP
 40
0.0
  9
$DIMTIX
 70
     0
  9
$DIMSOXD
 70
     0
  9
$DIMSAH
 70
     0
  9
$DIMBLK1
  1

  9
$DIMBLK2
  1

  9
$DIMSTYLE
  2
ISO-25
  9
$DIMCLRD
 70
     0
  9
$DIMCLRE
 70
     0
  9
$DIMCLRT
 70
     0
  9
$DIMTFAC
 40
1.0
  9
$DIMGAP
 40
0.625
  9
$DIMJUST
 70
     0
  9
$DIMSD1
 70
     0
  9
$DIMSD2
 70
     0
  9
$DIMTOLJ
 70
     0
  9
$DIMTZIN
 70
     8
  9
$DIMALTZ
 70
     0
  9
$DIMALTTZ
 70
     0
  9
$DIMUPT
 70
     0
  9
$DIMDEC
 70
     2
  9
$DIMTDEC
 70
     2
  9
$DIMALTU
 70
     2
  9
$DIMALTTD
 70
     3
  9
$DIMTXSTY
  7
Standard
  9
$DIMAUNIT
 70
     0
  9
$DIMADEC
 70
     0
  9
$DIMALTRND
 40
0.0
  9
$DIMAZIN
 70
     0
  9
$DIMDSEP
 70
    44
  9
$DIMATFIT
 70
     3
  9
$DIMFRAC
 70
     0
  9
$DIMLDRBLK
  1

  9
$DIMLUNIT
 70
     2
  9
$DIMLWD
 70
    -2
  9
$DIMLWE
 70
    -2
  9
$DIMTMOVE
 70
     0
  9
$DIMFXL
 40
1.0
  9
$DIMFXLON
 70
     0
  9
$DIMJOGANG
 40
0.785398163397
  9
$DIMTFILL
 70
     0
  9
$DIMTFILLCLR
 70
     0
  9
$DIMARCSYM
 70
     0
  9
$DIMLTYPE
  6

  9
$DIMLTEX1
  6

  9
$DIMLTEX2
  6

  9
$DIMTXTDIRECTION
 70
     0
  9
$LUNITS
 70
     2
  9
$LUPREC
 70
     4
  9
$SKETCHINC
 40
1.0
  9
$FILLETRAD
 40
10.0
  9
$AUNITS
 70
     0
  9
$AUPREC
 70
     0
  9
$MENU
  1
.
  9
$ELEVATION
 40
0.0
  9
$PELEVATION
 40
0.0
  9
$THICKNESS
 40
0.0
  9
$LIMCHECK
 70
     0
  9
$CHAMFERA
 40
10.0
  9
$CHAMFERB
 40
10.0
  9
$CHAMFERC
 40
20.0
  9
$CHAMFERD
 40
0.0
  9
$SKPOLY
 70
     0
  9
$TDCREATE
 40
2458282.464463356
  9
$TDUCREATE
 40
2458282.089463356
  9
$TDUPDATE
 40
2458284.372197257
  9
$TDUUPDATE
 40
2458283.997197257
  9
$TDINDWG
 40
0.0010300116
  9
$TDUSRTIMER
 40
0.0010300116
  9
$USRTIMER
 70
     1
  9
$ANGBASE
 50
0.0
  9
$ANGDIR
 70
     0
  9
$PDMODE
 70
     0
  9
$PDSIZE
 40
0.0
  9
$PLINEWID
 40
0.0
  9
$SPLFRAME
 70
     0
  9
$SPLINETYPE
 70
     6
  9
$SPLINESEGS
 70
     8
  9
$HANDSEED
  5
124F
  9
$SURFTAB1
 70
     6
  9
$SURFTAB2
 70
     6
  9
$SURFTYPE
 70
     6
  9
$SURFU
 70
     6
  9
$SURFV
 70
     6
  9
$UCSBASE
  2

  9
$UCSNAME
  2

  9
$UCSORG
 10
0.0
 20
0.0
 30
0.0
  9
$UCSXDIR
 10
1.0
 20
0.0
 30
0.0
  9
$UCSYDIR
 10
0.0
 20
1.0
 30
0.0
  9
$UCSORTHOREF
  2

  9
$UCSORTHOVIEW
 70
     0
  9
$UCSORGTOP
 10
0.0
 20
0.0
 30
0.0
  9
$UCSORGBOTTOM
 10
0.0
 20
0.0
 30
0.0
  9
$UCSORGLEFT
 10
0.0
 20
0.0
 30
0.0
  9
$UCSORGRIGHT
 10
0.0
 20
0.0
 30
0.0
  9
$UCSORGFRONT
 10
0.0
 20
0.0
 30
0.0
  9
$UCSORGBACK
 10
0.0
 20
0.0
 30
0.0
  9
$PUCSBASE
  2

  9
$PUCSNAME
  2

  9
$PUCSORG
 10
0.0
 20
0.0
 30
0.0
  9
$PUCSXDIR
 10
1.0
 20
0.0
 30
0.0
  9
$PUCSYDIR
 10
0.0
 20
1.0
 30
0.0
  9
$PUCSORTHOREF
  2

  9
$PUCSORTHOVIEW
 70
     0
  9
$PUCSORGTOP
 10
0.0
 20
0.0
 30
0.0
  9
$PUCSORGBOTTOM
 10
0.0
 20
0.0
 30
0.0
  9
$PUCSORGLEFT
 10
0.0
 20
0.0
 30
0.0
  9
$PUCSORGRIGHT
 10
0.0
 20
0.0
 30
0.0
  9
$PUCSORGFRONT
 10
0.0
 20
0.0
 30
0.0
  9
$PUCSORGBACK
 10
0.0
 20
0.0
 30
0.0
  9
$USERI1
 70
     0
  9
$USERI2
 70
     0
  9
$USERI3
 70
     0
  9
$USERI4
 70
     0
  9
$USERI5
 70
     0
  9
$USERR1
 40
0.0
  9
$USERR2
 40
0.0
  9
$USERR3
 40
0.0
  9
$USERR4
 40
0.0
  9
$USERR5
 40
0.0
  9
$WORLDVIEW
 70
     1
  9
$SHADEDGE
 70
     3
  9
$SHADEDIF
 70
    70
  9
$TILEMODE
 70
     1
  9
$MAXACTVP
 70
    48
  9
$PINSBASE
 10
0.0
 20
0.0
 30
0.0
  9
$PLIMCHECK
 70
     0
  9
$PEXTMIN
 10
40.5
 20
25.7
 30
0.0
  9
$PEXTMAX
 10
364.5
 20
231.3
 30
0.0
  9
$PLIMMIN
 10
-7.5
 20
-20.0
  9
$PLIMMAX
 10
412.5
 20
277.0
  9
$UNITMODE
 70
     0
  9
$VISRETAIN
 70
     1
  9
$PLINEGEN
 70
     0
  9
$PSLTSCALE
 70
     1
  9
$TREEDEPTH
 70
  3020
  9
$CMLSTYLE
  2
Standard
  9
$CMLJUST
 70
     0
  9
$CMLSCALE
 40
20.0
  9
$PROXYGRAPHICS
 70
     1
  9
$MEASUREMENT
 70
     1
  9
$CELWEIGHT
370
    -1
  9
$ENDCAPS
280
     0
  9
$JOINSTYLE
280
     0
  9
$LWDISPLAY
290
     0
  9
$INSUNITS
 70
     4
  9
$HYPERLINKBASE
  1

  9
$STYLESHEET
  1

  9
$XEDIT
290
     1
  9
$CEPSNTYPE
380
     0
  9
$PSTYLEMODE
290
     1
  9
$FINGERPRINTGUID
  2
{811A3F01-7B8E-483B-B2DF-D366103D04BE}
  9
$VERSIONGUID
  2
{B1DCADED-1393-43F9-849F-85D3B7CD1A10}
  9
$EXTNAMES
290
     1
  9
$PSVPSCALE
 40
0.0
  9
$OLESTARTUP
290
     0
  9
$SORTENTS
280
   127
  9
$INDEXCTL
280
     0
  9
$HIDETEXT
280
     1
  9
$XCLIPFRAME
280
     0
  9
$HALOGAP
280
     0
  9
$OBSCOLOR
 70
   257
  9
$OBSLTYPE
280
     0
  9
$INTERSECTIONDISPLAY
280
     0
  9
$INTERSECTIONCOLOR
 70
   257
  9
$DIMASSOC
280
     1
  9
$PROJECTNAME
  1

  9
$CAMERADISPLAY
290
     0
  9
$LENSLENGTH
 40
50.0
  9
$CAMERAHEIGHT
 40
0.0
  9
$STEPSPERSEC
 40
2.0
  9
$STEPSIZE
 40
6.0
  9
$3DDWFPREC
 40
2.0
  9
$PSOLWIDTH
 40
0.25
  9
$PSOLHEIGHT
 40
4.0
  9
$LOFTANG1
 40
1.570796326795
  9
$LOFTANG2
 40
1.570796326795
  9
$LOFTMAG1
 40
0.0
  9
$LOFTMAG2
 40
0.0
  9
$LOFTPARAM
 70
     7
  9
$LOFTNORMALS
280
     1
  9
$LATITUDE
 40
37.795
  9
$LONGITUDE
 40
-122.394
  9
$NORTHDIRECTION
 40
0.0
  9
$TIMEZONE
 70
 -8000
  9
$LIGHTGLYPHDISPLAY
280
     1
  9
$TILEMODELIGHTSYNCH
280
     1
  9
$SOLIDHIST
280
     1
  9
$SHOWHIST
280
     1
  9
$DWFFRAME
280
     2
  9
$DGNFRAME
280
     2
  9
$REALWORLDSCALE
290
     1
  9
$INTERFERECOLOR
 62
   256
  9
$CSHADOW
280
     0
  9
$SHADOWPLANELOCATION
 40
0.0
  0
ENDSEC
  0
SECTION
  2
CLASSES
  0
CLASS
  1
ACDBDICTIONARYWDFLT
  2
AcDbDictionaryWithDefault
  3
ObjectDBX Classes
 90
        0
 91
        3
280
     0
281
     0
  0
CLASS
  1
ACDBPLACEHOLDER
  2
AcDbPlaceHolder
  3
ObjectDBX Classes
 90
        0
 91
        1
280
     0
281
     0
  0
CLASS
  1
LAYOUT
  2
AcDbLayout
  3
ObjectDBX Classes
 90
        0
 91
        1
280
     0
281
     0
  0
CLASS
  1
LONG_TRANSACTION
  2
AcDbLongTransaction
  3
ObjectDBX Classes
 90
        0
 91
        1
280
     0
281
     0
  0
CLASS
  1
LWPOLYLINE
  2
AcDbPolyline
  3
ObjectDBX Classes
 90
        0
 91
        1
280
     0
281
     1
  0
CLASS
  1
HATCH
  2
AcDbHatch
  3
ObjectDBX Classes
 90
        0
 91
        1
280
     0
281
     1
  0
CLASS
  1
XRECORD
  2
AcDbXrecord
  3
ObjectDBX Classes
 90
        0
 91
        1
280
     0
281
     0
  0
CLASS
  1
LONG_TRANSACTION
  2
AcDbLongTransaction
  3
ObjectDBX Classes
 90
        0
 91
        1
280
     0
281
     0
  0
CLASS
  1
LWPOLYLINE
  2
AcDbPolyline
  3
ObjectDBX Classes
 90
        0
 91
        1
280
     0
281
     1
  0
CLASS
  1
HATCH
  2
AcDbHatch
  3
ObjectDBX Classes
 90
        0
 91
        1
280
     0
281
     1
  0
CLASS
  1
XRECORD
  2
AcDbXrecord
  3
ObjectDBX Classes
 90
        0
 91
        1
280
     0
281
     0
  0
CLASS
  1
LONG_TRANSACTION
  2
AcDbLongTransaction
  3
ObjectDBX Classes
 90
        0
 91
        1
280
     0
281
     0
  0
CLASS
  1
LWPOLYLINE
  2
AcDbPolyline
  3
ObjectDBX Classes
 90
        0
 91
        1
280
     0
281
     1
  0
CLASS
  1
HATCH
  2
AcDbHatch
  3
ObjectDBX Classes
 90
        0
 91
        1
280
     0
281
     1
  0
CLASS
  1
XRECORD
  2
AcDbXrecord
  3
ObjectDBX Classes
 90
        0
 91
        1
280
     0
281
     0
  0
CLASS
  1
LONG_TRANSACTION
  2
AcDbLongTransaction
  3
ObjectDBX Classes
 90
        0
 91
        1
280
     0
281
     0
  0
CLASS
  1
LWPOLYLINE
  2
AcDbPolyline
  3
ObjectDBX Classes
 90
        0
 91
        1
280
     0
281
     1
  0
CLASS
  1
HATCH
  2
AcDbHatch
  3
ObjectDBX Classes
 90
        0
 91
        1
280
     0
281
     1
  0
CLASS
  1
XRECORD
  2
AcDbXrecord
  3
ObjectDBX Classes
 90
        0
 91
        1
280
     0
281
     0
  0
CLASS
  1
LONG_TRANSACTION
  2
AcDbLongTransaction
  3
ObjectDBX Classes
 90
        0
 91
        1
280
     0
281
     0
  0
CLASS
  1
LWPOLYLINE
  2
AcDbPolyline
  3
ObjectDBX Classes
 90
        0
 91
        1
280
     0
281
     1
  0
CLASS
  1
HATCH
  2
AcDbHatch
  3
ObjectDBX Classes
 90
        0
 91
        1
280
     0
281
     1
  0
CLASS
  1
XRECORD
  2
AcDbXrecord
  3
ObjectDBX Classes
 90
        0
 91
        1
280
     0
281
     0
  0
CLASS
  1
LONG_TRANSACTION
  2
AcDbLongTransaction
  3
ObjectDBX Classes
 90
        0
 91
        1
280
     0
281
     0
  0
CLASS
  1
LWPOLYLINE
  2
AcDbPolyline
  3
ObjectDBX Classes
 90
        0
 91
        1
280
     0
281
     1
  0
CLASS
  1
HATCH
  2
AcDbHatch
  3
ObjectDBX Classes
 90
        0
 91
        1
280
     0
281
     1
  0
CLASS
  1
XRECORD
  2
AcDbXrecord
  3
ObjectDBX Classes
 90
        0
 91
        1
280
     0
281
     0
  0
CLASS
  1
LONG_TRANSACTION
  2
AcDbLongTransaction
  3
ObjectDBX Classes
 90
        0
 91
        1
280
     0
281
     0
  0
CLASS
  1
LWPOLYLINE
  2
AcDbPolyline
  3
ObjectDBX Classes
 90
        0
 91
        1
280
     0
281
     1
  0
CLASS
  1
HATCH
  2
AcDbHatch
  3
ObjectDBX Classes
 90
        0
 91
        1
280
     0
281
     1
  0
CLASS
  1
XRECORD
  2
AcDbXrecord
  3
ObjectDBX Classes
 90
        0
 91
        1
280
     0
281
     0
  0
CLASS
  1
LONG_TRANSACTION
  2
AcDbLongTransaction
  3
ObjectDBX Classes
 90
        0
 91
        1
280
     0
281
     0
  0
CLASS
  1
LWPOLYLINE
  2
AcDbPolyline
  3
ObjectDBX Classes
 90
        0
 91
        1
280
     0
281
     1
  0
CLASS
  1
HATCH
  2
AcDbHatch
  3
ObjectDBX Classes
 90
        0
 91
        1
280
     0
281
     1
  0
CLASS
  1
XRECORD
  2
AcDbXrecord
  3
ObjectDBX Classes
 90
        0
 91
        1
280
     0
281
     0
  0
CLASS
  1
LONG_TRANSACTION
  2
AcDbLongTransaction
  3
ObjectDBX Classes
 90
        0
 91
        1
280
     0
281
     0
  0
CLASS
  1
LWPOLYLINE
  2
AcDbPolyline
  3
ObjectDBX Classes
 90
        0
 91
        1
280
     0
281
     1
  0
CLASS
  1
HATCH
  2
AcDbHatch
  3
ObjectDBX Classes
 90
        0
 91
        1
280
     0
281
     1
  0
CLASS
  1
XRECORD
  2
AcDbXrecord
  3
ObjectDBX Classes
 90
        0
 91
        1
280
     0
281
     0
  0
CLASS
  1
LONG_TRANSACTION
  2
AcDbLongTransaction
  3
ObjectDBX Classes
 90
        0
 91
        1
280
     0
281
     0
  0
CLASS
  1
LWPOLYLINE
  2
AcDbPolyline
  3
ObjectDBX Classes
 90
        0
 91
        1
280
     0
281
     1
  0
CLASS
  1
HATCH
  2
AcDbHatch
  3
ObjectDBX Classes
 90
        0
 91
        1
280
     0
281
     1
  0
CLASS
  1
XRECORD
  2
AcDbXrecord
  3
ObjectDBX Classes
 90
        0
 91
        1
280
     0
281
     0
  0
CLASS
  1
LONG_TRANSACTION
  2
AcDbLongTransaction
  3
ObjectDBX Classes
 90
        0
 91
        1
280
     0
281
     0
  0
CLASS
  1
LWPOLYLINE
  2
AcDbPolyline
  3
ObjectDBX Classes
 90
        0
 91
        1
280
     0
281
     1
  0
CLASS
  1
HATCH
  2
AcDbHatch
  3
ObjectDBX Classes
 90
        0
 91
        1
280
     0
281
     1
  0
CLASS
  1
XRECORD
  2
AcDbXrecord
  3
ObjectDBX Classes
 90
        0
 91
        1
280
     0
281
     0
  0
CLASS
  1
LONG_TRANSACTION
  2
AcDbLongTransaction
  3
ObjectDBX Classes
 90
        0
 91
        1
280
     0
281
     0
  0
CLASS
  1
LWPOLYLINE
  2
AcDbPolyline
  3
ObjectDBX Classes
 90
        0
 91
        1
280
     0
281
     1
  0
CLASS
  1
HATCH
  2
AcDbHatch
  3
ObjectDBX Classes
 90
        0
 91
        1
280
     0
281
     1
  0
CLASS
  1
XRECORD
  2
AcDbXrecord
  3
ObjectDBX Classes
 90
        0
 91
        1
280
     0
281
     0
  0
CLASS
  1
LONG_TRANSACTION
  2
AcDbLongTransaction
  3
ObjectDBX Classes
 90
        0
 91
        1
280
     0
281
     0
  0
CLASS
  1
LWPOLYLINE
  2
AcDbPolyline
  3
ObjectDBX Classes
 90
        0
 91
        1
280
     0
281
     1
  0
CLASS
  1
HATCH
  2
AcDbHatch
  3
ObjectDBX Classes
 90
        0
 91
        1
280
     0
281
     1
  0
CLASS
  1
XRECORD
  2
AcDbXrecord
  3
ObjectDBX Classes
 90
        0
 91
        1
280
     0
281
     0
  0
CLASS
  1
DICTIONARYVAR
  2
AcDbDictionaryVar
  3
ObjectDBX Classes
 90
        0
 91
        3
280
     0
281
     0
  0
CLASS
  1
LONG_TRANSACTION
  2
AcDbLongTransaction
  3
ObjectDBX Classes
 90
        0
 91
        1
280
     0
281
     0
  0
CLASS
  1
LWPOLYLINE
  2
AcDbPolyline
  3
ObjectDBX Classes
 90
        0
 91
        1
280
     0
281
     1
  0
CLASS
  1
HATCH
  2
AcDbHatch
  3
ObjectDBX Classes
 90
        0
 91
        1
280
     0
281
     1
  0
CLASS
  1
XRECORD
  2
AcDbXrecord
  3
ObjectDBX Classes
 90
        0
 91
        1
280
     0
281
     0
  0
CLASS
  1
SCALE
  2
AcDbScale
  3
ObjectDBX Classes
 90
     1153
 91
        3
280
     0
281
     0
  0
CLASS
  1
MATERIAL
  2
AcDbMaterial
  3
ObjectDBX Classes
 90
     1153
 91
        3
280
     0
281
     0
  0
CLASS
  1
TABLESTYLE
  2
AcDbTableStyle
  3
ObjectDBX Classes
 90
     4095
 91
        3
280
     0
281
     0
  0
CLASS
  1
SUN
  2
AcDbSun
  3
SCENEOE
 90
     1153
 91
        3
280
     0
281
     0
  0
CLASS
  1
VISUALSTYLE
  2
AcDbVisualStyle
  3
ObjectDBX Classes
 90
     4095
 91
        3
280
     0
281
     0
  0
CLASS
  1
MLEADERSTYLE
  2
AcDbMLeaderStyle
  3
ACDB_MLEADERSTYLE_CLASS
 90
     4095
 91
        3
280
     0
281
     0
  0
CLASS
  1
CELLSTYLEMAP
  2
AcDbCellStyleMap
  3
ObjectDBX Classes
 90
     1152
 91
        3
280
     0
281
     0
  0
ENDSEC
  0
SECTION
  2
TABLES
  0
TABLE
  2
VPORT
  5
8
330
0
100
AcDbSymbolTable
 70
     1
  0
VPORT
  5
E61
330
8
100
AcDbSymbolTableRecord
100
AcDbViewportTableRecord
  2
*Active
 70
     0
 10
0.0
 20
0.0
 11
1.0
 21
1.0
 12
221.53723917371
 22
214.235173043499
 13
0.0
 23
0.0
 14
1.0
 24
1.0
 15
1.0
 25
1.0
 16
0.0
 26
0.0
 36
1.0
 17
0.0
 27
0.0
 37
0.0
 40
407.85425915801
 41
2.164402173913
 42
50.0
 43
0.0
 44
0.0
 50
0.0
 51
0.0
 71
    16
 72
   500
 73
     1
 74
     3
 75
     1
 76
     0
 77
     0
 78
     0
281
     0
 65
     1
110
0.0
120
0.0
130
0.0
111
1.0
121
0.0
131
0.0
112
0.0
122
1.0
132
0.0
 79
     0
146
0.0
348
E93
 60
     3
 61
     5
292
     1
282
     1
141
0.0
142
0.0
 63
   250
421
  3355443
361
E8A
  0
ENDTAB
  0
TABLE
  2
LTYPE
  5
5
330
0
100
AcDbSymbolTable
 70
     1
  0
LTYPE
  5
14
330
5
100
AcDbSymbolTableRecord
100
AcDbLinetypeTableRecord
  2
ByBlock
 70
     0
  3

 72
    65
 73
     0
 40
0.0
  0
LTYPE
  5
15
330
5
100
AcDbSymbolTableRecord
100
AcDbLinetypeTableRecord
  2
ByLayer
 70
     0
  3

 72
    65
 73
     0
 40
0.0
  0
LTYPE
  5
16
330
5
100
AcDbSymbolTableRecord
100
AcDbLinetypeTableRecord
  2
Continuous
 70
     0
  3
Solid line
 72
    65
 73
     0
 40
0.0
  0
ENDTAB
  0
TABLE
  2
LAYER
  5
2
102
{ACAD_XDICTIONARY
360
1074
102
}
330
0
100
AcDbSymbolTable
 70
     6
  0
LAYER
  5
10
330
2
100
AcDbSymbolTableRecord
100
AcDbLayerTableRecord
  2
0
 70
     0
 62
     7
  6
Continuous
370
    -3
390
F
347
E86
  0
LAYER
  5
E89
330
2
100
AcDbSymbolTableRecord
100
AcDbLayerTableRecord
  2
Defpoints
 70
     0
 62
     7
  6
Continuous
290
     0
370
    -3
390
F
347
E86
  0
LAYER
  5
EAA
330
2
100
AcDbSymbolTableRecord
100
AcDbLayerTableRecord
  2
DIM
 70
     0
 62
     8
  6
Continuous
370
    -3
390
F
347
E86
  0
LAYER
  5
EAE
330
2
100
AcDbSymbolTableRecord
100
AcDbLayerTableRecord
  2
text
 70
     0
 62
     4
  6
Continuous
370
    -3
390
F
347
E86
  0
LAYER
  5
EAF
330
2
100
AcDbSymbolTableRecord
100
AcDbLayerTableRecord
  2
shade
 70
     0
 62
     6
  6
Continuous
370
    -3
390
F
347
E86
  0
LAYER
  5
EB0
330
2
100
AcDbSymbolTableRecord
100
AcDbLayerTableRecord
  2
FLAME
 70
     0
 62
     2
  6
Continuous
370
    -3
390
F
347
E86
  0
ENDTAB
  0
TABLE
  2
STYLE
  5
3
330
0
100
AcDbSymbolTable
 70
     5
  0
STYLE
  5
11
330
3
100
AcDbSymbolTableRecord
100
AcDbTextStyleTableRecord
  2
Standard
 70
     0
 40
0.0
 41
1.0
 50
0.0
 71
     0
 42
2.5
  3
MS UI Gothic.ttf
  4

1001
ACAD
1000
MS UI Gothic
1071
    32818
  0
STYLE
  5
78
330
3
100
AcDbSymbolTableRecord
100
AcDbTextStyleTableRecord
  2
VERTICAL
 70
     0
 40
0.0
 41
1.0
 50
0.0
 71
     0
 42
2.5
  3
@MS UI Gothic.ttf
  4

1001
ACAD
1000
@MS UI Gothic
1071
    32818
  0
STYLE
  5
9D
330
3
100
AcDbSymbolTableRecord
100
AcDbTextStyleTableRecord
  2

 70
     1
 40
0.0
 41
1.0
 50
0.0
 71
     0
 42
2.5
  3
ltypeshp.shx
  4

  0
STYLE
  5
EB2
330
3
100
AcDbSymbolTableRecord
100
AcDbTextStyleTableRecord
  2
GOTHIC
 70
     0
 40
0.0
 41
1.0
 50
0.0
 71
     0
 42
2.5
  3

  4

1001
ACAD
1000
ＭＳ Ｐゴシック
1071
    32818
  0
STYLE
  5
EB7
330
3
100
AcDbSymbolTableRecord
100
AcDbTextStyleTableRecord
  2
新規スタイル1
 70
     0
 40
0.0
 41
1.0
 50
0.0
 71
     0
 42
2.5
  3

  4

1001
ACAD
1000
ＭＳ Ｐ明朝
1071
    32786
  0
ENDTAB
  0
TABLE
  2
VIEW
  5
6
330
0
100
AcDbSymbolTable
 70
     0
  0
ENDTAB
  0
TABLE
  2
UCS
  5
7
330
0
100
AcDbSymbolTable
 70
     0
  0
ENDTAB
  0
TABLE
  2
APPID
  5
9
330
0
100
AcDbSymbolTable
 70
     7
  0
APPID
  5
12
330
9
100
AcDbSymbolTableRecord
100
AcDbRegAppTableRecord
  2
ACAD
 70
     0
  0
APPID
  5
4BA
330
9
100
AcDbSymbolTableRecord
100
AcDbRegAppTableRecord
  2
ALFADenkiAttdef
 70
     0
  0
APPID
  5
58B
330
9
100
AcDbSymbolTableRecord
100
AcDbRegAppTableRecord
  2
ALFADenkiAddress
 70
     0
  0
APPID
  5
AB8
330
9
100
AcDbSymbolTableRecord
100
AcDbRegAppTableRecord
  2
ALFADenkiHistory_BackupText
 70
     0
  0
APPID
  5
EB3
330
9
100
AcDbSymbolTableRecord
100
AcDbRegAppTableRecord
  2
AcadAnnotative
 70
     0
  0
APPID
  5
EB4
330
9
100
AcDbSymbolTableRecord
100
AcDbRegAppTableRecord
  2
ACAD_PSEXT
 70
     0
  0
APPID
  5
EB5
330
9
100
AcDbSymbolTableRecord
100
AcDbRegAppTableRecord
  2
ACAD_NAV_VCDISPLAY
 70
     0
  0
ENDTAB
  0
TABLE
  2
DIMSTYLE
  5
A
330
0
100
AcDbSymbolTable
 70
     3
100
AcDbDimStyleTable
  0
DIMSTYLE
105
27
330
A
100
AcDbSymbolTableRecord
100
AcDbDimStyleTableRecord
  2
ISO-25
 70
     0
 41
2.5
 42
0.625
 43
3.75
 44
1.25
 73
     0
 74
     0
 77
     1
 78
     8
140
2.5
141
2.5
143
0.03937007874
147
0.625
171
     3
172
     1
178
     0
271
     2
272
     2
274
     3
278
    44
283
     0
284
     8
340
11
  0
DIMSTYLE
105
6E
330
A
100
AcDbSymbolTableRecord
100
AcDbDimStyleTableRecord
  2
Standard
 70
     0
178
     0
340
11
  0
DIMSTYLE
105
EB1
330
A
100
AcDbSymbolTableRecord
100
AcDbDimStyleTableRecord
  2
SC3
 70
     0
 40
3.0
 41
2.5
 42
1.0
 43
2.5
 44
1.0
 73
     0
 74
     0
 77
     1
140
2.5
141
2.5
143
0.03937
147
1.0
173
     1
176
   256
177
   256
271
     0
178
     4
271
     0
272
     0
278
     0
340
EB2
1001
AcadAnnotative
1000
AnnotativeData
1002
{
1070
     1
1070
     0
1002
}
  0
ENDTAB
  0
TABLE
  2
BLOCK_RECORD
  5
1
330
0
100
AcDbSymbolTable
 70
     1
  0
BLOCK_RECORD
  5
1F
330
1
100
AcDbSymbolTableRecord
100
AcDbBlockTableRecord
  2
*Model_Space
340
22
 70
     0
280
     1
281
     0
  0
BLOCK_RECORD
  5
23
330
1
100
AcDbSymbolTableRecord
100
AcDbBlockTableRecord
  2
*Paper_Space
340
26
 70
     0
280
     1
281
     0
  0
BLOCK_RECORD
  5
1B
330
1
100
AcDbSymbolTableRecord
100
AcDbBlockTableRecord
  2
*Paper_Space0
340
1E
 70
     0
280
     1
281
     0
  0
ENDTAB
  0
ENDSEC
  0
SECTION
  2
BLOCKS
  0
BLOCK
  5
20
330
1F
100
AcDbEntity
  8
0
100
AcDbBlockBegin
  2
*Model_Space
 70
     2
 10
0.0
 20
0.0
 30
0.0
  3
*Model_Space
  1

  0
ENDBLK
  5
21
330
1F
100
AcDbEntity
  8
0
100
AcDbBlockEnd
  0
BLOCK
  5
24
330
23
100
AcDbEntity
 67
     1
  8
0
100
AcDbBlockBegin
  2
*Paper_Space
 70
     0
 10
0.0
 20
0.0
 30
0.0
  3
*Paper_Space
  1

  0
ENDBLK
  5
25
330
23
100
AcDbEntity
 67
     1
  8
0
100
AcDbBlockEnd
  0
BLOCK
  5
1C
330
1B
100
AcDbEntity
  8
0
100
AcDbBlockBegin
  2
*Paper_Space0
 70
     0
 10
0.0
 20
0.0
 30
0.0
  3
*Paper_Space0
  1

  0
VIEWPORT
  5
8C
330
1B
100
AcDbEntity
  8
0
100
AcDbViewport
 10
202.5
 20
128.5
 30
0.0
 40
556.786421052632
 41
314.226
 68
     1
 69
     1
 12
202.5
 22
128.5
 13
0.0
 23
0.0
 14
10.0
 24
10.0
 15
10.0
 25
10.0
 16
0.0
 26
0.0
 36
1.0
 17
0.0
 27
0.0
 37
0.0
 42
50.0
 43
0.0
 44
0.0
 45
314.226
 50
0.0
 51
0.0
 72
   100
 90
    32800
  1

281
     0
 71
     1
 74
     0
110
0.0
120
0.0
130
0.0
111
1.0
121
0.0
131
0.0
112
0.0
122
1.0
132
0.0
 79
     0
146
0.0
170
     0
 61
     5
348
E93
292
     1
282
     1
141
0.0
142
0.0
 63
   250
421
  3355443
  0
VIEWPORT
  5
8E
330
1B
100
AcDbEntity
  8
0
100
AcDbViewport
 10
202.5
 20
128.5
 30
0.0
 40
324.0
 41
205.6
 68
     2
 69
     2
 12
210.0
 22
148.5
 13
0.0
 23
0.0
 14
10.0
 24
10.0
 15
10.0
 25
10.0
 16
0.0
 26
0.0
 36
1.0
 17
0.0
 27
0.0
 37
0.0
 42
50.0
 43
0.0
 44
0.0
 45
302.335329341317
 50
0.0
 51
0.0
 72
   100
 90
    32864
  1

281
     0
 71
     1
 74
     0
110
0.0
120
0.0
130
0.0
111
1.0
121
0.0
131
0.0
112
0.0
122
1.0
132
0.0
 79
     0
146
0.0
170
     0
 61
     5
348
E93
292
     1
282
     1
141
0.0
142
0.0
 63
   250
421
  3355443
  0
ENDBLK
  5
1D
330
1B
100
AcDbEntity
  8
0
100
AcDbBlockEnd
  0
ENDSEC
  0
SECTION
  2
ENTITIES
  0
LINE
  5
1078
330
1F
100
AcDbEntity
  8
FLAME
100
AcDbLine
 10
297.5
 20
253.519243884228
 30
0.0
 11
297.5
 21
148.519243884228
 31
0.0
  0
LINE
  5
1079
330
1F
100
AcDbEntity
  8
FLAME
100
AcDbLine
 10
207.5
 20
148.519243884228
 30
0.0
 11
207.5
 21
253.519243884228
 31
0.0
  0
LINE
  5
107A
330
1F
100
AcDbEntity
  8
FLAME
100
AcDbLine
 10
297.5
 20
148.519243884228
 30
0.0
 11
207.5
 21
148.519243884228
 31
0.0
  0
LINE
  5
107B
330
1F
100
AcDbEntity
  8
FLAME
100
AcDbLine
 10
297.5
 20
153.519243884228
 30
0.0
 11
207.5
 21
153.519243884228
 31
0.0
  0
LINE
  5
107C
330
1F
100
AcDbEntity
  8
FLAME
100
AcDbLine
 10
297.5
 20
158.519243884228
 30
0.0
 11
207.5
 21
158.519243884228
 31
0.0
  0
LINE
  5
107D
330
1F
100
AcDbEntity
  8
FLAME
100
AcDbLine
 10
297.5
 20
163.519243884228
 30
0.0
 11
207.5
 21
163.519243884228
 31
0.0
  0
LINE
  5
107E
330
1F
100
AcDbEntity
  8
FLAME
100
AcDbLine
 10
297.5
 20
253.519243884228
 30
0.0
 11
207.5
 21
253.519243884228
 31
0.0
  0
LWPOLYLINE
  5
107F
330
1F
100
AcDbEntity
  8
Defpoints
370
     0
100
AcDbPolyline
 90
        4
 70
     1
 43
0.0
 10
155.0
 20
338.0
 10
350.0
 20
338.0
 10
350.0
 20
56.0
 10
155.0
 20
56.0
  0
TEXT
  5
1080
330
1F
100
AcDbEntity
  8
text
  6
Continuous
100
AcDbText
 10
210.948885885664
 20
154.658981217843
 30
0.0
 40
2.5
  1
KP101XL/XLBR/XLCP
  7
新規スタイル1
 11
210.948885885664
 21
155.908981217843
 31
0.0
100
AcDbText
 73
     2
  0
TEXT
  5
1081
330
1F
100
AcDbEntity
  8
text
  6
Continuous
100
AcDbText
 10
210.948885885664
 20
159.658981217843
 30
0.0
 40
2.5
  1
ペンダント 101XL
  7
新規スタイル1
 11
210.948885885664
 21
160.908981217843
 31
0.0
100
AcDbText
 73
     2
  0
TEXT
  5
1082
330
1F
100
AcDbEntity
  8
text
  6
Continuous
100
AcDbText
 10
210.695709672025
 20
149.772175151576
 30
0.0
 40
2.5
  1
E26 LED電球(100W形相当　電球色　全方向/広配光タイプ）（別売）
 41
0.82730471649
  7
新規スタイル1
 72
     5
 11
294.83053107727
 21
149.772175151576
 31
0.0
100
AcDbText
  0
LINE
  5
1083
330
1F
100
AcDbEntity
  8
shade
370
    -1
100
AcDbLine
 10
252.259116081164
 20
203.242830245061
 30
0.0
 11
252.259116081164
 21
207.115403086688
 31
0.0
  0
LINE
  5
1084
330
1F
100
AcDbEntity
  8
shade
370
    -1
100
AcDbLine
 10
252.259116081164
 20
208.176262372831
 30
0.0
 11
252.265344538187
 21
208.176262372831
 31
0.0
  0
POLYLINE
  5
1085
330
1F
100
AcDbEntity
  8
shade
370
    -1
100
AcDb2dPolyline
 66
     1
 10
0.0
 20
0.0
 30
0.0
  0
VERTEX
  5
1086
330
1085
100
AcDbEntity
  8
shade
370
    -1
100
AcDbVertex
100
AcDb2dVertex
 10
252.259116081164
 20
203.242830245061
 30
0.0
  0
VERTEX
  5
1087
330
1085
100
AcDbEntity
  8
shade
370
    -1
100
AcDbVertex
100
AcDb2dVertex
 10
251.178981081161
 20
198.453197017522
 30
0.0
  0
VERTEX
  5
1088
330
1085
100
AcDbEntity
  8
shade
370
    -1
100
AcDbVertex
100
AcDb2dVertex
 10
252.259116081164
 20
190.953933833928
 30
0.0
  0
VERTEX
  5
1089
330
1085
100
AcDbEntity
  8
shade
370
    -1
100
AcDbVertex
100
AcDb2dVertex
 10
251.111070807725
 20
183.967011470647
 30
0.0
  0
VERTEX
  5
108A
330
1085
100
AcDbEntity
  8
shade
370
    -1
100
AcDbVertex
100
AcDb2dVertex
 10
252.259116081164
 20
179.634115015569
 30
0.0
  0
SEQEND
  5
108B
330
1085
100
AcDbEntity
  8
shade
370
    -1
  0
POLYLINE
  5
108C
330
1F
100
AcDbEntity
  8
shade
370
    -1
100
AcDb2dPolyline
 66
     1
 10
0.0
 20
0.0
 30
0.0
 70
     1
  0
VERTEX
  5
108D
330
108C
100
AcDbEntity
  8
shade
370
    -1
100
AcDbVertex
100
AcDb2dVertex
 10
251.111070807725
 20
183.967011470647
 30
0.0
  0
VERTEX
  5
108E
330
108C
100
AcDbEntity
  8
shade
370
    -1
100
AcDbVertex
100
AcDb2dVertex
 10
251.024676081164
 20
179.67731237885
 30
0.0
  0
VERTEX
  5
108F
330
108C
100
AcDbEntity
  8
shade
370
    -1
100
AcDbVertex
100
AcDb2dVertex
 10
249.191600993268
 20
183.880616744085
 30
0.0
  0
VERTEX
  5
1090
330
108C
100
AcDbEntity
  8
shade
370
    -1
100
AcDbVertex
100
AcDb2dVertex
 10
249.852018356556
 20
190.886023560491
 30
0.0
  0
SEQEND
  5
1091
330
108C
100
AcDbEntity
  8
shade
370
    -1
  0
POLYLINE
  5
1092
330
1F
100
AcDbEntity
  8
shade
370
    -1
100
AcDb2dPolyline
 66
     1
 10
0.0
 20
0.0
 30
0.0
 70
     1
  0
VERTEX
  5
1093
330
1092
100
AcDbEntity
  8
shade
370
    -1
100
AcDbVertex
100
AcDb2dVertex
 10
251.178981081161
 20
198.453197017522
 30
0.0
  0
VERTEX
  5
1094
330
1092
100
AcDbEntity
  8
shade
370
    -1
100
AcDbVertex
100
AcDb2dVertex
 10
249.852018356556
 20
190.886023560491
 30
0.0
  0
VERTEX
  5
1095
330
1092
100
AcDbEntity
  8
shade
370
    -1
100
AcDbVertex
100
AcDb2dVertex
 10
249.253282809681
 20
198.268051109318
 30
0.0
  0
VERTEX
  5
1096
330
1092
100
AcDbEntity
  8
shade
370
    -1
100
AcDbVertex
100
AcDb2dVertex
 10
251.240763356545
 20
203.279849380803
 30
0.0
  0
SEQEND
  5
1097
330
1092
100
AcDbEntity
  8
shade
370
    -1
  0
POLYLINE
  5
1098
330
1F
100
AcDbEntity
  8
shade
370
    -1
100
AcDb2dPolyline
 66
     1
 10
0.0
 20
0.0
 30
0.0
 70
     1
  0
VERTEX
  5
1099
330
1098
100
AcDbEntity
  8
shade
370
    -1
100
AcDbVertex
100
AcDb2dVertex
 10
249.253282809681
 20
198.268051109318
 30
0.0
  0
VERTEX
  5
109A
330
1098
100
AcDbEntity
  8
shade
370
    -1
100
AcDbVertex
100
AcDb2dVertex
 10
250.228438171005
 20
203.255136470647
 30
0.0
  0
VERTEX
  5
109B
330
1098
100
AcDbEntity
  8
shade
370
    -1
100
AcDbVertex
100
AcDb2dVertex
 10
247.568284264751
 20
198.34821737885
 30
0.0
  0
VERTEX
  5
109C
330
1098
100
AcDbEntity
  8
shade
370
    -1
100
AcDbVertex
100
AcDb2dVertex
 10
247.710232809673
 20
190.966290289006
 30
0.0
  0
SEQEND
  5
109D
330
1098
100
AcDbEntity
  8
shade
370
    -1
  0
POLYLINE
  5
109E
330
1F
100
AcDbEntity
  8
shade
370
    -1
100
AcDb2dPolyline
 66
     1
 10
0.0
 20
0.0
 30
0.0
  0
VERTEX
  5
109F
330
109E
100
AcDbEntity
  8
shade
370
    -1
100
AcDbVertex
100
AcDb2dVertex
 10
249.191600993268
 20
183.880616744085
 30
0.0
  0
VERTEX
  5
10A0
330
109E
100
AcDbEntity
  8
shade
370
    -1
100
AcDbVertex
100
AcDb2dVertex
 10
247.710232809673
 20
190.966290289006
 30
0.0
  0
VERTEX
  5
10A1
330
109E
100
AcDbEntity
  8
shade
370
    -1
100
AcDbVertex
100
AcDb2dVertex
 10
247.43246371788
 20
184.090475562444
 30
0.0
  0
VERTEX
  5
10A2
330
109E
100
AcDbEntity
  8
shade
370
    -1
100
AcDbVertex
100
AcDb2dVertex
 10
245.914126628049
 20
190.966290289006
 30
0.0
  0
VERTEX
  5
10A3
330
109E
100
AcDbEntity
  8
shade
370
    -1
100
AcDbVertex
100
AcDb2dVertex
 10
247.568284264751
 20
198.34821737885
 30
0.0
  0
SEQEND
  5
10A4
330
109E
100
AcDbEntity
  8
shade
370
    -1
  0
POLYLINE
  5
10A5
330
1F
100
AcDbEntity
  8
shade
370
    -1
100
AcDb2dPolyline
 66
     1
 10
0.0
 20
0.0
 30
0.0
  0
VERTEX
  5
10A6
330
10A5
100
AcDbEntity
  8
shade
370
    -1
100
AcDbVertex
100
AcDb2dVertex
 10
249.191600993268
 20
183.880616744085
 30
0.0
  0
VERTEX
  5
10A7
330
10A5
100
AcDbEntity
  8
shade
370
    -1
100
AcDbVertex
100
AcDb2dVertex
 10
249.919828171012
 20
179.671184380803
 30
0.0
  0
VERTEX
  5
10A8
330
10A5
100
AcDbEntity
  8
shade
370
    -1
100
AcDbVertex
100
AcDb2dVertex
 10
247.43246371788
 20
184.090475562444
 30
0.0
  0
VERTEX
  5
10A9
330
10A5
100
AcDbEntity
  8
shade
370
    -1
100
AcDbVertex
100
AcDb2dVertex
 10
248.944672809674
 20
179.837845835881
 30
0.0
  0
VERTEX
  5
10AA
330
10A5
100
AcDbEntity
  8
shade
370
    -1
100
AcDbVertex
100
AcDb2dVertex
 10
246.019056037221
 20
184.127544927678
 30
0.0
  0
VERTEX
  5
10AB
330
10A5
100
AcDbEntity
  8
shade
370
    -1
100
AcDbVertex
100
AcDb2dVertex
 10
247.938576081156
 20
180.164940289006
 30
0.0
  0
VERTEX
  5
10AC
330
10A5
100
AcDbEntity
  8
shade
370
    -1
100
AcDbVertex
100
AcDb2dVertex
 10
244.574757218856
 20
184.312690835881
 30
0.0
  0
VERTEX
  5
10AD
330
10A5
100
AcDbEntity
  8
shade
370
    -1
100
AcDbVertex
100
AcDb2dVertex
 10
247.074478127062
 20
180.269919927678
 30
0.0
  0
VERTEX
  5
10AE
330
10A5
100
AcDbEntity
  8
shade
370
    -1
100
AcDbVertex
100
AcDb2dVertex
 10
243.469909308704
 20
184.5781034726
 30
0.0
  0
VERTEX
  5
10AF
330
10A5
100
AcDbEntity
  8
shade
370
    -1
100
AcDbVertex
100
AcDb2dVertex
 10
246.54983108116
 20
180.4118684726
 30
0.0
  0
SEQEND
  5
10B0
330
10A5
100
AcDbEntity
  8
shade
370
    -1
  0
POLYLINE
  5
10B1
330
1F
100
AcDbEntity
  8
shade
370
    -1
100
AcDb2dPolyline
 66
     1
 10
0.0
 20
0.0
 30
0.0
  0
VERTEX
  5
10B2
330
10B1
100
AcDbEntity
  8
shade
370
    -1
100
AcDbVertex
100
AcDb2dVertex
 10
245.914126628049
 20
190.966290289006
 30
0.0
  0
VERTEX
  5
10B3
330
10B1
100
AcDbEntity
  8
shade
370
    -1
100
AcDbVertex
100
AcDb2dVertex
 10
246.019056037221
 20
184.127544927678
 30
0.0
  0
VERTEX
  5
10B4
330
10B1
100
AcDbEntity
  8
shade
370
    -1
100
AcDbVertex
100
AcDb2dVertex
 10
244.179752492302
 20
191.0589134726
 30
0.0
  0
VERTEX
  5
10B5
330
10B1
100
AcDbEntity
  8
shade
370
    -1
100
AcDbVertex
100
AcDb2dVertex
 10
244.574757218856
 20
184.312690835881
 30
0.0
  0
VERTEX
  5
10B6
330
10B1
100
AcDbEntity
  8
shade
370
    -1
100
AcDbVertex
100
AcDb2dVertex
 10
242.766294582136
 20
191.225574927678
 30
0.0
  0
VERTEX
  5
10B7
330
10B1
100
AcDbEntity
  8
shade
370
    -1
100
AcDbVertex
100
AcDb2dVertex
 10
243.469909308704
 20
184.5781034726
 30
0.0
  0
VERTEX
  5
10B8
330
10B1
100
AcDbEntity
  8
shade
370
    -1
100
AcDbVertex
100
AcDb2dVertex
 10
241.741713400494
 20
191.429205289006
 30
0.0
  0
VERTEX
  5
10B9
330
10B1
100
AcDbEntity
  8
shade
370
    -1
100
AcDbVertex
100
AcDb2dVertex
 10
242.636702492295
 20
184.86812856049
 30
0.0
  0
VERTEX
  5
10BA
330
10B1
100
AcDbEntity
  8
shade
370
    -1
100
AcDbVertex
100
AcDb2dVertex
 10
240.96401017296
 20
191.50324356049
 30
0.0
  0
SEQEND
  5
10BB
330
10B1
100
AcDbEntity
  8
shade
370
    -1
  0
POLYLINE
  5
10BC
330
1F
100
AcDbEntity
  8
shade
370
    -1
100
AcDb2dPolyline
 66
     1
 10
0.0
 20
0.0
 30
0.0
  0
VERTEX
  5
10BD
330
10BC
100
AcDbEntity
  8
shade
370
    -1
100
AcDbVertex
100
AcDb2dVertex
 10
246.54983108116
 20
180.4118684726
 30
0.0
  0
VERTEX
  5
10BE
330
10BC
100
AcDbEntity
  8
shade
370
    -1
100
AcDbVertex
100
AcDb2dVertex
 10
242.636702492295
 20
184.86812856049
 30
0.0
  0
VERTEX
  5
10BF
330
10BC
100
AcDbEntity
  8
shade
370
    -1
100
AcDbVertex
100
AcDb2dVertex
 10
245.938789308704
 20
180.664924654241
 30
0.0
  0
SEQEND
  5
10C0
330
10BC
100
AcDbEntity
  8
shade
370
    -1
  0
POLYLINE
  5
10C1
330
1F
100
AcDbEntity
  8
shade
370
    -1
100
AcDb2dPolyline
 66
     1
 10
0.0
 20
0.0
 30
0.0
  0
VERTEX
  5
10C2
330
10C1
100
AcDbEntity
  8
shade
370
    -1
100
AcDbVertex
100
AcDb2dVertex
 10
241.556567492291
 20
185.473092564397
 30
0.0
  0
VERTEX
  5
10C3
330
10C1
100
AcDbEntity
  8
shade
370
    -1
100
AcDbVertex
100
AcDb2dVertex
 10
245.617873083123
 20
180.751319380803
 30
0.0
  0
VERTEX
  5
10C4
330
10C1
100
AcDbEntity
  8
shade
370
    -1
100
AcDbVertex
100
AcDb2dVertex
 10
242.235469308704
 20
184.929910835881
 30
0.0
  0
VERTEX
  5
10C5
330
10C1
100
AcDbEntity
  8
shade
370
    -1
100
AcDbVertex
100
AcDb2dVertex
 10
240.96401017296
 20
191.50324356049
 30
0.0
  0
SEQEND
  5
10C6
330
10C1
100
AcDbEntity
  8
shade
370
    -1
  0
LINE
  5
10C7
330
1F
100
AcDbEntity
  8
shade
370
    -1
100
AcDbLine
 10
242.235469308704
 20
184.929910835881
 30
0.0
 11
240.389987536248
 21
191.793369107365
 31
0.0
  0
LINE
  5
10C8
330
1F
100
AcDbEntity
  8
shade
370
    -1
100
AcDbLine
 10
241.556567492291
 20
185.473092564397
 30
0.0
 11
240.328255490342
 21
191.879763833928
 31
0.0
  0
POLYLINE
  5
10C9
330
1F
100
AcDbEntity
  8
shade
370
    -1
100
AcDb2dPolyline
 66
     1
 10
0.0
 20
0.0
 30
0.0
  0
VERTEX
  5
10CA
330
10C9
100
AcDbEntity
  8
shade
370
    -1
100
AcDbVertex
100
AcDb2dVertex
 10
244.179752492302
 20
191.0589134726
 30
0.0
  0
VERTEX
  5
10CB
330
10C9
100
AcDbEntity
  8
shade
370
    -1
100
AcDbVertex
100
AcDb2dVertex
 10
246.04989694542
 20
198.181656382756
 30
0.0
  0
VERTEX
  5
10CC
330
10C9
100
AcDbEntity
  8
shade
370
    -1
100
AcDbVertex
100
AcDb2dVertex
 10
245.914126628049
 20
190.966290289006
 30
0.0
  0
SEQEND
  5
10CD
330
10C9
100
AcDbEntity
  8
shade
370
    -1
  0
POLYLINE
  5
10CE
330
1F
100
AcDbEntity
  8
shade
370
    -1
100
AcDb2dPolyline
 66
     1
 10
0.0
 20
0.0
 30
0.0
  0
VERTEX
  5
10CF
330
10CE
100
AcDbEntity
  8
shade
370
    -1
100
AcDbVertex
100
AcDb2dVertex
 10
244.179752492302
 20
191.0589134726
 30
0.0
  0
VERTEX
  5
10D0
330
10CE
100
AcDbEntity
  8
shade
370
    -1
100
AcDbVertex
100
AcDb2dVertex
 10
244.735240446404
 20
198.076676744084
 30
0.0
  0
VERTEX
  5
10D1
330
10CE
100
AcDbEntity
  8
shade
370
    -1
100
AcDbVertex
100
AcDb2dVertex
 10
242.766294582136
 20
191.225574927678
 30
0.0
  0
VERTEX
  5
10D2
330
10CE
100
AcDbEntity
  8
shade
370
    -1
100
AcDbVertex
100
AcDb2dVertex
 10
243.630392536237
 20
198.107517652287
 30
0.0
  0
VERTEX
  5
10D3
330
10CE
100
AcDbEntity
  8
shade
370
    -1
100
AcDbVertex
100
AcDb2dVertex
 10
241.741713400494
 20
191.429205289006
 30
0.0
  0
VERTEX
  5
10D4
330
10CE
100
AcDbEntity
  8
shade
370
    -1
100
AcDbVertex
100
AcDb2dVertex
 10
242.766294582136
 20
198.027351382756
 30
0.0
  0
VERTEX
  5
10D5
330
10CE
100
AcDbEntity
  8
shade
370
    -1
100
AcDbVertex
100
AcDb2dVertex
 10
240.96401017296
 20
191.50324356049
 30
0.0
  0
VERTEX
  5
10D6
330
10CE
100
AcDbEntity
  8
shade
370
    -1
100
AcDbVertex
100
AcDb2dVertex
 10
242.186093717886
 20
198.0026384726
 30
0.0
  0
VERTEX
  5
10D7
330
10CE
100
AcDbEntity
  8
shade
370
    -1
100
AcDbVertex
100
AcDb2dVertex
 10
240.389987536248
 20
191.793369107365
 30
0.0
  0
VERTEX
  5
10D8
330
10CE
100
AcDbEntity
  8
shade
370
    -1
100
AcDbVertex
100
AcDb2dVertex
 10
241.729356945427
 20
197.959441109319
 30
0.0
  0
VERTEX
  5
10D9
330
10CE
100
AcDbEntity
  8
shade
370
    -1
100
AcDbVertex
100
AcDb2dVertex
 10
240.328255490342
 20
191.879763833928
 30
0.0
  0
SEQEND
  5
10DA
330
10CE
100
AcDbEntity
  8
shade
370
    -1
  0
POLYLINE
  5
10DB
330
1F
100
AcDbEntity
  8
shade
370
    -1
100
AcDb2dPolyline
 66
     1
 10
0.0
 20
0.0
 30
0.0
  0
VERTEX
  5
10DC
330
10DB
100
AcDbEntity
  8
shade
370
    -1
100
AcDbVertex
100
AcDb2dVertex
 10
247.568284264751
 20
198.34821737885
 30
0.0
  0
VERTEX
  5
10DD
330
10DB
100
AcDbEntity
  8
shade
370
    -1
100
AcDbVertex
100
AcDb2dVertex
 10
249.24715481163
 20
203.205760879826
 30
0.0
  0
VERTEX
  5
10DE
330
10DB
100
AcDbEntity
  8
shade
370
    -1
100
AcDbVertex
100
AcDb2dVertex
 10
246.04989694542
 20
198.181656382756
 30
0.0
  0
VERTEX
  5
10DF
330
10DB
100
AcDbEntity
  8
shade
370
    -1
100
AcDbVertex
100
AcDb2dVertex
 10
248.327452809681
 20
203.045277652287
 30
0.0
  0
VERTEX
  5
10E0
330
10DB
100
AcDbEntity
  8
shade
370
    -1
100
AcDbVertex
100
AcDb2dVertex
 10
244.735240446404
 20
198.076676744084
 30
0.0
  0
VERTEX
  5
10E1
330
10DB
100
AcDbEntity
  8
shade
370
    -1
100
AcDbVertex
100
AcDb2dVertex
 10
247.629966081164
 20
203.002080289006
 30
0.0
  0
VERTEX
  5
10E2
330
10DB
100
AcDbEntity
  8
shade
370
    -1
100
AcDbVertex
100
AcDb2dVertex
 10
243.630392536237
 20
198.107517652287
 30
0.0
  0
VERTEX
  5
10E3
330
10DB
100
AcDbEntity
  8
shade
370
    -1
100
AcDbVertex
100
AcDb2dVertex
 10
247.012746081171
 20
202.989774063421
 30
0.0
  0
VERTEX
  5
10E4
330
10DB
100
AcDbEntity
  8
shade
370
    -1
100
AcDbVertex
100
AcDb2dVertex
 10
242.766294582136
 20
198.027351382756
 30
0.0
  0
SEQEND
  5
10E5
330
10DB
100
AcDbEntity
  8
shade
370
    -1
  0
LINE
  5
10E6
330
1F
100
AcDbEntity
  8
shade
370
    -1
100
AcDbLine
 10
241.729356945427
 20
197.959441109319
 30
0.0
 11
246.327666037214
 21
202.9403984726
 31
0.0
  0
POLYLINE
  5
10E7
330
1F
100
AcDbEntity
  8
shade
370
    -1
100
AcDb2dPolyline
 66
     1
 10
0.0
 20
0.0
 30
0.0
  0
VERTEX
  5
10E8
330
10E7
100
AcDbEntity
  8
shade
370
    -1
100
AcDbVertex
100
AcDb2dVertex
 10
242.186093717886
 20
198.0026384726
 30
0.0
  0
VERTEX
  5
10E9
330
10E7
100
AcDbEntity
  8
shade
370
    -1
100
AcDbVertex
100
AcDb2dVertex
 10
246.488149264762
 20
202.897150879827
 30
0.0
  0
VERTEX
  5
10EA
330
10E7
100
AcDbEntity
  8
shade
370
    -1
100
AcDbVertex
100
AcDb2dVertex
 10
242.766294582136
 20
198.027351382756
 30
0.0
  0
SEQEND
  5
10EB
330
10E7
100
AcDbEntity
  8
shade
370
    -1
  0
LINE
  5
10EC
330
1F
100
AcDbEntity
  8
shade
370
    -1
100
AcDbLine
 10
246.327666037214
 20
202.9403984726
 30
0.0
 11
242.186093717886
 21
198.0026384726
 31
0.0
  0
LINE
  5
10ED
330
1F
100
AcDbEntity
  8
shade
370
    -1
100
AcDbLine
 10
251.240763356545
 20
203.279849380803
 30
0.0
 11
252.055485719829
 21
204.273589654241
 31
0.0
  0
LINE
  5
10EE
330
1F
100
AcDbEntity
  8
shade
370
    -1
100
AcDbLine
 10
250.228438171005
 20
203.255136470647
 30
0.0
 11
251.592570719833
 21
204.273589654241
 31
0.0
  0
LINE
  5
10EF
330
1F
100
AcDbEntity
  8
shade
370
    -1
100
AcDbLine
 10
249.24715481163
 20
203.205760879826
 30
0.0
 11
251.13578371788
 21
204.273589654241
 31
0.0
  0
LINE
  5
10F0
330
1F
100
AcDbEntity
  8
shade
370
    -1
100
AcDbLine
 10
248.327452809681
 20
203.045277652287
 30
0.0
 11
250.697581628032
 21
204.273589654241
 31
0.0
  0
LINE
  5
10F1
330
1F
100
AcDbEntity
  8
shade
370
    -1
100
AcDbLine
 10
247.629966081164
 20
203.002080289006
 30
0.0
 11
250.265507536242
 21
204.273589654241
 31
0.0
  0
LINE
  5
10F2
330
1F
100
AcDbEntity
  8
shade
370
    -1
100
AcDbLine
 10
247.012746081171
 20
202.989774063421
 30
0.0
 11
250.068005172958
 21
204.273589654241
 31
0.0
  0
POLYLINE
  5
10F3
330
1F
100
AcDbEntity
  8
shade
370
    -1
100
AcDb2dPolyline
 66
     1
 10
0.0
 20
0.0
 30
0.0
  0
VERTEX
  5
10F4
330
10F3
100
AcDbEntity
  8
shade
370
    -1
100
AcDbVertex
100
AcDb2dVertex
 10
246.488149264762
 20
202.897150879827
 30
0.0
  0
VERTEX
  5
10F5
330
10F3
100
AcDbEntity
  8
shade
370
    -1
100
AcDbVertex
100
AcDb2dVertex
 10
250.000094899522
 20
204.273589654241
 30
0.0
  0
VERTEX
  5
10F6
330
10F3
100
AcDbEntity
  8
shade
370
    -1
100
AcDbVertex
100
AcDb2dVertex
 10
246.327666037214
 20
202.9403984726
 30
0.0
  0
SEQEND
  5
10F7
330
10F3
100
AcDbEntity
  8
shade
370
    -1
  0
LINE
  5
10F8
330
1F
100
AcDbEntity
  8
shade
370
    -1
100
AcDbLine
 10
252.149332409208
 20
208.176243472469
 30
0.0
 11
252.14642095389
 21
208.040492055448
 31
0.0
  0
LINE
  5
10F9
330
1F
100
AcDbEntity
  8
shade
370
    -1
100
AcDbLine
 10
251.592570719833
 20
204.273589654241
 30
0.0
 11
251.786002209243
 21
207.115403086688
 31
0.0
  0
LINE
  5
10FA
330
1F
100
AcDbEntity
  8
shade
370
    -1
100
AcDbLine
 10
251.13578371788
 20
204.273589654241
 30
0.0
 11
251.4674662408
 21
207.115403086688
 31
0.0
  0
LINE
  5
10FB
330
1F
100
AcDbEntity
  8
shade
370
    -1
100
AcDbLine
 10
251.310554625517
 20
208.176243472469
 30
0.0
 11
251.293776590806
 21
208.048523086688
 31
0.0
  0
LINE
  5
10FC
330
1F
100
AcDbEntity
  8
shade
370
    -1
100
AcDbLine
 10
250.265507536242
 20
204.273589654241
 30
0.0
 11
250.878190532916
 21
207.115403086688
 31
0.0
  0
LINE
  5
10FD
330
1F
100
AcDbEntity
  8
shade
370
    -1
100
AcDbLine
 10
250.918694820342
 20
208.176243472469
 30
0.0
 11
250.895410107165
 21
208.048523086688
 31
0.0
  0
POLYLINE
  5
10FE
330
1F
100
AcDbEntity
  8
shade
370
    -1
100
AcDb2dPolyline
 66
     1
 10
0.0
 20
0.0
 30
0.0
  0
VERTEX
  5
10FF
330
10FE
100
AcDbEntity
  8
shade
370
    -1
100
AcDbVertex
100
AcDb2dVertex
 10
250.725667622981
 20
208.176243472469
 30
0.0
  0
VERTEX
  5
1100
330
10FE
100
AcDbEntity
  8
shade
370
    -1
100
AcDbVertex
100
AcDb2dVertex
 10
250.703581141803
 20
208.048523086688
 30
0.0
  0
SEQEND
  5
1101
330
10FE
100
AcDbEntity
  8
shade
370
    -1
  0
SPLINE
  5
1102
330
1F
100
AcDbEntity
  8
shade
370
    -1
100
AcDbSpline
210
0.0
220
0.0
230
1.0
 70
     8
 71
     3
 72
    26
 73
    22
 74
     0
 42
0.00000001
 43
0.0000000001
 40
0.0
 40
0.0
 40
0.0
 40
0.0
 40
1.0
 40
1.0
 40
1.0
 40
2.0
 40
2.0
 40
2.0
 40
3.0
 40
3.0
 40
3.0
 40
4.0
 40
4.0
 40
4.0
 40
5.0
 40
5.0
 40
5.0
 40
6.0
 40
6.0
 40
6.0
 40
7.0
 40
7.0
 40
7.0
 40
7.0
 10
252.2591160811644
 20
210.6864893808032
 30
0.0
 10
251.7256788741288
 20
210.6859870858812
 30
0.0
 10
251.1721498702245
 20
210.5833180038501
 30
0.0
 10
250.6790971749142
 20
210.3778793808033
 30
0.0
 10
250.6790971749142
 20
210.3778793808033
 30
0.0
 10
250.3827431710088
 20
210.2482872909594
 30
0.0
 10
250.3827431710088
 20
210.2482872909594
 30
0.0
 10
250.3827431710088
 20
210.2482872909594
 30
0.0
 10
250.0988460811568
 20
210.0939822909596
 30
0.0
 10
250.0988460811568
 20
210.0939822909596
 30
0.0
 10
250.0988460811568
 20
210.0939822909596
 30
0.0
 10
250.0495207198401
 20
210.0507346981859
 30
0.0
 10
250.0495207198401
 20
210.0507346981859
 30
0.0
 10
250.0495207198401
 20
210.0507346981859
 30
0.0
 10
250.0186798116411
 20
209.9890026522874
 30
0.0
 10
250.0186798116411
 20
209.9890026522874
 30
0.0
 10
250.0186798116411
 20
209.9890026522874
 30
0.0
 10
250.0124513546034
 20
209.9211426083422
 30
0.0
 10
250.0124513546034
 20
209.9211426083422
 30
0.0
 10
250.0124513546034
 20
209.9211426083422
 30
0.0
 10
250.0371642647588
 20
209.8532323349049
 30
0.0
 10
250.0371642647588
 20
209.8532323349049
 30
0.0
  0
LINE
  5
1103
330
1F
100
AcDbEntity
  8
shade
370
    -1
100
AcDbLine
 10
252.149222843756
 20
208.176243472469
 30
0.0
 11
252.111039538191
 21
210.686489380803
 31
0.0
  0
LINE
  5
1104
330
1F
100
AcDbEntity
  8
shade
370
    -1
100
AcDbLine
 10
251.854634984156
 20
208.176243472469
 30
0.0
 11
251.765360172962
 21
210.661776470647
 31
0.0
  0
LINE
  5
1105
330
1F
100
AcDbEntity
  8
shade
370
    -1
100
AcDbLine
 10
251.584245255617
 20
208.176243472469
 30
0.0
 11
251.462878171005
 21
210.612400879827
 31
0.0
  0
LINE
  5
1106
330
1F
100
AcDbEntity
  8
shade
370
    -1
100
AcDbLine
 10
251.306632565567
 20
208.176243472469
 30
0.0
 11
251.185209538191
 21
210.550668833928
 31
0.0
  0
LINE
  5
1107
330
1F
100
AcDbEntity
  8
shade
370
    -1
100
AcDbLine
 10
251.097178320357
 20
208.176243472469
 30
0.0
 11
250.969122262803
 21
210.488987017522
 31
0.0
  0
LINE
  5
1108
330
1F
100
AcDbEntity
  8
shade
370
    -1
100
AcDbLine
 10
250.92115274661
 20
208.176243472469
 30
0.0
 11
250.722294538195
 21
210.396363833928
 31
0.0
  0
LINE
  5
1109
330
1F
100
AcDbEntity
  8
shade
370
    -1
100
AcDbLine
 10
250.728418566207
 20
208.176243472469
 30
0.0
 11
250.48159481163
 21
210.297612652288
 31
0.0
  0
LINE
  5
110A
330
1F
100
AcDbEntity
  8
shade
370
    -1
100
AcDbLine
 10
250.40028300009
 20
208.176243472469
 30
0.0
 11
250.055648717884
 21
210.056912925725
 31
0.0
  0
LINE
  5
110B
330
1F
100
AcDbEntity
  8
shade
370
    -1
100
AcDbLine
 10
250.539925331701
 20
208.176243472469
 30
0.0
 11
250.247023083124
 21
210.180377017522
 31
0.0
  0
POLYLINE
  5
110C
330
1F
100
AcDbEntity
  8
shade
370
    -1
100
AcDb2dPolyline
 66
     1
 10
0.0
 20
0.0
 30
0.0
  0
VERTEX
  5
110D
330
110C
100
AcDbEntity
  8
shade
370
    -1
100
AcDbVertex
100
AcDb2dVertex
 10
245.617873083123
 20
180.751319380803
 30
0.0
  0
VERTEX
  5
110E
330
110C
100
AcDbEntity
  8
shade
370
    -1
100
AcDbVertex
100
AcDb2dVertex
 10
245.938789308704
 20
180.664924654241
 30
0.0
  0
VERTEX
  5
110F
330
110C
100
AcDbEntity
  8
shade
370
    -1
100
AcDbVertex
100
AcDb2dVertex
 10
246.136341901474
 20
180.473550289007
 30
0.0
  0
VERTEX
  5
1110
330
110C
100
AcDbEntity
  8
shade
370
    -1
100
AcDbVertex
100
AcDb2dVertex
 10
246.469614582136
 20
180.504391197209
 30
0.0
  0
SEQEND
  5
1111
330
110C
100
AcDbEntity
  8
shade
370
    -1
  0
POLYLINE
  5
1112
330
1F
100
AcDbEntity
  8
shade
370
    -1
100
AcDb2dPolyline
 66
     1
 10
0.0
 20
0.0
 30
0.0
  0
VERTEX
  5
1113
330
1112
100
AcDbEntity
  8
shade
370
    -1
100
AcDbVertex
100
AcDb2dVertex
 10
246.54983108116
 20
180.4118684726
 30
0.0
  0
VERTEX
  5
1114
330
1112
100
AcDbEntity
  8
shade
370
    -1
100
AcDbVertex
100
AcDb2dVertex
 10
246.58072221886
 20
180.374799107365
 30
0.0
  0
VERTEX
  5
1115
330
1112
100
AcDbEntity
  8
shade
370
    -1
100
AcDbVertex
100
AcDb2dVertex
 10
246.815243717887
 20
180.306888833928
 30
0.0
  0
VERTEX
  5
1116
330
1112
100
AcDbEntity
  8
shade
370
    -1
100
AcDbVertex
100
AcDb2dVertex
 10
246.88315399133
 20
180.245207017522
 30
0.0
  0
VERTEX
  5
1117
330
1112
100
AcDbEntity
  8
shade
370
    -1
100
AcDbVertex
100
AcDb2dVertex
 10
247.074478127062
 20
180.269919927678
 30
0.0
  0
VERTEX
  5
1118
330
1112
100
AcDbEntity
  8
shade
370
    -1
100
AcDbVertex
100
AcDb2dVertex
 10
247.130031945424
 20
180.208137652288
 30
0.0
  0
VERTEX
  5
1119
330
1112
100
AcDbEntity
  8
shade
370
    -1
100
AcDbVertex
100
AcDb2dVertex
 10
247.938576081156
 20
180.164940289006
 30
0.0
  0
VERTEX
  5
111A
330
1112
100
AcDbEntity
  8
shade
370
    -1
100
AcDbVertex
100
AcDb2dVertex
 10
248.203988717883
 20
179.924240562444
 30
0.0
  0
VERTEX
  5
111B
330
1112
100
AcDbEntity
  8
shade
370
    -1
100
AcDbVertex
100
AcDb2dVertex
 10
248.889118991312
 20
179.924240562444
 30
0.0
  0
SEQEND
  5
111C
330
1112
100
AcDbEntity
  8
shade
370
    -1
  0
LINE
  5
111D
330
1F
100
AcDbEntity
  8
shade
370
    -1
100
AcDbLine
 10
248.944672809674
 20
179.837845835881
 30
0.0
 11
249.919828171012
 21
179.671184380803
 31
0.0
  0
LINE
  5
111E
330
1F
100
AcDbEntity
  8
shade
370
    -1
100
AcDbLine
 10
251.024676081164
 20
179.67731237885
 30
0.0
 11
251.851754899515
 21
179.195912925725
 31
0.0
  0
LINE
  5
111F
330
1F
100
AcDbEntity
  8
shade
370
    -1
100
AcDbLine
 10
251.703678356556
 20
179.195912925725
 30
0.0
 11
249.919828171012
 21
179.671184380803
 31
0.0
  0
POLYLINE
  5
1120
330
1F
100
AcDbEntity
  8
shade
370
    -1
100
AcDb2dPolyline
 66
     1
 10
0.0
 20
0.0
 30
0.0
  0
VERTEX
  5
1121
330
1120
100
AcDbEntity
  8
shade
370
    -1
100
AcDbVertex
100
AcDb2dVertex
 10
252.259116081164
 20
179.634115015569
 30
0.0
  0
VERTEX
  5
1122
330
1120
100
AcDbEntity
  8
shade
370
    -1
100
AcDbVertex
100
AcDb2dVertex
 10
252.036900807718
 20
179.195912925725
 30
0.0
  0
VERTEX
  5
1123
330
1120
100
AcDbEntity
  8
shade
370
    -1
100
AcDbVertex
100
AcDb2dVertex
 10
251.703678356556
 20
179.195912925725
 30
0.0
  0
VERTEX
  5
1124
330
1120
100
AcDbEntity
  8
shade
370
    -1
100
AcDbVertex
100
AcDb2dVertex
 10
251.024676081164
 20
179.67731237885
 30
0.0
  0
SEQEND
  5
1125
330
1120
100
AcDbEntity
  8
shade
370
    -1
  0
LINE
  5
1126
330
1F
100
AcDbEntity
  8
shade
370
    -1
100
AcDbLine
 10
250.037164264759
 20
209.853232334905
 30
0.0
 11
250.342580400262
 21
208.176243472469
 31
0.0
  0
LINE
  5
1127
330
1F
100
AcDbEntity
  8
shade
370
    -1
100
AcDbLine
 10
252.259116081164
 20
208.176243472469
 30
0.0
 11
252.259116081164
 21
208.048523086688
 31
0.0
  0
LINE
  5
1128
330
1F
100
AcDbEntity
  8
shade
370
    -1
100
AcDbLine
 10
252.259116081164
 20
208.134894213821
 30
0.0
 11
252.265344538187
 21
208.134894213821
 31
0.0
  0
LINE
  5
1129
330
1F
100
AcDbEntity
  8
shade
370
    -1
100
AcDbLine
 10
252.259116081164
 20
208.283020986282
 30
0.0
 11
252.265344538187
 21
208.283020986282
 31
0.0
  0
LINE
  5
112A
330
1F
100
AcDbEntity
  8
shade
370
    -1
100
AcDbLine
 10
252.259116081164
 20
210.186555245061
 30
0.0
 11
252.259116081164
 21
209.816213199162
 31
0.0
  0
LINE
  5
112B
330
1F
100
AcDbEntity
  8
shade
370
    -1
100
AcDbLine
 10
252.259116081164
 20
209.445871153264
 30
0.0
 11
252.259116081164
 21
208.048523086688
 31
0.0
  0
LINE
  5
112C
330
1F
100
AcDbEntity
  8
shade
370
    -1
100
AcDbLine
 10
252.259116081164
 20
206.853527061467
 30
0.0
 11
252.259116081164
 21
206.483235245061
 31
0.0
  0
LINE
  5
112D
330
1F
100
AcDbEntity
  8
shade
370
    -1
100
AcDbLine
 10
252.259116081164
 20
206.112893199162
 30
0.0
 11
252.259116081164
 21
203.890891153264
 31
0.0
  0
LINE
  5
112E
330
1F
100
AcDbEntity
  8
shade
370
    -1
100
AcDbLine
 10
252.259116081164
 20
203.520549107366
 30
0.0
 11
252.259116081164
 21
203.150207061467
 31
0.0
  0
POLYLINE
  5
112F
330
1F
100
AcDbEntity
  8
shade
370
    -1
100
AcDb2dPolyline
 66
     1
 10
0.0
 20
0.0
 30
0.0
  0
VERTEX
  5
1130
330
112F
100
AcDbEntity
  8
shade
370
    -1
100
AcDbVertex
100
AcDb2dVertex
 10
250.518672612961
 20
207.115403086688
 30
0.0
  0
VERTEX
  5
1131
330
112F
100
AcDbEntity
  8
shade
370
    -1
100
AcDbVertex
100
AcDb2dVertex
 10
250.000094899522
 20
204.273589654241
 30
0.0
  0
VERTEX
  5
1132
330
112F
100
AcDbEntity
  8
shade
370
    -1
100
AcDbVertex
100
AcDb2dVertex
 10
250.389887778249
 20
207.115403086688
 30
0.0
  0
SEQEND
  5
1133
330
112F
100
AcDbEntity
  8
shade
370
    -1
  0
POLYLINE
  5
1134
330
1F
100
AcDbEntity
  8
shade
370
    -1
100
AcDb2dPolyline
 66
     1
 10
0.0
 20
0.0
 30
0.0
  0
VERTEX
  5
1135
330
1134
100
AcDbEntity
  8
shade
370
    -1
100
AcDbVertex
100
AcDb2dVertex
 10
250.521090796479
 20
208.048523086688
 30
0.0
  0
VERTEX
  5
1136
330
1134
100
AcDbEntity
  8
shade
370
    -1
100
AcDbVertex
100
AcDb2dVertex
 10
250.539925331701
 20
208.176243472469
 30
0.0
  0
SEQEND
  5
1137
330
1134
100
AcDbEntity
  8
shade
370
    -1
  0
LINE
  5
1138
330
1F
100
AcDbEntity
  8
shade
370
    -1
100
AcDbLine
 10
251.84804040991
 20
208.048523086688
 30
0.0
 11
251.855229801964
 21
208.176243472469
 31
0.0
  0
LINE
  5
1139
330
1F
100
AcDbEntity
  8
shade
370
    -1
100
AcDbLine
 10
252.122956159736
 20
207.115403086688
 30
0.0
 11
252.049257262806
 21
204.273589654241
 31
0.0
  0
LINE
  5
113A
330
1F
100
AcDbEntity
  8
shade
370
    -1
100
AcDbLine
 10
251.148996743439
 20
207.115403086688
 30
0.0
 11
250.697581628032
 21
204.273589654241
 31
0.0
  0
LINE
  5
113B
330
1F
100
AcDbEntity
  8
shade
370
    -1
100
AcDbLine
 10
250.694483283609
 20
207.115403086688
 30
0.0
 11
250.068005172958
 21
204.273589654241
 31
0.0
  0
LINE
  5
113C
330
1F
100
AcDbEntity
  8
shade
370
    -1
100
AcDbLine
 10
251.573844922888
 20
208.048523086688
 30
0.0
 11
251.586172779636
 21
208.176243472469
 31
0.0
  0
LINE
  5
113D
330
1F
100
AcDbEntity
  8
shade
370
    -1
100
AcDbLine
 10
251.074692926661
 20
208.048523086688
 30
0.0
 11
251.097464907994
 21
208.176243472469
 31
0.0
  0
LINE
  5
113E
330
1F
100
AcDbEntity
  8
shade
370
    -1
100
AcDbLine
 10
250.40028300009
 20
208.176243472469
 30
0.0
 11
250.387186225176
 21
208.048523086688
 31
0.0
  0
LWPOLYLINE
  5
113F
330
1F
100
AcDbEntity
  8
shade
100
AcDbPolyline
 90
        4
 70
   128
 43
0.0
 10
252.265344538187
 20
208.048523086688
 10
250.226664538197
 20
208.048523086688
 10
250.226664538197
 20
207.115403086688
 10
252.265344538187
 20
207.115403086688
  0
LINE
  5
1140
330
1F
100
AcDbEntity
  8
shade
370
    -1
100
AcDbLine
 10
252.259116081164
 20
208.048523086688
 30
0.0
 11
252.259116081164
 21
210.686489380803
 31
0.0
  0
LINE
  5
1141
330
1F
100
AcDbEntity
  8
shade
370
    -1
100
AcDbLine
 10
250.346611037414
 20
207.115403086688
 30
0.0
 11
250.000094899522
 21
204.273589654241
 31
0.0
  0
LINE
  5
1142
330
1F
100
AcDbEntity
  8
shade
370
    -1
100
AcDbLine
 10
250.342580400262
 20
208.176243472469
 30
0.0
 11
250.331372032233
 21
208.048523086688
 31
0.0
  0
LINE
  5
1143
330
1F
100
AcDbEntity
  8
shade
370
    -1
100
AcDbLine
 10
250.304593469147
 20
207.115403086688
 30
0.0
 11
250.000094899522
 21
204.273589654241
 31
0.0
  0
LINE
  5
1144
330
1F
100
AcDbEntity
  8
shade
370
    -1
100
AcDbLine
 10
252.259116081164
 20
192.741974424748
 30
0.0
 11
252.259116081164
 21
192.371682608342
 31
0.0
  0
LINE
  5
1145
330
1F
100
AcDbEntity
  8
shade
370
    -1
100
AcDbLine
 10
252.259116081164
 20
192.001290332952
 30
0.0
 11
252.259116081164
 21
189.779338516545
 31
0.0
  0
LINE
  5
1146
330
1F
100
AcDbEntity
  8
shade
100
AcDbLine
 10
251.98911608116
 20
210.686489380803
 30
0.0
 11
251.98911608116
 21
215.636489380803
 31
0.0
  0
LINE
  5
1147
330
1F
100
AcDbEntity
  8
shade
100
AcDbLine
 10
251.98911608116
 20
215.636489380803
 30
0.0
 11
252.529116081161
 21
215.636489380803
 31
0.0
  0
LWPOLYLINE
  5
1148
330
1F
100
AcDbEntity
  8
shade
100
AcDbPolyline
 90
        2
 70
     0
 43
0.0
 10
252.124116318075
 20
230.798535152712
 10
252.124116214254
 20
220.841377626245
  0
LWPOLYLINE
  5
1149
330
1F
100
AcDbEntity
  8
shade
100
AcDbPolyline
 90
        4
 70
     0
 43
0.0
 10
252.259116081164
 20
234.848535152712
 10
250.234116081163
 20
234.848535152712
 42
0.217047275996
 10
252.079116081171
 20
230.798535152712
 10
252.259116081164
 20
230.798535152712
  0
LWPOLYLINE
  5
114A
330
1F
100
AcDbEntity
  8
shade
100
AcDbPolyline
 90
        2
 70
     0
 43
0.0
 10
252.124116590421
 20
215.636489380803
 10
252.124116214254
 20
220.135072908855
  0
LWPOLYLINE
  5
114B
330
1F
100
AcDbEntity
  8
shade
100
AcDbPolyline
 90
        2
 70
     0
 43
0.0
 10
252.394116202762
 20
220.135072908855
 10
252.39411654642
 20
215.636489380803
  0
LINE
  5
114C
330
1F
100
AcDbEntity
  8
shade
370
    -1
100
AcDbLine
 10
252.259116081164
 20
203.242830245061
 30
0.0
 11
252.259116081164
 21
207.115403086688
 31
0.0
  0
LINE
  5
114D
330
1F
100
AcDbEntity
  8
shade
370
    -1
100
AcDbLine
 10
252.259116081164
 20
208.176262372831
 30
0.0
 11
252.252887624127
 21
208.176262372831
 31
0.0
  0
POLYLINE
  5
114E
330
1F
100
AcDbEntity
  8
shade
370
    -1
100
AcDb2dPolyline
 66
     1
 10
0.0
 20
0.0
 30
0.0
  0
VERTEX
  5
114F
330
114E
100
AcDbEntity
  8
shade
370
    -1
100
AcDbVertex
100
AcDb2dVertex
 10
252.259116081164
 20
203.242830245061
 30
0.0
  0
VERTEX
  5
1150
330
114E
100
AcDbEntity
  8
shade
370
    -1
100
AcDbVertex
100
AcDb2dVertex
 10
253.339251081168
 20
198.453197017522
 30
0.0
  0
VERTEX
  5
1151
330
114E
100
AcDbEntity
  8
shade
370
    -1
100
AcDbVertex
100
AcDb2dVertex
 10
252.259116081164
 20
190.953933833928
 30
0.0
  0
VERTEX
  5
1152
330
114E
100
AcDbEntity
  8
shade
370
    -1
100
AcDbVertex
100
AcDb2dVertex
 10
253.407161354611
 20
183.967011470647
 30
0.0
  0
VERTEX
  5
1153
330
114E
100
AcDbEntity
  8
shade
370
    -1
100
AcDbVertex
100
AcDb2dVertex
 10
252.259116081164
 20
179.634115015569
 30
0.0
  0
SEQEND
  5
1154
330
114E
100
AcDbEntity
  8
shade
370
    -1
  0
POLYLINE
  5
1155
330
1F
100
AcDbEntity
  8
shade
370
    -1
100
AcDb2dPolyline
 66
     1
 10
0.0
 20
0.0
 30
0.0
 70
     1
  0
VERTEX
  5
1156
330
1155
100
AcDbEntity
  8
shade
370
    -1
100
AcDbVertex
100
AcDb2dVertex
 10
253.407161354611
 20
183.967011470647
 30
0.0
  0
VERTEX
  5
1157
330
1155
100
AcDbEntity
  8
shade
370
    -1
100
AcDbVertex
100
AcDb2dVertex
 10
253.493556081157
 20
179.67731237885
 30
0.0
  0
VERTEX
  5
1158
330
1155
100
AcDbEntity
  8
shade
370
    -1
100
AcDbVertex
100
AcDb2dVertex
 10
255.326631169053
 20
183.880616744085
 30
0.0
  0
VERTEX
  5
1159
330
1155
100
AcDbEntity
  8
shade
370
    -1
100
AcDbVertex
100
AcDb2dVertex
 10
254.666213805773
 20
190.886023560491
 30
0.0
  0
SEQEND
  5
115A
330
1155
100
AcDbEntity
  8
shade
370
    -1
  0
POLYLINE
  5
115B
330
1F
100
AcDbEntity
  8
shade
370
    -1
100
AcDb2dPolyline
 66
     1
 10
0.0
 20
0.0
 30
0.0
 70
     1
  0
VERTEX
  5
115C
330
115B
100
AcDbEntity
  8
shade
370
    -1
100
AcDbVertex
100
AcDb2dVertex
 10
253.339251081168
 20
198.453197017522
 30
0.0
  0
VERTEX
  5
115D
330
115B
100
AcDbEntity
  8
shade
370
    -1
100
AcDbVertex
100
AcDb2dVertex
 10
254.666213805773
 20
190.886023560491
 30
0.0
  0
VERTEX
  5
115E
330
115B
100
AcDbEntity
  8
shade
370
    -1
100
AcDbVertex
100
AcDb2dVertex
 10
255.264949352648
 20
198.268051109318
 30
0.0
  0
VERTEX
  5
115F
330
115B
100
AcDbEntity
  8
shade
370
    -1
100
AcDbVertex
100
AcDb2dVertex
 10
253.277468805769
 20
203.279849380803
 30
0.0
  0
SEQEND
  5
1160
330
115B
100
AcDbEntity
  8
shade
370
    -1
  0
POLYLINE
  5
1161
330
1F
100
AcDbEntity
  8
shade
370
    -1
100
AcDb2dPolyline
 66
     1
 10
0.0
 20
0.0
 30
0.0
 70
     1
  0
VERTEX
  5
1162
330
1161
100
AcDbEntity
  8
shade
370
    -1
100
AcDbVertex
100
AcDb2dVertex
 10
255.264949352648
 20
198.268051109318
 30
0.0
  0
VERTEX
  5
1163
330
1161
100
AcDbEntity
  8
shade
370
    -1
100
AcDbVertex
100
AcDb2dVertex
 10
254.289793991316
 20
203.255136470647
 30
0.0
  0
VERTEX
  5
1164
330
1161
100
AcDbEntity
  8
shade
370
    -1
100
AcDbVertex
100
AcDb2dVertex
 10
256.94994789757
 20
198.34821737885
 30
0.0
  0
VERTEX
  5
1165
330
1161
100
AcDbEntity
  8
shade
370
    -1
100
AcDbVertex
100
AcDb2dVertex
 10
256.807999352641
 20
190.966290289006
 30
0.0
  0
SEQEND
  5
1166
330
1161
100
AcDbEntity
  8
shade
370
    -1
  0
POLYLINE
  5
1167
330
1F
100
AcDbEntity
  8
shade
370
    -1
100
AcDb2dPolyline
 66
     1
 10
0.0
 20
0.0
 30
0.0
  0
VERTEX
  5
1168
330
1167
100
AcDbEntity
  8
shade
370
    -1
100
AcDbVertex
100
AcDb2dVertex
 10
255.326631169053
 20
183.880616744085
 30
0.0
  0
VERTEX
  5
1169
330
1167
100
AcDbEntity
  8
shade
370
    -1
100
AcDbVertex
100
AcDb2dVertex
 10
256.807999352641
 20
190.966290289006
 30
0.0
  0
VERTEX
  5
116A
330
1167
100
AcDbEntity
  8
shade
370
    -1
100
AcDbVertex
100
AcDb2dVertex
 10
257.085768444449
 20
184.090475562444
 30
0.0
  0
VERTEX
  5
116B
330
1167
100
AcDbEntity
  8
shade
370
    -1
100
AcDbVertex
100
AcDb2dVertex
 10
258.604105534287
 20
190.966290289006
 30
0.0
  0
VERTEX
  5
116C
330
1167
100
AcDbEntity
  8
shade
370
    -1
100
AcDbVertex
100
AcDb2dVertex
 10
256.94994789757
 20
198.34821737885
 30
0.0
  0
SEQEND
  5
116D
330
1167
100
AcDbEntity
  8
shade
370
    -1
  0
POLYLINE
  5
116E
330
1F
100
AcDbEntity
  8
shade
370
    -1
100
AcDb2dPolyline
 66
     1
 10
0.0
 20
0.0
 30
0.0
  0
VERTEX
  5
116F
330
116E
100
AcDbEntity
  8
shade
370
    -1
100
AcDbVertex
100
AcDb2dVertex
 10
255.326631169053
 20
183.880616744085
 30
0.0
  0
VERTEX
  5
1170
330
116E
100
AcDbEntity
  8
shade
370
    -1
100
AcDbVertex
100
AcDb2dVertex
 10
254.598403991316
 20
179.671184380803
 30
0.0
  0
VERTEX
  5
1171
330
116E
100
AcDbEntity
  8
shade
370
    -1
100
AcDbVertex
100
AcDb2dVertex
 10
257.085768444449
 20
184.090475562444
 30
0.0
  0
VERTEX
  5
1172
330
116E
100
AcDbEntity
  8
shade
370
    -1
100
AcDbVertex
100
AcDb2dVertex
 10
255.573559352655
 20
179.837845835881
 30
0.0
  0
VERTEX
  5
1173
330
116E
100
AcDbEntity
  8
shade
370
    -1
100
AcDbVertex
100
AcDb2dVertex
 10
258.499176125108
 20
184.127544927678
 30
0.0
  0
VERTEX
  5
1174
330
116E
100
AcDbEntity
  8
shade
370
    -1
100
AcDbVertex
100
AcDb2dVertex
 10
256.579656081165
 20
180.164940289006
 30
0.0
  0
VERTEX
  5
1175
330
116E
100
AcDbEntity
  8
shade
370
    -1
100
AcDbVertex
100
AcDb2dVertex
 10
259.943474943466
 20
184.312690835881
 30
0.0
  0
VERTEX
  5
1176
330
116E
100
AcDbEntity
  8
shade
370
    -1
100
AcDbVertex
100
AcDb2dVertex
 10
257.443754035266
 20
180.269919927678
 30
0.0
  0
VERTEX
  5
1177
330
116E
100
AcDbEntity
  8
shade
370
    -1
100
AcDbVertex
100
AcDb2dVertex
 10
261.048322853625
 20
184.5781034726
 30
0.0
  0
VERTEX
  5
1178
330
116E
100
AcDbEntity
  8
shade
370
    -1
100
AcDbVertex
100
AcDb2dVertex
 10
257.968401081169
 20
180.4118684726
 30
0.0
  0
SEQEND
  5
1179
330
116E
100
AcDbEntity
  8
shade
370
    -1
  0
POLYLINE
  5
117A
330
1F
100
AcDbEntity
  8
shade
370
    -1
100
AcDb2dPolyline
 66
     1
 10
0.0
 20
0.0
 30
0.0
  0
VERTEX
  5
117B
330
117A
100
AcDbEntity
  8
shade
370
    -1
100
AcDbVertex
100
AcDb2dVertex
 10
258.604105534287
 20
190.966290289006
 30
0.0
  0
VERTEX
  5
117C
330
117A
100
AcDbEntity
  8
shade
370
    -1
100
AcDbVertex
100
AcDb2dVertex
 10
258.499176125108
 20
184.127544927678
 30
0.0
  0
VERTEX
  5
117D
330
117A
100
AcDbEntity
  8
shade
370
    -1
100
AcDbVertex
100
AcDb2dVertex
 10
260.338479670027
 20
191.0589134726
 30
0.0
  0
VERTEX
  5
117E
330
117A
100
AcDbEntity
  8
shade
370
    -1
100
AcDbVertex
100
AcDb2dVertex
 10
259.943474943466
 20
184.312690835881
 30
0.0
  0
VERTEX
  5
117F
330
117A
100
AcDbEntity
  8
shade
370
    -1
100
AcDbVertex
100
AcDb2dVertex
 10
261.751937580186
 20
191.225574927678
 30
0.0
  0
VERTEX
  5
1180
330
117A
100
AcDbEntity
  8
shade
370
    -1
100
AcDbVertex
100
AcDb2dVertex
 10
261.048322853625
 20
184.5781034726
 30
0.0
  0
VERTEX
  5
1181
330
117A
100
AcDbEntity
  8
shade
370
    -1
100
AcDbVertex
100
AcDb2dVertex
 10
262.776518761828
 20
191.429205289006
 30
0.0
  0
VERTEX
  5
1182
330
117A
100
AcDbEntity
  8
shade
370
    -1
100
AcDbVertex
100
AcDb2dVertex
 10
261.881529670027
 20
184.86812856049
 30
0.0
  0
VERTEX
  5
1183
330
117A
100
AcDbEntity
  8
shade
370
    -1
100
AcDbVertex
100
AcDb2dVertex
 10
263.554221989369
 20
191.50324356049
 30
0.0
  0
SEQEND
  5
1184
330
117A
100
AcDbEntity
  8
shade
370
    -1
  0
POLYLINE
  5
1185
330
1F
100
AcDbEntity
  8
shade
370
    -1
100
AcDb2dPolyline
 66
     1
 10
0.0
 20
0.0
 30
0.0
  0
VERTEX
  5
1186
330
1185
100
AcDbEntity
  8
shade
370
    -1
100
AcDbVertex
100
AcDb2dVertex
 10
257.968401081169
 20
180.4118684726
 30
0.0
  0
VERTEX
  5
1187
330
1185
100
AcDbEntity
  8
shade
370
    -1
100
AcDbVertex
100
AcDb2dVertex
 10
261.881529670027
 20
184.86812856049
 30
0.0
  0
VERTEX
  5
1188
330
1185
100
AcDbEntity
  8
shade
370
    -1
100
AcDbVertex
100
AcDb2dVertex
 10
258.579442853632
 20
180.664924654241
 30
0.0
  0
SEQEND
  5
1189
330
1185
100
AcDbEntity
  8
shade
370
    -1
  0
POLYLINE
  5
118A
330
1F
100
AcDbEntity
  8
shade
370
    -1
100
AcDb2dPolyline
 66
     1
 10
0.0
 20
0.0
 30
0.0
  0
VERTEX
  5
118B
330
118A
100
AcDbEntity
  8
shade
370
    -1
100
AcDbVertex
100
AcDb2dVertex
 10
262.961664670031
 20
185.473092564397
 30
0.0
  0
VERTEX
  5
118C
330
118A
100
AcDbEntity
  8
shade
370
    -1
100
AcDbVertex
100
AcDb2dVertex
 10
258.900359079213
 20
180.751319380803
 30
0.0
  0
VERTEX
  5
118D
330
118A
100
AcDbEntity
  8
shade
370
    -1
100
AcDbVertex
100
AcDb2dVertex
 10
262.282762853618
 20
184.929910835881
 30
0.0
  0
VERTEX
  5
118E
330
118A
100
AcDbEntity
  8
shade
370
    -1
100
AcDbVertex
100
AcDb2dVertex
 10
263.554221989369
 20
191.50324356049
 30
0.0
  0
SEQEND
  5
118F
330
118A
100
AcDbEntity
  8
shade
370
    -1
  0
LINE
  5
1190
330
1F
100
AcDbEntity
  8
shade
370
    -1
100
AcDbLine
 10
262.282762853618
 20
184.929910835881
 30
0.0
 11
264.128244626081
 21
191.793369107365
 31
0.0
  0
LINE
  5
1191
330
1F
100
AcDbEntity
  8
shade
370
    -1
100
AcDbLine
 10
262.961664670031
 20
185.473092564397
 30
0.0
 11
264.189976671994
 21
191.879763833928
 31
0.0
  0
POLYLINE
  5
1192
330
1F
100
AcDbEntity
  8
shade
370
    -1
100
AcDb2dPolyline
 66
     1
 10
0.0
 20
0.0
 30
0.0
  0
VERTEX
  5
1193
330
1192
100
AcDbEntity
  8
shade
370
    -1
100
AcDbVertex
100
AcDb2dVertex
 10
260.338479670027
 20
191.0589134726
 30
0.0
  0
VERTEX
  5
1194
330
1192
100
AcDbEntity
  8
shade
370
    -1
100
AcDbVertex
100
AcDb2dVertex
 10
258.468335216909
 20
198.181656382756
 30
0.0
  0
VERTEX
  5
1195
330
1192
100
AcDbEntity
  8
shade
370
    -1
100
AcDbVertex
100
AcDb2dVertex
 10
258.604105534287
 20
190.966290289006
 30
0.0
  0
SEQEND
  5
1196
330
1192
100
AcDbEntity
  8
shade
370
    -1
  0
POLYLINE
  5
1197
330
1F
100
AcDbEntity
  8
shade
370
    -1
100
AcDb2dPolyline
 66
     1
 10
0.0
 20
0.0
 30
0.0
  0
VERTEX
  5
1198
330
1197
100
AcDbEntity
  8
shade
370
    -1
100
AcDbVertex
100
AcDb2dVertex
 10
260.338479670027
 20
191.0589134726
 30
0.0
  0
VERTEX
  5
1199
330
1197
100
AcDbEntity
  8
shade
370
    -1
100
AcDbVertex
100
AcDb2dVertex
 10
259.782991715925
 20
198.076676744084
 30
0.0
  0
VERTEX
  5
119A
330
1197
100
AcDbEntity
  8
shade
370
    -1
100
AcDbVertex
100
AcDb2dVertex
 10
261.751937580186
 20
191.225574927678
 30
0.0
  0
VERTEX
  5
119B
330
1197
100
AcDbEntity
  8
shade
370
    -1
100
AcDbVertex
100
AcDb2dVertex
 10
260.887839626092
 20
198.107517652287
 30
0.0
  0
VERTEX
  5
119C
330
1197
100
AcDbEntity
  8
shade
370
    -1
100
AcDbVertex
100
AcDb2dVertex
 10
262.776518761828
 20
191.429205289006
 30
0.0
  0
VERTEX
  5
119D
330
1197
100
AcDbEntity
  8
shade
370
    -1
100
AcDbVertex
100
AcDb2dVertex
 10
261.751937580186
 20
198.027351382756
 30
0.0
  0
VERTEX
  5
119E
330
1197
100
AcDbEntity
  8
shade
370
    -1
100
AcDbVertex
100
AcDb2dVertex
 10
263.554221989369
 20
191.50324356049
 30
0.0
  0
VERTEX
  5
119F
330
1197
100
AcDbEntity
  8
shade
370
    -1
100
AcDbVertex
100
AcDb2dVertex
 10
262.332138444443
 20
198.0026384726
 30
0.0
  0
VERTEX
  5
11A0
330
1197
100
AcDbEntity
  8
shade
370
    -1
100
AcDbVertex
100
AcDb2dVertex
 10
264.128244626081
 20
191.793369107365
 30
0.0
  0
VERTEX
  5
11A1
330
1197
100
AcDbEntity
  8
shade
370
    -1
100
AcDbVertex
100
AcDb2dVertex
 10
262.788875216909
 20
197.959441109319
 30
0.0
  0
VERTEX
  5
11A2
330
1197
100
AcDbEntity
  8
shade
370
    -1
100
AcDbVertex
100
AcDb2dVertex
 10
264.189976671994
 20
191.879763833928
 30
0.0
  0
SEQEND
  5
11A3
330
1197
100
AcDbEntity
  8
shade
370
    -1
  0
POLYLINE
  5
11A4
330
1F
100
AcDbEntity
  8
shade
370
    -1
100
AcDb2dPolyline
 66
     1
 10
0.0
 20
0.0
 30
0.0
  0
VERTEX
  5
11A5
330
11A4
100
AcDbEntity
  8
shade
370
    -1
100
AcDbVertex
100
AcDb2dVertex
 10
256.94994789757
 20
198.34821737885
 30
0.0
  0
VERTEX
  5
11A6
330
11A4
100
AcDbEntity
  8
shade
370
    -1
100
AcDbVertex
100
AcDb2dVertex
 10
255.271077350691
 20
203.205760879826
 30
0.0
  0
VERTEX
  5
11A7
330
11A4
100
AcDbEntity
  8
shade
370
    -1
100
AcDbVertex
100
AcDb2dVertex
 10
258.468335216909
 20
198.181656382756
 30
0.0
  0
VERTEX
  5
11A8
330
11A4
100
AcDbEntity
  8
shade
370
    -1
100
AcDbVertex
100
AcDb2dVertex
 10
256.190779352648
 20
203.045277652287
 30
0.0
  0
VERTEX
  5
11A9
330
11A4
100
AcDbEntity
  8
shade
370
    -1
100
AcDbVertex
100
AcDb2dVertex
 10
259.782991715925
 20
198.076676744084
 30
0.0
  0
VERTEX
  5
11AA
330
11A4
100
AcDbEntity
  8
shade
370
    -1
100
AcDbVertex
100
AcDb2dVertex
 10
256.888266081165
 20
203.002080289006
 30
0.0
  0
VERTEX
  5
11AB
330
11A4
100
AcDbEntity
  8
shade
370
    -1
100
AcDbVertex
100
AcDb2dVertex
 10
260.887839626092
 20
198.107517652287
 30
0.0
  0
VERTEX
  5
11AC
330
11A4
100
AcDbEntity
  8
shade
370
    -1
100
AcDbVertex
100
AcDb2dVertex
 10
257.505486081165
 20
202.989774063421
 30
0.0
  0
VERTEX
  5
11AD
330
11A4
100
AcDbEntity
  8
shade
370
    -1
100
AcDbVertex
100
AcDb2dVertex
 10
261.751937580186
 20
198.027351382756
 30
0.0
  0
SEQEND
  5
11AE
330
11A4
100
AcDbEntity
  8
shade
370
    -1
  0
LINE
  5
11AF
330
1F
100
AcDbEntity
  8
shade
370
    -1
100
AcDbLine
 10
262.788875216909
 20
197.959441109319
 30
0.0
 11
258.190566125108
 21
202.9403984726
 31
0.0
  0
POLYLINE
  5
11B0
330
1F
100
AcDbEntity
  8
shade
370
    -1
100
AcDb2dPolyline
 66
     1
 10
0.0
 20
0.0
 30
0.0
  0
VERTEX
  5
11B1
330
11B0
100
AcDbEntity
  8
shade
370
    -1
100
AcDbVertex
100
AcDb2dVertex
 10
262.332138444443
 20
198.0026384726
 30
0.0
  0
VERTEX
  5
11B2
330
11B0
100
AcDbEntity
  8
shade
370
    -1
100
AcDbVertex
100
AcDb2dVertex
 10
258.030082897567
 20
202.897150879827
 30
0.0
  0
VERTEX
  5
11B3
330
11B0
100
AcDbEntity
  8
shade
370
    -1
100
AcDbVertex
100
AcDb2dVertex
 10
261.751937580186
 20
198.027351382756
 30
0.0
  0
SEQEND
  5
11B4
330
11B0
100
AcDbEntity
  8
shade
370
    -1
  0
LINE
  5
11B5
330
1F
100
AcDbEntity
  8
shade
370
    -1
100
AcDbLine
 10
258.190566125108
 20
202.9403984726
 30
0.0
 11
262.332138444443
 21
198.0026384726
 31
0.0
  0
LINE
  5
11B6
330
1F
100
AcDbEntity
  8
shade
370
    -1
100
AcDbLine
 10
253.277468805769
 20
203.279849380803
 30
0.0
 11
252.462746442485
 21
204.273589654241
 31
0.0
  0
LINE
  5
11B7
330
1F
100
AcDbEntity
  8
shade
370
    -1
100
AcDbLine
 10
254.289793991316
 20
203.255136470647
 30
0.0
 11
252.925661442496
 21
204.273589654241
 31
0.0
  0
LINE
  5
11B8
330
1F
100
AcDbEntity
  8
shade
370
    -1
100
AcDbLine
 10
255.271077350691
 20
203.205760879826
 30
0.0
 11
253.382448444449
 21
204.273589654241
 31
0.0
  0
LINE
  5
11B9
330
1F
100
AcDbEntity
  8
shade
370
    -1
100
AcDbLine
 10
256.190779352648
 20
203.045277652287
 30
0.0
 11
253.820650534282
 21
204.273589654241
 31
0.0
  0
LINE
  5
11BA
330
1F
100
AcDbEntity
  8
shade
370
    -1
100
AcDbLine
 10
256.888266081165
 20
203.002080289006
 30
0.0
 11
254.252724626087
 21
204.273589654241
 31
0.0
  0
LINE
  5
11BB
330
1F
100
AcDbEntity
  8
shade
370
    -1
100
AcDbLine
 10
257.505486081165
 20
202.989774063421
 30
0.0
 11
254.450226989371
 21
204.273589654241
 31
0.0
  0
POLYLINE
  5
11BC
330
1F
100
AcDbEntity
  8
shade
370
    -1
100
AcDb2dPolyline
 66
     1
 10
0.0
 20
0.0
 30
0.0
  0
VERTEX
  5
11BD
330
11BC
100
AcDbEntity
  8
shade
370
    -1
100
AcDbVertex
100
AcDb2dVertex
 10
258.030082897567
 20
202.897150879827
 30
0.0
  0
VERTEX
  5
11BE
330
11BC
100
AcDbEntity
  8
shade
370
    -1
100
AcDbVertex
100
AcDb2dVertex
 10
254.518137262799
 20
204.273589654241
 30
0.0
  0
VERTEX
  5
11BF
330
11BC
100
AcDbEntity
  8
shade
370
    -1
100
AcDbVertex
100
AcDb2dVertex
 10
258.190566125108
 20
202.9403984726
 30
0.0
  0
SEQEND
  5
11C0
330
11BC
100
AcDbEntity
  8
shade
370
    -1
  0
LINE
  5
11C1
330
1F
100
AcDbEntity
  8
shade
370
    -1
100
AcDbLine
 10
252.368899753114
 20
208.176243472469
 30
0.0
 11
252.371811208424
 21
208.040492055448
 31
0.0
  0
LINE
  5
11C2
330
1F
100
AcDbEntity
  8
shade
370
    -1
100
AcDbLine
 10
252.925661442496
 20
204.273589654241
 30
0.0
 11
252.732229953079
 21
207.115403086688
 31
0.0
  0
LINE
  5
11C3
330
1F
100
AcDbEntity
  8
shade
370
    -1
100
AcDbLine
 10
253.382448444449
 20
204.273589654241
 30
0.0
 11
253.050765921536
 21
207.115403086688
 31
0.0
  0
LINE
  5
11C4
330
1F
100
AcDbEntity
  8
shade
370
    -1
100
AcDbLine
 10
253.207677536811
 20
208.176243472469
 30
0.0
 11
253.224455571522
 21
208.048523086688
 31
0.0
  0
LINE
  5
11C5
330
1F
100
AcDbEntity
  8
shade
370
    -1
100
AcDbLine
 10
254.252724626087
 20
204.273589654241
 30
0.0
 11
253.640041629405
 21
207.115403086688
 31
0.0
  0
LINE
  5
11C6
330
1F
100
AcDbEntity
  8
shade
370
    -1
100
AcDbLine
 10
253.599537341986
 20
208.176243472469
 30
0.0
 11
253.622822055157
 21
208.048523086688
 31
0.0
  0
POLYLINE
  5
11C7
330
1F
100
AcDbEntity
  8
shade
370
    -1
100
AcDb2dPolyline
 66
     1
 10
0.0
 20
0.0
 30
0.0
  0
VERTEX
  5
11C8
330
11C7
100
AcDbEntity
  8
shade
370
    -1
100
AcDbVertex
100
AcDb2dVertex
 10
253.792564539355
 20
208.176243472469
 30
0.0
  0
VERTEX
  5
11C9
330
11C7
100
AcDbEntity
  8
shade
370
    -1
100
AcDbVertex
100
AcDb2dVertex
 10
253.814651020512
 20
208.048523086688
 30
0.0
  0
SEQEND
  5
11CA
330
11C7
100
AcDbEntity
  8
shade
370
    -1
  0
SPLINE
  5
11CB
330
1F
100
AcDbEntity
  8
shade
370
    -1
100
AcDbSpline
210
0.0
220
0.0
230
1.0
 70
     8
 71
     3
 72
    26
 73
    22
 74
     0
 42
0.00000001
 43
0.0000000001
 40
0.0
 40
0.0
 40
0.0
 40
0.0
 40
1.0
 40
1.0
 40
1.0
 40
2.0
 40
2.0
 40
2.0
 40
3.0
 40
3.0
 40
3.0
 40
4.0
 40
4.0
 40
4.0
 40
5.0
 40
5.0
 40
5.0
 40
6.0
 40
6.0
 40
6.0
 40
7.0
 40
7.0
 40
7.0
 40
7.0
 10
252.2591160811644
 20
210.6864893808032
 30
0.0
 10
252.7925532881927
 20
210.6859870858812
 30
0.0
 10
253.346082292097
 20
210.5833180038501
 30
0.0
 10
253.8391349874146
 20
210.3778793808033
 30
0.0
 10
253.8391349874146
 20
210.3778793808033
 30
0.0
 10
254.1354889913273
 20
210.2482872909594
 30
0.0
 10
254.1354889913273
 20
210.2482872909594
 30
0.0
 10
254.1354889913273
 20
210.2482872909594
 30
0.0
 10
254.4193860811574
 20
210.0939822909596
 30
0.0
 10
254.4193860811574
 20
210.0939822909596
 30
0.0
 10
254.4193860811574
 20
210.0939822909596
 30
0.0
 10
254.4687114424887
 20
210.0507346981859
 30
0.0
 10
254.4687114424887
 20
210.0507346981859
 30
0.0
 10
254.4687114424887
 20
210.0507346981859
 30
0.0
 10
254.499552350695
 20
209.9890026522874
 30
0.0
 10
254.499552350695
 20
209.9890026522874
 30
0.0
 10
254.499552350695
 20
209.9890026522874
 30
0.0
 10
254.5057808077327
 20
209.9211426083422
 30
0.0
 10
254.5057808077327
 20
209.9211426083422
 30
0.0
 10
254.5057808077327
 20
209.9211426083422
 30
0.0
 10
254.48106789757
 20
209.8532323349049
 30
0.0
 10
254.48106789757
 20
209.8532323349049
 30
0.0
  0
LINE
  5
11CC
330
1F
100
AcDbEntity
  8
shade
370
    -1
100
AcDbLine
 10
252.369009318572
 20
208.176243472469
 30
0.0
 11
252.40719262413
 21
210.686489380803
 31
0.0
  0
LINE
  5
11CD
330
1F
100
AcDbEntity
  8
shade
370
    -1
100
AcDbLine
 10
252.66359717818
 20
208.176243472469
 30
0.0
 11
252.752871989374
 21
210.661776470647
 31
0.0
  0
LINE
  5
11CE
330
1F
100
AcDbEntity
  8
shade
370
    -1
100
AcDbLine
 10
252.933986906712
 20
208.176243472469
 30
0.0
 11
253.055353991323
 21
210.612400879827
 31
0.0
  0
LINE
  5
11CF
330
1F
100
AcDbEntity
  8
shade
370
    -1
100
AcDbLine
 10
253.211599596769
 20
208.176243472469
 30
0.0
 11
253.333022624131
 21
210.550668833928
 31
0.0
  0
LINE
  5
11D0
330
1F
100
AcDbEntity
  8
shade
370
    -1
100
AcDbLine
 10
253.421053841972
 20
208.176243472469
 30
0.0
 11
253.549109899519
 21
210.488987017522
 31
0.0
  0
LINE
  5
11D1
330
1F
100
AcDbEntity
  8
shade
370
    -1
100
AcDbLine
 10
253.597079415718
 20
208.176243472469
 30
0.0
 11
253.795937624134
 21
210.396363833928
 31
0.0
  0
LINE
  5
11D2
330
1F
100
AcDbEntity
  8
shade
370
    -1
100
AcDbLine
 10
253.78981359613
 20
208.176243472469
 30
0.0
 11
254.036637350699
 21
210.297612652288
 31
0.0
  0
LINE
  5
11D3
330
1F
100
AcDbEntity
  8
shade
370
    -1
100
AcDbLine
 10
254.117949162239
 20
208.176243472469
 30
0.0
 11
254.462583444438
 21
210.056912925725
 31
0.0
  0
LINE
  5
11D4
330
1F
100
AcDbEntity
  8
shade
370
    -1
100
AcDbLine
 10
253.978306830613
 20
208.176243472469
 30
0.0
 11
254.271209079205
 21
210.180377017522
 31
0.0
  0
POLYLINE
  5
11D5
330
1F
100
AcDbEntity
  8
shade
370
    -1
100
AcDb2dPolyline
 66
     1
 10
0.0
 20
0.0
 30
0.0
  0
VERTEX
  5
11D6
330
11D5
100
AcDbEntity
  8
shade
370
    -1
100
AcDbVertex
100
AcDb2dVertex
 10
258.900359079213
 20
180.751319380803
 30
0.0
  0
VERTEX
  5
11D7
330
11D5
100
AcDbEntity
  8
shade
370
    -1
100
AcDbVertex
100
AcDb2dVertex
 10
258.579442853632
 20
180.664924654241
 30
0.0
  0
VERTEX
  5
11D8
330
11D5
100
AcDbEntity
  8
shade
370
    -1
100
AcDbVertex
100
AcDb2dVertex
 10
258.381890260855
 20
180.473550289007
 30
0.0
  0
VERTEX
  5
11D9
330
11D5
100
AcDbEntity
  8
shade
370
    -1
100
AcDbVertex
100
AcDb2dVertex
 10
258.048617580178
 20
180.504391197209
 30
0.0
  0
SEQEND
  5
11DA
330
11D5
100
AcDbEntity
  8
shade
370
    -1
  0
POLYLINE
  5
11DB
330
1F
100
AcDbEntity
  8
shade
370
    -1
100
AcDb2dPolyline
 66
     1
 10
0.0
 20
0.0
 30
0.0
  0
VERTEX
  5
11DC
330
11DB
100
AcDbEntity
  8
shade
370
    -1
100
AcDbVertex
100
AcDb2dVertex
 10
257.968401081169
 20
180.4118684726
 30
0.0
  0
VERTEX
  5
11DD
330
11DB
100
AcDbEntity
  8
shade
370
    -1
100
AcDbVertex
100
AcDb2dVertex
 10
257.937509943462
 20
180.374799107365
 30
0.0
  0
VERTEX
  5
11DE
330
11DB
100
AcDbEntity
  8
shade
370
    -1
100
AcDbVertex
100
AcDb2dVertex
 10
257.702988444442
 20
180.306888833928
 30
0.0
  0
VERTEX
  5
11DF
330
11DB
100
AcDbEntity
  8
shade
370
    -1
100
AcDbVertex
100
AcDb2dVertex
 10
257.635078171006
 20
180.245207017522
 30
0.0
  0
VERTEX
  5
11E0
330
11DB
100
AcDbEntity
  8
shade
370
    -1
100
AcDbVertex
100
AcDb2dVertex
 10
257.443754035266
 20
180.269919927678
 30
0.0
  0
VERTEX
  5
11E1
330
11DB
100
AcDbEntity
  8
shade
370
    -1
100
AcDbVertex
100
AcDb2dVertex
 10
257.388200216905
 20
180.208137652288
 30
0.0
  0
VERTEX
  5
11E2
330
11DB
100
AcDbEntity
  8
shade
370
    -1
100
AcDbVertex
100
AcDb2dVertex
 10
256.579656081165
 20
180.164940289006
 30
0.0
  0
VERTEX
  5
11E3
330
11DB
100
AcDbEntity
  8
shade
370
    -1
100
AcDbVertex
100
AcDb2dVertex
 10
256.314243444453
 20
179.924240562444
 30
0.0
  0
VERTEX
  5
11E4
330
11DB
100
AcDbEntity
  8
shade
370
    -1
100
AcDbVertex
100
AcDb2dVertex
 10
255.629113171002
 20
179.924240562444
 30
0.0
  0
SEQEND
  5
11E5
330
11DB
100
AcDbEntity
  8
shade
370
    -1
  0
LINE
  5
11E6
330
1F
100
AcDbEntity
  8
shade
370
    -1
100
AcDbLine
 10
255.573559352655
 20
179.837845835881
 30
0.0
 11
254.598403991316
 21
179.671184380803
 31
0.0
  0
LINE
  5
11E7
330
1F
100
AcDbEntity
  8
shade
370
    -1
100
AcDbLine
 10
253.493556081157
 20
179.67731237885
 30
0.0
 11
252.666477262799
 21
179.195912925725
 31
0.0
  0
LINE
  5
11E8
330
1F
100
AcDbEntity
  8
shade
370
    -1
100
AcDbLine
 10
252.814553805772
 20
179.195912925725
 30
0.0
 11
254.598403991316
 21
179.671184380803
 31
0.0
  0
POLYLINE
  5
11E9
330
1F
100
AcDbEntity
  8
shade
370
    -1
100
AcDb2dPolyline
 66
     1
 10
0.0
 20
0.0
 30
0.0
  0
VERTEX
  5
11EA
330
11E9
100
AcDbEntity
  8
shade
370
    -1
100
AcDbVertex
100
AcDb2dVertex
 10
252.259116081164
 20
179.634115015569
 30
0.0
  0
VERTEX
  5
11EB
330
11E9
100
AcDbEntity
  8
shade
370
    -1
100
AcDbVertex
100
AcDb2dVertex
 10
252.481331354596
 20
179.195912925725
 30
0.0
  0
VERTEX
  5
11EC
330
11E9
100
AcDbEntity
  8
shade
370
    -1
100
AcDbVertex
100
AcDb2dVertex
 10
252.814553805772
 20
179.195912925725
 30
0.0
  0
VERTEX
  5
11ED
330
11E9
100
AcDbEntity
  8
shade
370
    -1
100
AcDbVertex
100
AcDb2dVertex
 10
253.493556081157
 20
179.67731237885
 30
0.0
  0
SEQEND
  5
11EE
330
11E9
100
AcDbEntity
  8
shade
370
    -1
  0
LINE
  5
11EF
330
1F
100
AcDbEntity
  8
shade
370
    -1
100
AcDbLine
 10
254.48106789757
 20
209.853232334905
 30
0.0
 11
254.175651762067
 21
208.176243472469
 31
0.0
  0
LINE
  5
11F0
330
1F
100
AcDbEntity
  8
shade
370
    -1
100
AcDbLine
 10
252.259116081164
 20
208.176243472469
 30
0.0
 11
252.259116081164
 21
208.048523086688
 31
0.0
  0
LINE
  5
11F1
330
1F
100
AcDbEntity
  8
shade
370
    -1
100
AcDbLine
 10
252.259116081164
 20
208.134894213821
 30
0.0
 11
252.252887624127
 21
208.134894213821
 31
0.0
  0
LINE
  5
11F2
330
1F
100
AcDbEntity
  8
shade
370
    -1
100
AcDbLine
 10
252.259116081164
 20
208.283020986282
 30
0.0
 11
252.252887624127
 21
208.283020986282
 31
0.0
  0
LINE
  5
11F3
330
1F
100
AcDbEntity
  8
shade
370
    -1
100
AcDbLine
 10
252.259116081164
 20
210.186555245061
 30
0.0
 11
252.259116081164
 21
209.816213199162
 31
0.0
  0
LINE
  5
11F4
330
1F
100
AcDbEntity
  8
shade
370
    -1
100
AcDbLine
 10
252.259116081164
 20
209.445871153264
 30
0.0
 11
252.259116081164
 21
208.048523086688
 31
0.0
  0
LINE
  5
11F5
330
1F
100
AcDbEntity
  8
shade
370
    -1
100
AcDbLine
 10
252.259116081164
 20
206.853527061467
 30
0.0
 11
252.259116081164
 21
206.483235245061
 31
0.0
  0
LINE
  5
11F6
330
1F
100
AcDbEntity
  8
shade
370
    -1
100
AcDbLine
 10
252.259116081164
 20
206.112893199162
 30
0.0
 11
252.259116081164
 21
203.890891153264
 31
0.0
  0
LINE
  5
11F7
330
1F
100
AcDbEntity
  8
shade
370
    -1
100
AcDbLine
 10
252.259116081164
 20
203.520549107366
 30
0.0
 11
252.259116081164
 21
203.150207061467
 31
0.0
  0
POLYLINE
  5
11F8
330
1F
100
AcDbEntity
  8
shade
370
    -1
100
AcDb2dPolyline
 66
     1
 10
0.0
 20
0.0
 30
0.0
  0
VERTEX
  5
11F9
330
11F8
100
AcDbEntity
  8
shade
370
    -1
100
AcDbVertex
100
AcDb2dVertex
 10
253.99955954936
 20
207.115403086688
 30
0.0
  0
VERTEX
  5
11FA
330
11F8
100
AcDbEntity
  8
shade
370
    -1
100
AcDbVertex
100
AcDb2dVertex
 10
254.518137262799
 20
204.273589654241
 30
0.0
  0
VERTEX
  5
11FB
330
11F8
100
AcDbEntity
  8
shade
370
    -1
100
AcDbVertex
100
AcDb2dVertex
 10
254.12834438408
 20
207.115403086688
 30
0.0
  0
SEQEND
  5
11FC
330
11F8
100
AcDbEntity
  8
shade
370
    -1
  0
POLYLINE
  5
11FD
330
1F
100
AcDbEntity
  8
shade
370
    -1
100
AcDb2dPolyline
 66
     1
 10
0.0
 20
0.0
 30
0.0
  0
VERTEX
  5
11FE
330
11FD
100
AcDbEntity
  8
shade
370
    -1
100
AcDbVertex
100
AcDb2dVertex
 10
253.997141365842
 20
208.048523086688
 30
0.0
  0
VERTEX
  5
11FF
330
11FD
100
AcDbEntity
  8
shade
370
    -1
100
AcDbVertex
100
AcDb2dVertex
 10
253.978306830613
 20
208.176243472469
 30
0.0
  0
SEQEND
  5
1200
330
11FD
100
AcDbEntity
  8
shade
370
    -1
  0
LINE
  5
1201
330
1F
100
AcDbEntity
  8
shade
370
    -1
100
AcDbLine
 10
252.670191752426
 20
208.048523086688
 30
0.0
 11
252.663002360365
 21
208.176243472469
 31
0.0
  0
LINE
  5
1202
330
1F
100
AcDbEntity
  8
shade
370
    -1
100
AcDbLine
 10
252.395276002586
 20
207.115403086688
 30
0.0
 11
252.468974899515
 21
204.273589654241
 31
0.0
  0
LINE
  5
1203
330
1F
100
AcDbEntity
  8
shade
370
    -1
100
AcDbLine
 10
253.369235418897
 20
207.115403086688
 30
0.0
 11
253.820650534282
 21
204.273589654241
 31
0.0
  0
LINE
  5
1204
330
1F
100
AcDbEntity
  8
shade
370
    -1
100
AcDbLine
 10
253.82374887872
 20
207.115403086688
 30
0.0
 11
254.450226989371
 21
204.273589654241
 31
0.0
  0
LINE
  5
1205
330
1F
100
AcDbEntity
  8
shade
370
    -1
100
AcDbLine
 10
252.944387239448
 20
208.048523086688
 30
0.0
 11
252.932059382692
 21
208.176243472469
 31
0.0
  0
LINE
  5
1206
330
1F
100
AcDbEntity
  8
shade
370
    -1
100
AcDbLine
 10
253.443539235654
 20
208.048523086688
 30
0.0
 11
253.42076725432
 21
208.176243472469
 31
0.0
  0
LINE
  5
1207
330
1F
100
AcDbEntity
  8
shade
370
    -1
100
AcDbLine
 10
254.117949162239
 20
208.176243472469
 30
0.0
 11
254.131045937153
 21
208.048523086688
 31
0.0
  0
LWPOLYLINE
  5
1208
330
1F
100
AcDbEntity
  8
shade
100
AcDbPolyline
 90
        4
 70
   128
 43
0.0
 10
252.252887624127
 20
208.048523086688
 10
254.291567624132
 20
208.048523086688
 10
254.291567624132
 20
207.115403086688
 10
252.252887624127
 20
207.115403086688
  0
LINE
  5
1209
330
1F
100
AcDbEntity
  8
shade
370
    -1
100
AcDbLine
 10
252.259116081164
 20
208.048523086688
 30
0.0
 11
252.259116081164
 21
210.686489380803
 31
0.0
  0
LINE
  5
120A
330
1F
100
AcDbEntity
  8
shade
370
    -1
100
AcDbLine
 10
254.171621124908
 20
207.115403086688
 30
0.0
 11
254.518137262799
 21
204.273589654241
 31
0.0
  0
LINE
  5
120B
330
1F
100
AcDbEntity
  8
shade
370
    -1
100
AcDbLine
 10
254.175651762067
 20
208.176243472469
 30
0.0
 11
254.186860130088
 21
208.048523086688
 31
0.0
  0
LINE
  5
120C
330
1F
100
AcDbEntity
  8
shade
370
    -1
100
AcDbLine
 10
254.213638693182
 20
207.115403086688
 30
0.0
 11
254.518137262799
 21
204.273589654241
 31
0.0
  0
LINE
  5
120D
330
1F
100
AcDbEntity
  8
shade
370
    -1
100
AcDbLine
 10
252.259116081164
 20
192.741974424748
 30
0.0
 11
252.259116081164
 21
192.371682608342
 31
0.0
  0
LINE
  5
120E
330
1F
100
AcDbEntity
  8
shade
370
    -1
100
AcDbLine
 10
252.259116081164
 20
192.001290332952
 30
0.0
 11
252.259116081164
 21
189.779338516545
 31
0.0
  0
LINE
  5
120F
330
1F
100
AcDbEntity
  8
shade
100
AcDbLine
 10
252.529116081161
 20
210.686489380803
 30
0.0
 11
252.529116081161
 21
215.636489380803
 31
0.0
  0
LINE
  5
1210
330
1F
100
AcDbEntity
  8
shade
100
AcDbLine
 10
252.529116081161
 20
215.636489380803
 30
0.0
 11
251.98911608116
 21
215.636489380803
 31
0.0
  0
LWPOLYLINE
  5
1211
330
1F
100
AcDbEntity
  8
shade
100
AcDbPolyline
 90
        2
 70
     0
 43
0.0
 10
252.394115844247
 20
230.798535152712
 10
252.394115948075
 20
220.841377626245
  0
LWPOLYLINE
  5
1212
330
1F
100
AcDbEntity
  8
shade
100
AcDbPolyline
 90
        4
 70
     0
 43
0.0
 10
252.259116081164
 20
234.848535152712
 10
254.284116081159
 20
234.848535152712
 42
-0.217047275996
 10
252.439116081165
 20
230.798535152712
 10
252.259116081164
 20
230.798535152712
  0
LWPOLYLINE
  5
1213
330
1F
100
AcDbEntity
  8
shade
100
AcDbPolyline
 90
        2
 70
     0
 43
0.0
 10
252.3941155719
 20
215.636489380803
 10
252.394115948075
 20
220.135072908855
  0
LWPOLYLINE
  5
1214
330
1F
100
AcDbEntity
  8
shade
100
AcDbPolyline
 90
        2
 70
     0
 43
0.0
 10
252.124115959567
 20
220.135072908855
 10
252.124115615894
 20
215.636489380803
  0
VIEWPORT
  5
92
330
23
100
AcDbEntity
 67
     1
  8
0
100
AcDbViewport
 10
202.5
 20
168.661532219742
 30
0.0
 40
556.786421052632
 41
394.549064439485
 68
     2
 69
     1
 12
202.5
 22
168.661532219742
 13
0.0
 23
0.0
 14
10.0
 24
10.0
 15
10.0
 25
10.0
 16
0.0
 26
0.0
 36
1.0
 17
0.0
 27
0.0
 37
0.0
 42
50.0
 43
0.0
 44
0.0
 45
394.549064439485
 50
0.0
 51
0.0
 72
   100
 90
    32800
  1

281
     0
 71
     1
 74
     0
110
0.0
120
0.0
130
0.0
111
1.0
121
0.0
131
0.0
112
0.0
122
1.0
132
0.0
 79
     0
146
0.0
170
     0
 61
     5
348
E93
292
     1
282
     1
141
0.0
142
0.0
 63
   250
421
  3355443
  0
VIEWPORT
  5
94
330
23
100
AcDbEntity
 67
     1
  8
0
100
AcDbViewport
 10
202.5
 20
128.5
 30
0.0
 40
324.0
 41
205.6
 68
     1
 69
     2
 12
210.0
 22
148.5
 13
0.0
 23
0.0
 14
10.0
 24
10.0
 15
10.0
 25
10.0
 16
0.0
 26
0.0
 36
1.0
 17
0.0
 27
0.0
 37
0.0
 42
50.0
 43
0.0
 44
0.0
 45
302.335329341317
 50
0.0
 51
0.0
 72
   100
 90
    32864
  1

281
     0
 71
     1
 74
     0
110
0.0
120
0.0
130
0.0
111
1.0
121
0.0
131
0.0
112
0.0
122
1.0
132
0.0
 79
     0
146
0.0
170
     0
 61
     5
348
E93
292
     1
282
     1
141
0.0
142
0.0
 63
   250
421
  3355443
  0
ENDSEC
  0
SECTION
  2
OBJECTS
  0
DICTIONARY
  5
C
330
0
100
AcDbDictionary
281
     1
  3
ACAD_COLOR
350
C8E
  3
ACAD_DETAILVIEWSTYLE
350
1218
  3
ACAD_GROUP
350
D
  3
ACAD_LAYOUT
350
1A
  3
ACAD_MATERIAL
350
C8D
  3
ACAD_MLEADERSTYLE
350
E8C
  3
ACAD_MLINESTYLE
350
17
  3
ACAD_PLOTSETTINGS
350
19
  3
ACAD_PLOTSTYLENAME
350
E
  3
ACAD_SCALELIST
350
E62
  3
ACAD_SECTIONVIEWSTYLE
350
1219
  3
ACAD_TABLESTYLE
350
E87
  3
ACAD_VISUALSTYLE
350
E8E
  3
ACDB_RECOMPOSE_DATA
350
124E
  3
AcDbVariableDictionary
350
4A4
  0
SUN
  5
E8A
330
E61
100
AcDbSun
 90
        1
290
     0
 63
     7
421
 16777215
 40
1.0
291
     1
 91
  2455461
 92
 54000000
292
     0
 70
     2
 71
   256
280
     1
  0
DICTIONARY
  5
1074
330
2
100
AcDbDictionary
280
     1
281
     1
  3
ACAD_LAYERSTATES
360
1075
  0
DICTIONARY
  5
C8E
102
{ACAD_REACTORS
330
C
102
}
330
C
100
AcDbDictionary
281
     1
  0
DICTIONARY
  5
1218
102
{ACAD_REACTORS
330
C
102
}
330
C
100
AcDbDictionary
281
     1
  0
DICTIONARY
  5
D
102
{ACAD_REACTORS
330
C
102
}
330
C
100
AcDbDictionary
281
     1
  0
DICTIONARY
  5
1A
102
{ACAD_REACTORS
330
C
102
}
330
C
100
AcDbDictionary
281
     1
  3
Model
350
22
  3
ﾚｲｱｳﾄ1
350
1E
  3
ﾚｲｱｳﾄ2
350
26
  0
DICTIONARY
  5
C8D
102
{ACAD_REACTORS
330
C
102
}
330
C
100
AcDbDictionary
281
     1
  3
ByBlock
350
E85
  3
ByLayer
350
E84
  3
Global
350
E86
  0
DICTIONARY
  5
E8C
102
{ACAD_REACTORS
330
C
102
}
330
C
100
AcDbDictionary
281
     1
  3
Standard
350
EA7
  0
DICTIONARY
  5
17
102
{ACAD_REACTORS
330
C
102
}
330
C
100
AcDbDictionary
281
     1
  3
Standard
350
18
  0
DICTIONARY
  5
19
102
{ACAD_REACTORS
330
C
102
}
330
C
100
AcDbDictionary
281
     1
  0
ACDBDICTIONARYWDFLT
  5
E
102
{ACAD_REACTORS
330
C
102
}
330
C
100
AcDbDictionary
281
     1
  3
Normal
350
F
100
AcDbDictionaryWithDefault
340
F
  0
DICTIONARY
  5
E62
102
{ACAD_REACTORS
330
C
102
}
330
C
100
AcDbDictionary
281
     1
  3
A0
350
E63
  3
A1
350
E64
  3
A2
350
E65
  3
A3
350
E66
  3
A4
350
E67
  3
A5
350
E68
  3
A6
350
E69
  3
A7
350
E6A
  3
A8
350
E6B
  3
A9
350
E6C
  3
B0
350
E6D
  3
B1
350
E6E
  3
B2
350
E6F
  3
B3
350
E70
  3
B4
350
E71
  3
B5
350
E72
  3
B6
350
E73
  3
B7
350
E74
  3
B8
350
E75
  3
B9
350
E76
  3
C0
350
E77
  3
C1
350
E78
  3
C2
350
E79
  3
C3
350
E7A
  3
C4
350
E7B
  3
C5
350
E7C
  3
C6
350
E7D
  3
C7
350
E7E
  3
C8
350
E7F
  3
C9
350
E80
  3
D0
350
E81
  3
D1
350
E82
  3
D2
350
E83
  0
DICTIONARY
  5
1219
102
{ACAD_REACTORS
330
C
102
}
330
C
100
AcDbDictionary
281
     1
  0
DICTIONARY
  5
E87
102
{ACAD_REACTORS
330
C
102
}
330
C
100
AcDbDictionary
281
     1
  3
Standard
350
E88
  0
DICTIONARY
  5
E8E
102
{ACAD_REACTORS
330
C
102
}
330
C
100
AcDbDictionary
281
     1
  3
2dWireframe
350
E93
  3
Basic
350
E96
  3
Brighten
350
E9A
  3
ColorChange
350
E9E
  3
Conceptual
350
E98
  3
Dim
350
E99
  3
EdgeColorOff
350
EA1
  3
Facepattern
350
E9D
  3
Flat
350
E8F
  3
FlatWithEdges
350
E90
  3
Gouraud
350
E91
  3
GouraudWithEdges
350
E92
  3
Hidden
350
E95
  3
JitterOff
350
E9F
  3
Linepattern
350
E9C
  3
Modeling
350
EA8
  3
OverhangOff
350
EA0
  3
Realistic
350
E97
  3
Shaded
350
EA6
  3
Shaded with edges
350
EA5
  3
Shades of Gray
350
EA2
  3
Sketchy
350
EA3
  3
Thicken
350
E9B
  3
Wireframe
350
E94
  3
X-Ray
350
EA4
  0
XRECORD
  5
124E
102
{ACAD_REACTORS
330
C
102
}
330
C
100
AcDbXrecord
280
     1
 90
        1
330
E88
  0
DICTIONARY
  5
4A4
102
{ACAD_REACTORS
330
C
102
}
330
C
100
AcDbDictionary
281
     1
  3
CANNOSCALE
350
E8B
  3
CMLEADERSTYLE
350
1216
  3
CTABLESTYLE
350
1215
  3
DIMASSOC
350
4A5
  3
PROJECTNAME
350
D6B
  3
XCLIPFRAME
350
1217
  0
DICTIONARY
  5
1075
102
{ACAD_REACTORS
330
1074
102
}
330
1074
100
AcDbDictionary
281
     1
  0
LAYOUT
  5
22
102
{ACAD_REACTORS
330
1A
102
}
330
1A
100
AcDbPlotSettings
  1

  2
default.pc3
  4
A4
  6

 40
5.08
 41
5.08
 42
5.08
 43
5.08
 44
210.0
 45
297.0
 46
0.0
 47
0.0
 48
0.0
 49
0.0
140
0.0
141
0.0
142
1.0
143
2.872255699296
 70
 11952
 72
     1
 73
     0
 74
     0
  7

 75
     0
 76
     0
 77
     2
 78
   300
147
0.348158417875
148
0.0
149
0.0
100
AcDbLayout
  1
Model
 70
     1
 71
     0
 10
0.0
 20
0.0
 11
12.0
 21
9.0
 12
0.0
 22
0.0
 32
0.0
 14
155.0
 24
56.0
 34
0.0
 15
350.0
 25
338.0
 35
0.0
146
0.0
 13
0.0
 23
0.0
 33
0.0
 16
1.0
 26
0.0
 36
0.0
 17
0.0
 27
1.0
 37
0.0
 76
     0
330
1F
331
E61
  0
LAYOUT
  5
1E
102
{ACAD_REACTORS
330
1A
102
}
330
1A
100
AcDbPlotSettings
  1

  2
none_device
  4
ISO_A3_(420.00_x_297.00_MM)
  6

 40
7.5
 41
20.0
 42
7.5
 43
20.0
 44
420.0
 45
297.0
 46
0.0
 47
0.0
 48
0.0
 49
0.0
140
0.0
141
0.0
142
1.0
143
1.0
 70
   688
 72
     1
 73
     0
 74
     5
  7

 75
    16
 76
     0
 77
     2
 78
   300
147
1.0
148
0.0
149
0.0
100
AcDbLayout
  1
ﾚｲｱｳﾄ1
 70
     1
 71
     1
 10
-7.5
 20
-20.0
 11
412.5
 21
277.0
 12
0.0
 22
0.0
 32
0.0
 14
40.5
 24
25.7
 34
0.0
 15
364.5
 25
231.3
 35
0.0
146
0.0
 13
0.0
 23
0.0
 33
0.0
 16
1.0
 26
0.0
 36
0.0
 17
0.0
 27
1.0
 37
0.0
 76
     0
330
1B
331
8C
  0
LAYOUT
  5
26
102
{ACAD_REACTORS
330
1A
102
}
330
1A
100
AcDbPlotSettings
  1

  2
none_device
  4
ISO_A3_(420.00_x_297.00_MM)
  6

 40
7.5
 41
20.0
 42
7.5
 43
20.0
 44
420.0
 45
297.0
 46
0.0
 47
0.0
 48
0.0
 49
0.0
140
0.0
141
0.0
142
1.0
143
1.0
 70
   688
 72
     1
 73
     0
 74
     5
  7

 75
    16
 76
     0
 77
     2
 78
   300
147
1.0
148
0.0
149
0.0
100
AcDbLayout
  1
ﾚｲｱｳﾄ2
 70
     1
 71
     2
 10
-7.5
 20
-20.0
 11
412.5
 21
277.0
 12
0.0
 22
0.0
 32
0.0
 14
40.5
 24
25.7
 34
0.0
 15
364.5
 25
231.3
 35
0.0
146
0.0
 13
0.0
 23
0.0
 33
0.0
 16
1.0
 26
0.0
 36
0.0
 17
0.0
 27
1.0
 37
0.0
 76
     0
330
23
331
94
  0
MATERIAL
  5
E85
102
{ACAD_REACTORS
330
C8D
102
}
330
C8D
100
AcDbMaterial
  1
ByBlock
 72
     1
 94
       63
  0
MATERIAL
  5
E84
102
{ACAD_REACTORS
330
C8D
102
}
330
C8D
100
AcDbMaterial
  1
ByLayer
 72
     1
 94
       63
  0
MATERIAL
  5
E86
102
{ACAD_REACTORS
330
C8D
102
}
330
C8D
100
AcDbMaterial
  1
Global
 72
     1
 94
       63
  0
MLEADERSTYLE
  5
EA7
102
{ACAD_REACTORS
330
E8C
102
}
330
E8C
100
AcDbMLeaderStyle
179
     2
170
     2
171
     1
172
     0
 90
        2
 40
0.0
 41
0.0
173
     1
 91
-1056964608
340
14
 92
       -2
290
     1
 42
2.0
291
     1
 43
8.0
  3
Standard
341
0
 44
4.0
300

342
11
174
     1
178
     6
175
     1
176
     0
 93
-1056964608
 45
4.0
292
     0
297
     0
 46
4.0
343
0
 94
-1056964608
 47
1.0
 49
1.0
140
1.0
293
     1
141
0.0
294
     1
177
     0
142
1.0
295
     0
296
     0
143
3.75
271
     0
272
     9
273
     9
  0
MLINESTYLE
  5
18
102
{ACAD_REACTORS
330
17
102
}
330
17
100
AcDbMlineStyle
  2
STANDARD
 70
     0
  3

 62
   256
 51
90.0
 52
90.0
 71
     2
 49
0.5
 62
   256
  6
BYLAYER
 49
-0.5
 62
   256
  6
BYLAYER
  0
ACDBPLACEHOLDER
  5
F
102
{ACAD_REACTORS
330
E
102
}
330
E
  0
SCALE
  5
E63
102
{ACAD_REACTORS
330
E62
102
}
330
E62
100
AcDbScale
 70
     0
300
1:1
140
1.0
141
1.0
290
     1
  0
SCALE
  5
E64
102
{ACAD_REACTORS
330
E62
102
}
330
E62
100
AcDbScale
 70
     0
300
1:2
140
1.0
141
2.0
290
     0
  0
SCALE
  5
E65
102
{ACAD_REACTORS
330
E62
102
}
330
E62
100
AcDbScale
 70
     0
300
1:4
140
1.0
141
4.0
290
     0
  0
SCALE
  5
E66
102
{ACAD_REACTORS
330
E62
102
}
330
E62
100
AcDbScale
 70
     0
300
1:5
140
1.0
141
5.0
290
     0
  0
SCALE
  5
E67
102
{ACAD_REACTORS
330
E62
102
}
330
E62
100
AcDbScale
 70
     0
300
1:8
140
1.0
141
8.0
290
     0
  0
SCALE
  5
E68
102
{ACAD_REACTORS
330
E62
102
}
330
E62
100
AcDbScale
 70
     0
300
1:10
140
1.0
141
10.0
290
     0
  0
SCALE
  5
E69
102
{ACAD_REACTORS
330
E62
102
}
330
E62
100
AcDbScale
 70
     0
300
1:16
140
1.0
141
16.0
290
     0
  0
SCALE
  5
E6A
102
{ACAD_REACTORS
330
E62
102
}
330
E62
100
AcDbScale
 70
     0
300
1:20
140
1.0
141
20.0
290
     0
  0
SCALE
  5
E6B
102
{ACAD_REACTORS
330
E62
102
}
330
E62
100
AcDbScale
 70
     0
300
1:30
140
1.0
141
30.0
290
     0
  0
SCALE
  5
E6C
102
{ACAD_REACTORS
330
E62
102
}
330
E62
100
AcDbScale
 70
     0
300
1:40
140
1.0
141
40.0
290
     0
  0
SCALE
  5
E6D
102
{ACAD_REACTORS
330
E62
102
}
330
E62
100
AcDbScale
 70
     0
300
1:50
140
1.0
141
50.0
290
     0
  0
SCALE
  5
E6E
102
{ACAD_REACTORS
330
E62
102
}
330
E62
100
AcDbScale
 70
     0
300
1:100
140
1.0
141
100.0
290
     0
  0
SCALE
  5
E6F
102
{ACAD_REACTORS
330
E62
102
}
330
E62
100
AcDbScale
 70
     0
300
2:1
140
2.0
141
1.0
290
     0
  0
SCALE
  5
E70
102
{ACAD_REACTORS
330
E62
102
}
330
E62
100
AcDbScale
 70
     0
300
4:1
140
4.0
141
1.0
290
     0
  0
SCALE
  5
E71
102
{ACAD_REACTORS
330
E62
102
}
330
E62
100
AcDbScale
 70
     0
300
8:1
140
8.0
141
1.0
290
     0
  0
SCALE
  5
E72
102
{ACAD_REACTORS
330
E62
102
}
330
E62
100
AcDbScale
 70
     0
300
10:1
140
10.0
141
1.0
290
     0
  0
SCALE
  5
E73
102
{ACAD_REACTORS
330
E62
102
}
330
E62
100
AcDbScale
 70
     0
300
100:1
140
100.0
141
1.0
290
     0
  0
SCALE
  5
E74
102
{ACAD_REACTORS
330
E62
102
}
330
E62
100
AcDbScale
 70
     0
300
1/128" = 1'-0"
140
0.0078125
141
12.0
290
     0
  0
SCALE
  5
E75
102
{ACAD_REACTORS
330
E62
102
}
330
E62
100
AcDbScale
 70
     0
300
1/64" = 1'-0"
140
0.015625
141
12.0
290
     0
  0
SCALE
  5
E76
102
{ACAD_REACTORS
330
E62
102
}
330
E62
100
AcDbScale
 70
     0
300
1/32" = 1'-0"
140
0.03125
141
12.0
290
     0
  0
SCALE
  5
E77
102
{ACAD_REACTORS
330
E62
102
}
330
E62
100
AcDbScale
 70
     0
300
1/16" = 1'-0"
140
0.0625
141
12.0
290
     0
  0
SCALE
  5
E78
102
{ACAD_REACTORS
330
E62
102
}
330
E62
100
AcDbScale
 70
     0
300
3/32" = 1'-0"
140
0.09375
141
12.0
290
     0
  0
SCALE
  5
E79
102
{ACAD_REACTORS
330
E62
102
}
330
E62
100
AcDbScale
 70
     0
300
1/8" = 1'-0"
140
0.125
141
12.0
290
     0
  0
SCALE
  5
E7A
102
{ACAD_REACTORS
330
E62
102
}
330
E62
100
AcDbScale
 70
     0
300
3/16" = 1'-0"
140
0.1875
141
12.0
290
     0
  0
SCALE
  5
E7B
102
{ACAD_REACTORS
330
E62
102
}
330
E62
100
AcDbScale
 70
     0
300
1/4" = 1'-0"
140
0.25
141
12.0
290
     0
  0
SCALE
  5
E7C
102
{ACAD_REACTORS
330
E62
102
}
330
E62
100
AcDbScale
 70
     0
300
3/8" = 1'-0"
140
0.375
141
12.0
290
     0
  0
SCALE
  5
E7D
102
{ACAD_REACTORS
330
E62
102
}
330
E62
100
AcDbScale
 70
     0
300
1/2" = 1'-0"
140
0.5
141
12.0
290
     0
  0
SCALE
  5
E7E
102
{ACAD_REACTORS
330
E62
102
}
330
E62
100
AcDbScale
 70
     0
300
3/4" = 1'-0"
140
0.75
141
12.0
290
     0
  0
SCALE
  5
E7F
102
{ACAD_REACTORS
330
E62
102
}
330
E62
100
AcDbScale
 70
     0
300
1" = 1'-0"
140
1.0
141
12.0
290
     0
  0
SCALE
  5
E80
102
{ACAD_REACTORS
330
E62
102
}
330
E62
100
AcDbScale
 70
     0
300
1-1/2" = 1'-0"
140
1.5
141
12.0
290
     0
  0
SCALE
  5
E81
102
{ACAD_REACTORS
330
E62
102
}
330
E62
100
AcDbScale
 70
     0
300
3" = 1'-0"
140
3.0
141
12.0
290
     0
  0
SCALE
  5
E82
102
{ACAD_REACTORS
330
E62
102
}
330
E62
100
AcDbScale
 70
     0
300
6" = 1'-0"
140
6.0
141
12.0
290
     0
  0
SCALE
  5
E83
102
{ACAD_REACTORS
330
E62
102
}
330
E62
100
AcDbScale
 70
     0
300
1'-0" = 1'-0"
140
12.0
141
12.0
290
     0
  0
TABLESTYLE
  5
E88
102
{ACAD_REACTORS
330
E87
102
}
102
{ACAD_XDICTIONARY
360
121A
102
}
330
E87
100
AcDbTableStyle
  3

 70
     0
 71
     0
 40
0.06
 41
0.06
280
     0
281
     0
  7
Standard
140
4.5
170
     2
 62
     0
 63
   257
283
     0
 90
        4
 91
        0
  1

274
    -2
284
     1
 64
     0
275
    -2
285
     1
 65
     0
276
    -2
286
     1
 66
     0
277
    -2
287
     1
 67
     0
278
    -2
288
     1
 68
     0
279
    -2
289
     1
 69
     0
  7
Standard
140
6.0
170
     5
 62
     0
 63
   257
283
     0
 90
        4
 91
        0
  1

274
    -2
284
     1
 64
     0
275
    -2
285
     1
 65
     0
276
    -2
286
     1
 66
     0
277
    -2
287
     1
 67
     0
278
    -2
288
     1
 68
     0
279
    -2
289
     1
 69
     0
  7
Standard
140
4.5
170
     5
 62
     0
 63
   257
283
     0
 90
        4
 91
        0
  1

274
    -2
284
     1
 64
     0
275
    -2
285
     1
 65
     0
276
    -2
286
     1
 66
     0
277
    -2
287
     1
 67
     0
278
    -2
288
     1
 68
     0
279
    -2
289
     1
 69
     0
  0
VISUALSTYLE
  5
E93
102
{ACAD_REACTORS
330
E8E
102
}
102
{ACAD_XDICTIONARY
360
1224
102
}
330
E8E
100
AcDbVisualStyle
  2
2dWireframe
 70
     4
177
     2
291
     0
 71
     0
176
     1
 72
     2
176
     1
 73
     0
176
     1
 90
        0
176
     1
 40
0.6
176
     1
 41
30.0
176
     1
 62
     5
 63
     7
421
 16777215
176
     1
 74
     1
176
     1
 91
        4
176
     1
 64
     7
176
     1
 65
   257
176
     1
 75
     1
176
     1
175
     1
176
     1
 42
1.0
176
     1
 92
        0
176
     1
 66
   257
176
     1
 43
1.0
176
     1
 76
     1
176
     1
 77
     6
176
     1
 78
     2
176
     1
 67
     7
176
     1
 79
     5
176
     1
170
     0
176
     1
171
     0
176
     1
290
     0
176
     1
 93
        1
176
     1
 44
0.0
176
     1
173
     0
176
     1
  0
VISUALSTYLE
  5
E96
102
{ACAD_REACTORS
330
E8E
102
}
102
{ACAD_XDICTIONARY
360
122A
102
}
330
E8E
100
AcDbVisualStyle
  2
Basic
 70
     7
177
     2
291
     1
 71
     1
176
     1
 72
     0
176
     1
 73
     1
176
     1
 90
        0
176
     1
 40
0.6
176
     1
 41
30.0
176
     1
 62
     5
 63
     7
421
 16777215
176
     1
 74
     0
176
     1
 91
        4
176
     1
 64
     7
176
     1
 65
   257
176
     1
 75
     1
176
     1
175
     1
176
     1
 42
1.0
176
     1
 92
        8
176
     1
 66
     7
176
     1
 43
1.0
176
     1
 76
     1
176
     1
 77
     6
176
     1
 78
     2
176
     1
 67
     7
176
     1
 79
     5
176
     1
170
     0
176
     1
171
     0
176
     1
290
     0
176
     1
 93
        1
176
     1
 44
0.0
176
     1
173
     0
176
     1
  0
VISUALSTYLE
  5
E9A
102
{ACAD_REACTORS
330
E8E
102
}
102
{ACAD_XDICTIONARY
360
1232
102
}
330
E8E
100
AcDbVisualStyle
  2
Brighten
 70
    12
177
     2
291
     1
 71
     2
176
     1
 72
     2
176
     1
 73
     0
176
     1
 90
        0
176
     1
 40
0.6
176
     1
 41
30.0
176
     1
 62
     5
 63
     7
421
 16777215
176
     1
 74
     1
176
     1
 91
        4
176
     1
 64
     7
176
     1
 65
   257
176
     1
 75
     1
176
     1
175
     1
176
     1
 42
1.0
176
     1
 92
        8
176
     1
 66
     7
176
     1
 43
1.0
176
     1
 76
     1
176
     1
 77
     6
176
     1
 78
     2
176
     1
 67
     7
176
     1
 79
     5
176
     1
170
     0
176
     1
171
     0
176
     1
290
     0
176
     1
 93
        1
176
     1
 44
50.0
176
     1
173
     0
176
     1
  0
VISUALSTYLE
  5
E9E
102
{ACAD_REACTORS
330
E8E
102
}
102
{ACAD_XDICTIONARY
360
123A
102
}
330
E8E
100
AcDbVisualStyle
  2
ColorChange
 70
    16
177
     2
291
     1
 71
     2
176
     1
 72
     2
176
     1
 73
     3
176
     1
 90
        0
176
     1
 40
0.6
176
     1
 41
30.0
176
     1
 62
     5
 63
     8
421
  8421504
176
     1
 74
     1
176
     1
 91
        4
176
     1
 64
     7
176
     1
 65
   257
176
     1
 75
     1
176
     1
175
     1
176
     1
 42
1.0
176
     1
 92
        8
176
     1
 66
     8
424
  8421504
176
     1
 43
1.0
176
     1
 76
     1
176
     1
 77
     6
176
     1
 78
     2
176
     1
 67
     7
176
     1
 79
     5
176
     1
170
     0
176
     1
171
     0
176
     1
290
     0
176
     1
 93
        1
176
     1
 44
0.0
176
     1
173
     0
176
     1
  0
VISUALSTYLE
  5
E98
102
{ACAD_REACTORS
330
E8E
102
}
102
{ACAD_XDICTIONARY
360
122E
102
}
330
E8E
100
AcDbVisualStyle
  2
Conceptual
 70
     9
177
     2
291
     0
 71
     3
176
     1
 72
     2
176
     1
 73
     0
176
     1
 90
        0
176
     1
 40
0.6
176
     1
 41
30.0
176
     1
 62
     5
 63
     7
421
 16777215
176
     1
 74
     2
176
     1
 91
        2
176
     1
 64
     7
176
     1
 65
   257
176
     1
 75
     1
176
     1
175
     1
176
     1
 42
179.0
176
     1
 92
        8
176
     1
 66
     7
176
     1
 43
1.0
176
     1
 76
     1
176
     1
 77
     6
176
     1
 78
     2
176
     1
 67
     7
176
     1
 79
     3
176
     1
170
     0
176
     1
171
     0
176
     1
290
     0
176
     1
 93
        1
176
     1
 44
0.0
176
     1
173
     0
176
     1
  0
VISUALSTYLE
  5
E99
102
{ACAD_REACTORS
330
E8E
102
}
102
{ACAD_XDICTIONARY
360
1230
102
}
330
E8E
100
AcDbVisualStyle
  2
Dim
 70
    11
177
     2
291
     1
 71
     2
176
     1
 72
     2
176
     1
 73
     0
176
     1
 90
        0
176
     1
 40
0.6
176
     1
 41
30.0
176
     1
 62
     5
 63
     7
421
 16777215
176
     1
 74
     1
176
     1
 91
        4
176
     1
 64
     7
176
     1
 65
   257
176
     1
 75
     1
176
     1
175
     1
176
     1
 42
1.0
176
     1
 92
        8
176
     1
 66
     7
176
     1
 43
1.0
176
     1
 76
     1
176
     1
 77
     6
176
     1
 78
     2
176
     1
 67
     7
176
     1
 79
     5
176
     1
170
     0
176
     1
171
     0
176
     1
290
     0
176
     1
 93
        1
176
     1
 44
-50.0
176
     1
173
     0
176
     1
  0
VISUALSTYLE
  5
EA1
102
{ACAD_REACTORS
330
E8E
102
}
102
{ACAD_XDICTIONARY
360
1240
102
}
330
E8E
100
AcDbVisualStyle
  2
EdgeColorOff
 70
    22
177
     2
291
     1
 71
     2
176
     0
 72
     2
176
     0
 73
     0
176
     0
 90
        0
176
     0
 40
0.6
176
     0
 41
30.0
176
     0
 62
     5
 63
     7
421
 16777215
176
     0
 74
     1
176
     0
 91
        4
176
     0
 64
     7
176
     0
 65
   257
176
     0
 75
     1
176
     0
175
     1
176
     0
 42
1.0
176
     0
 92
        8
176
     2
 66
     7
176
     0
 43
1.0
176
     0
 76
     1
176
     0
 77
     6
176
     0
 78
     2
176
     0
 67
     7
176
     0
 79
     5
176
     0
170
     0
176
     0
171
     0
176
     0
290
     0
176
     0
 93
        1
176
     0
 44
0.0
176
     0
173
     0
176
     0
  0
VISUALSTYLE
  5
E9D
102
{ACAD_REACTORS
330
E8E
102
}
102
{ACAD_XDICTIONARY
360
1238
102
}
330
E8E
100
AcDbVisualStyle
  2
Facepattern
 70
    15
177
     2
291
     1
 71
     2
176
     1
 72
     2
176
     1
 73
     0
176
     1
 90
        0
176
     1
 40
0.6
176
     1
 41
30.0
176
     1
 62
     5
 63
     7
421
 16777215
176
     1
 74
     1
176
     1
 91
        4
176
     1
 64
     7
176
     1
 65
   257
176
     1
 75
     1
176
     1
175
     1
176
     1
 42
1.0
176
     1
 92
        8
176
     1
 66
     7
176
     1
 43
1.0
176
     1
 76
     1
176
     1
 77
     6
176
     1
 78
     2
176
     1
 67
     7
176
     1
 79
     5
176
     1
170
     0
176
     1
171
     0
176
     1
290
     0
176
     1
 93
        1
176
     1
 44
0.0
176
     1
173
     0
176
     1
  0
VISUALSTYLE
  5
E8F
102
{ACAD_REACTORS
330
E8E
102
}
102
{ACAD_XDICTIONARY
360
121C
102
}
330
E8E
100
AcDbVisualStyle
  2
Flat
 70
     0
177
     2
291
     1
 71
     2
176
     1
 72
     1
176
     1
 73
     1
176
     1
 90
        2
176
     1
 40
0.6
176
     1
 41
30.0
176
     1
 62
     5
 63
     7
421
 16777215
176
     1
 74
     0
176
     1
 91
        0
176
     1
 64
     7
176
     1
 65
   257
176
     1
 75
     1
176
     1
175
     1
176
     1
 42
1.0
176
     1
 92
        8
176
     1
 66
     7
176
     1
 43
1.0
176
     1
 76
     1
176
     1
 77
     6
176
     1
 78
     2
176
     1
 67
     7
176
     1
 79
     5
176
     1
170
     0
176
     1
171
     0
176
     1
290
     0
176
     1
 93
       13
176
     1
 44
0.0
176
     1
173
     0
176
     1
  0
VISUALSTYLE
  5
E90
102
{ACAD_REACTORS
330
E8E
102
}
102
{ACAD_XDICTIONARY
360
121E
102
}
330
E8E
100
AcDbVisualStyle
  2
FlatWithEdges
 70
     1
177
     2
291
     1
 71
     2
176
     1
 72
     1
176
     1
 73
     1
176
     1
 90
        2
176
     1
 40
0.6
176
     1
 41
30.0
176
     1
 62
     5
 63
     7
421
 16777215
176
     1
 74
     1
176
     1
 91
        0
176
     1
 64
     7
176
     1
 65
   257
176
     1
 75
     1
176
     1
175
     1
176
     1
 42
1.0
176
     1
 92
        0
176
     1
 66
   257
176
     1
 43
1.0
176
     1
 76
     1
176
     1
 77
     6
176
     1
 78
     2
176
     1
 67
     7
176
     1
 79
     5
176
     1
170
     0
176
     1
171
     0
176
     1
290
     0
176
     1
 93
       13
176
     1
 44
0.0
176
     1
173
     0
176
     1
  0
VISUALSTYLE
  5
E91
102
{ACAD_REACTORS
330
E8E
102
}
102
{ACAD_XDICTIONARY
360
1220
102
}
330
E8E
100
AcDbVisualStyle
  2
Gouraud
 70
     2
177
     2
291
     1
 71
     2
176
     1
 72
     2
176
     1
 73
     1
176
     1
 90
        2
176
     1
 40
0.6
176
     1
 41
30.0
176
     1
 62
     5
 63
     7
421
 16777215
176
     1
 74
     0
176
     1
 91
        0
176
     1
 64
     7
176
     1
 65
   257
176
     1
 75
     1
176
     1
175
     1
176
     1
 42
1.0
176
     1
 92
        0
176
     1
 66
     7
176
     1
 43
1.0
176
     1
 76
     1
176
     1
 77
     6
176
     1
 78
     2
176
     1
 67
     7
176
     1
 79
     5
176
     1
170
     0
176
     1
171
     0
176
     1
290
     0
176
     1
 93
       13
176
     1
 44
0.0
176
     1
173
     0
176
     1
  0
VISUALSTYLE
  5
E92
102
{ACAD_REACTORS
330
E8E
102
}
102
{ACAD_XDICTIONARY
360
1222
102
}
330
E8E
100
AcDbVisualStyle
  2
GouraudWithEdges
 70
     3
177
     2
291
     1
 71
     2
176
     1
 72
     2
176
     1
 73
     1
176
     1
 90
        2
176
     1
 40
0.6
176
     1
 41
30.0
176
     1
 62
     5
 63
     7
421
 16777215
176
     1
 74
     1
176
     1
 91
        0
176
     1
 64
     7
176
     1
 65
   257
176
     1
 75
     1
176
     1
175
     1
176
     1
 42
1.0
176
     1
 92
        0
176
     1
 66
   257
176
     1
 43
1.0
176
     1
 76
     1
176
     1
 77
     6
176
     1
 78
     2
176
     1
 67
     7
176
     1
 79
     5
176
     1
170
     0
176
     1
171
     0
176
     1
290
     0
176
     1
 93
       13
176
     1
 44
0.0
176
     1
173
     0
176
     1
  0
VISUALSTYLE
  5
E95
102
{ACAD_REACTORS
330
E8E
102
}
102
{ACAD_XDICTIONARY
360
1228
102
}
330
E8E
100
AcDbVisualStyle
  2
Hidden
 70
     6
177
     2
291
     0
 71
     1
176
     1
 72
     2
176
     1
 73
     2
176
     1
 90
        0
176
     1
 40
0.6
176
     1
 41
30.0
176
     1
 62
     5
 63
     7
421
 16777215
176
     1
 74
     2
176
     1
 91
        2
176
     1
 64
     7
176
     1
 65
   257
176
     1
 75
     2
176
     1
175
     1
176
     1
 42
40.0
176
     1
 92
        0
176
     1
 66
   257
176
     1
 43
1.0
176
     1
 76
     1
176
     1
 77
     6
176
     1
 78
     2
176
     1
 67
     7
176
     1
 79
     3
176
     1
170
     0
176
     1
171
     0
176
     1
290
     0
176
     1
 93
        1
176
     1
 44
0.0
176
     1
173
     0
176
     1
  0
VISUALSTYLE
  5
E9F
102
{ACAD_REACTORS
330
E8E
102
}
102
{ACAD_XDICTIONARY
360
123C
102
}
330
E8E
100
AcDbVisualStyle
  2
JitterOff
 70
    20
177
     2
291
     1
 71
     2
176
     0
 72
     2
176
     0
 73
     0
176
     0
 90
        0
176
     0
 40
0.6
176
     0
 41
30.0
176
     0
 62
     5
 63
     7
421
 16777215
176
     0
 74
     1
176
     0
 91
        4
176
     0
 64
     7
176
     0
 65
   257
176
     0
 75
     1
176
     0
175
     1
176
     0
 42
1.0
176
     0
 92
       10
176
     2
 66
     7
176
     0
 43
1.0
176
     0
 76
     1
176
     0
 77
     6
176
     0
 78
     2
176
     0
 67
     7
176
     0
 79
     5
176
     0
170
     0
176
     0
171
     0
176
     0
290
     0
176
     0
 93
        1
176
     0
 44
0.0
176
     0
173
     0
176
     0
  0
VISUALSTYLE
  5
E9C
102
{ACAD_REACTORS
330
E8E
102
}
102
{ACAD_XDICTIONARY
360
1236
102
}
330
E8E
100
AcDbVisualStyle
  2
Linepattern
 70
    14
177
     2
291
     1
 71
     2
176
     1
 72
     2
176
     1
 73
     0
176
     1
 90
        0
176
     1
 40
0.6
176
     1
 41
30.0
176
     1
 62
     5
 63
     7
421
 16777215
176
     1
 74
     1
176
     1
 91
        4
176
     1
 64
     7
176
     1
 65
   257
176
     1
 75
     7
176
     1
175
     7
176
     1
 42
1.0
176
     1
 92
        8
176
     1
 66
     7
176
     1
 43
1.0
176
     1
 76
     1
176
     1
 77
     6
176
     1
 78
     2
176
     1
 67
     7
176
     1
 79
     5
176
     1
170
     0
176
     1
171
     0
176
     1
290
     0
176
     1
 93
        1
176
     1
 44
0.0
176
     1
173
     0
176
     1
  0
VISUALSTYLE
  5
EA8
102
{ACAD_REACTORS
330
E8E
102
}
102
{ACAD_XDICTIONARY
360
124C
102
}
330
E8E
100
AcDbVisualStyle
  2
Modeling
 70
    10
177
     2
291
     0
 71
     2
176
     1
 72
     3
176
     1
 73
     0
176
     1
 90
        2
176
     1
 40
0.6
176
     1
 41
30.0
176
     1
 62
     5
 63
     7
421
 16777215
176
     1
 74
     2
176
     1
 91
        0
176
     1
 64
     7
176
     1
 65
   257
176
     1
 75
     1
176
     1
175
     1
176
     1
 42
180.0
176
     1
 92
        8
176
     1
 66
     8
424
  7895160
176
     1
 43
1.0
176
     1
 76
     1
176
     1
 77
     6
176
     1
 78
     2
176
     1
 67
     7
176
     1
 79
     5
176
     1
170
     0
176
     1
171
     0
176
     1
290
     0
176
     1
 93
       13
176
     1
 44
0.0
176
     1
173
     0
176
     1
  0
VISUALSTYLE
  5
EA0
102
{ACAD_REACTORS
330
E8E
102
}
102
{ACAD_XDICTIONARY
360
123E
102
}
330
E8E
100
AcDbVisualStyle
  2
OverhangOff
 70
    21
177
     2
291
     1
 71
     2
176
     0
 72
     2
176
     0
 73
     0
176
     0
 90
        0
176
     0
 40
0.6
176
     0
 41
30.0
176
     0
 62
     5
 63
     7
421
 16777215
176
     0
 74
     1
176
     0
 91
        4
176
     0
 64
     7
176
     0
 65
   257
176
     0
 75
     1
176
     0
175
     1
176
     0
 42
1.0
176
     0
 92
        9
176
     2
 66
     7
176
     0
 43
1.0
176
     0
 76
     1
176
     0
 77
     6
176
     0
 78
     2
176
     0
 67
     7
176
     0
 79
     5
176
     0
170
     0
176
     0
171
     0
176
     0
290
     0
176
     0
 93
        1
176
     0
 44
0.0
176
     0
173
     0
176
     0
  0
VISUALSTYLE
  5
E97
102
{ACAD_REACTORS
330
E8E
102
}
102
{ACAD_XDICTIONARY
360
122C
102
}
330
E8E
100
AcDbVisualStyle
  2
Realistic
 70
     8
177
     2
291
     0
 71
     2
176
     1
 72
     3
176
     1
 73
     0
176
     1
 90
        2
176
     1
 40
0.6
176
     1
 41
30.0
176
     1
 62
     5
 63
     7
421
 16777215
176
     1
 74
     0
176
     1
 91
        0
176
     1
 64
     7
176
     1
 65
   257
176
     1
 75
     1
176
     1
175
     1
176
     1
 42
1.0
176
     1
 92
        8
176
     1
 66
   257
176
     1
 43
1.0
176
     1
 76
     1
176
     1
 77
     6
176
     1
 78
     2
176
     1
 67
     7
176
     1
 79
     3
176
     1
170
     0
176
     1
171
     0
176
     1
290
     0
176
     1
 93
       13
176
     1
 44
0.0
176
     1
173
     0
176
     1
  0
VISUALSTYLE
  5
EA6
102
{ACAD_REACTORS
330
E8E
102
}
102
{ACAD_XDICTIONARY
360
124A
102
}
330
E8E
100
AcDbVisualStyle
  2
Shaded
 70
    27
177
     2
291
     0
 71
     2
176
     1
 72
     2
176
     1
 73
     1
176
     1
 90
        2
176
     1
 40
0.6
176
     1
 41
30.0
176
     1
 62
     5
 63
     7
421
 16777215
176
     1
 74
     0
176
     1
 91
        4
176
     1
 64
     7
176
     1
 65
   257
176
     1
 75
     1
176
     1
175
     1
176
     1
 42
1.0
176
     1
 92
        8
176
     1
 66
   257
176
     1
 43
1.0
176
     1
 76
     1
176
     1
 77
     6
176
     1
 78
     2
176
     1
 67
     8
425
  7895160
176
     1
 79
     3
176
     1
170
     0
176
     1
171
     0
176
     1
290
     0
176
     1
 93
        5
176
     1
 44
0.0
176
     1
173
     0
176
     1
  0
VISUALSTYLE
  5
EA5
102
{ACAD_REACTORS
330
E8E
102
}
102
{ACAD_XDICTIONARY
360
1248
102
}
330
E8E
100
AcDbVisualStyle
  2
Shaded with edges
 70
    26
177
     2
291
     0
 71
     2
176
     1
 72
     2
176
     1
 73
     1
176
     1
 90
        2
176
     1
 40
0.6
176
     1
 41
30.0
176
     1
 62
     5
 63
     7
421
 16777215
176
     1
 74
     1
176
     1
 91
       10
176
     1
 64
     7
176
     1
 65
   257
176
     1
 75
     2
176
     1
175
     1
176
     1
 42
1.0
176
     1
 92
        8
176
     1
 66
   257
176
     1
 43
1.0
176
     1
 76
     1
176
     1
 77
     6
176
     1
 78
     2
176
     1
 67
     7
176
     1
 79
     3
176
     1
170
     0
176
     1
171
     0
176
     1
290
     0
176
     1
 93
        5
176
     1
 44
0.0
176
     1
173
     0
176
     1
  0
VISUALSTYLE
  5
EA2
102
{ACAD_REACTORS
330
E8E
102
}
102
{ACAD_XDICTIONARY
360
1242
102
}
330
E8E
100
AcDbVisualStyle
  2
Shades of Gray
 70
    23
177
     2
291
     0
 71
     2
176
     1
 72
     2
176
     1
 73
     3
176
     1
 90
        0
176
     1
 40
0.6
176
     1
 41
30.0
176
     1
 62
     5
 63
     7
421
 16777215
176
     1
 74
     2
176
     1
 91
        2
176
     1
 64
     7
176
     1
 65
     7
176
     1
 75
     1
176
     1
175
     1
176
     1
 42
40.0
176
     1
 92
        8
176
     1
 66
     7
176
     1
 43
1.0
176
     1
 76
     1
176
     1
 77
     6
176
     1
 78
     2
176
     1
 67
     7
176
     1
 79
     3
176
     1
170
     0
176
     1
171
     0
176
     1
290
     0
176
     1
 93
        1
176
     1
 44
0.0
176
     1
173
     0
176
     1
  0
VISUALSTYLE
  5
EA3
102
{ACAD_REACTORS
330
E8E
102
}
102
{ACAD_XDICTIONARY
360
1244
102
}
330
E8E
100
AcDbVisualStyle
  2
Sketchy
 70
    24
177
     2
291
     0
 71
     1
176
     1
 72
     2
176
     1
 73
     2
176
     1
 90
        0
176
     1
 40
0.6
176
     1
 41
30.0
176
     1
 62
     5
 63
     7
421
 16777215
176
     1
 74
     2
176
     1
 91
        2
176
     1
 64
     7
176
     1
 65
     7
176
     1
 75
     1
176
     1
175
     1
176
     1
 42
40.0
176
     1
 92
       11
176
     1
 66
     7
176
     1
 43
1.0
176
     1
 76
     1
176
     1
 77
     6
176
     1
 78
     2
176
     1
 67
     7
176
     1
 79
     6
176
     1
170
     0
176
     1
171
     0
176
     1
290
     0
176
     1
 93
        1
176
     1
 44
0.0
176
     1
173
     0
176
     1
  0
VISUALSTYLE
  5
E9B
102
{ACAD_REACTORS
330
E8E
102
}
102
{ACAD_XDICTIONARY
360
1234
102
}
330
E8E
100
AcDbVisualStyle
  2
Thicken
 70
    13
177
     2
291
     1
 71
     2
176
     1
 72
     2
176
     1
 73
     0
176
     1
 90
        0
176
     1
 40
0.6
176
     1
 41
30.0
176
     1
 62
     5
 63
     7
421
 16777215
176
     1
 74
     1
176
     1
 91
        4
176
     1
 64
     7
176
     1
 65
   257
176
     1
 75
     1
176
     1
175
     1
176
     1
 42
1.0
176
     1
 92
       12
176
     1
 66
     7
176
     1
 43
1.0
176
     1
 76
     1
176
     1
 77
     6
176
     1
 78
     2
176
     1
 67
     7
176
     1
 79
     5
176
     1
170
     0
176
     1
171
     0
176
     1
290
     0
176
     1
 93
        1
176
     1
 44
0.0
176
     1
173
     0
176
     1
  0
VISUALSTYLE
  5
E94
102
{ACAD_REACTORS
330
E8E
102
}
102
{ACAD_XDICTIONARY
360
1226
102
}
330
E8E
100
AcDbVisualStyle
  2
Wireframe
 70
     5
177
     2
291
     0
 71
     0
176
     1
 72
     2
176
     1
 73
     0
176
     1
 90
        0
176
     1
 40
0.6
176
     1
 41
30.0
176
     1
 62
     5
 63
     7
421
 16777215
176
     1
 74
     1
176
     1
 91
        4
176
     1
 64
     7
176
     1
 65
   257
176
     1
 75
     1
176
     1
175
     1
176
     1
 42
1.0
176
     1
 92
        0
176
     1
 66
   257
176
     1
 43
1.0
176
     1
 76
     1
176
     1
 77
     6
176
     1
 78
     2
176
     1
 67
     7
176
     1
 79
     3
176
     1
170
     0
176
     1
171
     0
176
     1
290
     0
176
     1
 93
        1
176
     1
 44
0.0
176
     1
173
     0
176
     1
  0
VISUALSTYLE
  5
EA4
102
{ACAD_REACTORS
330
E8E
102
}
102
{ACAD_XDICTIONARY
360
1246
102
}
330
E8E
100
AcDbVisualStyle
  2
X-Ray
 70
    25
177
     2
291
     0
 71
     2
176
     1
 72
     2
176
     1
 73
     1
176
     1
 90
        1
176
     1
 40
0.5
176
     1
 41
30.0
176
     1
 62
     5
 63
     7
421
 16777215
176
     1
 74
     1
176
     1
 91
        0
176
     1
 64
     7
176
     1
 65
   257
176
     1
 75
     1
176
     1
175
     1
176
     1
 42
1.0
176
     1
 92
        8
176
     1
 66
     7
176
     1
 43
1.0
176
     1
 76
     1
176
     1
 77
     6
176
     1
 78
     2
176
     1
 67
     7
176
     1
 79
     3
176
     1
170
     0
176
     1
171
     0
176
     1
290
     0
176
     1
 93
       13
176
     1
 44
0.0
176
     1
173
     0
176
     1
  0
DICTIONARYVAR
  5
E8B
102
{ACAD_REACTORS
330
4A4
102
}
330
4A4
100
DictionaryVariables
280
     0
  1
1:1
  0
DICTIONARYVAR
  5
1216
102
{ACAD_REACTORS
330
4A4
102
}
330
4A4
100
DictionaryVariables
280
     0
  1
Standard
  0
DICTIONARYVAR
  5
1215
102
{ACAD_REACTORS
330
4A4
102
}
330
4A4
100
DictionaryVariables
280
     0
  1
Standard
  0
DICTIONARYVAR
  5
4A5
102
{ACAD_REACTORS
330
4A4
102
}
330
4A4
100
DictionaryVariables
280
     0
  1
1
  0
DICTIONARYVAR
  5
D6B
102
{ACAD_REACTORS
330
4A4
102
}
330
4A4
100
DictionaryVariables
280
     0
  1

  0
DICTIONARYVAR
  5
1217
102
{ACAD_REACTORS
330
4A4
102
}
330
4A4
100
DictionaryVariables
280
     0
  1
0
  0
DICTIONARY
  5
121A
330
E88
100
AcDbDictionary
280
     1
281
     1
  3
ACAD_ROUNDTRIP_2008_TABLESTYLE_CELLSTYLEMAP
360
121B
  0
DICTIONARY
  5
1224
330
E93
100
AcDbDictionary
280
     1
281
     1
  3
ACAD_XREC_ROUNDTRIP
360
1225
  0
DICTIONARY
  5
122A
330
E96
100
AcDbDictionary
280
     1
281
     1
  3
ACAD_XREC_ROUNDTRIP
360
122B
  0
DICTIONARY
  5
1232
330
E9A
100
AcDbDictionary
280
     1
281
     1
  3
ACAD_XREC_ROUNDTRIP
360
1233
  0
DICTIONARY
  5
123A
330
E9E
100
AcDbDictionary
280
     1
281
     1
  3
ACAD_XREC_ROUNDTRIP
360
123B
  0
DICTIONARY
  5
122E
330
E98
100
AcDbDictionary
280
     1
281
     1
  3
ACAD_XREC_ROUNDTRIP
360
122F
  0
DICTIONARY
  5
1230
330
E99
100
AcDbDictionary
280
     1
281
     1
  3
ACAD_XREC_ROUNDTRIP
360
1231
  0
DICTIONARY
  5
1240
330
EA1
100
AcDbDictionary
280
     1
281
     1
  3
ACAD_XREC_ROUNDTRIP
360
1241
  0
DICTIONARY
  5
1238
330
E9D
100
AcDbDictionary
280
     1
281
     1
  3
ACAD_XREC_ROUNDTRIP
360
1239
  0
DICTIONARY
  5
121C
330
E8F
100
AcDbDictionary
280
     1
281
     1
  3
ACAD_XREC_ROUNDTRIP
360
121D
  0
DICTIONARY
  5
121E
330
E90
100
AcDbDictionary
280
     1
281
     1
  3
ACAD_XREC_ROUNDTRIP
360
121F
  0
DICTIONARY
  5
1220
330
E91
100
AcDbDictionary
280
     1
281
     1
  3
ACAD_XREC_ROUNDTRIP
360
1221
  0
DICTIONARY
  5
1222
330
E92
100
AcDbDictionary
280
     1
281
     1
  3
ACAD_XREC_ROUNDTRIP
360
1223
  0
DICTIONARY
  5
1228
330
E95
100
AcDbDictionary
280
     1
281
     1
  3
ACAD_XREC_ROUNDTRIP
360
1229
  0
DICTIONARY
  5
123C
330
E9F
100
AcDbDictionary
280
     1
281
     1
  3
ACAD_XREC_ROUNDTRIP
360
123D
  0
DICTIONARY
  5
1236
330
E9C
100
AcDbDictionary
280
     1
281
     1
  3
ACAD_XREC_ROUNDTRIP
360
1237
  0
DICTIONARY
  5
124C
330
EA8
100
AcDbDictionary
280
     1
281
     1
  3
ACAD_XREC_ROUNDTRIP
360
124D
  0
DICTIONARY
  5
123E
330
EA0
100
AcDbDictionary
280
     1
281
     1
  3
ACAD_XREC_ROUNDTRIP
360
123F
  0
DICTIONARY
  5
122C
330
E97
100
AcDbDictionary
280
     1
281
     1
  3
ACAD_XREC_ROUNDTRIP
360
122D
  0
DICTIONARY
  5
124A
330
EA6
100
AcDbDictionary
280
     1
281
     1
  3
ACAD_XREC_ROUNDTRIP
360
124B
  0
DICTIONARY
  5
1248
330
EA5
100
AcDbDictionary
280
     1
281
     1
  3
ACAD_XREC_ROUNDTRIP
360
1249
  0
DICTIONARY
  5
1242
330
EA2
100
AcDbDictionary
280
     1
281
     1
  3
ACAD_XREC_ROUNDTRIP
360
1243
  0
DICTIONARY
  5
1244
330
EA3
100
AcDbDictionary
280
     1
281
     1
  3
ACAD_XREC_ROUNDTRIP
360
1245
  0
DICTIONARY
  5
1234
330
E9B
100
AcDbDictionary
280
     1
281
     1
  3
ACAD_XREC_ROUNDTRIP
360
1235
  0
DICTIONARY
  5
1226
330
E94
100
AcDbDictionary
280
     1
281
     1
  3
ACAD_XREC_ROUNDTRIP
360
1227
  0
DICTIONARY
  5
1246
330
EA4
100
AcDbDictionary
280
     1
281
     1
  3
ACAD_XREC_ROUNDTRIP
360
1247
  0
CELLSTYLEMAP
  5
121B
102
{ACAD_REACTORS
330
121A
102
}
330
121A
100
AcDbCellStyleMap
 90
        3
300
CELLSTYLE
  1
TABLEFORMAT_BEGIN
 90
        5
170
     1
 91
        0
 92
        0
 62
   257
 93
        1
300
CONTENTFORMAT
  1
CONTENTFORMAT_BEGIN
 90
        0
 91
        0
 92
        4
 93
        0
300

 40
0.0
140
1.0
 94
        5
 62
     0
340
11
144
6.0
309
CONTENTFORMAT_END
171
     0
 94
        6
 95
        1
302
GRIDFORMAT
  1
GRIDFORMAT_BEGIN
 90
        0
 91
        1
 62
     0
 92
       -2
340
14
 93
        0
 40
0.045
309
GRIDFORMAT_END
 95
        2
302
GRIDFORMAT
  1
GRIDFORMAT_BEGIN
 90
        0
 91
        1
 62
     0
 92
       -2
340
14
 93
        0
 40
0.045
309
GRIDFORMAT_END
 95
        4
302
GRIDFORMAT
  1
GRIDFORMAT_BEGIN
 90
        0
 91
        1
 62
     0
 92
       -2
340
14
 93
        0
 40
0.045
309
GRIDFORMAT_END
 95
        8
302
GRIDFORMAT
  1
GRIDFORMAT_BEGIN
 90
        0
 91
        1
 62
     0
 92
       -2
340
14
 93
        0
 40
0.045
309
GRIDFORMAT_END
 95
       16
302
GRIDFORMAT
  1
GRIDFORMAT_BEGIN
 90
        0
 91
        1
 62
     0
 92
       -2
340
14
 93
        0
 40
0.045
309
GRIDFORMAT_END
 95
       32
302
GRIDFORMAT
  1
GRIDFORMAT_BEGIN
 90
        0
 91
        1
 62
     0
 92
       -2
340
14
 93
        0
 40
0.045
309
GRIDFORMAT_END
309
TABLEFORMAT_END
  1
CELLSTYLE_BEGIN
 90
        1
 91
        1
300
_TITLE
309
CELLSTYLE_END
300
CELLSTYLE
  1
TABLEFORMAT_BEGIN
 90
        5
170
     1
 91
        0
 92
        0
 62
   257
 93
        1
300
CONTENTFORMAT
  1
CONTENTFORMAT_BEGIN
 90
        0
 91
        0
 92
        4
 93
        0
300

 40
0.0
140
1.0
 94
        5
 62
     0
340
11
144
4.5
309
CONTENTFORMAT_END
171
     0
 94
        6
 95
        1
302
GRIDFORMAT
  1
GRIDFORMAT_BEGIN
 90
        0
 91
        1
 62
     0
 92
       -2
340
14
 93
        0
 40
0.045
309
GRIDFORMAT_END
 95
        2
302
GRIDFORMAT
  1
GRIDFORMAT_BEGIN
 90
        0
 91
        1
 62
     0
 92
       -2
340
14
 93
        0
 40
0.045
309
GRIDFORMAT_END
 95
        4
302
GRIDFORMAT
  1
GRIDFORMAT_BEGIN
 90
        0
 91
        1
 62
     0
 92
       -2
340
14
 93
        0
 40
0.045
309
GRIDFORMAT_END
 95
        8
302
GRIDFORMAT
  1
GRIDFORMAT_BEGIN
 90
        0
 91
        1
 62
     0
 92
       -2
340
14
 93
        0
 40
0.045
309
GRIDFORMAT_END
 95
       16
302
GRIDFORMAT
  1
GRIDFORMAT_BEGIN
 90
        0
 91
        1
 62
     0
 92
       -2
340
14
 93
        0
 40
0.045
309
GRIDFORMAT_END
 95
       32
302
GRIDFORMAT
  1
GRIDFORMAT_BEGIN
 90
        0
 91
        1
 62
     0
 92
       -2
340
14
 93
        0
 40
0.045
309
GRIDFORMAT_END
309
TABLEFORMAT_END
  1
CELLSTYLE_BEGIN
 90
        2
 91
        1
300
_HEADER
309
CELLSTYLE_END
300
CELLSTYLE
  1
TABLEFORMAT_BEGIN
 90
        5
170
     1
 91
        0
 92
        0
 62
   257
 93
        1
300
CONTENTFORMAT
  1
CONTENTFORMAT_BEGIN
 90
        0
 91
        0
 92
        4
 93
        0
300

 40
0.0
140
1.0
 94
        2
 62
     0
340
11
144
4.5
309
CONTENTFORMAT_END
171
     0
 94
        6
 95
        1
302
GRIDFORMAT
  1
GRIDFORMAT_BEGIN
 90
        0
 91
        1
 62
     0
 92
       -2
340
14
 93
        0
 40
0.045
309
GRIDFORMAT_END
 95
        2
302
GRIDFORMAT
  1
GRIDFORMAT_BEGIN
 90
        0
 91
        1
 62
     0
 92
       -2
340
14
 93
        0
 40
0.045
309
GRIDFORMAT_END
 95
        4
302
GRIDFORMAT
  1
GRIDFORMAT_BEGIN
 90
        0
 91
        1
 62
     0
 92
       -2
340
14
 93
        0
 40
0.045
309
GRIDFORMAT_END
 95
        8
302
GRIDFORMAT
  1
GRIDFORMAT_BEGIN
 90
        0
 91
        1
 62
     0
 92
       -2
340
14
 93
        0
 40
0.045
309
GRIDFORMAT_END
 95
       16
302
GRIDFORMAT
  1
GRIDFORMAT_BEGIN
 90
        0
 91
        1
 62
     0
 92
       -2
340
14
 93
        0
 40
0.045
309
GRIDFORMAT_END
 95
       32
302
GRIDFORMAT
  1
GRIDFORMAT_BEGIN
 90
        0
 91
        1
 62
     0
 92
       -2
340
14
 93
        0
 40
0.045
309
GRIDFORMAT_END
309
TABLEFORMAT_END
  1
CELLSTYLE_BEGIN
 90
        3
 91
        2
300
_DATA
309
CELLSTYLE_END
  0
XRECORD
  5
1225
102
{ACAD_REACTORS
330
1224
102
}
330
1224
100
AcDbXrecord
280
     1
102
RTVSPost2010Prop28
280
     1
102
RTVSPost2010PropOp28
 70
     1
102
RTVSPost2010Prop29
280
     1
102
RTVSPost2010PropOp29
 70
     1
102
RTVSPost2010Prop30
280
     0
102
RTVSPost2010PropOp30
 70
     1
102
RTVSPost2010Prop31
280
     0
102
RTVSPost2010PropOp31
 70
     1
102
RTVSPost2010Prop32
280
     0
102
RTVSPost2010PropOp32
 70
     1
102
RTVSPost2010Prop33
280
     0
102
RTVSPost2010PropOp33
 70
     1
102
RTVSPost2010Prop34
280
     0
102
RTVSPost2010PropOp34
 70
     1
102
RTVSPost2010Prop35
280
     0
102
RTVSPost2010PropOp35
 70
     1
102
RTVSPost2010Prop36
280
     0
102
RTVSPost2010PropOp36
 70
     1
102
RTVSPost2010Prop37
 90
       50
102
RTVSPost2010PropOp37
 70
     1
102
RTVSPost2010Prop38
140
0.0
102
RTVSPost2010PropOp38
 70
     1
102
RTVSPost2010Prop39
140
1.0
102
RTVSPost2010PropOp39
 70
     1
102
RTVSPost2010Prop40
 90
        0
102
RTVSPost2010PropOp40
 70
     1
102
RTVSPost2010Prop41ColorIndex
 90
       18
102
RTVSPost2010Prop41ColorRGB
 90
        0
102
RTVSPost2010PropOp41
 70
     1
102
RTVSPost2010Prop42
 90
       50
102
RTVSPost2010PropOp42
 70
     1
102
RTVSPost2010Prop43
 90
        3
102
RTVSPost2010PropOp43
 70
     1
102
RTVSPost2010Prop44ColorIndex
 90
        5
102
RTVSPost2010Prop44ColorRGB
 90
      255
102
RTVSPost2010PropOp44
 70
     1
102
RTVSPost2010Prop45
280
     0
102
RTVSPost2010PropOp45
 70
     1
102
RTVSPost2010Prop46
 90
       50
102
RTVSPost2010PropOp46
 70
     1
102
RTVSPost2010Prop47
 90
       50
102
RTVSPost2010PropOp47
 70
     1
102
RTVSPost2010Prop48
 90
       50
102
RTVSPost2010PropOp48
 70
     1
102
RTVSPost2010Prop49
280
     0
102
RTVSPost2010PropOp49
 70
     1
102
RTVSPost2010Prop50
 90
       50
102
RTVSPost2010PropOp50
 70
     1
102
RTVSPost2010Prop51ColorIndex
 90
      256
102
RTVSPost2010Prop51ColorRGB
 90
-16777216
102
RTVSPost2010PropOp51
 70
     0
102
RTVSPost2010Prop52
140
1.0
102
RTVSPost2010PropOp52
 70
     0
102
RTVSPost2010Prop53
 90
        2
102
RTVSPost2010PropOp53
 70
     1
102
RTVSPost2010Prop54
  1
strokes_ogs.tif
102
RTVSPost2010PropOp54
 70
     1
102
RTVSPost2010Prop55
280
     0
102
RTVSPost2010PropOp55
 70
     1
102
RTVSPost2010Prop56
140
1.0
102
RTVSPost2010PropOp56
 70
     1
102
RTVSPost2010Prop57
140
1.0
102
RTVSPost2010PropOp57
 70
     1
  0
XRECORD
  5
122B
102
{ACAD_REACTORS
330
122A
102
}
330
122A
100
AcDbXrecord
280
     1
102
RTVSPost2010Prop28
280
     0
102
RTVSPost2010PropOp28
 70
     1
102
RTVSPost2010Prop29
280
     1
102
RTVSPost2010PropOp29
 70
     1
102
RTVSPost2010Prop30
280
     1
102
RTVSPost2010PropOp30
 70
     1
102
RTVSPost2010Prop31
280
     0
102
RTVSPost2010PropOp31
 70
     1
102
RTVSPost2010Prop32
280
     0
102
RTVSPost2010PropOp32
 70
     1
102
RTVSPost2010Prop33
280
     0
102
RTVSPost2010PropOp33
 70
     1
102
RTVSPost2010Prop34
280
     0
102
RTVSPost2010PropOp34
 70
     1
102
RTVSPost2010Prop35
280
     0
102
RTVSPost2010PropOp35
 70
     1
102
RTVSPost2010Prop36
280
     0
102
RTVSPost2010PropOp36
 70
     1
102
RTVSPost2010Prop37
 90
       50
102
RTVSPost2010PropOp37
 70
     1
102
RTVSPost2010Prop38
140
0.0
102
RTVSPost2010PropOp38
 70
     1
102
RTVSPost2010Prop39
140
1.0
102
RTVSPost2010PropOp39
 70
     1
102
RTVSPost2010Prop40
 90
        0
102
RTVSPost2010PropOp40
 70
     1
102
RTVSPost2010Prop41ColorIndex
 90
       18
102
RTVSPost2010Prop41ColorRGB
 90
        0
102
RTVSPost2010PropOp41
 70
     1
102
RTVSPost2010Prop42
 90
       50
102
RTVSPost2010PropOp42
 70
     1
102
RTVSPost2010Prop43
 90
        3
102
RTVSPost2010PropOp43
 70
     1
102
RTVSPost2010Prop44ColorIndex
 90
        5
102
RTVSPost2010Prop44ColorRGB
 90
      255
102
RTVSPost2010PropOp44
 70
     1
102
RTVSPost2010Prop45
280
     0
102
RTVSPost2010PropOp45
 70
     1
102
RTVSPost2010Prop46
 90
       50
102
RTVSPost2010PropOp46
 70
     1
102
RTVSPost2010Prop47
 90
       50
102
RTVSPost2010PropOp47
 70
     1
102
RTVSPost2010Prop48
 90
       50
102
RTVSPost2010PropOp48
 70
     1
102
RTVSPost2010Prop49
280
     0
102
RTVSPost2010PropOp49
 70
     1
102
RTVSPost2010Prop50
 90
       50
102
RTVSPost2010PropOp50
 70
     1
102
RTVSPost2010Prop51ColorIndex
 90
      256
102
RTVSPost2010Prop51ColorRGB
 90
-16777216
102
RTVSPost2010PropOp51
 70
     0
102
RTVSPost2010Prop52
140
1.0
102
RTVSPost2010PropOp52
 70
     0
102
RTVSPost2010Prop53
 90
        2
102
RTVSPost2010PropOp53
 70
     1
102
RTVSPost2010Prop54
  1
strokes_ogs.tif
102
RTVSPost2010PropOp54
 70
     1
102
RTVSPost2010Prop55
280
     0
102
RTVSPost2010PropOp55
 70
     1
102
RTVSPost2010Prop56
140
1.0
102
RTVSPost2010PropOp56
 70
     1
102
RTVSPost2010Prop57
140
1.0
102
RTVSPost2010PropOp57
 70
     1
  0
XRECORD
  5
1233
102
{ACAD_REACTORS
330
1232
102
}
330
1232
100
AcDbXrecord
280
     1
102
RTVSPost2010Prop28
280
     0
102
RTVSPost2010PropOp28
 70
     1
102
RTVSPost2010Prop29
280
     1
102
RTVSPost2010PropOp29
 70
     1
102
RTVSPost2010Prop30
280
     1
102
RTVSPost2010PropOp30
 70
     1
102
RTVSPost2010Prop31
280
     0
102
RTVSPost2010PropOp31
 70
     1
102
RTVSPost2010Prop32
280
     0
102
RTVSPost2010PropOp32
 70
     1
102
RTVSPost2010Prop33
280
     0
102
RTVSPost2010PropOp33
 70
     1
102
RTVSPost2010Prop34
280
     0
102
RTVSPost2010PropOp34
 70
     1
102
RTVSPost2010Prop35
280
     0
102
RTVSPost2010PropOp35
 70
     1
102
RTVSPost2010Prop36
280
     0
102
RTVSPost2010PropOp36
 70
     1
102
RTVSPost2010Prop37
 90
       50
102
RTVSPost2010PropOp37
 70
     1
102
RTVSPost2010Prop38
140
0.0
102
RTVSPost2010PropOp38
 70
     1
102
RTVSPost2010Prop39
140
1.0
102
RTVSPost2010PropOp39
 70
     1
102
RTVSPost2010Prop40
 90
        0
102
RTVSPost2010PropOp40
 70
     1
102
RTVSPost2010Prop41ColorIndex
 90
       18
102
RTVSPost2010Prop41ColorRGB
 90
        0
102
RTVSPost2010PropOp41
 70
     1
102
RTVSPost2010Prop42
 90
       50
102
RTVSPost2010PropOp42
 70
     1
102
RTVSPost2010Prop43
 90
        3
102
RTVSPost2010PropOp43
 70
     1
102
RTVSPost2010Prop44ColorIndex
 90
        5
102
RTVSPost2010Prop44ColorRGB
 90
      255
102
RTVSPost2010PropOp44
 70
     1
102
RTVSPost2010Prop45
280
     0
102
RTVSPost2010PropOp45
 70
     1
102
RTVSPost2010Prop46
 90
       50
102
RTVSPost2010PropOp46
 70
     1
102
RTVSPost2010Prop47
 90
       50
102
RTVSPost2010PropOp47
 70
     1
102
RTVSPost2010Prop48
 90
       50
102
RTVSPost2010PropOp48
 70
     1
102
RTVSPost2010Prop49
280
     0
102
RTVSPost2010PropOp49
 70
     1
102
RTVSPost2010Prop50
 90
       50
102
RTVSPost2010PropOp50
 70
     1
102
RTVSPost2010Prop51ColorIndex
 90
      256
102
RTVSPost2010Prop51ColorRGB
 90
-16777216
102
RTVSPost2010PropOp51
 70
     0
102
RTVSPost2010Prop52
140
1.0
102
RTVSPost2010PropOp52
 70
     0
102
RTVSPost2010Prop53
 90
        2
102
RTVSPost2010PropOp53
 70
     1
102
RTVSPost2010Prop54
  1
strokes_ogs.tif
102
RTVSPost2010PropOp54
 70
     1
102
RTVSPost2010Prop55
280
     0
102
RTVSPost2010PropOp55
 70
     1
102
RTVSPost2010Prop56
140
1.0
102
RTVSPost2010PropOp56
 70
     1
102
RTVSPost2010Prop57
140
1.0
102
RTVSPost2010PropOp57
 70
     1
  0
XRECORD
  5
123B
102
{ACAD_REACTORS
330
123A
102
}
330
123A
100
AcDbXrecord
280
     1
102
RTVSPost2010Prop28
280
     0
102
RTVSPost2010PropOp28
 70
     1
102
RTVSPost2010Prop29
280
     1
102
RTVSPost2010PropOp29
 70
     1
102
RTVSPost2010Prop30
280
     1
102
RTVSPost2010PropOp30
 70
     1
102
RTVSPost2010Prop31
280
     0
102
RTVSPost2010PropOp31
 70
     1
102
RTVSPost2010Prop32
280
     0
102
RTVSPost2010PropOp32
 70
     1
102
RTVSPost2010Prop33
280
     0
102
RTVSPost2010PropOp33
 70
     1
102
RTVSPost2010Prop34
280
     0
102
RTVSPost2010PropOp34
 70
     1
102
RTVSPost2010Prop35
280
     0
102
RTVSPost2010PropOp35
 70
     1
102
RTVSPost2010Prop36
280
     0
102
RTVSPost2010PropOp36
 70
     1
102
RTVSPost2010Prop37
 90
       50
102
RTVSPost2010PropOp37
 70
     1
102
RTVSPost2010Prop38
140
0.0
102
RTVSPost2010PropOp38
 70
     1
102
RTVSPost2010Prop39
140
1.0
102
RTVSPost2010PropOp39
 70
     1
102
RTVSPost2010Prop40
 90
        0
102
RTVSPost2010PropOp40
 70
     1
102
RTVSPost2010Prop41ColorIndex
 90
       18
102
RTVSPost2010Prop41ColorRGB
 90
        0
102
RTVSPost2010PropOp41
 70
     1
102
RTVSPost2010Prop42
 90
       50
102
RTVSPost2010PropOp42
 70
     1
102
RTVSPost2010Prop43
 90
        3
102
RTVSPost2010PropOp43
 70
     1
102
RTVSPost2010Prop44ColorIndex
 90
        5
102
RTVSPost2010Prop44ColorRGB
 90
      255
102
RTVSPost2010PropOp44
 70
     1
102
RTVSPost2010Prop45
280
     0
102
RTVSPost2010PropOp45
 70
     1
102
RTVSPost2010Prop46
 90
       50
102
RTVSPost2010PropOp46
 70
     1
102
RTVSPost2010Prop47
 90
       50
102
RTVSPost2010PropOp47
 70
     1
102
RTVSPost2010Prop48
 90
       50
102
RTVSPost2010PropOp48
 70
     1
102
RTVSPost2010Prop49
280
     0
102
RTVSPost2010PropOp49
 70
     1
102
RTVSPost2010Prop50
 90
       50
102
RTVSPost2010PropOp50
 70
     1
102
RTVSPost2010Prop51ColorIndex
 90
      256
102
RTVSPost2010Prop51ColorRGB
 90
-16777216
102
RTVSPost2010PropOp51
 70
     0
102
RTVSPost2010Prop52
140
1.0
102
RTVSPost2010PropOp52
 70
     0
102
RTVSPost2010Prop53
 90
        2
102
RTVSPost2010PropOp53
 70
     1
102
RTVSPost2010Prop54
  1
strokes_ogs.tif
102
RTVSPost2010PropOp54
 70
     1
102
RTVSPost2010Prop55
280
     0
102
RTVSPost2010PropOp55
 70
     1
102
RTVSPost2010Prop56
140
1.0
102
RTVSPost2010PropOp56
 70
     1
102
RTVSPost2010Prop57
140
1.0
102
RTVSPost2010PropOp57
 70
     1
  0
XRECORD
  5
122F
102
{ACAD_REACTORS
330
122E
102
}
330
122E
100
AcDbXrecord
280
     1
102
RTVSPost2010Prop28
280
     0
102
RTVSPost2010PropOp28
 70
     1
102
RTVSPost2010Prop29
280
     1
102
RTVSPost2010PropOp29
 70
     1
102
RTVSPost2010Prop30
280
     1
102
RTVSPost2010PropOp30
 70
     1
102
RTVSPost2010Prop31
280
     0
102
RTVSPost2010PropOp31
 70
     1
102
RTVSPost2010Prop32
280
     0
102
RTVSPost2010PropOp32
 70
     1
102
RTVSPost2010Prop33
280
     0
102
RTVSPost2010PropOp33
 70
     1
102
RTVSPost2010Prop34
280
     0
102
RTVSPost2010PropOp34
 70
     1
102
RTVSPost2010Prop35
280
     0
102
RTVSPost2010PropOp35
 70
     1
102
RTVSPost2010Prop36
280
     0
102
RTVSPost2010PropOp36
 70
     1
102
RTVSPost2010Prop37
 90
       50
102
RTVSPost2010PropOp37
 70
     1
102
RTVSPost2010Prop38
140
0.0
102
RTVSPost2010PropOp38
 70
     1
102
RTVSPost2010Prop39
140
1.0
102
RTVSPost2010PropOp39
 70
     1
102
RTVSPost2010Prop40
 90
        0
102
RTVSPost2010PropOp40
 70
     1
102
RTVSPost2010Prop41ColorIndex
 90
       18
102
RTVSPost2010Prop41ColorRGB
 90
        0
102
RTVSPost2010PropOp41
 70
     1
102
RTVSPost2010Prop42
 90
       50
102
RTVSPost2010PropOp42
 70
     1
102
RTVSPost2010Prop43
 90
        3
102
RTVSPost2010PropOp43
 70
     1
102
RTVSPost2010Prop44ColorIndex
 90
        5
102
RTVSPost2010Prop44ColorRGB
 90
      255
102
RTVSPost2010PropOp44
 70
     1
102
RTVSPost2010Prop45
280
     0
102
RTVSPost2010PropOp45
 70
     1
102
RTVSPost2010Prop46
 90
       50
102
RTVSPost2010PropOp46
 70
     1
102
RTVSPost2010Prop47
 90
       50
102
RTVSPost2010PropOp47
 70
     1
102
RTVSPost2010Prop48
 90
       50
102
RTVSPost2010PropOp48
 70
     1
102
RTVSPost2010Prop49
280
     0
102
RTVSPost2010PropOp49
 70
     1
102
RTVSPost2010Prop50
 90
       50
102
RTVSPost2010PropOp50
 70
     1
102
RTVSPost2010Prop51ColorIndex
 90
      256
102
RTVSPost2010Prop51ColorRGB
 90
-16777216
102
RTVSPost2010PropOp51
 70
     0
102
RTVSPost2010Prop52
140
1.0
102
RTVSPost2010PropOp52
 70
     0
102
RTVSPost2010Prop53
 90
        2
102
RTVSPost2010PropOp53
 70
     1
102
RTVSPost2010Prop54
  1
strokes_ogs.tif
102
RTVSPost2010PropOp54
 70
     1
102
RTVSPost2010Prop55
280
     0
102
RTVSPost2010PropOp55
 70
     1
102
RTVSPost2010Prop56
140
1.0
102
RTVSPost2010PropOp56
 70
     1
102
RTVSPost2010Prop57
140
1.0
102
RTVSPost2010PropOp57
 70
     1
  0
XRECORD
  5
1231
102
{ACAD_REACTORS
330
1230
102
}
330
1230
100
AcDbXrecord
280
     1
102
RTVSPost2010Prop28
280
     0
102
RTVSPost2010PropOp28
 70
     1
102
RTVSPost2010Prop29
280
     1
102
RTVSPost2010PropOp29
 70
     1
102
RTVSPost2010Prop30
280
     1
102
RTVSPost2010PropOp30
 70
     1
102
RTVSPost2010Prop31
280
     0
102
RTVSPost2010PropOp31
 70
     1
102
RTVSPost2010Prop32
280
     0
102
RTVSPost2010PropOp32
 70
     1
102
RTVSPost2010Prop33
280
     0
102
RTVSPost2010PropOp33
 70
     1
102
RTVSPost2010Prop34
280
     0
102
RTVSPost2010PropOp34
 70
     1
102
RTVSPost2010Prop35
280
     0
102
RTVSPost2010PropOp35
 70
     1
102
RTVSPost2010Prop36
280
     0
102
RTVSPost2010PropOp36
 70
     1
102
RTVSPost2010Prop37
 90
       50
102
RTVSPost2010PropOp37
 70
     1
102
RTVSPost2010Prop38
140
0.0
102
RTVSPost2010PropOp38
 70
     1
102
RTVSPost2010Prop39
140
1.0
102
RTVSPost2010PropOp39
 70
     1
102
RTVSPost2010Prop40
 90
        0
102
RTVSPost2010PropOp40
 70
     1
102
RTVSPost2010Prop41ColorIndex
 90
       18
102
RTVSPost2010Prop41ColorRGB
 90
        0
102
RTVSPost2010PropOp41
 70
     1
102
RTVSPost2010Prop42
 90
       50
102
RTVSPost2010PropOp42
 70
     1
102
RTVSPost2010Prop43
 90
        3
102
RTVSPost2010PropOp43
 70
     1
102
RTVSPost2010Prop44ColorIndex
 90
        5
102
RTVSPost2010Prop44ColorRGB
 90
      255
102
RTVSPost2010PropOp44
 70
     1
102
RTVSPost2010Prop45
280
     0
102
RTVSPost2010PropOp45
 70
     1
102
RTVSPost2010Prop46
 90
       50
102
RTVSPost2010PropOp46
 70
     1
102
RTVSPost2010Prop47
 90
       50
102
RTVSPost2010PropOp47
 70
     1
102
RTVSPost2010Prop48
 90
       50
102
RTVSPost2010PropOp48
 70
     1
102
RTVSPost2010Prop49
280
     0
102
RTVSPost2010PropOp49
 70
     1
102
RTVSPost2010Prop50
 90
       50
102
RTVSPost2010PropOp50
 70
     1
102
RTVSPost2010Prop51ColorIndex
 90
      256
102
RTVSPost2010Prop51ColorRGB
 90
-16777216
102
RTVSPost2010PropOp51
 70
     0
102
RTVSPost2010Prop52
140
1.0
102
RTVSPost2010PropOp52
 70
     0
102
RTVSPost2010Prop53
 90
        2
102
RTVSPost2010PropOp53
 70
     1
102
RTVSPost2010Prop54
  1
strokes_ogs.tif
102
RTVSPost2010PropOp54
 70
     1
102
RTVSPost2010Prop55
280
     0
102
RTVSPost2010PropOp55
 70
     1
102
RTVSPost2010Prop56
140
1.0
102
RTVSPost2010PropOp56
 70
     1
102
RTVSPost2010Prop57
140
1.0
102
RTVSPost2010PropOp57
 70
     1
  0
XRECORD
  5
1241
102
{ACAD_REACTORS
330
1240
102
}
330
1240
100
AcDbXrecord
280
     1
102
RTVSPost2010Prop28
280
     0
102
RTVSPost2010PropOp28
 70
     0
102
RTVSPost2010Prop29
280
     1
102
RTVSPost2010PropOp29
 70
     0
102
RTVSPost2010Prop30
280
     1
102
RTVSPost2010PropOp30
 70
     0
102
RTVSPost2010Prop31
280
     0
102
RTVSPost2010PropOp31
 70
     0
102
RTVSPost2010Prop32
280
     0
102
RTVSPost2010PropOp32
 70
     0
102
RTVSPost2010Prop33
280
     0
102
RTVSPost2010PropOp33
 70
     0
102
RTVSPost2010Prop34
280
     0
102
RTVSPost2010PropOp34
 70
     0
102
RTVSPost2010Prop35
280
     0
102
RTVSPost2010PropOp35
 70
     0
102
RTVSPost2010Prop36
280
     0
102
RTVSPost2010PropOp36
 70
     0
102
RTVSPost2010Prop37
 90
       50
102
RTVSPost2010PropOp37
 70
     0
102
RTVSPost2010Prop38
140
0.0
102
RTVSPost2010PropOp38
 70
     0
102
RTVSPost2010Prop39
140
1.0
102
RTVSPost2010PropOp39
 70
     0
102
RTVSPost2010Prop40
 90
        0
102
RTVSPost2010PropOp40
 70
     0
102
RTVSPost2010Prop41ColorIndex
 90
       18
102
RTVSPost2010Prop41ColorRGB
 90
        0
102
RTVSPost2010PropOp41
 70
     0
102
RTVSPost2010Prop42
 90
       50
102
RTVSPost2010PropOp42
 70
     0
102
RTVSPost2010Prop43
 90
        3
102
RTVSPost2010PropOp43
 70
     0
102
RTVSPost2010Prop44ColorIndex
 90
        5
102
RTVSPost2010Prop44ColorRGB
 90
      255
102
RTVSPost2010PropOp44
 70
     0
102
RTVSPost2010Prop45
280
     0
102
RTVSPost2010PropOp45
 70
     0
102
RTVSPost2010Prop46
 90
       50
102
RTVSPost2010PropOp46
 70
     0
102
RTVSPost2010Prop47
 90
       50
102
RTVSPost2010PropOp47
 70
     0
102
RTVSPost2010Prop48
 90
       50
102
RTVSPost2010PropOp48
 70
     0
102
RTVSPost2010Prop49
280
     0
102
RTVSPost2010PropOp49
 70
     0
102
RTVSPost2010Prop50
 90
       50
102
RTVSPost2010PropOp50
 70
     0
102
RTVSPost2010Prop51ColorIndex
 90
      256
102
RTVSPost2010Prop51ColorRGB
 90
-16777216
102
RTVSPost2010PropOp51
 70
     0
102
RTVSPost2010Prop52
140
1.0
102
RTVSPost2010PropOp52
 70
     0
102
RTVSPost2010Prop53
 90
        2
102
RTVSPost2010PropOp53
 70
     0
102
RTVSPost2010Prop54
  1
strokes_ogs.tif
102
RTVSPost2010PropOp54
 70
     0
102
RTVSPost2010Prop55
280
     0
102
RTVSPost2010PropOp55
 70
     0
102
RTVSPost2010Prop56
140
1.0
102
RTVSPost2010PropOp56
 70
     0
102
RTVSPost2010Prop57
140
1.0
102
RTVSPost2010PropOp57
 70
     0
  0
XRECORD
  5
1239
102
{ACAD_REACTORS
330
1238
102
}
330
1238
100
AcDbXrecord
280
     1
102
RTVSPost2010Prop28
280
     0
102
RTVSPost2010PropOp28
 70
     1
102
RTVSPost2010Prop29
280
     1
102
RTVSPost2010PropOp29
 70
     1
102
RTVSPost2010Prop30
280
     1
102
RTVSPost2010PropOp30
 70
     1
102
RTVSPost2010Prop31
280
     0
102
RTVSPost2010PropOp31
 70
     1
102
RTVSPost2010Prop32
280
     0
102
RTVSPost2010PropOp32
 70
     1
102
RTVSPost2010Prop33
280
     0
102
RTVSPost2010PropOp33
 70
     1
102
RTVSPost2010Prop34
280
     0
102
RTVSPost2010PropOp34
 70
     1
102
RTVSPost2010Prop35
280
     0
102
RTVSPost2010PropOp35
 70
     1
102
RTVSPost2010Prop36
280
     0
102
RTVSPost2010PropOp36
 70
     1
102
RTVSPost2010Prop37
 90
       50
102
RTVSPost2010PropOp37
 70
     1
102
RTVSPost2010Prop38
140
0.0
102
RTVSPost2010PropOp38
 70
     1
102
RTVSPost2010Prop39
140
1.0
102
RTVSPost2010PropOp39
 70
     1
102
RTVSPost2010Prop40
 90
        0
102
RTVSPost2010PropOp40
 70
     1
102
RTVSPost2010Prop41ColorIndex
 90
       18
102
RTVSPost2010Prop41ColorRGB
 90
        0
102
RTVSPost2010PropOp41
 70
     1
102
RTVSPost2010Prop42
 90
       50
102
RTVSPost2010PropOp42
 70
     1
102
RTVSPost2010Prop43
 90
        3
102
RTVSPost2010PropOp43
 70
     1
102
RTVSPost2010Prop44ColorIndex
 90
        5
102
RTVSPost2010Prop44ColorRGB
 90
      255
102
RTVSPost2010PropOp44
 70
     1
102
RTVSPost2010Prop45
280
     0
102
RTVSPost2010PropOp45
 70
     1
102
RTVSPost2010Prop46
 90
       50
102
RTVSPost2010PropOp46
 70
     1
102
RTVSPost2010Prop47
 90
       50
102
RTVSPost2010PropOp47
 70
     1
102
RTVSPost2010Prop48
 90
       50
102
RTVSPost2010PropOp48
 70
     1
102
RTVSPost2010Prop49
280
     0
102
RTVSPost2010PropOp49
 70
     1
102
RTVSPost2010Prop50
 90
       50
102
RTVSPost2010PropOp50
 70
     1
102
RTVSPost2010Prop51ColorIndex
 90
      256
102
RTVSPost2010Prop51ColorRGB
 90
-16777216
102
RTVSPost2010PropOp51
 70
     0
102
RTVSPost2010Prop52
140
1.0
102
RTVSPost2010PropOp52
 70
     0
102
RTVSPost2010Prop53
 90
        2
102
RTVSPost2010PropOp53
 70
     1
102
RTVSPost2010Prop54
  1
strokes_ogs.tif
102
RTVSPost2010PropOp54
 70
     1
102
RTVSPost2010Prop55
280
     0
102
RTVSPost2010PropOp55
 70
     1
102
RTVSPost2010Prop56
140
1.0
102
RTVSPost2010PropOp56
 70
     1
102
RTVSPost2010Prop57
140
1.0
102
RTVSPost2010PropOp57
 70
     1
  0
XRECORD
  5
121D
102
{ACAD_REACTORS
330
121C
102
}
330
121C
100
AcDbXrecord
280
     1
102
RTVSPost2010Prop28
280
     0
102
RTVSPost2010PropOp28
 70
     1
102
RTVSPost2010Prop29
280
     1
102
RTVSPost2010PropOp29
 70
     1
102
RTVSPost2010Prop30
280
     1
102
RTVSPost2010PropOp30
 70
     1
102
RTVSPost2010Prop31
280
     0
102
RTVSPost2010PropOp31
 70
     1
102
RTVSPost2010Prop32
280
     0
102
RTVSPost2010PropOp32
 70
     1
102
RTVSPost2010Prop33
280
     0
102
RTVSPost2010PropOp33
 70
     1
102
RTVSPost2010Prop34
280
     0
102
RTVSPost2010PropOp34
 70
     1
102
RTVSPost2010Prop35
280
     0
102
RTVSPost2010PropOp35
 70
     1
102
RTVSPost2010Prop36
280
     0
102
RTVSPost2010PropOp36
 70
     1
102
RTVSPost2010Prop37
 90
       50
102
RTVSPost2010PropOp37
 70
     1
102
RTVSPost2010Prop38
140
0.0
102
RTVSPost2010PropOp38
 70
     1
102
RTVSPost2010Prop39
140
1.0
102
RTVSPost2010PropOp39
 70
     1
102
RTVSPost2010Prop40
 90
        0
102
RTVSPost2010PropOp40
 70
     1
102
RTVSPost2010Prop41ColorIndex
 90
       18
102
RTVSPost2010Prop41ColorRGB
 90
        0
102
RTVSPost2010PropOp41
 70
     1
102
RTVSPost2010Prop42
 90
       50
102
RTVSPost2010PropOp42
 70
     1
102
RTVSPost2010Prop43
 90
        3
102
RTVSPost2010PropOp43
 70
     1
102
RTVSPost2010Prop44ColorIndex
 90
        5
102
RTVSPost2010Prop44ColorRGB
 90
      255
102
RTVSPost2010PropOp44
 70
     1
102
RTVSPost2010Prop45
280
     0
102
RTVSPost2010PropOp45
 70
     1
102
RTVSPost2010Prop46
 90
       50
102
RTVSPost2010PropOp46
 70
     1
102
RTVSPost2010Prop47
 90
       50
102
RTVSPost2010PropOp47
 70
     1
102
RTVSPost2010Prop48
 90
       50
102
RTVSPost2010PropOp48
 70
     1
102
RTVSPost2010Prop49
280
     0
102
RTVSPost2010PropOp49
 70
     1
102
RTVSPost2010Prop50
 90
       50
102
RTVSPost2010PropOp50
 70
     1
102
RTVSPost2010Prop51ColorIndex
 90
      256
102
RTVSPost2010Prop51ColorRGB
 90
-16777216
102
RTVSPost2010PropOp51
 70
     0
102
RTVSPost2010Prop52
140
1.0
102
RTVSPost2010PropOp52
 70
     0
102
RTVSPost2010Prop53
 90
        2
102
RTVSPost2010PropOp53
 70
     1
102
RTVSPost2010Prop54
  1
strokes_ogs.tif
102
RTVSPost2010PropOp54
 70
     1
102
RTVSPost2010Prop55
280
     0
102
RTVSPost2010PropOp55
 70
     1
102
RTVSPost2010Prop56
140
1.0
102
RTVSPost2010PropOp56
 70
     1
102
RTVSPost2010Prop57
140
1.0
102
RTVSPost2010PropOp57
 70
     1
  0
XRECORD
  5
121F
102
{ACAD_REACTORS
330
121E
102
}
330
121E
100
AcDbXrecord
280
     1
102
RTVSPost2010Prop28
280
     0
102
RTVSPost2010PropOp28
 70
     1
102
RTVSPost2010Prop29
280
     1
102
RTVSPost2010PropOp29
 70
     1
102
RTVSPost2010Prop30
280
     1
102
RTVSPost2010PropOp30
 70
     1
102
RTVSPost2010Prop31
280
     0
102
RTVSPost2010PropOp31
 70
     1
102
RTVSPost2010Prop32
280
     0
102
RTVSPost2010PropOp32
 70
     1
102
RTVSPost2010Prop33
280
     0
102
RTVSPost2010PropOp33
 70
     1
102
RTVSPost2010Prop34
280
     0
102
RTVSPost2010PropOp34
 70
     1
102
RTVSPost2010Prop35
280
     0
102
RTVSPost2010PropOp35
 70
     1
102
RTVSPost2010Prop36
280
     0
102
RTVSPost2010PropOp36
 70
     1
102
RTVSPost2010Prop37
 90
       50
102
RTVSPost2010PropOp37
 70
     1
102
RTVSPost2010Prop38
140
0.0
102
RTVSPost2010PropOp38
 70
     1
102
RTVSPost2010Prop39
140
1.0
102
RTVSPost2010PropOp39
 70
     1
102
RTVSPost2010Prop40
 90
        0
102
RTVSPost2010PropOp40
 70
     1
102
RTVSPost2010Prop41ColorIndex
 90
       18
102
RTVSPost2010Prop41ColorRGB
 90
        0
102
RTVSPost2010PropOp41
 70
     1
102
RTVSPost2010Prop42
 90
       50
102
RTVSPost2010PropOp42
 70
     1
102
RTVSPost2010Prop43
 90
        3
102
RTVSPost2010PropOp43
 70
     1
102
RTVSPost2010Prop44ColorIndex
 90
        5
102
RTVSPost2010Prop44ColorRGB
 90
      255
102
RTVSPost2010PropOp44
 70
     1
102
RTVSPost2010Prop45
280
     0
102
RTVSPost2010PropOp45
 70
     1
102
RTVSPost2010Prop46
 90
       50
102
RTVSPost2010PropOp46
 70
     1
102
RTVSPost2010Prop47
 90
       50
102
RTVSPost2010PropOp47
 70
     1
102
RTVSPost2010Prop48
 90
       50
102
RTVSPost2010PropOp48
 70
     1
102
RTVSPost2010Prop49
280
     0
102
RTVSPost2010PropOp49
 70
     1
102
RTVSPost2010Prop50
 90
       50
102
RTVSPost2010PropOp50
 70
     1
102
RTVSPost2010Prop51ColorIndex
 90
      256
102
RTVSPost2010Prop51ColorRGB
 90
-16777216
102
RTVSPost2010PropOp51
 70
     0
102
RTVSPost2010Prop52
140
1.0
102
RTVSPost2010PropOp52
 70
     0
102
RTVSPost2010Prop53
 90
        2
102
RTVSPost2010PropOp53
 70
     1
102
RTVSPost2010Prop54
  1
strokes_ogs.tif
102
RTVSPost2010PropOp54
 70
     1
102
RTVSPost2010Prop55
280
     0
102
RTVSPost2010PropOp55
 70
     1
102
RTVSPost2010Prop56
140
1.0
102
RTVSPost2010PropOp56
 70
     1
102
RTVSPost2010Prop57
140
1.0
102
RTVSPost2010PropOp57
 70
     1
  0
XRECORD
  5
1221
102
{ACAD_REACTORS
330
1220
102
}
330
1220
100
AcDbXrecord
280
     1
102
RTVSPost2010Prop28
280
     0
102
RTVSPost2010PropOp28
 70
     1
102
RTVSPost2010Prop29
280
     1
102
RTVSPost2010PropOp29
 70
     1
102
RTVSPost2010Prop30
280
     1
102
RTVSPost2010PropOp30
 70
     1
102
RTVSPost2010Prop31
280
     0
102
RTVSPost2010PropOp31
 70
     1
102
RTVSPost2010Prop32
280
     0
102
RTVSPost2010PropOp32
 70
     1
102
RTVSPost2010Prop33
280
     0
102
RTVSPost2010PropOp33
 70
     1
102
RTVSPost2010Prop34
280
     0
102
RTVSPost2010PropOp34
 70
     1
102
RTVSPost2010Prop35
280
     0
102
RTVSPost2010PropOp35
 70
     1
102
RTVSPost2010Prop36
280
     0
102
RTVSPost2010PropOp36
 70
     1
102
RTVSPost2010Prop37
 90
       50
102
RTVSPost2010PropOp37
 70
     1
102
RTVSPost2010Prop38
140
0.0
102
RTVSPost2010PropOp38
 70
     1
102
RTVSPost2010Prop39
140
1.0
102
RTVSPost2010PropOp39
 70
     1
102
RTVSPost2010Prop40
 90
        0
102
RTVSPost2010PropOp40
 70
     1
102
RTVSPost2010Prop41ColorIndex
 90
       18
102
RTVSPost2010Prop41ColorRGB
 90
        0
102
RTVSPost2010PropOp41
 70
     1
102
RTVSPost2010Prop42
 90
       50
102
RTVSPost2010PropOp42
 70
     1
102
RTVSPost2010Prop43
 90
        3
102
RTVSPost2010PropOp43
 70
     1
102
RTVSPost2010Prop44ColorIndex
 90
        5
102
RTVSPost2010Prop44ColorRGB
 90
      255
102
RTVSPost2010PropOp44
 70
     1
102
RTVSPost2010Prop45
280
     0
102
RTVSPost2010PropOp45
 70
     1
102
RTVSPost2010Prop46
 90
       50
102
RTVSPost2010PropOp46
 70
     1
102
RTVSPost2010Prop47
 90
       50
102
RTVSPost2010PropOp47
 70
     1
102
RTVSPost2010Prop48
 90
       50
102
RTVSPost2010PropOp48
 70
     1
102
RTVSPost2010Prop49
280
     0
102
RTVSPost2010PropOp49
 70
     1
102
RTVSPost2010Prop50
 90
       50
102
RTVSPost2010PropOp50
 70
     1
102
RTVSPost2010Prop51ColorIndex
 90
      256
102
RTVSPost2010Prop51ColorRGB
 90
-16777216
102
RTVSPost2010PropOp51
 70
     0
102
RTVSPost2010Prop52
140
1.0
102
RTVSPost2010PropOp52
 70
     0
102
RTVSPost2010Prop53
 90
        2
102
RTVSPost2010PropOp53
 70
     1
102
RTVSPost2010Prop54
  1
strokes_ogs.tif
102
RTVSPost2010PropOp54
 70
     1
102
RTVSPost2010Prop55
280
     0
102
RTVSPost2010PropOp55
 70
     1
102
RTVSPost2010Prop56
140
1.0
102
RTVSPost2010PropOp56
 70
     1
102
RTVSPost2010Prop57
140
1.0
102
RTVSPost2010PropOp57
 70
     1
  0
XRECORD
  5
1223
102
{ACAD_REACTORS
330
1222
102
}
330
1222
100
AcDbXrecord
280
     1
102
RTVSPost2010Prop28
280
     0
102
RTVSPost2010PropOp28
 70
     1
102
RTVSPost2010Prop29
280
     1
102
RTVSPost2010PropOp29
 70
     1
102
RTVSPost2010Prop30
280
     1
102
RTVSPost2010PropOp30
 70
     1
102
RTVSPost2010Prop31
280
     0
102
RTVSPost2010PropOp31
 70
     1
102
RTVSPost2010Prop32
280
     0
102
RTVSPost2010PropOp32
 70
     1
102
RTVSPost2010Prop33
280
     0
102
RTVSPost2010PropOp33
 70
     1
102
RTVSPost2010Prop34
280
     0
102
RTVSPost2010PropOp34
 70
     1
102
RTVSPost2010Prop35
280
     0
102
RTVSPost2010PropOp35
 70
     1
102
RTVSPost2010Prop36
280
     0
102
RTVSPost2010PropOp36
 70
     1
102
RTVSPost2010Prop37
 90
       50
102
RTVSPost2010PropOp37
 70
     1
102
RTVSPost2010Prop38
140
0.0
102
RTVSPost2010PropOp38
 70
     1
102
RTVSPost2010Prop39
140
1.0
102
RTVSPost2010PropOp39
 70
     1
102
RTVSPost2010Prop40
 90
        0
102
RTVSPost2010PropOp40
 70
     1
102
RTVSPost2010Prop41ColorIndex
 90
       18
102
RTVSPost2010Prop41ColorRGB
 90
        0
102
RTVSPost2010PropOp41
 70
     1
102
RTVSPost2010Prop42
 90
       50
102
RTVSPost2010PropOp42
 70
     1
102
RTVSPost2010Prop43
 90
        3
102
RTVSPost2010PropOp43
 70
     1
102
RTVSPost2010Prop44ColorIndex
 90
        5
102
RTVSPost2010Prop44ColorRGB
 90
      255
102
RTVSPost2010PropOp44
 70
     1
102
RTVSPost2010Prop45
280
     0
102
RTVSPost2010PropOp45
 70
     1
102
RTVSPost2010Prop46
 90
       50
102
RTVSPost2010PropOp46
 70
     1
102
RTVSPost2010Prop47
 90
       50
102
RTVSPost2010PropOp47
 70
     1
102
RTVSPost2010Prop48
 90
       50
102
RTVSPost2010PropOp48
 70
     1
102
RTVSPost2010Prop49
280
     0
102
RTVSPost2010PropOp49
 70
     1
102
RTVSPost2010Prop50
 90
       50
102
RTVSPost2010PropOp50
 70
     1
102
RTVSPost2010Prop51ColorIndex
 90
      256
102
RTVSPost2010Prop51ColorRGB
 90
-16777216
102
RTVSPost2010PropOp51
 70
     0
102
RTVSPost2010Prop52
140
1.0
102
RTVSPost2010PropOp52
 70
     0
102
RTVSPost2010Prop53
 90
        2
102
RTVSPost2010PropOp53
 70
     1
102
RTVSPost2010Prop54
  1
strokes_ogs.tif
102
RTVSPost2010PropOp54
 70
     1
102
RTVSPost2010Prop55
280
     0
102
RTVSPost2010PropOp55
 70
     1
102
RTVSPost2010Prop56
140
1.0
102
RTVSPost2010PropOp56
 70
     1
102
RTVSPost2010Prop57
140
1.0
102
RTVSPost2010PropOp57
 70
     1
  0
XRECORD
  5
1229
102
{ACAD_REACTORS
330
1228
102
}
330
1228
100
AcDbXrecord
280
     1
102
RTVSPost2010Prop28
280
     0
102
RTVSPost2010PropOp28
 70
     1
102
RTVSPost2010Prop29
280
     1
102
RTVSPost2010PropOp29
 70
     1
102
RTVSPost2010Prop30
280
     1
102
RTVSPost2010PropOp30
 70
     1
102
RTVSPost2010Prop31
280
     0
102
RTVSPost2010PropOp31
 70
     1
102
RTVSPost2010Prop32
280
     0
102
RTVSPost2010PropOp32
 70
     1
102
RTVSPost2010Prop33
280
     0
102
RTVSPost2010PropOp33
 70
     1
102
RTVSPost2010Prop34
280
     0
102
RTVSPost2010PropOp34
 70
     1
102
RTVSPost2010Prop35
280
     0
102
RTVSPost2010PropOp35
 70
     1
102
RTVSPost2010Prop36
280
     0
102
RTVSPost2010PropOp36
 70
     1
102
RTVSPost2010Prop37
 90
       50
102
RTVSPost2010PropOp37
 70
     1
102
RTVSPost2010Prop38
140
0.0
102
RTVSPost2010PropOp38
 70
     1
102
RTVSPost2010Prop39
140
1.0
102
RTVSPost2010PropOp39
 70
     1
102
RTVSPost2010Prop40
 90
        0
102
RTVSPost2010PropOp40
 70
     1
102
RTVSPost2010Prop41ColorIndex
 90
       18
102
RTVSPost2010Prop41ColorRGB
 90
        0
102
RTVSPost2010PropOp41
 70
     1
102
RTVSPost2010Prop42
 90
       50
102
RTVSPost2010PropOp42
 70
     1
102
RTVSPost2010Prop43
 90
        3
102
RTVSPost2010PropOp43
 70
     1
102
RTVSPost2010Prop44ColorIndex
 90
        5
102
RTVSPost2010Prop44ColorRGB
 90
      255
102
RTVSPost2010PropOp44
 70
     1
102
RTVSPost2010Prop45
280
     0
102
RTVSPost2010PropOp45
 70
     1
102
RTVSPost2010Prop46
 90
       50
102
RTVSPost2010PropOp46
 70
     1
102
RTVSPost2010Prop47
 90
       50
102
RTVSPost2010PropOp47
 70
     1
102
RTVSPost2010Prop48
 90
       50
102
RTVSPost2010PropOp48
 70
     1
102
RTVSPost2010Prop49
280
     0
102
RTVSPost2010PropOp49
 70
     1
102
RTVSPost2010Prop50
 90
       50
102
RTVSPost2010PropOp50
 70
     1
102
RTVSPost2010Prop51ColorIndex
 90
      256
102
RTVSPost2010Prop51ColorRGB
 90
-16777216
102
RTVSPost2010PropOp51
 70
     0
102
RTVSPost2010Prop52
140
1.0
102
RTVSPost2010PropOp52
 70
     0
102
RTVSPost2010Prop53
 90
        2
102
RTVSPost2010PropOp53
 70
     1
102
RTVSPost2010Prop54
  1
strokes_ogs.tif
102
RTVSPost2010PropOp54
 70
     1
102
RTVSPost2010Prop55
280
     0
102
RTVSPost2010PropOp55
 70
     1
102
RTVSPost2010Prop56
140
1.0
102
RTVSPost2010PropOp56
 70
     1
102
RTVSPost2010Prop57
140
1.0
102
RTVSPost2010PropOp57
 70
     1
  0
XRECORD
  5
123D
102
{ACAD_REACTORS
330
123C
102
}
330
123C
100
AcDbXrecord
280
     1
102
RTVSPost2010Prop28
280
     0
102
RTVSPost2010PropOp28
 70
     0
102
RTVSPost2010Prop29
280
     1
102
RTVSPost2010PropOp29
 70
     0
102
RTVSPost2010Prop30
280
     1
102
RTVSPost2010PropOp30
 70
     0
102
RTVSPost2010Prop31
280
     0
102
RTVSPost2010PropOp31
 70
     0
102
RTVSPost2010Prop32
280
     0
102
RTVSPost2010PropOp32
 70
     0
102
RTVSPost2010Prop33
280
     0
102
RTVSPost2010PropOp33
 70
     0
102
RTVSPost2010Prop34
280
     0
102
RTVSPost2010PropOp34
 70
     0
102
RTVSPost2010Prop35
280
     0
102
RTVSPost2010PropOp35
 70
     0
102
RTVSPost2010Prop36
280
     0
102
RTVSPost2010PropOp36
 70
     0
102
RTVSPost2010Prop37
 90
       50
102
RTVSPost2010PropOp37
 70
     0
102
RTVSPost2010Prop38
140
0.0
102
RTVSPost2010PropOp38
 70
     0
102
RTVSPost2010Prop39
140
1.0
102
RTVSPost2010PropOp39
 70
     0
102
RTVSPost2010Prop40
 90
        0
102
RTVSPost2010PropOp40
 70
     0
102
RTVSPost2010Prop41ColorIndex
 90
       18
102
RTVSPost2010Prop41ColorRGB
 90
        0
102
RTVSPost2010PropOp41
 70
     0
102
RTVSPost2010Prop42
 90
       50
102
RTVSPost2010PropOp42
 70
     0
102
RTVSPost2010Prop43
 90
        3
102
RTVSPost2010PropOp43
 70
     0
102
RTVSPost2010Prop44ColorIndex
 90
        5
102
RTVSPost2010Prop44ColorRGB
 90
      255
102
RTVSPost2010PropOp44
 70
     0
102
RTVSPost2010Prop45
280
     0
102
RTVSPost2010PropOp45
 70
     0
102
RTVSPost2010Prop46
 90
       50
102
RTVSPost2010PropOp46
 70
     0
102
RTVSPost2010Prop47
 90
       50
102
RTVSPost2010PropOp47
 70
     0
102
RTVSPost2010Prop48
 90
       50
102
RTVSPost2010PropOp48
 70
     0
102
RTVSPost2010Prop49
280
     0
102
RTVSPost2010PropOp49
 70
     0
102
RTVSPost2010Prop50
 90
       50
102
RTVSPost2010PropOp50
 70
     0
102
RTVSPost2010Prop51ColorIndex
 90
      256
102
RTVSPost2010Prop51ColorRGB
 90
-16777216
102
RTVSPost2010PropOp51
 70
     0
102
RTVSPost2010Prop52
140
1.0
102
RTVSPost2010PropOp52
 70
     0
102
RTVSPost2010Prop53
 90
        2
102
RTVSPost2010PropOp53
 70
     0
102
RTVSPost2010Prop54
  1
strokes_ogs.tif
102
RTVSPost2010PropOp54
 70
     0
102
RTVSPost2010Prop55
280
     0
102
RTVSPost2010PropOp55
 70
     0
102
RTVSPost2010Prop56
140
1.0
102
RTVSPost2010PropOp56
 70
     0
102
RTVSPost2010Prop57
140
1.0
102
RTVSPost2010PropOp57
 70
     0
  0
XRECORD
  5
1237
102
{ACAD_REACTORS
330
1236
102
}
330
1236
100
AcDbXrecord
280
     1
102
RTVSPost2010Prop28
280
     0
102
RTVSPost2010PropOp28
 70
     1
102
RTVSPost2010Prop29
280
     1
102
RTVSPost2010PropOp29
 70
     1
102
RTVSPost2010Prop30
280
     1
102
RTVSPost2010PropOp30
 70
     1
102
RTVSPost2010Prop31
280
     0
102
RTVSPost2010PropOp31
 70
     1
102
RTVSPost2010Prop32
280
     0
102
RTVSPost2010PropOp32
 70
     1
102
RTVSPost2010Prop33
280
     0
102
RTVSPost2010PropOp33
 70
     1
102
RTVSPost2010Prop34
280
     0
102
RTVSPost2010PropOp34
 70
     1
102
RTVSPost2010Prop35
280
     0
102
RTVSPost2010PropOp35
 70
     1
102
RTVSPost2010Prop36
280
     0
102
RTVSPost2010PropOp36
 70
     1
102
RTVSPost2010Prop37
 90
       50
102
RTVSPost2010PropOp37
 70
     1
102
RTVSPost2010Prop38
140
0.0
102
RTVSPost2010PropOp38
 70
     1
102
RTVSPost2010Prop39
140
1.0
102
RTVSPost2010PropOp39
 70
     1
102
RTVSPost2010Prop40
 90
        0
102
RTVSPost2010PropOp40
 70
     1
102
RTVSPost2010Prop41ColorIndex
 90
       18
102
RTVSPost2010Prop41ColorRGB
 90
        0
102
RTVSPost2010PropOp41
 70
     1
102
RTVSPost2010Prop42
 90
       50
102
RTVSPost2010PropOp42
 70
     1
102
RTVSPost2010Prop43
 90
        3
102
RTVSPost2010PropOp43
 70
     1
102
RTVSPost2010Prop44ColorIndex
 90
        5
102
RTVSPost2010Prop44ColorRGB
 90
      255
102
RTVSPost2010PropOp44
 70
     1
102
RTVSPost2010Prop45
280
     0
102
RTVSPost2010PropOp45
 70
     1
102
RTVSPost2010Prop46
 90
       50
102
RTVSPost2010PropOp46
 70
     1
102
RTVSPost2010Prop47
 90
       50
102
RTVSPost2010PropOp47
 70
     1
102
RTVSPost2010Prop48
 90
       50
102
RTVSPost2010PropOp48
 70
     1
102
RTVSPost2010Prop49
280
     0
102
RTVSPost2010PropOp49
 70
     1
102
RTVSPost2010Prop50
 90
       50
102
RTVSPost2010PropOp50
 70
     1
102
RTVSPost2010Prop51ColorIndex
 90
      256
102
RTVSPost2010Prop51ColorRGB
 90
-16777216
102
RTVSPost2010PropOp51
 70
     0
102
RTVSPost2010Prop52
140
1.0
102
RTVSPost2010PropOp52
 70
     0
102
RTVSPost2010Prop53
 90
        2
102
RTVSPost2010PropOp53
 70
     1
102
RTVSPost2010Prop54
  1
strokes_ogs.tif
102
RTVSPost2010PropOp54
 70
     1
102
RTVSPost2010Prop55
280
     0
102
RTVSPost2010PropOp55
 70
     1
102
RTVSPost2010Prop56
140
1.0
102
RTVSPost2010PropOp56
 70
     1
102
RTVSPost2010Prop57
140
1.0
102
RTVSPost2010PropOp57
 70
     1
  0
XRECORD
  5
124D
102
{ACAD_REACTORS
330
124C
102
}
330
124C
100
AcDbXrecord
280
     1
102
RTVSPost2010Prop28
280
     0
102
RTVSPost2010PropOp28
 70
     1
102
RTVSPost2010Prop29
280
     1
102
RTVSPost2010PropOp29
 70
     1
102
RTVSPost2010Prop30
280
     1
102
RTVSPost2010PropOp30
 70
     1
102
RTVSPost2010Prop31
280
     0
102
RTVSPost2010PropOp31
 70
     1
102
RTVSPost2010Prop32
280
     0
102
RTVSPost2010PropOp32
 70
     1
102
RTVSPost2010Prop33
280
     0
102
RTVSPost2010PropOp33
 70
     1
102
RTVSPost2010Prop34
280
     0
102
RTVSPost2010PropOp34
 70
     1
102
RTVSPost2010Prop35
280
     0
102
RTVSPost2010PropOp35
 70
     1
102
RTVSPost2010Prop36
280
     0
102
RTVSPost2010PropOp36
 70
     1
102
RTVSPost2010Prop37
 90
       50
102
RTVSPost2010PropOp37
 70
     1
102
RTVSPost2010Prop38
140
0.0
102
RTVSPost2010PropOp38
 70
     1
102
RTVSPost2010Prop39
140
1.0
102
RTVSPost2010PropOp39
 70
     1
102
RTVSPost2010Prop40
 90
        0
102
RTVSPost2010PropOp40
 70
     1
102
RTVSPost2010Prop41ColorIndex
 90
       18
102
RTVSPost2010Prop41ColorRGB
 90
        0
102
RTVSPost2010PropOp41
 70
     1
102
RTVSPost2010Prop42
 90
       50
102
RTVSPost2010PropOp42
 70
     1
102
RTVSPost2010Prop43
 90
        3
102
RTVSPost2010PropOp43
 70
     1
102
RTVSPost2010Prop44ColorIndex
 90
        5
102
RTVSPost2010Prop44ColorRGB
 90
      255
102
RTVSPost2010PropOp44
 70
     1
102
RTVSPost2010Prop45
280
     0
102
RTVSPost2010PropOp45
 70
     1
102
RTVSPost2010Prop46
 90
       50
102
RTVSPost2010PropOp46
 70
     1
102
RTVSPost2010Prop47
 90
       50
102
RTVSPost2010PropOp47
 70
     1
102
RTVSPost2010Prop48
 90
       50
102
RTVSPost2010PropOp48
 70
     1
102
RTVSPost2010Prop49
280
     0
102
RTVSPost2010PropOp49
 70
     1
102
RTVSPost2010Prop50
 90
       50
102
RTVSPost2010PropOp50
 70
     1
102
RTVSPost2010Prop51ColorIndex
 90
      256
102
RTVSPost2010Prop51ColorRGB
 90
-16777216
102
RTVSPost2010PropOp51
 70
     0
102
RTVSPost2010Prop52
140
1.0
102
RTVSPost2010PropOp52
 70
     0
102
RTVSPost2010Prop53
 90
        2
102
RTVSPost2010PropOp53
 70
     1
102
RTVSPost2010Prop54
  1
strokes_ogs.tif
102
RTVSPost2010PropOp54
 70
     1
102
RTVSPost2010Prop55
280
     0
102
RTVSPost2010PropOp55
 70
     1
102
RTVSPost2010Prop56
140
1.0
102
RTVSPost2010PropOp56
 70
     1
102
RTVSPost2010Prop57
140
1.0
102
RTVSPost2010PropOp57
 70
     1
  0
XRECORD
  5
123F
102
{ACAD_REACTORS
330
123E
102
}
330
123E
100
AcDbXrecord
280
     1
102
RTVSPost2010Prop28
280
     0
102
RTVSPost2010PropOp28
 70
     0
102
RTVSPost2010Prop29
280
     1
102
RTVSPost2010PropOp29
 70
     0
102
RTVSPost2010Prop30
280
     1
102
RTVSPost2010PropOp30
 70
     0
102
RTVSPost2010Prop31
280
     0
102
RTVSPost2010PropOp31
 70
     0
102
RTVSPost2010Prop32
280
     0
102
RTVSPost2010PropOp32
 70
     0
102
RTVSPost2010Prop33
280
     0
102
RTVSPost2010PropOp33
 70
     0
102
RTVSPost2010Prop34
280
     0
102
RTVSPost2010PropOp34
 70
     0
102
RTVSPost2010Prop35
280
     0
102
RTVSPost2010PropOp35
 70
     0
102
RTVSPost2010Prop36
280
     0
102
RTVSPost2010PropOp36
 70
     0
102
RTVSPost2010Prop37
 90
       50
102
RTVSPost2010PropOp37
 70
     0
102
RTVSPost2010Prop38
140
0.0
102
RTVSPost2010PropOp38
 70
     0
102
RTVSPost2010Prop39
140
1.0
102
RTVSPost2010PropOp39
 70
     0
102
RTVSPost2010Prop40
 90
        0
102
RTVSPost2010PropOp40
 70
     0
102
RTVSPost2010Prop41ColorIndex
 90
       18
102
RTVSPost2010Prop41ColorRGB
 90
        0
102
RTVSPost2010PropOp41
 70
     0
102
RTVSPost2010Prop42
 90
       50
102
RTVSPost2010PropOp42
 70
     0
102
RTVSPost2010Prop43
 90
        3
102
RTVSPost2010PropOp43
 70
     0
102
RTVSPost2010Prop44ColorIndex
 90
        5
102
RTVSPost2010Prop44ColorRGB
 90
      255
102
RTVSPost2010PropOp44
 70
     0
102
RTVSPost2010Prop45
280
     0
102
RTVSPost2010PropOp45
 70
     0
102
RTVSPost2010Prop46
 90
       50
102
RTVSPost2010PropOp46
 70
     0
102
RTVSPost2010Prop47
 90
       50
102
RTVSPost2010PropOp47
 70
     0
102
RTVSPost2010Prop48
 90
       50
102
RTVSPost2010PropOp48
 70
     0
102
RTVSPost2010Prop49
280
     0
102
RTVSPost2010PropOp49
 70
     0
102
RTVSPost2010Prop50
 90
       50
102
RTVSPost2010PropOp50
 70
     0
102
RTVSPost2010Prop51ColorIndex
 90
      256
102
RTVSPost2010Prop51ColorRGB
 90
-16777216
102
RTVSPost2010PropOp51
 70
     0
102
RTVSPost2010Prop52
140
1.0
102
RTVSPost2010PropOp52
 70
     0
102
RTVSPost2010Prop53
 90
        2
102
RTVSPost2010PropOp53
 70
     0
102
RTVSPost2010Prop54
  1
strokes_ogs.tif
102
RTVSPost2010PropOp54
 70
     0
102
RTVSPost2010Prop55
280
     0
102
RTVSPost2010PropOp55
 70
     0
102
RTVSPost2010Prop56
140
1.0
102
RTVSPost2010PropOp56
 70
     0
102
RTVSPost2010Prop57
140
1.0
102
RTVSPost2010PropOp57
 70
     0
  0
XRECORD
  5
122D
102
{ACAD_REACTORS
330
122C
102
}
330
122C
100
AcDbXrecord
280
     1
102
RTVSPost2010Prop28
280
     0
102
RTVSPost2010PropOp28
 70
     1
102
RTVSPost2010Prop29
280
     1
102
RTVSPost2010PropOp29
 70
     1
102
RTVSPost2010Prop30
280
     1
102
RTVSPost2010PropOp30
 70
     1
102
RTVSPost2010Prop31
280
     0
102
RTVSPost2010PropOp31
 70
     1
102
RTVSPost2010Prop32
280
     0
102
RTVSPost2010PropOp32
 70
     1
102
RTVSPost2010Prop33
280
     0
102
RTVSPost2010PropOp33
 70
     1
102
RTVSPost2010Prop34
280
     0
102
RTVSPost2010PropOp34
 70
     1
102
RTVSPost2010Prop35
280
     0
102
RTVSPost2010PropOp35
 70
     1
102
RTVSPost2010Prop36
280
     0
102
RTVSPost2010PropOp36
 70
     1
102
RTVSPost2010Prop37
 90
       50
102
RTVSPost2010PropOp37
 70
     1
102
RTVSPost2010Prop38
140
0.0
102
RTVSPost2010PropOp38
 70
     1
102
RTVSPost2010Prop39
140
1.0
102
RTVSPost2010PropOp39
 70
     1
102
RTVSPost2010Prop40
 90
        0
102
RTVSPost2010PropOp40
 70
     1
102
RTVSPost2010Prop41ColorIndex
 90
       18
102
RTVSPost2010Prop41ColorRGB
 90
        0
102
RTVSPost2010PropOp41
 70
     1
102
RTVSPost2010Prop42
 90
       50
102
RTVSPost2010PropOp42
 70
     1
102
RTVSPost2010Prop43
 90
        3
102
RTVSPost2010PropOp43
 70
     1
102
RTVSPost2010Prop44ColorIndex
 90
        5
102
RTVSPost2010Prop44ColorRGB
 90
      255
102
RTVSPost2010PropOp44
 70
     1
102
RTVSPost2010Prop45
280
     0
102
RTVSPost2010PropOp45
 70
     1
102
RTVSPost2010Prop46
 90
       50
102
RTVSPost2010PropOp46
 70
     1
102
RTVSPost2010Prop47
 90
       50
102
RTVSPost2010PropOp47
 70
     1
102
RTVSPost2010Prop48
 90
       50
102
RTVSPost2010PropOp48
 70
     1
102
RTVSPost2010Prop49
280
     0
102
RTVSPost2010PropOp49
 70
     1
102
RTVSPost2010Prop50
 90
       50
102
RTVSPost2010PropOp50
 70
     1
102
RTVSPost2010Prop51ColorIndex
 90
      256
102
RTVSPost2010Prop51ColorRGB
 90
-16777216
102
RTVSPost2010PropOp51
 70
     0
102
RTVSPost2010Prop52
140
1.0
102
RTVSPost2010PropOp52
 70
     0
102
RTVSPost2010Prop53
 90
        2
102
RTVSPost2010PropOp53
 70
     1
102
RTVSPost2010Prop54
  1
strokes_ogs.tif
102
RTVSPost2010PropOp54
 70
     1
102
RTVSPost2010Prop55
280
     0
102
RTVSPost2010PropOp55
 70
     1
102
RTVSPost2010Prop56
140
1.0
102
RTVSPost2010PropOp56
 70
     1
102
RTVSPost2010Prop57
140
1.0
102
RTVSPost2010PropOp57
 70
     1
  0
XRECORD
  5
124B
102
{ACAD_REACTORS
330
124A
102
}
330
124A
100
AcDbXrecord
280
     1
102
RTVSPost2010Prop28
280
     0
102
RTVSPost2010PropOp28
 70
     1
102
RTVSPost2010Prop29
280
     1
102
RTVSPost2010PropOp29
 70
     1
102
RTVSPost2010Prop30
280
     1
102
RTVSPost2010PropOp30
 70
     1
102
RTVSPost2010Prop31
280
     0
102
RTVSPost2010PropOp31
 70
     1
102
RTVSPost2010Prop32
280
     0
102
RTVSPost2010PropOp32
 70
     1
102
RTVSPost2010Prop33
280
     0
102
RTVSPost2010PropOp33
 70
     1
102
RTVSPost2010Prop34
280
     0
102
RTVSPost2010PropOp34
 70
     1
102
RTVSPost2010Prop35
280
     0
102
RTVSPost2010PropOp35
 70
     1
102
RTVSPost2010Prop36
280
     0
102
RTVSPost2010PropOp36
 70
     1
102
RTVSPost2010Prop37
 90
       50
102
RTVSPost2010PropOp37
 70
     1
102
RTVSPost2010Prop38
140
0.0
102
RTVSPost2010PropOp38
 70
     1
102
RTVSPost2010Prop39
140
1.0
102
RTVSPost2010PropOp39
 70
     1
102
RTVSPost2010Prop40
 90
        0
102
RTVSPost2010PropOp40
 70
     1
102
RTVSPost2010Prop41ColorIndex
 90
       18
102
RTVSPost2010Prop41ColorRGB
 90
        0
102
RTVSPost2010PropOp41
 70
     1
102
RTVSPost2010Prop42
 90
       50
102
RTVSPost2010PropOp42
 70
     1
102
RTVSPost2010Prop43
 90
        3
102
RTVSPost2010PropOp43
 70
     1
102
RTVSPost2010Prop44ColorIndex
 90
        5
102
RTVSPost2010Prop44ColorRGB
 90
      255
102
RTVSPost2010PropOp44
 70
     1
102
RTVSPost2010Prop45
280
     0
102
RTVSPost2010PropOp45
 70
     1
102
RTVSPost2010Prop46
 90
       50
102
RTVSPost2010PropOp46
 70
     1
102
RTVSPost2010Prop47
 90
       50
102
RTVSPost2010PropOp47
 70
     1
102
RTVSPost2010Prop48
 90
       50
102
RTVSPost2010PropOp48
 70
     1
102
RTVSPost2010Prop49
280
     0
102
RTVSPost2010PropOp49
 70
     1
102
RTVSPost2010Prop50
 90
       50
102
RTVSPost2010PropOp50
 70
     1
102
RTVSPost2010Prop51ColorIndex
 90
      256
102
RTVSPost2010Prop51ColorRGB
 90
-16777216
102
RTVSPost2010PropOp51
 70
     0
102
RTVSPost2010Prop52
140
1.0
102
RTVSPost2010PropOp52
 70
     0
102
RTVSPost2010Prop53
 90
        2
102
RTVSPost2010PropOp53
 70
     1
102
RTVSPost2010Prop54
  1
strokes_ogs.tif
102
RTVSPost2010PropOp54
 70
     1
102
RTVSPost2010Prop55
280
     0
102
RTVSPost2010PropOp55
 70
     1
102
RTVSPost2010Prop56
140
1.0
102
RTVSPost2010PropOp56
 70
     1
102
RTVSPost2010Prop57
140
1.0
102
RTVSPost2010PropOp57
 70
     1
  0
XRECORD
  5
1249
102
{ACAD_REACTORS
330
1248
102
}
330
1248
100
AcDbXrecord
280
     1
102
RTVSPost2010Prop28
280
     0
102
RTVSPost2010PropOp28
 70
     1
102
RTVSPost2010Prop29
280
     1
102
RTVSPost2010PropOp29
 70
     1
102
RTVSPost2010Prop30
280
     1
102
RTVSPost2010PropOp30
 70
     1
102
RTVSPost2010Prop31
280
     0
102
RTVSPost2010PropOp31
 70
     1
102
RTVSPost2010Prop32
280
     0
102
RTVSPost2010PropOp32
 70
     1
102
RTVSPost2010Prop33
280
     0
102
RTVSPost2010PropOp33
 70
     1
102
RTVSPost2010Prop34
280
     0
102
RTVSPost2010PropOp34
 70
     1
102
RTVSPost2010Prop35
280
     0
102
RTVSPost2010PropOp35
 70
     1
102
RTVSPost2010Prop36
280
     0
102
RTVSPost2010PropOp36
 70
     1
102
RTVSPost2010Prop37
 90
       50
102
RTVSPost2010PropOp37
 70
     1
102
RTVSPost2010Prop38
140
0.0
102
RTVSPost2010PropOp38
 70
     1
102
RTVSPost2010Prop39
140
1.0
102
RTVSPost2010PropOp39
 70
     1
102
RTVSPost2010Prop40
 90
        0
102
RTVSPost2010PropOp40
 70
     1
102
RTVSPost2010Prop41ColorIndex
 90
       18
102
RTVSPost2010Prop41ColorRGB
 90
        0
102
RTVSPost2010PropOp41
 70
     1
102
RTVSPost2010Prop42
 90
       50
102
RTVSPost2010PropOp42
 70
     1
102
RTVSPost2010Prop43
 90
        3
102
RTVSPost2010PropOp43
 70
     1
102
RTVSPost2010Prop44ColorIndex
 90
        5
102
RTVSPost2010Prop44ColorRGB
 90
      255
102
RTVSPost2010PropOp44
 70
     1
102
RTVSPost2010Prop45
280
     0
102
RTVSPost2010PropOp45
 70
     1
102
RTVSPost2010Prop46
 90
       50
102
RTVSPost2010PropOp46
 70
     1
102
RTVSPost2010Prop47
 90
       50
102
RTVSPost2010PropOp47
 70
     1
102
RTVSPost2010Prop48
 90
       50
102
RTVSPost2010PropOp48
 70
     1
102
RTVSPost2010Prop49
280
     0
102
RTVSPost2010PropOp49
 70
     1
102
RTVSPost2010Prop50
 90
       50
102
RTVSPost2010PropOp50
 70
     1
102
RTVSPost2010Prop51ColorIndex
 90
      256
102
RTVSPost2010Prop51ColorRGB
 90
-16777216
102
RTVSPost2010PropOp51
 70
     0
102
RTVSPost2010Prop52
140
1.0
102
RTVSPost2010PropOp52
 70
     0
102
RTVSPost2010Prop53
 90
        2
102
RTVSPost2010PropOp53
 70
     1
102
RTVSPost2010Prop54
  1
strokes_ogs.tif
102
RTVSPost2010PropOp54
 70
     1
102
RTVSPost2010Prop55
280
     0
102
RTVSPost2010PropOp55
 70
     1
102
RTVSPost2010Prop56
140
1.0
102
RTVSPost2010PropOp56
 70
     1
102
RTVSPost2010Prop57
140
1.0
102
RTVSPost2010PropOp57
 70
     1
  0
XRECORD
  5
1243
102
{ACAD_REACTORS
330
1242
102
}
330
1242
100
AcDbXrecord
280
     1
102
RTVSPost2010Prop28
280
     0
102
RTVSPost2010PropOp28
 70
     1
102
RTVSPost2010Prop29
280
     1
102
RTVSPost2010PropOp29
 70
     1
102
RTVSPost2010Prop30
280
     1
102
RTVSPost2010PropOp30
 70
     1
102
RTVSPost2010Prop31
280
     0
102
RTVSPost2010PropOp31
 70
     1
102
RTVSPost2010Prop32
280
     0
102
RTVSPost2010PropOp32
 70
     1
102
RTVSPost2010Prop33
280
     0
102
RTVSPost2010PropOp33
 70
     1
102
RTVSPost2010Prop34
280
     0
102
RTVSPost2010PropOp34
 70
     1
102
RTVSPost2010Prop35
280
     0
102
RTVSPost2010PropOp35
 70
     1
102
RTVSPost2010Prop36
280
     0
102
RTVSPost2010PropOp36
 70
     1
102
RTVSPost2010Prop37
 90
       50
102
RTVSPost2010PropOp37
 70
     1
102
RTVSPost2010Prop38
140
0.0
102
RTVSPost2010PropOp38
 70
     1
102
RTVSPost2010Prop39
140
1.0
102
RTVSPost2010PropOp39
 70
     1
102
RTVSPost2010Prop40
 90
        0
102
RTVSPost2010PropOp40
 70
     1
102
RTVSPost2010Prop41ColorIndex
 90
       18
102
RTVSPost2010Prop41ColorRGB
 90
        0
102
RTVSPost2010PropOp41
 70
     1
102
RTVSPost2010Prop42
 90
       50
102
RTVSPost2010PropOp42
 70
     1
102
RTVSPost2010Prop43
 90
        3
102
RTVSPost2010PropOp43
 70
     1
102
RTVSPost2010Prop44ColorIndex
 90
        5
102
RTVSPost2010Prop44ColorRGB
 90
      255
102
RTVSPost2010PropOp44
 70
     1
102
RTVSPost2010Prop45
280
     0
102
RTVSPost2010PropOp45
 70
     1
102
RTVSPost2010Prop46
 90
       50
102
RTVSPost2010PropOp46
 70
     1
102
RTVSPost2010Prop47
 90
       50
102
RTVSPost2010PropOp47
 70
     1
102
RTVSPost2010Prop48
 90
       50
102
RTVSPost2010PropOp48
 70
     1
102
RTVSPost2010Prop49
280
     0
102
RTVSPost2010PropOp49
 70
     1
102
RTVSPost2010Prop50
 90
       50
102
RTVSPost2010PropOp50
 70
     1
102
RTVSPost2010Prop51ColorIndex
 90
      256
102
RTVSPost2010Prop51ColorRGB
 90
-16777216
102
RTVSPost2010PropOp51
 70
     0
102
RTVSPost2010Prop52
140
1.0
102
RTVSPost2010PropOp52
 70
     0
102
RTVSPost2010Prop53
 90
        2
102
RTVSPost2010PropOp53
 70
     1
102
RTVSPost2010Prop54
  1
strokes_ogs.tif
102
RTVSPost2010PropOp54
 70
     1
102
RTVSPost2010Prop55
280
     0
102
RTVSPost2010PropOp55
 70
     1
102
RTVSPost2010Prop56
140
1.0
102
RTVSPost2010PropOp56
 70
     1
102
RTVSPost2010Prop57
140
1.0
102
RTVSPost2010PropOp57
 70
     1
  0
XRECORD
  5
1245
102
{ACAD_REACTORS
330
1244
102
}
330
1244
100
AcDbXrecord
280
     1
102
RTVSPost2010Prop28
280
     0
102
RTVSPost2010PropOp28
 70
     1
102
RTVSPost2010Prop29
280
     1
102
RTVSPost2010PropOp29
 70
     1
102
RTVSPost2010Prop30
280
     1
102
RTVSPost2010PropOp30
 70
     1
102
RTVSPost2010Prop31
280
     0
102
RTVSPost2010PropOp31
 70
     1
102
RTVSPost2010Prop32
280
     0
102
RTVSPost2010PropOp32
 70
     1
102
RTVSPost2010Prop33
280
     0
102
RTVSPost2010PropOp33
 70
     1
102
RTVSPost2010Prop34
280
     0
102
RTVSPost2010PropOp34
 70
     1
102
RTVSPost2010Prop35
280
     0
102
RTVSPost2010PropOp35
 70
     1
102
RTVSPost2010Prop36
280
     0
102
RTVSPost2010PropOp36
 70
     1
102
RTVSPost2010Prop37
 90
       50
102
RTVSPost2010PropOp37
 70
     1
102
RTVSPost2010Prop38
140
0.0
102
RTVSPost2010PropOp38
 70
     1
102
RTVSPost2010Prop39
140
1.0
102
RTVSPost2010PropOp39
 70
     1
102
RTVSPost2010Prop40
 90
        0
102
RTVSPost2010PropOp40
 70
     1
102
RTVSPost2010Prop41ColorIndex
 90
       18
102
RTVSPost2010Prop41ColorRGB
 90
        0
102
RTVSPost2010PropOp41
 70
     1
102
RTVSPost2010Prop42
 90
       50
102
RTVSPost2010PropOp42
 70
     1
102
RTVSPost2010Prop43
 90
        3
102
RTVSPost2010PropOp43
 70
     1
102
RTVSPost2010Prop44ColorIndex
 90
        5
102
RTVSPost2010Prop44ColorRGB
 90
      255
102
RTVSPost2010PropOp44
 70
     1
102
RTVSPost2010Prop45
280
     0
102
RTVSPost2010PropOp45
 70
     1
102
RTVSPost2010Prop46
 90
       50
102
RTVSPost2010PropOp46
 70
     1
102
RTVSPost2010Prop47
 90
       50
102
RTVSPost2010PropOp47
 70
     1
102
RTVSPost2010Prop48
 90
       50
102
RTVSPost2010PropOp48
 70
     1
102
RTVSPost2010Prop49
280
     0
102
RTVSPost2010PropOp49
 70
     1
102
RTVSPost2010Prop50
 90
       50
102
RTVSPost2010PropOp50
 70
     1
102
RTVSPost2010Prop51ColorIndex
 90
      256
102
RTVSPost2010Prop51ColorRGB
 90
-16777216
102
RTVSPost2010PropOp51
 70
     0
102
RTVSPost2010Prop52
140
1.0
102
RTVSPost2010PropOp52
 70
     0
102
RTVSPost2010Prop53
 90
        2
102
RTVSPost2010PropOp53
 70
     1
102
RTVSPost2010Prop54
  1
strokes_ogs.tif
102
RTVSPost2010PropOp54
 70
     1
102
RTVSPost2010Prop55
280
     0
102
RTVSPost2010PropOp55
 70
     1
102
RTVSPost2010Prop56
140
1.0
102
RTVSPost2010PropOp56
 70
     1
102
RTVSPost2010Prop57
140
1.0
102
RTVSPost2010PropOp57
 70
     1
  0
XRECORD
  5
1235
102
{ACAD_REACTORS
330
1234
102
}
330
1234
100
AcDbXrecord
280
     1
102
RTVSPost2010Prop28
280
     0
102
RTVSPost2010PropOp28
 70
     1
102
RTVSPost2010Prop29
280
     1
102
RTVSPost2010PropOp29
 70
     1
102
RTVSPost2010Prop30
280
     1
102
RTVSPost2010PropOp30
 70
     1
102
RTVSPost2010Prop31
280
     0
102
RTVSPost2010PropOp31
 70
     1
102
RTVSPost2010Prop32
280
     0
102
RTVSPost2010PropOp32
 70
     1
102
RTVSPost2010Prop33
280
     0
102
RTVSPost2010PropOp33
 70
     1
102
RTVSPost2010Prop34
280
     0
102
RTVSPost2010PropOp34
 70
     1
102
RTVSPost2010Prop35
280
     0
102
RTVSPost2010PropOp35
 70
     1
102
RTVSPost2010Prop36
280
     0
102
RTVSPost2010PropOp36
 70
     1
102
RTVSPost2010Prop37
 90
       50
102
RTVSPost2010PropOp37
 70
     1
102
RTVSPost2010Prop38
140
0.0
102
RTVSPost2010PropOp38
 70
     1
102
RTVSPost2010Prop39
140
1.0
102
RTVSPost2010PropOp39
 70
     1
102
RTVSPost2010Prop40
 90
        0
102
RTVSPost2010PropOp40
 70
     1
102
RTVSPost2010Prop41ColorIndex
 90
       18
102
RTVSPost2010Prop41ColorRGB
 90
        0
102
RTVSPost2010PropOp41
 70
     1
102
RTVSPost2010Prop42
 90
       50
102
RTVSPost2010PropOp42
 70
     1
102
RTVSPost2010Prop43
 90
        3
102
RTVSPost2010PropOp43
 70
     1
102
RTVSPost2010Prop44ColorIndex
 90
        5
102
RTVSPost2010Prop44ColorRGB
 90
      255
102
RTVSPost2010PropOp44
 70
     1
102
RTVSPost2010Prop45
280
     0
102
RTVSPost2010PropOp45
 70
     1
102
RTVSPost2010Prop46
 90
       50
102
RTVSPost2010PropOp46
 70
     1
102
RTVSPost2010Prop47
 90
       50
102
RTVSPost2010PropOp47
 70
     1
102
RTVSPost2010Prop48
 90
       50
102
RTVSPost2010PropOp48
 70
     1
102
RTVSPost2010Prop49
280
     0
102
RTVSPost2010PropOp49
 70
     1
102
RTVSPost2010Prop50
 90
       50
102
RTVSPost2010PropOp50
 70
     1
102
RTVSPost2010Prop51ColorIndex
 90
      256
102
RTVSPost2010Prop51ColorRGB
 90
-16777216
102
RTVSPost2010PropOp51
 70
     0
102
RTVSPost2010Prop52
140
1.0
102
RTVSPost2010PropOp52
 70
     0
102
RTVSPost2010Prop53
 90
        2
102
RTVSPost2010PropOp53
 70
     1
102
RTVSPost2010Prop54
  1
strokes_ogs.tif
102
RTVSPost2010PropOp54
 70
     1
102
RTVSPost2010Prop55
280
     0
102
RTVSPost2010PropOp55
 70
     1
102
RTVSPost2010Prop56
140
1.0
102
RTVSPost2010PropOp56
 70
     1
102
RTVSPost2010Prop57
140
1.0
102
RTVSPost2010PropOp57
 70
     1
  0
XRECORD
  5
1227
102
{ACAD_REACTORS
330
1226
102
}
330
1226
100
AcDbXrecord
280
     1
102
RTVSPost2010Prop28
280
     0
102
RTVSPost2010PropOp28
 70
     1
102
RTVSPost2010Prop29
280
     1
102
RTVSPost2010PropOp29
 70
     1
102
RTVSPost2010Prop30
280
     1
102
RTVSPost2010PropOp30
 70
     1
102
RTVSPost2010Prop31
280
     0
102
RTVSPost2010PropOp31
 70
     1
102
RTVSPost2010Prop32
280
     0
102
RTVSPost2010PropOp32
 70
     1
102
RTVSPost2010Prop33
280
     0
102
RTVSPost2010PropOp33
 70
     1
102
RTVSPost2010Prop34
280
     0
102
RTVSPost2010PropOp34
 70
     1
102
RTVSPost2010Prop35
280
     0
102
RTVSPost2010PropOp35
 70
     1
102
RTVSPost2010Prop36
280
     0
102
RTVSPost2010PropOp36
 70
     1
102
RTVSPost2010Prop37
 90
       50
102
RTVSPost2010PropOp37
 70
     1
102
RTVSPost2010Prop38
140
0.0
102
RTVSPost2010PropOp38
 70
     1
102
RTVSPost2010Prop39
140
1.0
102
RTVSPost2010PropOp39
 70
     1
102
RTVSPost2010Prop40
 90
        0
102
RTVSPost2010PropOp40
 70
     1
102
RTVSPost2010Prop41ColorIndex
 90
       18
102
RTVSPost2010Prop41ColorRGB
 90
        0
102
RTVSPost2010PropOp41
 70
     1
102
RTVSPost2010Prop42
 90
       50
102
RTVSPost2010PropOp42
 70
     1
102
RTVSPost2010Prop43
 90
        3
102
RTVSPost2010PropOp43
 70
     1
102
RTVSPost2010Prop44ColorIndex
 90
        5
102
RTVSPost2010Prop44ColorRGB
 90
      255
102
RTVSPost2010PropOp44
 70
     1
102
RTVSPost2010Prop45
280
     0
102
RTVSPost2010PropOp45
 70
     1
102
RTVSPost2010Prop46
 90
       50
102
RTVSPost2010PropOp46
 70
     1
102
RTVSPost2010Prop47
 90
       50
102
RTVSPost2010PropOp47
 70
     1
102
RTVSPost2010Prop48
 90
       50
102
RTVSPost2010PropOp48
 70
     1
102
RTVSPost2010Prop49
280
     0
102
RTVSPost2010PropOp49
 70
     1
102
RTVSPost2010Prop50
 90
       50
102
RTVSPost2010PropOp50
 70
     1
102
RTVSPost2010Prop51ColorIndex
 90
      256
102
RTVSPost2010Prop51ColorRGB
 90
-16777216
102
RTVSPost2010PropOp51
 70
     0
102
RTVSPost2010Prop52
140
1.0
102
RTVSPost2010PropOp52
 70
     0
102
RTVSPost2010Prop53
 90
        2
102
RTVSPost2010PropOp53
 70
     1
102
RTVSPost2010Prop54
  1
strokes_ogs.tif
102
RTVSPost2010PropOp54
 70
     1
102
RTVSPost2010Prop55
280
     0
102
RTVSPost2010PropOp55
 70
     1
102
RTVSPost2010Prop56
140
1.0
102
RTVSPost2010PropOp56
 70
     1
102
RTVSPost2010Prop57
140
1.0
102
RTVSPost2010PropOp57
 70
     1
  0
XRECORD
  5
1247
102
{ACAD_REACTORS
330
1246
102
}
330
1246
100
AcDbXrecord
280
     1
102
RTVSPost2010Prop28
280
     0
102
RTVSPost2010PropOp28
 70
     1
102
RTVSPost2010Prop29
280
     1
102
RTVSPost2010PropOp29
 70
     1
102
RTVSPost2010Prop30
280
     1
102
RTVSPost2010PropOp30
 70
     1
102
RTVSPost2010Prop31
280
     0
102
RTVSPost2010PropOp31
 70
     1
102
RTVSPost2010Prop32
280
     0
102
RTVSPost2010PropOp32
 70
     1
102
RTVSPost2010Prop33
280
     0
102
RTVSPost2010PropOp33
 70
     1
102
RTVSPost2010Prop34
280
     0
102
RTVSPost2010PropOp34
 70
     1
102
RTVSPost2010Prop35
280
     0
102
RTVSPost2010PropOp35
 70
     1
102
RTVSPost2010Prop36
280
     0
102
RTVSPost2010PropOp36
 70
     1
102
RTVSPost2010Prop37
 90
       50
102
RTVSPost2010PropOp37
 70
     1
102
RTVSPost2010Prop38
140
0.0
102
RTVSPost2010PropOp38
 70
     1
102
RTVSPost2010Prop39
140
1.0
102
RTVSPost2010PropOp39
 70
     1
102
RTVSPost2010Prop40
 90
        0
102
RTVSPost2010PropOp40
 70
     1
102
RTVSPost2010Prop41ColorIndex
 90
       18
102
RTVSPost2010Prop41ColorRGB
 90
        0
102
RTVSPost2010PropOp41
 70
     1
102
RTVSPost2010Prop42
 90
       50
102
RTVSPost2010PropOp42
 70
     1
102
RTVSPost2010Prop43
 90
        3
102
RTVSPost2010PropOp43
 70
     1
102
RTVSPost2010Prop44ColorIndex
 90
        5
102
RTVSPost2010Prop44ColorRGB
 90
      255
102
RTVSPost2010PropOp44
 70
     1
102
RTVSPost2010Prop45
280
     0
102
RTVSPost2010PropOp45
 70
     1
102
RTVSPost2010Prop46
 90
       50
102
RTVSPost2010PropOp46
 70
     1
102
RTVSPost2010Prop47
 90
       50
102
RTVSPost2010PropOp47
 70
     1
102
RTVSPost2010Prop48
 90
       50
102
RTVSPost2010PropOp48
 70
     1
102
RTVSPost2010Prop49
280
     0
102
RTVSPost2010PropOp49
 70
     1
102
RTVSPost2010Prop50
 90
       50
102
RTVSPost2010PropOp50
 70
     1
102
RTVSPost2010Prop51ColorIndex
 90
      256
102
RTVSPost2010Prop51ColorRGB
 90
-16777216
102
RTVSPost2010PropOp51
 70
     0
102
RTVSPost2010Prop52
140
1.0
102
RTVSPost2010PropOp52
 70
     0
102
RTVSPost2010Prop53
 90
        2
102
RTVSPost2010PropOp53
 70
     1
102
RTVSPost2010Prop54
  1
strokes_ogs.tif
102
RTVSPost2010PropOp54
 70
     1
102
RTVSPost2010Prop55
280
     0
102
RTVSPost2010PropOp55
 70
     1
102
RTVSPost2010Prop56
140
1.0
102
RTVSPost2010PropOp56
 70
     1
102
RTVSPost2010Prop57
140
1.0
102
RTVSPost2010PropOp57
 70
     1
  0
ENDSEC
  0
SECTION
  2
THUMBNAILIMAGE
 90
    17448
310
28000000800000008000000001000800000000000040000000000000000000000000000000000000FFFFFFFF0000FFFF00FFFFFF00FF00FFFFFF00FFFF0000FFFF00FFFF000000FF808080FFC0C0C0FF0000FFFF7F7FFFFF0000A5FF5252A5FF00007FFF3F3F7FFF00004CFF26264CFF000026FF131326FF003FFFFF7F9FFF
310
FF0029A5FF5267A5FF001F7FFF3F4F7FFF00134CFF262F4CFF000926FF131726FF007FFFFF7FBFFFFF0052A5FF527CA5FF003F7FFF3F5F7FFF00264CFF26394CFF001326FF131C26FF00BFFFFF7FDFFFFF007CA5FF5291A5FF005F7FFF3F6F7FFF00394CFF26424CFF001C26FF132126FF00FFFFFF7FFFFFFF00A5A5FF52A5
310
A5FF007F7FFF3F7F7FFF004C4CFF264C4CFF002626FF132626FF00FFBFFF7FFFDFFF00A57CFF52A591FF007F5FFF3F7F6FFF004C39FF264C42FF00261CFF132621FF00FF7FFF7FFFBFFF00A552FF52A57CFF007F3FFF3F7F5FFF004C26FF264C39FF002613FF13261CFF00FF3FFF7FFF9FFF00A529FF52A567FF007F1FFF3F
310
7F4FFF004C13FF264C2FFF002609FF132617FF00FF00FF7FFF7FFF00A500FF52A552FF007F00FF3F7F3FFF004C00FF264C26FF002600FF132613FF3FFF00FF9FFF7FFF29A500FF67A552FF1F7F00FF4F7F3FFF134C00FF2F4C26FF092600FF172613FF7FFF00FFBFFF7FFF52A500FF7CA552FF3F7F00FF5F7F3FFF264C00FF
310
394C26FF132600FF1C2613FFBFFF00FFDFFF7FFF7CA500FF91A552FF5F7F00FF6F7F3FFF394C00FF424C26FF1C2600FF212613FFFFFF00FFFFFF7FFFA5A500FFA5A552FF7F7F00FF7F7F3FFF4C4C00FF4C4C26FF262600FF262613FFFFBF00FFFFDF7FFFA57C00FFA59152FF7F5F00FF7F6F3FFF4C3900FF4C4226FF261C00
310
FF262113FFFF7F00FFFFBF7FFFA55200FFA57C52FF7F3F00FF7F5F3FFF4C2600FF4C3926FF261300FF261C13FFFF3F00FFFF9F7FFFA52900FFA56752FF7F1F00FF7F4F3FFF4C1300FF4C2F26FF260900FF261713FFFF0000FFFF7F7FFFA50000FFA55252FF7F0000FF7F3F3FFF4C0000FF4C2626FF260000FF261313FFFF00
310
3FFFFF7F9FFFA50029FFA55267FF7F001FFF7F3F4FFF4C0013FF4C262FFF260009FF261317FFFF007FFFFF7FBFFFA50052FFA5527CFF7F003FFF7F3F5FFF4C0026FF4C2639FF260013FF26131CFFFF00BFFFFF7FDFFFA5007CFFA55291FF7F005FFF7F3F6FFF4C0039FF4C2642FF26001CFF261321FFFF00FFFFFF7FFFFFA5
310
00A5FFA552A5FF7F007FFF7F3F7FFF4C004CFF4C264CFF260026FF261326FFBF00FFFFDF7FFFFF7C00A5FF9152A5FF5F007FFF6F3F7FFF39004CFF42264CFF1C0026FF211326FF7F00FFFFBF7FFFFF5200A5FF7C52A5FF3F007FFF5F3F7FFF26004CFF39264CFF130026FF1C1326FF3F00FFFF9F7FFFFF2900A5FF6752A5FF
310
1F007FFF4F3F7FFF13004CFF2F264CFF090026FF171326FF000000FF2D2D2DFF5B5B5BFF898989FFB7B7B7FFB3B3B3FF00000000000000000000000000000000000000000000000000000000000000000000000000000000000000000000000000000000000000000000000000000000000000000000000000000000000000
310
00000000000000000000000000000000000000000000000000000000000000000000000000000000000000000000000000000000000000000000000000000000000000000000000000000000000000000000000000000000000000000000000000000000000000000000000000000000000000000000000000000000000000
310
00000000000000000000000000000000000000000000000000000000000000000000000000000000000000000000000000000000000000000000000000000000000000000000000000000000000000000000000000000000000000000000000000000000000000000000000000000000000000000000000000000000000000
310
00000000000000000000000000000000000000000000000000000000000000000000000000000000000000000000000000000000000000000000000000000000000000000000000000000000000000000000000000070707070707070707070707070707070707070707070707070707070707070707070707070707070707
310
07070707070707070707070707070707070707070707070707070707070707070707070707070707070707070707070707070707000000000000000000000000000000000000000000000000000000000000000000000700000000000000000000000000000000000000000000000000000000000000000000000000000000
310
00000000000000000000000000000000000000000000000000000000000000000000000000000000000000000000000000000000000000000000000000000000000000000000000000000000000000000000000000000007000000000000000000000000000000000000000000000000000000000000000000000000000000
310
00000000000000000000000000000000000000000000000000000000000000000000000000000000000000000000000000000000000000000000000000000000000000000000000000000000000000000000000000000000070000000000000000000000000000000000000000000000000000000000000000000000000000
310
00000000000000000000000000000000000000000000000000000000000000000000000000000000000000000000000000000000000000000000000000000000000000000000000000000000000000000000000000000000000700000000000000000000000000000000000000000000000000000000000000000000000000
310
00000000000000000000000000000000000000000000000000000000000000000000000000000000000000000000000000000000000000000000000000000000000000000000000000000000000000000000000000000000000007000000000000000000000000000000000000000000000000000000000000000000000000
310
00000000000000000000000000000000000000000000000000000000000000000000000000000000000000000000000000000000000000000000000000000000000000000000000000000000000000000000000000000000000000070000000000000000000000000000000000000000000000000000000000000000000000
310
00000000000000000000000000000000000000000000000000000000000000000000000000000000000000000000000000000000000000000000000000000000000000000000000000000000000000000000000000000000000000000700000000000000000000000000000000000000000000000000000000000000000000
310
00000000000000000000000000000000000000000000000000000000000000000000000000000000000000000000000000000000000000000000000000000000000000000000000000000000000000000000000000000000000000000007000000000000000000000000000000000000000000000000000000000000000000
310
00000000000000000000000000000000000000000000000000000000000000000000000000000000000000000000000000000000000000000000000000000000000000000000000000000000000000000000000000000000000000000000070000000000000000000000000000000000000000000000000000000000000000
310
00000000000000000000000000000000000000000000000000000000000000000000000000000000000000000000000000000000000000000000000000000000000000000000000000000000000000000000000000000000000000000000000700000000000000000000000000000000000000000000000000000000000000
310
00000000000000000000000000000000000000000000000000000000000000000000000000000000000000000000000000000000000000000000000000000000000000000000000000000000000000000000000000000000000000000000000007000000000000000000000000000000000000000000000000000000000000
310
00000000000000000000000000000000000000000000000000000000000000000000000000000000000000000000000000000000000000000000000000000000000000000000000000000000000000000000000000000000000000000000000000070000000000000000000000000000000000000000000000000000000000
310
00000000000000000000000000000000000000000000000000000000000000000000000000000000000000000000000000000000000000000000000000000000000000000000000000000000000000000000000000000000000000000000000000000700000000000000000000000000000000000000000000000000000000
310
00000000000000000000000000000000000000000000000000000000000000000000000000000000000000000000000000000000000000000000000000000000000000000000000000000000000000000000000000000000000000000000000000000007000000000000000000000000000000000000000000000000000000
310
00000000000000000000000000000000000000000000000000000000000000000000000000000000000000000000000000000000000000000000000000000000000000000000000000000000000000000000000000000000000000000000000000000000070000000000000000000000000000000000000000000000000000
310
00000000000000000000000000000000000000000000000000000000000000000000000000000000000000000000000000000000000000000000000000000000000000000000000000000000000000000000000000000000000000000000000000000000000700000000000000000000000000000000000000000000000000
310
00000000000000000000000000000000000000000000000000000000000000000000000000000000000000000000000000000000000000000000000000000000000000000000000000000000000000000000000000000000000000000000000000000000000007000000000000000000000000000000000000000000000000
310
00000000000000000000000000000000000000000000000000000000000000000000000000000000000000000000000000000000000000000000000000000000000000000000000000000000000000000000000000000000000000000000000000000000000000070000000000000000000000000000000000000000000000
310
00000000000000000000000000000000000000000000000000000000000000000000000000000000000000000000000000000000000000000000000000000000000000000000000000000000000000000000000000000000000000000000000000000000000000000700000000000000000000000000000000000000000000
310
00000000000000000000000000000000000000000000000000000000000000000000000000000000000000000000000000000000000000000000000000000000000000000000000000000000000000000000000000000000000000000000000000000000000000000007000000000000000000000000000000000000000000
310
00000000000000000000000000000000000000000000000000000000000000000000000000000000000000000000000000000000000000000000000000000000000000000000000000000000000000000000000000000000000000000000000000000000000000000000070000000000000000000000000000000000000000
310
00000000000000000000000000000000000000000000000000000000000000000000000000000000000000000000000000000000000000000000000000000000000000000000000000000000000000000000000000000000000000000000000000000000000000000000000700000000000000000000000000000000000000
310
00000000000000000000000000000000000000000000000000000000000000000000000000000000000000000000000000000000000000000000000000000000000000000000000000000000000000000000000000000000000000000000000000000000000000000000000007000000000000000000000000000000000000
310
00000000000000000000000000000000000000000000000000000000000000000000000000000000000000000000000000000000000000000000000000000000000000000000000000000000000000000000000000000000000000000000000000000000000000000000000000070000000000000000000000000000000000
310
00000000000000000000000000000000000000000000000000000000000000000000000000000000000000000000000000000000000000000000000000000000000000000000000000000000000000000000000000000000000000000000000000000000000000000000000000000700000000000000000000000000000000
310
00000000000000000000000000000000000000000000000000000000000000000000000000000000000000000000000000000000000000000000000000000000000000000000000000000000000000000000000000000000000000000000000000000000000000000000000000000007000000000000000000000000000000
310
00000000000000000000000000000000000000000000000000000000000000000000000000000000000000000000000000000000000000000000000000000000000000000000000000000000000000000000000000000000000000000000000000000000000000000000000000000000070000000000000000000000000000
310
00000000000000000000000000000000000000000000000000000000000000000000000000000000000000000000000000000000000000000000000000000000000000000000000000000000000000000000000000000000000000000000000000000000000000000000000000000000000700000000000000000000000000
310
00000000000000000000000000000000000000000000000000000000000000000000000000000000000000000000000000000000000000000000000000000000000000000000000000000000000000000000000000000000000000000000000000000000000000000000000000000000000007000000000000000000000000
310
00000000000000000000000000000000000000000000000000000000000000000000000000000000000000000000000000000000000000000000000000000000000000000000000000000000000000000000000000000000000000000000000000000000000000000000000000000000000000070000000000000000000000
310
00000000000000000000000000000000000000000000000000000000000000000000000000000000000000000000000000000000000000000000000000000000000000000000000000000000000000000000000000000000000000000000000000000000000000000000000000000000000000000700000000000000000000
310
00000000000000000000000000000000000000000000000000000000000000000000000000000000000000000000000000000000000000000000000000000000000000000000000000000000000000000000000000000000000000000000000000000000000000000000000000000000000000000007000000000000000000
310
00000000000000000000000000000000000000000000000000000000000000000000000000000000000000000000000000000000000000000000000000000000000000000000000000000000000000000000000000000000000000000000000000000000000000000000000000000000000000000000070000000000000000
310
00000000000000000000000000000000000000000000000000000000000000000000000000000000000000000000000000000000000000000000000000000000000000000000000000000000000000000000000000000000000000000000000000000000000000000000000000000000000000000000000700000000000000
310
00000000000000000000000000000000000000000000000000000000000000000000000000000000000000000000000000000000000000000000000000000000000000000000000000000000000000000000000000000000000000000000000000000000000000000000000000000000000000000000000007000000000000
310
00000000000000000000000000000000000000000000000000000000000000000000000000000000000000000000000000000000000000000000000000000000000000000000000000000000000000000000000000000000000000000000000000000000000000000000000000000000000000000000000000070000000000
310
00000000000000000000000000000000000000000000000000000000000000000000000000000000000000000000000000000000000000000000000000000000000000000000000000000000000000000000000000000000000000000000000000000000000000000000000000000000000000000000000000000700000000
310
00000000000000000000000000000000000000000000000000000000000000000000000000000000000000000000000000000000000000000000000000000000000000000000000000000000000000000000000000000000000000000000000000000000000000000000000000000000000000000000000000000007000000
310
00000000000000000000000000000000000000000000000000000000000000000000000000000000000000000000000000000000000000000000000000000000000000000000000000000000000000000000000000000000000000000000000000000000000000000000000000000000000000000000000000000000070000
310
00000000000000000000000000000000000000000000000000000000000000000000000000000000000000000000000000000000000000000000000000000000000000000000000000000000000000000000000000000000000000000000000000000000000000000000000000000000000000000000000000000000000700
310
00000000000000000000000000000000000000000000000000000000000000000000000000000000000000000000000000000000000000000000000000000000000000000000000000000000000000000000000000000000000000000000000000000000000000000000000000000000000000000000000000000000000007
310
00000000000000000000000000000000000000000000000000000000000000000000000000000000000000000000000000000000000000000000000000000000000000000000000000000000000000000000000000000000000000000000000000000000000000000000000000000000000000000000000000000000000000
310
07000000000000000000000000000000000000000000000000000000000000000000000000000000000000000000000000000000000000000000000000000000000000000000000000000000000000000000000000000000000000000000000000000000000000000000000000000000000000000000000000000000000000
310
00070000000000000000000000000000000000000000000000000000000000000000000000000000000000000000000000000000000000000000000000000000000000000000000000000000000000000000000000000000000000000000000000000000000000000000000000000000000000000000000000000000000000
310
00000700000000000000000000000000000000000000000000000000000000000000000000000000000000000000000000000000000000000000000000000000000000000000000000000000000000000000000000000000000000000000000000000000000000000000000000000000000000000000000000000000000000
310
00000007000000000000000000000000000000000000000000000000000000000000000000000000000000000000000000000000000000000000000000000000000000000000000000000000000000000000000000000000000000000000000000000000000000000000000000000000000000000000000000000000000000
310
00000000070000000000000000000000000000000000000000000000000000000000000000000000000000000000000000000000000000000000000000000000000000000000000000000000000000000000000000000000000000000000000000000000000000000000000000000000000000000000000000000000000000
310
00000000000700000000000000000000000000000000000000000000000000000000000000000000000000000000000000000000000000000000000000000000000000000000000000000000000000000000000000000000000000000000000000000000000000000000000000000000000000000000000000000000000000
310
00000000000007000000000000000000000000000000000000000000000000000000000000000000000000000000000000000000000000000000000000000000000000000000000000000000000000000000000000000000000000000000000000000000000000000000000000000000000000000000000000000000000000
310
00000000000000070000000000000000000000000000000000000000000000000000000000000000000000000000000000000000000000000000000000000000000000000000000000000000000000000000000000000000000000000000000000000000000000000000000000000000000000000000000000000000000000
310
00000000000000000700000000000000000000000000000000000000000000000000000000000000000000000000000000000000000000000000000000000000000000000000000000000000000000000000000000000000000000000000000000000000000000000000000000000000000000000000000000000000000000
310
00000000000000000007000000000000000000000000000000000000000000000000000000000000000000000000000000000000000000000000000000000000000000000000000000000000000000000000000000000000000000000000000000000000000000000000000000000000000000000000000000000000000000
310
00000000000000000000070000000000000000000000000000000000000000000000000000000000000000000000000000000000000000000000000000000000000000000000000000000000000000000000000000000000000000000000000000000000000000000000000000000000000000000000000000000000000000
310
00000000000000000000000700000000000000000000000000000000000000000000000000000000000000000000000000000000000000000000000000000000000000000000000000000000000000000000000000000000000000000000000000000000000000000000000000000000000000000000000000000000000000
310
00000000000000000000000007000000000000000000000000000000000000000000000000000000000000000000000000000000000000000000000000000000000000000000000000000000000000000000000000000000000000000000000000000000000000000000000000000000000000000000000000000000000000
310
0000000000000000000000000007000000000000000000000000000000000000000000000000000000000000020202020202020202023C3C02020202023C023C020202023C3C023C47023C470202020202023C3C3C3C02020202023C3C02023C02020000000000000000000000000000000000000000000000000000000000
310
00000000000000000000000000000700000000000000000000000000000000000000000000000000000000000002000404040404040404040404040404040404040404838304040404048304040483040404040404040483048383040404040404000200000000000000000000000000000000000000000000000000000000
310
00000000000000000000000000000007000000000000000000000000000000000000000000000000000000000000020004040404040404040404040404040404040404048383040404040400040404040483040404040404040404040404040404048302000000000000000000000000000000000000000000000000000000
310
00000000000000000000000000000000070000000000000000000000000000000000000000000000000000000000000202463C3C3C02463C5B5B5146463C3C465B515B465B46025B3C514751023C47513C51023C515B5B513C51023C515B5B5B51515B02020000000000000000000000000000000000000000000000000000
310
00000000000000000000000000000000000700000000000000000000000000000000000000000000000000000000000002000404040404040404040404040404040404040404048300000000000000000000000000000000000000000000000000000000000200000000000000000000000000000000000000000000000000
310
00000000000000000000000000000000000007000000000000000000000000000000000000000000000000000000000000020004040404040404048304040404040483040483040404000000000000000000000000000000000000000000000000000000000002000000000000000000000000000000000000000000000000
310
000000000000000000000000000000000000000700000000000000000000000000000000000000000000000000000000000002023C3C3C3C3C3C3C3C3C3C463C3C3C51473C3C02023C3C0202020202020202020202020202020202020202020202020202020202020000000000000000000000000000000000000000000000
310
00000000000000000000000000000000000000000700000000000000000000000000000000000000000000000000000000000002008383040404830483048304040404040483000000000000000000000000000000000000000000000000000000000000000000000200000000000000000000000000000000000000000000
310
00000000000000000000000000000000000000000007000000000000000000000000000000000000000000000000000000000000020083040483040404830483040404040483000000000000000000000000000000000000000000000000000000000000000000000002000000000000000000000000000000000000000000
310
0000000000000000000000000000000000000000000007000000000000000000000000000000000000000000000000000000000000020202023C02023C3C0247020202023C02020202020202020202020202020202020202020202020202020202020202020202020202020000000000000000000000000000000000000000
310
00000000000000000000000000000000000000000000000700000000000000000000000000000000000000000000000000000000000002000000000000000000000000000000000000000000000000000000000000000000000000000000000000000000000000000000000200000000000000000000000000000000000000
310
00000000000000000000000000000000000000000000000007000000000000000000000000000000000000000000000000000000000000020000000000000000000000000000000000000000000000000000000000000000000000000000000000000000000000000000000002000000000000000000000000000000000000
310
00000000000000000000000000000000000000000000000000070000000000000000000000000000000000000000000000000000000000000200000000000000000000000000000000000000000000000000000000000000000000000000000000000000000000000000000000020000000000000000000000000000000000
310
00000000000000000000000000000000000000000000000000000700000000000000000000000000000000000000000000000000000000000002000000000000000000000000000000000000000000000000000000000000000000000000000000000000000000000000000000000200000000000000000000000000000000
310
00000000000000000000000000000000000000000000000000000007000000000000000000000000000000000000000000000000000000000000020000000000000000000000000000000000000000000000000000000000000000000000000000000000000000000000000000000002000000000000000000000000000000
310
00000000000000000000000000000000000000000000000000000000070000000000000000000000000000000000000000000000000000000000000200000000000000000000000000000000000000000000000000000000000000000000000000000000000000000000000000000000020000000000000000000000000000
310
00000000000000000000000000000000000000000000000000000000000700000000000000000000000000000000000000000000000000000000000002000000000000000000000000000000000000000000000000000000000000000000000000000000000000000000000000000000000200000000000000000000000000
310
00000000000000000000000000000000000000000000000000000000000007000000000000000000000000000000000000000000000000000000000000020000000000000000000000000000000000000000000000000000000000000000000000000000000000000000000000000000000002000000000000000000000000
310
00000000000000000000000000000000000000000000000000000000000000070000000000000000000000000000000000000000000000000000000000000200000000000000000000000000000000000000000000000000000000000000000000000000000000000000000000000000000000020000000000000000000000
310
00000000000000000000000000000000000000000000000000000000000000000700000000000000000000000000000000000000000000000000000000000002000000000000000000000000000000000000000000000606060606060606000000000000000000000000000000000000000000000200000000000000000000
310
00000000000000000000000000000000000000000000000000000000000000000007000000000000000000000000000000000000000000000000000000000000020000000000000000000000000000000000000000000606060606060606060600000000000000000000000000000000000000000002000000000000000000
310
00000000000000000000000000000000000000000000000000000000000000000000070000000000000000000000000000000000000000000000000000000000000200000000000000000000000000000000000000000606060606060606060606060000000000000000000000000000000000000000020000000000000000
310
00000000000000000000000000000000000000000000000000000000000000000000000700000000000000000000000000000000000000000000000000000000000002000000000000000000000000000000000000000606060606060606060606060606000000000000000000000000000000000000000200000000000000
310
00000000000000000000000000000000000000000000000000000000000000000000000007000000000000000000000000000000000000000000000000000000000000020000000000000000000000000000000000000006060606060606060606060606060000000000000000000000000000000000000002000000000000
310
00000000000000000000000000000000000000000000000000000000000000000000000000070000000000000000000000000000000000000000000000000000000000000200000000000000000000000000000000000000060606060606060606060606060600000000000000000000000000000000000000020000000000
310
00000000000000000000000000000000000000000000000000000000000000000000000000000700000000000000000000000000000000000000000000000000000000000002000000000000000000000000000000000000000606060606060600060606060606000000000000000000000000000000000000000200000000
310
00000000000000000000000000000000000000000000000000000000000000000000000000000007000000000000000000000000000000000000000000000000000000000000020000000000000000000000000000000000000606060606060606060606060606060600000000000000000000000000000000000002000000
310
00000000000000000000000000000000000000000000000000000000000000000000000000000000070000000000000000000000000000000000000000000000000000000000000200000000000000000000000000000000000000060606060606060606060606060600000000000000000000000000000000000000020000
310
00000000000000000000000000000000000000000000000000000000000000000000000000000000000700000000000000000000000000000000000000000000000000000000000002000000000000000000000000000000000000000606060606060606060606060606000000000000000000000000000000000000000200
310
00000000000000000000000000000000000000000000000000000000000000000000000000000000000007000000000000000000000000000000000000000000000000000000000000020000000000000000000000000000000000000006060606060606060606060606060000000000000000000000000000000000000002
310
00000000000000000000000000000000000000000000000000000000000000000000000000000000000000070000000000000000000000000000000000000000000000000000000000000200000000000000000000000000000000000000000606060606060606060606060000000000000000000000000000000000000000
310
02000000000000000000000000000000000000000000000000000000000000000000000000000000000000000700000000000000000000000000000000000000000000000000000000000002000000000000000000000000000000000000000006060606060606060606060000000000000000000000000000000000000000
310
00020000000000000000000000000000000000000000000000000000000000000000000000000000000000000007000000000000000000000000000000000000000000000000000000000000020000000000000000000000000000000000000000000606060606060606060000000000000000000000000000000000000000
310
00000200000000000000000000000000000000000000000000000000000000000000000000000000000000000000070000000000000000000000000000000000000000000000000000000000000200000000000000000000000000000000000000000000060606060606060600000000000000000000000000000000000000
310
00000002000000000000000000000000000000000000000000000000000000000000000000000000000000000000000700000000000000000000000000000000000000000000000000000000000002000000000000000000000000000000000000000000000000060606060000000000000000000000000000000000000000
310
00000000020000000000000000000000000000000000000000000000000000000000000000000000000000000000000007000000000000000000000000000000000000000000000000000000000000020000000000000000000000000000000000000000000000000606060600000000000000000000000000000000000000
310
00000000000200000000000000000000000000000000000000000000000000000000000000000000000000000000000000070000000000000000000000000000000000000000000000000000000000000200000000000000000000000000000000000000000000000006060606000000000000000000000000000000000000
310
00000000000002000000000000000000000000000000000000000000000000000000000000000000000000000000000000000700000000000000000000000000000000000000000000000000000000000002000000000000000000000000000000000000000000000000060606060000000000000000000000000000000000
310
00000000000000020000000000000000000000000000000000000000000000000000000000000000000000000000000000000007000000000000000000000000000000000000000000000000000000000000020000000000000000000000000000000000000000000000000006060000000000000000000000000000000000
310
00000000000000000200000000000000000000000000000000000000000000000000000000000000000000000000000000000000070000000000000000000000000000000000000000000000000000000000000200000000000000000000000000000000000000000000000000060600000000000000000000000000000000
310
00000000000000000002000000000000000000000000000000000000000000000000000000000000000000000000000000000000000700000000000000000000000000000000000000000000000000000000000002000000000000000000000000000000000000000000000000000606000000000000000000000000000000
310
00000000000000000000020000000000000000000000000000000000000000000000000000000000000000000000000000000000000007000000000000000000000000000000000000000000000000000000000000020000000000000000000000000000000000000000000000000006060000000000000000000000000000
310
00000000000000000000000200000000000000000000000000000000000000000000000000000000000000000000000000000000000000070000000000000000000000000000000000000000000000000000000000000200000000000000000000000000000000000000000000000000060600000000000000000000000000
310
00000000000000000000000002000000000000000000000000000000000000000000000000000000000000000000000000000000000000000700000000000000000000000000000000000000000000000000000000000002000000000000000000000000000000000000000000000000000000000000000000000000000000
310
00000000000000000000000000020000000000000000000000000000000000000000000000000000000000000000000000000000000000000007000000000000000000000000000000000000000000000000000000000000020000000000000000000000000000000000000000000000000006060000000000000000000000
310
00000000000000000000000000000200000000000000000000000000000000000000000000000000000000000000000000000000000000000000070000000000000000000000000000000000000000000000000000000000000200000000000000000000000000000000000000000000000000060600000000000000000000
310
00000000000000000000000000000002000000000000000000000000000000000000000000000000000000000000000000000000000000000000000700000000000000000000000000000000000000000000000000000000000002000000000000000000000000000000000000000000000000000606000000000000000000
310
00000000000000000000000000000000020000000000000000000000000000000000000000000000000000000000000000000000000000000000000007000000000000000000000000000000000000000000000000000000000000020000000000000000000000000000000000000000000000000006060000000000000000
310
00000000000000000000000000000000000200000000000000000000000000000000000000000000000000000000000000000000000000000000000000070000000000000000000000000000000000000000000000000000000000000200000000000000000000000000000000000000000000000000060600000000000000
310
00000000000000000000000000000000000002000000000000000000000000000000000000000000000000000000000000000000000000000000000000000700000000000000000000000000000000000000000000000000000000000002000000000000000000000000000000000000000000000000000606000000000000
310
00000000000000000000000000000000000000020000000000000000000000000000000000000000000000000000000000000000000000000000000000000007000000000000000000000000000000000000000000000000000000000000020000000000000000000000000000000000000000000000000006060000000000
310
00000000000000000000000000000000000000000200000000000000000000000000000000000000000000000000000000000000000000000000000000000000070000000000000000000000000000000000000000000000000000000000000200000000000000000000000000000000000000000000000006000006000000
310
00000000000000000000000000000000000000000002000000000000000000000000000000000000000000000000000000000000000000000000000000000000000700000000000000000000000000000000000000000000000000000000000002000000000000000000000000000000000000000000000000000606000000
310
00000000000000000000000000000000000000000000020000000000000000000000000000000000000000000000000000000000000000000000000000000000000007000000000000000000000000000000000000000000000000000000000000020000000000000000000000000000000000000000000000000000000000
310
00000000000000000000000000000000000000000000000200000000000000000000000000000000000000000000000000000000000000000000000000000000000000070000000000000000000000000000000000000000000000000000000000000200000000000000000000000000000000000000000000000000000000
310
00000000000000000000000000000000000000000000000002000000000000000000000000000000000000000000000000000000000000000000000000000000000000000700000000000000000000000000000000000000000000000000000000000002000000000000000000000000000000000000000000000000000000
310
00000000000000000000000000000000000000000000000000020000000000000000000000000000000000000000000000000000000000000000000000000000000000000007000000000000000000000000000000000000000000000000000000000000020000000000000000000000000000000000000000000000000000
310
00000000000000000000000000000000000000000000000000000200000000000000000000000000000000000000000000000000000000000000000000000000000000000000070000000000000000000000000000000000000000000000000000000000000200000000000000000000000000000000000000000000000000
310
00000000000000000000000000000000000000000000000000000002000000000000000000000000000000000000000000000000000000000000000000000000000000000000000700000000000000000000000000000000000000000000000000000000000002000000000000000000000000000000000000000000000000
310
00000000000000000000000000000000000000000000000000000000020000000000000000000000000000000000000000000000000000000000000000000000000000000000000007000000000000000000000000000000000000000000000000000000000000020000000000000000000000000000000000000000000000
310
00000000000000000000000000000000000000000000000000000000000200000000000000000000000000000000000000000000000000000000000000000000000000000000000000070000000000000000000000000000000000000000000000000000000000000200000000000000000000000000000000000000000000
310
00000000000000000000000000000000000000000000000000000000000002000000000000000000000000000000000000000000000000000000000000000000000000000000000000000700000000000000000000000000000000000000000000000000000000000002000000000000000000000000000000000000000000
310
00000000000000000000000000000000000000000000000000000000000000020000000000000000000000000000000000000000000000000000000000000000000000000000000000000007000000000000000000000000000000000000000000000000000000000000020000000000000000000000000000000000000000
310
00000000000000000000000000000000000000000000000000000000000000000200000000000000000000000000000000000000000000000000000000000000000000000000000000000000070000000000000000000000000000000000000000000000000000000000000202020202020202020202020202020202020202
310
02020202020202020202020202020202020202020202020202020202020202020202000000000000000000000000000000000000000000000000000000000000000000000000000000000000000700000000000000000000000000000000000000000000000000000000000000000000000000000000000000000000000000
310
00000000000000000000000000000000000000000000000000000000000000000000000000000000000000000000000000000000000000000000000000000000000000000000000000000000000007000000000000000000000000000000000000000000000000000000000000000000000000000000000000000000000000
310
00000000000000000000000000000000000000000000000000000000000000000000000000000000000000000000000000000000000000000000000000000000000000000000000000000000000000070000000000000000000000000000000000000000000000000000000000000000000000000000000000000000000000
310
00000000000000000000000000000000000000000000000000000000000000000000000000000000000000000000000000000000000000000000000000000000000000000000000000000000000000000700000000000000000000000000000000000000000000000000000000000000000000000000000000000000000000
310
00000000000000000000000000000000000000000000000000000000000000000000000000000000000000000000000000000000000000000000000000000000000000000000000000000000000000000007000000000000000000000000000000000000000000000000000000000000000000000000000000000000000000
310
00000000000000000000000000000000000000000000000000000000000000000000000000000000000000000000000000000000000000000000000000000000000000000000000000000000000000000000070000000000000000000000000000000000000000000000000000000000000000000000000000000000000000
310
00000000000000000000000000000000000000000000000000000000000000000000000000000000000000000000000000
  0
ENDSEC
  0
EOF
