  0
SECTION
  2
HEADER
  9
$ACADVER
  1
AC1032
  9
$ACADMAINTVER
 90
      228
  9
$DWGCODEPAGE
  3
ANSI_932
  9
$REQUIREDVERSIONS
160
                 0
  9
$INSBASE
 10
0.0
 20
0.0
 30
0.0
  9
$EXTMIN
 10
1.000000000000000E+20
 20
1.000000000000000E+20
 30
1.000000000000000E+20
  9
$EXTMAX
 10
-1.000000000000000E+20
 20
-1.000000000000000E+20
 30
-1.000000000000000E+20
  9
$LIMMIN
 10
0.0
 20
0.0
  9
$LIMMAX
 10
12.0
 20
9.0
  9
$ORTHOMODE
 70
     0
  9
$REGENMODE
 70
     1
  9
$FILLMODE
 70
     1
  9
$QTEXTMODE
 70
     0
  9
$MIRRTEXT
 70
     0
  9
$LTSCALE
 40
1.0
  9
$ATTMODE
 70
     1
  9
$TEXTSIZE
 40
0.2
  9
$TRACEWID
 40
0.05
  9
$TEXTSTYLE
  7
Standard
  9
$CLAYER
  8
0
  9
$CELTYPE
  6
ByLayer
  9
$CECOLOR
 62
   256
  9
$CELTSCALE
 40
1.0
  9
$DISPSILH
 70
     0
  9
$DIMSCALE
 40
1.0
  9
$DIMASZ
 40
0.18
  9
$DIMEXO
 40
0.0625
  9
$DIMDLI
 40
0.38
  9
$DIMRND
 40
0.0
  9
$DIMDLE
 40
0.0
  9
$DIMEXE
 40
0.18
  9
$DIMTP
 40
0.0
  9
$DIMTM
 40
0.0
  9
$DIMTXT
 40
0.18
  9
$DIMCEN
 40
0.09
  9
$DIMTSZ
 40
0.0
  9
$DIMTOL
 70
     0
  9
$DIMLIM
 70
     0
  9
$DIMTIH
 70
     1
  9
$DIMTOH
 70
     1
  9
$DIMSE1
 70
     0
  9
$DIMSE2
 70
     0
  9
$DIMTAD
 70
     0
  9
$DIMZIN
 70
     0
  9
$DIMBLK
  1

  9
$DIMASO
 70
     1
  9
$DIMSHO
 70
     1
  9
$DIMPOST
  1

  9
$DIMAPOST
  1

  9
$DIMALT
 70
     0
  9
$DIMALTD
 70
     2
  9
$DIMALTF
 40
25.4
  9
$DIMLFAC
 40
1.0
  9
$DIMTOFL
 70
     0
  9
$DIMTVP
 40
0.0
  9
$DIMTIX
 70
     0
  9
$DIMSOXD
 70
     0
  9
$DIMSAH
 70
     0
  9
$DIMBLK1
  1

  9
$DIMBLK2
  1

  9
$DIMSTYLE
  2
Standard
  9
$DIMCLRD
 70
     0
  9
$DIMCLRE
 70
     0
  9
$DIMCLRT
 70
     0
  9
$DIMTFAC
 40
1.0
  9
$DIMGAP
 40
0.09
  9
$DIMJUST
 70
     0
  9
$DIMSD1
 70
     0
  9
$DIMSD2
 70
     0
  9
$DIMTOLJ
 70
     1
  9
$DIMTZIN
 70
     0
  9
$DIMALTZ
 70
     0
  9
$DIMALTTZ
 70
     0
  9
$DIMUPT
 70
     0
  9
$DIMDEC
 70
     4
  9
$DIMTDEC
 70
     4
  9
$DIMALTU
 70
     2
  9
$DIMALTTD
 70
     2
  9
$DIMTXSTY
  7
Standard
  9
$DIMAUNIT
 70
     0
  9
$DIMADEC
 70
     0
  9
$DIMALTRND
 40
0.0
  9
$DIMAZIN
 70
     0
  9
$DIMDSEP
 70
    46
  9
$DIMATFIT
 70
     3
  9
$DIMFRAC
 70
     0
  9
$DIMLDRBLK
  1

  9
$DIMLUNIT
 70
     2
  9
$DIMLWD
 70
    -2
  9
$DIMLWE
 70
    -2
  9
$DIMTMOVE
 70
     0
  9
$DIMFXL
 40
1.0
  9
$DIMFXLON
 70
     0
  9
$DIMJOGANG
 40
0.7853981633974483
  9
$DIMTFILL
 70
     0
  9
$DIMTFILLCLR
 70
     0
  9
$DIMARCSYM
 70
     0
  9
$DIMLTYPE
  6

  9
$DIMLTEX1
  6

  9
$DIMLTEX2
  6

  9
$DIMTXTDIRECTION
 70
     0
  9
$LUNITS
 70
     2
  9
$LUPREC
 70
     4
  9
$SKETCHINC
 40
0.1
  9
$FILLETRAD
 40
0.0
  9
$AUNITS
 70
     0
  9
$AUPREC
 70
     0
  9
$MENU
  1
.
  9
$ELEVATION
 40
0.0
  9
$PELEVATION
 40
0.0
  9
$THICKNESS
 40
0.0
  9
$LIMCHECK
 70
     0
  9
$CHAMFERA
 40
0.0
  9
$CHAMFERB
 40
0.0
  9
$CHAMFERC
 40
0.0
  9
$CHAMFERD
 40
0.0
  9
$SKPOLY
 70
     0
  9
$TDCREATE
 40
2460063.633622685
  9
$TDUCREATE
 40
2460063.258622685
  9
$TDUPDATE
 40
2460063.633622685
  9
$TDUUPDATE
 40
2460063.258622685
  9
$TDINDWG
 40
0.0000000000
  9
$TDUSRTIMER
 40
0.0000000000
  9
$USRTIMER
 70
     1
  9
$ANGBASE
 50
0.0
  9
$ANGDIR
 70
     0
  9
$PDMODE
 70
     0
  9
$PDSIZE
 40
0.0
  9
$PLINEWID
 40
0.0
  9
$SPLFRAME
 70
     0
  9
$SPLINETYPE
 70
     6
  9
$SPLINESEGS
 70
     8
  9
$HANDSEED
  5
2D3
  9
$SURFTAB1
 70
     6
  9
$SURFTAB2
 70
     6
  9
$SURFTYPE
 70
     6
  9
$SURFU
 70
     6
  9
$SURFV
 70
     6
  9
$UCSBASE
  2

  9
$UCSNAME
  2

  9
$UCSORG
 10
0.0
 20
0.0
 30
0.0
  9
$UCSXDIR
 10
1.0
 20
0.0
 30
0.0
  9
$UCSYDIR
 10
0.0
 20
1.0
 30
0.0
  9
$UCSORTHOREF
  2

  9
$UCSORTHOVIEW
 70
     0
  9
$UCSORGTOP
 10
0.0
 20
0.0
 30
0.0
  9
$UCSORGBOTTOM
 10
0.0
 20
0.0
 30
0.0
  9
$UCSORGLEFT
 10
0.0
 20
0.0
 30
0.0
  9
$UCSORGRIGHT
 10
0.0
 20
0.0
 30
0.0
  9
$UCSORGFRONT
 10
0.0
 20
0.0
 30
0.0
  9
$UCSORGBACK
 10
0.0
 20
0.0
 30
0.0
  9
$PUCSBASE
  2

  9
$PUCSNAME
  2

  9
$PUCSORG
 10
0.0
 20
0.0
 30
0.0
  9
$PUCSXDIR
 10
1.0
 20
0.0
 30
0.0
  9
$PUCSYDIR
 10
0.0
 20
1.0
 30
0.0
  9
$PUCSORTHOREF
  2

  9
$PUCSORTHOVIEW
 70
     0
  9
$PUCSORGTOP
 10
0.0
 20
0.0
 30
0.0
  9
$PUCSORGBOTTOM
 10
0.0
 20
0.0
 30
0.0
  9
$PUCSORGLEFT
 10
0.0
 20
0.0
 30
0.0
  9
$PUCSORGRIGHT
 10
0.0
 20
0.0
 30
0.0
  9
$PUCSORGFRONT
 10
0.0
 20
0.0
 30
0.0
  9
$PUCSORGBACK
 10
0.0
 20
0.0
 30
0.0
  9
$USERI1
 70
     0
  9
$USERI2
 70
     0
  9
$USERI3
 70
     0
  9
$USERI4
 70
     0
  9
$USERI5
 70
     0
  9
$USERR1
 40
0.0
  9
$USERR2
 40
0.0
  9
$USERR3
 40
0.0
  9
$USERR4
 40
0.0
  9
$USERR5
 40
0.0
  9
$WORLDVIEW
 70
     1
  9
$SHADEDGE
 70
     3
  9
$SHADEDIF
 70
    70
  9
$TILEMODE
 70
     1
  9
$MAXACTVP
 70
    64
  9
$PINSBASE
 10
0.0
 20
0.0
 30
0.0
  9
$PLIMCHECK
 70
     0
  9
$PEXTMIN
 10
1.000000000000000E+20
 20
1.000000000000000E+20
 30
1.000000000000000E+20
  9
$PEXTMAX
 10
-1.000000000000000E+20
 20
-1.000000000000000E+20
 30
-1.000000000000000E+20
  9
$PLIMMIN
 10
0.0
 20
0.0
  9
$PLIMMAX
 10
12.0
 20
9.0
  9
$UNITMODE
 70
     0
  9
$VISRETAIN
 70
     1
  9
$PLINEGEN
 70
     0
  9
$PSLTSCALE
 70
     1
  9
$TREEDEPTH
 70
  3020
  9
$CMLSTYLE
  2
Standard
  9
$CMLJUST
 70
     0
  9
$CMLSCALE
 40
1.0
  9
$PROXYGRAPHICS
 70
     1
  9
$MEASUREMENT
 70
     0
  9
$CELWEIGHT
370
    -1
  9
$ENDCAPS
280
     0
  9
$JOINSTYLE
280
     0
  9
$LWDISPLAY
290
     1
  9
$INSUNITS
 70
     4
  9
$HYPERLINKBASE
  1

  9
$STYLESHEET
  1

  9
$XEDIT
290
     1
  9
$CEPSNTYPE
380
     0
  9
$PSTYLEMODE
290
     1
  9
$FINGERPRINTGUID
  2
{7955AA1B-590E-D84A-A771-0EE1F59E87F4}
  9
$VERSIONGUID
  2
{488DD376-D72B-3A4A-862D-23D7328E762E}
  9
$EXTNAMES
290
     1
  9
$PSVPSCALE
 40
0.0
  9
$OLESTARTUP
290
     0
  9
$SORTENTS
280
   127
  9
$INDEXCTL
280
     0
  9
$HIDETEXT
280
     1
  9
$XCLIPFRAME
280
     2
  9
$HALOGAP
280
     0
  9
$OBSCOLOR
 70
   257
  9
$OBSLTYPE
280
     0
  9
$INTERSECTIONDISPLAY
280
     0
  9
$INTERSECTIONCOLOR
 70
   257
  9
$DIMASSOC
280
     2
  9
$PROJECTNAME
  1

  9
$CAMERADISPLAY
290
     0
  9
$LENSLENGTH
 40
50.0
  9
$CAMERAHEIGHT
 40
0.0
  9
$STEPSPERSEC
 40
2.0
  9
$STEPSIZE
 40
6.0
  9
$3DDWFPREC
 40
2.0
  9
$PSOLWIDTH
 40
0.25
  9
$PSOLHEIGHT
 40
4.0
  9
$LOFTANG1
 40
1.570796326794896
  9
$LOFTANG2
 40
1.570796326794896
  9
$LOFTMAG1
 40
0.0
  9
$LOFTMAG2
 40
0.0
  9
$LOFTPARAM
 70
     7
  9
$LOFTNORMALS
280
     1
  9
$LATITUDE
 40
37.795
  9
$LONGITUDE
 40
-122.394
  9
$NORTHDIRECTION
 40
0.0
  9
$TIMEZONE
 70
 -8000
  9
$LIGHTGLYPHDISPLAY
280
     1
  9
$TILEMODELIGHTSYNCH
280
     1
  9
$CMATERIAL
347
11
  9
$SOLIDHIST
280
     0
  9
$SHOWHIST
280
     1
  9
$DWFFRAME
280
     2
  9
$DGNFRAME
280
     0
  9
$REALWORLDSCALE
290
     1
  9
$INTERFERECOLOR
 62
     1
  9
$INTERFEREOBJVS
345
33
  9
$INTERFEREVPVS
346
30
  9
$CSHADOW
280
     0
  9
$SHADOWPLANELOCATION
 40
0.0
  0
ENDSEC
  0
SECTION
  2
CLASSES
  0
CLASS
  1
ACDBDICTIONARYWDFLT
  2
AcDbDictionaryWithDefault
  3
ObjectDBX Classes
 90
        0
 91
        1
280
     0
281
     0
  0
CLASS
  1
MATERIAL
  2
AcDbMaterial
  3
ObjectDBX Classes
 90
     1153
 91
        3
280
     0
281
     0
  0
CLASS
  1
VISUALSTYLE
  2
AcDbVisualStyle
  3
ObjectDBX Classes
 90
     4095
 91
       24
280
     0
281
     0
  0
CLASS
  1
SCALE
  2
AcDbScale
  3
ObjectDBX Classes
 90
     1153
 91
       17
280
     0
281
     0
  0
CLASS
  1
TABLESTYLE
  2
AcDbTableStyle
  3
ObjectDBX Classes
 90
     4095
 91
        1
280
     0
281
     0
  0
CLASS
  1
MLEADERSTYLE
  2
AcDbMLeaderStyle
  3
ACDB_MLEADERSTYLE_CLASS
 90
     4095
 91
        1
280
     0
281
     0
  0
CLASS
  1
ACDBSECTIONVIEWSTYLE
  2
AcDbSectionViewStyle
  3
ObjectDBX Classes
 90
     1025
 91
        1
280
     0
281
     0
  0
CLASS
  1
ACDBDETAILVIEWSTYLE
  2
AcDbDetailViewStyle
  3
ObjectDBX Classes
 90
     1025
 91
        1
280
     0
281
     0
  0
CLASS
  1
DICTIONARYVAR
  2
AcDbDictionaryVar
  3
ObjectDBX Classes
 90
        0
 91
        5
280
     0
281
     0
  0
CLASS
  1
CELLSTYLEMAP
  2
AcDbCellStyleMap
  3
ObjectDBX Classes
 90
     1152
 91
        1
280
     0
281
     0
  0
ENDSEC
  0
SECTION
  2
TABLES
  0
TABLE
  2
VPORT
  5
8
330
0
100
AcDbSymbolTable
 70
     1
  0
VPORT
  5
57
330
8
100
AcDbSymbolTableRecord
100
AcDbViewportTableRecord
  2
*Active
 70
     0
 10
0.0
 20
0.0
 11
1.0
 21
1.0
 12
0.0
 22
0.0
 13
0.0
 23
0.0
 14
1.0
 24
1.0
 15
0.0
 25
0.0
 16
0.0
 26
0.0
 36
1.0
 17
338.666666582
 27
190.4999999523751
 37
0.0
 40
388.8749999028449
 41
1.776612021857632
 42
50.0
 43
0.0
 44
0.0
 50
0.0
 51
0.0
 71
     0
 72
   100
 73
     1
 74
     1
 75
     0
 76
     0
 77
     0
 78
     0
281
     0
 65
     1
110
0.0
120
0.0
130
0.0
111
1.0
121
0.0
131
0.0
112
0.0
122
1.0
132
0.0
 79
     0
146
0.0
 60
     3
 61
     5
292
     1
282
     1
141
0.0
142
0.0
 63
   250
421
  3355443
  0
ENDTAB
  0
TABLE
  2
LTYPE
  5
5
330
0
100
AcDbSymbolTable
 70
     1
  0
LTYPE
  5
5B
330
5
100
AcDbSymbolTableRecord
100
AcDbLinetypeTableRecord
  2
ByBlock
 70
     0
  3

 72
    65
 73
     0
 40
0.0
  0
LTYPE
  5
5C
330
5
100
AcDbSymbolTableRecord
100
AcDbLinetypeTableRecord
  2
ByLayer
 70
     0
  3

 72
    65
 73
     0
 40
0.0
  0
LTYPE
  5
5D
330
5
100
AcDbSymbolTableRecord
100
AcDbLinetypeTableRecord
  2
Continuous
 70
     0
  3
Solid line
 72
    65
 73
     0
 40
0.0
  0
ENDTAB
  0
TABLE
  2
LAYER
  5
2
330
0
100
AcDbSymbolTable
 70
     6
  0
LAYER
  5
54
330
2
100
AcDbSymbolTableRecord
100
AcDbLayerTableRecord
  2
0
 70
     0
 62
     7
  6
Continuous
370
    -3
390
F
347
21
348
0
  0
LAYER
  5
78
330
2
100
AcDbSymbolTableRecord
100
AcDbLayerTableRecord
  2
FLAME
 70
     0
 62
     7
  6
Continuous
370
     0
390
F
347
21
348
0
  0
LAYER
  5
80
330
2
100
AcDbSymbolTableRecord
100
AcDbLayerTableRecord
  2
SPEC
 70
     0
 62
     7
  6
Continuous
370
     0
390
F
347
21
348
0
  0
LAYER
  5
8A
330
2
100
AcDbSymbolTableRecord
100
AcDbLayerTableRecord
  2
_HONTAI
 70
     0
 62
     7
  6
Continuous
370
     0
390
F
347
21
348
0
  0
LAYER
  5
A2
330
2
100
AcDbSymbolTableRecord
100
AcDbLayerTableRecord
  2
SHADE
 70
     0
 62
     7
  6
Continuous
370
     0
390
F
347
21
348
0
  0
LAYER
  5
A6
330
2
100
AcDbSymbolTableRecord
100
AcDbLayerTableRecord
  2
HON
 70
     0
 62
     7
  6
Continuous
370
     0
390
F
347
21
348
0
  0
ENDTAB
  0
TABLE
  2
STYLE
  5
3
330
0
100
AcDbSymbolTable
 70
     2
  0
STYLE
  5
55
330
3
100
AcDbSymbolTableRecord
100
AcDbTextStyleTableRecord
  2
Standard
 70
     0
 40
0.0
 41
1.0
 50
0.0
 71
     0
 42
0.2
  3
txt
  4

  0
STYLE
  5
5A
330
3
100
AcDbSymbolTableRecord
100
AcDbTextStyleTableRecord
  2
Annotative
 70
     0
 40
0.0
 41
1.0
 50
0.0
 71
     0
 42
0.2
  3
txt
  4

1001
AcadAnnotative
1000
AnnotativeData
1002
{
1070
     1
1070
     1
1002
}
  0
ENDTAB
  0
TABLE
  2
VIEW
  5
6
330
0
100
AcDbSymbolTable
 70
     0
  0
ENDTAB
  0
TABLE
  2
UCS
  5
7
330
0
100
AcDbSymbolTable
 70
     0
  0
ENDTAB
  0
TABLE
  2
APPID
  5
9
330
0
100
AcDbSymbolTable
 70
     2
  0
APPID
  5
56
330
9
100
AcDbSymbolTableRecord
100
AcDbRegAppTableRecord
  2
ACAD
 70
     0
  0
APPID
  5
5E
330
9
100
AcDbSymbolTableRecord
100
AcDbRegAppTableRecord
  2
AcadAnnotative
 70
     0
  0
ENDTAB
  0
TABLE
  2
DIMSTYLE
  5
A
330
0
100
AcDbSymbolTable
 70
     2
100
AcDbDimStyleTable
 71
     0
  0
DIMSTYLE
105
58
330
A
100
AcDbSymbolTableRecord
100
AcDbDimStyleTableRecord
  2
Standard
 70
     0
340
55
  0
DIMSTYLE
105
59
330
A
100
AcDbSymbolTableRecord
100
AcDbDimStyleTableRecord
  2
Annotative
 70
     0
340
55
1001
AcadAnnotative
1000
AnnotativeData
1002
{
1070
     1
1070
     1
1002
}
  0
ENDTAB
  0
TABLE
  2
BLOCK_RECORD
  5
1
330
0
100
AcDbSymbolTable
 70
     1
  0
BLOCK_RECORD
  5
70
330
1
100
AcDbSymbolTableRecord
100
AcDbBlockTableRecord
  2
*Model_Space
340
73
 70
     0
280
     1
281
     0
  0
BLOCK_RECORD
  5
6C
330
1
100
AcDbSymbolTableRecord
100
AcDbBlockTableRecord
  2
*Paper_Space
340
6F
 70
     0
280
     1
281
     0
  0
BLOCK_RECORD
  5
74
330
1
100
AcDbSymbolTableRecord
100
AcDbBlockTableRecord
  2
*Paper_Space0
340
77
 70
     0
280
     1
281
     0
  0
ENDTAB
  0
ENDSEC
  0
SECTION
  2
BLOCKS
  0
BLOCK
  5
71
330
70
100
AcDbEntity
  8
0
100
AcDbBlockBegin
  2
*Model_Space
 70
     0
 10
0.0
 20
0.0
 30
0.0
  3
*Model_Space
  1

  0
ENDBLK
  5
72
330
70
100
AcDbEntity
  8
0
100
AcDbBlockEnd
  0
BLOCK
  5
6D
330
6C
100
AcDbEntity
 67
     1
  8
0
100
AcDbBlockBegin
  2
*Paper_Space
 70
     0
 10
0.0
 20
0.0
 30
0.0
  3
*Paper_Space
  1

  0
ENDBLK
  5
6E
330
6C
100
AcDbEntity
 67
     1
  8
0
100
AcDbBlockEnd
  0
BLOCK
  5
75
330
74
100
AcDbEntity
 67
     1
  8
0
100
AcDbBlockBegin
  2
*Paper_Space0
 70
     0
 10
0.0
 20
0.0
 30
0.0
  3
*Paper_Space0
  1

  0
ENDBLK
  5
76
330
74
100
AcDbEntity
 67
     1
  8
0
100
AcDbBlockEnd
  0
ENDSEC
  0
SECTION
  2
ENTITIES
  0
LINE
  5
79
330
70
100
AcDbEntity
  8
FLAME
 62
     2
420
 16776960
370
    25
100
AcDbLine
 10
501.9523808268929
 20
380.9999999047501
 30
0.0
 11
501.9523808268929
 21
0.0
 31
0.0
  0
LINE
  5
7A
330
70
100
AcDbEntity
  8
FLAME
 62
     2
420
 16776960
370
    25
100
AcDbLine
 10
175.380952337107
 20
0.0
 30
0.0
 11
175.380952337107
 21
380.9999999047501
 31
0.0
  0
LINE
  5
7B
330
70
100
AcDbEntity
  8
FLAME
 62
     2
420
 16776960
370
    25
100
AcDbLine
 10
501.9523808268929
 20
0.0
 30
0.0
 11
175.380952337107
 21
0.0
 31
0.0
  0
LINE
  5
7C
330
70
100
AcDbEntity
  8
FLAME
 62
     2
420
 16776960
370
    25
100
AcDbLine
 10
501.9523808268929
 20
18.14285713832115
 30
0.0
 11
175.380952337107
 21
18.14285713832115
 31
0.0
  0
LINE
  5
7D
330
70
100
AcDbEntity
  8
FLAME
 62
     2
420
 16776960
370
    25
100
AcDbLine
 10
501.9523808268929
 20
36.28571427664295
 30
0.0
 11
175.380952337107
 21
36.28571427664295
 31
0.0
  0
LINE
  5
7E
330
70
100
AcDbEntity
  8
FLAME
 62
     2
420
 16776960
370
    25
100
AcDbLine
 10
501.9523808268929
 20
54.42857141496411
 30
0.0
 11
175.380952337107
 21
54.42857141496411
 31
0.0
  0
LINE
  5
7F
330
70
100
AcDbEntity
  8
FLAME
 62
     2
420
 16776960
370
    25
100
AcDbLine
 10
501.9523808268929
 20
380.9999999047501
 30
0.0
 11
175.380952337107
 21
380.9999999047501
 31
0.0
  0
MTEXT
  5
81
330
70
100
AcDbEntity
  8
SPEC
100
AcDbMText
 10
187.6349293557605
 20
41.1836753530328
 30
0.0
 40
0.2
 41
0.0
 46
0.0
 71
     7
 72
     1
  1
\C9;\c12632256;\FKozuka Gothic Pr6N R|b0|i0|c128;\H9.071429;\W1.000000;KP123PABZ
 73
     1
 44
1.0
  0
MTEXT
  5
82
330
70
100
AcDbEntity
  8
SPEC
100
AcDbMText
 10
187.2821515780709
 20
24.07143929197612
 30
0.0
 40
0.2
 41
0.0
 46
0.0
 71
     7
 72
     1
  1
\C9;\c12632256;\FKozuka Gothic Pr6N R|b0|i0|c128;\H7.992533;\W1.000000;E26 LED
 73
     1
 44
1.0
  0
MTEXT
  5
83
330
70
100
AcDbEntity
  8
SPEC
100
AcDbMText
 10
227.5049763428634
 20
25.07037433421364
 30
0.0
 40
0.2
 41
0.0
 46
0.0
 71
     7
 72
     1
  1
\C9;\c12632256;\FMS PGothic|b0|i0|c128;\H7.992533;\W1.000000;電球（
 73
     1
 44
1.0
  0
MTEXT
  5
84
330
70
100
AcDbEntity
  8
SPEC
100
AcDbMText
 10
256.7714069996092
 20
24.07143929197612
 30
0.0
 40
0.2
 41
0.0
 46
0.0
 71
     7
 72
     1
  1
\C9;\c12632256;\FKozuka Gothic Pr6N R|b0|i0|c128;\H7.992533;\W1.000000;100W
 73
     1
 44
1.0
  0
MTEXT
  5
85
330
70
100
AcDbEntity
  8
SPEC
100
AcDbMText
 10
286.6361646147559
 20
25.07050621677518
 30
0.0
 40
0.2
 41
0.0
 46
0.0
 71
     7
 72
     1
  1
\C9;\c12632256;\FMS PGothic|b0|i0|c128;\H7.992533;\W1.000000;相当 電球色 全方向
 73
     1
 44
1.0
  0
MTEXT
  5
86
330
70
100
AcDbEntity
  8
SPEC
100
AcDbMText
 10
385.4601066473416
 20
24.07143929197612
 30
0.0
 40
0.2
 41
0.0
 46
0.0
 71
     7
 72
     1
  1
\C9;\c12632256;\FKozuka Gothic Pr6N R|b0|i0|c128;\H7.992533;\W1.000000;/
 73
     1
 44
1.0
  0
MTEXT
  5
87
330
70
100
AcDbEntity
  8
SPEC
100
AcDbMText
 10
391.314917233443
 20
25.11591688164013
 30
0.0
 40
0.2
 41
0.0
 46
0.0
 71
     7
 72
     1
  1
\C9;\c12632256;\FMS PGothic|b0|i0|c128;\H7.992533;\W1.000000;広配光タイプ）ｘ
 73
     1
 44
1.0
  0
MTEXT
  5
88
330
70
100
AcDbEntity
  8
SPEC
100
AcDbMText
 10
466.4581772379861
 20
24.07143929197612
 30
0.0
 40
0.2
 41
0.0
 46
0.0
 71
     7
 72
     1
  1
\C9;\c12632256;\FKozuka Gothic Pr6N R|b0|i0|c128;\H7.992533;\W1.000000;1
 73
     1
 44
1.0
  0
MTEXT
  5
89
330
70
100
AcDbEntity
  8
SPEC
100
AcDbMText
 10
472.072821605072
 20
25.02509286042938
 30
0.0
 40
0.2
 41
0.0
 46
0.0
 71
     7
 72
     1
  1
\C9;\c12632256;\FMS PGothic|b0|i0|c128;\H7.992533;\W1.000000;灯
 73
     1
 44
1.0
  0
LINE
  5
8B
330
70
100
AcDbEntity
  8
_HONTAI
 62
    18
420
        0
370
    25
100
AcDbLine
 10
340.8910837733173
 20
323.6293691555103
 30
0.0
 11
340.8910837733173
 21
292.2869175789271
 31
0.0
  0
LINE
  5
8C
330
70
100
AcDbEntity
  8
_HONTAI
 62
    18
420
        0
370
    25
100
AcDbLine
 10
340.8910837733173
 20
286.8546177899418
 30
0.0
 11
340.8910837733173
 21
223.8211531490966
 31
0.0
  0
SPLINE
  5
8D
330
70
100
AcDbEntity
  8
_HONTAI
 62
    18
420
        0
370
    25
100
AcDbSpline
210
0.0
220
0.0
230
1.0
 70
     8
 71
     3
 72
     8
 73
     4
 74
     0
 42
0.0000000001
 43
0.0000000001
 40
0.0
 40
0.0
 40
0.0
 40
0.0
 40
1.0
 40
1.0
 40
1.0
 40
1.0
 10
326.0624982926565
 20
354.3394574290536
 30
0.0
 10
326.3770360847202
 20
342.5464299398373
 30
0.0
 10
331.5915654962795
 20
331.4178610737052
 30
0.0
 10
340.4523682265373
 20
323.6293691555283
 30
0.0
  0
LINE
  5
8E
330
70
100
AcDbEntity
  8
_HONTAI
 62
    18
420
        0
370
    25
100
AcDbLine
 10
342.8214321790787
 20
323.6293691555103
 30
0.0
 11
342.8214321790851
 21
292.8482048547694
 31
0.0
  0
LINE
  5
8F
330
70
100
AcDbEntity
  8
_HONTAI
 62
    18
420
        0
370
    25
100
AcDbLine
 10
342.8214321790851
 20
287.4159050657905
 30
0.0
 11
342.8214321790787
 21
223.8166325702687
 31
0.0
  0
SPLINE
  5
90
330
70
100
AcDbEntity
  8
_HONTAI
 62
    18
420
        0
370
    25
100
AcDbSpline
210
0.0
220
0.0
230
1.0
 70
     8
 71
     3
 72
     8
 73
     4
 74
     0
 42
0.0000000001
 43
0.0000000001
 40
0.0
 40
0.0
 40
0.0
 40
0.0
 40
1.0
 40
1.0
 40
1.0
 40
1.0
 10
343.2601477258716
 20
323.6293691555283
 30
0.0
 10
352.1209504561296
 20
331.4178610737052
 30
0.0
 10
357.335479867689
 20
342.5464299398373
 30
0.0
 10
357.6500176597526
 20
354.3394574290536
 30
0.0
  0
SPLINE
  5
91
330
70
100
AcDbEntity
  8
_HONTAI
 62
    18
420
        0
370
    25
100
AcDbSpline
210
0.0
220
0.0
230
1.0
 70
     8
 71
     3
 72
    11
 73
     7
 74
     0
 42
0.0000000001
 43
0.0000000001
 40
0.0
 40
0.0
 40
0.0
 40
0.0
 40
1.0
 40
1.0
 40
1.0
 40
2.0
 40
2.0
 40
2.0
 40
2.0
 10
357.6500176597597
 20
354.3394574290549
 30
0.0
 10
357.6500176597603
 20
355.9789867056912
 30
0.0
 10
350.5789105919263
 20
357.3080877907269
 30
0.0
 10
341.8562579762077
 20
357.3080877907269
 30
0.0
 10
333.1336053604896
 20
357.3080877907269
 30
0.0
 10
326.0624982926556
 20
355.9789867056912
 30
0.0
 10
326.0624982926556
 20
354.3394574290549
 30
0.0
  0
LINE
  5
92
330
70
100
AcDbEntity
  8
_HONTAI
 62
    18
420
        0
370
    25
100
AcDbLine
 10
339.0116470723681
 20
223.7027165776965
 30
0.0
 11
339.0116470723681
 21
220.6628445784586
 31
0.0
  0
LINE
  5
93
330
70
100
AcDbEntity
  8
_HONTAI
 62
    18
420
        0
370
    25
100
AcDbLine
 10
341.9725613573378
 20
220.6628445784586
 30
0.0
 11
337.7859997147969
 21
220.6628445784586
 31
0.0
  0
LINE
  5
94
330
70
100
AcDbEntity
  8
_HONTAI
 62
    18
420
        0
370
    25
100
AcDbLine
 10
341.9725613573378
 20
223.8211531490966
 30
0.0
 11
339.1300836437579
 21
223.8211531490966
 31
0.0
  0
SPLINE
  5
95
330
70
100
AcDbEntity
  8
_HONTAI
 62
    18
420
        0
370
    25
100
AcDbSpline
210
0.0
220
0.0
230
1.0
 70
     8
 71
     3
 72
     8
 73
     4
 74
     0
 42
0.0000000001
 43
0.0000000001
 40
0.0
 40
0.0
 40
0.0
 40
0.0
 40
1.0
 40
1.0
 40
1.0
 40
1.0
 10
331.8491800825309
 20
210.328959351021
 30
0.0
 10
334.9256549982482
 20
212.8104190539136
 30
0.0
 10
336.9145672970611
 20
216.3926458712222
 30
0.0
 10
337.3941277811771
 20
220.3159559413279
 30
0.0
  0
LINE
  5
96
330
70
100
AcDbEntity
  8
_HONTAI
 62
    18
420
        0
370
    25
100
AcDbLine
 10
337.4324927870357
 20
220.6628445784586
 30
0.0
 11
337.4324927870357
 21
220.6628445784586
 31
0.0
  0
SPLINE
  5
97
330
70
100
AcDbEntity
  8
_HONTAI
 62
    18
420
        0
370
    25
100
AcDbSpline
210
0.0
220
0.0
230
1.0
 70
     8
 71
     3
 72
     8
 73
     4
 74
     0
 42
0.0000000001
 43
0.0000000001
 40
0.0
 40
0.0
 40
0.0
 40
0.0
 40
1.0
 40
1.0
 40
1.0
 40
1.0
 10
337.7859997147969
 20
220.6628445784554
 30
0.0
 10
337.5864886850469
 20
220.6628445784554
 30
0.0
 10
337.4183345741091
 20
220.513993014035
 30
0.0
 10
337.3941277811803
 20
220.3159559413234
 30
0.0
  0
SPLINE
  5
98
330
70
100
AcDbEntity
  8
_HONTAI
 62
    18
420
        0
370
    25
100
AcDbSpline
210
0.0
220
0.0
230
1.0
 70
     8
 71
     3
 72
     8
 73
     4
 74
     0
 42
0.0000000001
 43
0.0000000001
 40
0.0
 40
0.0
 40
0.0
 40
0.0
 40
1.0
 40
1.0
 40
1.0
 40
1.0
 10
339.1300836437579
 20
223.8211531490953
 30
0.0
 10
339.0646729315522
 20
223.8211531490953
 30
0.0
 10
339.0116470723592
 20
223.7681272899022
 30
0.0
 10
339.0116470723592
 20
223.7027165776965
 30
0.0
  0
LINE
  5
99
330
70
100
AcDbEntity
  8
_HONTAI
 62
    18
420
        0
370
    25
100
AcDbLine
 10
339.0116470723681
 20
223.8211531490966
 30
0.0
 11
339.0116470723681
 21
223.8211531490966
 31
0.0
  0
LINE
  5
9A
330
70
100
AcDbEntity
  8
_HONTAI
 62
    18
420
        0
370
    25
100
AcDbLine
 10
344.9418576165771
 20
223.7027165776965
 30
0.0
 11
344.9418576165771
 21
220.6628445784586
 31
0.0
  0
LINE
  5
9B
330
70
100
AcDbEntity
  8
_HONTAI
 62
    18
420
        0
370
    25
100
AcDbLine
 10
341.9809433316074
 20
220.6628445784586
 30
0.0
 11
346.1675049741483
 21
220.6628445784586
 31
0.0
  0
LINE
  5
9C
330
70
100
AcDbEntity
  8
_HONTAI
 62
    18
420
        0
370
    25
100
AcDbLine
 10
341.9809433316074
 20
223.8211531490966
 30
0.0
 11
344.8234210451866
 21
223.8211531490966
 31
0.0
  0
SPLINE
  5
9D
330
70
100
AcDbEntity
  8
_HONTAI
 62
    18
420
        0
370
    25
100
AcDbSpline
210
0.0
220
0.0
230
1.0
 70
     8
 71
     3
 72
     8
 73
     4
 74
     0
 42
0.0000000001
 43
0.0000000001
 40
0.0
 40
0.0
 40
0.0
 40
0.0
 40
1.0
 40
1.0
 40
1.0
 40
1.0
 10
346.5593769077679
 20
220.3159559413279
 30
0.0
 10
347.0389373918842
 20
216.3926458712222
 30
0.0
 10
349.0278496906971
 20
212.8104190539136
 30
0.0
 10
352.1043246064143
 20
210.328959351021
 30
0.0
  0
LINE
  5
9E
330
70
100
AcDbEntity
  8
_HONTAI
 62
    18
420
        0
370
    25
100
AcDbLine
 10
346.5210119019099
 20
220.6628445784586
 30
0.0
 11
346.5210119019099
 21
220.6628445784586
 31
0.0
  0
SPLINE
  5
9F
330
70
100
AcDbEntity
  8
_HONTAI
 62
    18
420
        0
370
    25
100
AcDbSpline
210
0.0
220
0.0
230
1.0
 70
     8
 71
     3
 72
     8
 73
     4
 74
     0
 42
0.0000000001
 43
0.0000000001
 40
0.0
 40
0.0
 40
0.0
 40
0.0
 40
1.0
 40
1.0
 40
1.0
 40
1.0
 10
346.5593769077647
 20
220.3159559413234
 30
0.0
 10
346.5351701148362
 20
220.513993014035
 30
0.0
 10
346.367016003899
 20
220.6628445784554
 30
0.0
 10
346.1675049741483
 20
220.6628445784554
 30
0.0
  0
SPLINE
  5
A0
330
70
100
AcDbEntity
  8
_HONTAI
 62
    18
420
        0
370
    25
100
AcDbSpline
210
0.0
220
0.0
230
1.0
 70
     8
 71
     3
 72
     8
 73
     4
 74
     0
 42
0.0000000001
 43
0.0000000001
 40
0.0
 40
0.0
 40
0.0
 40
0.0
 40
1.0
 40
1.0
 40
1.0
 40
1.0
 10
344.9418576165855
 20
223.7027165776965
 30
0.0
 10
344.9418576165855
 20
223.7681272899022
 30
0.0
 10
344.8888317573924
 20
223.8211531490953
 30
0.0
 10
344.8234210451866
 20
223.8211531490953
 30
0.0
  0
LINE
  5
A1
330
70
100
AcDbEntity
  8
_HONTAI
 62
    18
420
        0
370
    25
100
AcDbLine
 10
344.9418576165771
 20
223.8211531490966
 30
0.0
 11
344.9418576165771
 21
223.8211531490966
 31
0.0
  0
SPLINE
  5
A3
330
70
100
AcDbEntity
  8
SHADE
 62
    18
420
        0
370
    25
100
AcDbSpline
210
0.0
220
0.0
230
1.0
 70
     8
 71
     3
 72
    17
 73
    13
 74
     0
 42
0.0000000001
 43
0.0000000001
 40
0.0
 40
0.0
 40
0.0
 40
0.0
 40
1.0
 40
1.0
 40
1.0
 40
2.0
 40
2.0
 40
2.0
 40
3.0
 40
3.0
 40
3.0
 40
4.0
 40
4.0
 40
4.0
 40
4.0
 10
342.8214321790787
 20
323.431740338124
 30
0.0
 10
343.3844769843586
 20
323.5350733585545
 30
0.0
 10
343.4087917732308
 20
323.7073227580729
 30
0.0
 10
342.8757407800548
 20
323.8164701400533
 30
0.0
 10
342.3426897868795
 20
323.9256175220337
 30
0.0
 10
341.4541285786165
 20
323.9303309933666
 30
0.0
 10
340.8910837733366
 20
323.8269979729363
 30
0.0
 10
340.3280389680572
 20
323.7236649525052
 30
0.0
 10
340.3037241791844
 20
323.5514155529868
 30
0.0
 10
340.8367751723604
 20
323.442268171007
 30
0.0
 10
340.8543793735254
 20
323.4386635393797
 30
0.0
 10
340.8724890156946
 20
323.4351529483699
 30
0.0
 10
340.8910837733141
 20
323.4317403381278
 30
0.0
  0
LINE
  5
A4
330
70
100
AcDbEntity
  8
SHADE
 62
    18
420
        0
370
    25
100
AcDbLine
 10
348.189523492628
 20
294.4090844042344
 30
0.0
 11
335.4853872694729
 21
290.7151035708196
 31
0.0
  0
LINE
  5
A5
330
70
100
AcDbEntity
  8
SHADE
 62
    18
420
        0
370
    25
100
AcDbLine
 10
348.189523492628
 20
288.9767846152491
 30
0.0
 11
335.4853872694729
 21
285.2828037818346
 31
0.0
  0
LINE
  5
A7
330
70
100
AcDbEntity
  8
HON
 62
     9
420
 12632256
370
    25
100
AcDbLine
 10
342.0323559069835
 20
160.820024279627
 30
0.0
 11
333.2951898868782
 21
150.0565080654731
 31
0.0
  0
LINE
  5
A8
330
70
100
AcDbEntity
  8
HON
 62
     9
420
 12632256
370
    25
100
AcDbLine
 10
333.3415318688158
 20
142.4212023960099
 30
0.0
 11
333.3219350174517
 21
150.1579577505743
 31
0.0
  0
LINE
  5
A9
330
70
100
AcDbEntity
  8
HON
 62
     9
420
 12632256
370
    25
100
AcDbLine
 10
302.0471332099369
 20
188.6661406856047
 30
0.0
 11
303.7344242918257
 21
190.439979412202
 31
0.0
  0
LINE
  5
AA
330
70
100
AcDbEntity
  8
HON
 62
     9
420
 12632256
370
    25
100
AcDbLine
 10
296.9541681188472
 20
164.7431619085667
 30
0.0
 11
295.6692871121051
 21
153.2453742799149
 31
0.0
  0
LINE
  5
AB
330
70
100
AcDbEntity
  8
HON
 62
     9
420
 12632256
370
    25
100
AcDbLine
 10
298.8648335493603
 20
174.7109826982581
 30
0.0
 11
303.3682601473903
 21
184.7413437741206
 31
0.0
  0
LINE
  5
AC
330
70
100
AcDbEntity
  8
HON
 62
     9
420
 12632256
370
    25
100
AcDbLine
 10
298.8648335493603
 20
174.7109826982581
 30
0.0
 11
301.7640689236046
 21
171.3021973433375
 31
0.0
  0
LINE
  5
AD
330
70
100
AcDbEntity
  8
HON
 62
     9
420
 12632256
370
    25
100
AcDbLine
 10
295.6692871121051
 20
153.2453742799149
 30
0.0
 11
298.5254007389409
 21
150.2571283409691
 31
0.0
  0
LINE
  5
AE
330
70
100
AcDbEntity
  8
HON
 62
     9
420
 12632256
370
    25
100
AcDbLine
 10
337.8515044416519
 20
196.7914588825447
 30
0.0
 11
341.8336341759439
 21
203.4296006851904
 31
0.0
  0
LINE
  5
AF
330
70
100
AcDbEntity
  8
HON
 62
     9
420
 12632256
370
    25
100
AcDbLine
 10
337.8515044416519
 20
196.7914588825447
 30
0.0
 11
335.2321466847284
 21
203.3375574559785
 31
0.0
  0
LINE
  5
B0
330
70
100
AcDbEntity
  8
HON
 62
     9
420
 12632256
370
    25
100
AcDbLine
 10
335.2321466847284
 20
203.3375574559785
 30
0.0
 11
330.8552483596017
 21
195.8637894399689
 31
0.0
  0
LINE
  5
B1
330
70
100
AcDbEntity
  8
HON
 62
     9
420
 12632256
370
    25
100
AcDbLine
 10
330.8552483596017
 20
195.8637894399689
 30
0.0
 11
328.8237380304918
 21
203.0947305257445
 31
0.0
  0
LINE
  5
B2
330
70
100
AcDbEntity
  8
HON
 62
     9
420
 12632256
370
    25
100
AcDbLine
 10
328.8237380304918
 20
203.0947305257445
 30
0.0
 11
322.7595188760657
 21
195.3265370417698
 31
0.0
  0
LINE
  5
B3
330
70
100
AcDbEntity
  8
HON
 62
     9
420
 12632256
370
    25
100
AcDbLine
 10
322.7595188760657
 20
195.3265370417698
 30
0.0
 11
323.2396254835937
 21
202.3578832962746
 31
0.0
  0
LINE
  5
B4
330
70
100
AcDbEntity
  8
HON
 62
     9
420
 12632256
370
    25
100
AcDbLine
 10
323.2396254835937
 20
202.3578832962746
 30
0.0
 11
315.0283369134957
 21
194.5761033624147
 31
0.0
  0
LINE
  5
B5
330
70
100
AcDbEntity
  8
HON
 62
     9
420
 12632256
370
    25
100
AcDbLine
 10
315.0283369134957
 20
194.5761033624147
 30
0.0
 11
320.1290610694203
 21
201.7020303865452
 31
0.0
  0
LINE
  5
B6
330
70
100
AcDbEntity
  8
HON
 62
     9
420
 12632256
370
    25
100
AcDbLine
 10
320.1290610694203
 20
201.7020303865452
 30
0.0
 11
310.2013990151153
 21
193.3004937978167
 31
0.0
  0
LINE
  5
B7
330
70
100
AcDbEntity
  8
HON
 62
     9
420
 12632256
370
    25
100
AcDbLine
 10
310.2013990151153
 20
193.3004937978167
 30
0.0
 11
317.4085901616091
 21
201.1114050433722
 31
0.0
  0
LINE
  5
B8
330
70
100
AcDbEntity
  8
HON
 62
     9
420
 12632256
370
    25
100
AcDbLine
 10
317.4085901616091
 20
201.1114050433722
 30
0.0
 11
305.7963530427673
 21
191.4358933761945
 31
0.0
  0
LINE
  5
B9
330
70
100
AcDbEntity
  8
HON
 62
     9
420
 12632256
370
    25
100
AcDbLine
 10
305.6994095103499
 20
191.4002562308195
 30
0.0
 11
314.7420443959283
 21
200.1405605596487
 31
0.0
  0
LINE
  5
BA
330
70
100
AcDbEntity
  8
HON
 62
     9
420
 12632256
370
    25
100
AcDbLine
 10
311.9698884975353
 20
199.0978722301063
 30
0.0
 11
303.6927483758952
 21
190.8312255898991
 31
0.0
  0
LINE
  5
BB
330
70
100
AcDbEntity
  8
HON
 62
     9
420
 12632256
370
    25
100
AcDbLine
 10
342.0520183115881
 20
193.7428934319683
 30
0.0
 11
336.4891519130404
 21
183.6070783685131
 31
0.0
  0
LINE
  5
BC
330
70
100
AcDbEntity
  8
HON
 62
     9
420
 12632256
370
    25
100
AcDbLine
 10
336.4891519130404
 20
183.6070783685131
 30
0.0
 11
335.1991585381511
 21
193.2855136206097
 31
0.0
  0
LINE
  5
BD
330
70
100
AcDbEntity
  8
HON
 62
     9
420
 12632256
370
    25
100
AcDbLine
 10
335.1991585381511
 20
193.2855136206097
 30
0.0
 11
326.6625266239769
 21
182.46817417715
 31
0.0
  0
LINE
  5
BE
330
70
100
AcDbEntity
  8
HON
 62
     9
420
 12632256
370
    25
100
AcDbLine
 10
326.6625266239769
 20
182.46817417715
 30
0.0
 11
326.8766375127675
 21
192.4576260036829
 31
0.0
  0
LINE
  5
BF
330
70
100
AcDbEntity
  8
HON
 62
     9
420
 12632256
370
    25
100
AcDbLine
 10
326.8766375127675
 20
192.4576260036829
 30
0.0
 11
318.1139160634019
 21
180.7297122599443
 31
0.0
  0
LINE
  5
C0
330
70
100
AcDbEntity
  8
HON
 62
     9
420
 12632256
370
    25
100
AcDbLine
 10
318.1139160634019
 20
180.7297122599443
 30
0.0
 11
318.1310005281027
 21
191.3646702965039
 31
0.0
  0
LINE
  5
C1
330
70
100
AcDbEntity
  8
HON
 62
     9
420
 12632256
370
    25
100
AcDbLine
 10
318.1310005281027
 20
191.3646702965039
 30
0.0
 11
311.2781224300362
 21
179.1829191029821
 31
0.0
  0
LINE
  5
C2
330
70
100
AcDbEntity
  8
HON
 62
     9
420
 12632256
370
    25
100
AcDbLine
 10
311.2781224300362
 20
179.1829191029821
 30
0.0
 11
312.2477171205229
 21
190.0346240626369
 31
0.0
  0
LINE
  5
C3
330
70
100
AcDbEntity
  8
HON
 62
     9
420
 12632256
370
    25
100
AcDbLine
 10
312.2477171205229
 20
190.0346240626369
 30
0.0
 11
306.1238322755105
 21
177.9215539349706
 31
0.0
  0
LINE
  5
C4
330
70
100
AcDbEntity
  8
HON
 62
     9
420
 12632256
370
    25
100
AcDbLine
 10
306.1238322755105
 20
177.9215539349706
 30
0.0
 11
308.2056742580979
 21
188.5526475298103
 31
0.0
  0
LINE
  5
C5
330
70
100
AcDbEntity
  8
HON
 62
     9
420
 12632256
370
    25
100
AcDbLine
 10
308.2056742580979
 20
188.5526475298103
 30
0.0
 11
302.2109524137571
 21
176.3650945484912
 31
0.0
  0
LINE
  5
C6
330
70
100
AcDbEntity
  8
HON
 62
     9
420
 12632256
370
    25
100
AcDbLine
 10
302.2109524137571
 20
176.3650945484912
 30
0.0
 11
305.8147237000324
 21
187.0688873618566
 31
0.0
  0
LINE
  5
C7
330
70
100
AcDbEntity
  8
HON
 62
     9
420
 12632256
370
    25
100
AcDbLine
 10
305.7891587586962
 20
187.1199211581556
 30
0.0
 11
300.2013044626186
 21
175.2984266696627
 31
0.0
  0
LINE
  5
C8
330
70
100
AcDbEntity
  8
HON
 62
     9
420
 12632256
370
    25
100
AcDbLine
 10
300.2013044626186
 20
175.2984266696627
 30
0.0
 11
304.2878144785575
 21
185.2448495530527
 31
0.0
  0
LINE
  5
C9
330
70
100
AcDbEntity
  8
HON
 62
     9
420
 12632256
370
    25
100
AcDbLine
 10
304.2878144785575
 20
185.2448495530527
 30
0.0
 11
298.8648335493603
 21
174.7109826982581
 31
0.0
  0
LINE
  5
CA
330
70
100
AcDbEntity
  8
HON
 62
     9
420
 12632256
370
    25
100
AcDbLine
 10
300.2013044626186
 20
175.2984266696627
 30
0.0
 11
303.3854409080184
 21
171.8205525134883
 31
0.0
  0
LINE
  5
CB
330
70
100
AcDbEntity
  8
HON
 62
     9
420
 12632256
370
    25
100
AcDbLine
 10
302.2109524137571
 20
176.3650945484912
 30
0.0
 11
306.1838130892921
 21
171.5526016819759
 31
0.0
  0
LINE
  5
CC
330
70
100
AcDbEntity
  8
HON
 62
     9
420
 12632256
370
    25
100
AcDbLine
 10
306.1838130892921
 20
171.5526016819759
 30
0.0
 11
306.1238322755105
 21
177.9215539349706
 31
0.0
  0
LINE
  5
CD
330
70
100
AcDbEntity
  8
HON
 62
     9
420
 12632256
370
    25
100
AcDbLine
 10
306.1238322755105
 20
177.9215539349706
 30
0.0
 11
310.2843791928261
 21
172.9594938010326
 31
0.0
  0
LINE
  5
CE
330
70
100
AcDbEntity
  8
HON
 62
     9
420
 12632256
370
    25
100
AcDbLine
 10
310.2843791928261
 20
172.9594938010326
 30
0.0
 11
311.2781224300362
 21
179.1829191029821
 31
0.0
  0
LINE
  5
CF
330
70
100
AcDbEntity
  8
HON
 62
     9
420
 12632256
370
    25
100
AcDbLine
 10
311.2781224300362
 20
179.1829191029821
 30
0.0
 11
316.578095032581
 21
172.8787047719112
 31
0.0
  0
LINE
  5
D0
330
70
100
AcDbEntity
  8
HON
 62
     9
420
 12632256
370
    25
100
AcDbLine
 10
316.578095032581
 20
172.8787047719112
 30
0.0
 11
318.1139160634019
 21
180.7297122599443
 31
0.0
  0
LINE
  5
D1
330
70
100
AcDbEntity
  8
HON
 62
     9
420
 12632256
370
    25
100
AcDbLine
 10
318.1139160634019
 20
180.7297122599443
 30
0.0
 11
323.6118399324288
 21
173.898890663469
 31
0.0
  0
LINE
  5
D2
330
70
100
AcDbEntity
  8
HON
 62
     9
420
 12632256
370
    25
100
AcDbLine
 10
323.6118399324288
 20
173.898890663469
 30
0.0
 11
326.6625266239769
 21
182.46817417715
 31
0.0
  0
LINE
  5
D3
330
70
100
AcDbEntity
  8
HON
 62
     9
420
 12632256
370
    25
100
AcDbLine
 10
326.6625266239769
 20
182.46817417715
 30
0.0
 11
332.9383461717764
 21
174.3630686515776
 31
0.0
  0
LINE
  5
D4
330
70
100
AcDbEntity
  8
HON
 62
     9
420
 12632256
370
    25
100
AcDbLine
 10
332.9383461717764
 20
174.3630686515776
 30
0.0
 11
336.4891519130404
 21
183.6070783685131
 31
0.0
  0
LINE
  5
D5
330
70
100
AcDbEntity
  8
HON
 62
     9
420
 12632256
370
    25
100
AcDbLine
 10
336.4891519130404
 20
183.6070783685131
 30
0.0
 11
342.0225605483736
 21
175.3433338291078
 31
0.0
  0
LINE
  5
D6
330
70
100
AcDbEntity
  8
HON
 62
     9
420
 12632256
370
    25
100
AcDbLine
 10
296.9541681188472
 20
164.7431619085667
 30
0.0
 11
296.7451390173565
 21
154.3552260587946
 31
0.0
  0
LINE
  5
D7
330
70
100
AcDbEntity
  8
HON
 62
     9
420
 12632256
370
    25
100
AcDbLine
 10
296.7451390173565
 20
154.3552260587946
 30
0.0
 11
298.3174024346776
 21
165.6631999123001
 31
0.0
  0
LINE
  5
D8
330
70
100
AcDbEntity
  8
HON
 62
     9
420
 12632256
370
    25
100
AcDbLine
 10
298.3174024346776
 20
165.6631999123001
 30
0.0
 11
299.1114475137902
 21
155.7849115122747
 31
0.0
  0
LINE
  5
D9
330
70
100
AcDbEntity
  8
HON
 62
     9
420
 12632256
370
    25
100
AcDbLine
 10
299.1114475137902
 20
155.7849115122747
 30
0.0
 11
300.7438066126259
 21
167.577673060413
 31
0.0
  0
LINE
  5
DA
330
70
100
AcDbEntity
  8
HON
 62
     9
420
 12632256
370
    25
100
AcDbLine
 10
300.7438066126259
 20
167.577673060413
 30
0.0
 11
303.6321228599638
 21
158.0907517712004
 31
0.0
  0
LINE
  5
DB
330
70
100
AcDbEntity
  8
HON
 62
     9
420
 12632256
370
    25
100
AcDbLine
 10
303.6321228599638
 20
158.0907517712004
 30
0.0
 11
305.0796934729476
 21
169.2905627131066
 31
0.0
  0
LINE
  5
DC
330
70
100
AcDbEntity
  8
HON
 62
     9
420
 12632256
370
    25
100
AcDbLine
 10
305.0796934729476
 20
169.2905627131066
 30
0.0
 11
310.3439100569784
 21
160.5054951325887
 31
0.0
  0
LINE
  5
DD
330
70
100
AcDbEntity
  8
HON
 62
     9
420
 12632256
370
    25
100
AcDbLine
 10
310.3439100569784
 20
160.5054951325887
 30
0.0
 11
311.8181589567194
 21
170.8891149455617
 31
0.0
  0
LINE
  5
DE
330
70
100
AcDbEntity
  8
HON
 62
     9
420
 12632256
370
    25
100
AcDbLine
 10
311.8181589567194
 20
170.8891149455617
 30
0.0
 11
317.8868670420036
 21
162.4665111164939
 31
0.0
  0
LINE
  5
DF
330
70
100
AcDbEntity
  8
HON
 62
     9
420
 12632256
370
    25
100
AcDbLine
 10
317.8868670420036
 20
162.4665111164939
 30
0.0
 11
319.5666014262702
 21
172.140963110753
 31
0.0
  0
LINE
  5
E0
330
70
100
AcDbEntity
  8
HON
 62
     9
420
 12632256
370
    25
100
AcDbLine
 10
319.5666014262702
 20
172.140963110753
 30
0.0
 11
325.7508758366427
 21
163.7290285238008
 31
0.0
  0
LINE
  5
E1
330
70
100
AcDbEntity
  8
HON
 62
     9
420
 12632256
370
    25
100
AcDbLine
 10
325.7508758366427
 20
163.7290285238008
 30
0.0
 11
327.6527680969656
 21
173.2197922365697
 31
0.0
  0
LINE
  5
E2
330
70
100
AcDbEntity
  8
HON
 62
     9
420
 12632256
370
    25
100
AcDbLine
 10
327.6527680969656
 20
173.2197922365697
 30
0.0
 11
334.1063032384913
 21
165.1471261955834
 31
0.0
  0
LINE
  5
E3
330
70
100
AcDbEntity
  8
HON
 62
     9
420
 12632256
370
    25
100
AcDbLine
 10
334.1063032384913
 20
165.1471261955834
 30
0.0
 11
336.5831036925233
 21
173.9172649699203
 31
0.0
  0
LINE
  5
E4
330
70
100
AcDbEntity
  8
HON
 62
     9
420
 12632256
370
    25
100
AcDbLine
 10
336.5831036925233
 20
173.9172649699203
 30
0.0
 11
342.0289004639388
 21
165.7158964027764
 31
0.0
  0
LINE
  5
E5
330
70
100
AcDbEntity
  8
HON
 62
     9
420
 12632256
370
    25
100
AcDbLine
 10
296.9541681188536
 20
164.7431619085667
 30
0.0
 11
301.5300424777449
 21
171.5731629526627
 31
0.0
  0
LINE
  5
E6
330
70
100
AcDbEntity
  8
HON
 62
     9
420
 12632256
370
    25
100
AcDbLine
 10
298.3174024346776
 20
165.6631999123001
 30
0.0
 11
302.883090823775
 21
172.3128747239385
 31
0.0
  0
LINE
  5
E7
330
70
100
AcDbEntity
  8
HON
 62
     9
420
 12632256
370
    25
100
AcDbLine
 10
300.7438066126259
 20
167.577673060413
 30
0.0
 11
305.2567513141204
 21
172.7890492638839
 31
0.0
  0
LINE
  5
E8
330
70
100
AcDbEntity
  8
HON
 62
     9
420
 12632256
370
    25
100
AcDbLine
 10
305.0796934729476
 20
169.2905627131066
 30
0.0
 11
309.6561158985792
 21
173.771799085063
 31
0.0
  0
LINE
  5
E9
330
70
100
AcDbEntity
  8
HON
 62
     9
420
 12632256
370
    25
100
AcDbLine
 10
311.8181589567194
 20
170.8891149455617
 30
0.0
 11
315.3524727129314
 21
174.3365586838784
 31
0.0
  0
LINE
  5
EA
330
70
100
AcDbEntity
  8
HON
 62
     9
420
 12632256
370
    25
100
AcDbLine
 10
319.5666014262702
 20
172.140963110753
 30
0.0
 11
322.4373214928003
 21
175.3581553084499
 31
0.0
  0
LINE
  5
EB
330
70
100
AcDbEntity
  8
HON
 62
     9
420
 12632256
370
    25
100
AcDbLine
 10
327.6527680969656
 20
173.2197922365697
 30
0.0
 11
331.2868892159567
 21
176.4958949375904
 31
0.0
  0
LINE
  5
EC
330
70
100
AcDbEntity
  8
HON
 62
     9
420
 12632256
370
    25
100
AcDbLine
 10
336.5831036925233
 20
173.9172649699203
 30
0.0
 11
340.6708381048354
 21
177.3620332778055
 31
0.0
  0
LINE
  5
ED
330
70
100
AcDbEntity
  8
HON
 62
     9
420
 12632256
370
    25
100
AcDbLine
 10
302.0471332099369
 20
188.6661406856047
 30
0.0
 11
303.3682601473903
 21
184.7413437741206
 31
0.0
  0
LINE
  5
EE
330
70
100
AcDbEntity
  8
HON
 62
     9
420
 12632256
370
    25
100
AcDbLine
 10
335.1991585381511
 20
193.2855136206097
 30
0.0
 11
337.8413969862312
 21
196.7990598377297
 31
0.0
  0
LINE
  5
EF
330
70
100
AcDbEntity
  8
HON
 62
     9
420
 12632256
370
    25
100
AcDbLine
 10
326.8766375127675
 20
192.4576260036829
 30
0.0
 11
330.8552483596017
 21
195.8637894399689
 31
0.0
  0
LINE
  5
F0
330
70
100
AcDbEntity
  8
HON
 62
     9
420
 12632256
370
    25
100
AcDbLine
 10
318.1310005281027
 20
191.3646702965039
 30
0.0
 11
322.7595188760657
 21
195.3265370417698
 31
0.0
  0
LINE
  5
F1
330
70
100
AcDbEntity
  8
HON
 62
     9
420
 12632256
370
    25
100
AcDbLine
 10
315.0283369134957
 20
194.5761033624147
 30
0.0
 11
312.2477171205229
 21
190.0346240626369
 31
0.0
  0
LINE
  5
F2
330
70
100
AcDbEntity
  8
HON
 62
     9
420
 12632256
370
    25
100
AcDbLine
 10
308.2056742580979
 20
188.5526475298103
 30
0.0
 11
310.2013990151153
 21
193.3004937978167
 31
0.0
  0
LINE
  5
F3
330
70
100
AcDbEntity
  8
HON
 62
     9
420
 12632256
370
    25
100
AcDbLine
 10
305.8147237000324
 20
187.0688873618566
 30
0.0
 11
305.7963530427673
 21
191.4358933761945
 31
0.0
  0
LINE
  5
F4
330
70
100
AcDbEntity
  8
HON
 62
     9
420
 12632256
370
    25
100
AcDbLine
 10
304.2878144785575
 20
185.2448495530527
 30
0.0
 11
303.6927483758952
 21
190.8312255898991
 31
0.0
  0
LINE
  5
F5
330
70
100
AcDbEntity
  8
HON
 62
     9
420
 12632256
370
    25
100
AcDbLine
 10
332.9383461717764
 20
174.3630686515776
 30
0.0
 11
334.1063032384913
 21
165.1471261955834
 31
0.0
  0
LINE
  5
F6
330
70
100
AcDbEntity
  8
HON
 62
     9
420
 12632256
370
    25
100
AcDbLine
 10
323.6118399324288
 20
173.898890663469
 30
0.0
 11
325.7508758366427
 21
163.7290285238008
 31
0.0
  0
LINE
  5
F7
330
70
100
AcDbEntity
  8
HON
 62
     9
420
 12632256
370
    25
100
AcDbLine
 10
316.578095032581
 20
172.8787047719112
 30
0.0
 11
317.8868670420036
 21
162.4665111164939
 31
0.0
  0
LINE
  5
F8
330
70
100
AcDbEntity
  8
HON
 62
     9
420
 12632256
370
    25
100
AcDbLine
 10
310.2843791928261
 20
172.9594938010326
 30
0.0
 11
310.3439100569784
 21
160.5054951325887
 31
0.0
  0
LINE
  5
F9
330
70
100
AcDbEntity
  8
HON
 62
     9
420
 12632256
370
    25
100
AcDbLine
 10
337.8515044416519
 20
196.7914588825447
 30
0.0
 11
342.0091744691463
 21
193.6648298524364
 31
0.0
  0
LINE
  5
FA
330
70
100
AcDbEntity
  8
HON
 62
     9
420
 12632256
370
    25
100
AcDbLine
 10
330.8552483596017
 20
195.8637894399689
 30
0.0
 11
335.2325054436889
 21
193.0353217418322
 31
0.0
  0
LINE
  5
FB
330
70
100
AcDbEntity
  8
HON
 62
     9
420
 12632256
370
    25
100
AcDbLine
 10
322.7595188760657
 20
195.3265370417698
 30
0.0
 11
326.8800647556974
 21
192.6175257562126
 31
0.0
  0
LINE
  5
FC
330
70
100
AcDbEntity
  8
HON
 62
     9
420
 12632256
370
    25
100
AcDbLine
 10
315.0283369134957
 20
194.5761033624147
 30
0.0
 11
318.1310005281027
 21
191.3646702965039
 31
0.0
  0
LINE
  5
FD
330
70
100
AcDbEntity
  8
HON
 62
     9
420
 12632256
370
    25
100
AcDbLine
 10
334.0839437384163
 20
160.8297756309261
 30
0.0
 11
322.2301177486268
 21
149.1821304725692
 31
0.0
  0
LINE
  5
FE
330
70
100
AcDbEntity
  8
HON
 62
     9
420
 12632256
370
    25
100
AcDbLine
 10
322.2301177486268
 20
149.1821304725692
 30
0.0
 11
325.9328626335407
 21
160.7832979464985
 31
0.0
  0
LINE
  5
FF
330
70
100
AcDbEntity
  8
HON
 62
     9
420
 12632256
370
    25
100
AcDbLine
 10
325.9328626335407
 20
160.7832979464985
 30
0.0
 11
312.4548766159051
 21
146.3564124708539
 31
0.0
  0
LINE
  5
100
330
70
100
AcDbEntity
  8
HON
 62
     9
420
 12632256
370
    25
100
AcDbLine
 10
312.4548766159051
 20
146.3564124708539
 30
0.0
 11
317.4845178484934
 21
159.365980747682
 31
0.0
  0
LINE
  5
101
330
70
100
AcDbEntity
  8
HON
 62
     9
420
 12632256
370
    25
100
AcDbLine
 10
317.4845178484934
 20
159.365980747682
 30
0.0
 11
305.0450288186333
 21
143.252144042772
 31
0.0
  0
LINE
  5
102
330
70
100
AcDbEntity
  8
HON
 62
     9
420
 12632256
370
    25
100
AcDbLine
 10
305.0450288186333
 20
143.252144042772
 30
0.0
 11
309.3096879793739
 21
157.9245096979571
 31
0.0
  0
LINE
  5
103
330
70
100
AcDbEntity
  8
HON
 62
     9
420
 12632256
370
    25
100
AcDbLine
 10
309.3096879793739
 20
157.9245096979571
 30
0.0
 11
299.3585837965998
 21
140.8987961899165
 31
0.0
  0
LINE
  5
104
330
70
100
AcDbEntity
  8
HON
 62
     9
420
 12632256
370
    25
100
AcDbLine
 10
299.3585837965998
 20
140.8987961899165
 30
0.0
 11
303.1200885157103
 21
155.6529616868112
 31
0.0
  0
LINE
  5
105
330
70
100
AcDbEntity
  8
HON
 62
     9
420
 12632256
370
    25
100
AcDbLine
 10
303.1200885157103
 20
155.6529616868112
 30
0.0
 11
295.9793151167259
 21
138.9308617495514
 31
0.0
  0
LINE
  5
106
330
70
100
AcDbEntity
  8
HON
 62
     9
420
 12632256
370
    25
100
AcDbLine
 10
294.0917938298063
 20
137.2530957266308
 30
0.0
 11
298.2560892694769
 21
149.8553073406759
 31
0.0
  0
LINE
  5
107
330
70
100
AcDbEntity
  8
HON
 62
     9
420
 12632256
370
    25
100
AcDbLine
 10
334.0839437384163
 20
160.8297756309261
 30
0.0
 11
333.2960319347732
 21
150.0565080654731
 31
0.0
  0
LINE
  5
108
330
70
100
AcDbEntity
  8
HON
 62
     9
420
 12632256
370
    25
100
AcDbLine
 10
334.1063032384913
 20
165.1471261955834
 30
0.0
 11
337.52745920054
 21
157.4396161945881
 31
0.0
  0
LINE
  5
109
330
70
100
AcDbEntity
  8
HON
 62
     9
420
 12632256
370
    25
100
AcDbLine
 10
325.7508758366427
 20
163.7290285238008
 30
0.0
 11
329.5301462037269
 21
156.2927780660725
 31
0.0
  0
LINE
  5
10A
330
70
100
AcDbEntity
  8
HON
 62
     9
420
 12632256
370
    25
100
AcDbLine
 10
317.8868670420036
 20
162.4665111164939
 30
0.0
 11
320.6731065510311
 21
155.5294517817414
 31
0.0
  0
LINE
  5
10B
330
70
100
AcDbEntity
  8
HON
 62
     9
420
 12632256
370
    25
100
AcDbLine
 10
310.3439100569784
 20
160.5054951325887
 30
0.0
 11
312.8312860240084
 21
154.5761966345346
 31
0.0
  0
LINE
  5
10C
330
70
100
AcDbEntity
  8
HON
 62
     9
420
 12632256
370
    25
100
AcDbLine
 10
303.6321228599638
 20
158.0907517712004
 30
0.0
 11
306.0893813883457
 21
152.4549157267173
 31
0.0
  0
LINE
  5
10D
330
70
100
AcDbEntity
  8
HON
 62
     9
420
 12632256
370
    25
100
AcDbLine
 10
299.1114475137902
 20
155.7849115122747
 30
0.0
 11
301.880131199693
 21
149.666035855256
 31
0.0
  0
LINE
  5
10E
330
70
100
AcDbEntity
  8
HON
 62
     9
420
 12632256
370
    25
100
AcDbLine
 10
295.9793151167259
 20
138.9308617495514
 30
0.0
 11
299.1032062416835
 21
152.0924761980128
 31
0.0
  0
LINE
  5
10F
330
70
100
AcDbEntity
  8
HON
 62
     9
420
 12632256
370
    25
100
AcDbLine
 10
334.0839437384163
 20
160.8297756309261
 30
0.0
 11
338.8614206515111
 21
156.0503834411609
 31
0.0
  0
LINE
  5
110
330
70
100
AcDbEntity
  8
HON
 62
     9
420
 12632256
370
    25
100
AcDbLine
 10
325.9328626335407
 20
160.7832979464985
 30
0.0
 11
329.2627291567653
 21
155.9809699358732
 31
0.0
  0
LINE
  5
111
330
70
100
AcDbEntity
  8
HON
 62
     9
420
 12632256
370
    25
100
AcDbLine
 10
317.4845178484934
 20
159.365980747682
 30
0.0
 11
320.5476941706175
 21
155.3710035525068
 31
0.0
  0
LINE
  5
112
330
70
100
AcDbEntity
  8
HON
 62
     9
420
 12632256
370
    25
100
AcDbLine
 10
309.3096879793739
 20
157.9245096979571
 30
0.0
 11
313.0111801328173
 21
154.026262721367
 31
0.0
  0
LINE
  5
113
330
70
100
AcDbEntity
  8
HON
 62
     9
420
 12632256
370
    25
100
AcDbLine
 10
303.1200885157103
 20
155.6529616868112
 30
0.0
 11
306.4947442892993
 21
151.4852562961446
 31
0.0
  0
LINE
  5
114
330
70
100
AcDbEntity
  8
HON
 62
     9
420
 12632256
370
    25
100
AcDbLine
 10
299.1032062416835
 20
152.0924761980128
 30
0.0
 11
302.0026350585987
 21
149.3041121705598
 31
0.0
  0
LINE
  5
115
330
70
100
AcDbEntity
  8
HON
 62
     9
420
 12632256
370
    25
100
AcDbLine
 10
334.0839437384163
 20
160.8297756309261
 30
0.0
 11
335.8213815169884
 21
161.9724998300064
 31
0.0
  0
LINE
  5
116
330
70
100
AcDbEntity
  8
HON
 62
     9
420
 12632256
370
    25
100
AcDbLine
 10
325.9328626335407
 20
160.7832979464985
 30
0.0
 11
327.5581662520876
 21
161.9514377049453
 31
0.0
  0
LINE
  5
117
330
70
100
AcDbEntity
  8
HON
 62
     9
420
 12632256
370
    25
100
AcDbLine
 10
294.4631988947978
 20
132.1396669081857
 30
0.0
 11
294.1182178292903
 21
137.3132114252598
 31
0.0
  0
LINE
  5
118
330
70
100
AcDbEntity
  8
HON
 62
     9
420
 12632256
370
    25
100
AcDbLine
 10
296.3160133468202
 20
133.6434002242163
 30
0.0
 11
296.0056384368098
 21
138.9780186250658
 31
0.0
  0
LINE
  5
119
330
70
100
AcDbEntity
  8
HON
 62
     9
420
 12632256
370
    25
100
AcDbLine
 10
299.6732767607348
 20
135.9725466923404
 30
0.0
 11
299.3848527180594
 21
140.9389512140944
 31
0.0
  0
LINE
  5
11A
330
70
100
AcDbEntity
  8
HON
 62
     9
420
 12632256
370
    25
100
AcDbLine
 10
305.564969428803
 20
138.4167109150023
 30
0.0
 11
305.0712751271607
 21
143.2893884706015
 31
0.0
  0
LINE
  5
11B
330
70
100
AcDbEntity
  8
HON
 62
     9
420
 12632256
370
    25
100
AcDbLine
 10
312.8864321045439
 20
139.9796828321429
 30
0.0
 11
312.4811439297681
 21
146.3963605752858
 31
0.0
  0
LINE
  5
11C
330
70
100
AcDbEntity
  8
HON
 62
     9
420
 12632256
370
    25
100
AcDbLine
 10
322.5733285666205
 20
141.1747500774062
 30
0.0
 11
322.256430752509
 21
149.2279595109763
 31
0.0
  0
LINE
  5
11D
330
70
100
AcDbEntity
  8
HON
 62
     9
420
 12632256
370
    25
100
AcDbLine
 10
317.4845178484934
 20
159.365980747682
 30
0.0
 11
318.9404896592491
 21
160.8484846664193
 31
0.0
  0
LINE
  5
11E
330
70
100
AcDbEntity
  8
HON
 62
     9
420
 12632256
370
    25
100
AcDbLine
 10
309.3096879793739
 20
157.9245096979571
 30
0.0
 11
310.5461495824675
 21
159.4070136166945
 31
0.0
  0
LINE
  5
11F
330
70
100
AcDbEntity
  8
HON
 62
     9
420
 12632256
370
    25
100
AcDbLine
 10
303.1200885157103
 20
155.6529616868112
 30
0.0
 11
304.0431134367428
 21
157.1354656055479
 31
0.0
  0
LINE
  5
120
330
70
100
AcDbEntity
  8
HON
 62
     9
420
 12632256
370
    25
100
AcDbLine
 10
299.1032062416835
 20
152.0924761980128
 30
0.0
 11
299.6554772203412
 21
153.5749801167501
 31
0.0
  0
LINE
  5
121
330
70
100
AcDbEntity
  8
HON
 62
     9
420
 12632256
370
    25
100
AcDbLine
 10
316.8964793811702
 20
99.80591160039066
 30
0.0
 11
326.8879795624645
 21
91.34067928993838
 31
0.0
  0
LINE
  5
122
330
70
100
AcDbEntity
  8
HON
 62
     9
420
 12632256
370
    25
100
AcDbLine
 10
304.1025591626056
 20
113.4888581787101
 30
0.0
 11
300.2569857292461
 21
118.775374066802
 31
0.0
  0
LINE
  5
123
330
70
100
AcDbEntity
  8
HON
 62
     9
420
 12632256
370
    25
100
AcDbLine
 10
306.835857423979
 20
107.5907194228661
 30
0.0
 11
312.3322773184023
 21
99.6575202282392
 31
0.0
  0
LINE
  5
124
330
70
100
AcDbEntity
  8
HON
 62
     9
420
 12632256
370
    25
100
AcDbLine
 10
306.835857423979
 20
107.5907194228661
 30
0.0
 11
307.3735450585504
 21
112.5040983632846
 31
0.0
  0
LINE
  5
125
330
70
100
AcDbEntity
  8
HON
 62
     9
420
 12632256
370
    25
100
AcDbLine
 10
300.2569857292461
 20
118.775374066802
 30
0.0
 11
300.0958006577255
 21
124.1488648671616
 31
0.0
  0
LINE
  5
126
330
70
100
AcDbEntity
  8
HON
 62
     9
420
 12632256
370
    25
100
AcDbLine
 10
339.0970672158493
 20
102.0708391550816
 30
0.0
 11
341.9767245680009
 21
93.88975296898037
 31
0.0
  0
LINE
  5
127
330
70
100
AcDbEntity
  8
HON
 62
     9
420
 12632256
370
    25
100
AcDbLine
 10
339.0970672158493
 20
102.0708391550816
 30
0.0
 11
338.9465998076677
 21
93.83785269624082
 31
0.0
  0
LINE
  5
128
330
70
100
AcDbEntity
  8
HON
 62
     9
420
 12632256
370
    25
100
AcDbLine
 10
338.9465998076677
 20
93.83785269624082
 30
0.0
 11
333.6776940626423
 21
101.8825380726678
 31
0.0
  0
LINE
  5
129
330
70
100
AcDbEntity
  8
HON
 62
     9
420
 12632256
370
    25
100
AcDbLine
 10
333.6776940626423
 20
101.8825380726678
 30
0.0
 11
335.6578262881657
 21
93.65552477823413
 31
0.0
  0
LINE
  5
12A
330
70
100
AcDbEntity
  8
HON
 62
     9
420
 12632256
370
    25
100
AcDbLine
 10
335.6578262881657
 20
93.65552477823413
 30
0.0
 11
328.683171160025
 21
101.8483228956834
 31
0.0
  0
LINE
  5
12B
330
70
100
AcDbEntity
  8
HON
 62
     9
420
 12632256
370
    25
100
AcDbLine
 10
328.683171160025
 20
101.8483228956834
 30
0.0
 11
332.6752490470913
 21
93.34791364483837
 31
0.0
  0
LINE
  5
12C
330
70
100
AcDbEntity
  8
HON
 62
     9
420
 12632256
370
    25
100
AcDbLine
 10
332.6752490470913
 20
93.34791364483837
 30
0.0
 11
324.3054352221762
 21
101.3159702054835
 31
0.0
  0
LINE
  5
12D
330
70
100
AcDbEntity
  8
HON
 62
     9
420
 12632256
370
    25
100
AcDbLine
 10
324.3054352221762
 20
101.3159702054835
 30
0.0
 11
330.2592672318356
 21
92.9468519537154
 31
0.0
  0
LINE
  5
12E
330
70
100
AcDbEntity
  8
HON
 62
     9
420
 12632256
370
    25
100
AcDbLine
 10
330.2592672318356
 20
92.9468519537154
 30
0.0
 11
320.7127201861575
 21
101.8477800848338
 31
0.0
  0
LINE
  5
12F
330
70
100
AcDbEntity
  8
HON
 62
     9
420
 12632256
370
    25
100
AcDbLine
 10
320.7127201861575
 20
101.8477800848338
 30
0.0
 11
328.499389461455
 21
92.48715444678447
 31
0.0
  0
LINE
  5
130
330
70
100
AcDbEntity
  8
HON
 62
     9
420
 12632256
370
    25
100
AcDbLine
 10
328.499389461455
 20
92.48715444678447
 30
0.0
 11
318.5637707629653
 21
100.9939755918655
 31
0.0
  0
LINE
  5
131
330
70
100
AcDbEntity
  8
HON
 62
     9
420
 12632256
370
    25
100
AcDbLine
 10
318.4668272305684
 20
101.0296127372412
 30
0.0
 11
327.414421293102
 21
92.00866217323586
 31
0.0
  0
LINE
  5
132
330
70
100
AcDbEntity
  8
HON
 62
     9
420
 12632256
370
    25
100
AcDbLine
 10
327.414421293102
 20
92.00866217323586
 30
0.0
 11
317.9924841609509
 21
100.3063719582561
 31
0.0
  0
LINE
  5
133
330
70
100
AcDbEntity
  8
HON
 62
     9
420
 12632256
370
    25
100
AcDbLine
 10
317.8450749603381
 20
100.3574951753253
 30
0.0
 11
326.9503755181442
 21
91.57381262959502
 31
0.0
  0
LINE
  5
134
330
70
100
AcDbEntity
  8
HON
 62
     9
420
 12632256
370
    25
100
AcDbLine
 10
326.9503755181442
 20
91.57381262959502
 30
0.0
 11
317.5725609779889
 21
99.89453315192143
 31
0.0
  0
LINE
  5
135
330
70
100
AcDbEntity
  8
HON
 62
     9
420
 12632256
370
    25
100
AcDbLine
 10
317.51113104775
 20
99.91420237990388
 30
0.0
 11
326.8879795624645
 21
91.34067928993196
 31
0.0
  0
LINE
  5
136
330
70
100
AcDbEntity
  8
HON
 62
     9
420
 12632256
370
    25
100
AcDbLine
 10
341.8071221318131
 20
102.0708391550816
 30
0.0
 11
333.9165295270683
 21
111.3817103701173
 31
0.0
  0
LINE
  5
137
330
70
100
AcDbEntity
  8
HON
 62
     9
420
 12632256
370
    25
100
AcDbLine
 10
333.9165295270683
 20
111.3817103701173
 30
0.0
 11
336.1701277136715
 21
101.8825380726678
 31
0.0
  0
LINE
  5
138
330
70
100
AcDbEntity
  8
HON
 62
     9
420
 12632256
370
    25
100
AcDbLine
 10
336.1701277136715
 20
101.8825380726678
 30
0.0
 11
327.0839446189205
 21
110.8705634902931
 31
0.0
  0
LINE
  5
139
330
70
100
AcDbEntity
  8
HON
 62
     9
420
 12632256
370
    25
100
AcDbLine
 10
327.0839446189205
 20
110.8705634902931
 30
0.0
 11
330.5866751200754
 21
101.8483228956834
 31
0.0
  0
LINE
  5
13A
330
70
100
AcDbEntity
  8
HON
 62
     9
420
 12632256
370
    25
100
AcDbLine
 10
330.5866751200754
 20
101.8483228956834
 30
0.0
 11
321.31827809984
 21
110.8874630012954
 31
0.0
  0
LINE
  5
13B
330
70
100
AcDbEntity
  8
HON
 62
     9
420
 12632256
370
    25
100
AcDbLine
 10
321.31827809984
 20
110.8874630012954
 30
0.0
 11
325.440935739144
 21
101.5390292757319
 31
0.0
  0
LINE
  5
13C
330
70
100
AcDbEntity
  8
HON
 62
     9
420
 12632256
370
    25
100
AcDbLine
 10
325.440935739144
 20
101.5390292757319
 30
0.0
 11
316.1317508141464
 21
110.2431103399118
 31
0.0
  0
LINE
  5
13D
330
70
100
AcDbEntity
  8
HON
 62
     9
420
 12632256
370
    25
100
AcDbLine
 10
316.1317508141464
 20
110.2431103399118
 30
0.0
 11
320.9306574495377
 21
101.8477800848338
 31
0.0
  0
LINE
  5
13E
330
70
100
AcDbEntity
  8
HON
 62
     9
420
 12632256
370
    25
100
AcDbLine
 10
320.9306574495377
 20
101.8477800848338
 30
0.0
 11
311.9619100767655
 21
109.5779861168302
 31
0.0
  0
LINE
  5
13F
330
70
100
AcDbEntity
  8
HON
 62
     9
420
 12632256
370
    25
100
AcDbLine
 10
311.9619100767655
 20
109.5779861168302
 30
0.0
 11
317.2291677165154
 21
101.4845853478984
 31
0.0
  0
LINE
  5
140
330
70
100
AcDbEntity
  8
HON
 62
     9
420
 12632256
370
    25
100
AcDbLine
 10
317.2291677165154
 20
101.4845853478984
 30
0.0
 11
309.3030085033618
 21
108.8987488117435
 31
0.0
  0
LINE
  5
141
330
70
100
AcDbEntity
  8
HON
 62
     9
420
 12632256
370
    25
100
AcDbLine
 10
309.3030085033618
 20
108.8987488117435
 30
0.0
 11
314.685699541559
 21
100.8215961808061
 31
0.0
  0
LINE
  5
142
330
70
100
AcDbEntity
  8
HON
 62
     9
420
 12632256
370
    25
100
AcDbLine
 10
314.685699541559
 20
100.8215961808061
 30
0.0
 11
307.6626372002094
 21
108.0847062430884
 31
0.0
  0
LINE
  5
143
330
70
100
AcDbEntity
  8
HON
 62
     9
420
 12632256
370
    25
100
AcDbLine
 10
307.6626372002094
 20
108.0847062430884
 30
0.0
 11
312.9155489717602
 21
100.2039629149611
 31
0.0
  0
LINE
  5
144
330
70
100
AcDbEntity
  8
HON
 62
     9
420
 12632256
370
    25
100
AcDbLine
 10
312.9155489717602
 20
100.2039629149611
 30
0.0
 11
306.835857423979
 21
107.5907194228661
 31
0.0
  0
LINE
  5
145
330
70
100
AcDbEntity
  8
HON
 62
     9
420
 12632256
370
    25
100
AcDbLine
 10
307.6626372002094
 20
108.0847062430884
 30
0.0
 11
308.4567906860618
 21
114.1383579851583
 31
0.0
  0
LINE
  5
146
330
70
100
AcDbEntity
  8
HON
 62
     9
420
 12632256
370
    25
100
AcDbLine
 10
309.3030085033618
 20
108.8987488117435
 30
0.0
 11
310.3195739410426
 21
115.8831371752622
 31
0.0
  0
LINE
  5
147
330
70
100
AcDbEntity
  8
HON
 62
     9
420
 12632256
370
    25
100
AcDbLine
 10
310.3195739410426
 20
115.8831371752622
 30
0.0
 11
311.9619100767655
 21
109.5779861168302
 31
0.0
  0
LINE
  5
148
330
70
100
AcDbEntity
  8
HON
 62
     9
420
 12632256
370
    25
100
AcDbLine
 10
311.9619100767655
 20
109.5779861168302
 30
0.0
 11
313.4557121435077
 21
116.4525095651416
 31
0.0
  0
LINE
  5
149
330
70
100
AcDbEntity
  8
HON
 62
     9
420
 12632256
370
    25
100
AcDbLine
 10
313.4557121435077
 20
116.4525095651416
 30
0.0
 11
316.1317508141464
 21
110.2431103399118
 31
0.0
  0
LINE
  5
14A
330
70
100
AcDbEntity
  8
HON
 62
     9
420
 12632256
370
    25
100
AcDbLine
 10
316.1317508141464
 20
110.2431103399118
 30
0.0
 11
317.7804621642264
 21
116.5593528332992
 31
0.0
  0
LINE
  5
14B
330
70
100
AcDbEntity
  8
HON
 62
     9
420
 12632256
370
    25
100
AcDbLine
 10
317.7804621642264
 20
116.5593528332992
 30
0.0
 11
321.31827809984
 21
110.8874630012954
 31
0.0
  0
LINE
  5
14C
330
70
100
AcDbEntity
  8
HON
 62
     9
420
 12632256
370
    25
100
AcDbLine
 10
321.31827809984
 20
110.8874630012954
 30
0.0
 11
323.3832765748216
 21
116.9361178413836
 31
0.0
  0
LINE
  5
14D
330
70
100
AcDbEntity
  8
HON
 62
     9
420
 12632256
370
    25
100
AcDbLine
 10
323.3832765748216
 20
116.9361178413836
 30
0.0
 11
327.0839446189205
 21
110.8705634902931
 31
0.0
  0
LINE
  5
14E
330
70
100
AcDbEntity
  8
HON
 62
     9
420
 12632256
370
    25
100
AcDbLine
 10
327.0839446189205
 20
110.8705634902931
 30
0.0
 11
330.1804517396052
 21
117.0241979479642
 31
0.0
  0
LINE
  5
14F
330
70
100
AcDbEntity
  8
HON
 62
     9
420
 12632256
370
    25
100
AcDbLine
 10
330.1804517396052
 20
117.0241979479642
 30
0.0
 11
333.9165295270683
 21
111.3817103701173
 31
0.0
  0
LINE
  5
150
330
70
100
AcDbEntity
  8
HON
 62
     9
420
 12632256
370
    25
100
AcDbLine
 10
333.9165295270683
 20
111.3817103701173
 30
0.0
 11
337.2947655693374
 21
116.5617050136309
 31
0.0
  0
LINE
  5
151
330
70
100
AcDbEntity
  8
HON
 62
     9
420
 12632256
370
    25
100
AcDbLine
 10
337.2947655693374
 20
116.5617050136309
 30
0.0
 11
341.9869733342868
 21
111.8217309354345
 31
0.0
  0
LINE
  5
152
330
70
100
AcDbEntity
  8
HON
 62
     9
420
 12632256
370
    25
100
AcDbLine
 10
304.1025591626056
 20
113.4888581787101
 30
0.0
 11
301.508807756954
 21
120.057475190949
 31
0.0
  0
LINE
  5
153
330
70
100
AcDbEntity
  8
HON
 62
     9
420
 12632256
370
    25
100
AcDbLine
 10
301.508807756954
 20
120.057475190949
 30
0.0
 11
305.1106761821088
 21
114.5069361074442
 31
0.0
  0
LINE
  5
154
330
70
100
AcDbEntity
  8
HON
 62
     9
420
 12632256
370
    25
100
AcDbLine
 10
305.1106761821088
 20
114.5069361074442
 30
0.0
 11
303.7017998810116
 21
121.4829507531691
 31
0.0
  0
LINE
  5
155
330
70
100
AcDbEntity
  8
HON
 62
     9
420
 12632256
370
    25
100
AcDbLine
 10
303.7017998810116
 20
121.4829507531691
 30
0.0
 11
307.1799652077797
 21
115.5967193489155
 31
0.0
  0
LINE
  5
156
330
70
100
AcDbEntity
  8
HON
 62
     9
420
 12632256
370
    25
100
AcDbLine
 10
307.1799652077797
 20
115.5967193489155
 30
0.0
 11
307.8231559696005
 21
122.9470563539189
 31
0.0
  0
LINE
  5
157
330
70
100
AcDbEntity
  8
HON
 62
     9
420
 12632256
370
    25
100
AcDbLine
 10
307.8231559696005
 20
122.9470563539189
 30
0.0
 11
310.3402650762443
 21
116.321169679603
 31
0.0
  0
LINE
  5
158
330
70
100
AcDbEntity
  8
HON
 62
     9
420
 12632256
370
    25
100
AcDbLine
 10
310.3402650762443
 20
116.321169679603
 30
0.0
 11
313.1393096291414
 21
124.3571522755073
 31
0.0
  0
LINE
  5
159
330
70
100
AcDbEntity
  8
HON
 62
     9
420
 12632256
370
    25
100
AcDbLine
 10
313.1393096291414
 20
124.3571522755073
 30
0.0
 11
315.2541912145226
 21
117.0502749565582
 31
0.0
  0
LINE
  5
15A
330
70
100
AcDbEntity
  8
HON
 62
     9
420
 12632256
370
    25
100
AcDbLine
 10
315.2541912145226
 20
117.0502749565582
 30
0.0
 11
319.4893405320556
 21
124.862672016225
 31
0.0
  0
LINE
  5
15B
330
70
100
AcDbEntity
  8
HON
 62
     9
420
 12632256
370
    25
100
AcDbLine
 10
319.4893405320556
 20
124.862672016225
 30
0.0
 11
321.208734708633
 21
117.5530013170988
 31
0.0
  0
LINE
  5
15C
330
70
100
AcDbEntity
  8
HON
 62
     9
420
 12632256
370
    25
100
AcDbLine
 10
321.208734708633
 20
117.5530013170988
 30
0.0
 11
326.8830097657204
 21
125.3904289079314
 31
0.0
  0
LINE
  5
15D
330
70
100
AcDbEntity
  8
HON
 62
     9
420
 12632256
370
    25
100
AcDbLine
 10
326.8830097657204
 20
125.3904289079314
 30
0.0
 11
327.6714843474943
 21
118.0563785925571
 31
0.0
  0
LINE
  5
15E
330
70
100
AcDbEntity
  8
HON
 62
     9
420
 12632256
370
    25
100
AcDbLine
 10
327.6714843474943
 20
118.0563785925571
 30
0.0
 11
334.2169907853081
 21
126.1648093305647
 31
0.0
  0
LINE
  5
15F
330
70
100
AcDbEntity
  8
HON
 62
     9
420
 12632256
370
    25
100
AcDbLine
 10
334.2169907853081
 20
126.1648093305647
 30
0.0
 11
334.8658770143607
 21
118.420212106418
 31
0.0
  0
LINE
  5
160
330
70
100
AcDbEntity
  8
HON
 62
     9
420
 12632256
370
    25
100
AcDbLine
 10
334.8658770143607
 20
118.420212106418
 30
0.0
 11
342.095765718968
 21
127.310296588526
 31
0.0
  0
LINE
  5
161
330
70
100
AcDbEntity
  8
HON
 62
     9
420
 12632256
370
    25
100
AcDbLine
 10
304.1025591626123
 20
113.4888581787037
 30
0.0
 11
307.308471201716
 21
111.9535594417486
 31
0.0
  0
LINE
  5
162
330
70
100
AcDbEntity
  8
HON
 62
     9
420
 12632256
370
    25
100
AcDbLine
 10
305.1106761821088
 20
114.5069361074442
 30
0.0
 11
308.384756286709
 21
112.9545388288422
 31
0.0
  0
LINE
  5
163
330
70
100
AcDbEntity
  8
HON
 62
     9
420
 12632256
370
    25
100
AcDbLine
 10
307.1799652077797
 20
115.5967193489155
 30
0.0
 11
309.9066408772201
 21
113.1261741754811
 31
0.0
  0
LINE
  5
164
330
70
100
AcDbEntity
  8
HON
 62
     9
420
 12632256
370
    25
100
AcDbLine
 10
310.3402650762443
 20
116.321169679603
 30
0.0
 11
312.9614865993142
 21
114.4711931843205
 31
0.0
  0
LINE
  5
165
330
70
100
AcDbEntity
  8
HON
 62
     9
420
 12632256
370
    25
100
AcDbLine
 10
315.2541912145226
 20
117.0502749565582
 30
0.0
 11
317.2638764572853
 21
115.069200281139
 31
0.0
  0
LINE
  5
166
330
70
100
AcDbEntity
  8
HON
 62
     9
420
 12632256
370
    25
100
AcDbLine
 10
321.208734708633
 20
117.5530013170988
 30
0.0
 11
322.6830412229904
 21
114.4190867899149
 31
0.0
  0
LINE
  5
167
330
70
100
AcDbEntity
  8
HON
 62
     9
420
 12632256
370
    25
100
AcDbLine
 10
327.6714843474943
 20
118.0563785925571
 30
0.0
 11
328.7749365429665
 21
114.389068466526
 31
0.0
  0
LINE
  5
168
330
70
100
AcDbEntity
  8
HON
 62
     9
420
 12632256
370
    25
100
AcDbLine
 10
334.8658770143607
 20
118.420212106418
 30
0.0
 11
335.5705230512904
 21
114.2415252506008
 31
0.0
  0
LINE
  5
169
330
70
100
AcDbEntity
  8
HON
 62
     9
420
 12632256
370
    25
100
AcDbLine
 10
317.4372455889406
 20
99.29641724919527
 30
0.0
 11
312.3322773184023
 21
99.6575202282392
 31
0.0
  0
LINE
  5
16A
330
70
100
AcDbEntity
  8
HON
 62
     9
420
 12632256
370
    25
100
AcDbLine
 10
336.1701277136715
 20
101.8825380726678
 30
0.0
 11
339.0861745084192
 21
100.2448887338064
 31
0.0
  0
LINE
  5
16B
330
70
100
AcDbEntity
  8
HON
 62
     9
420
 12632256
370
    25
100
AcDbLine
 10
330.5866751200754
 20
101.8483228956834
 30
0.0
 11
334.1073420959132
 21
100.0565876513926
 31
0.0
  0
LINE
  5
16C
330
70
100
AcDbEntity
  8
HON
 62
     9
420
 12632256
370
    25
100
AcDbLine
 10
325.440935739144
 20
101.5390292757319
 30
0.0
 11
329.5188238651983
 21
100.2448887338064
 31
0.0
  0
LINE
  5
16D
330
70
100
AcDbEntity
  8
HON
 62
     9
420
 12632256
370
    25
100
AcDbLine
 10
325.4969539985958
 20
100.2448887338064
 30
0.0
 11
320.9306574495377
 21
101.8477800848338
 31
0.0
  0
LINE
  5
16E
330
70
100
AcDbEntity
  8
HON
 62
     9
420
 12632256
370
    25
100
AcDbLine
 10
317.2291677165154
 20
101.4845853478984
 30
0.0
 11
322.1962906996223
 21
100.2448887338064
 31
0.0
  0
LINE
  5
16F
330
70
100
AcDbEntity
  8
HON
 62
     9
420
 12632256
370
    25
100
AcDbLine
 10
314.685699541559
 20
100.8215961808061
 30
0.0
 11
319.7436766077916
 21
99.69903814724091
 31
0.0
  0
LINE
  5
170
330
70
100
AcDbEntity
  8
HON
 62
     9
420
 12632256
370
    25
100
AcDbLine
 10
312.9155489717602
 20
100.2039629149611
 30
0.0
 11
318.4877061681465
 21
99.60151313194373
 31
0.0
  0
LINE
  5
171
330
70
100
AcDbEntity
  8
HON
 62
     9
420
 12632256
370
    25
100
AcDbLine
 10
337.2947655693374
 20
116.5617050136309
 30
0.0
 11
342.095765718968
 21
127.310296588526
 31
0.0
  0
LINE
  5
172
330
70
100
AcDbEntity
  8
HON
 62
     9
420
 12632256
370
    25
100
AcDbLine
 10
330.1804517396052
 20
117.0241979479642
 30
0.0
 11
334.2169907853081
 21
126.1648093305647
 31
0.0
  0
LINE
  5
173
330
70
100
AcDbEntity
  8
HON
 62
     9
420
 12632256
370
    25
100
AcDbLine
 10
323.3832765748216
 20
116.9361178413836
 30
0.0
 11
326.8830097657204
 21
125.3904289079314
 31
0.0
  0
LINE
  5
174
330
70
100
AcDbEntity
  8
HON
 62
     9
420
 12632256
370
    25
100
AcDbLine
 10
317.7804621642264
 20
116.5593528332992
 30
0.0
 11
319.4893405320556
 21
124.862672016225
 31
0.0
  0
LINE
  5
175
330
70
100
AcDbEntity
  8
HON
 62
     9
420
 12632256
370
    25
100
AcDbLine
 10
313.4557121435077
 20
116.4525095651416
 30
0.0
 11
313.1393096291414
 21
124.3571522755073
 31
0.0
  0
LINE
  5
176
330
70
100
AcDbEntity
  8
HON
 62
     9
420
 12632256
370
    25
100
AcDbLine
 10
339.0970672158493
 20
102.0708391550816
 30
0.0
 11
339.0970672158493
 21
105.1857323585253
 31
0.0
  0
LINE
  5
177
330
70
100
AcDbEntity
  8
HON
 62
     9
420
 12632256
370
    25
100
AcDbLine
 10
333.6776940626423
 20
101.8825380726678
 30
0.0
 11
333.6776940626423
 21
104.4399198869647
 31
0.0
  0
LINE
  5
178
330
70
100
AcDbEntity
  8
HON
 62
     9
420
 12632256
370
    25
100
AcDbLine
 10
328.683171160025
 20
101.8483228956834
 30
0.0
 11
328.683171160025
 21
103.828625476256
 31
0.0
  0
LINE
  5
179
330
70
100
AcDbEntity
  8
HON
 62
     9
420
 12632256
370
    25
100
AcDbLine
 10
324.3054352221762
 20
101.3159702054835
 30
0.0
 11
324.3054352221762
 21
103.1871765917106
 31
0.0
  0
LINE
  5
17A
330
70
100
AcDbEntity
  8
HON
 62
     9
420
 12632256
370
    25
100
AcDbLine
 10
342.1139851246865
 20
127.3326997073895
 30
0.0
 11
333.352622683056
 21
142.5226520811046
 31
0.0
  0
LINE
  5
17B
330
70
100
AcDbEntity
  8
HON
 62
     9
420
 12632256
370
    25
100
AcDbLine
 10
332.9522905762062
 20
127.622640928146
 30
0.0
 11
322.5835773329588
 21
141.2761997625073
 31
0.0
  0
LINE
  5
17C
330
70
100
AcDbEntity
  8
HON
 62
     9
420
 12632256
370
    25
100
AcDbLine
 10
322.5835773329588
 20
141.2761997625073
 30
0.0
 11
325.1944009277953
 21
126.811771992956
 31
0.0
  0
LINE
  5
17D
330
70
100
AcDbEntity
  8
HON
 62
     9
420
 12632256
370
    25
100
AcDbLine
 10
325.1944009277953
 20
126.811771992956
 30
0.0
 11
312.8966808708952
 21
140.0811325172511
 31
0.0
  0
LINE
  5
17E
330
70
100
AcDbEntity
  8
HON
 62
     9
420
 12632256
370
    25
100
AcDbLine
 10
312.8966808708952
 20
140.0811325172511
 30
0.0
 11
318.5128429963093
 21
126.1201766942943
 31
0.0
  0
LINE
  5
17F
330
70
100
AcDbEntity
  8
HON
 62
     9
420
 12632256
370
    25
100
AcDbLine
 10
318.5128429963093
 20
126.1201766942943
 30
0.0
 11
305.5752181951409
 21
138.5181606001163
 31
0.0
  0
LINE
  5
180
330
70
100
AcDbEntity
  8
HON
 62
     9
420
 12632256
370
    25
100
AcDbLine
 10
305.5752181951409
 20
138.5181606001163
 30
0.0
 11
312.1639962745924
 21
125.8433793503058
 31
0.0
  0
LINE
  5
181
330
70
100
AcDbEntity
  8
HON
 62
     9
420
 12632256
370
    25
100
AcDbLine
 10
312.1639962745924
 20
125.8433793503058
 30
0.0
 11
299.6835255270862
 21
136.0739963774544
 31
0.0
  0
LINE
  5
182
330
70
100
AcDbEntity
  8
HON
 62
     9
420
 12632256
370
    25
100
AcDbLine
 10
299.6835255270862
 20
136.0739963774544
 30
0.0
 11
307.0451808231561
 21
124.2579555255175
 31
0.0
  0
LINE
  5
183
330
70
100
AcDbEntity
  8
HON
 62
     9
420
 12632256
370
    25
100
AcDbLine
 10
307.0451808231561
 20
124.2579555255175
 30
0.0
 11
296.3262621131585
 21
133.7448499093238
 31
0.0
  0
LINE
  5
184
330
70
100
AcDbEntity
  8
HON
 62
     9
420
 12632256
370
    25
100
AcDbLine
 10
294.4734476611428
 20
132.2411165933004
 30
0.0
 11
300.8917794709759
 21
123.063735477313
 31
0.0
  0
LINE
  5
185
330
70
100
AcDbEntity
  8
HON
 62
     9
420
 12632256
370
    25
100
AcDbLine
 10
303.3093708433189
 20
123.9231859831976
 30
0.0
 11
294.4734476611428
 21
132.2411165933004
 31
0.0
  0
LINE
  5
186
330
70
100
AcDbEntity
  8
HON
 62
     9
420
 12632256
370
    25
100
AcDbLine
 10
332.9522905762062
 20
127.622640928146
 30
0.0
 11
333.352622683056
 21
142.5226520811046
 31
0.0
  0
LINE
  5
187
330
70
100
AcDbEntity
  8
HON
 62
     9
420
 12632256
370
    25
100
AcDbLine
 10
334.2169907853081
 20
126.1648093305647
 30
0.0
 11
337.8876800573524
 21
135.8054768088002
 31
0.0
  0
LINE
  5
188
330
70
100
AcDbEntity
  8
HON
 62
     9
420
 12632256
370
    25
100
AcDbLine
 10
326.8830097657204
 20
125.3904289079314
 30
0.0
 11
328.2028246824103
 21
134.5346785305638
 31
0.0
  0
LINE
  5
189
330
70
100
AcDbEntity
  8
HON
 62
     9
420
 12632256
370
    25
100
AcDbLine
 10
319.4893405320556
 20
124.862672016225
 30
0.0
 11
321.1050943370846
 21
131.4736551859178
 31
0.0
  0
LINE
  5
18A
330
70
100
AcDbEntity
  8
HON
 62
     9
420
 12632256
370
    25
100
AcDbLine
 10
313.1393096291414
 20
124.3571522755073
 30
0.0
 11
314.0743881975376
 21
130.2749181661188
 31
0.0
  0
LINE
  5
18B
330
70
100
AcDbEntity
  8
HON
 62
     9
420
 12632256
370
    25
100
AcDbLine
 10
307.8231559696005
 20
122.9470563539189
 30
0.0
 11
308.4847839191137
 21
128.7238160131045
 31
0.0
  0
LINE
  5
18C
330
70
100
AcDbEntity
  8
HON
 62
     9
420
 12632256
370
    25
100
AcDbLine
 10
303.7017998810116
 20
121.4829507531691
 30
0.0
 11
304.0125754980682
 21
126.8743206907888
 31
0.0
  0
LINE
  5
18D
330
70
100
AcDbEntity
  8
HON
 62
     9
420
 12632256
370
    25
100
AcDbLine
 10
301.508807756954
 20
120.057475190949
 30
0.0
 11
301.2477203653533
 21
125.6583878713511
 31
0.0
  0
LINE
  5
18E
330
70
100
AcDbEntity
  8
HON
 62
     9
420
 12632256
370
    25
100
AcDbLine
 10
296.3262621131585
 20
133.7448499093238
 30
0.0
 11
303.3093708433189
 21
123.9231859831976
 31
0.0
  0
LINE
  5
18F
330
70
100
AcDbEntity
  8
HON
 62
     9
420
 12632256
370
    25
100
AcDbLine
 10
332.9522905762062
 20
127.622640928146
 30
0.0
 11
337.8876800573524
 21
135.8054768088002
 31
0.0
  0
LINE
  5
190
330
70
100
AcDbEntity
  8
HON
 62
     9
420
 12632256
370
    25
100
AcDbLine
 10
325.1944009277953
 20
126.811771992956
 30
0.0
 11
328.2028246824103
 21
134.5346785305638
 31
0.0
  0
LINE
  5
191
330
70
100
AcDbEntity
  8
HON
 62
     9
420
 12632256
370
    25
100
AcDbLine
 10
318.5128429963093
 20
126.1201766942943
 30
0.0
 11
321.1050943370846
 21
131.4736551859178
 31
0.0
  0
LINE
  5
192
330
70
100
AcDbEntity
  8
HON
 62
     9
420
 12632256
370
    25
100
AcDbLine
 10
312.1639962745924
 20
125.8433793503058
 30
0.0
 11
314.0743881975376
 21
130.2749181661188
 31
0.0
  0
LINE
  5
193
330
70
100
AcDbEntity
  8
HON
 62
     9
420
 12632256
370
    25
100
AcDbLine
 10
307.0451808231561
 20
124.2579555255175
 30
0.0
 11
308.4847839191137
 21
128.7238160131045
 31
0.0
  0
LINE
  5
194
330
70
100
AcDbEntity
  8
HON
 62
     9
420
 12632256
370
    25
100
AcDbLine
 10
303.3093708433189
 20
123.9231859831976
 30
0.0
 11
304.0125754980682
 21
126.8743206907888
 31
0.0
  0
LINE
  5
195
330
70
100
AcDbEntity
  8
HON
 62
     9
420
 12632256
370
    25
100
AcDbLine
 10
300.8917794709759
 20
123.063735477313
 30
0.0
 11
301.2477203653533
 21
125.6583878713511
 31
0.0
  0
LINE
  5
196
330
70
100
AcDbEntity
  8
HON
 62
     9
420
 12632256
370
    25
100
AcDbLine
 10
332.9522905762062
 20
127.622640928146
 30
0.0
 11
334.2169907853081
 21
126.1648093305647
 31
0.0
  0
LINE
  5
197
330
70
100
AcDbEntity
  8
HON
 62
     9
420
 12632256
370
    25
100
AcDbLine
 10
325.1944009277953
 20
126.811771992956
 30
0.0
 11
326.8830097657204
 21
125.3904289079314
 31
0.0
  0
LINE
  5
198
330
70
100
AcDbEntity
  8
HON
 62
     9
420
 12632256
370
    25
100
AcDbLine
 10
318.5128429963093
 20
126.1201766942943
 30
0.0
 11
319.4893405320556
 21
124.862672016225
 31
0.0
  0
LINE
  5
199
330
70
100
AcDbEntity
  8
HON
 62
     9
420
 12632256
370
    25
100
AcDbLine
 10
312.1639962745924
 20
125.8433793503058
 30
0.0
 11
313.1393096291414
 21
124.3571522755073
 31
0.0
  0
LINE
  5
19A
330
70
100
AcDbEntity
  8
HON
 62
     9
420
 12632256
370
    25
100
AcDbLine
 10
307.0451808231561
 20
124.2579555255175
 30
0.0
 11
307.8231559696005
 21
122.9470563539189
 31
0.0
  0
LINE
  5
19B
330
70
100
AcDbEntity
  8
HON
 62
     9
420
 12632256
370
    25
100
AcDbLine
 10
303.3093708433189
 20
123.9231859831976
 30
0.0
 11
303.8616418219772
 21
122.7010684272041
 31
0.0
  0
LINE
  5
19C
330
70
100
AcDbEntity
  8
HON
 62
     9
420
 12632256
370
    25
100
AcDbLine
 10
301.3142870583064
 20
121.5812315585757
 30
0.0
 11
300.8917794709759
 21
123.063735477313
 31
0.0
  0
LINE
  5
19D
330
70
100
AcDbEntity
  8
HON
 62
     9
420
 12632256
370
    25
100
AcDbLine
 10
340.5357534613948
 20
91.80177063954477
 30
0.0
 11
338.2474045385384
 21
88.87065454014644
 31
0.0
  0
LINE
  5
19E
330
70
100
AcDbEntity
  8
HON
 62
     9
420
 12632256
370
    25
100
AcDbLine
 10
338.5659993692907
 20
91.93885855037645
 30
0.0
 11
334.9320953679825
 21
89.08640525916444
 31
0.0
  0
LINE
  5
19F
330
70
100
AcDbEntity
  8
HON
 62
     9
420
 12632256
370
    25
100
AcDbLine
 10
337.2054632582817
 20
92.13894005759533
 30
0.0
 11
332.1867083273757
 21
89.40088067153292
 31
0.0
  0
LINE
  5
1A0
330
70
100
AcDbEntity
  8
HON
 62
     9
420
 12632256
370
    25
100
AcDbLine
 10
336.3688247803559
 20
92.3694378394647
 30
0.0
 11
329.266419619114
 21
89.96676184513047
 31
0.0
  0
LINE
  5
1A1
330
70
100
AcDbEntity
  8
HON
 62
     9
420
 12632256
370
    25
100
AcDbLine
 10
336.0419414925946
 20
92.55523443750368
 30
0.0
 11
327.7465922874374
 21
90.49265515109743
 31
0.0
  0
LINE
  5
1A2
330
70
100
AcDbEntity
  8
HON
 62
     9
420
 12632256
370
    25
100
AcDbLine
 10
335.9628444861835
 20
92.70575809871903
 30
0.0
 11
326.9459448330469
 21
91.11584479435373
 31
0.0
  0
LINE
  5
1A3
330
70
100
AcDbEntity
  8
HON
 62
     9
420
 12632256
370
    25
100
AcDbLine
 10
310.2013990151153
 20
193.3004937978167
 30
0.0
 11
312.0724198327694
 21
191.4725582707835
 31
0.0
  0
LINE
  5
1A4
330
70
100
AcDbEntity
  8
HON
 62
     9
420
 12632256
370
    25
100
AcDbLine
 10
305.7963530427673
 20
191.4358933761945
 30
0.0
 11
307.5684878703252
 21
190.4251092679718
 31
0.0
  0
LINE
  5
1A5
330
70
100
AcDbEntity
  8
HON
 62
     9
420
 12632256
370
    25
100
AcDbLine
 10
303.6927483758952
 20
190.8312255898991
 30
0.0
 11
304.9355430276672
 21
190.4335402831049
 31
0.0
  0
LINE
  5
1A6
330
70
100
AcDbEntity
  8
HON
 62
     9
420
 12632256
370
    25
100
AcDbLine
 10
299.1032062416835
 20
152.0924761980128
 30
0.0
 11
296.7451390173565
 21
154.3552260587946
 31
0.0
  0
SPLINE
  5
1A7
330
70
100
AcDbEntity
  8
HON
 62
     9
420
 12632256
370
    25
100
AcDbSpline
210
0.0
220
0.0
230
1.0
 70
     8
 71
     3
 72
    11
 73
     7
 74
     0
 42
0.0000000001
 43
0.0000000001
 40
0.0
 40
0.0
 40
0.0
 40
0.0
 40
1.0
 40
1.0
 40
1.0
 40
2.0
 40
2.0
 40
2.0
 40
2.0
 10
326.8871383084813
 20
208.4354643492079
 30
0.0
 10
326.887126175523
 20
208.4417829844053
 30
0.0
 10
326.8872531102801
 20
208.4481016053846
 30
0.0
 10
326.8875191101201
 20
208.4544200811155
 30
0.0
 10
326.9467848226408
 20
209.8621989965069
 30
0.0
 10
333.7501195740791
 20
210.995312741131
 30
0.0
 10
342.0831925853187
 20
210.9853004659032
 30
0.0
  0
LINE
  5
1A8
330
70
100
AcDbEntity
  8
HON
 62
     9
420
 12632256
370
    25
100
AcDbLine
 10
341.8336341759439
 20
203.4296006851904
 30
0.0
 11
340.0575491122374
 21
210.9486938556598
 31
0.0
  0
LINE
  5
1A9
330
70
100
AcDbEntity
  8
HON
 62
     9
420
 12632256
370
    25
100
AcDbLine
 10
340.0575491122374
 20
210.9486938556598
 30
0.0
 11
337.9428981283134
 21
203.3375574559785
 31
0.0
  0
LINE
  5
1AA
330
70
100
AcDbEntity
  8
HON
 62
     9
420
 12632256
370
    25
100
AcDbLine
 10
337.9428981283134
 20
203.3375574559785
 30
0.0
 11
337.4337177346154
 21
210.8671253153132
 31
0.0
  0
LINE
  5
1AB
330
70
100
AcDbEntity
  8
HON
 62
     9
420
 12632256
370
    25
100
AcDbLine
 10
337.4337177346154
 20
210.8671253153132
 30
0.0
 11
332.601312885237
 21
203.0947305257445
 31
0.0
  0
LINE
  5
1AC
330
70
100
AcDbEntity
  8
HON
 62
     9
420
 12632256
370
    25
100
AcDbLine
 10
332.601312885237
 20
203.0947305257445
 30
0.0
 11
335.7340128193247
 21
210.757028155027
 31
0.0
  0
LINE
  5
1AD
330
70
100
AcDbEntity
  8
HON
 62
     9
420
 12632256
370
    25
100
AcDbLine
 10
335.7340128193247
 20
210.757028155027
 30
0.0
 11
326.2386198316229
 21
202.3578832962746
 31
0.0
  0
LINE
  5
1AE
330
70
100
AcDbEntity
  8
HON
 62
     9
420
 12632256
370
    25
100
AcDbLine
 10
326.2386198316229
 20
202.3578832962746
 30
0.0
 11
334.1257562920246
 21
210.6132146333075
 31
0.0
  0
LINE
  5
1AF
330
70
100
AcDbEntity
  8
HON
 62
     9
420
 12632256
370
    25
100
AcDbLine
 10
334.1257562920246
 20
210.6132146333075
 30
0.0
 11
322.0762507243642
 21
201.7020303865452
 31
0.0
  0
LINE
  5
1B0
330
70
100
AcDbEntity
  8
HON
 62
     9
420
 12632256
370
    25
100
AcDbLine
 10
322.0762507243642
 20
201.7020303865452
 30
0.0
 11
331.9359474912227
 21
210.3157810021783
 31
0.0
  0
LINE
  5
1B1
330
70
100
AcDbEntity
  8
HON
 62
     9
420
 12632256
370
    25
100
AcDbLine
 10
331.9359474912227
 20
210.3157810021783
 30
0.0
 11
320.1290610694203
 21
201.7020303865452
 31
0.0
  0
LINE
  5
1B2
330
70
100
AcDbEntity
  8
HON
 62
     9
420
 12632256
370
    25
100
AcDbLine
 10
320.1290610694203
 20
201.7020303865452
 30
0.0
 11
330.1156993983433
 21
210.0090715057907
 31
0.0
  0
LINE
  5
1B3
330
70
100
AcDbEntity
  8
HON
 62
     9
420
 12632256
370
    25
100
AcDbLine
 10
330.3067892420346
 20
210.0090715057907
 30
0.0
 11
317.059267213884
 21
200.7328205871759
 31
0.0
  0
LINE
  5
1B4
330
70
100
AcDbEntity
  8
HON
 62
     9
420
 12632256
370
    25
100
AcDbLine
 10
317.1469450843853
 20
200.8278429129395
 30
0.0
 11
328.8090587339787
 21
209.6182008720837
 31
0.0
  0
LINE
  5
1B5
330
70
100
AcDbEntity
  8
HON
 62
     9
420
 12632256
370
    25
100
AcDbLine
 10
328.6179688902874
 20
209.6182008720837
 30
0.0
 11
316.1946819134184
 21
200.6869397107702
 31
0.0
  0
LINE
  5
1B6
330
70
100
AcDbEntity
  8
HON
 62
     9
420
 12632256
370
    25
100
AcDbLine
 10
316.1946819134184
 20
200.6869397107702
 30
0.0
 11
327.3752820249163
 21
209.0794286834769
 31
0.0
  0
LINE
  5
1B7
330
70
100
AcDbEntity
  8
HON
 62
     9
420
 12632256
370
    25
100
AcDbLine
 10
316.1946819134184
 20
200.6869397107702
 30
0.0
 11
311.9698884975353
 21
199.0978722301063
 31
0.0
  0
LINE
  5
1B8
330
70
100
AcDbEntity
  8
HON
 62
     9
420
 12632256
370
    25
100
AcDbLine
 10
342.1298183644171
 20
160.820024279627
 30
0.0
 11
350.8669843845226
 21
150.0565080654731
 31
0.0
  0
LINE
  5
1B9
330
70
100
AcDbEntity
  8
HON
 62
     9
420
 12632256
370
    25
100
AcDbLine
 10
350.820642402585
 20
142.4212023960099
 30
0.0
 11
350.8402392539488
 21
150.1579577505743
 31
0.0
  0
LINE
  5
1BA
330
70
100
AcDbEntity
  8
HON
 62
     9
420
 12632256
370
    25
100
AcDbLine
 10
382.1150410614639
 20
188.6661406856047
 30
0.0
 11
380.4277499795749
 21
190.439979412202
 31
0.0
  0
LINE
  5
1BB
330
70
100
AcDbEntity
  8
HON
 62
     9
420
 12632256
370
    25
100
AcDbLine
 10
387.2080061525534
 20
164.7431619085667
 30
0.0
 11
388.4928871592957
 21
153.2453742799149
 31
0.0
  0
LINE
  5
1BC
330
70
100
AcDbEntity
  8
HON
 62
     9
420
 12632256
370
    25
100
AcDbLine
 10
385.2973407220405
 20
174.7109826982581
 30
0.0
 11
380.7939141240109
 21
184.7413437741206
 31
0.0
  0
LINE
  5
1BD
330
70
100
AcDbEntity
  8
HON
 62
     9
420
 12632256
370
    25
100
AcDbLine
 10
385.2973407220405
 20
174.7109826982581
 30
0.0
 11
382.398105347796
 21
171.3021973433375
 31
0.0
  0
LINE
  5
1BE
330
70
100
AcDbEntity
  8
HON
 62
     9
420
 12632256
370
    25
100
AcDbLine
 10
388.4928871592957
 20
153.2453742799149
 30
0.0
 11
385.6367735324603
 21
150.2571283409691
 31
0.0
  0
LINE
  5
1BF
330
70
100
AcDbEntity
  8
HON
 62
     9
420
 12632256
370
    25
100
AcDbLine
 10
346.3106698297492
 20
196.7914588825447
 30
0.0
 11
342.3285400954566
 21
203.4296006851904
 31
0.0
  0
LINE
  5
1C0
330
70
100
AcDbEntity
  8
HON
 62
     9
420
 12632256
370
    25
100
AcDbLine
 10
346.3106698297492
 20
196.7914588825447
 30
0.0
 11
348.9300275866724
 21
203.3375574559785
 31
0.0
  0
LINE
  5
1C1
330
70
100
AcDbEntity
  8
HON
 62
     9
420
 12632256
370
    25
100
AcDbLine
 10
348.9300275866724
 20
203.3375574559785
 30
0.0
 11
353.3069259117994
 21
195.8637894399689
 31
0.0
  0
LINE
  5
1C2
330
70
100
AcDbEntity
  8
HON
 62
     9
420
 12632256
370
    25
100
AcDbLine
 10
353.3069259117994
 20
195.8637894399689
 30
0.0
 11
355.3384362409088
 21
203.0947305257445
 31
0.0
  0
LINE
  5
1C3
330
70
100
AcDbEntity
  8
HON
 62
     9
420
 12632256
370
    25
100
AcDbLine
 10
355.3384362409088
 20
203.0947305257445
 30
0.0
 11
361.4026553953348
 21
195.3265370417698
 31
0.0
  0
LINE
  5
1C4
330
70
100
AcDbEntity
  8
HON
 62
     9
420
 12632256
370
    25
100
AcDbLine
 10
361.4026553953348
 20
195.3265370417698
 30
0.0
 11
360.9225487878068
 21
202.3578832962746
 31
0.0
  0
LINE
  5
1C5
330
70
100
AcDbEntity
  8
HON
 62
     9
420
 12632256
370
    25
100
AcDbLine
 10
360.9225487878068
 20
202.3578832962746
 30
0.0
 11
369.1338373579052
 21
194.5761033624147
 31
0.0
  0
LINE
  5
1C6
330
70
100
AcDbEntity
  8
HON
 62
     9
420
 12632256
370
    25
100
AcDbLine
 10
369.1338373579052
 20
194.5761033624147
 30
0.0
 11
364.0331132019812
 21
201.7020303865452
 31
0.0
  0
LINE
  5
1C7
330
70
100
AcDbEntity
  8
HON
 62
     9
420
 12632256
370
    25
100
AcDbLine
 10
364.0331132019812
 20
201.7020303865452
 30
0.0
 11
373.9607752562855
 21
193.3004937978167
 31
0.0
  0
LINE
  5
1C8
330
70
100
AcDbEntity
  8
HON
 62
     9
420
 12632256
370
    25
100
AcDbLine
 10
373.9607752562855
 20
193.3004937978167
 30
0.0
 11
366.7535841097917
 21
201.1114050433722
 31
0.0
  0
LINE
  5
1C9
330
70
100
AcDbEntity
  8
HON
 62
     9
420
 12632256
370
    25
100
AcDbLine
 10
366.7535841097917
 20
201.1114050433722
 30
0.0
 11
378.3658212286336
 21
191.4358933761945
 31
0.0
  0
LINE
  5
1CA
330
70
100
AcDbEntity
  8
HON
 62
     9
420
 12632256
370
    25
100
AcDbLine
 10
378.4627647610506
 20
191.4002562308195
 30
0.0
 11
369.4201298754716
 21
200.1405605596487
 31
0.0
  0
LINE
  5
1CB
330
70
100
AcDbEntity
  8
HON
 62
     9
420
 12632256
370
    25
100
AcDbLine
 10
372.1922857738656
 20
199.0978722301063
 30
0.0
 11
380.4694258955053
 21
190.8312255898991
 31
0.0
  0
LINE
  5
1CC
330
70
100
AcDbEntity
  8
HON
 62
     9
420
 12632256
370
    25
100
AcDbLine
 10
342.1101559598124
 20
193.7428934319683
 30
0.0
 11
347.6730223583599
 21
183.6070783685131
 31
0.0
  0
LINE
  5
1CD
330
70
100
AcDbEntity
  8
HON
 62
     9
420
 12632256
370
    25
100
AcDbLine
 10
347.6730223583599
 20
183.6070783685131
 30
0.0
 11
348.9630157332495
 21
193.2855136206097
 31
0.0
  0
LINE
  5
1CE
330
70
100
AcDbEntity
  8
HON
 62
     9
420
 12632256
370
    25
100
AcDbLine
 10
348.9630157332495
 20
193.2855136206097
 30
0.0
 11
357.4996476474243
 21
182.46817417715
 31
0.0
  0
LINE
  5
1CF
330
70
100
AcDbEntity
  8
HON
 62
     9
420
 12632256
370
    25
100
AcDbLine
 10
357.4996476474243
 20
182.46817417715
 30
0.0
 11
357.2855367586337
 21
192.4576260036829
 31
0.0
  0
LINE
  5
1D0
330
70
100
AcDbEntity
  8
HON
 62
     9
420
 12632256
370
    25
100
AcDbLine
 10
357.2855367586337
 20
192.4576260036829
 30
0.0
 11
366.0482582079986
 21
180.7297122599443
 31
0.0
  0
LINE
  5
1D1
330
70
100
AcDbEntity
  8
HON
 62
     9
420
 12632256
370
    25
100
AcDbLine
 10
366.0482582079986
 20
180.7297122599443
 30
0.0
 11
366.0311737432978
 21
191.3646702965039
 31
0.0
  0
LINE
  5
1D2
330
70
100
AcDbEntity
  8
HON
 62
     9
420
 12632256
370
    25
100
AcDbLine
 10
366.0311737432978
 20
191.3646702965039
 30
0.0
 11
372.8840518413647
 21
179.1829191029821
 31
0.0
  0
LINE
  5
1D3
330
70
100
AcDbEntity
  8
HON
 62
     9
420
 12632256
370
    25
100
AcDbLine
 10
372.8840518413647
 20
179.1829191029821
 30
0.0
 11
371.9144571508776
 21
190.0346240626369
 31
0.0
  0
LINE
  5
1D4
330
70
100
AcDbEntity
  8
HON
 62
     9
420
 12632256
370
    25
100
AcDbLine
 10
371.9144571508776
 20
190.0346240626369
 30
0.0
 11
378.0383419958901
 21
177.9215539349706
 31
0.0
  0
LINE
  5
1D5
330
70
100
AcDbEntity
  8
HON
 62
     9
420
 12632256
370
    25
100
AcDbLine
 10
378.0383419958901
 20
177.9215539349706
 30
0.0
 11
375.9565000133027
 21
188.5526475298103
 31
0.0
  0
LINE
  5
1D6
330
70
100
AcDbEntity
  8
HON
 62
     9
420
 12632256
370
    25
100
AcDbLine
 10
375.9565000133027
 20
188.5526475298103
 30
0.0
 11
381.9512218576437
 21
176.3650945484912
 31
0.0
  0
LINE
  5
1D7
330
70
100
AcDbEntity
  8
HON
 62
     9
420
 12632256
370
    25
100
AcDbLine
 10
381.9512218576437
 20
176.3650945484912
 30
0.0
 11
378.3474505713682
 21
187.0688873618566
 31
0.0
  0
LINE
  5
1D8
330
70
100
AcDbEntity
  8
HON
 62
     9
420
 12632256
370
    25
100
AcDbLine
 10
378.373015512705
 20
187.1199211581556
 30
0.0
 11
383.9608698087823
 21
175.2984266696627
 31
0.0
  0
LINE
  5
1D9
330
70
100
AcDbEntity
  8
HON
 62
     9
420
 12632256
370
    25
100
AcDbLine
 10
383.9608698087823
 20
175.2984266696627
 30
0.0
 11
379.874359792843
 21
185.2448495530527
 31
0.0
  0
LINE
  5
1DA
330
70
100
AcDbEntity
  8
HON
 62
     9
420
 12632256
370
    25
100
AcDbLine
 10
379.874359792843
 20
185.2448495530527
 30
0.0
 11
385.2973407220405
 21
174.7109826982581
 31
0.0
  0
LINE
  5
1DB
330
70
100
AcDbEntity
  8
HON
 62
     9
420
 12632256
370
    25
100
AcDbLine
 10
383.9608698087823
 20
175.2984266696627
 30
0.0
 11
380.7767333633822
 21
171.8205525134883
 31
0.0
  0
LINE
  5
1DC
330
70
100
AcDbEntity
  8
HON
 62
     9
420
 12632256
370
    25
100
AcDbLine
 10
381.9512218576437
 20
176.3650945484912
 30
0.0
 11
377.9783611821085
 21
171.5526016819759
 31
0.0
  0
LINE
  5
1DD
330
70
100
AcDbEntity
  8
HON
 62
     9
420
 12632256
370
    25
100
AcDbLine
 10
377.9783611821085
 20
171.5526016819759
 30
0.0
 11
378.0383419958901
 21
177.9215539349706
 31
0.0
  0
LINE
  5
1DE
330
70
100
AcDbEntity
  8
HON
 62
     9
420
 12632256
370
    25
100
AcDbLine
 10
378.0383419958901
 20
177.9215539349706
 30
0.0
 11
373.8777950785747
 21
172.9594938010326
 31
0.0
  0
LINE
  5
1DF
330
70
100
AcDbEntity
  8
HON
 62
     9
420
 12632256
370
    25
100
AcDbLine
 10
373.8777950785747
 20
172.9594938010326
 30
0.0
 11
372.8840518413647
 21
179.1829191029821
 31
0.0
  0
LINE
  5
1E0
330
70
100
AcDbEntity
  8
HON
 62
     9
420
 12632256
370
    25
100
AcDbLine
 10
372.8840518413647
 20
179.1829191029821
 30
0.0
 11
367.5840792388195
 21
172.8787047719112
 31
0.0
  0
LINE
  5
1E1
330
70
100
AcDbEntity
  8
HON
 62
     9
420
 12632256
370
    25
100
AcDbLine
 10
367.5840792388195
 20
172.8787047719112
 30
0.0
 11
366.0482582079986
 21
180.7297122599443
 31
0.0
  0
LINE
  5
1E2
330
70
100
AcDbEntity
  8
HON
 62
     9
420
 12632256
370
    25
100
AcDbLine
 10
366.0482582079986
 20
180.7297122599443
 30
0.0
 11
360.5503343389721
 21
173.898890663469
 31
0.0
  0
LINE
  5
1E3
330
70
100
AcDbEntity
  8
HON
 62
     9
420
 12632256
370
    25
100
AcDbLine
 10
360.5503343389721
 20
173.898890663469
 30
0.0
 11
357.4996476474243
 21
182.46817417715
 31
0.0
  0
LINE
  5
1E4
330
70
100
AcDbEntity
  8
HON
 62
     9
420
 12632256
370
    25
100
AcDbLine
 10
357.4996476474243
 20
182.46817417715
 30
0.0
 11
351.2238280996245
 21
174.3630686515776
 31
0.0
  0
LINE
  5
1E5
330
70
100
AcDbEntity
  8
HON
 62
     9
420
 12632256
370
    25
100
AcDbLine
 10
351.2238280996245
 20
174.3630686515776
 30
0.0
 11
347.6730223583599
 21
183.6070783685131
 31
0.0
  0
LINE
  5
1E6
330
70
100
AcDbEntity
  8
HON
 62
     9
420
 12632256
370
    25
100
AcDbLine
 10
347.6730223583599
 20
183.6070783685131
 30
0.0
 11
342.1396137230269
 21
175.3433338291078
 31
0.0
  0
LINE
  5
1E7
330
70
100
AcDbEntity
  8
HON
 62
     9
420
 12632256
370
    25
100
AcDbLine
 10
387.2080061525534
 20
164.7431619085667
 30
0.0
 11
387.417035254044
 21
154.3552260587946
 31
0.0
  0
LINE
  5
1E8
330
70
100
AcDbEntity
  8
HON
 62
     9
420
 12632256
370
    25
100
AcDbLine
 10
387.417035254044
 20
154.3552260587946
 30
0.0
 11
385.844771836723
 21
165.6631999123001
 31
0.0
  0
LINE
  5
1E9
330
70
100
AcDbEntity
  8
HON
 62
     9
420
 12632256
370
    25
100
AcDbLine
 10
385.844771836723
 20
165.6631999123001
 30
0.0
 11
385.0507267576103
 21
155.7849115122747
 31
0.0
  0
LINE
  5
1EA
330
70
100
AcDbEntity
  8
HON
 62
     9
420
 12632256
370
    25
100
AcDbLine
 10
385.0507267576103
 20
155.7849115122747
 30
0.0
 11
383.4183676587746
 21
167.577673060413
 31
0.0
  0
LINE
  5
1EB
330
70
100
AcDbEntity
  8
HON
 62
     9
420
 12632256
370
    25
100
AcDbLine
 10
383.4183676587746
 20
167.577673060413
 30
0.0
 11
380.5300514114374
 21
158.0907517712004
 31
0.0
  0
LINE
  5
1EC
330
70
100
AcDbEntity
  8
HON
 62
     9
420
 12632256
370
    25
100
AcDbLine
 10
380.5300514114374
 20
158.0907517712004
 30
0.0
 11
379.082480798453
 21
169.2905627131066
 31
0.0
  0
LINE
  5
1ED
330
70
100
AcDbEntity
  8
HON
 62
     9
420
 12632256
370
    25
100
AcDbLine
 10
379.082480798453
 20
169.2905627131066
 30
0.0
 11
373.8182642144224
 21
160.5054951325887
 31
0.0
  0
LINE
  5
1EE
330
70
100
AcDbEntity
  8
HON
 62
     9
420
 12632256
370
    25
100
AcDbLine
 10
373.8182642144224
 20
160.5054951325887
 30
0.0
 11
372.3440153146812
 21
170.8891149455617
 31
0.0
  0
LINE
  5
1EF
330
70
100
AcDbEntity
  8
HON
 62
     9
420
 12632256
370
    25
100
AcDbLine
 10
372.3440153146812
 20
170.8891149455617
 30
0.0
 11
366.275307229397
 21
162.4665111164939
 31
0.0
  0
LINE
  5
1F0
330
70
100
AcDbEntity
  8
HON
 62
     9
420
 12632256
370
    25
100
AcDbLine
 10
366.275307229397
 20
162.4665111164939
 30
0.0
 11
364.5955728451304
 21
172.140963110753
 31
0.0
  0
LINE
  5
1F1
330
70
100
AcDbEntity
  8
HON
 62
     9
420
 12632256
370
    25
100
AcDbLine
 10
364.5955728451304
 20
172.140963110753
 30
0.0
 11
358.4112984347582
 21
163.7290285238008
 31
0.0
  0
LINE
  5
1F2
330
70
100
AcDbEntity
  8
HON
 62
     9
420
 12632256
370
    25
100
AcDbLine
 10
358.4112984347582
 20
163.7290285238008
 30
0.0
 11
356.5094061744356
 21
173.2197922365697
 31
0.0
  0
LINE
  5
1F3
330
70
100
AcDbEntity
  8
HON
 62
     9
420
 12632256
370
    25
100
AcDbLine
 10
356.5094061744356
 20
173.2197922365697
 30
0.0
 11
350.0558710329096
 21
165.1471261955834
 31
0.0
  0
LINE
  5
1F4
330
70
100
AcDbEntity
  8
HON
 62
     9
420
 12632256
370
    25
100
AcDbLine
 10
350.0558710329096
 20
165.1471261955834
 30
0.0
 11
347.5790705788778
 21
173.9172649699203
 31
0.0
  0
LINE
  5
1F5
330
70
100
AcDbEntity
  8
HON
 62
     9
420
 12632256
370
    25
100
AcDbLine
 10
347.5790705788778
 20
173.9172649699203
 30
0.0
 11
342.1332738074617
 21
165.7158964027764
 31
0.0
  0
LINE
  5
1F6
330
70
100
AcDbEntity
  8
HON
 62
     9
420
 12632256
370
    25
100
AcDbLine
 10
387.2080061525469
 20
164.7431619085667
 30
0.0
 11
382.6321317936557
 21
171.5731629526627
 31
0.0
  0
LINE
  5
1F7
330
70
100
AcDbEntity
  8
HON
 62
     9
420
 12632256
370
    25
100
AcDbLine
 10
385.844771836723
 20
165.6631999123001
 30
0.0
 11
381.2790834476255
 21
172.3128747239385
 31
0.0
  0
LINE
  5
1F8
330
70
100
AcDbEntity
  8
HON
 62
     9
420
 12632256
370
    25
100
AcDbLine
 10
383.4183676587746
 20
167.577673060413
 30
0.0
 11
378.90542295728
 21
172.7890492638839
 31
0.0
  0
LINE
  5
1F9
330
70
100
AcDbEntity
  8
HON
 62
     9
420
 12632256
370
    25
100
AcDbLine
 10
379.082480798453
 20
169.2905627131066
 30
0.0
 11
374.5060583728216
 21
173.771799085063
 31
0.0
  0
LINE
  5
1FA
330
70
100
AcDbEntity
  8
HON
 62
     9
420
 12632256
370
    25
100
AcDbLine
 10
372.3440153146812
 20
170.8891149455617
 30
0.0
 11
368.8097015584698
 21
174.3365586838784
 31
0.0
  0
LINE
  5
1FB
330
70
100
AcDbEntity
  8
HON
 62
     9
420
 12632256
370
    25
100
AcDbLine
 10
364.5955728451304
 20
172.140963110753
 30
0.0
 11
361.7248527786006
 21
175.3581553084499
 31
0.0
  0
LINE
  5
1FC
330
70
100
AcDbEntity
  8
HON
 62
     9
420
 12632256
370
    25
100
AcDbLine
 10
356.5094061744356
 20
173.2197922365697
 30
0.0
 11
352.8752850554438
 21
176.4958949375904
 31
0.0
  0
LINE
  5
1FD
330
70
100
AcDbEntity
  8
HON
 62
     9
420
 12632256
370
    25
100
AcDbLine
 10
347.5790705788778
 20
173.9172649699203
 30
0.0
 11
343.4913361665658
 21
177.3620332778055
 31
0.0
  0
LINE
  5
1FE
330
70
100
AcDbEntity
  8
HON
 62
     9
420
 12632256
370
    25
100
AcDbLine
 10
382.1150410614639
 20
188.6661406856047
 30
0.0
 11
380.7939141240109
 21
184.7413437741206
 31
0.0
  0
LINE
  5
1FF
330
70
100
AcDbEntity
  8
HON
 62
     9
420
 12632256
370
    25
100
AcDbLine
 10
348.9630157332495
 20
193.2855136206097
 30
0.0
 11
346.32077728517
 21
196.7990598377297
 31
0.0
  0
LINE
  5
200
330
70
100
AcDbEntity
  8
HON
 62
     9
420
 12632256
370
    25
100
AcDbLine
 10
357.2855367586337
 20
192.4576260036829
 30
0.0
 11
353.3069259117994
 21
195.8637894399689
 31
0.0
  0
LINE
  5
201
330
70
100
AcDbEntity
  8
HON
 62
     9
420
 12632256
370
    25
100
AcDbLine
 10
366.0311737432978
 20
191.3646702965039
 30
0.0
 11
361.4026553953348
 21
195.3265370417698
 31
0.0
  0
LINE
  5
202
330
70
100
AcDbEntity
  8
HON
 62
     9
420
 12632256
370
    25
100
AcDbLine
 10
369.1338373579052
 20
194.5761033624147
 30
0.0
 11
371.9144571508776
 21
190.0346240626369
 31
0.0
  0
LINE
  5
203
330
70
100
AcDbEntity
  8
HON
 62
     9
420
 12632256
370
    25
100
AcDbLine
 10
375.9565000133027
 20
188.5526475298103
 30
0.0
 11
373.9607752562855
 21
193.3004937978167
 31
0.0
  0
LINE
  5
204
330
70
100
AcDbEntity
  8
HON
 62
     9
420
 12632256
370
    25
100
AcDbLine
 10
378.3474505713682
 20
187.0688873618566
 30
0.0
 11
378.3658212286336
 21
191.4358933761945
 31
0.0
  0
LINE
  5
205
330
70
100
AcDbEntity
  8
HON
 62
     9
420
 12632256
370
    25
100
AcDbLine
 10
379.874359792843
 20
185.2448495530527
 30
0.0
 11
380.4694258955053
 21
190.8312255898991
 31
0.0
  0
LINE
  5
206
330
70
100
AcDbEntity
  8
HON
 62
     9
420
 12632256
370
    25
100
AcDbLine
 10
351.2238280996245
 20
174.3630686515776
 30
0.0
 11
350.0558710329096
 21
165.1471261955834
 31
0.0
  0
LINE
  5
207
330
70
100
AcDbEntity
  8
HON
 62
     9
420
 12632256
370
    25
100
AcDbLine
 10
360.5503343389721
 20
173.898890663469
 30
0.0
 11
358.4112984347582
 21
163.7290285238008
 31
0.0
  0
LINE
  5
208
330
70
100
AcDbEntity
  8
HON
 62
     9
420
 12632256
370
    25
100
AcDbLine
 10
367.5840792388195
 20
172.8787047719112
 30
0.0
 11
366.275307229397
 21
162.4665111164939
 31
0.0
  0
LINE
  5
209
330
70
100
AcDbEntity
  8
HON
 62
     9
420
 12632256
370
    25
100
AcDbLine
 10
373.8777950785747
 20
172.9594938010326
 30
0.0
 11
373.8182642144224
 21
160.5054951325887
 31
0.0
  0
LINE
  5
20A
330
70
100
AcDbEntity
  8
HON
 62
     9
420
 12632256
370
    25
100
AcDbLine
 10
346.3106698297492
 20
196.7914588825447
 30
0.0
 11
342.1529998022543
 21
193.6648298524364
 31
0.0
  0
LINE
  5
20B
330
70
100
AcDbEntity
  8
HON
 62
     9
420
 12632256
370
    25
100
AcDbLine
 10
353.3069259117994
 20
195.8637894399689
 30
0.0
 11
348.9296688277116
 21
193.0353217418322
 31
0.0
  0
LINE
  5
20C
330
70
100
AcDbEntity
  8
HON
 62
     9
420
 12632256
370
    25
100
AcDbLine
 10
361.4026553953348
 20
195.3265370417698
 30
0.0
 11
357.2821095157034
 21
192.6175257562126
 31
0.0
  0
LINE
  5
20D
330
70
100
AcDbEntity
  8
HON
 62
     9
420
 12632256
370
    25
100
AcDbLine
 10
369.1338373579052
 20
194.5761033624147
 30
0.0
 11
366.0311737432978
 21
191.3646702965039
 31
0.0
  0
LINE
  5
20E
330
70
100
AcDbEntity
  8
HON
 62
     9
420
 12632256
370
    25
100
AcDbLine
 10
350.0782305329842
 20
160.8297756309261
 30
0.0
 11
361.9320565227738
 21
149.1821304725692
 31
0.0
  0
LINE
  5
20F
330
70
100
AcDbEntity
  8
HON
 62
     9
420
 12632256
370
    25
100
AcDbLine
 10
361.9320565227738
 20
149.1821304725692
 30
0.0
 11
358.2293116378596
 21
160.7832979464985
 31
0.0
  0
LINE
  5
210
330
70
100
AcDbEntity
  8
HON
 62
     9
420
 12632256
370
    25
100
AcDbLine
 10
358.2293116378596
 20
160.7832979464985
 30
0.0
 11
371.7072976554955
 21
146.3564124708539
 31
0.0
  0
LINE
  5
211
330
70
100
AcDbEntity
  8
HON
 62
     9
420
 12632256
370
    25
100
AcDbLine
 10
371.7072976554955
 20
146.3564124708539
 30
0.0
 11
366.6776564229078
 21
159.365980747682
 31
0.0
  0
LINE
  5
212
330
70
100
AcDbEntity
  8
HON
 62
     9
420
 12632256
370
    25
100
AcDbLine
 10
366.6776564229078
 20
159.365980747682
 30
0.0
 11
379.1171454527679
 21
143.252144042772
 31
0.0
  0
LINE
  5
213
330
70
100
AcDbEntity
  8
HON
 62
     9
420
 12632256
370
    25
100
AcDbLine
 10
379.1171454527679
 20
143.252144042772
 30
0.0
 11
374.8524862920273
 21
157.9245096979571
 31
0.0
  0
LINE
  5
214
330
70
100
AcDbEntity
  8
HON
 62
     9
420
 12632256
370
    25
100
AcDbLine
 10
374.8524862920273
 20
157.9245096979571
 30
0.0
 11
384.8035904748008
 21
140.8987961899165
 31
0.0
  0
LINE
  5
215
330
70
100
AcDbEntity
  8
HON
 62
     9
420
 12632256
370
    25
100
AcDbLine
 10
384.8035904748008
 20
140.8987961899165
 30
0.0
 11
381.0420857556902
 21
155.6529616868112
 31
0.0
  0
LINE
  5
216
330
70
100
AcDbEntity
  8
HON
 62
     9
420
 12632256
370
    25
100
AcDbLine
 10
381.0420857556902
 20
155.6529616868112
 30
0.0
 11
388.1828591546747
 21
138.9308617495514
 31
0.0
  0
LINE
  5
217
330
70
100
AcDbEntity
  8
HON
 62
     9
420
 12632256
370
    25
100
AcDbLine
 10
390.0703804415946
 20
137.2530957266308
 30
0.0
 11
385.9060850019236
 21
149.8553073406759
 31
0.0
  0
LINE
  5
218
330
70
100
AcDbEntity
  8
HON
 62
     9
420
 12632256
370
    25
100
AcDbLine
 10
350.0782305329842
 20
160.8297756309261
 30
0.0
 11
350.8661423366277
 21
150.0565080654731
 31
0.0
  0
LINE
  5
219
330
70
100
AcDbEntity
  8
HON
 62
     9
420
 12632256
370
    25
100
AcDbLine
 10
350.0558710329096
 20
165.1471261955834
 30
0.0
 11
346.6347150708605
 21
157.4396161945881
 31
0.0
  0
LINE
  5
21A
330
70
100
AcDbEntity
  8
HON
 62
     9
420
 12632256
370
    25
100
AcDbLine
 10
358.4112984347582
 20
163.7290285238008
 30
0.0
 11
354.632028067674
 21
156.2927780660725
 31
0.0
  0
LINE
  5
21B
330
70
100
AcDbEntity
  8
HON
 62
     9
420
 12632256
370
    25
100
AcDbLine
 10
366.275307229397
 20
162.4665111164939
 30
0.0
 11
363.4890677203701
 21
155.5294517817414
 31
0.0
  0
LINE
  5
21C
330
70
100
AcDbEntity
  8
HON
 62
     9
420
 12632256
370
    25
100
AcDbLine
 10
373.8182642144224
 20
160.5054951325887
 30
0.0
 11
371.3308882473921
 21
154.5761966345346
 31
0.0
  0
LINE
  5
21D
330
70
100
AcDbEntity
  8
HON
 62
     9
420
 12632256
370
    25
100
AcDbLine
 10
380.5300514114374
 20
158.0907517712004
 30
0.0
 11
378.0727928830555
 21
152.4549157267173
 31
0.0
  0
LINE
  5
21E
330
70
100
AcDbEntity
  8
HON
 62
     9
420
 12632256
370
    25
100
AcDbLine
 10
385.0507267576103
 20
155.7849115122747
 30
0.0
 11
382.2820430717081
 21
149.666035855256
 31
0.0
  0
LINE
  5
21F
330
70
100
AcDbEntity
  8
HON
 62
     9
420
 12632256
370
    25
100
AcDbLine
 10
388.1828591546747
 20
138.9308617495514
 30
0.0
 11
385.058968029717
 21
152.0924761980128
 31
0.0
  0
LINE
  5
220
330
70
100
AcDbEntity
  8
HON
 62
     9
420
 12632256
370
    25
100
AcDbLine
 10
350.0782305329842
 20
160.8297756309261
 30
0.0
 11
345.3007536198894
 21
156.0503834411609
 31
0.0
  0
LINE
  5
221
330
70
100
AcDbEntity
  8
HON
 62
     9
420
 12632256
370
    25
100
AcDbLine
 10
358.2293116378596
 20
160.7832979464985
 30
0.0
 11
354.8994451146358
 21
155.9809699358732
 31
0.0
  0
LINE
  5
222
330
70
100
AcDbEntity
  8
HON
 62
     9
420
 12632256
370
    25
100
AcDbLine
 10
366.6776564229078
 20
159.365980747682
 30
0.0
 11
363.614480100783
 21
155.3710035525068
 31
0.0
  0
LINE
  5
223
330
70
100
AcDbEntity
  8
HON
 62
     9
420
 12632256
370
    25
100
AcDbLine
 10
374.8524862920273
 20
157.9245096979571
 30
0.0
 11
371.1509941385829
 21
154.026262721367
 31
0.0
  0
LINE
  5
224
330
70
100
AcDbEntity
  8
HON
 62
     9
420
 12632256
370
    25
100
AcDbLine
 10
381.0420857556902
 20
155.6529616868112
 30
0.0
 11
377.6674299821018
 21
151.4852562961446
 31
0.0
  0
LINE
  5
225
330
70
100
AcDbEntity
  8
HON
 62
     9
420
 12632256
370
    25
100
AcDbLine
 10
385.058968029717
 20
152.0924761980128
 30
0.0
 11
382.1595392128015
 21
149.3041121705598
 31
0.0
  0
LINE
  5
226
330
70
100
AcDbEntity
  8
HON
 62
     9
420
 12632256
370
    25
100
AcDbLine
 10
350.0782305329842
 20
160.8297756309261
 30
0.0
 11
348.3407927544125
 21
161.9724998300064
 31
0.0
  0
LINE
  5
227
330
70
100
AcDbEntity
  8
HON
 62
     9
420
 12632256
370
    25
100
AcDbLine
 10
358.2293116378596
 20
160.7832979464985
 30
0.0
 11
356.6040080193135
 21
161.9514377049453
 31
0.0
  0
LINE
  5
228
330
70
100
AcDbEntity
  8
HON
 62
     9
420
 12632256
370
    25
100
AcDbLine
 10
389.6989753766034
 20
132.1396669081857
 30
0.0
 11
390.0439564421109
 21
137.3132114252598
 31
0.0
  0
LINE
  5
229
330
70
100
AcDbEntity
  8
HON
 62
     9
420
 12632256
370
    25
100
AcDbLine
 10
387.8461609245806
 20
133.6434002242163
 30
0.0
 11
388.1565358345913
 21
138.9780186250658
 31
0.0
  0
LINE
  5
22A
330
70
100
AcDbEntity
  8
HON
 62
     9
420
 12632256
370
    25
100
AcDbLine
 10
384.4888975106664
 20
135.9725466923404
 30
0.0
 11
384.7773215533412
 21
140.9389512140944
 31
0.0
  0
LINE
  5
22B
330
70
100
AcDbEntity
  8
HON
 62
     9
420
 12632256
370
    25
100
AcDbLine
 10
378.5972048425982
 20
138.4167109150023
 30
0.0
 11
379.0908991442402
 21
143.2893884706015
 31
0.0
  0
LINE
  5
22C
330
70
100
AcDbEntity
  8
HON
 62
     9
420
 12632256
370
    25
100
AcDbLine
 10
371.2757421668567
 20
139.9796828321429
 30
0.0
 11
371.6810303416324
 21
146.3963605752858
 31
0.0
  0
LINE
  5
22D
330
70
100
AcDbEntity
  8
HON
 62
     9
420
 12632256
370
    25
100
AcDbLine
 10
361.5888457047804
 20
141.1747500774062
 30
0.0
 11
361.9057435188919
 21
149.2279595109763
 31
0.0
  0
LINE
  5
22E
330
70
100
AcDbEntity
  8
HON
 62
     9
420
 12632256
370
    25
100
AcDbLine
 10
366.6776564229078
 20
159.365980747682
 30
0.0
 11
365.2216846121518
 21
160.8484846664193
 31
0.0
  0
LINE
  5
22F
330
70
100
AcDbEntity
  8
HON
 62
     9
420
 12632256
370
    25
100
AcDbLine
 10
374.8524862920273
 20
157.9245096979571
 30
0.0
 11
373.6160246889331
 21
159.4070136166945
 31
0.0
  0
LINE
  5
230
330
70
100
AcDbEntity
  8
HON
 62
     9
420
 12632256
370
    25
100
AcDbLine
 10
381.0420857556902
 20
155.6529616868112
 30
0.0
 11
380.1190608346577
 21
157.1354656055479
 31
0.0
  0
LINE
  5
231
330
70
100
AcDbEntity
  8
HON
 62
     9
420
 12632256
370
    25
100
AcDbLine
 10
385.058968029717
 20
152.0924761980128
 30
0.0
 11
384.5066970510593
 21
153.5749801167501
 31
0.0
  0
LINE
  5
232
330
70
100
AcDbEntity
  8
HON
 62
     9
420
 12632256
370
    25
100
AcDbLine
 10
367.265694890231
 20
99.80591160039066
 30
0.0
 11
357.2741947089367
 21
91.34067928993838
 31
0.0
  0
LINE
  5
233
330
70
100
AcDbEntity
  8
HON
 62
     9
420
 12632256
370
    25
100
AcDbLine
 10
380.059615108795
 20
113.4888581787101
 30
0.0
 11
383.9051885421545
 21
118.775374066802
 31
0.0
  0
LINE
  5
234
330
70
100
AcDbEntity
  8
HON
 62
     9
420
 12632256
370
    25
100
AcDbLine
 10
377.3263168474218
 20
107.5907194228661
 30
0.0
 11
371.8298969529982
 21
99.6575202282392
 31
0.0
  0
LINE
  5
235
330
70
100
AcDbEntity
  8
HON
 62
     9
420
 12632256
370
    25
100
AcDbLine
 10
377.3263168474218
 20
107.5907194228661
 30
0.0
 11
376.7886292128502
 21
112.5040983632846
 31
0.0
  0
LINE
  5
236
330
70
100
AcDbEntity
  8
HON
 62
     9
420
 12632256
370
    25
100
AcDbLine
 10
383.9051885421545
 20
118.775374066802
 30
0.0
 11
384.066373613675
 21
124.1488648671616
 31
0.0
  0
LINE
  5
237
330
70
100
AcDbEntity
  8
HON
 62
     9
420
 12632256
370
    25
100
AcDbLine
 10
345.0651070555513
 20
102.0708391550816
 30
0.0
 11
342.1854497033996
 21
93.88975296898037
 31
0.0
  0
LINE
  5
238
330
70
100
AcDbEntity
  8
HON
 62
     9
420
 12632256
370
    25
100
AcDbLine
 10
345.0651070555513
 20
102.0708391550816
 30
0.0
 11
345.2155744637328
 21
93.83785269624082
 31
0.0
  0
LINE
  5
239
330
70
100
AcDbEntity
  8
HON
 62
     9
420
 12632256
370
    25
100
AcDbLine
 10
345.2155744637328
 20
93.83785269624082
 30
0.0
 11
350.4844802087583
 21
101.8825380726678
 31
0.0
  0
LINE
  5
23A
330
70
100
AcDbEntity
  8
HON
 62
     9
420
 12632256
370
    25
100
AcDbLine
 10
350.4844802087583
 20
101.8825380726678
 30
0.0
 11
348.5043479832349
 21
93.65552477823413
 31
0.0
  0
LINE
  5
23B
330
70
100
AcDbEntity
  8
HON
 62
     9
420
 12632256
370
    25
100
AcDbLine
 10
348.5043479832349
 20
93.65552477823413
 30
0.0
 11
355.4790031113756
 21
101.8483228956834
 31
0.0
  0
LINE
  5
23C
330
70
100
AcDbEntity
  8
HON
 62
     9
420
 12632256
370
    25
100
AcDbLine
 10
355.4790031113756
 20
101.8483228956834
 30
0.0
 11
351.4869252243093
 21
93.34791364483837
 31
0.0
  0
LINE
  5
23D
330
70
100
AcDbEntity
  8
HON
 62
     9
420
 12632256
370
    25
100
AcDbLine
 10
351.4869252243093
 20
93.34791364483837
 30
0.0
 11
359.8567390492247
 21
101.3159702054835
 31
0.0
  0
LINE
  5
23E
330
70
100
AcDbEntity
  8
HON
 62
     9
420
 12632256
370
    25
100
AcDbLine
 10
359.8567390492247
 20
101.3159702054835
 30
0.0
 11
353.9029070395646
 21
92.9468519537154
 31
0.0
  0
LINE
  5
23F
330
70
100
AcDbEntity
  8
HON
 62
     9
420
 12632256
370
    25
100
AcDbLine
 10
353.9029070395646
 20
92.9468519537154
 30
0.0
 11
363.4494540852434
 21
101.8477800848338
 31
0.0
  0
LINE
  5
240
330
70
100
AcDbEntity
  8
HON
 62
     9
420
 12632256
370
    25
100
AcDbLine
 10
363.4494540852434
 20
101.8477800848338
 30
0.0
 11
355.6627848099456
 21
92.48715444678447
 31
0.0
  0
LINE
  5
241
330
70
100
AcDbEntity
  8
HON
 62
     9
420
 12632256
370
    25
100
AcDbLine
 10
355.6627848099456
 20
92.48715444678447
 30
0.0
 11
365.5984035084356
 21
100.9939755918655
 31
0.0
  0
LINE
  5
242
330
70
100
AcDbEntity
  8
HON
 62
     9
420
 12632256
370
    25
100
AcDbLine
 10
365.6953470408321
 20
101.0296127372412
 30
0.0
 11
356.7477529782988
 21
92.00866217323586
 31
0.0
  0
LINE
  5
243
330
70
100
AcDbEntity
  8
HON
 62
     9
420
 12632256
370
    25
100
AcDbLine
 10
356.7477529782988
 20
92.00866217323586
 30
0.0
 11
366.1696901104496
 21
100.3063719582561
 31
0.0
  0
LINE
  5
244
330
70
100
AcDbEntity
  8
HON
 62
     9
420
 12632256
370
    25
100
AcDbLine
 10
366.3170993110624
 20
100.3574951753253
 30
0.0
 11
357.2117987532567
 21
91.57381262959502
 31
0.0
  0
LINE
  5
245
330
70
100
AcDbEntity
  8
HON
 62
     9
420
 12632256
370
    25
100
AcDbLine
 10
357.2117987532567
 20
91.57381262959502
 30
0.0
 11
366.5896132934117
 21
99.89453315192143
 31
0.0
  0
LINE
  5
246
330
70
100
AcDbEntity
  8
HON
 62
     9
420
 12632256
370
    25
100
AcDbLine
 10
366.6510432236512
 20
99.91420237990388
 30
0.0
 11
357.2741947089367
 21
91.34067928993196
 31
0.0
  0
LINE
  5
247
330
70
100
AcDbEntity
  8
HON
 62
     9
420
 12632256
370
    25
100
AcDbLine
 10
342.3550521395875
 20
102.0708391550816
 30
0.0
 11
350.2456447443322
 21
111.3817103701173
 31
0.0
  0
LINE
  5
248
330
70
100
AcDbEntity
  8
HON
 62
     9
420
 12632256
370
    25
100
AcDbLine
 10
350.2456447443322
 20
111.3817103701173
 30
0.0
 11
347.992046557729
 21
101.8825380726678
 31
0.0
  0
LINE
  5
249
330
70
100
AcDbEntity
  8
HON
 62
     9
420
 12632256
370
    25
100
AcDbLine
 10
347.992046557729
 20
101.8825380726678
 30
0.0
 11
357.0782296524797
 21
110.8705634902931
 31
0.0
  0
LINE
  5
24A
330
70
100
AcDbEntity
  8
HON
 62
     9
420
 12632256
370
    25
100
AcDbLine
 10
357.0782296524797
 20
110.8705634902931
 30
0.0
 11
353.5754991513252
 21
101.8483228956834
 31
0.0
  0
LINE
  5
24B
330
70
100
AcDbEntity
  8
HON
 62
     9
420
 12632256
370
    25
100
AcDbLine
 10
353.5754991513252
 20
101.8483228956834
 30
0.0
 11
362.8438961715608
 21
110.8874630012954
 31
0.0
  0
LINE
  5
24C
330
70
100
AcDbEntity
  8
HON
 62
     9
420
 12632256
370
    25
100
AcDbLine
 10
362.8438961715608
 20
110.8874630012954
 30
0.0
 11
358.7212385322565
 21
101.5390292757319
 31
0.0
  0
LINE
  5
24D
330
70
100
AcDbEntity
  8
HON
 62
     9
420
 12632256
370
    25
100
AcDbLine
 10
358.7212385322565
 20
101.5390292757319
 30
0.0
 11
368.0304234572541
 21
110.2431103399118
 31
0.0
  0
LINE
  5
24E
330
70
100
AcDbEntity
  8
HON
 62
     9
420
 12632256
370
    25
100
AcDbLine
 10
368.0304234572541
 20
110.2431103399118
 30
0.0
 11
363.2315168218631
 21
101.8477800848338
 31
0.0
  0
LINE
  5
24F
330
70
100
AcDbEntity
  8
HON
 62
     9
420
 12632256
370
    25
100
AcDbLine
 10
363.2315168218631
 20
101.8477800848338
 30
0.0
 11
372.200264194635
 21
109.5779861168302
 31
0.0
  0
LINE
  5
250
330
70
100
AcDbEntity
  8
HON
 62
     9
420
 12632256
370
    25
100
AcDbLine
 10
372.200264194635
 20
109.5779861168302
 30
0.0
 11
366.9330065548856
 21
101.4845853478984
 31
0.0
  0
LINE
  5
251
330
70
100
AcDbEntity
  8
HON
 62
     9
420
 12632256
370
    25
100
AcDbLine
 10
366.9330065548856
 20
101.4845853478984
 30
0.0
 11
374.8591657680391
 21
108.8987488117435
 31
0.0
  0
LINE
  5
252
330
70
100
AcDbEntity
  8
HON
 62
     9
420
 12632256
370
    25
100
AcDbLine
 10
374.8591657680391
 20
108.8987488117435
 30
0.0
 11
369.4764747298415
 21
100.8215961808061
 31
0.0
  0
LINE
  5
253
330
70
100
AcDbEntity
  8
HON
 62
     9
420
 12632256
370
    25
100
AcDbLine
 10
369.4764747298415
 20
100.8215961808061
 30
0.0
 11
376.4995370711909
 21
108.0847062430884
 31
0.0
  0
LINE
  5
254
330
70
100
AcDbEntity
  8
HON
 62
     9
420
 12632256
370
    25
100
AcDbLine
 10
376.4995370711909
 20
108.0847062430884
 30
0.0
 11
371.2466252996403
 21
100.2039629149611
 31
0.0
  0
LINE
  5
255
330
70
100
AcDbEntity
  8
HON
 62
     9
420
 12632256
370
    25
100
AcDbLine
 10
371.2466252996403
 20
100.2039629149611
 30
0.0
 11
377.3263168474218
 21
107.5907194228661
 31
0.0
  0
LINE
  5
256
330
70
100
AcDbEntity
  8
HON
 62
     9
420
 12632256
370
    25
100
AcDbLine
 10
376.4995370711909
 20
108.0847062430884
 30
0.0
 11
375.7053835853394
 21
114.1383579851583
 31
0.0
  0
LINE
  5
257
330
70
100
AcDbEntity
  8
HON
 62
     9
420
 12632256
370
    25
100
AcDbLine
 10
374.8591657680391
 20
108.8987488117435
 30
0.0
 11
373.8426003303579
 21
115.8831371752622
 31
0.0
  0
LINE
  5
258
330
70
100
AcDbEntity
  8
HON
 62
     9
420
 12632256
370
    25
100
AcDbLine
 10
373.8426003303579
 20
115.8831371752622
 30
0.0
 11
372.200264194635
 21
109.5779861168302
 31
0.0
  0
LINE
  5
259
330
70
100
AcDbEntity
  8
HON
 62
     9
420
 12632256
370
    25
100
AcDbLine
 10
372.200264194635
 20
109.5779861168302
 30
0.0
 11
370.7064621278935
 21
116.4525095651416
 31
0.0
  0
LINE
  5
25A
330
70
100
AcDbEntity
  8
HON
 62
     9
420
 12632256
370
    25
100
AcDbLine
 10
370.7064621278935
 20
116.4525095651416
 30
0.0
 11
368.0304234572541
 21
110.2431103399118
 31
0.0
  0
LINE
  5
25B
330
70
100
AcDbEntity
  8
HON
 62
     9
420
 12632256
370
    25
100
AcDbLine
 10
368.0304234572541
 20
110.2431103399118
 30
0.0
 11
366.3817121071742
 21
116.5593528332992
 31
0.0
  0
LINE
  5
25C
330
70
100
AcDbEntity
  8
HON
 62
     9
420
 12632256
370
    25
100
AcDbLine
 10
366.3817121071742
 20
116.5593528332992
 30
0.0
 11
362.8438961715608
 21
110.8874630012954
 31
0.0
  0
LINE
  5
25D
330
70
100
AcDbEntity
  8
HON
 62
     9
420
 12632256
370
    25
100
AcDbLine
 10
362.8438961715608
 20
110.8874630012954
 30
0.0
 11
360.7788976965795
 21
116.9361178413836
 31
0.0
  0
LINE
  5
25E
330
70
100
AcDbEntity
  8
HON
 62
     9
420
 12632256
370
    25
100
AcDbLine
 10
360.7788976965795
 20
116.9361178413836
 30
0.0
 11
357.0782296524797
 21
110.8705634902931
 31
0.0
  0
LINE
  5
25F
330
70
100
AcDbEntity
  8
HON
 62
     9
420
 12632256
370
    25
100
AcDbLine
 10
357.0782296524797
 20
110.8705634902931
 30
0.0
 11
353.9817225317954
 21
117.0241979479642
 31
0.0
  0
LINE
  5
260
330
70
100
AcDbEntity
  8
HON
 62
     9
420
 12632256
370
    25
100
AcDbLine
 10
353.9817225317954
 20
117.0241979479642
 30
0.0
 11
350.2456447443322
 21
111.3817103701173
 31
0.0
  0
LINE
  5
261
330
70
100
AcDbEntity
  8
HON
 62
     9
420
 12632256
370
    25
100
AcDbLine
 10
350.2456447443322
 20
111.3817103701173
 30
0.0
 11
346.8674087020631
 21
116.5617050136309
 31
0.0
  0
LINE
  5
262
330
70
100
AcDbEntity
  8
HON
 62
     9
420
 12632256
370
    25
100
AcDbLine
 10
346.8674087020631
 20
116.5617050136309
 30
0.0
 11
342.1752009371143
 21
111.8217309354345
 31
0.0
  0
LINE
  5
263
330
70
100
AcDbEntity
  8
HON
 62
     9
420
 12632256
370
    25
100
AcDbLine
 10
380.059615108795
 20
113.4888581787101
 30
0.0
 11
382.6533665144469
 21
120.057475190949
 31
0.0
  0
LINE
  5
264
330
70
100
AcDbEntity
  8
HON
 62
     9
420
 12632256
370
    25
100
AcDbLine
 10
382.6533665144469
 20
120.057475190949
 30
0.0
 11
379.0514980892924
 21
114.5069361074442
 31
0.0
  0
LINE
  5
265
330
70
100
AcDbEntity
  8
HON
 62
     9
420
 12632256
370
    25
100
AcDbLine
 10
379.0514980892924
 20
114.5069361074442
 30
0.0
 11
380.4603743903896
 21
121.4829507531691
 31
0.0
  0
LINE
  5
266
330
70
100
AcDbEntity
  8
HON
 62
     9
420
 12632256
370
    25
100
AcDbLine
 10
380.4603743903896
 20
121.4829507531691
 30
0.0
 11
376.9822090636212
 21
115.5967193489155
 31
0.0
  0
LINE
  5
267
330
70
100
AcDbEntity
  8
HON
 62
     9
420
 12632256
370
    25
100
AcDbLine
 10
376.9822090636212
 20
115.5967193489155
 30
0.0
 11
376.3390183018
 21
122.9470563539189
 31
0.0
  0
LINE
  5
268
330
70
100
AcDbEntity
  8
HON
 62
     9
420
 12632256
370
    25
100
AcDbLine
 10
376.3390183018
 20
122.9470563539189
 30
0.0
 11
373.8219091951562
 21
116.321169679603
 31
0.0
  0
LINE
  5
269
330
70
100
AcDbEntity
  8
HON
 62
     9
420
 12632256
370
    25
100
AcDbLine
 10
373.8219091951562
 20
116.321169679603
 30
0.0
 11
371.0228646422591
 21
124.3571522755073
 31
0.0
  0
LINE
  5
26A
330
70
100
AcDbEntity
  8
HON
 62
     9
420
 12632256
370
    25
100
AcDbLine
 10
371.0228646422591
 20
124.3571522755073
 30
0.0
 11
368.9079830568787
 21
117.0502749565582
 31
0.0
  0
LINE
  5
26B
330
70
100
AcDbEntity
  8
HON
 62
     9
420
 12632256
370
    25
100
AcDbLine
 10
368.9079830568787
 20
117.0502749565582
 30
0.0
 11
364.6728337393456
 21
124.862672016225
 31
0.0
  0
LINE
  5
26C
330
70
100
AcDbEntity
  8
HON
 62
     9
420
 12632256
370
    25
100
AcDbLine
 10
364.6728337393456
 20
124.862672016225
 30
0.0
 11
362.9534395627675
 21
117.5530013170988
 31
0.0
  0
LINE
  5
26D
330
70
100
AcDbEntity
  8
HON
 62
     9
420
 12632256
370
    25
100
AcDbLine
 10
362.9534395627675
 20
117.5530013170988
 30
0.0
 11
357.2791645056804
 21
125.3904289079314
 31
0.0
  0
LINE
  5
26E
330
70
100
AcDbEntity
  8
HON
 62
     9
420
 12632256
370
    25
100
AcDbLine
 10
357.2791645056804
 20
125.3904289079314
 30
0.0
 11
356.4906899239069
 21
118.0563785925571
 31
0.0
  0
LINE
  5
26F
330
70
100
AcDbEntity
  8
HON
 62
     9
420
 12632256
370
    25
100
AcDbLine
 10
356.4906899239069
 20
118.0563785925571
 30
0.0
 11
349.9451834860924
 21
126.1648093305647
 31
0.0
  0
LINE
  5
270
330
70
100
AcDbEntity
  8
HON
 62
     9
420
 12632256
370
    25
100
AcDbLine
 10
349.9451834860924
 20
126.1648093305647
 30
0.0
 11
349.2962972570402
 21
118.420212106418
 31
0.0
  0
LINE
  5
271
330
70
100
AcDbEntity
  8
HON
 62
     9
420
 12632256
370
    25
100
AcDbLine
 10
349.2962972570402
 20
118.420212106418
 30
0.0
 11
342.0664085524324
 21
127.310296588526
 31
0.0
  0
LINE
  5
272
330
70
100
AcDbEntity
  8
HON
 62
     9
420
 12632256
370
    25
100
AcDbLine
 10
380.0596151087886
 20
113.4888581787037
 30
0.0
 11
376.8537030696845
 21
111.9535594417486
 31
0.0
  0
LINE
  5
273
330
70
100
AcDbEntity
  8
HON
 62
     9
420
 12632256
370
    25
100
AcDbLine
 10
379.0514980892924
 20
114.5069361074442
 30
0.0
 11
375.7774179846915
 21
112.9545388288422
 31
0.0
  0
LINE
  5
274
330
70
100
AcDbEntity
  8
HON
 62
     9
420
 12632256
370
    25
100
AcDbLine
 10
376.9822090636212
 20
115.5967193489155
 30
0.0
 11
374.2555333941811
 21
113.1261741754811
 31
0.0
  0
LINE
  5
275
330
70
100
AcDbEntity
  8
HON
 62
     9
420
 12632256
370
    25
100
AcDbLine
 10
373.8219091951562
 20
116.321169679603
 30
0.0
 11
371.2006876720863
 21
114.4711931843205
 31
0.0
  0
LINE
  5
276
330
70
100
AcDbEntity
  8
HON
 62
     9
420
 12632256
370
    25
100
AcDbLine
 10
368.9079830568787
 20
117.0502749565582
 30
0.0
 11
366.8982978141159
 21
115.069200281139
 31
0.0
  0
LINE
  5
277
330
70
100
AcDbEntity
  8
HON
 62
     9
420
 12632256
370
    25
100
AcDbLine
 10
362.9534395627675
 20
117.5530013170988
 30
0.0
 11
361.4791330484104
 21
114.4190867899149
 31
0.0
  0
LINE
  5
278
330
70
100
AcDbEntity
  8
HON
 62
     9
420
 12632256
370
    25
100
AcDbLine
 10
356.4906899239069
 20
118.0563785925571
 30
0.0
 11
355.387237728434
 21
114.389068466526
 31
0.0
  0
LINE
  5
279
330
70
100
AcDbEntity
  8
HON
 62
     9
420
 12632256
370
    25
100
AcDbLine
 10
349.2962972570402
 20
118.420212106418
 30
0.0
 11
348.5916512201101
 21
114.2415252506008
 31
0.0
  0
LINE
  5
27A
330
70
100
AcDbEntity
  8
HON
 62
     9
420
 12632256
370
    25
100
AcDbLine
 10
366.72492868246
 20
99.29641724919527
 30
0.0
 11
371.8298969529982
 21
99.6575202282392
 31
0.0
  0
LINE
  5
27B
330
70
100
AcDbEntity
  8
HON
 62
     9
420
 12632256
370
    25
100
AcDbLine
 10
347.992046557729
 20
101.8825380726678
 30
0.0
 11
345.075999762982
 21
100.2448887338064
 31
0.0
  0
LINE
  5
27C
330
70
100
AcDbEntity
  8
HON
 62
     9
420
 12632256
370
    25
100
AcDbLine
 10
353.5754991513252
 20
101.8483228956834
 30
0.0
 11
350.054832175488
 21
100.0565876513926
 31
0.0
  0
LINE
  5
27D
330
70
100
AcDbEntity
  8
HON
 62
     9
420
 12632256
370
    25
100
AcDbLine
 10
358.7212385322565
 20
101.5390292757319
 30
0.0
 11
354.6433504062028
 21
100.2448887338064
 31
0.0
  0
LINE
  5
27E
330
70
100
AcDbEntity
  8
HON
 62
     9
420
 12632256
370
    25
100
AcDbLine
 10
358.6652202728048
 20
100.2448887338064
 30
0.0
 11
363.2315168218631
 21
101.8477800848338
 31
0.0
  0
LINE
  5
27F
330
70
100
AcDbEntity
  8
HON
 62
     9
420
 12632256
370
    25
100
AcDbLine
 10
366.9330065548856
 20
101.4845853478984
 30
0.0
 11
361.9658835717789
 21
100.2448887338064
 31
0.0
  0
LINE
  5
280
330
70
100
AcDbEntity
  8
HON
 62
     9
420
 12632256
370
    25
100
AcDbLine
 10
369.4764747298415
 20
100.8215961808061
 30
0.0
 11
364.4184976636092
 21
99.69903814724091
 31
0.0
  0
LINE
  5
281
330
70
100
AcDbEntity
  8
HON
 62
     9
420
 12632256
370
    25
100
AcDbLine
 10
371.2466252996403
 20
100.2039629149611
 30
0.0
 11
365.6744681032547
 21
99.60151313194373
 31
0.0
  0
LINE
  5
282
330
70
100
AcDbEntity
  8
HON
 62
     9
420
 12632256
370
    25
100
AcDbLine
 10
346.8674087020631
 20
116.5617050136309
 30
0.0
 11
342.0664085524324
 21
127.310296588526
 31
0.0
  0
LINE
  5
283
330
70
100
AcDbEntity
  8
HON
 62
     9
420
 12632256
370
    25
100
AcDbLine
 10
353.9817225317954
 20
117.0241979479642
 30
0.0
 11
349.9451834860924
 21
126.1648093305647
 31
0.0
  0
LINE
  5
284
330
70
100
AcDbEntity
  8
HON
 62
     9
420
 12632256
370
    25
100
AcDbLine
 10
360.7788976965795
 20
116.9361178413836
 30
0.0
 11
357.2791645056804
 21
125.3904289079314
 31
0.0
  0
LINE
  5
285
330
70
100
AcDbEntity
  8
HON
 62
     9
420
 12632256
370
    25
100
AcDbLine
 10
366.3817121071742
 20
116.5593528332992
 30
0.0
 11
364.6728337393456
 21
124.862672016225
 31
0.0
  0
LINE
  5
286
330
70
100
AcDbEntity
  8
HON
 62
     9
420
 12632256
370
    25
100
AcDbLine
 10
370.7064621278935
 20
116.4525095651416
 30
0.0
 11
371.0228646422591
 21
124.3571522755073
 31
0.0
  0
LINE
  5
287
330
70
100
AcDbEntity
  8
HON
 62
     9
420
 12632256
370
    25
100
AcDbLine
 10
345.0651070555513
 20
102.0708391550816
 30
0.0
 11
345.0651070555513
 21
105.1857323585253
 31
0.0
  0
LINE
  5
288
330
70
100
AcDbEntity
  8
HON
 62
     9
420
 12632256
370
    25
100
AcDbLine
 10
350.4844802087583
 20
101.8825380726678
 30
0.0
 11
350.4844802087583
 21
104.4399198869647
 31
0.0
  0
LINE
  5
289
330
70
100
AcDbEntity
  8
HON
 62
     9
420
 12632256
370
    25
100
AcDbLine
 10
355.4790031113756
 20
101.8483228956834
 30
0.0
 11
355.4790031113756
 21
103.828625476256
 31
0.0
  0
LINE
  5
28A
330
70
100
AcDbEntity
  8
HON
 62
     9
420
 12632256
370
    25
100
AcDbLine
 10
359.8567390492247
 20
101.3159702054835
 30
0.0
 11
359.8567390492247
 21
103.1871765917106
 31
0.0
  0
LINE
  5
28B
330
70
100
AcDbEntity
  8
HON
 62
     9
420
 12632256
370
    25
100
AcDbLine
 10
342.0481891467141
 20
127.3326997073895
 30
0.0
 11
350.8095515883445
 21
142.5226520811046
 31
0.0
  0
LINE
  5
28C
330
70
100
AcDbEntity
  8
HON
 62
     9
420
 12632256
370
    25
100
AcDbLine
 10
351.2098836951943
 20
127.622640928146
 30
0.0
 11
361.5785969384418
 21
141.2761997625073
 31
0.0
  0
LINE
  5
28D
330
70
100
AcDbEntity
  8
HON
 62
     9
420
 12632256
370
    25
100
AcDbLine
 10
361.5785969384418
 20
141.2761997625073
 30
0.0
 11
358.9677733436056
 21
126.811771992956
 31
0.0
  0
LINE
  5
28E
330
70
100
AcDbEntity
  8
HON
 62
     9
420
 12632256
370
    25
100
AcDbLine
 10
358.9677733436056
 20
126.811771992956
 30
0.0
 11
371.2654934005047
 21
140.0811325172511
 31
0.0
  0
LINE
  5
28F
330
70
100
AcDbEntity
  8
HON
 62
     9
420
 12632256
370
    25
100
AcDbLine
 10
371.2654934005047
 20
140.0811325172511
 30
0.0
 11
365.6493312750915
 21
126.1201766942943
 31
0.0
  0
LINE
  5
290
330
70
100
AcDbEntity
  8
HON
 62
     9
420
 12632256
370
    25
100
AcDbLine
 10
365.6493312750915
 20
126.1201766942943
 30
0.0
 11
378.5869560762596
 21
138.5181606001163
 31
0.0
  0
LINE
  5
291
330
70
100
AcDbEntity
  8
HON
 62
     9
420
 12632256
370
    25
100
AcDbLine
 10
378.5869560762596
 20
138.5181606001163
 30
0.0
 11
371.9981779968084
 21
125.8433793503058
 31
0.0
  0
LINE
  5
292
330
70
100
AcDbEntity
  8
HON
 62
     9
420
 12632256
370
    25
100
AcDbLine
 10
371.9981779968084
 20
125.8433793503058
 30
0.0
 11
384.4786487443144
 21
136.0739963774544
 31
0.0
  0
LINE
  5
293
330
70
100
AcDbEntity
  8
HON
 62
     9
420
 12632256
370
    25
100
AcDbLine
 10
384.4786487443144
 20
136.0739963774544
 30
0.0
 11
377.1169934482448
 21
124.2579555255175
 31
0.0
  0
LINE
  5
294
330
70
100
AcDbEntity
  8
HON
 62
     9
420
 12632256
370
    25
100
AcDbLine
 10
377.1169934482448
 20
124.2579555255175
 30
0.0
 11
387.8359121582421
 21
133.7448499093238
 31
0.0
  0
LINE
  5
295
330
70
100
AcDbEntity
  8
HON
 62
     9
420
 12632256
370
    25
100
AcDbLine
 10
389.6887266102584
 20
132.2411165933004
 30
0.0
 11
383.2703948004247
 21
123.063735477313
 31
0.0
  0
LINE
  5
296
330
70
100
AcDbEntity
  8
HON
 62
     9
420
 12632256
370
    25
100
AcDbLine
 10
380.8528034280817
 20
123.9231859831976
 30
0.0
 11
389.6887266102584
 21
132.2411165933004
 31
0.0
  0
LINE
  5
297
330
70
100
AcDbEntity
  8
HON
 62
     9
420
 12632256
370
    25
100
AcDbLine
 10
351.2098836951943
 20
127.622640928146
 30
0.0
 11
350.8095515883445
 21
142.5226520811046
 31
0.0
  0
LINE
  5
298
330
70
100
AcDbEntity
  8
HON
 62
     9
420
 12632256
370
    25
100
AcDbLine
 10
349.9451834860924
 20
126.1648093305647
 30
0.0
 11
346.2744942140489
 21
135.8054768088002
 31
0.0
  0
LINE
  5
299
330
70
100
AcDbEntity
  8
HON
 62
     9
420
 12632256
370
    25
100
AcDbLine
 10
357.2791645056804
 20
125.3904289079314
 30
0.0
 11
355.9593495889903
 21
134.5346785305638
 31
0.0
  0
LINE
  5
29A
330
70
100
AcDbEntity
  8
HON
 62
     9
420
 12632256
370
    25
100
AcDbLine
 10
364.6728337393456
 20
124.862672016225
 30
0.0
 11
363.057079934316
 21
131.4736551859178
 31
0.0
  0
LINE
  5
29B
330
70
100
AcDbEntity
  8
HON
 62
     9
420
 12632256
370
    25
100
AcDbLine
 10
371.0228646422591
 20
124.3571522755073
 30
0.0
 11
370.0877860738635
 21
130.2749181661188
 31
0.0
  0
LINE
  5
29C
330
70
100
AcDbEntity
  8
HON
 62
     9
420
 12632256
370
    25
100
AcDbLine
 10
376.3390183018
 20
122.9470563539189
 30
0.0
 11
375.6773903522874
 21
128.7238160131045
 31
0.0
  0
LINE
  5
29D
330
70
100
AcDbEntity
  8
HON
 62
     9
420
 12632256
370
    25
100
AcDbLine
 10
380.4603743903896
 20
121.4829507531691
 30
0.0
 11
380.149598773333
 21
126.8743206907888
 31
0.0
  0
LINE
  5
29E
330
70
100
AcDbEntity
  8
HON
 62
     9
420
 12632256
370
    25
100
AcDbLine
 10
382.6533665144469
 20
120.057475190949
 30
0.0
 11
382.9144539060472
 21
125.6583878713511
 31
0.0
  0
LINE
  5
29F
330
70
100
AcDbEntity
  8
HON
 62
     9
420
 12632256
370
    25
100
AcDbLine
 10
387.8359121582421
 20
133.7448499093238
 30
0.0
 11
380.8528034280817
 21
123.9231859831976
 31
0.0
  0
LINE
  5
2A0
330
70
100
AcDbEntity
  8
HON
 62
     9
420
 12632256
370
    25
100
AcDbLine
 10
351.2098836951943
 20
127.622640928146
 30
0.0
 11
346.2744942140489
 21
135.8054768088002
 31
0.0
  0
LINE
  5
2A1
330
70
100
AcDbEntity
  8
HON
 62
     9
420
 12632256
370
    25
100
AcDbLine
 10
358.9677733436056
 20
126.811771992956
 30
0.0
 11
355.9593495889903
 21
134.5346785305638
 31
0.0
  0
LINE
  5
2A2
330
70
100
AcDbEntity
  8
HON
 62
     9
420
 12632256
370
    25
100
AcDbLine
 10
365.6493312750915
 20
126.1201766942943
 30
0.0
 11
363.057079934316
 21
131.4736551859178
 31
0.0
  0
LINE
  5
2A3
330
70
100
AcDbEntity
  8
HON
 62
     9
420
 12632256
370
    25
100
AcDbLine
 10
371.9981779968084
 20
125.8433793503058
 30
0.0
 11
370.0877860738635
 21
130.2749181661188
 31
0.0
  0
LINE
  5
2A4
330
70
100
AcDbEntity
  8
HON
 62
     9
420
 12632256
370
    25
100
AcDbLine
 10
377.1169934482448
 20
124.2579555255175
 30
0.0
 11
375.6773903522874
 21
128.7238160131045
 31
0.0
  0
LINE
  5
2A5
330
70
100
AcDbEntity
  8
HON
 62
     9
420
 12632256
370
    25
100
AcDbLine
 10
380.8528034280817
 20
123.9231859831976
 30
0.0
 11
380.149598773333
 21
126.8743206907888
 31
0.0
  0
LINE
  5
2A6
330
70
100
AcDbEntity
  8
HON
 62
     9
420
 12632256
370
    25
100
AcDbLine
 10
383.2703948004247
 20
123.063735477313
 30
0.0
 11
382.9144539060472
 21
125.6583878713511
 31
0.0
  0
LINE
  5
2A7
330
70
100
AcDbEntity
  8
HON
 62
     9
420
 12632256
370
    25
100
AcDbLine
 10
351.2098836951943
 20
127.622640928146
 30
0.0
 11
349.9451834860924
 21
126.1648093305647
 31
0.0
  0
LINE
  5
2A8
330
70
100
AcDbEntity
  8
HON
 62
     9
420
 12632256
370
    25
100
AcDbLine
 10
358.9677733436056
 20
126.811771992956
 30
0.0
 11
357.2791645056804
 21
125.3904289079314
 31
0.0
  0
LINE
  5
2A9
330
70
100
AcDbEntity
  8
HON
 62
     9
420
 12632256
370
    25
100
AcDbLine
 10
365.6493312750915
 20
126.1201766942943
 30
0.0
 11
364.6728337393456
 21
124.862672016225
 31
0.0
  0
LINE
  5
2AA
330
70
100
AcDbEntity
  8
HON
 62
     9
420
 12632256
370
    25
100
AcDbLine
 10
371.9981779968084
 20
125.8433793503058
 30
0.0
 11
371.0228646422591
 21
124.3571522755073
 31
0.0
  0
LINE
  5
2AB
330
70
100
AcDbEntity
  8
HON
 62
     9
420
 12632256
370
    25
100
AcDbLine
 10
377.1169934482448
 20
124.2579555255175
 30
0.0
 11
376.3390183018
 21
122.9470563539189
 31
0.0
  0
LINE
  5
2AC
330
70
100
AcDbEntity
  8
HON
 62
     9
420
 12632256
370
    25
100
AcDbLine
 10
380.8528034280817
 20
123.9231859831976
 30
0.0
 11
380.300532449424
 21
122.7010684272041
 31
0.0
  0
LINE
  5
2AD
330
70
100
AcDbEntity
  8
HON
 62
     9
420
 12632256
370
    25
100
AcDbLine
 10
382.8478872130942
 20
121.5812315585757
 30
0.0
 11
383.2703948004247
 21
123.063735477313
 31
0.0
  0
LINE
  5
2AE
330
70
100
AcDbEntity
  8
HON
 62
     9
420
 12632256
370
    25
100
AcDbLine
 10
343.6264208100058
 20
91.80177063954477
 30
0.0
 11
345.9147697328621
 21
88.87065454014644
 31
0.0
  0
LINE
  5
2AF
330
70
100
AcDbEntity
  8
HON
 62
     9
420
 12632256
370
    25
100
AcDbLine
 10
345.5961749021098
 20
91.93885855037645
 30
0.0
 11
349.2300789034181
 21
89.08640525916444
 31
0.0
  0
LINE
  5
2B0
330
70
100
AcDbEntity
  8
HON
 62
     9
420
 12632256
370
    25
100
AcDbLine
 10
346.9567110131189
 20
92.13894005759533
 30
0.0
 11
351.9754659440248
 21
89.40088067153292
 31
0.0
  0
LINE
  5
2B1
330
70
100
AcDbEntity
  8
HON
 62
     9
420
 12632256
370
    25
100
AcDbLine
 10
347.7933494910447
 20
92.3694378394647
 30
0.0
 11
354.8957546522872
 21
89.96676184513047
 31
0.0
  0
LINE
  5
2B2
330
70
100
AcDbEntity
  8
HON
 62
     9
420
 12632256
370
    25
100
AcDbLine
 10
348.1202327788059
 20
92.55523443750368
 30
0.0
 11
356.4155819839634
 21
90.49265515109743
 31
0.0
  0
LINE
  5
2B3
330
70
100
AcDbEntity
  8
HON
 62
     9
420
 12632256
370
    25
100
AcDbLine
 10
348.1993297852177
 20
92.70575809871903
 30
0.0
 11
357.2162294383541
 21
91.11584479435373
 31
0.0
  0
LINE
  5
2B4
330
70
100
AcDbEntity
  8
HON
 62
     9
420
 12632256
370
    25
100
AcDbLine
 10
373.9607752562855
 20
193.3004937978167
 30
0.0
 11
372.0897544386311
 21
191.4725582707835
 31
0.0
  0
LINE
  5
2B5
330
70
100
AcDbEntity
  8
HON
 62
     9
420
 12632256
370
    25
100
AcDbLine
 10
378.3658212286336
 20
191.4358933761945
 30
0.0
 11
376.5936864010757
 21
190.4251092679718
 31
0.0
  0
LINE
  5
2B6
330
70
100
AcDbEntity
  8
HON
 62
     9
420
 12632256
370
    25
100
AcDbLine
 10
380.4694258955053
 20
190.8312255898991
 30
0.0
 11
379.2266312437334
 21
190.4335402831049
 31
0.0
  0
LINE
  5
2B7
330
70
100
AcDbEntity
  8
HON
 62
     9
420
 12632256
370
    25
100
AcDbLine
 10
385.058968029717
 20
152.0924761980128
 30
0.0
 11
387.417035254044
 21
154.3552260587946
 31
0.0
  0
LINE
  5
2B8
330
70
100
AcDbEntity
  8
HON
 62
     9
420
 12632256
370
    25
100
AcDbLine
 10
342.3285400954566
 20
203.4296006851904
 30
0.0
 11
344.1046251591632
 21
210.9486938556598
 31
0.0
  0
LINE
  5
2B9
330
70
100
AcDbEntity
  8
HON
 62
     9
420
 12632256
370
    25
100
AcDbLine
 10
344.1046251591632
 20
210.9486938556598
 30
0.0
 11
346.2192761430872
 21
203.3375574559785
 31
0.0
  0
LINE
  5
2BA
330
70
100
AcDbEntity
  8
HON
 62
     9
420
 12632256
370
    25
100
AcDbLine
 10
346.2192761430872
 20
203.3375574559785
 30
0.0
 11
346.7284565367851
 21
210.8671253153132
 31
0.0
  0
LINE
  5
2BB
330
70
100
AcDbEntity
  8
HON
 62
     9
420
 12632256
370
    25
100
AcDbLine
 10
346.7284565367851
 20
210.8671253153132
 30
0.0
 11
351.5608613861636
 21
203.0947305257445
 31
0.0
  0
LINE
  5
2BC
330
70
100
AcDbEntity
  8
HON
 62
     9
420
 12632256
370
    25
100
AcDbLine
 10
351.5608613861636
 20
203.0947305257445
 30
0.0
 11
348.4281614520764
 21
210.757028155027
 31
0.0
  0
LINE
  5
2BD
330
70
100
AcDbEntity
  8
HON
 62
     9
420
 12632256
370
    25
100
AcDbLine
 10
348.4281614520764
 20
210.757028155027
 30
0.0
 11
357.9235544397781
 21
202.3578832962746
 31
0.0
  0
LINE
  5
2BE
330
70
100
AcDbEntity
  8
HON
 62
     9
420
 12632256
370
    25
100
AcDbLine
 10
357.9235544397781
 20
202.3578832962746
 30
0.0
 11
350.0364179793765
 21
210.6132146333075
 31
0.0
  0
LINE
  5
2BF
330
70
100
AcDbEntity
  8
HON
 62
     9
420
 12632256
370
    25
100
AcDbLine
 10
350.0364179793765
 20
210.6132146333075
 30
0.0
 11
362.0859235470363
 21
201.7020303865452
 31
0.0
  0
LINE
  5
2C0
330
70
100
AcDbEntity
  8
HON
 62
     9
420
 12632256
370
    25
100
AcDbLine
 10
362.0859235470363
 20
201.7020303865452
 30
0.0
 11
352.2262267801785
 21
210.3157810021783
 31
0.0
  0
LINE
  5
2C1
330
70
100
AcDbEntity
  8
HON
 62
     9
420
 12632256
370
    25
100
AcDbLine
 10
352.2262267801785
 20
210.3157810021783
 30
0.0
 11
364.0331132019812
 21
201.7020303865452
 31
0.0
  0
LINE
  5
2C2
330
70
100
AcDbEntity
  8
HON
 62
     9
420
 12632256
370
    25
100
AcDbLine
 10
364.0331132019812
 20
201.7020303865452
 30
0.0
 11
354.0464748730578
 21
210.0090715057907
 31
0.0
  0
LINE
  5
2C3
330
70
100
AcDbEntity
  8
HON
 62
     9
420
 12632256
370
    25
100
AcDbLine
 10
353.855385029366
 20
210.0090715057907
 30
0.0
 11
367.1029070575172
 21
200.7328205871759
 31
0.0
  0
LINE
  5
2C4
330
70
100
AcDbEntity
  8
HON
 62
     9
420
 12632256
370
    25
100
AcDbLine
 10
367.0152291870159
 20
200.8278429129395
 30
0.0
 11
355.3531155374218
 21
209.6182008720837
 31
0.0
  0
LINE
  5
2C5
330
70
100
AcDbEntity
  8
HON
 62
     9
420
 12632256
370
    25
100
AcDbLine
 10
355.5442053811131
 20
209.6182008720837
 30
0.0
 11
367.9674923579821
 21
200.6869397107702
 31
0.0
  0
LINE
  5
2C6
330
70
100
AcDbEntity
  8
HON
 62
     9
420
 12632256
370
    25
100
AcDbLine
 10
367.9674923579821
 20
200.6869397107702
 30
0.0
 11
356.7868922464843
 21
209.0794286834769
 31
0.0
  0
LINE
  5
2C7
330
70
100
AcDbEntity
  8
HON
 62
     9
420
 12632256
370
    25
100
AcDbLine
 10
367.9674923579821
 20
200.6869397107702
 30
0.0
 11
372.1922857738656
 21
199.0978722301063
 31
0.0
  0
LINE
  5
2C8
330
70
100
AcDbEntity
  8
HON
 62
     9
420
 12632256
370
    25
100
AcDbLine
 10
342.1854497033996
 20
91.74737237680135
 30
0.0
 11
342.1854497033996
 21
88.68019645401847
 31
0.0
  0
LINE
  5
2C9
330
70
100
AcDbEntity
  8
HON
 62
     9
420
 12632256
370
    25
100
AcDbLine
 10
342.1298183644171
 20
160.820024279627
 30
0.0
 11
342.0481891467141
 21
127.3326997073895
 31
0.0
  0
ENDSEC
  0
SECTION
  2
OBJECTS
  0
DICTIONARY
  5
C
330
0
100
AcDbDictionary
281
     1
  3
ACAD_COLOR
350
63
  3
ACAD_DETAILVIEWSTYLE
350
6A
  3
ACAD_GROUP
350
D
  3
ACAD_LAYOUT
350
62
  3
ACAD_MATERIAL
350
10
  3
ACAD_MLEADERSTYLE
350
66
  3
ACAD_MLINESTYLE
350
5F
  3
ACAD_PLOTSETTINGS
350
61
  3
ACAD_PLOTSTYLENAME
350
E
  3
ACAD_SCALELIST
350
42
  3
ACAD_SECTIONVIEWSTYLE
350
68
  3
ACAD_TABLESTYLE
350
64
  3
ACAD_VISUALSTYLE
350
29
  3
ACDB_RECOMPOSE_DATA
350
2D2
  3
AcDbVariableDictionary
350
2CA
  0
DICTIONARY
  5
63
102
{ACAD_REACTORS
330
C
102
}
330
C
100
AcDbDictionary
281
     1
  0
DICTIONARY
  5
6A
102
{ACAD_REACTORS
330
C
102
}
330
C
100
AcDbDictionary
281
     1
  3
Imperial24
350
6B
  0
DICTIONARY
  5
D
102
{ACAD_REACTORS
330
C
102
}
330
C
100
AcDbDictionary
281
     1
  0
DICTIONARY
  5
62
102
{ACAD_REACTORS
330
C
102
}
330
C
100
AcDbDictionary
281
     1
  3
Layout1
350
6F
  3
Layout2
350
77
  3
Model
350
73
  0
DICTIONARY
  5
10
102
{ACAD_REACTORS
330
C
102
}
330
C
100
AcDbDictionary
281
     1
  3
ByBlock
350
19
  3
ByLayer
350
11
  3
Global
350
21
  0
DICTIONARY
  5
66
102
{ACAD_REACTORS
330
C
102
}
330
C
100
AcDbDictionary
281
     1
  3
Standard
350
67
  0
DICTIONARY
  5
5F
102
{ACAD_REACTORS
330
C
102
}
330
C
100
AcDbDictionary
281
     1
  3
Standard
350
60
  0
DICTIONARY
  5
61
102
{ACAD_REACTORS
330
C
102
}
330
C
100
AcDbDictionary
281
     1
  0
ACDBDICTIONARYWDFLT
  5
E
102
{ACAD_REACTORS
330
C
102
}
330
C
100
AcDbDictionary
281
     1
  3
Normal
350
F
100
AcDbDictionaryWithDefault
340
F
  0
DICTIONARY
  5
42
102
{ACAD_REACTORS
330
C
102
}
330
C
100
AcDbDictionary
281
     1
  3
A0
350
43
  3
A1
350
44
  3
A2
350
45
  3
A3
350
46
  3
A4
350
47
  3
A5
350
48
  3
A6
350
49
  3
A7
350
4A
  3
A8
350
4B
  3
A9
350
4C
  3
B0
350
4D
  3
B1
350
4E
  3
B2
350
4F
  3
B3
350
50
  3
B4
350
51
  3
B5
350
52
  3
B6
350
53
  0
DICTIONARY
  5
68
102
{ACAD_REACTORS
330
C
102
}
330
C
100
AcDbDictionary
281
     1
  3
Imperial24
350
69
  0
DICTIONARY
  5
64
102
{ACAD_REACTORS
330
C
102
}
330
C
100
AcDbDictionary
281
     1
  3
Standard
350
65
  0
DICTIONARY
  5
29
102
{ACAD_REACTORS
330
C
102
}
330
C
100
AcDbDictionary
281
     1
  3
2dWireframe
350
2F
  3
Basic
350
2E
  3
Brighten
350
35
  3
ColorChange
350
39
  3
Conceptual
350
32
  3
Dim
350
34
  3
EdgeColorOff
350
41
  3
Facepattern
350
38
  3
Flat
350
2A
  3
FlatWithEdges
350
2B
  3
Gouraud
350
2C
  3
GouraudWithEdges
350
2D
  3
Hidden
350
31
  3
JitterOff
350
3F
  3
Linepattern
350
37
  3
OverhangOff
350
40
  3
Realistic
350
33
  3
Shaded
350
3E
  3
Shaded with edges
350
3D
  3
Shades of Gray
350
3A
  3
Sketchy
350
3B
  3
Thicken
350
36
  3
Wireframe
350
30
  3
X-Ray
350
3C
  0
XRECORD
  5
2D2
102
{ACAD_REACTORS
330
C
102
}
330
C
100
AcDbXrecord
280
     1
 90
        1
330
65
  0
DICTIONARY
  5
2CA
102
{ACAD_REACTORS
330
C
102
}
330
C
100
AcDbDictionary
281
     1
  3
CANNOSCALE
350
2CF
  3
CMLEADERSTYLE
350
2CC
  3
CTABLESTYLE
350
2CB
  3
CVIEWDETAILSTYLE
350
2CD
  3
CVIEWSECTIONSTYLE
350
2CE
  0
ACDBDETAILVIEWSTYLE
  5
6B
102
{ACAD_REACTORS
330
6A
102
}
330
6A
100
AcDbModelDocViewStyle
 70
     0
  3
Imperial24
290
     1
300
Imperial24
 90
        0
100
AcDbDetailViewStyle
 70
     0
 71
     0
 90
        3
 71
     1
340
55
 62
   256
 40
0.24
340
0
 62
   256
 40
0.24
300

 40
0.36
280
     3
 71
     2
340
5D
 90
       25
 62
   256
 71
     3
340
55
 62
   256
 40
0.24
 90
        1
 40
0.75
 90
        1
300
%<\AcVar ViewType \f "%tc1">% %<\AcVar ViewDetailId>%\PSCALE %<\AcVar ViewScale \f "%sn">%
 71
     4
340
5D
 90
       25
 62
   256
340
5D
 90
       25
 62
   256
280
     0
  0
LAYOUT
  5
6F
102
{ACAD_REACTORS
330
62
102
}
330
62
100
AcDbPlotSettings
  1

  2

  4

  6

 40
0.0
 41
0.0
 42
0.0
 43
0.0
 44
0.0
 45
0.0
 46
0.0
 47
0.0
 48
0.0
 49
0.0
140
0.0
141
0.0
142
1.0
143
1.0
 70
   688
 72
     0
 73
     0
 74
     5
  7

 75
    16
147
1.0
 76
     0
 77
     2
 78
   300
148
0.0
149
0.0
100
AcDbLayout
  1
Layout1
 70
     1
 71
     1
 10
0.0
 20
0.0
 11
12.0
 21
9.0
 12
0.0
 22
0.0
 32
0.0
 14
0.0
 24
0.0
 34
0.0
 15
0.0
 25
0.0
 35
0.0
146
0.0
 13
0.0
 23
0.0
 33
0.0
 16
1.0
 26
0.0
 36
0.0
 17
0.0
 27
1.0
 37
0.0
 76
     0
330
6C
  0
LAYOUT
  5
77
102
{ACAD_REACTORS
330
62
102
}
330
62
100
AcDbPlotSettings
  1

  2

  4

  6

 40
0.0
 41
0.0
 42
0.0
 43
0.0
 44
0.0
 45
0.0
 46
0.0
 47
0.0
 48
0.0
 49
0.0
140
0.0
141
0.0
142
1.0
143
1.0
 70
   688
 72
     0
 73
     0
 74
     5
  7

 75
    16
147
1.0
 76
     0
 77
     2
 78
   300
148
0.0
149
0.0
100
AcDbLayout
  1
Layout2
 70
     1
 71
     2
 10
0.0
 20
0.0
 11
12.0
 21
9.0
 12
0.0
 22
0.0
 32
0.0
 14
0.0
 24
0.0
 34
0.0
 15
0.0
 25
0.0
 35
0.0
146
0.0
 13
0.0
 23
0.0
 33
0.0
 16
1.0
 26
0.0
 36
0.0
 17
0.0
 27
1.0
 37
0.0
 76
     0
330
74
  0
LAYOUT
  5
73
102
{ACAD_REACTORS
330
62
102
}
330
62
100
AcDbPlotSettings
  1

  2

  4

  6

 40
0.0
 41
0.0
 42
0.0
 43
0.0
 44
0.0
 45
0.0
 46
0.0
 47
0.0
 48
0.0
 49
0.0
140
0.0
141
0.0
142
1.0
143
1.0
 70
  1712
 72
     0
 73
     0
 74
     0
  7

 75
     0
147
1.0
 76
     0
 77
     2
 78
   300
148
0.0
149
0.0
100
AcDbLayout
  1
Model
 70
     1
 71
     0
 10
0.0
 20
0.0
 11
12.0
 21
9.0
 12
0.0
 22
0.0
 32
0.0
 14
0.0
 24
0.0
 34
0.0
 15
0.0
 25
0.0
 35
0.0
146
0.0
 13
0.0
 23
0.0
 33
0.0
 16
1.0
 26
0.0
 36
0.0
 17
0.0
 27
1.0
 37
0.0
 76
     0
330
70
  0
MATERIAL
  5
19
102
{ACAD_XDICTIONARY
360
1A
102
}
102
{ACAD_REACTORS
330
10
102
}
330
10
100
AcDbMaterial
  1
ByBlock
 72
     0
 43
0.0208333333333333
 43
0.0
 43
0.0
 43
0.0
 43
0.0
 43
0.0208333333333333
 43
0.0
 43
0.0
 43
0.0
 43
0.0
 43
1.0
 43
0.0
 43
0.0
 43
0.0
 43
0.0
 43
1.0
 77
     0
 47
0.0208333333333333
 47
0.0
 47
0.0
 47
0.0
 47
0.0
 47
0.0208333333333333
 47
0.0
 47
0.0
 47
0.0
 47
0.0
 47
1.0
 47
0.0
 47
0.0
 47
0.0
 47
0.0
 47
1.0
171
     0
 49
0.0208333333333333
 49
0.0
 49
0.0
 49
0.0
 49
0.0
 49
0.0208333333333333
 49
0.0
 49
0.0
 49
0.0
 49
0.0
 49
1.0
 49
0.0
 49
0.0
 49
0.0
 49
0.0
 49
1.0
175
     0
142
0.0208333333333333
142
0.0
142
0.0
142
0.0
142
0.0
142
0.0208333333333333
142
0.0
142
0.0
142
0.0
142
0.0
142
1.0
142
0.0
142
0.0
142
0.0
142
0.0
142
1.0
179
     0
144
0.0208333333333333
144
0.0
144
0.0
144
0.0
144
0.0
144
0.0208333333333333
144
0.0
144
0.0
144
0.0
144
0.0
144
1.0
144
0.0
144
0.0
144
0.0
144
0.0
144
1.0
147
0.0208333333333333
147
0.0
147
0.0
147
0.0
147
0.0
147
0.0208333333333333
147
0.0
147
0.0
147
0.0
147
0.0
147
1.0
147
0.0
147
0.0
147
0.0
147
0.0
147
1.0
  0
MATERIAL
  5
11
102
{ACAD_XDICTIONARY
360
12
102
}
102
{ACAD_REACTORS
330
10
102
}
330
10
100
AcDbMaterial
  1
ByLayer
 72
     0
 43
0.0208333333333333
 43
0.0
 43
0.0
 43
0.0
 43
0.0
 43
0.0208333333333333
 43
0.0
 43
0.0
 43
0.0
 43
0.0
 43
1.0
 43
0.0
 43
0.0
 43
0.0
 43
0.0
 43
1.0
 77
     0
 47
0.0208333333333333
 47
0.0
 47
0.0
 47
0.0
 47
0.0
 47
0.0208333333333333
 47
0.0
 47
0.0
 47
0.0
 47
0.0
 47
1.0
 47
0.0
 47
0.0
 47
0.0
 47
0.0
 47
1.0
171
     0
 49
0.0208333333333333
 49
0.0
 49
0.0
 49
0.0
 49
0.0
 49
0.0208333333333333
 49
0.0
 49
0.0
 49
0.0
 49
0.0
 49
1.0
 49
0.0
 49
0.0
 49
0.0
 49
0.0
 49
1.0
175
     0
142
0.0208333333333333
142
0.0
142
0.0
142
0.0
142
0.0
142
0.0208333333333333
142
0.0
142
0.0
142
0.0
142
0.0
142
1.0
142
0.0
142
0.0
142
0.0
142
0.0
142
1.0
179
     0
144
0.0208333333333333
144
0.0
144
0.0
144
0.0
144
0.0
144
0.0208333333333333
144
0.0
144
0.0
144
0.0
144
0.0
144
1.0
144
0.0
144
0.0
144
0.0
144
0.0
144
1.0
147
0.0208333333333333
147
0.0
147
0.0
147
0.0
147
0.0
147
0.0208333333333333
147
0.0
147
0.0
147
0.0
147
0.0
147
1.0
147
0.0
147
0.0
147
0.0
147
0.0
147
1.0
  0
MATERIAL
  5
21
102
{ACAD_XDICTIONARY
360
22
102
}
102
{ACAD_REACTORS
330
10
102
}
330
10
100
AcDbMaterial
  1
Global
 72
     0
 43
0.0208333333333333
 43
0.0
 43
0.0
 43
0.0
 43
0.0
 43
0.0208333333333333
 43
0.0
 43
0.0
 43
0.0
 43
0.0
 43
1.0
 43
0.0
 43
0.0
 43
0.0
 43
0.0
 43
1.0
 77
     0
 47
0.0208333333333333
 47
0.0
 47
0.0
 47
0.0
 47
0.0
 47
0.0208333333333333
 47
0.0
 47
0.0
 47
0.0
 47
0.0
 47
1.0
 47
0.0
 47
0.0
 47
0.0
 47
0.0
 47
1.0
171
     0
 49
0.0208333333333333
 49
0.0
 49
0.0
 49
0.0
 49
0.0
 49
0.0208333333333333
 49
0.0
 49
0.0
 49
0.0
 49
0.0
 49
1.0
 49
0.0
 49
0.0
 49
0.0
 49
0.0
 49
1.0
175
     0
142
0.0208333333333333
142
0.0
142
0.0
142
0.0
142
0.0
142
0.0208333333333333
142
0.0
142
0.0
142
0.0
142
0.0
142
1.0
142
0.0
142
0.0
142
0.0
142
0.0
142
1.0
179
     0
144
0.0208333333333333
144
0.0
144
0.0
144
0.0
144
0.0
144
0.0208333333333333
144
0.0
144
0.0
144
0.0
144
0.0
144
1.0
144
0.0
144
0.0
144
0.0
144
0.0
144
1.0
147
0.0208333333333333
147
0.0
147
0.0
147
0.0
147
0.0
147
0.0208333333333333
147
0.0
147
0.0
147
0.0
147
0.0
147
1.0
147
0.0
147
0.0
147
0.0
147
0.0
147
1.0
  0
MLEADERSTYLE
  5
67
102
{ACAD_REACTORS
330
66
102
}
330
66
100
AcDbMLeaderStyle
179
     2
170
     2
171
     1
172
     0
 90
        2
 40
0.0
 41
0.0
173
     1
 91
-1056964608
340
5B
 92
       -2
290
     1
 42
0.09
291
     1
 43
0.36
  3
Standard
 44
0.18
300

342
55
174
     1
178
     6
175
     1
176
     0
 93
-1056964608
 45
0.18
292
     0
297
     0
 46
0.18
 94
-1056964608
 47
1.0
 49
1.0
140
1.0
293
     1
141
0.0
294
     1
177
     0
142
1.0
295
     1
296
     0
143
0.125
271
     0
272
     9
273
     9
298
     1
  0
MLINESTYLE
  5
60
102
{ACAD_REACTORS
330
5F
102
}
330
5F
100
AcDbMlineStyle
  2
STANDARD
 70
     0
  3

 62
   256
 51
90.0
 52
90.0
 71
     2
 49
0.5
 62
   256
  6
BYLAYER
 49
-0.5
 62
   256
  6
BYLAYER
  0
ACDBPLACEHOLDER
  5
F
102
{ACAD_REACTORS
330
E
102
}
330
E
  0
SCALE
  5
43
102
{ACAD_REACTORS
330
42
102
}
330
42
100
AcDbScale
 70
     0
300
1:1
140
1.0
141
1.0
290
     1
  0
SCALE
  5
44
102
{ACAD_REACTORS
330
42
102
}
330
42
100
AcDbScale
 70
     0
300
1/128" = 1'-0"
140
0.0078125
141
12.0
290
     0
  0
SCALE
  5
45
102
{ACAD_REACTORS
330
42
102
}
330
42
100
AcDbScale
 70
     0
300
1/64" = 1'-0"
140
0.015625
141
12.0
290
     0
  0
SCALE
  5
46
102
{ACAD_REACTORS
330
42
102
}
330
42
100
AcDbScale
 70
     0
300
1/32" = 1'-0"
140
0.03125
141
12.0
290
     0
  0
SCALE
  5
47
102
{ACAD_REACTORS
330
42
102
}
330
42
100
AcDbScale
 70
     0
300
1/16" = 1'-0"
140
0.0625
141
12.0
290
     0
  0
SCALE
  5
48
102
{ACAD_REACTORS
330
42
102
}
330
42
100
AcDbScale
 70
     0
300
3/32" = 1'-0"
140
0.09375
141
12.0
290
     0
  0
SCALE
  5
49
102
{ACAD_REACTORS
330
42
102
}
330
42
100
AcDbScale
 70
     0
300
1/8" = 1'-0"
140
0.125
141
12.0
290
     0
  0
SCALE
  5
4A
102
{ACAD_REACTORS
330
42
102
}
330
42
100
AcDbScale
 70
     0
300
3/16" = 1'-0"
140
0.1875
141
12.0
290
     0
  0
SCALE
  5
4B
102
{ACAD_REACTORS
330
42
102
}
330
42
100
AcDbScale
 70
     0
300
1/4" = 1'-0"
140
0.25
141
12.0
290
     0
  0
SCALE
  5
4C
102
{ACAD_REACTORS
330
42
102
}
330
42
100
AcDbScale
 70
     0
300
3/8" = 1'-0"
140
0.375
141
12.0
290
     0
  0
SCALE
  5
4D
102
{ACAD_REACTORS
330
42
102
}
330
42
100
AcDbScale
 70
     0
300
1/2" = 1'-0"
140
0.5
141
12.0
290
     0
  0
SCALE
  5
4E
102
{ACAD_REACTORS
330
42
102
}
330
42
100
AcDbScale
 70
     0
300
3/4" = 1'-0"
140
0.75
141
12.0
290
     0
  0
SCALE
  5
4F
102
{ACAD_REACTORS
330
42
102
}
330
42
100
AcDbScale
 70
     0
300
1" = 1'-0"
140
1.0
141
12.0
290
     0
  0
SCALE
  5
50
102
{ACAD_REACTORS
330
42
102
}
330
42
100
AcDbScale
 70
     0
300
1-1/2" = 1'-0"
140
1.5
141
12.0
290
     0
  0
SCALE
  5
51
102
{ACAD_REACTORS
330
42
102
}
330
42
100
AcDbScale
 70
     0
300
3" = 1'-0"
140
3.0
141
12.0
290
     0
  0
SCALE
  5
52
102
{ACAD_REACTORS
330
42
102
}
330
42
100
AcDbScale
 70
     0
300
6" = 1'-0"
140
6.0
141
12.0
290
     0
  0
SCALE
  5
53
102
{ACAD_REACTORS
330
42
102
}
330
42
100
AcDbScale
 70
     0
300
1'-0" = 1'-0"
140
12.0
141
12.0
290
     0
  0
ACDBSECTIONVIEWSTYLE
  5
69
102
{ACAD_REACTORS
330
68
102
}
330
68
100
AcDbModelDocViewStyle
 70
     0
  3
Imperial24
290
     1
300
Imperial24
 90
        0
100
AcDbSectionViewStyle
 70
     0
 71
     0
 90
       78
 71
     1
340
55
 62
   256
 40
0.24
340
0
340
0
 62
   256
 40
0.24
300
I, O, Q, S, X, Z
 40
0.48
 90
        3
 40
0.18
 90
        1
 71
     2
340
5D
 90
       25
 62
   256
340
5D
 90
       50
 62
   256
 40
0.24
 40
0.0
 40
0.24
 71
     3
340
55
 62
   256
 40
0.24
 90
        1
 40
0.75
 90
        1
300
%<\AcVar ViewType \f "%tc1">% %<\AcVar ViewSectionStartId>%-%<\AcVar ViewSectionEndId>%\PSCALE %<\AcVar ViewScale \f "%sn">%
 71
     4
 62
   256
 62
   257
300
ANSI31
 40
1.0
 90
        0
290
     0
290
     0
 90
        6
 40
0.0
 40
1.570796326794896
 40
0.2617993877991494
 40
1.308996938995747
 40
-0.2617993877991494
 40
1.832595714594046
  0
TABLESTYLE
  5
65
102
{ACAD_XDICTIONARY
360
2D0
102
}
102
{ACAD_REACTORS
330
64
102
}
330
64
100
AcDbTableStyle
280
     0
  3
Standard
 70
     0
 71
     0
 40
0.06
 41
0.06
280
     0
281
     0
  7
Standard
140
0.18
170
     2
 62
     0
 63
     7
283
     0
 90
      512
 91
        0
  1

274
    -2
284
     1
 64
     0
275
    -2
285
     1
 65
     0
276
    -2
286
     1
 66
     0
277
    -2
287
     1
 67
     0
278
    -2
288
     1
 68
     0
279
    -2
289
     1
 69
     0
  7
Standard
140
0.25
170
     5
 62
     0
 63
     7
283
     0
 90
      512
 91
        0
  1

274
    -2
284
     1
 64
     0
275
    -2
285
     1
 65
     0
276
    -2
286
     1
 66
     0
277
    -2
287
     1
 67
     0
278
    -2
288
     1
 68
     0
279
    -2
289
     1
 69
     0
  7
Standard
140
0.18
170
     5
 62
     0
 63
     7
283
     0
 90
      512
 91
        0
  1

274
    -2
284
     1
 64
     0
275
    -2
285
     1
 65
     0
276
    -2
286
     1
 66
     0
277
    -2
287
     1
 67
     0
278
    -2
288
     1
 68
     0
279
    -2
289
     1
 69
     0
  0
VISUALSTYLE
  5
2F
102
{ACAD_REACTORS
330
29
102
}
330
29
100
AcDbVisualStyle
  2
2dWireframe
 70
     4
177
     3
291
     0
 70
    58
 90
        0
176
     1
 90
        2
176
     1
 90
        0
176
     1
 90
        0
176
     1
 40
0.6
176
     1
 40
30.0
176
     1
 62
     7
420
 16777215
176
     1
 90
        1
176
     1
 90
        4
176
     1
 62
     7
176
     1
 62
   257
176
     1
 90
        1
176
     1
 90
        1
176
     1
 40
1.0
176
     1
 90
        0
176
     1
 62
   257
176
     1
 40
1.0
176
     1
 90
        1
176
     1
 90
        6
176
     1
 90
        2
176
     1
 62
     7
176
     1
 90
        5
176
     1
 90
        0
176
     1
 90
        0
176
     1
290
     0
176
     1
 90
        1
176
     1
 40
0.0
176
     1
 90
        0
176
     1
290
     1
176
     1
290
     1
176
     1
290
     0
176
     1
290
     0
176
     1
290
     0
176
     1
290
     0
176
     1
290
     0
176
     1
290
     0
176
     1
290
     0
176
     1
 90
       50
176
     1
 40
0.0
176
     1
 40
1.0
176
     1
 90
        0
176
     1
 62
    18
420
        0
176
     1
 90
       50
176
     1
 90
        3
176
     1
 62
     5
420
      255
176
     1
290
     0
176
     1
 90
       50
176
     1
 90
       50
176
     1
 90
       50
176
     1
290
     0
176
     1
 90
       50
176
     1
 62
   256
176
     0
 40
1.0
176
     0
 90
        2
176
     1
  1
strokes_ogs.tif
176
     1
290
     0
176
     1
 40
1.0
176
     1
 40
1.0
176
     1
  0
VISUALSTYLE
  5
2E
102
{ACAD_REACTORS
330
29
102
}
330
29
100
AcDbVisualStyle
  2
Basic
 70
     7
177
     3
291
     1
 70
    58
 90
        1
176
     1
 90
        0
176
     1
 90
        1
176
     1
 90
        0
176
     1
 40
0.6
176
     1
 40
30.0
176
     1
 62
     7
420
 16777215
176
     1
 90
        0
176
     1
 90
        4
176
     1
 62
     7
176
     1
 62
   257
176
     1
 90
        1
176
     1
 90
        1
176
     1
 40
1.0
176
     1
 90
        8
176
     1
 62
     7
176
     1
 40
1.0
176
     1
 90
        1
176
     1
 90
        6
176
     1
 90
        2
176
     1
 62
     7
176
     1
 90
        5
176
     1
 90
        0
176
     1
 90
        0
176
     1
290
     0
176
     1
 90
        1
176
     1
 40
0.0
176
     1
 90
        0
176
     1
290
     0
176
     1
290
     1
176
     1
290
     1
176
     1
290
     0
176
     1
290
     0
176
     1
290
     0
176
     1
290
     0
176
     1
290
     0
176
     1
290
     0
176
     1
 90
       50
176
     1
 40
0.0
176
     1
 40
1.0
176
     1
 90
        0
176
     1
 62
    18
420
        0
176
     1
 90
       50
176
     1
 90
        3
176
     1
 62
     5
420
      255
176
     1
290
     0
176
     1
 90
       50
176
     1
 90
       50
176
     1
 90
       50
176
     1
290
     0
176
     1
 90
       50
176
     1
 62
   256
176
     0
 40
1.0
176
     0
 90
        2
176
     1
  1
strokes_ogs.tif
176
     1
290
     0
176
     1
 40
1.0
176
     1
 40
1.0
176
     1
  0
VISUALSTYLE
  5
35
102
{ACAD_REACTORS
330
29
102
}
330
29
100
AcDbVisualStyle
  2
Brighten
 70
    12
177
     3
291
     1
 70
    58
 90
        2
176
     1
 90
        2
176
     1
 90
        0
176
     1
 90
        0
176
     1
 40
0.6
176
     1
 40
30.0
176
     1
 62
     7
420
 16777215
176
     1
 90
        1
176
     1
 90
        4
176
     1
 62
     7
176
     1
 62
   257
176
     1
 90
        1
176
     1
 90
        1
176
     1
 40
1.0
176
     1
 90
        8
176
     1
 62
     7
176
     1
 40
1.0
176
     1
 90
        1
176
     1
 90
        6
176
     1
 90
        2
176
     1
 62
     7
176
     1
 90
        5
176
     1
 90
        0
176
     1
 90
        0
176
     1
290
     0
176
     1
 90
        1
176
     1
 40
50.0
176
     1
 90
        0
176
     1
290
     0
176
     1
290
     1
176
     1
290
     1
176
     1
290
     0
176
     1
290
     0
176
     1
290
     0
176
     1
290
     0
176
     1
290
     0
176
     1
290
     0
176
     1
 90
       50
176
     1
 40
0.0
176
     1
 40
1.0
176
     1
 90
        0
176
     1
 62
    18
420
        0
176
     1
 90
       50
176
     1
 90
        3
176
     1
 62
     5
420
      255
176
     1
290
     0
176
     1
 90
       50
176
     1
 90
       50
176
     1
 90
       50
176
     1
290
     0
176
     1
 90
       50
176
     1
 62
   256
176
     0
 40
1.0
176
     0
 90
        2
176
     1
  1
strokes_ogs.tif
176
     1
290
     0
176
     1
 40
1.0
176
     1
 40
1.0
176
     1
  0
VISUALSTYLE
  5
39
102
{ACAD_REACTORS
330
29
102
}
330
29
100
AcDbVisualStyle
  2
ColorChange
 70
    16
177
     3
291
     1
 70
    58
 90
        2
176
     1
 90
        2
176
     1
 90
        3
176
     1
 90
        0
176
     1
 40
0.6
176
     1
 40
30.0
176
     1
 62
     8
420
  8421504
176
     1
 90
        1
176
     1
 90
        4
176
     1
 62
     7
176
     1
 62
   257
176
     1
 90
        1
176
     1
 90
        1
176
     1
 40
1.0
176
     1
 90
        8
176
     1
 62
     8
420
  8421504
176
     1
 40
1.0
176
     1
 90
        1
176
     1
 90
        6
176
     1
 90
        2
176
     1
 62
     7
176
     1
 90
        5
176
     1
 90
        0
176
     1
 90
        0
176
     1
290
     0
176
     1
 90
        1
176
     1
 40
0.0
176
     1
 90
        0
176
     1
290
     0
176
     1
290
     1
176
     1
290
     1
176
     1
290
     0
176
     1
290
     0
176
     1
290
     0
176
     1
290
     0
176
     1
290
     0
176
     1
290
     0
176
     1
 90
       50
176
     1
 40
0.0
176
     1
 40
1.0
176
     1
 90
        0
176
     1
 62
    18
420
        0
176
     1
 90
       50
176
     1
 90
        3
176
     1
 62
     5
420
      255
176
     1
290
     0
176
     1
 90
       50
176
     1
 90
       50
176
     1
 90
       50
176
     1
290
     0
176
     1
 90
       50
176
     1
 62
   256
176
     0
 40
1.0
176
     0
 90
        2
176
     1
  1
strokes_ogs.tif
176
     1
290
     0
176
     1
 40
1.0
176
     1
 40
1.0
176
     1
  0
VISUALSTYLE
  5
32
102
{ACAD_REACTORS
330
29
102
}
330
29
100
AcDbVisualStyle
  2
Conceptual
 70
     9
177
     3
291
     0
 70
    58
 90
        3
176
     1
 90
        2
176
     1
 90
        0
176
     1
 90
        0
176
     1
 40
0.6
176
     1
 40
30.0
176
     1
 62
     7
420
 16777215
176
     1
 90
        2
176
     1
 90
        2
176
     1
 62
     7
176
     1
 62
   257
176
     1
 90
        1
176
     1
 90
        1
176
     1
 40
179.0
176
     1
 90
        8
176
     1
 62
     7
176
     1
 40
1.0
176
     1
 90
        1
176
     1
 90
        6
176
     1
 90
        2
176
     1
 62
     7
176
     1
 90
        3
176
     1
 90
        0
176
     1
 90
        0
176
     1
290
     0
176
     1
 90
        1
176
     1
 40
0.0
176
     1
 90
        0
176
     1
290
     0
176
     1
290
     1
176
     1
290
     1
176
     1
290
     0
176
     1
290
     0
176
     1
290
     0
176
     1
290
     0
176
     1
290
     0
176
     1
290
     0
176
     1
 90
       50
176
     1
 40
0.0
176
     1
 40
1.0
176
     1
 90
        0
176
     1
 62
    18
420
        0
176
     1
 90
       50
176
     1
 90
        3
176
     1
 62
     5
420
      255
176
     1
290
     0
176
     1
 90
       50
176
     1
 90
       50
176
     1
 90
       50
176
     1
290
     0
176
     1
 90
       50
176
     1
 62
   256
176
     0
 40
1.0
176
     0
 90
        2
176
     1
  1
strokes_ogs.tif
176
     1
290
     0
176
     1
 40
1.0
176
     1
 40
1.0
176
     1
  0
VISUALSTYLE
  5
34
102
{ACAD_REACTORS
330
29
102
}
330
29
100
AcDbVisualStyle
  2
Dim
 70
    11
177
     3
291
     1
 70
    58
 90
        2
176
     1
 90
        2
176
     1
 90
        0
176
     1
 90
        0
176
     1
 40
0.6
176
     1
 40
30.0
176
     1
 62
     7
420
 16777215
176
     1
 90
        1
176
     1
 90
        4
176
     1
 62
     7
176
     1
 62
   257
176
     1
 90
        1
176
     1
 90
        1
176
     1
 40
1.0
176
     1
 90
        8
176
     1
 62
     7
176
     1
 40
1.0
176
     1
 90
        1
176
     1
 90
        6
176
     1
 90
        2
176
     1
 62
     7
176
     1
 90
        5
176
     1
 90
        0
176
     1
 90
        0
176
     1
290
     0
176
     1
 90
        1
176
     1
 40
-50.0
176
     1
 90
        0
176
     1
290
     0
176
     1
290
     1
176
     1
290
     1
176
     1
290
     0
176
     1
290
     0
176
     1
290
     0
176
     1
290
     0
176
     1
290
     0
176
     1
290
     0
176
     1
 90
       50
176
     1
 40
0.0
176
     1
 40
1.0
176
     1
 90
        0
176
     1
 62
    18
420
        0
176
     1
 90
       50
176
     1
 90
        3
176
     1
 62
     5
420
      255
176
     1
290
     0
176
     1
 90
       50
176
     1
 90
       50
176
     1
 90
       50
176
     1
290
     0
176
     1
 90
       50
176
     1
 62
   256
176
     0
 40
1.0
176
     0
 90
        2
176
     1
  1
strokes_ogs.tif
176
     1
290
     0
176
     1
 40
1.0
176
     1
 40
1.0
176
     1
  0
VISUALSTYLE
  5
41
102
{ACAD_REACTORS
330
29
102
}
330
29
100
AcDbVisualStyle
  2
EdgeColorOff
 70
    22
177
     3
291
     1
 70
    58
 90
        2
176
     0
 90
        2
176
     0
 90
        0
176
     0
 90
        0
176
     0
 40
0.6
176
     0
 40
30.0
176
     0
 62
     7
420
 16777215
176
     0
 90
        1
176
     0
 90
        4
176
     0
 62
     7
176
     0
 62
   257
176
     0
 90
        1
176
     0
 90
        1
176
     0
 40
1.0
176
     0
 90
        8
176
     2
 62
     7
176
     0
 40
1.0
176
     0
 90
        1
176
     0
 90
        6
176
     0
 90
        2
176
     0
 62
     7
176
     0
 90
        5
176
     0
 90
        0
176
     0
 90
        0
176
     0
290
     0
176
     0
 90
        1
176
     0
 40
0.0
176
     0
 90
        0
176
     0
290
     0
176
     0
290
     1
176
     0
290
     1
176
     0
290
     0
176
     0
290
     0
176
     0
290
     0
176
     0
290
     0
176
     0
290
     0
176
     0
290
     0
176
     0
 90
       50
176
     0
 40
0.0
176
     0
 40
1.0
176
     0
 90
        0
176
     0
 62
    18
420
        0
176
     0
 90
       50
176
     0
 90
        3
176
     0
 62
     5
420
      255
176
     0
290
     0
176
     0
 90
       50
176
     0
 90
       50
176
     0
 90
       50
176
     0
290
     0
176
     0
 90
       50
176
     0
 62
   256
176
     0
 40
1.0
176
     0
 90
        2
176
     0
  1
strokes_ogs.tif
176
     0
290
     0
176
     0
 40
1.0
176
     0
 40
1.0
176
     0
  0
VISUALSTYLE
  5
38
102
{ACAD_REACTORS
330
29
102
}
330
29
100
AcDbVisualStyle
  2
Facepattern
 70
    15
177
     3
291
     1
 70
    58
 90
        2
176
     1
 90
        2
176
     1
 90
        0
176
     1
 90
        0
176
     1
 40
0.6
176
     1
 40
30.0
176
     1
 62
     7
420
 16777215
176
     1
 90
        1
176
     1
 90
        4
176
     1
 62
     7
176
     1
 62
   257
176
     1
 90
        1
176
     1
 90
        1
176
     1
 40
1.0
176
     1
 90
        8
176
     1
 62
     7
176
     1
 40
1.0
176
     1
 90
        1
176
     1
 90
        6
176
     1
 90
        2
176
     1
 62
     7
176
     1
 90
        5
176
     1
 90
        0
176
     1
 90
        0
176
     1
290
     0
176
     1
 90
        1
176
     1
 40
0.0
176
     1
 90
        0
176
     1
290
     0
176
     1
290
     1
176
     1
290
     1
176
     1
290
     0
176
     1
290
     0
176
     1
290
     0
176
     1
290
     0
176
     1
290
     0
176
     1
290
     0
176
     1
 90
       50
176
     1
 40
0.0
176
     1
 40
1.0
176
     1
 90
        0
176
     1
 62
    18
420
        0
176
     1
 90
       50
176
     1
 90
        3
176
     1
 62
     5
420
      255
176
     1
290
     0
176
     1
 90
       50
176
     1
 90
       50
176
     1
 90
       50
176
     1
290
     0
176
     1
 90
       50
176
     1
 62
   256
176
     0
 40
1.0
176
     0
 90
        2
176
     1
  1
strokes_ogs.tif
176
     1
290
     0
176
     1
 40
1.0
176
     1
 40
1.0
176
     1
  0
VISUALSTYLE
  5
2A
102
{ACAD_REACTORS
330
29
102
}
330
29
100
AcDbVisualStyle
  2
Flat
 70
     0
177
     3
291
     1
 70
    58
 90
        2
176
     1
 90
        1
176
     1
 90
        1
176
     1
 90
        2
176
     1
 40
0.6
176
     1
 40
30.0
176
     1
 62
     7
420
 16777215
176
     1
 90
        0
176
     1
 90
        0
176
     1
 62
     7
176
     1
 62
   257
176
     1
 90
        1
176
     1
 90
        1
176
     1
 40
1.0
176
     1
 90
        8
176
     1
 62
     7
176
     1
 40
1.0
176
     1
 90
        1
176
     1
 90
        6
176
     1
 90
        2
176
     1
 62
     7
176
     1
 90
        5
176
     1
 90
        0
176
     1
 90
        0
176
     1
290
     0
176
     1
 90
       13
176
     1
 40
0.0
176
     1
 90
        0
176
     1
290
     0
176
     1
290
     1
176
     1
290
     1
176
     1
290
     0
176
     1
290
     0
176
     1
290
     0
176
     1
290
     0
176
     1
290
     0
176
     1
290
     0
176
     1
 90
       50
176
     1
 40
0.0
176
     1
 40
1.0
176
     1
 90
        0
176
     1
 62
    18
420
        0
176
     1
 90
       50
176
     1
 90
        3
176
     1
 62
     5
420
      255
176
     1
290
     0
176
     1
 90
       50
176
     1
 90
       50
176
     1
 90
       50
176
     1
290
     0
176
     1
 90
       50
176
     1
 62
   256
176
     0
 40
1.0
176
     0
 90
        2
176
     1
  1
strokes_ogs.tif
176
     1
290
     0
176
     1
 40
1.0
176
     1
 40
1.0
176
     1
  0
VISUALSTYLE
  5
2B
102
{ACAD_REACTORS
330
29
102
}
330
29
100
AcDbVisualStyle
  2
FlatWithEdges
 70
     1
177
     3
291
     1
 70
    58
 90
        2
176
     1
 90
        1
176
     1
 90
        1
176
     1
 90
        2
176
     1
 40
0.6
176
     1
 40
30.0
176
     1
 62
     7
420
 16777215
176
     1
 90
        1
176
     1
 90
        0
176
     1
 62
     7
176
     1
 62
   257
176
     1
 90
        1
176
     1
 90
        1
176
     1
 40
1.0
176
     1
 90
        0
176
     1
 62
   257
176
     1
 40
1.0
176
     1
 90
        1
176
     1
 90
        6
176
     1
 90
        2
176
     1
 62
     7
176
     1
 90
        5
176
     1
 90
        0
176
     1
 90
        0
176
     1
290
     0
176
     1
 90
       13
176
     1
 40
0.0
176
     1
 90
        0
176
     1
290
     0
176
     1
290
     1
176
     1
290
     1
176
     1
290
     0
176
     1
290
     0
176
     1
290
     0
176
     1
290
     0
176
     1
290
     0
176
     1
290
     0
176
     1
 90
       50
176
     1
 40
0.0
176
     1
 40
1.0
176
     1
 90
        0
176
     1
 62
    18
420
        0
176
     1
 90
       50
176
     1
 90
        3
176
     1
 62
     5
420
      255
176
     1
290
     0
176
     1
 90
       50
176
     1
 90
       50
176
     1
 90
       50
176
     1
290
     0
176
     1
 90
       50
176
     1
 62
   256
176
     0
 40
1.0
176
     0
 90
        2
176
     1
  1
strokes_ogs.tif
176
     1
290
     0
176
     1
 40
1.0
176
     1
 40
1.0
176
     1
  0
VISUALSTYLE
  5
2C
102
{ACAD_REACTORS
330
29
102
}
330
29
100
AcDbVisualStyle
  2
Gouraud
 70
     2
177
     3
291
     1
 70
    58
 90
        2
176
     1
 90
        2
176
     1
 90
        1
176
     1
 90
        2
176
     1
 40
0.6
176
     1
 40
30.0
176
     1
 62
     7
420
 16777215
176
     1
 90
        0
176
     1
 90
        0
176
     1
 62
     7
176
     1
 62
   257
176
     1
 90
        1
176
     1
 90
        1
176
     1
 40
1.0
176
     1
 90
        0
176
     1
 62
     7
176
     1
 40
1.0
176
     1
 90
        1
176
     1
 90
        6
176
     1
 90
        2
176
     1
 62
     7
176
     1
 90
        5
176
     1
 90
        0
176
     1
 90
        0
176
     1
290
     0
176
     1
 90
       13
176
     1
 40
0.0
176
     1
 90
        0
176
     1
290
     0
176
     1
290
     1
176
     1
290
     1
176
     1
290
     0
176
     1
290
     0
176
     1
290
     0
176
     1
290
     0
176
     1
290
     0
176
     1
290
     0
176
     1
 90
       50
176
     1
 40
0.0
176
     1
 40
1.0
176
     1
 90
        0
176
     1
 62
    18
420
        0
176
     1
 90
       50
176
     1
 90
        3
176
     1
 62
     5
420
      255
176
     1
290
     0
176
     1
 90
       50
176
     1
 90
       50
176
     1
 90
       50
176
     1
290
     0
176
     1
 90
       50
176
     1
 62
   256
176
     0
 40
1.0
176
     0
 90
        2
176
     1
  1
strokes_ogs.tif
176
     1
290
     0
176
     1
 40
1.0
176
     1
 40
1.0
176
     1
  0
VISUALSTYLE
  5
2D
102
{ACAD_REACTORS
330
29
102
}
330
29
100
AcDbVisualStyle
  2
GouraudWithEdges
 70
     3
177
     3
291
     1
 70
    58
 90
        2
176
     1
 90
        2
176
     1
 90
        1
176
     1
 90
        2
176
     1
 40
0.6
176
     1
 40
30.0
176
     1
 62
     7
420
 16777215
176
     1
 90
        1
176
     1
 90
        0
176
     1
 62
     7
176
     1
 62
   257
176
     1
 90
        1
176
     1
 90
        1
176
     1
 40
1.0
176
     1
 90
        0
176
     1
 62
   257
176
     1
 40
1.0
176
     1
 90
        1
176
     1
 90
        6
176
     1
 90
        2
176
     1
 62
     7
176
     1
 90
        5
176
     1
 90
        0
176
     1
 90
        0
176
     1
290
     0
176
     1
 90
       13
176
     1
 40
0.0
176
     1
 90
        0
176
     1
290
     0
176
     1
290
     1
176
     1
290
     1
176
     1
290
     0
176
     1
290
     0
176
     1
290
     0
176
     1
290
     0
176
     1
290
     0
176
     1
290
     0
176
     1
 90
       50
176
     1
 40
0.0
176
     1
 40
1.0
176
     1
 90
        0
176
     1
 62
    18
420
        0
176
     1
 90
       50
176
     1
 90
        3
176
     1
 62
     5
420
      255
176
     1
290
     0
176
     1
 90
       50
176
     1
 90
       50
176
     1
 90
       50
176
     1
290
     0
176
     1
 90
       50
176
     1
 62
   256
176
     0
 40
1.0
176
     0
 90
        2
176
     1
  1
strokes_ogs.tif
176
     1
290
     0
176
     1
 40
1.0
176
     1
 40
1.0
176
     1
  0
VISUALSTYLE
  5
31
102
{ACAD_REACTORS
330
29
102
}
330
29
100
AcDbVisualStyle
  2
Hidden
 70
     6
177
     3
291
     0
 70
    58
 90
        1
176
     1
 90
        2
176
     1
 90
        2
176
     1
 90
        0
176
     1
 40
0.6
176
     1
 40
30.0
176
     1
 62
     7
420
 16777215
176
     1
 90
        2
176
     1
 90
        2
176
     1
 62
     7
176
     1
 62
   257
176
     1
 90
        2
176
     1
 90
        1
176
     1
 40
40.0
176
     1
 90
        0
176
     1
 62
   257
176
     1
 40
1.0
176
     1
 90
        1
176
     1
 90
        6
176
     1
 90
        2
176
     1
 62
     7
176
     1
 90
        3
176
     1
 90
        0
176
     1
 90
        0
176
     1
290
     0
176
     1
 90
        1
176
     1
 40
0.0
176
     1
 90
        0
176
     1
290
     0
176
     1
290
     1
176
     1
290
     1
176
     1
290
     0
176
     1
290
     0
176
     1
290
     0
176
     1
290
     0
176
     1
290
     0
176
     1
290
     0
176
     1
 90
       50
176
     1
 40
0.0
176
     1
 40
1.0
176
     1
 90
        0
176
     1
 62
    18
420
        0
176
     1
 90
       50
176
     1
 90
        3
176
     1
 62
     5
420
      255
176
     1
290
     0
176
     1
 90
       50
176
     1
 90
       50
176
     1
 90
       50
176
     1
290
     0
176
     1
 90
       50
176
     1
 62
   256
176
     0
 40
1.0
176
     0
 90
        2
176
     1
  1
strokes_ogs.tif
176
     1
290
     0
176
     1
 40
1.0
176
     1
 40
1.0
176
     1
  0
VISUALSTYLE
  5
3F
102
{ACAD_REACTORS
330
29
102
}
330
29
100
AcDbVisualStyle
  2
JitterOff
 70
    20
177
     3
291
     1
 70
    58
 90
        2
176
     0
 90
        2
176
     0
 90
        0
176
     0
 90
        0
176
     0
 40
0.6
176
     0
 40
30.0
176
     0
 62
     7
420
 16777215
176
     0
 90
        1
176
     0
 90
        4
176
     0
 62
     7
176
     0
 62
   257
176
     0
 90
        1
176
     0
 90
        1
176
     0
 40
1.0
176
     0
 90
       10
176
     2
 62
     7
176
     0
 40
1.0
176
     0
 90
        1
176
     0
 90
        6
176
     0
 90
        2
176
     0
 62
     7
176
     0
 90
        5
176
     0
 90
        0
176
     0
 90
        0
176
     0
290
     0
176
     0
 90
        1
176
     0
 40
0.0
176
     0
 90
        0
176
     0
290
     0
176
     0
290
     1
176
     0
290
     1
176
     0
290
     0
176
     0
290
     0
176
     0
290
     0
176
     0
290
     0
176
     0
290
     0
176
     0
290
     0
176
     0
 90
       50
176
     0
 40
0.0
176
     0
 40
1.0
176
     0
 90
        0
176
     0
 62
    18
420
        0
176
     0
 90
       50
176
     0
 90
        3
176
     0
 62
     5
420
      255
176
     0
290
     0
176
     0
 90
       50
176
     0
 90
       50
176
     0
 90
       50
176
     0
290
     0
176
     0
 90
       50
176
     0
 62
   256
176
     0
 40
1.0
176
     0
 90
        2
176
     0
  1
strokes_ogs.tif
176
     0
290
     0
176
     0
 40
1.0
176
     0
 40
1.0
176
     0
  0
VISUALSTYLE
  5
37
102
{ACAD_REACTORS
330
29
102
}
330
29
100
AcDbVisualStyle
  2
Linepattern
 70
    14
177
     3
291
     1
 70
    58
 90
        2
176
     1
 90
        2
176
     1
 90
        0
176
     1
 90
        0
176
     1
 40
0.6
176
     1
 40
30.0
176
     1
 62
     7
420
 16777215
176
     1
 90
        1
176
     1
 90
        4
176
     1
 62
     7
176
     1
 62
   257
176
     1
 90
        7
176
     1
 90
        7
176
     1
 40
1.0
176
     1
 90
        8
176
     1
 62
     7
176
     1
 40
1.0
176
     1
 90
        1
176
     1
 90
        6
176
     1
 90
        2
176
     1
 62
     7
176
     1
 90
        5
176
     1
 90
        0
176
     1
 90
        0
176
     1
290
     0
176
     1
 90
        1
176
     1
 40
0.0
176
     1
 90
        0
176
     1
290
     0
176
     1
290
     1
176
     1
290
     1
176
     1
290
     0
176
     1
290
     0
176
     1
290
     0
176
     1
290
     0
176
     1
290
     0
176
     1
290
     0
176
     1
 90
       50
176
     1
 40
0.0
176
     1
 40
1.0
176
     1
 90
        0
176
     1
 62
    18
420
        0
176
     1
 90
       50
176
     1
 90
        3
176
     1
 62
     5
420
      255
176
     1
290
     0
176
     1
 90
       50
176
     1
 90
       50
176
     1
 90
       50
176
     1
290
     0
176
     1
 90
       50
176
     1
 62
   256
176
     0
 40
1.0
176
     0
 90
        2
176
     1
  1
strokes_ogs.tif
176
     1
290
     0
176
     1
 40
1.0
176
     1
 40
1.0
176
     1
  0
VISUALSTYLE
  5
40
102
{ACAD_REACTORS
330
29
102
}
330
29
100
AcDbVisualStyle
  2
OverhangOff
 70
    21
177
     3
291
     1
 70
    58
 90
        2
176
     0
 90
        2
176
     0
 90
        0
176
     0
 90
        0
176
     0
 40
0.6
176
     0
 40
30.0
176
     0
 62
     7
420
 16777215
176
     0
 90
        1
176
     0
 90
        4
176
     0
 62
     7
176
     0
 62
   257
176
     0
 90
        1
176
     0
 90
        1
176
     0
 40
1.0
176
     0
 90
        9
176
     2
 62
     7
176
     0
 40
1.0
176
     0
 90
        1
176
     0
 90
        6
176
     0
 90
        2
176
     0
 62
     7
176
     0
 90
        5
176
     0
 90
        0
176
     0
 90
        0
176
     0
290
     0
176
     0
 90
        1
176
     0
 40
0.0
176
     0
 90
        0
176
     0
290
     0
176
     0
290
     1
176
     0
290
     1
176
     0
290
     0
176
     0
290
     0
176
     0
290
     0
176
     0
290
     0
176
     0
290
     0
176
     0
290
     0
176
     0
 90
       50
176
     0
 40
0.0
176
     0
 40
1.0
176
     0
 90
        0
176
     0
 62
    18
420
        0
176
     0
 90
       50
176
     0
 90
        3
176
     0
 62
     5
420
      255
176
     0
290
     0
176
     0
 90
       50
176
     0
 90
       50
176
     0
 90
       50
176
     0
290
     0
176
     0
 90
       50
176
     0
 62
   256
176
     0
 40
1.0
176
     0
 90
        2
176
     0
  1
strokes_ogs.tif
176
     0
290
     0
176
     0
 40
1.0
176
     0
 40
1.0
176
     0
  0
VISUALSTYLE
  5
33
102
{ACAD_REACTORS
330
29
102
}
330
29
100
AcDbVisualStyle
  2
Realistic
 70
     8
177
     3
291
     0
 70
    58
 90
        2
176
     1
 90
        3
176
     1
 90
        0
176
     1
 90
        2
176
     1
 40
0.6
176
     1
 40
30.0
176
     1
 62
     7
420
 16777215
176
     1
 90
        0
176
     1
 90
        0
176
     1
 62
     7
176
     1
 62
   257
176
     1
 90
        1
176
     1
 90
        1
176
     1
 40
1.0
176
     1
 90
        8
176
     1
 62
   257
176
     1
 40
1.0
176
     1
 90
        1
176
     1
 90
        6
176
     1
 90
        2
176
     1
 62
     7
176
     1
 90
        3
176
     1
 90
        0
176
     1
 90
        0
176
     1
290
     0
176
     1
 90
       13
176
     1
 40
0.0
176
     1
 90
        0
176
     1
290
     0
176
     1
290
     1
176
     1
290
     1
176
     1
290
     0
176
     1
290
     0
176
     1
290
     0
176
     1
290
     0
176
     1
290
     0
176
     1
290
     0
176
     1
 90
       50
176
     1
 40
0.0
176
     1
 40
1.0
176
     1
 90
        0
176
     1
 62
    18
420
        0
176
     1
 90
       50
176
     1
 90
        3
176
     1
 62
     5
420
      255
176
     1
290
     0
176
     1
 90
       50
176
     1
 90
       50
176
     1
 90
       50
176
     1
290
     0
176
     1
 90
       50
176
     1
 62
   256
176
     0
 40
1.0
176
     0
 90
        2
176
     1
  1
strokes_ogs.tif
176
     1
290
     0
176
     1
 40
1.0
176
     1
 40
1.0
176
     1
  0
VISUALSTYLE
  5
3E
102
{ACAD_REACTORS
330
29
102
}
330
29
100
AcDbVisualStyle
  2
Shaded
 70
    27
177
     3
291
     0
 70
    58
 90
        2
176
     1
 90
        2
176
     1
 90
        1
176
     1
 90
        2
176
     1
 40
0.6
176
     1
 40
30.0
176
     1
 62
     7
420
 16777215
176
     1
 90
        0
176
     1
 90
        4
176
     1
 62
     7
176
     1
 62
   257
176
     1
 90
        1
176
     1
 90
        1
176
     1
 40
1.0
176
     1
 90
        8
176
     1
 62
   257
176
     1
 40
1.0
176
     1
 90
        1
176
     1
 90
        6
176
     1
 90
        2
176
     1
 62
     8
420
  7895160
176
     1
 90
        3
176
     1
 90
        0
176
     1
 90
        0
176
     1
290
     0
176
     1
 90
        5
176
     1
 40
0.0
176
     1
 90
        0
176
     1
290
     0
176
     1
290
     1
176
     1
290
     1
176
     1
290
     0
176
     1
290
     0
176
     1
290
     0
176
     1
290
     0
176
     1
290
     0
176
     1
290
     0
176
     1
 90
       50
176
     1
 40
0.0
176
     1
 40
1.0
176
     1
 90
        0
176
     1
 62
    18
420
        0
176
     1
 90
       50
176
     1
 90
        3
176
     1
 62
     5
420
      255
176
     1
290
     0
176
     1
 90
       50
176
     1
 90
       50
176
     1
 90
       50
176
     1
290
     0
176
     1
 90
       50
176
     1
 62
   256
176
     0
 40
1.0
176
     0
 90
        2
176
     1
  1
strokes_ogs.tif
176
     1
290
     0
176
     1
 40
1.0
176
     1
 40
1.0
176
     1
  0
VISUALSTYLE
  5
3D
102
{ACAD_REACTORS
330
29
102
}
330
29
100
AcDbVisualStyle
  2
Shaded with edges
 70
    26
177
     3
291
     0
 70
    58
 90
        2
176
     1
 90
        2
176
     1
 90
        1
176
     1
 90
        2
176
     1
 40
0.6
176
     1
 40
30.0
176
     1
 62
     7
420
 16777215
176
     1
 90
        1
176
     1
 90
        2
176
     1
 62
     7
176
     1
 62
   257
176
     1
 90
        2
176
     1
 90
        1
176
     1
 40
1.0
176
     1
 90
        8
176
     1
 62
   257
176
     1
 40
1.0
176
     1
 90
        1
176
     1
 90
        6
176
     1
 90
        2
176
     1
 62
     7
176
     1
 90
        3
176
     1
 90
        0
176
     1
 90
        0
176
     1
290
     0
176
     1
 90
        5
176
     1
 40
0.0
176
     1
 90
        0
176
     1
290
     0
176
     1
290
     1
176
     1
290
     1
176
     1
290
     0
176
     1
290
     0
176
     1
290
     0
176
     1
290
     0
176
     1
290
     0
176
     1
290
     0
176
     1
 90
       50
176
     1
 40
0.0
176
     1
 40
1.0
176
     1
 90
        0
176
     1
 62
    18
420
        0
176
     1
 90
       50
176
     1
 90
        3
176
     1
 62
     5
420
      255
176
     1
290
     0
176
     1
 90
       50
176
     1
 90
       50
176
     1
 90
       50
176
     1
290
     0
176
     1
 90
       50
176
     1
 62
   256
176
     0
 40
1.0
176
     0
 90
        2
176
     1
  1
strokes_ogs.tif
176
     1
290
     0
176
     1
 40
1.0
176
     1
 40
1.0
176
     1
  0
VISUALSTYLE
  5
3A
102
{ACAD_REACTORS
330
29
102
}
330
29
100
AcDbVisualStyle
  2
Shades of Gray
 70
    23
177
     3
291
     0
 70
    58
 90
        2
176
     1
 90
        2
176
     1
 90
        3
176
     1
 90
        0
176
     1
 40
0.6
176
     1
 40
30.0
176
     1
 62
     7
420
 16777215
176
     1
 90
        2
176
     1
 90
        2
176
     1
 62
     7
176
     1
 62
     7
176
     1
 90
        1
176
     1
 90
        1
176
     1
 40
40.0
176
     1
 90
        8
176
     1
 62
     7
176
     1
 40
1.0
176
     1
 90
        1
176
     1
 90
        6
176
     1
 90
        2
176
     1
 62
     7
176
     1
 90
        3
176
     1
 90
        0
176
     1
 90
        0
176
     1
290
     0
176
     1
 90
        1
176
     1
 40
0.0
176
     1
 90
        0
176
     1
290
     0
176
     1
290
     1
176
     1
290
     1
176
     1
290
     0
176
     1
290
     0
176
     1
290
     0
176
     1
290
     0
176
     1
290
     0
176
     1
290
     0
176
     1
 90
       50
176
     1
 40
0.0
176
     1
 40
1.0
176
     1
 90
        0
176
     1
 62
    18
420
        0
176
     1
 90
       50
176
     1
 90
        3
176
     1
 62
     5
420
      255
176
     1
290
     0
176
     1
 90
       50
176
     1
 90
       50
176
     1
 90
       50
176
     1
290
     0
176
     1
 90
       50
176
     1
 62
   256
176
     0
 40
1.0
176
     0
 90
        2
176
     1
  1
strokes_ogs.tif
176
     1
290
     0
176
     1
 40
1.0
176
     1
 40
1.0
176
     1
  0
VISUALSTYLE
  5
3B
102
{ACAD_REACTORS
330
29
102
}
330
29
100
AcDbVisualStyle
  2
Sketchy
 70
    24
177
     3
291
     0
 70
    58
 90
        1
176
     1
 90
        2
176
     1
 90
        2
176
     1
 90
        0
176
     1
 40
0.6
176
     1
 40
30.0
176
     1
 62
     7
420
 16777215
176
     1
 90
        2
176
     1
 90
        2
176
     1
 62
     7
176
     1
 62
     7
176
     1
 90
        1
176
     1
 90
        1
176
     1
 40
40.0
176
     1
 90
       11
176
     1
 62
     7
176
     1
 40
1.0
176
     1
 90
        1
176
     1
 90
        6
176
     1
 90
        2
176
     1
 62
     7
176
     1
 90
        6
176
     1
 90
        0
176
     1
 90
        0
176
     1
290
     0
176
     1
 90
        1
176
     1
 40
0.0
176
     1
 90
        0
176
     1
290
     0
176
     1
290
     1
176
     1
290
     1
176
     1
290
     0
176
     1
290
     0
176
     1
290
     0
176
     1
290
     0
176
     1
290
     0
176
     1
290
     0
176
     1
 90
       50
176
     1
 40
0.0
176
     1
 40
1.0
176
     1
 90
        0
176
     1
 62
    18
420
        0
176
     1
 90
       50
176
     1
 90
        3
176
     1
 62
     5
420
      255
176
     1
290
     0
176
     1
 90
       50
176
     1
 90
       50
176
     1
 90
       50
176
     1
290
     0
176
     1
 90
       50
176
     1
 62
   256
176
     0
 40
1.0
176
     0
 90
        2
176
     1
  1
strokes_ogs.tif
176
     1
290
     0
176
     1
 40
1.0
176
     1
 40
1.0
176
     1
  0
VISUALSTYLE
  5
36
102
{ACAD_REACTORS
330
29
102
}
330
29
100
AcDbVisualStyle
  2
Thicken
 70
    13
177
     3
291
     1
 70
    58
 90
        2
176
     1
 90
        2
176
     1
 90
        0
176
     1
 90
        0
176
     1
 40
0.6
176
     1
 40
30.0
176
     1
 62
     7
420
 16777215
176
     1
 90
        1
176
     1
 90
        4
176
     1
 62
     7
176
     1
 62
   257
176
     1
 90
        1
176
     1
 90
        1
176
     1
 40
1.0
176
     1
 90
       12
176
     1
 62
     7
176
     1
 40
1.0
176
     1
 90
        1
176
     1
 90
        6
176
     1
 90
        2
176
     1
 62
     7
176
     1
 90
        5
176
     1
 90
        0
176
     1
 90
        0
176
     1
290
     0
176
     1
 90
        1
176
     1
 40
0.0
176
     1
 90
        0
176
     1
290
     0
176
     1
290
     1
176
     1
290
     1
176
     1
290
     0
176
     1
290
     0
176
     1
290
     0
176
     1
290
     0
176
     1
290
     0
176
     1
290
     0
176
     1
 90
       50
176
     1
 40
0.0
176
     1
 40
1.0
176
     1
 90
        0
176
     1
 62
    18
420
        0
176
     1
 90
       50
176
     1
 90
        3
176
     1
 62
     5
420
      255
176
     1
290
     0
176
     1
 90
       50
176
     1
 90
       50
176
     1
 90
       50
176
     1
290
     0
176
     1
 90
       50
176
     1
 62
   256
176
     0
 40
1.0
176
     0
 90
        2
176
     1
  1
strokes_ogs.tif
176
     1
290
     0
176
     1
 40
1.0
176
     1
 40
1.0
176
     1
  0
VISUALSTYLE
  5
30
102
{ACAD_REACTORS
330
29
102
}
330
29
100
AcDbVisualStyle
  2
Wireframe
 70
     5
177
     3
291
     0
 70
    58
 90
        0
176
     1
 90
        2
176
     1
 90
        0
176
     1
 90
        0
176
     1
 40
0.6
176
     1
 40
30.0
176
     1
 62
     7
420
 16777215
176
     1
 90
        1
176
     1
 90
        4
176
     1
 62
     7
176
     1
 62
   257
176
     1
 90
        1
176
     1
 90
        1
176
     1
 40
1.0
176
     1
 90
        0
176
     1
 62
   257
176
     1
 40
1.0
176
     1
 90
        1
176
     1
 90
        6
176
     1
 90
        2
176
     1
 62
     7
176
     1
 90
        3
176
     1
 90
        0
176
     1
 90
        0
176
     1
290
     0
176
     1
 90
        1
176
     1
 40
0.0
176
     1
 90
        0
176
     1
290
     0
176
     1
290
     1
176
     1
290
     1
176
     1
290
     0
176
     1
290
     0
176
     1
290
     0
176
     1
290
     0
176
     1
290
     0
176
     1
290
     0
176
     1
 90
       50
176
     1
 40
0.0
176
     1
 40
1.0
176
     1
 90
        0
176
     1
 62
    18
420
        0
176
     1
 90
       50
176
     1
 90
        3
176
     1
 62
     5
420
      255
176
     1
290
     0
176
     1
 90
       50
176
     1
 90
       50
176
     1
 90
       50
176
     1
290
     0
176
     1
 90
       50
176
     1
 62
   256
176
     0
 40
1.0
176
     0
 90
        2
176
     1
  1
strokes_ogs.tif
176
     1
290
     0
176
     1
 40
1.0
176
     1
 40
1.0
176
     1
  0
VISUALSTYLE
  5
3C
102
{ACAD_REACTORS
330
29
102
}
330
29
100
AcDbVisualStyle
  2
X-Ray
 70
    25
177
     3
291
     0
 70
    58
 90
        2
176
     1
 90
        2
176
     1
 90
        1
176
     1
 90
        1
176
     1
 40
0.5
176
     1
 40
30.0
176
     1
 62
     7
420
 16777215
176
     1
 90
        1
176
     1
 90
        0
176
     1
 62
     7
176
     1
 62
   257
176
     1
 90
        1
176
     1
 90
        1
176
     1
 40
1.0
176
     1
 90
        8
176
     1
 62
     7
176
     1
 40
1.0
176
     1
 90
        1
176
     1
 90
        6
176
     1
 90
        2
176
     1
 62
     7
176
     1
 90
        3
176
     1
 90
        0
176
     1
 90
        0
176
     1
290
     0
176
     1
 90
       13
176
     1
 40
0.0
176
     1
 90
        0
176
     1
290
     0
176
     1
290
     1
176
     1
290
     1
176
     1
290
     0
176
     1
290
     0
176
     1
290
     0
176
     1
290
     0
176
     1
290
     0
176
     1
290
     0
176
     1
 90
       50
176
     1
 40
0.0
176
     1
 40
1.0
176
     1
 90
        0
176
     1
 62
    18
420
        0
176
     1
 90
       50
176
     1
 90
        3
176
     1
 62
     5
420
      255
176
     1
290
     0
176
     1
 90
       50
176
     1
 90
       50
176
     1
 90
       50
176
     1
290
     0
176
     1
 90
       50
176
     1
 62
   256
176
     0
 40
1.0
176
     0
 90
        2
176
     1
  1
strokes_ogs.tif
176
     1
290
     0
176
     1
 40
1.0
176
     1
 40
1.0
176
     1
  0
DICTIONARYVAR
  5
2CF
102
{ACAD_REACTORS
330
2CA
102
}
330
2CA
100
DictionaryVariables
280
     0
  1
1:1
  0
DICTIONARYVAR
  5
2CC
102
{ACAD_REACTORS
330
2CA
102
}
330
2CA
100
DictionaryVariables
280
     0
  1
STANDARD
  0
DICTIONARYVAR
  5
2CB
102
{ACAD_REACTORS
330
2CA
102
}
330
2CA
100
DictionaryVariables
280
     0
  1
STANDARD
  0
DICTIONARYVAR
  5
2CD
102
{ACAD_REACTORS
330
2CA
102
}
330
2CA
100
DictionaryVariables
280
     0
  1
Imperial24
  0
DICTIONARYVAR
  5
2CE
102
{ACAD_REACTORS
330
2CA
102
}
330
2CA
100
DictionaryVariables
280
     0
  1
Imperial24
  0
DICTIONARY
  5
1A
330
19
100
AcDbDictionary
280
     1
281
     1
  3
BUMPTILE
360
1C
  3
DIFFUSETILE
360
1B
  3
OPACITYTILE
360
1F
  3
REFLECTIONTILE
360
1E
  3
REFRACTIONTILE
360
20
  3
SPECULARTILE
360
1D
  0
DICTIONARY
  5
12
330
11
100
AcDbDictionary
280
     1
281
     1
  3
BUMPTILE
360
14
  3
DIFFUSETILE
360
13
  3
OPACITYTILE
360
17
  3
REFLECTIONTILE
360
16
  3
REFRACTIONTILE
360
18
  3
SPECULARTILE
360
15
  0
DICTIONARY
  5
22
330
21
100
AcDbDictionary
280
     1
281
     1
  3
BUMPTILE
360
24
  3
DIFFUSETILE
360
23
  3
OPACITYTILE
360
27
  3
REFLECTIONTILE
360
26
  3
REFRACTIONTILE
360
28
  3
SPECULARTILE
360
25
  0
DICTIONARY
  5
2D0
330
65
100
AcDbDictionary
280
     1
281
     1
  3
ACAD_ROUNDTRIP_2008_TABLESTYLE_CELLSTYLEMAP
360
2D1
  0
XRECORD
  5
1C
102
{ACAD_REACTORS
330
1A
102
}
330
1A
100
AcDbXrecord
280
     1
270
     1
271
     1
  0
XRECORD
  5
1B
102
{ACAD_REACTORS
330
1A
102
}
330
1A
100
AcDbXrecord
280
     1
270
     1
271
     1
  0
XRECORD
  5
1F
102
{ACAD_REACTORS
330
1A
102
}
330
1A
100
AcDbXrecord
280
     1
270
     1
271
     1
  0
XRECORD
  5
1E
102
{ACAD_REACTORS
330
1A
102
}
330
1A
100
AcDbXrecord
280
     1
270
     1
271
     1
  0
XRECORD
  5
20
102
{ACAD_REACTORS
330
1A
102
}
330
1A
100
AcDbXrecord
280
     1
270
     1
271
     1
  0
XRECORD
  5
1D
102
{ACAD_REACTORS
330
1A
102
}
330
1A
100
AcDbXrecord
280
     1
270
     1
271
     1
  0
XRECORD
  5
14
102
{ACAD_REACTORS
330
12
102
}
330
12
100
AcDbXrecord
280
     1
270
     1
271
     1
  0
XRECORD
  5
13
102
{ACAD_REACTORS
330
12
102
}
330
12
100
AcDbXrecord
280
     1
270
     1
271
     1
  0
XRECORD
  5
17
102
{ACAD_REACTORS
330
12
102
}
330
12
100
AcDbXrecord
280
     1
270
     1
271
     1
  0
XRECORD
  5
16
102
{ACAD_REACTORS
330
12
102
}
330
12
100
AcDbXrecord
280
     1
270
     1
271
     1
  0
XRECORD
  5
18
102
{ACAD_REACTORS
330
12
102
}
330
12
100
AcDbXrecord
280
     1
270
     1
271
     1
  0
XRECORD
  5
15
102
{ACAD_REACTORS
330
12
102
}
330
12
100
AcDbXrecord
280
     1
270
     1
271
     1
  0
XRECORD
  5
24
102
{ACAD_REACTORS
330
22
102
}
330
22
100
AcDbXrecord
280
     1
270
     1
271
     1
  0
XRECORD
  5
23
102
{ACAD_REACTORS
330
22
102
}
330
22
100
AcDbXrecord
280
     1
270
     1
271
     1
  0
XRECORD
  5
27
102
{ACAD_REACTORS
330
22
102
}
330
22
100
AcDbXrecord
280
     1
270
     1
271
     1
  0
XRECORD
  5
26
102
{ACAD_REACTORS
330
22
102
}
330
22
100
AcDbXrecord
280
     1
270
     1
271
     1
  0
XRECORD
  5
28
102
{ACAD_REACTORS
330
22
102
}
330
22
100
AcDbXrecord
280
     1
270
     1
271
     1
  0
XRECORD
  5
25
102
{ACAD_REACTORS
330
22
102
}
330
22
100
AcDbXrecord
280
     1
270
     1
271
     1
  0
CELLSTYLEMAP
  5
2D1
102
{ACAD_REACTORS
330
2D0
102
}
330
2D0
100
AcDbCellStyleMap
 90
        3
300
CELLSTYLE
  1
TABLEFORMAT_BEGIN
 90
        5
170
     1
 91
        0
 92
    32768
 62
   257
 93
        1
300
CONTENTFORMAT
  1
CONTENTFORMAT_BEGIN
 90
        0
 91
        0
 92
      512
 93
        0
300

 40
0.0
140
1.0
 94
        5
 62
     0
340
55
144
0.25
309
CONTENTFORMAT_END
171
     0
 94
        0
309
TABLEFORMAT_END
  1
CELLSTYLE_BEGIN
 90
        1
 91
        1
300
_TITLE
309
CELLSTYLE_END
300
CELLSTYLE
  1
TABLEFORMAT_BEGIN
 90
        5
170
     1
 91
        0
 92
        0
 62
   257
 93
        1
300
CONTENTFORMAT
  1
CONTENTFORMAT_BEGIN
 90
        0
 91
        0
 92
      512
 93
        0
300

 40
0.0
140
1.0
 94
        5
 62
     0
340
55
144
0.18
309
CONTENTFORMAT_END
171
     0
 94
        0
309
TABLEFORMAT_END
  1
CELLSTYLE_BEGIN
 90
        2
 91
        1
300
_HEADER
309
CELLSTYLE_END
300
CELLSTYLE
  1
TABLEFORMAT_BEGIN
 90
        5
170
     1
 91
        0
 92
        0
 62
   257
 93
        1
300
CONTENTFORMAT
  1
CONTENTFORMAT_BEGIN
 90
        0
 91
        0
 92
      512
 93
        0
300

 40
0.0
140
1.0
 94
        2
 62
     0
340
55
144
0.18
309
CONTENTFORMAT_END
171
     0
 94
        0
309
TABLEFORMAT_END
  1
CELLSTYLE_BEGIN
 90
        3
 91
        2
300
_DATA
309
CELLSTYLE_END
  0
ENDSEC
  0
EOF
