  0
SECTION
  2
HEADER
  9
$ACADVER
  1
AC1015
  9
$ACADMAINTVER
 70
    20
  9
$DWGCODEPAGE
  3
ANSI_932
  9
$INSBASE
 10
0.0
 20
0.0
 30
0.0
  9
$EXTMIN
 10
334.1260272871184
 20
12.94226103199443
 30
-0.0000000000000058
  9
$EXTMAX
 10
424.1470272439902
 20
117.949585235619
 30
0.0000000000000104
  9
$LIMMIN
 10
0.0
 20
0.0
  9
$LIMMAX
 10
100.0
 20
118.0
  9
$ORTHOMODE
 70
     1
  9
$REGENMODE
 70
     1
  9
$FILLMODE
 70
     1
  9
$QTEXTMODE
 70
     0
  9
$MIRRTEXT
 70
     1
  9
$LTSCALE
 40
0.3973063973063973
  9
$ATTMODE
 70
     1
  9
$TEXTSIZE
 40
3.0
  9
$TRACEWID
 40
1.0
  9
$TEXTSTYLE
  7
STANDARD
  9
$CLAYER
  8
0
  9
$CELTYPE
  6
BYLAYER
  9
$CECOLOR
 62
   256
  9
$CELTSCALE
 40
1.0
  9
$DISPSILH
 70
     0
  9
$DIMSCALE
 40
1.0
  9
$DIMASZ
 40
2.0
  9
$DIMEXO
 40
1.0
  9
$DIMDLI
 40
5.0
  9
$DIMRND
 40
0.0
  9
$DIMDLE
 40
0.0
  9
$DIMEXE
 40
0.5
  9
$DIMTP
 40
0.0
  9
$DIMTM
 40
0.0
  9
$DIMTXT
 40
2.5
  9
$DIMCEN
 40
0.09
  9
$DIMTSZ
 40
0.0
  9
$DIMTOL
 70
     0
  9
$DIMLIM
 70
     0
  9
$DIMTIH
 70
     0
  9
$DIMTOH
 70
     1
  9
$DIMSE1
 70
     0
  9
$DIMSE2
 70
     0
  9
$DIMTAD
 70
     0
  9
$DIMZIN
 70
     8
  9
$DIMBLK
  1

  9
$DIMASO
 70
     1
  9
$DIMSHO
 70
     1
  9
$DIMPOST
  1

  9
$DIMAPOST
  1

  9
$DIMALT
 70
     0
  9
$DIMALTD
 70
     2
  9
$DIMALTF
 40
25.4
  9
$DIMLFAC
 40
1.0
  9
$DIMTOFL
 70
     0
  9
$DIMTVP
 40
0.0
  9
$DIMTIX
 70
     0
  9
$DIMSOXD
 70
     0
  9
$DIMSAH
 70
     0
  9
$DIMBLK1
  1

  9
$DIMBLK2
  1

  9
$DIMSTYLE
  2
STANDARD
  9
$DIMCLRD
 70
     0
  9
$DIMCLRE
 70
     0
  9
$DIMCLRT
 70
     9
  9
$DIMTFAC
 40
1.0
  9
$DIMGAP
 40
0.5
  9
$DIMJUST
 70
     0
  9
$DIMSD1
 70
     0
  9
$DIMSD2
 70
     0
  9
$DIMTOLJ
 70
     1
  9
$DIMTZIN
 70
     0
  9
$DIMALTZ
 70
     0
  9
$DIMALTTZ
 70
     0
  9
$DIMUPT
 70
     0
  9
$DIMDEC
 70
     2
  9
$DIMTDEC
 70
     4
  9
$DIMALTU
 70
     2
  9
$DIMALTTD
 70
     2
  9
$DIMTXSTY
  7
STANDARD
  9
$DIMAUNIT
 70
     0
  9
$DIMADEC
 70
     0
  9
$DIMALTRND
 40
0.0
  9
$DIMAZIN
 70
     0
  9
$DIMDSEP
 70
    46
  9
$DIMATFIT
 70
     3
  9
$DIMFRAC
 70
     0
  9
$DIMLDRBLK
  1

  9
$DIMLUNIT
 70
     2
  9
$DIMLWD
 70
    -2
  9
$DIMLWE
 70
    -2
  9
$DIMTMOVE
 70
     0
  9
$LUNITS
 70
     2
  9
$LUPREC
 70
     4
  9
$SKETCHINC
 40
1.0
  9
$FILLETRAD
 40
3.973063973063973
  9
$AUNITS
 70
     0
  9
$AUPREC
 70
     0
  9
$MENU
  1
acad
  9
$ELEVATION
 40
0.0
  9
$PELEVATION
 40
0.0
  9
$THICKNESS
 40
0.0
  9
$LIMCHECK
 70
     0
  9
$CHAMFERA
 40
0.0
  9
$CHAMFERB
 40
0.0
  9
$CHAMFERC
 40
7.946127946127946
  9
$CHAMFERD
 40
0.0
  9
$SKPOLY
 70
     0
  9
$TDCREATE
 40
2451379.622546296
  9
$TDUCREATE
 40
2451379.247549885
  9
$TDUPDATE
 40
2459040.630196760
  9
$TDUUPDATE
 40
2459040.255196760
  9
$TDINDWG
 40
0.2027593750
  9
$TDUSRTIMER
 40
0.2027593750
  9
$USRTIMER
 70
     1
  9
$ANGBASE
 50
0.0
  9
$ANGDIR
 70
     0
  9
$PDMODE
 70
     0
  9
$PDSIZE
 40
0.0
  9
$PLINEWID
 40
0.0
  9
$SPLFRAME
 70
     0
  9
$SPLINETYPE
 70
     6
  9
$SPLINESEGS
 70
     8
  9
$HANDSEED
  5
87A2
  9
$SURFTAB1
 70
     6
  9
$SURFTAB2
 70
     6
  9
$SURFTYPE
 70
     6
  9
$SURFU
 70
     6
  9
$SURFV
 70
     6
  9
$UCSBASE
  2

  9
$UCSNAME
  2

  9
$UCSORG
 10
0.0
 20
0.0
 30
0.0
  9
$UCSXDIR
 10
1.0
 20
0.0
 30
0.0
  9
$UCSYDIR
 10
0.0
 20
1.0
 30
0.0
  9
$UCSORTHOREF
  2

  9
$UCSORTHOVIEW
 70
     0
  9
$UCSORGTOP
 10
0.0
 20
0.0
 30
0.0
  9
$UCSORGBOTTOM
 10
0.0
 20
0.0
 30
0.0
  9
$UCSORGLEFT
 10
0.0
 20
0.0
 30
0.0
  9
$UCSORGRIGHT
 10
0.0
 20
0.0
 30
0.0
  9
$UCSORGFRONT
 10
0.0
 20
0.0
 30
0.0
  9
$UCSORGBACK
 10
0.0
 20
0.0
 30
0.0
  9
$PUCSBASE
  2

  9
$PUCSNAME
  2

  9
$PUCSORG
 10
0.0
 20
0.0
 30
0.0
  9
$PUCSXDIR
 10
1.0
 20
0.0
 30
0.0
  9
$PUCSYDIR
 10
0.0
 20
1.0
 30
0.0
  9
$PUCSORTHOREF
  2

  9
$PUCSORTHOVIEW
 70
     0
  9
$PUCSORGTOP
 10
0.0
 20
0.0
 30
0.0
  9
$PUCSORGBOTTOM
 10
0.0
 20
0.0
 30
0.0
  9
$PUCSORGLEFT
 10
0.0
 20
0.0
 30
0.0
  9
$PUCSORGRIGHT
 10
0.0
 20
0.0
 30
0.0
  9
$PUCSORGFRONT
 10
0.0
 20
0.0
 30
0.0
  9
$PUCSORGBACK
 10
0.0
 20
0.0
 30
0.0
  9
$USERI1
 70
     0
  9
$USERI2
 70
     0
  9
$USERI3
 70
     0
  9
$USERI4
 70
     0
  9
$USERI5
 70
     0
  9
$USERR1
 40
0.0
  9
$USERR2
 40
0.0
  9
$USERR3
 40
0.0
  9
$USERR4
 40
0.0
  9
$USERR5
 40
0.0
  9
$WORLDVIEW
 70
     1
  9
$SHADEDGE
 70
     3
  9
$SHADEDIF
 70
    70
  9
$TILEMODE
 70
     1
  9
$MAXACTVP
 70
    48
  9
$PINSBASE
 10
0.0
 20
0.0
 30
0.0
  9
$PLIMCHECK
 70
     0
  9
$PEXTMIN
 10
40.98924856185914
 20
28.28924942016602
 30
0.0
  9
$PEXTMAX
 10
368.9032370567322
 20
254.6032447814941
 30
0.0
  9
$PLIMMIN
 10
-5.873749732971191
 20
-8.286766052246091
  9
$PLIMMAX
 10
414.1152334213257
 20
288.7027359008789
  9
$UNITMODE
 70
     0
  9
$VISRETAIN
 70
     1
  9
$PLINEGEN
 70
     0
  9
$PSLTSCALE
 70
     1
  9
$TREEDEPTH
 70
  3020
  9
$CMLSTYLE
  2
STANDARD
  9
$CMLJUST
 70
     0
  9
$CMLSCALE
 40
20.0
  9
$PROXYGRAPHICS
 70
     1
  9
$MEASUREMENT
 70
     1
  9
$CELWEIGHT
370
    -1
  9
$ENDCAPS
280
     0
  9
$JOINSTYLE
280
     0
  9
$LWDISPLAY
290
     0
  9
$INSUNITS
 70
     0
  9
$HYPERLINKBASE
  1

  9
$STYLESHEET
  1

  9
$XEDIT
290
     1
  9
$CEPSNTYPE
380
     0
  9
$PSTYLEMODE
290
     1
  9
$FINGERPRINTGUID
  2
{584A8C4C-C69E-11D4-BBE8-00A0C93D4840}
  9
$VERSIONGUID
  2
{D43B0787-B9D7-FC46-BAE2-EC441AEE95E6}
  9
$EXTNAMES
290
     1
  9
$PSVPSCALE
 40
0.0
  9
$OLESTARTUP
290
     0
  0
ENDSEC
  0
SECTION
  2
CLASSES
  0
CLASS
  1
DICTIONARYVAR
  2
AcDbDictionaryVar
  3
ObjectDBX Classes
 90
        0
280
     0
281
     0
  0
CLASS
  1
ACDBDICTIONARYWDFLT
  2
AcDbDictionaryWithDefault
  3
ObjectDBX Classes
 90
        0
280
     0
281
     0
  0
CLASS
  1
ACDBPLACEHOLDER
  2
AcDbPlaceHolder
  3
ObjectDBX Classes
 90
        0
280
     0
281
     0
  0
CLASS
  1
LAYOUT
  2
AcDbLayout
  3
ObjectDBX Classes
 90
        0
280
     0
281
     0
  0
CLASS
  1
MATERIAL
  2
AcDbMaterial
  3
ObjectDBX Classes
 90
     1153
280
     0
281
     0
  0
CLASS
  1
VISUALSTYLE
  2
AcDbVisualStyle
  3
ObjectDBX Classes
 90
     4095
280
     0
281
     0
  0
CLASS
  1
TABLESTYLE
  2
AcDbTableStyle
  3
ObjectDBX Classes
 90
     4095
280
     0
281
     0
  0
CLASS
  1
SCALE
  2
AcDbScale
  3
ObjectDBX Classes
 90
     1153
280
     0
281
     0
  0
CLASS
  1
MLEADERSTYLE
  2
AcDbMLeaderStyle
  3
ACDB_MLEADERSTYLE_CLASS
 90
     4095
280
     0
281
     0
  0
CLASS
  1
ACDBSECTIONVIEWSTYLE
  2
AcDbSectionViewStyle
  3
ObjectDBX Classes
 90
     1025
280
     0
281
     0
  0
CLASS
  1
ACDBDETAILVIEWSTYLE
  2
AcDbDetailViewStyle
  3
ObjectDBX Classes
 90
     1025
280
     0
281
     0
  0
CLASS
  1
CELLSTYLEMAP
  2
AcDbCellStyleMap
  3
ObjectDBX Classes
 90
     1152
280
     0
281
     0
  0
CLASS
  1
SORTENTSTABLE
  2
AcDbSortentsTable
  3
ObjectDBX Classes
 90
        0
280
     0
281
     0
  0
CLASS
  1
MULTILEADER
  2
AcDbMLeader
  3
ACDB_MLEADER_CLASS
 90
    33793
280
     0
281
     1
  0
ENDSEC
  0
SECTION
  2
TABLES
  0
TABLE
  2
VPORT
  5
8
102
{ACAD_XDICTIONARY
360
4EE8
102
}
330
0
100
AcDbSymbolTable
 70
     1
  0
VPORT
  5
4E62
330
8
100
AcDbSymbolTableRecord
100
AcDbViewportTableRecord
  2
*Active
 70
     0
 10
0.0
 20
0.0
 11
1.0
 21
1.0
 12
379.1365272655543
 22
65.44592313380672
 13
0.0
 23
0.0
 14
5.0
 24
5.0
 15
5.0
 25
5.0
 16
0.0
 26
0.0
 36
1.0
 17
0.0
 27
0.0
 37
0.0
 40
105.923085751912
 41
1.553129548762736
 42
50.0
 43
0.0
 44
0.0
 50
0.0
 51
0.0
 71
     0
 72
   100
 73
     1
 74
     1
 75
     0
 76
     0
 77
     0
 78
     0
281
     0
 65
     1
110
0.0
120
0.0
130
0.0
111
1.0
121
0.0
131
0.0
112
0.0
122
1.0
132
0.0
 79
     0
146
0.0
1001
ACAD_NAV_VCDISPLAY
1070
     3
  0
ENDTAB
  0
TABLE
  2
LTYPE
  5
5
330
0
100
AcDbSymbolTable
 70
     6
  0
LTYPE
  5
12
330
5
100
AcDbSymbolTableRecord
100
AcDbLinetypeTableRecord
  2
BYBLOCK
 70
     0
  3

 72
    65
 73
     0
 40
0.0
  0
LTYPE
  5
13
330
5
100
AcDbSymbolTableRecord
100
AcDbLinetypeTableRecord
  2
BYLAYER
 70
     0
  3

 72
    65
 73
     0
 40
0.0
  0
LTYPE
  5
14
330
5
100
AcDbSymbolTableRecord
100
AcDbLinetypeTableRecord
  2
CONTINUOUS
 70
     0
  3
Solid line
 72
    65
 73
     0
 40
0.0
  0
LTYPE
  5
560D
330
5
100
AcDbSymbolTableRecord
100
AcDbLinetypeTableRecord
  2
DASHED2
 70
     0
  3
_ _ _ _ _ _ _ _ _ _ _ _ _ _ _ _ _ _ _ _ _ _ _ _
 72
    65
 73
     2
 40
0.375
 49
0.25
 74
     0
 49
-0.125
 74
     0
  0
LTYPE
  5
560E
330
5
100
AcDbSymbolTableRecord
100
AcDbLinetypeTableRecord
  2
PHANTOM2
 70
     0
  3
--------  -  -  --------  -  -  
 72
    65
 73
     6
 40
20.0
 49
10.0
 74
     0
 49
-2.5
 74
     0
 49
1.25
 74
     0
 49
-2.5
 74
     0
 49
1.25
 74
     0
 49
-2.5
 74
     0
  0
LTYPE
  5
560F
330
5
100
AcDbSymbolTableRecord
100
AcDbLinetypeTableRecord
  2
CENTERX3
 70
     0
  3
________  _  ________  _  ________  _  ________
 72
    65
 73
     4
 40
13.25
 49
12.5
 74
     0
 49
-0.25
 74
     0
 49
0.25
 74
     0
 49
-0.25
 74
     0
  0
LTYPE
  5
5610
330
5
100
AcDbSymbolTableRecord
100
AcDbLinetypeTableRecord
  2
PHANTOM
 70
     0
  3
______  __  __  ______  __  __  ______  __  __ 
 72
    65
 73
     6
 40
2.5
 49
1.25
 74
     0
 49
-0.25
 74
     0
 49
0.25
 74
     0
 49
-0.25
 74
     0
 49
0.25
 74
     0
 49
-0.25
 74
     0
  0
LTYPE
  5
5611
330
5
100
AcDbSymbolTableRecord
100
AcDbLinetypeTableRecord
  2
LC
 70
     0
  3
LC
 72
    65
 73
     0
 40
0.0
  0
ENDTAB
  0
TABLE
  2
LAYER
  5
2
102
{ACAD_XDICTIONARY
360
4F40
102
}
330
0
100
AcDbSymbolTable
 70
    18
  0
LAYER
  5
E
102
{ACAD_XDICTIONARY
360
4EDD
102
}
330
2
100
AcDbSymbolTableRecord
100
AcDbLayerTableRecord
  2
0
 70
     0
 62
     7
  6
CONTINUOUS
370
    -3
390
4DF9
  0
LAYER
  5
36
102
{ACAD_XDICTIONARY
360
4EDF
102
}
330
2
100
AcDbSymbolTableRecord
100
AcDbLayerTableRecord
  2
FLAME
 70
     0
 62
     2
  6
CONTINUOUS
370
    -3
390
4DF9
  0
LAYER
  5
37
102
{ACAD_XDICTIONARY
360
4EE1
102
}
330
2
100
AcDbSymbolTableRecord
100
AcDbLayerTableRecord
  2
SPEC
 70
     0
 62
     9
  6
CONTINUOUS
370
    -3
390
4DF9
  0
LAYER
  5
52
330
2
100
AcDbSymbolTableRecord
100
AcDbLayerTableRecord
  2
DEFPOINTS
 70
     0
 62
     7
  6
CONTINUOUS
290
     0
370
    -3
390
4DF9
  0
LAYER
  5
4F3A
330
2
100
AcDbSymbolTableRecord
100
AcDbLayerTableRecord
  2
HONTAI
 70
     0
 62
     2
  6
CONTINUOUS
370
    -3
390
4DF9
  0
LAYER
  5
4F3B
330
2
100
AcDbSymbolTableRecord
100
AcDbLayerTableRecord
  2
HON
 70
     0
 62
     9
  6
CONTINUOUS
370
    -3
390
4DF9
  0
LAYER
  5
4F3C
102
{ACAD_XDICTIONARY
360
4F3D
102
}
330
2
100
AcDbSymbolTableRecord
100
AcDbLayerTableRecord
  2
OTHER
 70
     0
 62
     7
  6
CONTINUOUS
370
    -3
390
4DF9
  0
LAYER
  5
5142
330
2
100
AcDbSymbolTableRecord
100
AcDbLayerTableRecord
  2
1_HONTAI
 70
     0
 62
     7
  6
CONTINUOUS
370
    -3
390
4DF9
  0
LAYER
  5
5143
330
2
100
AcDbSymbolTableRecord
100
AcDbLayerTableRecord
  2
_HONTAI
 70
     0
 62
     7
  6
CONTINUOUS
370
    -3
390
4DF9
  0
LAYER
  5
5612
102
{ACAD_XDICTIONARY
360
5613
102
}
330
2
100
AcDbSymbolTableRecord
100
AcDbLayerTableRecord
  2
CL
 70
     0
 62
     9
  6
CENTERX3
370
    -3
390
4DF9
  0
LAYER
  5
5614
102
{ACAD_XDICTIONARY
360
5615
102
}
330
2
100
AcDbSymbolTableRecord
100
AcDbLayerTableRecord
  2
DIM
 70
     0
 62
     9
  6
CONTINUOUS
370
    -3
390
4DF9
  0
LAYER
  5
5616
102
{ACAD_XDICTIONARY
360
5617
102
}
330
2
100
AcDbSymbolTableRecord
100
AcDbLayerTableRecord
  2
TOUGU
 70
     0
 62
     3
  6
CONTINUOUS
370
    -3
390
4DF9
  0
LAYER
  5
5618
330
2
100
AcDbSymbolTableRecord
100
AcDbLayerTableRecord
  2
kakure
 70
     0
 62
     1
  6
DASHED2
370
    -3
390
4DF9
  0
LAYER
  5
5619
330
2
100
AcDbSymbolTableRecord
100
AcDbLayerTableRecord
  2
KENCHIKU
 70
     0
 62
     9
  6
PHANTOM2
370
    -3
390
4DF9
  0
LAYER
  5
561A
330
2
100
AcDbSymbolTableRecord
100
AcDbLayerTableRecord
  2
HYOUDAI
 70
     0
 62
     7
  6
CONTINUOUS
370
    -3
390
4DF9
  0
LAYER
  5
561B
330
2
100
AcDbSymbolTableRecord
100
AcDbLayerTableRecord
  2
SOUZOU
 70
     0
 62
     8
  6
PHANTOM
370
    -3
390
4DF9
  0
LAYER
  5
561C
330
2
100
AcDbSymbolTableRecord
100
AcDbLayerTableRecord
  2
VIEW
 70
     0
 62
     1
  6
CONTINUOUS
290
     0
370
    -3
390
4DF9
  0
LAYER
  5
7D32
330
2
100
AcDbSymbolTableRecord
100
AcDbLayerTableRecord
  2
SHADE
 70
     0
 62
     4
  6
CONTINUOUS
370
    -3
390
4DF9
  0
ENDTAB
  0
TABLE
  2
STYLE
  5
3
330
0
100
AcDbSymbolTable
 70
     5
  0
STYLE
  5
F
330
3
100
AcDbSymbolTableRecord
100
AcDbTextStyleTableRecord
  2
STANDARD
 70
     0
 40
0.0
 41
1.0
 50
0.0
 71
     0
 42
3.0
  3
txt.shx
  4
bigfont.shx
  0
STYLE
  5
5144
330
3
100
AcDbSymbolTableRecord
100
AcDbTextStyleTableRecord
  2
スタイル3
 70
     0
 40
0.0
 41
1.0
 50
0.0
 71
     0
 42
2.5
  3
acaderef.shx
  4
bigfont.shx
  0
STYLE
  5
561D
330
3
100
AcDbSymbolTableRecord
100
AcDbTextStyleTableRecord
  2
\U+FF7D\U+FF80\U+FF72\U+FF992
 70
     0
 40
0.0
 41
1.0
 50
0.0
 71
     0
 42
3.0
  3
HGSGothicM.ttf
  4

1001
ACAD
1000
HGSGothicM
1071
    32818
  0
STYLE
  5
561E
330
3
100
AcDbSymbolTableRecord
100
AcDbTextStyleTableRecord
  2
ゴシック
 70
     0
 40
0.0
 41
1.0
 50
0.0
 71
     0
 42
6.0
  3

  4

1001
ACAD
1000
MS PGothic
1071
    32818
  0
STYLE
  5
827D
330
3
100
AcDbSymbolTableRecord
100
AcDbTextStyleTableRecord
  2
Annotative
 70
     0
 40
0.0
 41
1.0
 50
0.0
 71
     0
 42
0.2
  3

  4

1001
AcadAnnotative
1000
AnnotativeData
1002
{
1070
     1
1070
     1
1002
}
1001
ACAD
1000
Meiryo
1071
    32818
  0
ENDTAB
  0
TABLE
  2
VIEW
  5
6
330
0
100
AcDbSymbolTable
 70
     0
  0
ENDTAB
  0
TABLE
  2
UCS
  5
7
330
0
100
AcDbSymbolTable
 70
     0
  0
ENDTAB
  0
TABLE
  2
APPID
  5
9
330
0
100
AcDbSymbolTable
 70
    10
  0
APPID
  5
10
330
9
100
AcDbSymbolTableRecord
100
AcDbRegAppTableRecord
  2
ACAD
 70
     0
  0
APPID
  5
24
330
9
100
AcDbSymbolTableRecord
100
AcDbRegAppTableRecord
  2
CONTENTTABDATA
 70
     0
  0
APPID
  5
25
330
9
100
AcDbSymbolTableRecord
100
AcDbRegAppTableRecord
  2
CONTENTCURRENTTAB
 70
     0
  0
APPID
  5
4EE3
330
9
100
AcDbSymbolTableRecord
100
AcDbRegAppTableRecord
  2
ACAD_NAV_VCDISPLAY
 70
     0
  0
APPID
  5
4F26
330
9
100
AcDbSymbolTableRecord
100
AcDbRegAppTableRecord
  2
ACAD_MLEADERVER
 70
     0
  0
APPID
  5
4F3F
330
9
100
AcDbSymbolTableRecord
100
AcDbRegAppTableRecord
  2
ACAD_PSEXT
 70
     0
  0
APPID
  5
50AA
330
9
100
AcDbSymbolTableRecord
100
AcDbRegAppTableRecord
  2
ACAD_EXEMPT_FROM_CAD_STANDARDS
 70
     0
  0
APPID
  5
5146
330
9
100
AcDbSymbolTableRecord
100
AcDbRegAppTableRecord
  2
ACAD_DSTYLE_DIMJAG
 70
     0
  0
APPID
  5
5147
330
9
100
AcDbSymbolTableRecord
100
AcDbRegAppTableRecord
  2
ACAD_DSTYLE_DIMTALN
 70
     0
  0
APPID
  5
5622
330
9
100
AcDbSymbolTableRecord
100
AcDbRegAppTableRecord
  2
AcadAnnotative
 70
     0
  0
ENDTAB
  0
TABLE
  2
DIMSTYLE
  5
A
330
0
100
AcDbSymbolTable
 70
     7
100
AcDbDimStyleTable
 71
     1
340
1D
  0
DIMSTYLE
105
1D
330
A
100
AcDbSymbolTableRecord
100
AcDbDimStyleTableRecord
  2
STANDARD
 70
     0
340
F
  0
DIMSTYLE
105
4F3E
330
A
100
AcDbSymbolTableRecord
100
AcDbDimStyleTableRecord
  2
S10
 70
     0
 40
10.0
 41
3.0
 42
1.0
 43
7.0
 44
1.0
 73
     0
 74
     0
 77
     1
 78
     8
 79
     2
140
3.0
141
0.1
144
-1.0
147
1.0
172
     1
176
     8
177
     8
178
     2
179
     4
279
     1
284
     8
340
F
  0
DIMSTYLE
105
5145
330
A
100
AcDbSymbolTableRecord
100
AcDbDimStyleTableRecord
  2
S4
 70
     0
 40
4.0
 41
2.5
 42
2.0
 43
7.0
 44
2.0
 73
     0
 74
     0
 77
     1
 78
     8
 79
     2
140
2.5
141
0.1875
144
-1.0
147
1.0
171
     1
172
     1
176
     9
177
     9
178
     2
179
     4
274
     1
283
     0
288
     1
289
     1
340
F
1001
ACAD_DSTYLE_DIMJAG
1070
   388
1040
1.5
1001
ACAD_DSTYLE_DIMTALN
1070
   392
1070
     0
  0
DIMSTYLE
105
561F
330
A
100
AcDbSymbolTableRecord
100
AcDbDimStyleTableRecord
  2
S2
 70
     0
 40
2.0
 41
2.0
 42
2.0
 43
7.0
 44
2.0
 73
     0
 74
     0
 77
     1
 78
     8
 79
     2
140
3.0
141
0.1875
147
1.0
171
     1
172
     1
176
     8
177
     8
178
     2
179
     4
271
     2
272
     2
274
     1
283
     0
289
     1
340
F
  0
DIMSTYLE
105
5620
330
A
100
AcDbSymbolTableRecord
100
AcDbDimStyleTableRecord
  2
ARCH
 70
     0
 41
2.0
 42
2.0
 43
7.0
 44
2.0
 73
     0
 74
     0
 77
     1
140
2.5
141
0.1875
144
-1.0
147
1.0
171
     1
172
     1
176
     9
177
     9
178
     2
271
     0
272
     0
274
     1
283
     0
288
     1
289
     1
340
F
1001
ACAD_DSTYLE_DIMJAG
1070
   388
1040
1.5
1001
ACAD_DSTYLE_DIMTALN
1070
   392
1070
     0
  0
DIMSTYLE
105
5621
330
A
100
AcDbSymbolTableRecord
100
AcDbDimStyleTableRecord
  2
S6
 70
     0
 40
6.0
 41
2.0
 42
2.0
 43
7.0
 44
2.0
 73
     0
 74
     0
 77
     1
 78
     8
 79
     2
140
3.0
141
0.1875
144
-1.0
147
1.0
171
     1
172
     1
176
     8
177
     8
178
     2
179
     4
274
     1
283
     0
289
     1
340
F
1001
ACAD_DSTYLE_DIMJAG
1070
   388
1040
1.5
1001
ACAD_DSTYLE_DIMTALN
1070
   392
1070
     0
  0
DIMSTYLE
105
7D33
330
A
100
AcDbSymbolTableRecord
100
AcDbDimStyleTableRecord
  2
S3
 70
     0
 40
3.0
 41
2.0
 42
2.0
 43
7.0
 44
2.0
 73
     0
 74
     0
 77
     1
 78
     8
 79
     2
140
3.0
141
0.1875
144
-1.0
147
1.0
171
     1
172
     1
176
     8
177
     8
178
     2
179
     4
274
     1
283
     0
288
     1
289
     1
340
F
1001
ACAD_DSTYLE_DIMJAG
1070
   388
1040
1.5
1001
ACAD_DSTYLE_DIMTALN
1070
   392
1070
     0
  0
ENDTAB
  0
TABLE
  2
BLOCK_RECORD
  5
1
330
0
100
AcDbSymbolTable
 70
     1
  0
BLOCK_RECORD
  5
18
102
{ACAD_XDICTIONARY
360
4E52
102
}
330
1
100
AcDbSymbolTableRecord
100
AcDbBlockTableRecord
  2
*MODEL_SPACE
340
4DFC
  0
BLOCK_RECORD
  5
15
102
{ACAD_XDICTIONARY
360
4E50
102
}
330
1
100
AcDbSymbolTableRecord
100
AcDbBlockTableRecord
  2
*PAPER_SPACE
340
4DFD
  0
ENDTAB
  0
ENDSEC
  0
SECTION
  2
BLOCKS
  0
BLOCK
  5
19
330
18
100
AcDbEntity
  8
0
100
AcDbBlockBegin
  2
*MODEL_SPACE
 70
     0
 10
0.0
 20
0.0
 30
0.0
  3
*MODEL_SPACE
  1

  0
ENDBLK
  5
1A
330
18
100
AcDbEntity
  8
0
100
AcDbBlockEnd
  0
BLOCK
  5
16
330
15
100
AcDbEntity
 67
     1
  8
0
100
AcDbBlockBegin
  2
*PAPER_SPACE
 70
     0
 10
0.0
 20
0.0
 30
0.0
  3
*PAPER_SPACE
  1

  0
ENDBLK
  5
17
330
15
100
AcDbEntity
 67
     1
  8
0
100
AcDbBlockEnd
  0
ENDSEC
  0
SECTION
  2
ENTITIES
  0
LINE
  5
84CB
330
18
100
AcDbEntity
  8
FLAME
100
AcDbLine
 10
424.1276013885224
 20
117.9493169535614
 30
0.0
 11
424.1276013885224
 21
12.94931695356138
 31
0.0
  0
LINE
  5
84CC
330
18
100
AcDbEntity
  8
FLAME
100
AcDbLine
 10
334.1276013885224
 20
12.94931695356138
 30
0.0
 11
334.1276013885224
 21
117.9493169535614
 31
0.0
  0
LINE
  5
84CD
330
18
100
AcDbEntity
  8
FLAME
100
AcDbLine
 10
424.1276013885224
 20
12.94931695356138
 30
0.0
 11
334.1276013885224
 21
12.94931695356138
 31
0.0
  0
TEXT
  5
84CE
330
18
100
AcDbEntity
  8
SPEC
100
AcDbText
 10
337.5046842031031
 20
24.29914879987121
 30
0.0
 40
2.5
  1
KP123PABZ
100
AcDbText
  0
TEXT
  5
84CF
330
18
100
AcDbEntity
  8
SPEC
100
AcDbText
 10
337.5046842031031
 20
19.2991487998712
 30
0.0
 40
2.5
  1
E26 電球型LEDランプ LDA12L×1灯
100
AcDbText
  0
LINE
  5
84D0
330
18
100
AcDbEntity
  8
FLAME
100
AcDbLine
 10
424.1276013885224
 20
17.94931695356138
 30
0.0
 11
334.1276013885224
 21
17.94931695356138
 31
0.0
  0
LINE
  5
84D1
330
18
100
AcDbEntity
  8
FLAME
100
AcDbLine
 10
424.1276013885224
 20
22.94931695356138
 30
0.0
 11
334.1276013885224
 21
22.94931695356138
 31
0.0
  0
LINE
  5
84D2
330
18
100
AcDbEntity
  8
FLAME
100
AcDbLine
 10
424.1276013885224
 20
27.94931695356138
 30
0.0
 11
334.1276013885224
 21
27.94931695356138
 31
0.0
  0
LINE
  5
84D3
330
18
100
AcDbEntity
  8
FLAME
100
AcDbLine
 10
424.1276013885224
 20
117.9493169535614
 30
0.0
 11
334.1276013885224
 21
117.9493169535614
 31
0.0
  0
LINE
  5
84D4
330
18
100
AcDbEntity
  8
_HONTAI
100
AcDbLine
 10
379.7406297484875
 20
102.1385131998182
 30
0.0
 11
379.7406297484875
 21
93.50082969230118
 31
0.0
  0
LINE
  5
84D5
330
18
100
AcDbEntity
  8
_HONTAI
100
AcDbLine
 10
379.7406297484875
 20
92.00373919889955
 30
0.0
 11
379.7406297484875
 21
74.63231193133163
 31
0.0
  0
ARC
  5
84D6
330
18
100
AcDbEntity
  8
_HONTAI
100
AcDbCircle
 10
387.3327075233362
 20
110.9134117504787
 30
0.0
 40
11.68284901537971
100
AcDbArc
 50
181.5278024633044
 51
228.6850896284288
  0
LINE
  5
84D7
330
18
100
AcDbEntity
  8
_HONTAI
100
AcDbLine
 10
380.2726155297357
 20
102.1385131998182
 30
0.0
 11
380.2726155297376
 21
93.65551516206016
 31
0.0
  0
LINE
  5
84D8
330
18
100
AcDbEntity
  8
_HONTAI
100
AcDbLine
 10
380.2726155297376
 20
92.15842466866035
 30
0.0
 11
380.2726155297357
 21
74.63106610252054
 31
0.0
  0
ARC
  5
84D9
330
18
100
AcDbEntity
  8
_HONTAI
100
AcDbCircle
 10
372.6805377548906
 20
110.9134117504787
 30
0.0
 40
11.68284901537971
100
AcDbArc
 50
311.3149103715711
 51
358.4721975366956
  0
ELLIPSE
  5
84DA
330
18
100
AcDbEntity
  8
_HONTAI
100
AcDbEllipse
 10
380.0066226391143
 20
110.6019233560606
 30
0.0
 11
-4.352610937500166
 21
0.0
 31
0.0
210
0.0
220
0.0
230
1.0
 40
0.1879622345250504
 41
3.141592653589793
 42
6.283185307179586
  0
ELLIPSE
  5
84DB
330
18
100
AcDbEntity
  8
SHADE
 62
     7
100
AcDbEllipse
 10
380.0066226391143
 20
102.1385131998237
 30
0.0
 11
-0.3868987500057664
 21
0.0
 31
0.0
210
0.0
220
0.0
230
1.0
 40
0.1938520362092866
 41
2.328837092194681
 42
7.095940868552426
  0
LINE
  5
84DC
330
18
100
AcDbEntity
  8
SHADE
 62
     7
100
AcDbLine
 10
381.7520107739972
 20
94.08567881753208
 30
0.0
 11
378.2508708691028
 21
93.06765260334453
 31
0.0
  0
LINE
  5
84DD
330
18
100
AcDbEntity
  8
SHADE
 62
     7
100
AcDbLine
 10
381.7520107739972
 20
92.58858832413045
 30
0.0
 11
378.2508708691028
 21
91.57056210994289
 31
0.0
  0
LINE
  5
84DE
330
18
100
AcDbEntity
  8
_HONTAI
100
AcDbLine
 10
379.2226747520333
 20
74.59967193133127
 30
0.0
 11
379.2226747520333
 21
73.76191193133184
 31
0.0
  0
LINE
  5
84DF
330
18
100
AcDbEntity
  8
_HONTAI
100
AcDbLine
 10
380.0386747520322
 20
73.76191193133184
 30
0.0
 11
378.8848979211223
 21
73.76191193133184
 31
0.0
  0
LINE
  5
84E0
330
18
100
AcDbEntity
  8
_HONTAI
100
AcDbLine
 10
380.0386747520322
 20
74.63231193133163
 30
0.0
 11
379.2553147520309
 21
74.63231193133163
 31
0.0
  0
ARC
  5
84E1
330
18
100
AcDbEntity
  8
_HONTAI
100
AcDbCircle
 10
374.6188085303263
 20
74.1745715807034
 30
0.0
 40
4.189041185546126
100
AcDbArc
 50
308.8893659501465
 51
353.0310985048808
  0
POINT
  5
84E2
330
18
100
AcDbEntity
  8
_HONTAI
100
AcDbPoint
 10
378.7874747520298
 20
73.76191193133184
 30
0.0
 50
180.0
  0
ARC
  5
84E3
330
18
100
AcDbEntity
  8
_HONTAI
100
AcDbCircle
 10
378.8848979211223
 20
73.65311193133095
 30
0.0
 40
0.1088
100
AcDbArc
 50
90.0
 51
173.0310985048808
  0
ARC
  5
84E4
330
18
100
AcDbEntity
  8
_HONTAI
100
AcDbCircle
 10
379.2553147520309
 20
74.59967193133127
 30
0.0
 40
0.03264
100
AcDbArc
 50
90.0
 51
180.0
  0
POINT
  5
84E5
330
18
100
AcDbEntity
  8
_HONTAI
100
AcDbPoint
 10
379.2226747520333
 20
74.63231193133163
 30
0.0
 50
180.0
  0
LINE
  5
84E6
330
18
100
AcDbEntity
  8
_HONTAI
100
AcDbLine
 10
380.8569847449405
 20
74.59967193133127
 30
0.0
 11
380.8569847449405
 21
73.76191193133184
 31
0.0
  0
LINE
  5
84E7
330
18
100
AcDbEntity
  8
_HONTAI
100
AcDbLine
 10
380.0409847449416
 20
73.76191193133184
 30
0.0
 11
381.1947615758516
 21
73.76191193133184
 31
0.0
  0
LINE
  5
84E8
330
18
100
AcDbEntity
  8
_HONTAI
100
AcDbLine
 10
380.0409847449416
 20
74.63231193133163
 30
0.0
 11
380.8243447449429
 21
74.63231193133163
 31
0.0
  0
ARC
  5
84E9
330
18
100
AcDbEntity
  8
_HONTAI
100
AcDbCircle
 10
385.4608509666475
 20
74.1745715807034
 30
0.0
 40
4.189041185546126
100
AcDbArc
 50
186.9689014951191
 51
231.1106340498535
  0
POINT
  5
84EA
330
18
100
AcDbEntity
  8
_HONTAI
100
AcDbPoint
 10
381.2921847449441
 20
73.76191193133184
 30
0.0
 50
0.000000000000007
  0
ARC
  5
84EB
330
18
100
AcDbEntity
  8
_HONTAI
100
AcDbCircle
 10
381.1947615758516
 20
73.65311193133095
 30
0.0
 40
0.1088
100
AcDbArc
 50
6.968901495119188
 51
90.0
  0
ARC
  5
84EC
330
18
100
AcDbEntity
  8
_HONTAI
100
AcDbCircle
 10
380.8243447449429
 20
74.59967193133127
 30
0.0
 40
0.03264
100
AcDbArc
 50
0.0
 51
90.0
  0
POINT
  5
84ED
330
18
100
AcDbEntity
  8
_HONTAI
100
AcDbPoint
 10
380.8569847449405
 20
74.63231193133163
 30
0.0
 50
0.000000000000007
  0
LINE
  5
84EE
330
18
100
AcDbEntity
  8
HON
100
AcDbLine
 10
380.0551535649308
 20
57.26979609682223
 30
0.0
 11
377.6472731650872
 21
54.30347272997517
 31
0.0
  0
LINE
  5
84EF
330
18
100
AcDbEntity
  8
HON
100
AcDbLine
 10
377.6600445774354
 20
52.19925463156562
 30
0.0
 11
377.6546438703651
 21
54.33143130461633
 31
0.0
  0
LINE
  5
84F0
330
18
100
AcDbEntity
  8
HON
100
AcDbLine
 10
369.0356039999977
 20
64.94392266731722
 30
0.0
 11
369.5006054793746
 21
65.43277585980888
 31
0.0
  0
LINE
  5
84F1
330
18
100
AcDbEntity
  8
HON
100
AcDbLine
 10
367.6320309430473
 20
58.3509757586113
 30
0.0
 11
367.2779298781086
 21
55.18229412787571
 31
0.0
  0
LINE
  5
84F2
330
18
100
AcDbEntity
  8
HON
100
AcDbLine
 10
368.1585922822967
 20
61.09801298480363
 30
0.0
 11
369.3996941009616
 21
63.86228572293714
 31
0.0
  0
LINE
  5
84F3
330
18
100
AcDbEntity
  8
HON
100
AcDbLine
 10
368.1585922822967
 20
61.09801298480363
 30
0.0
 11
368.9575941572882
 21
60.15858394974805
 31
0.0
  0
LINE
  5
84F4
330
18
100
AcDbEntity
  8
HON
100
AcDbLine
 10
367.2779298781086
 20
55.18229412787571
 30
0.0
 11
368.0650478069608
 21
54.35876178229102
 31
0.0
  0
LINE
  5
84F5
330
18
100
AcDbEntity
  8
HON
100
AcDbLine
 10
378.9029504049056
 20
67.18318358829368
 30
0.0
 11
380.0003877335282
 21
69.01259274696042
 31
0.0
  0
LINE
  5
84F6
330
18
100
AcDbEntity
  8
HON
100
AcDbLine
 10
378.9029504049056
 20
67.18318358829368
 30
0.0
 11
378.1810801567542
 21
68.98722650268303
 31
0.0
  0
LINE
  5
84F7
330
18
100
AcDbEntity
  8
HON
100
AcDbLine
 10
378.1810801567542
 20
68.98722650268303
 30
0.0
 11
376.9748483345673
 21
66.92752665523642
 31
0.0
  0
LINE
  5
84F8
330
18
100
AcDbEntity
  8
HON
100
AcDbLine
 10
376.9748483345673
 20
66.92752665523642
 30
0.0
 11
376.4149832830979
 21
68.92030569512155
 31
0.0
  0
LINE
  5
84F9
330
18
100
AcDbEntity
  8
HON
100
AcDbLine
 10
376.4149832830979
 20
68.92030569512155
 30
0.0
 11
374.7437417834287
 21
66.77946497065625
 31
0.0
  0
LINE
  5
84FA
330
18
100
AcDbEntity
  8
HON
100
AcDbLine
 10
374.7437417834287
 20
66.77946497065625
 30
0.0
 11
374.8760546280562
 21
68.71723756096492
 31
0.0
  0
LINE
  5
84FB
330
18
100
AcDbEntity
  8
HON
100
AcDbLine
 10
374.8760546280562
 20
68.71723756096492
 30
0.0
 11
372.61310108455
 21
66.5726525392862
 31
0.0
  0
LINE
  5
84FC
330
18
100
AcDbEntity
  8
HON
100
AcDbLine
 10
372.61310108455
 20
66.5726525392862
 30
0.0
 11
374.0188124664553
 21
68.53649069603363
 31
0.0
  0
LINE
  5
84FD
330
18
100
AcDbEntity
  8
HON
100
AcDbLine
 10
374.0188124664553
 20
68.53649069603363
 30
0.0
 11
371.2828426082858
 21
66.22110659619886
 31
0.0
  0
LINE
  5
84FE
330
18
100
AcDbEntity
  8
HON
100
AcDbLine
 10
371.2828426082858
 20
66.22110659619886
 30
0.0
 11
373.2690763893122
 21
68.37371993212639
 31
0.0
  0
LINE
  5
84FF
330
18
100
AcDbEntity
  8
HON
100
AcDbLine
 10
373.2690763893122
 20
68.37371993212639
 30
0.0
 11
370.0688535604848
 21
65.70724033814315
 31
0.0
  0
LINE
  5
8500
330
18
100
AcDbEntity
  8
HON
100
AcDbLine
 10
370.0421368389459
 20
65.6974190776042
 30
0.0
 11
372.5342015718149
 21
68.10616436567909
 31
0.0
  0
LINE
  5
8501
330
18
100
AcDbEntity
  8
HON
100
AcDbLine
 10
371.7702215996258
 20
67.81880931415855
 30
0.0
 11
369.4891199907295
 21
65.54059960959477
 31
0.0
  0
LINE
  5
8502
330
18
100
AcDbEntity
  8
HON
100
AcDbLine
 10
380.0605723378546
 20
66.34302775524758
 30
0.0
 11
378.5274989205488
 21
63.54969289454186
 31
0.0
  0
LINE
  5
8503
330
18
100
AcDbEntity
  8
HON
100
AcDbLine
 10
378.5274989205488
 20
63.54969289454186
 30
0.0
 11
378.1719889352542
 21
66.21697820090469
 31
0.0
  0
LINE
  5
8504
330
18
100
AcDbEntity
  8
HON
100
AcDbLine
 10
378.1719889352542
 20
66.21697820090469
 30
0.0
 11
375.8193738402085
 21
63.23582166062317
 31
0.0
  0
LINE
  5
8505
330
18
100
AcDbEntity
  8
HON
100
AcDbLine
 10
375.8193738402085
 20
63.23582166062317
 30
0.0
 11
375.878380778079
 21
65.9888201961827
 31
0.0
  0
LINE
  5
8506
330
18
100
AcDbEntity
  8
HON
100
AcDbLine
 10
375.878380778079
 20
65.9888201961827
 30
0.0
 11
373.4634575433982
 21
62.75671798253336
 31
0.0
  0
LINE
  5
8507
330
18
100
AcDbEntity
  8
HON
100
AcDbLine
 10
373.4634575433982
 20
62.75671798253336
 30
0.0
 11
373.4681658604429
 21
65.68761193034936
 31
0.0
  0
LINE
  5
8508
330
18
100
AcDbEntity
  8
HON
100
AcDbLine
 10
373.4681658604429
 20
65.68761193034936
 30
0.0
 11
371.5795774077476
 21
62.33043640373637
 31
0.0
  0
LINE
  5
8509
330
18
100
AcDbEntity
  8
HON
100
AcDbLine
 10
371.5795774077476
 20
62.33043640373637
 30
0.0
 11
371.846788542988
 21
65.32106375556998
 31
0.0
  0
LINE
  5
850A
330
18
100
AcDbEntity
  8
HON
100
AcDbLine
 10
371.846788542988
 20
65.32106375556998
 30
0.0
 11
370.1591037427595
 21
61.98281608175659
 31
0.0
  0
LINE
  5
850B
330
18
100
AcDbEntity
  8
HON
100
AcDbLine
 10
370.1591037427595
 20
61.98281608175659
 30
0.0
 11
370.7328397223562
 21
64.91264502594879
 31
0.0
  0
LINE
  5
850C
330
18
100
AcDbEntity
  8
HON
100
AcDbLine
 10
370.7328397223562
 20
64.91264502594879
 30
0.0
 11
369.0807510246839
 21
61.55387058143844
 31
0.0
  0
LINE
  5
850D
330
18
100
AcDbEntity
  8
HON
100
AcDbLine
 10
369.0807510246839
 20
61.55387058143844
 30
0.0
 11
370.0739163400474
 21
64.50373474333957
 31
0.0
  0
LINE
  5
850E
330
18
100
AcDbEntity
  8
HON
100
AcDbLine
 10
370.0668708837718
 20
64.51779917539409
 30
0.0
 11
368.5269110380111
 21
61.25990699271153
 31
0.0
  0
LINE
  5
850F
330
18
100
AcDbEntity
  8
HON
100
AcDbLine
 10
368.5269110380111
 20
61.25990699271153
 30
0.0
 11
369.6531145859924
 21
64.00104715811051
 31
0.0
  0
LINE
  5
8510
330
18
100
AcDbEntity
  8
HON
100
AcDbLine
 10
369.6531145859924
 20
64.00104715811051
 30
0.0
 11
368.1585922822967
 21
61.09801298480363
 31
0.0
  0
LINE
  5
8511
330
18
100
AcDbEntity
  8
HON
100
AcDbLine
 10
368.5269110380111
 20
61.25990699271153
 30
0.0
 11
369.4044289562541
 21
60.30143773683324
 31
0.0
  0
LINE
  5
8512
330
18
100
AcDbEntity
  8
HON
100
AcDbLine
 10
369.0807510246839
 20
61.55387058143844
 30
0.0
 11
370.175633888294
 21
60.22759301946883
 31
0.0
  0
LINE
  5
8513
330
18
100
AcDbEntity
  8
HON
100
AcDbLine
 10
370.175633888294
 20
60.22759301946883
 30
0.0
 11
370.1591037427595
 21
61.98281608175659
 31
0.0
  0
LINE
  5
8514
330
18
100
AcDbEntity
  8
HON
100
AcDbLine
 10
370.1591037427595
 20
61.98281608175659
 30
0.0
 11
371.305711161204
 21
60.61531919410902
 31
0.0
  0
LINE
  5
8515
330
18
100
AcDbEntity
  8
HON
100
AcDbLine
 10
371.305711161204
 20
60.61531919410902
 30
0.0
 11
371.5795774077476
 21
62.33043640373637
 31
0.0
  0
LINE
  5
8516
330
18
100
AcDbEntity
  8
HON
100
AcDbLine
 10
371.5795774077476
 20
62.33043640373637
 30
0.0
 11
373.0401997788929
 21
60.59305450103841
 31
0.0
  0
LINE
  5
8517
330
18
100
AcDbEntity
  8
HON
100
AcDbLine
 10
373.0401997788929
 20
60.59305450103841
 30
0.0
 11
373.4634575433982
 21
62.75671798253336
 31
0.0
  0
LINE
  5
8518
330
18
100
AcDbEntity
  8
HON
100
AcDbLine
 10
373.4634575433982
 20
62.75671798253336
 30
0.0
 11
374.9786334131938
 21
60.87420809327034
 31
0.0
  0
LINE
  5
8519
330
18
100
AcDbEntity
  8
HON
100
AcDbLine
 10
374.9786334131938
 20
60.87420809327034
 30
0.0
 11
375.8193738402085
 21
63.23582166062317
 31
0.0
  0
LINE
  5
851A
330
18
100
AcDbEntity
  8
HON
100
AcDbLine
 10
375.8193738402085
 20
63.23582166062317
 30
0.0
 11
377.5489304089322
 21
61.00213116089128
 31
0.0
  0
LINE
  5
851B
330
18
100
AcDbEntity
  8
HON
100
AcDbLine
 10
377.5489304089322
 20
61.00213116089128
 30
0.0
 11
378.5274989205488
 21
63.54969289454186
 31
0.0
  0
LINE
  5
851C
330
18
100
AcDbEntity
  8
HON
100
AcDbLine
 10
378.5274989205488
 20
63.54969289454186
 30
0.0
 11
380.0524540566519
 21
61.27228298153807
 31
0.0
  0
LINE
  5
851D
330
18
100
AcDbEntity
  8
HON
100
AcDbLine
 10
367.6320309430473
 20
58.3509757586113
 30
0.0
 11
367.5744244977402
 21
55.48815879142296
 31
0.0
  0
LINE
  5
851E
330
18
100
AcDbEntity
  8
HON
100
AcDbLine
 10
367.5744244977402
 20
55.48815879142296
 30
0.0
 11
368.0077254396299
 21
58.60452953923107
 31
0.0
  0
LINE
  5
851F
330
18
100
AcDbEntity
  8
HON
100
AcDbLine
 10
368.0077254396299
 20
58.60452953923107
 30
0.0
 11
368.2265567606998
 21
55.88216659366174
 31
0.0
  0
LINE
  5
8520
330
18
100
AcDbEntity
  8
HON
100
AcDbLine
 10
368.2265567606998
 20
55.88216659366174
 30
0.0
 11
368.676419504586
 21
59.13214024947285
 31
0.0
  0
LINE
  5
8521
330
18
100
AcDbEntity
  8
HON
100
AcDbLine
 10
368.676419504586
 20
59.13214024947285
 30
0.0
 11
369.4724121713741
 21
56.51763438171349
 31
0.0
  0
LINE
  5
8522
330
18
100
AcDbEntity
  8
HON
100
AcDbLine
 10
369.4724121713741
 20
56.51763438171349
 30
0.0
 11
369.8713489545796
 21
59.60419645308923
 31
0.0
  0
LINE
  5
8523
330
18
100
AcDbEntity
  8
HON
100
AcDbLine
 10
369.8713489545796
 20
59.60419645308923
 30
0.0
 11
371.3221173048721
 21
57.18311483580567
 31
0.0
  0
LINE
  5
8524
330
18
100
AcDbEntity
  8
HON
100
AcDbLine
 10
371.3221173048721
 20
57.18311483580567
 30
0.0
 11
371.7284063718314
 21
60.04474234403335
 31
0.0
  0
LINE
  5
8525
330
18
100
AcDbEntity
  8
HON
100
AcDbLine
 10
371.7284063718314
 20
60.04474234403335
 30
0.0
 11
373.4008849784302
 21
57.7235523118203
 31
0.0
  0
LINE
  5
8526
330
18
100
AcDbEntity
  8
HON
100
AcDbLine
 10
373.4008849784302
 20
57.7235523118203
 30
0.0
 11
373.8638039033438
 21
60.38973986995973
 31
0.0
  0
LINE
  5
8527
330
18
100
AcDbEntity
  8
HON
100
AcDbLine
 10
373.8638039033438
 20
60.38973986995973
 30
0.0
 11
375.5681314971796
 21
58.0714901800626
 31
0.0
  0
LINE
  5
8528
330
18
100
AcDbEntity
  8
HON
100
AcDbLine
 10
375.5681314971796
 20
58.0714901800626
 30
0.0
 11
376.0922750336201
 21
60.68705498344809
 31
0.0
  0
LINE
  5
8529
330
18
100
AcDbEntity
  8
HON
100
AcDbLine
 10
376.0922750336201
 20
60.68705498344809
 30
0.0
 11
377.8708083407844
 21
58.46230449915549
 31
0.0
  0
LINE
  5
852A
330
18
100
AcDbEntity
  8
HON
100
AcDbLine
 10
377.8708083407844
 20
58.46230449915549
 30
0.0
 11
378.5533911432474
 21
60.87927187851403
 31
0.0
  0
LINE
  5
852B
330
18
100
AcDbEntity
  8
HON
100
AcDbLine
 10
378.5533911432474
 20
60.87927187851403
 30
0.0
 11
380.0542012774774
 21
58.61905219409038
 31
0.0
  0
LINE
  5
852C
330
18
100
AcDbEntity
  8
HON
100
AcDbLine
 10
367.6320309430491
 20
58.3509757586113
 30
0.0
 11
368.8930986800667
 21
60.23325951139179
 31
0.0
  0
LINE
  5
852D
330
18
100
AcDbEntity
  8
HON
100
AcDbLine
 10
368.0077254396299
 20
58.60452953923107
 30
0.0
 11
369.265986019617
 21
60.43711708620378
 31
0.0
  0
LINE
  5
852E
330
18
100
AcDbEntity
  8
HON
100
AcDbLine
 10
368.676419504586
 20
59.13214024947285
 30
0.0
 11
369.9201444226317
 21
60.5683462901585
 31
0.0
  0
LINE
  5
852F
330
18
100
AcDbEntity
  8
HON
100
AcDbLine
 10
369.8713489545796
 20
59.60419645308923
 30
0.0
 11
371.1325677336124
 21
60.83918285511811
 31
0.0
  0
LINE
  5
8530
330
18
100
AcDbEntity
  8
HON
100
AcDbLine
 10
371.7284063718314
 20
60.04474234403335
 30
0.0
 11
372.7024298481963
 21
60.99482526427948
 31
0.0
  0
LINE
  5
8531
330
18
100
AcDbEntity
  8
HON
100
AcDbLine
 10
373.8638039033438
 20
60.38973986995973
 30
0.0
 11
374.6549472289633
 21
61.27636764120018
 31
0.0
  0
LINE
  5
8532
330
18
100
AcDbEntity
  8
HON
100
AcDbLine
 10
376.0922750336201
 20
60.68705498344809
 30
0.0
 11
377.0938044761122
 21
61.58991793277403
 31
0.0
  0
LINE
  5
8533
330
18
100
AcDbEntity
  8
HON
100
AcDbLine
 10
378.5533911432474
 20
60.87927187851403
 30
0.0
 11
379.6799321233
 21
61.82861747541267
 31
0.0
  0
LINE
  5
8534
330
18
100
AcDbEntity
  8
HON
100
AcDbLine
 10
369.0356039999977
 20
64.94392266731722
 30
0.0
 11
369.3996941009616
 21
63.86228572293714
 31
0.0
  0
LINE
  5
8535
330
18
100
AcDbEntity
  8
HON
100
AcDbLine
 10
378.1719889352542
 20
66.21697820090469
 30
0.0
 11
378.9001648856945
 21
67.18527833972314
 31
0.0
  0
LINE
  5
8536
330
18
100
AcDbEntity
  8
HON
100
AcDbLine
 10
375.878380778079
 20
65.9888201961827
 30
0.0
 11
376.9748483345673
 21
66.92752665523642
 31
0.0
  0
LINE
  5
8537
330
18
100
AcDbEntity
  8
HON
100
AcDbLine
 10
373.4681658604429
 20
65.68761193034936
 30
0.0
 11
374.7437417834287
 21
66.77946497065625
 31
0.0
  0
LINE
  5
8538
330
18
100
AcDbEntity
  8
HON
100
AcDbLine
 10
372.61310108455
 20
66.5726525392862
 30
0.0
 11
371.846788542988
 21
65.32106375556998
 31
0.0
  0
LINE
  5
8539
330
18
100
AcDbEntity
  8
HON
100
AcDbLine
 10
370.7328397223562
 20
64.91264502594879
 30
0.0
 11
371.2828426082858
 21
66.22110659619886
 31
0.0
  0
LINE
  5
853A
330
18
100
AcDbEntity
  8
HON
100
AcDbLine
 10
370.0739163400474
 20
64.50373474333957
 30
0.0
 11
370.0688535604848
 21
65.70724033814315
 31
0.0
  0
LINE
  5
853B
330
18
100
AcDbEntity
  8
HON
100
AcDbLine
 10
369.6531145859924
 20
64.00104715811051
 30
0.0
 11
369.4891199907295
 21
65.54059960959477
 31
0.0
  0
LINE
  5
853C
330
18
100
AcDbEntity
  8
HON
100
AcDbLine
 10
377.5489304089322
 20
61.00213116089128
 30
0.0
 11
377.8708083407844
 21
58.46230449915549
 31
0.0
  0
LINE
  5
853D
330
18
100
AcDbEntity
  8
HON
100
AcDbLine
 10
374.9786334131938
 20
60.87420809327034
 30
0.0
 11
375.5681314971796
 21
58.0714901800626
 31
0.0
  0
LINE
  5
853E
330
18
100
AcDbEntity
  8
HON
100
AcDbLine
 10
373.0401997788929
 20
60.59305450103841
 30
0.0
 11
373.4008849784302
 21
57.7235523118203
 31
0.0
  0
LINE
  5
853F
330
18
100
AcDbEntity
  8
HON
100
AcDbLine
 10
371.305711161204
 20
60.61531919410902
 30
0.0
 11
371.3221173048721
 21
57.18311483580567
 31
0.0
  0
LINE
  5
8540
330
18
100
AcDbEntity
  8
HON
100
AcDbLine
 10
378.9029504049056
 20
67.18318358829368
 30
0.0
 11
380.0487649796985
 21
66.32151417033185
 31
0.0
  0
LINE
  5
8541
330
18
100
AcDbEntity
  8
HON
100
AcDbLine
 10
376.9748483345673
 20
66.92752665523642
 30
0.0
 11
378.1811790273339
 21
66.14802768311403
 31
0.0
  0
LINE
  5
8542
330
18
100
AcDbEntity
  8
HON
100
AcDbLine
 10
374.7437417834287
 20
66.77946497065625
 30
0.0
 11
375.8793252938474
 21
66.03288705712714
 31
0.0
  0
LINE
  5
8543
330
18
100
AcDbEntity
  8
HON
100
AcDbLine
 10
372.61310108455
 20
66.5726525392862
 30
0.0
 11
373.4681658604429
 21
65.68761193034936
 31
0.0
  0
LINE
  5
8544
330
18
100
AcDbEntity
  8
HON
100
AcDbLine
 10
377.8646462738332
 20
57.27248347710212
 30
0.0
 11
374.5978438348855
 21
54.06250252714619
 31
0.0
  0
LINE
  5
8545
330
18
100
AcDbEntity
  8
HON
100
AcDbLine
 10
374.5978438348855
 20
54.06250252714619
 30
0.0
 11
375.618285338857
 21
57.25967466642998
 31
0.0
  0
LINE
  5
8546
330
18
100
AcDbEntity
  8
HON
100
AcDbLine
 10
375.618285338857
 20
57.25967466642998
 30
0.0
 11
371.9038797425171
 21
53.28376134537632
 31
0.0
  0
LINE
  5
8547
330
18
100
AcDbEntity
  8
HON
100
AcDbLine
 10
371.9038797425171
 20
53.28376134537632
 30
0.0
 11
373.2900013423957
 21
56.86907543831205
 31
0.0
  0
LINE
  5
8548
330
18
100
AcDbEntity
  8
HON
100
AcDbLine
 10
373.2900013423957
 20
56.86907543831205
 30
0.0
 11
369.8617957033882
 21
52.42825429805328
 31
0.0
  0
LINE
  5
8549
330
18
100
AcDbEntity
  8
HON
100
AcDbLine
 10
369.8617957033882
 20
52.42825429805328
 30
0.0
 11
371.0370954723901
 21
56.47181963710739
 31
0.0
  0
LINE
  5
854A
330
18
100
AcDbEntity
  8
HON
100
AcDbLine
 10
371.0370954723901
 20
56.47181963710739
 30
0.0
 11
368.2946651851132
 21
51.77969386600182
 31
0.0
  0
LINE
  5
854B
330
18
100
AcDbEntity
  8
HON
100
AcDbLine
 10
368.2946651851132
 20
51.77969386600182
 30
0.0
 11
369.3313003441824
 21
55.84580246852477
 31
0.0
  0
LINE
  5
854C
330
18
100
AcDbEntity
  8
HON
100
AcDbLine
 10
369.3313003441824
 20
55.84580246852477
 30
0.0
 11
367.363370666805
 21
51.23734972875775
 31
0.0
  0
LINE
  5
854D
330
18
100
AcDbEntity
  8
HON
100
AcDbLine
 10
366.8431876348466
 20
50.77497326563264
 30
0.0
 11
367.9908281106334
 21
54.24802371131647
 31
0.0
  0
LINE
  5
854E
330
18
100
AcDbEntity
  8
HON
100
AcDbLine
 10
377.8646462738332
 20
57.27248347710212
 30
0.0
 11
377.6475052255307
 21
54.30347272997517
 31
0.0
  0
LINE
  5
854F
330
18
100
AcDbEntity
  8
HON
100
AcDbLine
 10
377.8708083407844
 20
58.46230449915549
 30
0.0
 11
378.8136465982777
 21
56.3381875692163
 31
0.0
  0
LINE
  5
8550
330
18
100
AcDbEntity
  8
HON
100
AcDbLine
 10
375.5681314971796
 20
58.0714901800626
 30
0.0
 11
376.6096627009672
 21
56.02212981718423
 31
0.0
  0
LINE
  5
8551
330
18
100
AcDbEntity
  8
HON
100
AcDbLine
 10
373.4008849784302
 20
57.7235523118203
 30
0.0
 11
374.1687462606376
 21
55.81176430570178
 31
0.0
  0
LINE
  5
8552
330
18
100
AcDbEntity
  8
HON
100
AcDbLine
 10
371.3221173048721
 20
57.18311483580567
 30
0.0
 11
372.0076146187919
 21
55.54905619420117
 31
0.0
  0
LINE
  5
8553
330
18
100
AcDbEntity
  8
HON
100
AcDbLine
 10
369.4724121713741
 20
56.51763438171349
 30
0.0
 11
370.1496094037746
 21
54.96445121945964
 31
0.0
  0
LINE
  5
8554
330
18
100
AcDbEntity
  8
HON
100
AcDbLine
 10
368.2265567606998
 20
55.88216659366174
 30
0.0
 11
368.9895798239347
 21
54.19586227831371
 31
0.0
  0
LINE
  5
8555
330
18
100
AcDbEntity
  8
HON
100
AcDbLine
 10
367.363370666805
 20
51.23734972875775
 30
0.0
 11
368.224285543977
 21
54.86456630994928
 31
0.0
  0
LINE
  5
8556
330
18
100
AcDbEntity
  8
HON
100
AcDbLine
 10
377.8646462738332
 20
57.27248347710212
 30
0.0
 11
379.1812737698972
 21
55.95532814888485
 31
0.0
  0
LINE
  5
8557
330
18
100
AcDbEntity
  8
HON
100
AcDbLine
 10
375.618285338857
 20
57.25967466642998
 30
0.0
 11
376.5359650895814
 21
55.93619844269835
 31
0.0
  0
LINE
  5
8558
330
18
100
AcDbEntity
  8
HON
100
AcDbLine
 10
373.2900013423957
 20
56.86907543831205
 30
0.0
 11
374.1341837935859
 21
55.76809747086247
 31
0.0
  0
LINE
  5
8559
330
18
100
AcDbEntity
  8
HON
100
AcDbLine
 10
371.0370954723901
 20
56.47181963710739
 30
0.0
 11
372.0571917354052
 21
55.39749960392021
 31
0.0
  0
LINE
  5
855A
330
18
100
AcDbEntity
  8
HON
100
AcDbLine
 10
369.3313003441824
 20
55.84580246852477
 30
0.0
 11
370.2613235891047
 21
54.69722224246345
 31
0.0
  0
LINE
  5
855B
330
18
100
AcDbEntity
  8
HON
100
AcDbLine
 10
368.224285543977
 20
54.86456630994928
 30
0.0
 11
369.0233407299408
 21
54.09611953053775
 31
0.0
  0
LINE
  5
855C
330
18
100
AcDbEntity
  8
HON
100
AcDbLine
 10
377.8646462738332
 20
57.27248347710212
 30
0.0
 11
378.3434677089924
 21
57.58740746905335
 31
0.0
  0
LINE
  5
855D
330
18
100
AcDbEntity
  8
HON
100
AcDbLine
 10
375.618285338857
 20
57.25967466642998
 30
0.0
 11
376.0662036590409
 21
57.58160294639731
 31
0.0
  0
LINE
  5
855E
330
18
100
AcDbEntity
  8
HON
100
AcDbLine
 10
366.9455433614446
 20
49.36576059877973
 30
0.0
 11
366.8504698394306
 21
50.79154058415645
 31
0.0
  0
LINE
  5
855F
330
18
100
AcDbEntity
  8
HON
100
AcDbLine
 10
367.4561615176415
 20
49.78017529227748
 30
0.0
 11
367.3706251250976
 21
51.25034571807612
 31
0.0
  0
LINE
  5
8560
330
18
100
AcDbEntity
  8
HON
100
AcDbLine
 10
368.3813915925737
 20
50.42206605136982
 30
0.0
 11
368.301904651659
 21
51.79076021125059
 31
0.0
  0
LINE
  5
8561
330
18
100
AcDbEntity
  8
HON
100
AcDbLine
 10
370.0050864227621
 20
51.09565461683871
 30
0.0
 11
369.8690289380236
 21
52.43851851044985
 31
0.0
  0
LINE
  5
8562
330
18
100
AcDbEntity
  8
HON
100
AcDbLine
 10
372.0228123575259
 20
51.52639490907188
 30
0.0
 11
371.9111187660244
 21
53.29477066549827
 31
0.0
  0
LINE
  5
8563
330
18
100
AcDbEntity
  8
HON
100
AcDbLine
 10
374.6924294934113
 20
51.85574414997484
 30
0.0
 11
374.6050954501304
 21
54.075132577104
 31
0.0
  0
LINE
  5
8564
330
18
100
AcDbEntity
  8
HON
100
AcDbLine
 10
373.2900013423957
 20
56.86907543831205
 30
0.0
 11
373.6912534163264
 21
57.27763951050713
 31
0.0
  0
LINE
  5
8565
330
18
100
AcDbEntity
  8
HON
100
AcDbLine
 10
371.0370954723901
 20
56.47181963710739
 30
0.0
 11
371.3778526071862
 21
56.88038370930247
 31
0.0
  0
LINE
  5
8566
330
18
100
AcDbEntity
  8
HON
100
AcDbLine
 10
369.3313003441824
 20
55.84580246852477
 30
0.0
 11
369.5856772909872
 21
56.25436654071984
 31
0.0
  0
LINE
  5
8567
330
18
100
AcDbEntity
  8
HON
100
AcDbLine
 10
368.224285543977
 20
54.86456630994928
 30
0.0
 11
368.3764862074247
 21
55.27313038214436
 31
0.0
  0
LINE
  5
8568
330
18
100
AcDbEntity
  8
HON
100
AcDbLine
 10
373.12794349703
 20
40.45488314952183
 30
0.0
 11
375.8815065398073
 21
38.121945110625
 31
0.0
  0
LINE
  5
8569
330
18
100
AcDbEntity
  8
HON
100
AcDbLine
 10
369.6020599713472
 20
44.22577393976519
 30
0.0
 11
368.5422562689753
 21
45.68268776755632
 31
0.0
  0
LINE
  5
856A
330
18
100
AcDbEntity
  8
HON
100
AcDbLine
 10
370.3553311459298
 20
42.60030262869316
 30
0.0
 11
371.8700925345354
 21
40.41398788946992
 31
0.0
  0
LINE
  5
856B
330
18
100
AcDbEntity
  8
HON
100
AcDbLine
 10
370.3553311459298
 20
42.60030262869316
 30
0.0
 11
370.5035127775416
 21
43.95438343938315
 31
0.0
  0
LINE
  5
856C
330
18
100
AcDbEntity
  8
HON
100
AcDbLine
 10
368.5422562689753
 20
45.68268776755632
 30
0.0
 11
368.4978351862617
 21
47.16357105936424
 31
0.0
  0
LINE
  5
856D
330
18
100
AcDbEntity
  8
HON
100
AcDbLine
 10
379.2462157364632
 20
41.07907578286051
 30
0.0
 11
380.0398220935538
 21
38.82444573100895
 31
0.0
  0
LINE
  5
856E
330
18
100
AcDbEntity
  8
HON
100
AcDbLine
 10
379.2462157364632
 20
41.07907578286051
 30
0.0
 11
379.2047483404974
 21
38.81014250623469
 31
0.0
  0
LINE
  5
856F
330
18
100
AcDbEntity
  8
HON
100
AcDbLine
 10
379.2047483404974
 20
38.81014250623469
 30
0.0
 11
377.7526877017415
 21
41.0271817837571
 31
0.0
  0
LINE
  5
8570
330
18
100
AcDbEntity
  8
HON
100
AcDbLine
 10
377.7526877017415
 20
41.0271817837571
 30
0.0
 11
378.2983934333213
 21
38.75989465480291
 31
0.0
  0
LINE
  5
8571
330
18
100
AcDbEntity
  8
HON
100
AcDbLine
 10
378.2983934333213
 20
38.75989465480291
 30
0.0
 11
376.3762443817784
 21
41.01775240427071
 31
0.0
  0
LINE
  5
8572
330
18
100
AcDbEntity
  8
HON
100
AcDbLine
 10
376.3762443817784
 20
41.01775240427071
 30
0.0
 11
377.4764233273079
 21
38.67511993297978
 31
0.0
  0
LINE
  5
8573
330
18
100
AcDbEntity
  8
HON
100
AcDbLine
 10
377.4764233273079
 20
38.67511993297978
 30
0.0
 11
375.1697817214397
 21
40.87104103291915
 31
0.0
  0
LINE
  5
8574
330
18
100
AcDbEntity
  8
HON
100
AcDbLine
 10
375.1697817214397
 20
40.87104103291915
 30
0.0
 11
376.8106015670316
 21
38.56459112043797
 31
0.0
  0
LINE
  5
8575
330
18
100
AcDbEntity
  8
HON
100
AcDbLine
 10
376.8106015670316
 20
38.56459112043797
 30
0.0
 11
374.1796634041791
 21
41.0176028107295
 31
0.0
  0
LINE
  5
8576
330
18
100
AcDbEntity
  8
HON
100
AcDbLine
 10
374.1796634041791
 20
41.0176028107295
 30
0.0
 11
376.3255958821599
 21
38.43790283109468
 31
0.0
  0
LINE
  5
8577
330
18
100
AcDbEntity
  8
HON
100
AcDbLine
 10
376.3255958821599
 20
38.43790283109468
 30
0.0
 11
373.5874332480332
 21
40.78230235985268
 31
0.0
  0
LINE
  5
8578
330
18
100
AcDbEntity
  8
HON
100
AcDbLine
 10
373.5607165264998
 20
40.79212362039164
 30
0.0
 11
376.0265889065547
 21
38.30603488165855
 31
0.0
  0
LINE
  5
8579
330
18
100
AcDbEntity
  8
HON
100
AcDbLine
 10
376.0265889065547
 20
38.30603488165855
 30
0.0
 11
373.4299920584624
 21
40.59280529542468
 31
0.0
  0
LINE
  5
857A
330
18
100
AcDbEntity
  8
HON
100
AcDbLine
 10
373.3893674756061
 20
40.60689437099847
 30
0.0
 11
375.8987022756289
 21
38.18619445621573
 31
0.0
  0
LINE
  5
857B
330
18
100
AcDbEntity
  8
HON
100
AcDbLine
 10
375.8987022756289
 20
38.18619445621573
 30
0.0
 11
373.3142651969872
 21
40.47930641176082
 31
0.0
  0
LINE
  5
857C
330
18
100
AcDbEntity
  8
HON
100
AcDbLine
 10
373.2973356886494
 20
40.48472706514314
 30
0.0
 11
375.8815065398073
 21
38.12194511062319
 31
0.0
  0
LINE
  5
857D
330
18
100
AcDbEntity
  8
HON
100
AcDbLine
 10
379.9930812646715
 20
41.07907578286051
 30
0.0
 11
377.8185084990407
 21
43.64506391362977
 31
0.0
  0
LINE
  5
857E
330
18
100
AcDbEntity
  8
HON
100
AcDbLine
 10
377.8185084990407
 20
43.64506391362977
 30
0.0
 11
378.4395788655827
 21
41.0271817837571
 31
0.0
  0
LINE
  5
857F
330
18
100
AcDbEntity
  8
HON
100
AcDbLine
 10
378.4395788655827
 20
41.0271817837571
 30
0.0
 11
375.9355126577418
 21
43.50419666324945
 31
0.0
  0
LINE
  5
8580
330
18
100
AcDbEntity
  8
HON
100
AcDbLine
 10
375.9355126577418
 20
43.50419666324945
 30
0.0
 11
376.9008320874352
 21
41.01775240427071
 31
0.0
  0
LINE
  5
8581
330
18
100
AcDbEntity
  8
HON
100
AcDbLine
 10
376.9008320874352
 20
41.01775240427071
 30
0.0
 11
374.3465494434247
 21
43.50885400880236
 31
0.0
  0
LINE
  5
8582
330
18
100
AcDbEntity
  8
HON
100
AcDbLine
 10
374.3465494434247
 20
43.50885400880236
 30
0.0
 11
375.4827149348555
 21
40.93251400505017
 31
0.0
  0
LINE
  5
8583
330
18
100
AcDbEntity
  8
HON
100
AcDbLine
 10
375.4827149348555
 20
40.93251400505017
 30
0.0
 11
372.9171915296872
 21
43.33127650365224
 31
0.0
  0
LINE
  5
8584
330
18
100
AcDbEntity
  8
HON
100
AcDbLine
 10
372.9171915296872
 20
43.33127650365224
 30
0.0
 11
374.239724854732
 21
41.0176028107295
 31
0.0
  0
LINE
  5
8585
330
18
100
AcDbEntity
  8
HON
100
AcDbLine
 10
374.239724854732
 20
41.0176028107295
 30
0.0
 11
371.7680228222477
 21
43.14797455236351
 31
0.0
  0
LINE
  5
8586
330
18
100
AcDbEntity
  8
HON
100
AcDbLine
 10
371.7680228222477
 20
43.14797455236351
 30
0.0
 11
373.2196292587621
 21
40.91750977296635
 31
0.0
  0
LINE
  5
8587
330
18
100
AcDbEntity
  8
HON
100
AcDbLine
 10
373.2196292587621
 20
40.91750977296635
 30
0.0
 11
371.0352546719139
 21
42.96078316902515
 31
0.0
  0
LINE
  5
8588
330
18
100
AcDbEntity
  8
HON
100
AcDbLine
 10
371.0352546719139
 20
42.96078316902515
 30
0.0
 11
372.5186734623392
 21
40.73479622293473
 31
0.0
  0
LINE
  5
8589
330
18
100
AcDbEntity
  8
HON
100
AcDbLine
 10
372.5186734623392
 20
40.73479622293473
 30
0.0
 11
370.5831838402235
 21
42.73644072878835
 31
0.0
  0
LINE
  5
858A
330
18
100
AcDbEntity
  8
HON
100
AcDbLine
 10
370.5831838402235
 20
42.73644072878835
 30
0.0
 11
372.0308366910128
 21
40.5645823307301
 31
0.0
  0
LINE
  5
858B
330
18
100
AcDbEntity
  8
HON
100
AcDbLine
 10
372.0308366910128
 20
40.5645823307301
 30
0.0
 11
370.3553311459298
 21
42.60030262869316
 31
0.0
  0
LINE
  5
858C
330
18
100
AcDbEntity
  8
HON
100
AcDbLine
 10
370.5831838402235
 20
42.73644072878835
 30
0.0
 11
370.8020450371666
 21
44.40476994946095
 31
0.0
  0
LINE
  5
858D
330
18
100
AcDbEntity
  8
HON
100
AcDbLine
 10
371.0352546719139
 20
42.96078316902515
 30
0.0
 11
371.3154105012661
 21
44.88561460827134
 31
0.0
  0
LINE
  5
858E
330
18
100
AcDbEntity
  8
HON
100
AcDbLine
 10
371.3154105012661
 20
44.88561460827134
 30
0.0
 11
371.7680228222477
 21
43.14797455236351
 31
0.0
  0
LINE
  5
858F
330
18
100
AcDbEntity
  8
HON
100
AcDbLine
 10
371.7680228222477
 20
43.14797455236351
 30
0.0
 11
372.1797005572796
 21
45.04252825906462
 31
0.0
  0
LINE
  5
8590
330
18
100
AcDbEntity
  8
HON
100
AcDbLine
 10
372.1797005572796
 20
45.04252825906462
 30
0.0
 11
372.9171915296872
 21
43.33127650365224
 31
0.0
  0
LINE
  5
8591
330
18
100
AcDbEntity
  8
HON
100
AcDbLine
 10
372.9171915296872
 20
43.33127650365224
 30
0.0
 11
373.371560799508
 21
45.07197325423351
 31
0.0
  0
LINE
  5
8592
330
18
100
AcDbEntity
  8
HON
100
AcDbLine
 10
373.371560799508
 20
45.07197325423351
 30
0.0
 11
374.3465494434247
 21
43.50885400880236
 31
0.0
  0
LINE
  5
8593
330
18
100
AcDbEntity
  8
HON
100
AcDbLine
 10
374.3465494434247
 20
43.50885400880236
 30
0.0
 11
374.9156435114753
 21
45.17580613050324
 31
0.0
  0
LINE
  5
8594
330
18
100
AcDbEntity
  8
HON
100
AcDbLine
 10
374.9156435114753
 20
45.17580613050324
 30
0.0
 11
375.9355126577418
 21
43.50419666324945
 31
0.0
  0
LINE
  5
8595
330
18
100
AcDbEntity
  8
HON
100
AcDbLine
 10
375.9355126577418
 20
43.50419666324945
 30
0.0
 11
376.7888807620809
 21
45.20008017562997
 31
0.0
  0
LINE
  5
8596
330
18
100
AcDbEntity
  8
HON
100
AcDbLine
 10
376.7888807620809
 20
45.20008017562997
 30
0.0
 11
377.8185084990407
 21
43.64506391362977
 31
0.0
  0
LINE
  5
8597
330
18
100
AcDbEntity
  8
HON
100
AcDbLine
 10
377.8185084990407
 20
43.64506391362977
 30
0.0
 11
378.7495184321822
 21
45.07262149290784
 31
0.0
  0
LINE
  5
8598
330
18
100
AcDbEntity
  8
HON
100
AcDbLine
 10
378.7495184321822
 20
45.07262149290784
 30
0.0
 11
380.0426465567041
 21
43.76632942378694
 31
0.0
  0
LINE
  5
8599
330
18
100
AcDbEntity
  8
HON
100
AcDbLine
 10
369.6020599713472
 20
44.22577393976519
 30
0.0
 11
368.8872465916582
 21
46.0360227231182
 31
0.0
  0
LINE
  5
859A
330
18
100
AcDbEntity
  8
HON
100
AcDbLine
 10
368.8872465916582
 20
46.0360227231182
 30
0.0
 11
369.8798874964766
 21
44.50634659736045
 31
0.0
  0
LINE
  5
859B
330
18
100
AcDbEntity
  8
HON
100
AcDbLine
 10
369.8798874964766
 20
44.50634659736045
 30
0.0
 11
369.4916145000141
 21
46.42887031910379
 31
0.0
  0
LINE
  5
859C
330
18
100
AcDbEntity
  8
HON
100
AcDbLine
 10
369.4916145000141
 20
46.42887031910379
 30
0.0
 11
370.4501639997568
 21
44.80668056162051
 31
0.0
  0
LINE
  5
859D
330
18
100
AcDbEntity
  8
HON
100
AcDbLine
 10
370.4501639997568
 20
44.80668056162051
 30
0.0
 11
370.627421296366
 21
46.8323639887027
 31
0.0
  0
LINE
  5
859E
330
18
100
AcDbEntity
  8
HON
100
AcDbLine
 10
370.627421296366
 20
46.8323639887027
 30
0.0
 11
371.3211127826223
 21
45.00633222760791
 31
0.0
  0
LINE
  5
859F
330
18
100
AcDbEntity
  8
HON
100
AcDbLine
 10
371.3211127826223
 20
45.00633222760791
 30
0.0
 11
372.0925030139285
 21
47.22097310104857
 31
0.0
  0
LINE
  5
85A0
330
18
100
AcDbEntity
  8
HON
100
AcDbLine
 10
372.0925030139285
 20
47.22097310104857
 30
0.0
 11
372.6753443958721
 21
45.20726675280331
 31
0.0
  0
LINE
  5
85A1
330
18
100
AcDbEntity
  8
HON
100
AcDbLine
 10
372.6753443958721
 20
45.20726675280331
 30
0.0
 11
373.8425115309171
 21
47.36028956506072
 31
0.0
  0
LINE
  5
85A2
330
18
100
AcDbEntity
  8
HON
100
AcDbLine
 10
373.8425115309171
 20
47.36028956506072
 30
0.0
 11
374.3163603198561
 21
45.34581338763257
 31
0.0
  0
LINE
  5
85A3
330
18
100
AcDbEntity
  8
HON
100
AcDbLine
 10
374.3163603198561
 20
45.34581338763257
 30
0.0
 11
375.880136910783
 21
47.50573437777222
 31
0.0
  0
LINE
  5
85A4
330
18
100
AcDbEntity
  8
HON
100
AcDbLine
 10
375.880136910783
 20
47.50573437777222
 30
0.0
 11
376.0974330554207
 21
45.48453940846286
 31
0.0
  0
LINE
  5
85A5
330
18
100
AcDbEntity
  8
HON
100
AcDbLine
 10
376.0974330554207
 20
45.48453940846286
 30
0.0
 11
377.9013127828282
 21
47.71914630532285
 31
0.0
  0
LINE
  5
85A6
330
18
100
AcDbEntity
  8
HON
100
AcDbLine
 10
377.9013127828282
 20
47.71914630532285
 30
0.0
 11
378.0801396963914
 21
45.58480848711099
 31
0.0
  0
LINE
  5
85A7
330
18
100
AcDbEntity
  8
HON
100
AcDbLine
 10
378.0801396963914
 20
45.58480848711099
 30
0.0
 11
380.0726287099703
 21
48.03483177019427
 31
0.0
  0
LINE
  5
85A8
330
18
100
AcDbEntity
  8
HON
100
AcDbLine
 10
369.602059971349
 20
44.22577393976337
 30
0.0
 11
370.4855790374647
 21
43.80266011451261
 31
0.0
  0
LINE
  5
85A9
330
18
100
AcDbEntity
  8
HON
100
AcDbLine
 10
369.8798874964766
 20
44.50634659736045
 30
0.0
 11
370.78219303734
 21
44.0785205755916
 31
0.0
  0
LINE
  5
85AA
330
18
100
AcDbEntity
  8
HON
100
AcDbLine
 10
370.4501639997568
 20
44.80668056162051
 30
0.0
 11
371.2016100505778
 21
44.12582165538572
 31
0.0
  0
LINE
  5
85AB
330
18
100
AcDbEntity
  8
HON
100
AcDbLine
 10
371.3211127826223
 20
45.00633222760791
 30
0.0
 11
372.0434966671135
 21
44.49649618547357
 31
0.0
  0
LINE
  5
85AC
330
18
100
AcDbEntity
  8
HON
100
AcDbLine
 10
372.6753443958721
 20
45.20726675280331
 30
0.0
 11
373.2291946597641
 21
44.6613012909371
 31
0.0
  0
LINE
  5
85AD
330
18
100
AcDbEntity
  8
HON
100
AcDbLine
 10
374.3163603198561
 20
45.34581338763257
 30
0.0
 11
374.7226652648594
 21
44.4821361555156
 31
0.0
  0
LINE
  5
85AE
330
18
100
AcDbEntity
  8
HON
100
AcDbLine
 10
376.0974330554207
 20
45.48453940846286
 30
0.0
 11
376.4015340542489
 21
44.47386338922536
 31
0.0
  0
LINE
  5
85AF
330
18
100
AcDbEntity
  8
HON
100
AcDbLine
 10
378.0801396963914
 20
45.58480848711099
 30
0.0
 11
378.274333486145
 21
44.43320187301526
 31
0.0
  0
LINE
  5
85B0
330
18
100
AcDbEntity
  8
HON
100
AcDbLine
 10
373.2769735543268
 20
40.31447132041705
 30
0.0
 11
371.8700925345354
 21
40.41398788946992
 31
0.0
  0
LINE
  5
85B1
330
18
100
AcDbEntity
  8
HON
100
AcDbLine
 10
378.4395788655827
 20
41.0271817837571
 30
0.0
 11
379.2432138092179
 21
40.575861099706
 31
0.0
  0
LINE
  5
85B2
330
18
100
AcDbEntity
  8
HON
100
AcDbLine
 10
376.9008320874352
 20
41.01775240427071
 30
0.0
 11
377.871094640074
 21
40.52396710060259
 31
0.0
  0
LINE
  5
85B3
330
18
100
AcDbEntity
  8
HON
100
AcDbLine
 10
375.4827149348555
 20
40.93251400505017
 30
0.0
 11
376.6065423714506
 21
40.575861099706
 31
0.0
  0
LINE
  5
85B4
330
18
100
AcDbEntity
  8
HON
100
AcDbLine
 10
375.498153037858
 20
40.575861099706
 30
0.0
 11
374.239724854732
 21
41.0176028107295
 31
0.0
  0
LINE
  5
85B5
330
18
100
AcDbEntity
  8
HON
100
AcDbLine
 10
373.2196292587621
 20
40.91750977296635
 30
0.0
 11
374.5885214198031
 21
40.575861099706
 31
0.0
  0
LINE
  5
85B6
330
18
100
AcDbEntity
  8
HON
100
AcDbLine
 10
372.5186734623392
 20
40.73479622293473
 30
0.0
 11
373.912604150232
 21
40.4254298356542
 31
0.0
  0
LINE
  5
85B7
330
18
100
AcDbEntity
  8
HON
100
AcDbLine
 10
372.0308366910128
 20
40.5645823307301
 30
0.0
 11
373.5664705644165
 21
40.39855286292788
 31
0.0
  0
LINE
  5
85B8
330
18
100
AcDbEntity
  8
HON
100
AcDbLine
 10
378.7495184321822
 20
45.07262149290784
 30
0.0
 11
380.0726287099703
 21
48.03483177019427
 31
0.0
  0
LINE
  5
85B9
330
18
100
AcDbEntity
  8
HON
100
AcDbLine
 10
376.7888807620809
 20
45.20008017562997
 30
0.0
 11
377.9013127828282
 21
47.71914630532285
 31
0.0
  0
LINE
  5
85BA
330
18
100
AcDbEntity
  8
HON
100
AcDbLine
 10
374.9156435114753
 20
45.17580613050324
 30
0.0
 11
375.880136910783
 21
47.50573437777222
 31
0.0
  0
LINE
  5
85BB
330
18
100
AcDbEntity
  8
HON
100
AcDbLine
 10
373.371560799508
 20
45.07197325423351
 30
0.0
 11
373.8425115309171
 21
47.36028956506072
 31
0.0
  0
LINE
  5
85BC
330
18
100
AcDbEntity
  8
HON
100
AcDbLine
 10
372.1797005572796
 20
45.04252825906462
 30
0.0
 11
372.0925030139285
 21
47.22097310104857
 31
0.0
  0
LINE
  5
85BD
330
18
100
AcDbEntity
  8
HON
100
AcDbLine
 10
379.2462157364632
 20
41.07907578286051
 30
0.0
 11
379.2462157364632
 21
41.93751091788238
 31
0.0
  0
LINE
  5
85BE
330
18
100
AcDbEntity
  8
HON
100
AcDbLine
 10
377.7526877017415
 20
41.0271817837571
 30
0.0
 11
377.7526877017415
 21
41.73197204771589
 31
0.0
  0
LINE
  5
85BF
330
18
100
AcDbEntity
  8
HON
100
AcDbLine
 10
376.3762443817784
 20
41.01775240427071
 30
0.0
 11
376.3762443817784
 21
41.56350508409253
 31
0.0
  0
LINE
  5
85C0
330
18
100
AcDbEntity
  8
HON
100
AcDbLine
 10
375.1697817214397
 20
40.87104103291915
 30
0.0
 11
375.1697817214397
 21
41.38672783240202
 31
0.0
  0
LINE
  5
85C1
330
18
100
AcDbEntity
  8
HON
100
AcDbLine
 10
380.0776498060356
 20
48.04100585807157
 30
0.0
 11
377.6631011010457
 21
52.22721320620497
 31
0.0
  0
LINE
  5
85C2
330
18
100
AcDbEntity
  8
HON
100
AcDbLine
 10
377.5527733550359
 20
48.12091091893001
 30
0.0
 11
374.6952539565762
 21
51.883702724616
 31
0.0
  0
LINE
  5
85C3
330
18
100
AcDbEntity
  8
HON
100
AcDbLine
 10
374.6952539565762
 20
51.883702724616
 30
0.0
 11
375.4147722702935
 21
47.89744310208937
 31
0.0
  0
LINE
  5
85C4
330
18
100
AcDbEntity
  8
HON
100
AcDbLine
 10
375.4147722702935
 20
47.89744310208937
 30
0.0
 11
372.0256368206944
 21
51.55435348371486
 31
0.0
  0
LINE
  5
85C5
330
18
100
AcDbEntity
  8
HON
100
AcDbLine
 10
372.0256368206944
 20
51.55435348371486
 30
0.0
 11
373.5733980367466
 21
47.7068459724893
 31
0.0
  0
LINE
  5
85C6
330
18
100
AcDbEntity
  8
HON
100
AcDbLine
 10
373.5733980367466
 20
47.7068459724893
 30
0.0
 11
370.007910885927
 21
51.12361319148352
 31
0.0
  0
LINE
  5
85C7
330
18
100
AcDbEntity
  8
HON
100
AcDbLine
 10
370.007910885927
 20
51.12361319148352
 30
0.0
 11
371.8237158689069
 21
47.63056323987496
 31
0.0
  0
LINE
  5
85C8
330
18
100
AcDbEntity
  8
HON
100
AcDbLine
 10
371.8237158689069
 20
47.63056323987496
 30
0.0
 11
368.3842160557422
 21
50.45002462601463
 31
0.0
  0
LINE
  5
85C9
330
18
100
AcDbEntity
  8
HON
100
AcDbLine
 10
368.3842160557422
 20
50.45002462601463
 30
0.0
 11
370.4130186968985
 21
47.19363541403675
 31
0.0
  0
LINE
  5
85CA
330
18
100
AcDbEntity
  8
HON
100
AcDbLine
 10
370.4130186968985
 20
47.19363541403675
 30
0.0
 11
367.4589859808063
 21
49.80813386692045
 31
0.0
  0
LINE
  5
85CB
330
18
100
AcDbEntity
  8
HON
100
AcDbLine
 10
366.9483678246113
 20
49.39371917342453
 30
0.0
 11
368.7171994261887
 21
46.86451965263825
 31
0.0
  0
LINE
  5
85CC
330
18
100
AcDbEntity
  8
HON
100
AcDbLine
 10
369.3834647651899
 20
47.1013760913271
 30
0.0
 11
366.9483678246113
 21
49.39371917342453
 31
0.0
  0
LINE
  5
85CD
330
18
100
AcDbEntity
  8
HON
100
AcDbLine
 10
377.5527733550359
 20
48.12091091893001
 30
0.0
 11
377.6631011010457
 21
52.22721320620497
 31
0.0
  0
LINE
  5
85CE
330
18
100
AcDbEntity
  8
HON
100
AcDbLine
 10
377.9013127828282
 20
47.71914630532285
 30
0.0
 11
378.9129200627783
 21
50.37602317006769
 31
0.0
  0
LINE
  5
85CF
330
18
100
AcDbEntity
  8
HON
100
AcDbLine
 10
375.880136910783
 20
47.50573437777222
 30
0.0
 11
376.2438654312216
 21
50.02580317204103
 31
0.0
  0
LINE
  5
85D0
330
18
100
AcDbEntity
  8
HON
100
AcDbLine
 10
373.8425115309171
 20
47.36028956506072
 30
0.0
 11
374.2877980127294
 21
49.18221406110081
 31
0.0
  0
LINE
  5
85D1
330
18
100
AcDbEntity
  8
HON
100
AcDbLine
 10
372.0925030139285
 20
47.22097310104857
 30
0.0
 11
372.3502018320548
 21
48.85185346501078
 31
0.0
  0
LINE
  5
85D2
330
18
100
AcDbEntity
  8
HON
100
AcDbLine
 10
370.627421296366
 20
46.8323639887027
 30
0.0
 11
370.8097597076946
 21
48.42438436761643
 31
0.0
  0
LINE
  5
85D3
330
18
100
AcDbEntity
  8
HON
100
AcDbLine
 10
369.4916145000141
 20
46.42887031910379
 30
0.0
 11
369.5772613236338
 21
47.91468093220522
 31
0.0
  0
LINE
  5
85D4
330
18
100
AcDbEntity
  8
HON
100
AcDbLine
 10
368.8872465916582
 20
46.0360227231182
 30
0.0
 11
368.8152933734825
 21
47.57958133621343
 31
0.0
  0
LINE
  5
85D5
330
18
100
AcDbEntity
  8
HON
100
AcDbLine
 10
367.4589859808063
 20
49.80813386692045
 30
0.0
 11
369.3834647651899
 21
47.1013760913271
 31
0.0
  0
LINE
  5
85D6
330
18
100
AcDbEntity
  8
HON
100
AcDbLine
 10
377.5527733550359
 20
48.12091091893001
 30
0.0
 11
378.9129200627783
 21
50.37602317006769
 31
0.0
  0
LINE
  5
85D7
330
18
100
AcDbEntity
  8
HON
100
AcDbLine
 10
375.4147722702935
 20
47.89744310208937
 30
0.0
 11
376.2438654312216
 21
50.02580317204103
 31
0.0
  0
LINE
  5
85D8
330
18
100
AcDbEntity
  8
HON
100
AcDbLine
 10
373.5733980367466
 20
47.7068459724893
 30
0.0
 11
374.2877980127294
 21
49.18221406110081
 31
0.0
  0
LINE
  5
85D9
330
18
100
AcDbEntity
  8
HON
100
AcDbLine
 10
371.8237158689069
 20
47.63056323987496
 30
0.0
 11
372.3502018320548
 21
48.85185346501078
 31
0.0
  0
LINE
  5
85DA
330
18
100
AcDbEntity
  8
HON
100
AcDbLine
 10
370.4130186968985
 20
47.19363541403675
 30
0.0
 11
370.8097597076946
 21
48.42438436761643
 31
0.0
  0
LINE
  5
85DB
330
18
100
AcDbEntity
  8
HON
100
AcDbLine
 10
369.3834647651899
 20
47.1013760913271
 30
0.0
 11
369.5772613236338
 21
47.91468093220522
 31
0.0
  0
LINE
  5
85DC
330
18
100
AcDbEntity
  8
HON
100
AcDbLine
 10
368.7171994261887
 20
46.86451965263825
 30
0.0
 11
368.8152933734825
 21
47.57958133621343
 31
0.0
  0
LINE
  5
85DD
330
18
100
AcDbEntity
  8
HON
100
AcDbLine
 10
377.5527733550359
 20
48.12091091893001
 30
0.0
 11
377.9013127828282
 21
47.71914630532285
 31
0.0
  0
LINE
  5
85DE
330
18
100
AcDbEntity
  8
HON
100
AcDbLine
 10
375.4147722702935
 20
47.89744310208937
 30
0.0
 11
375.880136910783
 21
47.50573437777222
 31
0.0
  0
LINE
  5
85DF
330
18
100
AcDbEntity
  8
HON
100
AcDbLine
 10
373.5733980367466
 20
47.7068459724893
 30
0.0
 11
373.8425115309171
 21
47.36028956506072
 31
0.0
  0
LINE
  5
85E0
330
18
100
AcDbEntity
  8
HON
100
AcDbLine
 10
371.8237158689069
 20
47.63056323987496
 30
0.0
 11
372.0925030139285
 21
47.22097310104857
 31
0.0
  0
LINE
  5
85E1
330
18
100
AcDbEntity
  8
HON
100
AcDbLine
 10
370.4130186968985
 20
47.19363541403675
 30
0.0
 11
370.627421296366
 21
46.8323639887027
 31
0.0
  0
LINE
  5
85E2
330
18
100
AcDbEntity
  8
HON
100
AcDbLine
 10
369.3834647651899
 20
47.1013760913271
 30
0.0
 11
369.5356654286377
 21
46.76457204037854
 31
0.0
  0
LINE
  5
85E3
330
18
100
AcDbEntity
  8
HON
100
AcDbLine
 10
368.8336385250884
 20
46.45595558044317
 30
0.0
 11
368.7171994261887
 21
46.86451965263825
 31
0.0
  0
LINE
  5
85E4
330
18
100
AcDbEntity
  8
HON
100
AcDbLine
 10
379.6427040719489
 20
38.24901752983953
 30
0.0
 11
379.0120567308465
 21
37.4412296282286
 31
0.0
  0
LINE
  5
85E5
330
18
100
AcDbEntity
  8
HON
100
AcDbLine
 10
379.099858455879
 20
38.28679766275548
 30
0.0
 11
378.0983888489688
 21
37.50068848781541
 31
0.0
  0
LINE
  5
85E6
330
18
100
AcDbEntity
  8
HON
100
AcDbLine
 10
378.7249075590505
 20
38.34193823562475
 30
0.0
 11
377.3417861210535
 21
37.58735494006453
 31
0.0
  0
LINE
  5
85E7
330
18
100
AcDbEntity
  8
HON
100
AcDbLine
 10
378.494337899722
 20
38.40546124639207
 30
0.0
 11
376.5369821461343
 21
37.74330644463828
 31
0.0
  0
LINE
  5
85E8
330
18
100
AcDbEntity
  8
HON
100
AcDbLine
 10
378.4042519542534
 20
38.45666503326595
 30
0.0
 11
376.1181320939929
 21
37.88823767072847
 31
0.0
  0
LINE
  5
85E9
330
18
100
AcDbEntity
  8
HON
100
AcDbLine
 10
378.3824535666543
 20
38.49814793203643
 30
0.0
 11
375.8974812206805
 21
38.05998284804685
 31
0.0
  0
LINE
  5
85EA
330
18
100
AcDbEntity
  8
HON
100
AcDbLine
 10
371.2828426082858
 20
66.22110659619886
 30
0.0
 11
371.7984782668234
 21
65.71734483665443
 31
0.0
  0
LINE
  5
85EB
330
18
100
AcDbEntity
  8
HON
100
AcDbLine
 10
370.0688535604848
 20
65.70724033814315
 30
0.0
 11
370.5572371745009
 21
65.42867778856328
 31
0.0
  0
LINE
  5
85EC
330
18
100
AcDbEntity
  8
HON
100
AcDbLine
 10
369.4891199907295
 20
65.54059960959477
 30
0.0
 11
369.8316224539019
 21
65.4310012966713
 31
0.0
  0
LINE
  5
85ED
330
18
100
AcDbEntity
  8
HON
100
AcDbLine
 10
368.224285543977
 20
54.86456630994928
 30
0.0
 11
367.5744244977402
 21
55.48815879142296
 31
0.0
  0
ELLIPSE
  5
85EE
330
18
100
AcDbEntity
  8
HON
100
AcDbEllipse
 10
380.0395900331102
 20
70.39238936051754
 30
0.0
 11
-4.158315553744555
 21
-0.0000000000007251
 31
0.0
210
0.0
220
0.0
230
-1.0
 40
0.168938747265627
 41
6.282860913286084
 42
7.861093621738218
  0
LINE
  5
85EF
330
18
100
AcDbEntity
  8
HON
100
AcDbLine
 10
380.0003877335282
 20
69.01259274696042
 30
0.0
 11
379.5109154717545
 21
71.08478377871017
 31
0.0
  0
LINE
  5
85F0
330
18
100
AcDbEntity
  8
HON
100
AcDbLine
 10
379.5109154717545
 20
71.08478377871017
 30
0.0
 11
378.9281376413935
 21
68.98722650268303
 31
0.0
  0
LINE
  5
85F1
330
18
100
AcDbEntity
  8
HON
100
AcDbLine
 10
378.9281376413935
 20
68.98722650268303
 30
0.0
 11
378.7878123360085
 21
71.06230425971137
 31
0.0
  0
LINE
  5
85F2
330
18
100
AcDbEntity
  8
HON
100
AcDbLine
 10
378.7878123360085
 20
71.06230425971137
 30
0.0
 11
377.4560472197052
 21
68.92030569512155
 31
0.0
  0
LINE
  5
85F3
330
18
100
AcDbEntity
  8
HON
100
AcDbLine
 10
377.4560472197052
 20
68.92030569512155
 30
0.0
 11
378.3193897214412
 21
71.03196252261716
 31
0.0
  0
LINE
  5
85F4
330
18
100
AcDbEntity
  8
HON
100
AcDbLine
 10
378.3193897214412
 20
71.03196252261716
 30
0.0
 11
375.7025491336251
 21
68.71723756096492
 31
0.0
  0
LINE
  5
85F5
330
18
100
AcDbEntity
  8
HON
100
AcDbLine
 10
375.7025491336251
 20
68.71723756096492
 30
0.0
 11
377.8761694185312
 21
70.99232887488927
 31
0.0
  0
LINE
  5
85F6
330
18
100
AcDbEntity
  8
HON
100
AcDbLine
 10
377.8761694185312
 20
70.99232887488927
 30
0.0
 11
374.5554395368497
 21
68.53649069603363
 31
0.0
  0
LINE
  5
85F7
330
18
100
AcDbEntity
  8
HON
100
AcDbLine
 10
374.5554395368497
 20
68.53649069603363
 30
0.0
 11
377.2726788039861
 21
70.91035897652602
 31
0.0
  0
LINE
  5
85F8
330
18
100
AcDbEntity
  8
HON
100
AcDbLine
 10
377.2726788039861
 20
70.91035897652602
 30
0.0
 11
374.0188124664553
 21
68.53649069603363
 31
0.0
  0
LINE
  5
85F9
330
18
100
AcDbEntity
  8
HON
100
AcDbLine
 10
374.0188124664553
 20
68.53649069603363
 30
0.0
 11
376.7710356286577
 21
70.82583273734292
 31
0.0
  0
LINE
  5
85FA
330
18
100
AcDbEntity
  8
HON
100
AcDbLine
 10
376.8236981840189
 20
70.82583273734292
 30
0.0
 11
373.1728062855844
 21
68.26938563314854
 31
0.0
  0
LINE
  5
85FB
330
18
100
AcDbEntity
  8
HON
100
AcDbLine
 10
373.1969694782481
 20
68.29557288828675
 30
0.0
 11
376.4109378076798
 21
70.71811248393226
 31
0.0
  0
LINE
  5
85FC
330
18
100
AcDbEntity
  8
HON
100
AcDbLine
 10
376.3582752523187
 20
70.71811248393226
 30
0.0
 11
372.9345347460264
 21
68.25674129712808
 31
0.0
  0
LINE
  5
85FD
330
18
100
AcDbEntity
  8
HON
100
AcDbLine
 10
372.9345347460264
 20
68.25674129712808
 30
0.0
 11
376.0158024940599
 21
70.56963195947594
 31
0.0
  0
LINE
  5
85FE
330
18
100
AcDbEntity
  8
HON
100
AcDbLine
 10
372.9345347460264
 20
68.25674129712808
 30
0.0
 11
371.7702215996258
 21
67.81880931415855
 31
0.0
  0
LINE
  5
85FF
330
18
100
AcDbEntity
  8
HON
100
AcDbLine
 10
380.0820132973011
 20
57.26979609682223
 30
0.0
 11
382.4898936971447
 21
54.30347272997517
 31
0.0
  0
LINE
  5
8600
330
18
100
AcDbEntity
  8
HON
100
AcDbLine
 10
382.4771222847965
 20
52.19925463156562
 30
0.0
 11
382.4825229918667
 21
54.33143130461633
 31
0.0
  0
LINE
  5
8601
330
18
100
AcDbEntity
  8
HON
100
AcDbLine
 10
391.1015628622342
 20
64.94392266731722
 30
0.0
 11
390.6365613828573
 21
65.43277585980888
 31
0.0
  0
LINE
  5
8602
330
18
100
AcDbEntity
  8
HON
100
AcDbLine
 10
392.5051359191846
 20
58.3509757586113
 30
0.0
 11
392.8592369841233
 21
55.18229412787571
 31
0.0
  0
LINE
  5
8603
330
18
100
AcDbEntity
  8
HON
100
AcDbLine
 10
391.9785745799352
 20
61.09801298480363
 30
0.0
 11
390.7374727612703
 21
63.86228572293714
 31
0.0
  0
LINE
  5
8604
330
18
100
AcDbEntity
  8
HON
100
AcDbLine
 10
391.9785745799352
 20
61.09801298480363
 30
0.0
 11
391.1795727049437
 21
60.15858394974805
 31
0.0
  0
LINE
  5
8605
330
18
100
AcDbEntity
  8
HON
100
AcDbLine
 10
392.8592369841233
 20
55.18229412787571
 30
0.0
 11
392.0721190552711
 21
54.35876178229102
 31
0.0
  0
LINE
  5
8606
330
18
100
AcDbEntity
  8
HON
100
AcDbLine
 10
381.2342164573263
 20
67.18318358829368
 30
0.0
 11
380.1367791287037
 21
69.01259274696042
 31
0.0
  0
LINE
  5
8607
330
18
100
AcDbEntity
  8
HON
100
AcDbLine
 10
381.2342164573263
 20
67.18318358829368
 30
0.0
 11
381.9560867054777
 21
68.98722650268303
 31
0.0
  0
LINE
  5
8608
330
18
100
AcDbEntity
  8
HON
100
AcDbLine
 10
381.9560867054777
 20
68.98722650268303
 30
0.0
 11
383.1623185276646
 21
66.92752665523642
 31
0.0
  0
LINE
  5
8609
330
18
100
AcDbEntity
  8
HON
100
AcDbLine
 10
383.1623185276646
 20
66.92752665523642
 30
0.0
 11
383.722183579134
 21
68.92030569512155
 31
0.0
  0
LINE
  5
860A
330
18
100
AcDbEntity
  8
HON
100
AcDbLine
 10
383.722183579134
 20
68.92030569512155
 30
0.0
 11
385.3934250788031
 21
66.77946497065625
 31
0.0
  0
LINE
  5
860B
330
18
100
AcDbEntity
  8
HON
100
AcDbLine
 10
385.3934250788031
 20
66.77946497065625
 30
0.0
 11
385.2611122341757
 21
68.71723756096492
 31
0.0
  0
LINE
  5
860C
330
18
100
AcDbEntity
  8
HON
100
AcDbLine
 10
385.2611122341757
 20
68.71723756096492
 30
0.0
 11
387.5240657776819
 21
66.5726525392862
 31
0.0
  0
LINE
  5
860D
330
18
100
AcDbEntity
  8
HON
100
AcDbLine
 10
387.5240657776819
 20
66.5726525392862
 30
0.0
 11
386.1183543957766
 21
68.53649069603363
 31
0.0
  0
LINE
  5
860E
330
18
100
AcDbEntity
  8
HON
100
AcDbLine
 10
386.1183543957766
 20
68.53649069603363
 30
0.0
 11
388.8543242539461
 21
66.22110659619886
 31
0.0
  0
LINE
  5
860F
330
18
100
AcDbEntity
  8
HON
100
AcDbLine
 10
388.8543242539461
 20
66.22110659619886
 30
0.0
 11
386.8680904729197
 21
68.37371993212639
 31
0.0
  0
LINE
  5
8610
330
18
100
AcDbEntity
  8
HON
100
AcDbLine
 10
386.8680904729197
 20
68.37371993212639
 30
0.0
 11
390.0683133017471
 21
65.70724033814315
 31
0.0
  0
LINE
  5
8611
330
18
100
AcDbEntity
  8
HON
100
AcDbLine
 10
390.095030023286
 20
65.6974190776042
 30
0.0
 11
387.6029652904169
 21
68.10616436567909
 31
0.0
  0
LINE
  5
8612
330
18
100
AcDbEntity
  8
HON
100
AcDbLine
 10
388.3669452626061
 20
67.81880931415855
 30
0.0
 11
390.6480468715024
 21
65.54059960959477
 31
0.0
  0
LINE
  5
8613
330
18
100
AcDbEntity
  8
HON
100
AcDbLine
 10
380.0765945243772
 20
66.34302775524758
 30
0.0
 11
381.609667941683
 21
63.54969289454186
 31
0.0
  0
LINE
  5
8614
330
18
100
AcDbEntity
  8
HON
100
AcDbLine
 10
381.609667941683
 20
63.54969289454186
 30
0.0
 11
381.9651779269777
 21
66.21697820090469
 31
0.0
  0
LINE
  5
8615
330
18
100
AcDbEntity
  8
HON
100
AcDbLine
 10
381.9651779269777
 20
66.21697820090469
 30
0.0
 11
384.3177930220234
 21
63.23582166062317
 31
0.0
  0
LINE
  5
8616
330
18
100
AcDbEntity
  8
HON
100
AcDbLine
 10
384.3177930220234
 20
63.23582166062317
 30
0.0
 11
384.2587860841529
 21
65.9888201961827
 31
0.0
  0
LINE
  5
8617
330
18
100
AcDbEntity
  8
HON
100
AcDbLine
 10
384.2587860841529
 20
65.9888201961827
 30
0.0
 11
386.6737093188337
 21
62.75671798253336
 31
0.0
  0
LINE
  5
8618
330
18
100
AcDbEntity
  8
HON
100
AcDbLine
 10
386.6737093188337
 20
62.75671798253336
 30
0.0
 11
386.669001001789
 21
65.68761193034936
 31
0.0
  0
LINE
  5
8619
330
18
100
AcDbEntity
  8
HON
100
AcDbLine
 10
386.669001001789
 20
65.68761193034936
 30
0.0
 11
388.5575894544843
 21
62.33043640373637
 31
0.0
  0
LINE
  5
861A
330
18
100
AcDbEntity
  8
HON
100
AcDbLine
 10
388.5575894544843
 20
62.33043640373637
 30
0.0
 11
388.2903783192439
 21
65.32106375556998
 31
0.0
  0
LINE
  5
861B
330
18
100
AcDbEntity
  8
HON
100
AcDbLine
 10
388.2903783192439
 20
65.32106375556998
 30
0.0
 11
389.9780631194724
 21
61.98281608175659
 31
0.0
  0
LINE
  5
861C
330
18
100
AcDbEntity
  8
HON
100
AcDbLine
 10
389.9780631194724
 20
61.98281608175659
 30
0.0
 11
389.4043271398757
 21
64.91264502594879
 31
0.0
  0
LINE
  5
861D
330
18
100
AcDbEntity
  8
HON
100
AcDbLine
 10
389.4043271398757
 20
64.91264502594879
 30
0.0
 11
391.056415837548
 21
61.55387058143844
 31
0.0
  0
LINE
  5
861E
330
18
100
AcDbEntity
  8
HON
100
AcDbLine
 10
391.056415837548
 20
61.55387058143844
 30
0.0
 11
390.0632505221845
 21
64.50373474333957
 31
0.0
  0
LINE
  5
861F
330
18
100
AcDbEntity
  8
HON
100
AcDbLine
 10
390.0702959784601
 20
64.51779917539409
 30
0.0
 11
391.6102558242208
 21
61.25990699271153
 31
0.0
  0
LINE
  5
8620
330
18
100
AcDbEntity
  8
HON
100
AcDbLine
 10
391.6102558242208
 20
61.25990699271153
 30
0.0
 11
390.4840522762395
 21
64.00104715811051
 31
0.0
  0
LINE
  5
8621
330
18
100
AcDbEntity
  8
HON
100
AcDbLine
 10
390.4840522762395
 20
64.00104715811051
 30
0.0
 11
391.9785745799352
 21
61.09801298480363
 31
0.0
  0
LINE
  5
8622
330
18
100
AcDbEntity
  8
HON
100
AcDbLine
 10
391.6102558242208
 20
61.25990699271153
 30
0.0
 11
390.7327379059777
 21
60.30143773683324
 31
0.0
  0
LINE
  5
8623
330
18
100
AcDbEntity
  8
HON
100
AcDbLine
 10
391.056415837548
 20
61.55387058143844
 30
0.0
 11
389.9615329739379
 21
60.22759301946883
 31
0.0
  0
LINE
  5
8624
330
18
100
AcDbEntity
  8
HON
100
AcDbLine
 10
389.9615329739379
 20
60.22759301946883
 30
0.0
 11
389.9780631194724
 21
61.98281608175659
 31
0.0
  0
LINE
  5
8625
330
18
100
AcDbEntity
  8
HON
100
AcDbLine
 10
389.9780631194724
 20
61.98281608175659
 30
0.0
 11
388.8314557010279
 21
60.61531919410902
 31
0.0
  0
LINE
  5
8626
330
18
100
AcDbEntity
  8
HON
100
AcDbLine
 10
388.8314557010279
 20
60.61531919410902
 30
0.0
 11
388.5575894544843
 21
62.33043640373637
 31
0.0
  0
LINE
  5
8627
330
18
100
AcDbEntity
  8
HON
100
AcDbLine
 10
388.5575894544843
 20
62.33043640373637
 30
0.0
 11
387.096967083339
 21
60.59305450103841
 31
0.0
  0
LINE
  5
8628
330
18
100
AcDbEntity
  8
HON
100
AcDbLine
 10
387.096967083339
 20
60.59305450103841
 30
0.0
 11
386.6737093188337
 21
62.75671798253336
 31
0.0
  0
LINE
  5
8629
330
18
100
AcDbEntity
  8
HON
100
AcDbLine
 10
386.6737093188337
 20
62.75671798253336
 30
0.0
 11
385.158533449038
 21
60.87420809327034
 31
0.0
  0
LINE
  5
862A
330
18
100
AcDbEntity
  8
HON
100
AcDbLine
 10
385.158533449038
 20
60.87420809327034
 30
0.0
 11
384.3177930220234
 21
63.23582166062317
 31
0.0
  0
LINE
  5
862B
330
18
100
AcDbEntity
  8
HON
100
AcDbLine
 10
384.3177930220234
 20
63.23582166062317
 30
0.0
 11
382.5882364532997
 21
61.00213116089128
 31
0.0
  0
LINE
  5
862C
330
18
100
AcDbEntity
  8
HON
100
AcDbLine
 10
382.5882364532997
 20
61.00213116089128
 30
0.0
 11
381.609667941683
 21
63.54969289454186
 31
0.0
  0
LINE
  5
862D
330
18
100
AcDbEntity
  8
HON
100
AcDbLine
 10
381.609667941683
 20
63.54969289454186
 30
0.0
 11
380.08471280558
 21
61.27228298153807
 31
0.0
  0
LINE
  5
862E
330
18
100
AcDbEntity
  8
HON
100
AcDbLine
 10
392.5051359191846
 20
58.3509757586113
 30
0.0
 11
392.5627423644917
 21
55.48815879142296
 31
0.0
  0
LINE
  5
862F
330
18
100
AcDbEntity
  8
HON
100
AcDbLine
 10
392.5627423644917
 20
55.48815879142296
 30
0.0
 11
392.129441422602
 21
58.60452953923107
 31
0.0
  0
LINE
  5
8630
330
18
100
AcDbEntity
  8
HON
100
AcDbLine
 10
392.129441422602
 20
58.60452953923107
 30
0.0
 11
391.910610101532
 21
55.88216659366174
 31
0.0
  0
LINE
  5
8631
330
18
100
AcDbEntity
  8
HON
100
AcDbLine
 10
391.910610101532
 20
55.88216659366174
 30
0.0
 11
391.4607473576459
 21
59.13214024947285
 31
0.0
  0
LINE
  5
8632
330
18
100
AcDbEntity
  8
HON
100
AcDbLine
 10
391.4607473576459
 20
59.13214024947285
 30
0.0
 11
390.6647546908578
 21
56.51763438171349
 31
0.0
  0
LINE
  5
8633
330
18
100
AcDbEntity
  8
HON
100
AcDbLine
 10
390.6647546908578
 20
56.51763438171349
 30
0.0
 11
390.2658179076523
 21
59.60419645308923
 31
0.0
  0
LINE
  5
8634
330
18
100
AcDbEntity
  8
HON
100
AcDbLine
 10
390.2658179076523
 20
59.60419645308923
 30
0.0
 11
388.8150495573598
 21
57.18311483580567
 31
0.0
  0
LINE
  5
8635
330
18
100
AcDbEntity
  8
HON
100
AcDbLine
 10
388.8150495573598
 20
57.18311483580567
 30
0.0
 11
388.4087604904005
 21
60.04474234403335
 31
0.0
  0
LINE
  5
8636
330
18
100
AcDbEntity
  8
HON
100
AcDbLine
 10
388.4087604904005
 20
60.04474234403335
 30
0.0
 11
386.7362818838017
 21
57.7235523118203
 31
0.0
  0
LINE
  5
8637
330
18
100
AcDbEntity
  8
HON
100
AcDbLine
 10
386.7362818838017
 20
57.7235523118203
 30
0.0
 11
386.2733629588881
 21
60.38973986995973
 31
0.0
  0
LINE
  5
8638
330
18
100
AcDbEntity
  8
HON
100
AcDbLine
 10
386.2733629588881
 20
60.38973986995973
 30
0.0
 11
384.5690353650523
 21
58.0714901800626
 31
0.0
  0
LINE
  5
8639
330
18
100
AcDbEntity
  8
HON
100
AcDbLine
 10
384.5690353650523
 20
58.0714901800626
 30
0.0
 11
384.0448918286118
 21
60.68705498344809
 31
0.0
  0
LINE
  5
863A
330
18
100
AcDbEntity
  8
HON
100
AcDbLine
 10
384.0448918286118
 20
60.68705498344809
 30
0.0
 11
382.2663585214475
 21
58.46230449915549
 31
0.0
  0
LINE
  5
863B
330
18
100
AcDbEntity
  8
HON
100
AcDbLine
 10
382.2663585214475
 20
58.46230449915549
 30
0.0
 11
381.5837757189845
 21
60.87927187851403
 31
0.0
  0
LINE
  5
863C
330
18
100
AcDbEntity
  8
HON
100
AcDbLine
 10
381.5837757189845
 20
60.87927187851403
 30
0.0
 11
380.0829655847545
 21
58.61905219409038
 31
0.0
  0
LINE
  5
863D
330
18
100
AcDbEntity
  8
HON
100
AcDbLine
 10
392.5051359191828
 20
58.3509757586113
 30
0.0
 11
391.2440681821652
 21
60.23325951139179
 31
0.0
  0
LINE
  5
863E
330
18
100
AcDbEntity
  8
HON
100
AcDbLine
 10
392.129441422602
 20
58.60452953923107
 30
0.0
 11
390.8711808426149
 21
60.43711708620378
 31
0.0
  0
LINE
  5
863F
330
18
100
AcDbEntity
  8
HON
100
AcDbLine
 10
391.4607473576459
 20
59.13214024947285
 30
0.0
 11
390.2170224396002
 21
60.5683462901585
 31
0.0
  0
LINE
  5
8640
330
18
100
AcDbEntity
  8
HON
100
AcDbLine
 10
390.2658179076523
 20
59.60419645308923
 30
0.0
 11
389.0045991286195
 21
60.83918285511811
 31
0.0
  0
LINE
  5
8641
330
18
100
AcDbEntity
  8
HON
100
AcDbLine
 10
388.4087604904005
 20
60.04474234403335
 30
0.0
 11
387.4347370140356
 21
60.99482526427948
 31
0.0
  0
LINE
  5
8642
330
18
100
AcDbEntity
  8
HON
100
AcDbLine
 10
386.2733629588881
 20
60.38973986995973
 30
0.0
 11
385.4822196332687
 21
61.27636764120018
 31
0.0
  0
LINE
  5
8643
330
18
100
AcDbEntity
  8
HON
100
AcDbLine
 10
384.0448918286118
 20
60.68705498344809
 30
0.0
 11
383.0433623861197
 21
61.58991793277403
 31
0.0
  0
LINE
  5
8644
330
18
100
AcDbEntity
  8
HON
100
AcDbLine
 10
381.5837757189845
 20
60.87927187851403
 30
0.0
 11
380.4572347389319
 21
61.82861747541267
 31
0.0
  0
LINE
  5
8645
330
18
100
AcDbEntity
  8
HON
100
AcDbLine
 10
391.1015628622342
 20
64.94392266731722
 30
0.0
 11
390.7374727612703
 21
63.86228572293714
 31
0.0
  0
LINE
  5
8646
330
18
100
AcDbEntity
  8
HON
100
AcDbLine
 10
381.9651779269777
 20
66.21697820090469
 30
0.0
 11
381.2370019765374
 21
67.18527833972314
 31
0.0
  0
LINE
  5
8647
330
18
100
AcDbEntity
  8
HON
100
AcDbLine
 10
384.2587860841529
 20
65.9888201961827
 30
0.0
 11
383.1623185276646
 21
66.92752665523642
 31
0.0
  0
LINE
  5
8648
330
18
100
AcDbEntity
  8
HON
100
AcDbLine
 10
386.669001001789
 20
65.68761193034936
 30
0.0
 11
385.3934250788031
 21
66.77946497065625
 31
0.0
  0
LINE
  5
8649
330
18
100
AcDbEntity
  8
HON
100
AcDbLine
 10
387.5240657776819
 20
66.5726525392862
 30
0.0
 11
388.2903783192439
 21
65.32106375556998
 31
0.0
  0
LINE
  5
864A
330
18
100
AcDbEntity
  8
HON
100
AcDbLine
 10
389.4043271398757
 20
64.91264502594879
 30
0.0
 11
388.8543242539461
 21
66.22110659619886
 31
0.0
  0
LINE
  5
864B
330
18
100
AcDbEntity
  8
HON
100
AcDbLine
 10
390.0632505221845
 20
64.50373474333957
 30
0.0
 11
390.0683133017471
 21
65.70724033814315
 31
0.0
  0
LINE
  5
864C
330
18
100
AcDbEntity
  8
HON
100
AcDbLine
 10
390.4840522762395
 20
64.00104715811051
 30
0.0
 11
390.6480468715024
 21
65.54059960959477
 31
0.0
  0
LINE
  5
864D
330
18
100
AcDbEntity
  8
HON
100
AcDbLine
 10
382.5882364532997
 20
61.00213116089128
 30
0.0
 11
382.2663585214475
 21
58.46230449915549
 31
0.0
  0
LINE
  5
864E
330
18
100
AcDbEntity
  8
HON
100
AcDbLine
 10
385.158533449038
 20
60.87420809327034
 30
0.0
 11
384.5690353650523
 21
58.0714901800626
 31
0.0
  0
LINE
  5
864F
330
18
100
AcDbEntity
  8
HON
100
AcDbLine
 10
387.096967083339
 20
60.59305450103841
 30
0.0
 11
386.7362818838017
 21
57.7235523118203
 31
0.0
  0
LINE
  5
8650
330
18
100
AcDbEntity
  8
HON
100
AcDbLine
 10
388.8314557010279
 20
60.61531919410902
 30
0.0
 11
388.8150495573598
 21
57.18311483580567
 31
0.0
  0
LINE
  5
8651
330
18
100
AcDbEntity
  8
HON
100
AcDbLine
 10
381.2342164573263
 20
67.18318358829368
 30
0.0
 11
380.0884018825334
 21
66.32151417033185
 31
0.0
  0
LINE
  5
8652
330
18
100
AcDbEntity
  8
HON
100
AcDbLine
 10
383.1623185276646
 20
66.92752665523642
 30
0.0
 11
381.955987834898
 21
66.14802768311403
 31
0.0
  0
LINE
  5
8653
330
18
100
AcDbEntity
  8
HON
100
AcDbLine
 10
385.3934250788031
 20
66.77946497065625
 30
0.0
 11
384.2578415683845
 21
66.03288705712714
 31
0.0
  0
LINE
  5
8654
330
18
100
AcDbEntity
  8
HON
100
AcDbLine
 10
387.5240657776819
 20
66.5726525392862
 30
0.0
 11
386.669001001789
 21
65.68761193034936
 31
0.0
  0
LINE
  5
8655
330
18
100
AcDbEntity
  8
HON
100
AcDbLine
 10
382.2725205883987
 20
57.27248347710212
 30
0.0
 11
385.5393230273464
 21
54.06250252714619
 31
0.0
  0
LINE
  5
8656
330
18
100
AcDbEntity
  8
HON
100
AcDbLine
 10
385.5393230273464
 20
54.06250252714619
 30
0.0
 11
384.5188815233748
 21
57.25967466642998
 31
0.0
  0
LINE
  5
8657
330
18
100
AcDbEntity
  8
HON
100
AcDbLine
 10
384.5188815233748
 20
57.25967466642998
 30
0.0
 11
388.2332871197148
 21
53.28376134537632
 31
0.0
  0
LINE
  5
8658
330
18
100
AcDbEntity
  8
HON
100
AcDbLine
 10
388.2332871197148
 20
53.28376134537632
 30
0.0
 11
386.8471655198362
 21
56.86907543831205
 31
0.0
  0
LINE
  5
8659
330
18
100
AcDbEntity
  8
HON
100
AcDbLine
 10
386.8471655198362
 20
56.86907543831205
 30
0.0
 11
390.2753711588437
 21
52.42825429805328
 31
0.0
  0
LINE
  5
865A
330
18
100
AcDbEntity
  8
HON
100
AcDbLine
 10
390.2753711588437
 20
52.42825429805328
 30
0.0
 11
389.1000713898418
 21
56.47181963710739
 31
0.0
  0
LINE
  5
865B
330
18
100
AcDbEntity
  8
HON
100
AcDbLine
 10
389.1000713898418
 20
56.47181963710739
 30
0.0
 11
391.8425016771187
 21
51.77969386600182
 31
0.0
  0
LINE
  5
865C
330
18
100
AcDbEntity
  8
HON
100
AcDbLine
 10
391.8425016771187
 20
51.77969386600182
 30
0.0
 11
390.8058665180495
 21
55.84580246852477
 31
0.0
  0
LINE
  5
865D
330
18
100
AcDbEntity
  8
HON
100
AcDbLine
 10
390.8058665180495
 20
55.84580246852477
 30
0.0
 11
392.7737961954269
 21
51.23734972875775
 31
0.0
  0
LINE
  5
865E
330
18
100
AcDbEntity
  8
HON
100
AcDbLine
 10
393.2939792273853
 20
50.77497326563264
 30
0.0
 11
392.1463387515985
 21
54.24802371131647
 31
0.0
  0
LINE
  5
865F
330
18
100
AcDbEntity
  8
HON
100
AcDbLine
 10
382.2725205883987
 20
57.27248347710212
 30
0.0
 11
382.4896616367011
 21
54.30347272997517
 31
0.0
  0
LINE
  5
8660
330
18
100
AcDbEntity
  8
HON
100
AcDbLine
 10
382.2663585214475
 20
58.46230449915549
 30
0.0
 11
381.3235202639542
 21
56.3381875692163
 31
0.0
  0
LINE
  5
8661
330
18
100
AcDbEntity
  8
HON
100
AcDbLine
 10
384.5690353650523
 20
58.0714901800626
 30
0.0
 11
383.5275041612647
 21
56.02212981718423
 31
0.0
  0
LINE
  5
8662
330
18
100
AcDbEntity
  8
HON
100
AcDbLine
 10
386.7362818838017
 20
57.7235523118203
 30
0.0
 11
385.9684206015943
 21
55.81176430570178
 31
0.0
  0
LINE
  5
8663
330
18
100
AcDbEntity
  8
HON
100
AcDbLine
 10
388.8150495573598
 20
57.18311483580567
 30
0.0
 11
388.12955224344
 21
55.54905619420117
 31
0.0
  0
LINE
  5
8664
330
18
100
AcDbEntity
  8
HON
100
AcDbLine
 10
390.6647546908578
 20
56.51763438171349
 30
0.0
 11
389.9875574584573
 21
54.96445121945964
 31
0.0
  0
LINE
  5
8665
330
18
100
AcDbEntity
  8
HON
100
AcDbLine
 10
391.910610101532
 20
55.88216659366174
 30
0.0
 11
391.1475870382972
 21
54.19586227831371
 31
0.0
  0
LINE
  5
8666
330
18
100
AcDbEntity
  8
HON
100
AcDbLine
 10
392.7737961954269
 20
51.23734972875775
 30
0.0
 11
391.9128813182549
 21
54.86456630994928
 31
0.0
  0
LINE
  5
8667
330
18
100
AcDbEntity
  8
HON
100
AcDbLine
 10
382.2725205883987
 20
57.27248347710212
 30
0.0
 11
380.9558930923347
 21
55.95532814888485
 31
0.0
  0
LINE
  5
8668
330
18
100
AcDbEntity
  8
HON
100
AcDbLine
 10
384.5188815233748
 20
57.25967466642998
 30
0.0
 11
383.6012017726505
 21
55.93619844269835
 31
0.0
  0
LINE
  5
8669
330
18
100
AcDbEntity
  8
HON
100
AcDbLine
 10
386.8471655198362
 20
56.86907543831205
 30
0.0
 11
386.002983068646
 21
55.76809747086247
 31
0.0
  0
LINE
  5
866A
330
18
100
AcDbEntity
  8
HON
100
AcDbLine
 10
389.1000713898418
 20
56.47181963710739
 30
0.0
 11
388.0799751268266
 21
55.39749960392021
 31
0.0
  0
LINE
  5
866B
330
18
100
AcDbEntity
  8
HON
100
AcDbLine
 10
390.8058665180495
 20
55.84580246852477
 30
0.0
 11
389.8758432731272
 21
54.69722224246345
 31
0.0
  0
LINE
  5
866C
330
18
100
AcDbEntity
  8
HON
100
AcDbLine
 10
391.9128813182549
 20
54.86456630994928
 30
0.0
 11
391.113826132291
 21
54.09611953053775
 31
0.0
  0
LINE
  5
866D
330
18
100
AcDbEntity
  8
HON
100
AcDbLine
 10
382.2725205883987
 20
57.27248347710212
 30
0.0
 11
381.7936991532395
 21
57.58740746905335
 31
0.0
  0
LINE
  5
866E
330
18
100
AcDbEntity
  8
HON
100
AcDbLine
 10
384.5188815233748
 20
57.25967466642998
 30
0.0
 11
384.070963203191
 21
57.58160294639731
 31
0.0
  0
LINE
  5
866F
330
18
100
AcDbEntity
  8
HON
100
AcDbLine
 10
393.1916235007873
 20
49.36576059877973
 30
0.0
 11
393.2866970228013
 21
50.79154058415645
 31
0.0
  0
LINE
  5
8670
330
18
100
AcDbEntity
  8
HON
100
AcDbLine
 10
392.6810053445904
 20
49.78017529227748
 30
0.0
 11
392.7665417371343
 21
51.25034571807612
 31
0.0
  0
LINE
  5
8671
330
18
100
AcDbEntity
  8
HON
100
AcDbLine
 10
391.7557752696582
 20
50.42206605136982
 30
0.0
 11
391.8352622105729
 21
51.79076021125059
 31
0.0
  0
LINE
  5
8672
330
18
100
AcDbEntity
  8
HON
100
AcDbLine
 10
390.1320804394698
 20
51.09565461683871
 30
0.0
 11
390.2681379242083
 21
52.43851851044985
 31
0.0
  0
LINE
  5
8673
330
18
100
AcDbEntity
  8
HON
100
AcDbLine
 10
388.114354504706
 20
51.52639490907188
 30
0.0
 11
388.2260480962075
 21
53.29477066549827
 31
0.0
  0
LINE
  5
8674
330
18
100
AcDbEntity
  8
HON
100
AcDbLine
 10
385.4447373688206
 20
51.85574414997484
 30
0.0
 11
385.5320714121015
 21
54.075132577104
 31
0.0
  0
LINE
  5
8675
330
18
100
AcDbEntity
  8
HON
100
AcDbLine
 10
386.8471655198362
 20
56.86907543831205
 30
0.0
 11
386.4459134459055
 21
57.27763951050713
 31
0.0
  0
LINE
  5
8676
330
18
100
AcDbEntity
  8
HON
100
AcDbLine
 10
389.1000713898418
 20
56.47181963710739
 30
0.0
 11
388.7593142550457
 21
56.88038370930247
 31
0.0
  0
LINE
  5
8677
330
18
100
AcDbEntity
  8
HON
100
AcDbLine
 10
390.8058665180495
 20
55.84580246852477
 30
0.0
 11
390.5514895712447
 21
56.25436654071984
 31
0.0
  0
LINE
  5
8678
330
18
100
AcDbEntity
  8
HON
100
AcDbLine
 10
391.9128813182549
 20
54.86456630994928
 30
0.0
 11
391.7606806548072
 21
55.27313038214436
 31
0.0
  0
LINE
  5
8679
330
18
100
AcDbEntity
  8
HON
100
AcDbLine
 10
387.009223365202
 20
40.45488314952183
 30
0.0
 11
384.2556603224246
 21
38.121945110625
 31
0.0
  0
LINE
  5
867A
330
18
100
AcDbEntity
  8
HON
100
AcDbLine
 10
390.5351068908847
 20
44.22577393976519
 30
0.0
 11
391.5949105932566
 21
45.68268776755632
 31
0.0
  0
LINE
  5
867B
330
18
100
AcDbEntity
  8
HON
100
AcDbLine
 10
389.7818357163021
 20
42.60030262869316
 30
0.0
 11
388.2670743276965
 21
40.41398788946992
 31
0.0
  0
LINE
  5
867C
330
18
100
AcDbEntity
  8
HON
100
AcDbLine
 10
389.7818357163021
 20
42.60030262869316
 30
0.0
 11
389.6336540846903
 21
43.95438343938315
 31
0.0
  0
LINE
  5
867D
330
18
100
AcDbEntity
  8
HON
100
AcDbLine
 10
391.5949105932566
 20
45.68268776755632
 30
0.0
 11
391.6393316759702
 21
47.16357105936424
 31
0.0
  0
LINE
  5
867E
330
18
100
AcDbEntity
  8
HON
100
AcDbLine
 10
380.8909511257687
 20
41.07907578286051
 30
0.0
 11
380.0973447686781
 21
38.82444573100895
 31
0.0
  0
LINE
  5
867F
330
18
100
AcDbEntity
  8
HON
100
AcDbLine
 10
380.8909511257687
 20
41.07907578286051
 30
0.0
 11
380.9324185217345
 21
38.81014250623469
 31
0.0
  0
LINE
  5
8680
330
18
100
AcDbEntity
  8
HON
100
AcDbLine
 10
380.9324185217345
 20
38.81014250623469
 30
0.0
 11
382.3844791604904
 21
41.0271817837571
 31
0.0
  0
LINE
  5
8681
330
18
100
AcDbEntity
  8
HON
100
AcDbLine
 10
382.3844791604904
 20
41.0271817837571
 30
0.0
 11
381.8387734289106
 21
38.75989465480291
 31
0.0
  0
LINE
  5
8682
330
18
100
AcDbEntity
  8
HON
100
AcDbLine
 10
381.8387734289106
 20
38.75989465480291
 30
0.0
 11
383.7609224804534
 21
41.01775240427071
 31
0.0
  0
LINE
  5
8683
330
18
100
AcDbEntity
  8
HON
100
AcDbLine
 10
383.7609224804534
 20
41.01775240427071
 30
0.0
 11
382.660743534924
 21
38.67511993297978
 31
0.0
  0
LINE
  5
8684
330
18
100
AcDbEntity
  8
HON
100
AcDbLine
 10
382.660743534924
 20
38.67511993297978
 30
0.0
 11
384.9673851407922
 21
40.87104103291915
 31
0.0
  0
LINE
  5
8685
330
18
100
AcDbEntity
  8
HON
100
AcDbLine
 10
384.9673851407922
 20
40.87104103291915
 30
0.0
 11
383.3265652952002
 21
38.56459112043797
 31
0.0
  0
LINE
  5
8686
330
18
100
AcDbEntity
  8
HON
100
AcDbLine
 10
383.3265652952002
 20
38.56459112043797
 30
0.0
 11
385.9575034580528
 21
41.0176028107295
 31
0.0
  0
LINE
  5
8687
330
18
100
AcDbEntity
  8
HON
100
AcDbLine
 10
385.9575034580528
 20
41.0176028107295
 30
0.0
 11
383.811570980072
 21
38.43790283109468
 31
0.0
  0
LINE
  5
8688
330
18
100
AcDbEntity
  8
HON
100
AcDbLine
 10
383.811570980072
 20
38.43790283109468
 30
0.0
 11
386.5497336141987
 21
40.78230235985268
 31
0.0
  0
LINE
  5
8689
330
18
100
AcDbEntity
  8
HON
100
AcDbLine
 10
386.576450335732
 20
40.79212362039164
 30
0.0
 11
384.1105779556772
 21
38.30603488165855
 31
0.0
  0
LINE
  5
868A
330
18
100
AcDbEntity
  8
HON
100
AcDbLine
 10
384.1105779556772
 20
38.30603488165855
 30
0.0
 11
386.7071748037695
 21
40.59280529542468
 31
0.0
  0
LINE
  5
868B
330
18
100
AcDbEntity
  8
HON
100
AcDbLine
 10
386.7477993866257
 20
40.60689437099847
 30
0.0
 11
384.238464586603
 21
38.18619445621573
 31
0.0
  0
LINE
  5
868C
330
18
100
AcDbEntity
  8
HON
100
AcDbLine
 10
384.238464586603
 20
38.18619445621573
 30
0.0
 11
386.8229016652447
 21
40.47930641176082
 31
0.0
  0
LINE
  5
868D
330
18
100
AcDbEntity
  8
HON
100
AcDbLine
 10
386.8398311735825
 20
40.48472706514314
 30
0.0
 11
384.2556603224246
 21
38.12194511062319
 31
0.0
  0
LINE
  5
868E
330
18
100
AcDbEntity
  8
HON
100
AcDbLine
 10
380.1440855975604
 20
41.07907578286051
 30
0.0
 11
382.3186583631912
 21
43.64506391362977
 31
0.0
  0
LINE
  5
868F
330
18
100
AcDbEntity
  8
HON
100
AcDbLine
 10
382.3186583631912
 20
43.64506391362977
 30
0.0
 11
381.6975879966492
 21
41.0271817837571
 31
0.0
  0
LINE
  5
8690
330
18
100
AcDbEntity
  8
HON
100
AcDbLine
 10
381.6975879966492
 20
41.0271817837571
 30
0.0
 11
384.20165420449
 21
43.50419666324945
 31
0.0
  0
LINE
  5
8691
330
18
100
AcDbEntity
  8
HON
100
AcDbLine
 10
384.20165420449
 20
43.50419666324945
 30
0.0
 11
383.2363347747967
 21
41.01775240427071
 31
0.0
  0
LINE
  5
8692
330
18
100
AcDbEntity
  8
HON
100
AcDbLine
 10
383.2363347747967
 20
41.01775240427071
 30
0.0
 11
385.7906174188072
 21
43.50885400880236
 31
0.0
  0
LINE
  5
8693
330
18
100
AcDbEntity
  8
HON
100
AcDbLine
 10
385.7906174188072
 20
43.50885400880236
 30
0.0
 11
384.6544519273764
 21
40.93251400505017
 31
0.0
  0
LINE
  5
8694
330
18
100
AcDbEntity
  8
HON
100
AcDbLine
 10
384.6544519273764
 20
40.93251400505017
 30
0.0
 11
387.2199753325446
 21
43.33127650365224
 31
0.0
  0
LINE
  5
8695
330
18
100
AcDbEntity
  8
HON
100
AcDbLine
 10
387.2199753325446
 20
43.33127650365224
 30
0.0
 11
385.8974420074999
 21
41.0176028107295
 31
0.0
  0
LINE
  5
8696
330
18
100
AcDbEntity
  8
HON
100
AcDbLine
 10
385.8974420074999
 20
41.0176028107295
 30
0.0
 11
388.3691440399841
 21
43.14797455236351
 31
0.0
  0
LINE
  5
8697
330
18
100
AcDbEntity
  8
HON
100
AcDbLine
 10
388.3691440399841
 20
43.14797455236351
 30
0.0
 11
386.9175376034698
 21
40.91750977296635
 31
0.0
  0
LINE
  5
8698
330
18
100
AcDbEntity
  8
HON
100
AcDbLine
 10
386.9175376034698
 20
40.91750977296635
 30
0.0
 11
389.101912190318
 21
42.96078316902515
 31
0.0
  0
LINE
  5
8699
330
18
100
AcDbEntity
  8
HON
100
AcDbLine
 10
389.101912190318
 20
42.96078316902515
 30
0.0
 11
387.6184933998927
 21
40.73479622293473
 31
0.0
  0
LINE
  5
869A
330
18
100
AcDbEntity
  8
HON
100
AcDbLine
 10
387.6184933998927
 20
40.73479622293473
 30
0.0
 11
389.5539830220084
 21
42.73644072878835
 31
0.0
  0
LINE
  5
869B
330
18
100
AcDbEntity
  8
HON
100
AcDbLine
 10
389.5539830220084
 20
42.73644072878835
 30
0.0
 11
388.106330171219
 21
40.5645823307301
 31
0.0
  0
LINE
  5
869C
330
18
100
AcDbEntity
  8
HON
100
AcDbLine
 10
388.106330171219
 20
40.5645823307301
 30
0.0
 11
389.7818357163021
 21
42.60030262869316
 31
0.0
  0
LINE
  5
869D
330
18
100
AcDbEntity
  8
HON
100
AcDbLine
 10
389.5539830220084
 20
42.73644072878835
 30
0.0
 11
389.3351218250653
 21
44.40476994946095
 31
0.0
  0
LINE
  5
869E
330
18
100
AcDbEntity
  8
HON
100
AcDbLine
 10
389.101912190318
 20
42.96078316902515
 30
0.0
 11
388.8217563609658
 21
44.88561460827134
 31
0.0
  0
LINE
  5
869F
330
18
100
AcDbEntity
  8
HON
100
AcDbLine
 10
388.8217563609658
 20
44.88561460827134
 30
0.0
 11
388.3691440399841
 21
43.14797455236351
 31
0.0
  0
LINE
  5
86A0
330
18
100
AcDbEntity
  8
HON
100
AcDbLine
 10
388.3691440399841
 20
43.14797455236351
 30
0.0
 11
387.9574663049523
 21
45.04252825906462
 31
0.0
  0
LINE
  5
86A1
330
18
100
AcDbEntity
  8
HON
100
AcDbLine
 10
387.9574663049523
 20
45.04252825906462
 30
0.0
 11
387.2199753325446
 21
43.33127650365224
 31
0.0
  0
LINE
  5
86A2
330
18
100
AcDbEntity
  8
HON
100
AcDbLine
 10
387.2199753325446
 20
43.33127650365224
 30
0.0
 11
386.7656060627239
 21
45.07197325423351
 31
0.0
  0
LINE
  5
86A3
330
18
100
AcDbEntity
  8
HON
100
AcDbLine
 10
386.7656060627239
 20
45.07197325423351
 30
0.0
 11
385.7906174188072
 21
43.50885400880236
 31
0.0
  0
LINE
  5
86A4
330
18
100
AcDbEntity
  8
HON
100
AcDbLine
 10
385.7906174188072
 20
43.50885400880236
 30
0.0
 11
385.2215233507566
 21
45.17580613050324
 31
0.0
  0
LINE
  5
86A5
330
18
100
AcDbEntity
  8
HON
100
AcDbLine
 10
385.2215233507566
 20
45.17580613050324
 30
0.0
 11
384.20165420449
 21
43.50419666324945
 31
0.0
  0
LINE
  5
86A6
330
18
100
AcDbEntity
  8
HON
100
AcDbLine
 10
384.20165420449
 20
43.50419666324945
 30
0.0
 11
383.348286100151
 21
45.20008017562997
 31
0.0
  0
LINE
  5
86A7
330
18
100
AcDbEntity
  8
HON
100
AcDbLine
 10
383.348286100151
 20
45.20008017562997
 30
0.0
 11
382.3186583631912
 21
43.64506391362977
 31
0.0
  0
LINE
  5
86A8
330
18
100
AcDbEntity
  8
HON
100
AcDbLine
 10
382.3186583631912
 20
43.64506391362977
 30
0.0
 11
381.3876484300497
 21
45.07262149290784
 31
0.0
  0
LINE
  5
86A9
330
18
100
AcDbEntity
  8
HON
100
AcDbLine
 10
381.3876484300497
 20
45.07262149290784
 30
0.0
 11
380.0945203055278
 21
43.76632942378694
 31
0.0
  0
LINE
  5
86AA
330
18
100
AcDbEntity
  8
HON
100
AcDbLine
 10
390.5351068908847
 20
44.22577393976519
 30
0.0
 11
391.2499202705737
 21
46.0360227231182
 31
0.0
  0
LINE
  5
86AB
330
18
100
AcDbEntity
  8
HON
100
AcDbLine
 10
391.2499202705737
 20
46.0360227231182
 30
0.0
 11
390.2572793657553
 21
44.50634659736045
 31
0.0
  0
LINE
  5
86AC
330
18
100
AcDbEntity
  8
HON
100
AcDbLine
 10
390.2572793657553
 20
44.50634659736045
 30
0.0
 11
390.6455523622178
 21
46.42887031910379
 31
0.0
  0
LINE
  5
86AD
330
18
100
AcDbEntity
  8
HON
100
AcDbLine
 10
390.6455523622178
 20
46.42887031910379
 30
0.0
 11
389.6870028624751
 21
44.80668056162051
 31
0.0
  0
LINE
  5
86AE
330
18
100
AcDbEntity
  8
HON
100
AcDbLine
 10
389.6870028624751
 20
44.80668056162051
 30
0.0
 11
389.5097455658659
 21
46.8323639887027
 31
0.0
  0
LINE
  5
86AF
330
18
100
AcDbEntity
  8
HON
100
AcDbLine
 10
389.5097455658659
 20
46.8323639887027
 30
0.0
 11
388.8160540796095
 21
45.00633222760791
 31
0.0
  0
LINE
  5
86B0
330
18
100
AcDbEntity
  8
HON
100
AcDbLine
 10
388.8160540796095
 20
45.00633222760791
 30
0.0
 11
388.0446638483034
 21
47.22097310104857
 31
0.0
  0
LINE
  5
86B1
330
18
100
AcDbEntity
  8
HON
100
AcDbLine
 10
388.0446638483034
 20
47.22097310104857
 30
0.0
 11
387.4618224663598
 21
45.20726675280331
 31
0.0
  0
LINE
  5
86B2
330
18
100
AcDbEntity
  8
HON
100
AcDbLine
 10
387.4618224663598
 20
45.20726675280331
 30
0.0
 11
386.2946553313148
 21
47.36028956506072
 31
0.0
  0
LINE
  5
86B3
330
18
100
AcDbEntity
  8
HON
100
AcDbLine
 10
386.2946553313148
 20
47.36028956506072
 30
0.0
 11
385.8208065423757
 21
45.34581338763257
 31
0.0
  0
LINE
  5
86B4
330
18
100
AcDbEntity
  8
HON
100
AcDbLine
 10
385.8208065423757
 20
45.34581338763257
 30
0.0
 11
384.2570299514489
 21
47.50573437777222
 31
0.0
  0
LINE
  5
86B5
330
18
100
AcDbEntity
  8
HON
100
AcDbLine
 10
384.2570299514489
 20
47.50573437777222
 30
0.0
 11
384.0397338068112
 21
45.48453940846286
 31
0.0
  0
LINE
  5
86B6
330
18
100
AcDbEntity
  8
HON
100
AcDbLine
 10
384.0397338068112
 20
45.48453940846286
 30
0.0
 11
382.2358540794037
 21
47.71914630532285
 31
0.0
  0
LINE
  5
86B7
330
18
100
AcDbEntity
  8
HON
100
AcDbLine
 10
382.2358540794037
 20
47.71914630532285
 30
0.0
 11
382.0570271658405
 21
45.58480848711099
 31
0.0
  0
LINE
  5
86B8
330
18
100
AcDbEntity
  8
HON
100
AcDbLine
 10
382.0570271658405
 20
45.58480848711099
 30
0.0
 11
380.0645381522615
 21
48.03483177019427
 31
0.0
  0
LINE
  5
86B9
330
18
100
AcDbEntity
  8
HON
100
AcDbLine
 10
390.5351068908828
 20
44.22577393976337
 30
0.0
 11
389.6515878247671
 21
43.80266011451261
 31
0.0
  0
LINE
  5
86BA
330
18
100
AcDbEntity
  8
HON
100
AcDbLine
 10
390.2572793657553
 20
44.50634659736045
 30
0.0
 11
389.3549738248919
 21
44.0785205755916
 31
0.0
  0
LINE
  5
86BB
330
18
100
AcDbEntity
  8
HON
100
AcDbLine
 10
389.6870028624751
 20
44.80668056162051
 30
0.0
 11
388.9355568116542
 21
44.12582165538572
 31
0.0
  0
LINE
  5
86BC
330
18
100
AcDbEntity
  8
HON
100
AcDbLine
 10
388.8160540796095
 20
45.00633222760791
 30
0.0
 11
388.0936701951184
 21
44.49649618547357
 31
0.0
  0
LINE
  5
86BD
330
18
100
AcDbEntity
  8
HON
100
AcDbLine
 10
387.4618224663598
 20
45.20726675280331
 30
0.0
 11
386.9079722024678
 21
44.6613012909371
 31
0.0
  0
LINE
  5
86BE
330
18
100
AcDbEntity
  8
HON
100
AcDbLine
 10
385.8208065423757
 20
45.34581338763257
 30
0.0
 11
385.4145015973725
 21
44.4821361555156
 31
0.0
  0
LINE
  5
86BF
330
18
100
AcDbEntity
  8
HON
100
AcDbLine
 10
384.0397338068112
 20
45.48453940846286
 30
0.0
 11
383.7356328079829
 21
44.47386338922536
 31
0.0
  0
LINE
  5
86C0
330
18
100
AcDbEntity
  8
HON
100
AcDbLine
 10
382.0570271658405
 20
45.58480848711099
 30
0.0
 11
381.8628333760869
 21
44.43320187301526
 31
0.0
  0
LINE
  5
86C1
330
18
100
AcDbEntity
  8
HON
100
AcDbLine
 10
386.8601933079051
 20
40.31447132041705
 30
0.0
 11
388.2670743276965
 21
40.41398788946992
 31
0.0
  0
LINE
  5
86C2
330
18
100
AcDbEntity
  8
HON
100
AcDbLine
 10
381.6975879966492
 20
41.0271817837571
 30
0.0
 11
380.893953053014
 21
40.575861099706
 31
0.0
  0
LINE
  5
86C3
330
18
100
AcDbEntity
  8
HON
100
AcDbLine
 10
383.2363347747967
 20
41.01775240427071
 30
0.0
 11
382.2660722221579
 21
40.52396710060259
 31
0.0
  0
LINE
  5
86C4
330
18
100
AcDbEntity
  8
HON
100
AcDbLine
 10
384.6544519273764
 20
40.93251400505017
 30
0.0
 11
383.5306244907813
 21
40.575861099706
 31
0.0
  0
LINE
  5
86C5
330
18
100
AcDbEntity
  8
HON
100
AcDbLine
 10
384.6390138243739
 20
40.575861099706
 30
0.0
 11
385.8974420074999
 21
41.0176028107295
 31
0.0
  0
LINE
  5
86C6
330
18
100
AcDbEntity
  8
HON
100
AcDbLine
 10
386.9175376034698
 20
40.91750977296635
 30
0.0
 11
385.5486454424288
 21
40.575861099706
 31
0.0
  0
LINE
  5
86C7
330
18
100
AcDbEntity
  8
HON
100
AcDbLine
 10
387.6184933998927
 20
40.73479622293473
 30
0.0
 11
386.2245627119999
 21
40.4254298356542
 31
0.0
  0
LINE
  5
86C8
330
18
100
AcDbEntity
  8
HON
100
AcDbLine
 10
388.106330171219
 20
40.5645823307301
 30
0.0
 11
386.5706962978154
 21
40.39855286292788
 31
0.0
  0
LINE
  5
86C9
330
18
100
AcDbEntity
  8
HON
100
AcDbLine
 10
381.3876484300497
 20
45.07262149290784
 30
0.0
 11
380.0645381522615
 21
48.03483177019427
 31
0.0
  0
LINE
  5
86CA
330
18
100
AcDbEntity
  8
HON
100
AcDbLine
 10
383.348286100151
 20
45.20008017562997
 30
0.0
 11
382.2358540794037
 21
47.71914630532285
 31
0.0
  0
LINE
  5
86CB
330
18
100
AcDbEntity
  8
HON
100
AcDbLine
 10
385.2215233507566
 20
45.17580613050324
 30
0.0
 11
384.2570299514489
 21
47.50573437777222
 31
0.0
  0
LINE
  5
86CC
330
18
100
AcDbEntity
  8
HON
100
AcDbLine
 10
386.7656060627239
 20
45.07197325423351
 30
0.0
 11
386.2946553313148
 21
47.36028956506072
 31
0.0
  0
LINE
  5
86CD
330
18
100
AcDbEntity
  8
HON
100
AcDbLine
 10
387.9574663049523
 20
45.04252825906462
 30
0.0
 11
388.0446638483034
 21
47.22097310104857
 31
0.0
  0
LINE
  5
86CE
330
18
100
AcDbEntity
  8
HON
100
AcDbLine
 10
380.8909511257687
 20
41.07907578286051
 30
0.0
 11
380.8909511257687
 21
41.93751091788238
 31
0.0
  0
LINE
  5
86CF
330
18
100
AcDbEntity
  8
HON
100
AcDbLine
 10
382.3844791604904
 20
41.0271817837571
 30
0.0
 11
382.3844791604904
 21
41.73197204771589
 31
0.0
  0
LINE
  5
86D0
330
18
100
AcDbEntity
  8
HON
100
AcDbLine
 10
383.7609224804534
 20
41.01775240427071
 30
0.0
 11
383.7609224804534
 21
41.56350508409253
 31
0.0
  0
LINE
  5
86D1
330
18
100
AcDbEntity
  8
HON
100
AcDbLine
 10
384.9673851407922
 20
40.87104103291915
 30
0.0
 11
384.9673851407922
 21
41.38672783240202
 31
0.0
  0
LINE
  5
86D2
330
18
100
AcDbEntity
  8
HON
100
AcDbLine
 10
380.0595170561962
 20
48.04100585807157
 30
0.0
 11
382.4740657611862
 21
52.22721320620497
 31
0.0
  0
LINE
  5
86D3
330
18
100
AcDbEntity
  8
HON
100
AcDbLine
 10
382.584393507196
 20
48.12091091893001
 30
0.0
 11
385.4419129056557
 21
51.883702724616
 31
0.0
  0
LINE
  5
86D4
330
18
100
AcDbEntity
  8
HON
100
AcDbLine
 10
385.4419129056557
 20
51.883702724616
 30
0.0
 11
384.7223945919384
 21
47.89744310208937
 31
0.0
  0
LINE
  5
86D5
330
18
100
AcDbEntity
  8
HON
100
AcDbLine
 10
384.7223945919384
 20
47.89744310208937
 30
0.0
 11
388.1115300415374
 21
51.55435348371486
 31
0.0
  0
LINE
  5
86D6
330
18
100
AcDbEntity
  8
HON
100
AcDbLine
 10
388.1115300415374
 20
51.55435348371486
 30
0.0
 11
386.5637688254853
 21
47.7068459724893
 31
0.0
  0
LINE
  5
86D7
330
18
100
AcDbEntity
  8
HON
100
AcDbLine
 10
386.5637688254853
 20
47.7068459724893
 30
0.0
 11
390.1292559763049
 21
51.12361319148352
 31
0.0
  0
LINE
  5
86D8
330
18
100
AcDbEntity
  8
HON
100
AcDbLine
 10
390.1292559763049
 20
51.12361319148352
 30
0.0
 11
388.313450993325
 21
47.63056323987496
 31
0.0
  0
LINE
  5
86D9
330
18
100
AcDbEntity
  8
HON
100
AcDbLine
 10
388.313450993325
 20
47.63056323987496
 30
0.0
 11
391.7529508064897
 21
50.45002462601463
 31
0.0
  0
LINE
  5
86DA
330
18
100
AcDbEntity
  8
HON
100
AcDbLine
 10
391.7529508064897
 20
50.45002462601463
 30
0.0
 11
389.7241481653334
 21
47.19363541403675
 31
0.0
  0
LINE
  5
86DB
330
18
100
AcDbEntity
  8
HON
100
AcDbLine
 10
389.7241481653334
 20
47.19363541403675
 30
0.0
 11
392.6781808814255
 21
49.80813386692045
 31
0.0
  0
LINE
  5
86DC
330
18
100
AcDbEntity
  8
HON
100
AcDbLine
 10
393.1887990376206
 20
49.39371917342453
 30
0.0
 11
391.4199674360432
 21
46.86451965263825
 31
0.0
  0
LINE
  5
86DD
330
18
100
AcDbEntity
  8
HON
100
AcDbLine
 10
390.7537020970419
 20
47.1013760913271
 30
0.0
 11
393.1887990376206
 21
49.39371917342453
 31
0.0
  0
LINE
  5
86DE
330
18
100
AcDbEntity
  8
HON
100
AcDbLine
 10
382.584393507196
 20
48.12091091893001
 30
0.0
 11
382.4740657611862
 21
52.22721320620497
 31
0.0
  0
LINE
  5
86DF
330
18
100
AcDbEntity
  8
HON
100
AcDbLine
 10
382.2358540794037
 20
47.71914630532285
 30
0.0
 11
381.2242467994536
 21
50.37602317006769
 31
0.0
  0
LINE
  5
86E0
330
18
100
AcDbEntity
  8
HON
100
AcDbLine
 10
384.2570299514489
 20
47.50573437777222
 30
0.0
 11
383.8933014310103
 21
50.02580317204103
 31
0.0
  0
LINE
  5
86E1
330
18
100
AcDbEntity
  8
HON
100
AcDbLine
 10
386.2946553313148
 20
47.36028956506072
 30
0.0
 11
385.8493688495025
 21
49.18221406110081
 31
0.0
  0
LINE
  5
86E2
330
18
100
AcDbEntity
  8
HON
100
AcDbLine
 10
388.0446638483034
 20
47.22097310104857
 30
0.0
 11
387.7869650301771
 21
48.85185346501078
 31
0.0
  0
LINE
  5
86E3
330
18
100
AcDbEntity
  8
HON
100
AcDbLine
 10
389.5097455658659
 20
46.8323639887027
 30
0.0
 11
389.3274071545373
 21
48.42438436761643
 31
0.0
  0
LINE
  5
86E4
330
18
100
AcDbEntity
  8
HON
100
AcDbLine
 10
390.6455523622178
 20
46.42887031910379
 30
0.0
 11
390.5599055385981
 21
47.91468093220522
 31
0.0
  0
LINE
  5
86E5
330
18
100
AcDbEntity
  8
HON
100
AcDbLine
 10
391.2499202705737
 20
46.0360227231182
 30
0.0
 11
391.3218734887493
 21
47.57958133621343
 31
0.0
  0
LINE
  5
86E6
330
18
100
AcDbEntity
  8
HON
100
AcDbLine
 10
392.6781808814255
 20
49.80813386692045
 30
0.0
 11
390.7537020970419
 21
47.1013760913271
 31
0.0
  0
LINE
  5
86E7
330
18
100
AcDbEntity
  8
HON
100
AcDbLine
 10
382.584393507196
 20
48.12091091893001
 30
0.0
 11
381.2242467994536
 21
50.37602317006769
 31
0.0
  0
LINE
  5
86E8
330
18
100
AcDbEntity
  8
HON
100
AcDbLine
 10
384.7223945919384
 20
47.89744310208937
 30
0.0
 11
383.8933014310103
 21
50.02580317204103
 31
0.0
  0
LINE
  5
86E9
330
18
100
AcDbEntity
  8
HON
100
AcDbLine
 10
386.5637688254853
 20
47.7068459724893
 30
0.0
 11
385.8493688495025
 21
49.18221406110081
 31
0.0
  0
LINE
  5
86EA
330
18
100
AcDbEntity
  8
HON
100
AcDbLine
 10
388.313450993325
 20
47.63056323987496
 30
0.0
 11
387.7869650301771
 21
48.85185346501078
 31
0.0
  0
LINE
  5
86EB
330
18
100
AcDbEntity
  8
HON
100
AcDbLine
 10
389.7241481653334
 20
47.19363541403675
 30
0.0
 11
389.3274071545373
 21
48.42438436761643
 31
0.0
  0
LINE
  5
86EC
330
18
100
AcDbEntity
  8
HON
100
AcDbLine
 10
390.7537020970419
 20
47.1013760913271
 30
0.0
 11
390.5599055385981
 21
47.91468093220522
 31
0.0
  0
LINE
  5
86ED
330
18
100
AcDbEntity
  8
HON
100
AcDbLine
 10
391.4199674360432
 20
46.86451965263825
 30
0.0
 11
391.3218734887493
 21
47.57958133621343
 31
0.0
  0
LINE
  5
86EE
330
18
100
AcDbEntity
  8
HON
100
AcDbLine
 10
382.584393507196
 20
48.12091091893001
 30
0.0
 11
382.2358540794037
 21
47.71914630532285
 31
0.0
  0
LINE
  5
86EF
330
18
100
AcDbEntity
  8
HON
100
AcDbLine
 10
384.7223945919384
 20
47.89744310208937
 30
0.0
 11
384.2570299514489
 21
47.50573437777222
 31
0.0
  0
LINE
  5
86F0
330
18
100
AcDbEntity
  8
HON
100
AcDbLine
 10
386.5637688254853
 20
47.7068459724893
 30
0.0
 11
386.2946553313148
 21
47.36028956506072
 31
0.0
  0
LINE
  5
86F1
330
18
100
AcDbEntity
  8
HON
100
AcDbLine
 10
388.313450993325
 20
47.63056323987496
 30
0.0
 11
388.0446638483034
 21
47.22097310104857
 31
0.0
  0
LINE
  5
86F2
330
18
100
AcDbEntity
  8
HON
100
AcDbLine
 10
389.7241481653334
 20
47.19363541403675
 30
0.0
 11
389.5097455658659
 21
46.8323639887027
 31
0.0
  0
LINE
  5
86F3
330
18
100
AcDbEntity
  8
HON
100
AcDbLine
 10
390.7537020970419
 20
47.1013760913271
 30
0.0
 11
390.6015014335942
 21
46.76457204037854
 31
0.0
  0
LINE
  5
86F4
330
18
100
AcDbEntity
  8
HON
100
AcDbLine
 10
391.3035283371435
 20
46.45595558044317
 30
0.0
 11
391.4199674360432
 21
46.86451965263825
 31
0.0
  0
LINE
  5
86F5
330
18
100
AcDbEntity
  8
HON
100
AcDbLine
 10
380.494462790283
 20
38.24901752983953
 30
0.0
 11
381.1251101313853
 21
37.4412296282286
 31
0.0
  0
LINE
  5
86F6
330
18
100
AcDbEntity
  8
HON
100
AcDbLine
 10
381.0373084063528
 20
38.28679766275548
 30
0.0
 11
382.038778013263
 21
37.50068848781541
 31
0.0
  0
LINE
  5
86F7
330
18
100
AcDbEntity
  8
HON
100
AcDbLine
 10
381.4122593031814
 20
38.34193823562475
 30
0.0
 11
382.7953807411784
 21
37.58735494006453
 31
0.0
  0
LINE
  5
86F8
330
18
100
AcDbEntity
  8
HON
100
AcDbLine
 10
381.6428289625098
 20
38.40546124639207
 30
0.0
 11
383.6001847160976
 21
37.74330644463828
 31
0.0
  0
LINE
  5
86F9
330
18
100
AcDbEntity
  8
HON
100
AcDbLine
 10
381.7329149079785
 20
38.45666503326595
 30
0.0
 11
384.019034768239
 21
37.88823767072847
 31
0.0
  0
LINE
  5
86FA
330
18
100
AcDbEntity
  8
HON
100
AcDbLine
 10
381.7547132955776
 20
38.49814793203643
 30
0.0
 11
384.2396856415514
 21
38.05998284804685
 31
0.0
  0
LINE
  5
86FB
330
18
100
AcDbEntity
  8
HON
100
AcDbLine
 10
388.8543242539461
 20
66.22110659619886
 30
0.0
 11
388.3386885954085
 21
65.71734483665443
 31
0.0
  0
LINE
  5
86FC
330
18
100
AcDbEntity
  8
HON
100
AcDbLine
 10
390.0683133017471
 20
65.70724033814315
 30
0.0
 11
389.579929687731
 21
65.42867778856328
 31
0.0
  0
LINE
  5
86FD
330
18
100
AcDbEntity
  8
HON
100
AcDbLine
 10
390.6480468715024
 20
65.54059960959477
 30
0.0
 11
390.30554440833
 21
65.4310012966713
 31
0.0
  0
LINE
  5
86FE
330
18
100
AcDbEntity
  8
HON
100
AcDbLine
 10
391.9128813182549
 20
54.86456630994928
 30
0.0
 11
392.5627423644917
 21
55.48815879142296
 31
0.0
  0
LINE
  5
86FF
330
18
100
AcDbEntity
  8
HON
100
AcDbLine
 10
380.1367791287037
 20
69.01259274696042
 30
0.0
 11
380.6262513904774
 21
71.08478377871017
 31
0.0
  0
LINE
  5
8700
330
18
100
AcDbEntity
  8
HON
100
AcDbLine
 10
380.6262513904774
 20
71.08478377871017
 30
0.0
 11
381.2090292208384
 21
68.98722650268303
 31
0.0
  0
LINE
  5
8701
330
18
100
AcDbEntity
  8
HON
100
AcDbLine
 10
381.2090292208384
 20
68.98722650268303
 30
0.0
 11
381.3493545262233
 21
71.06230425971137
 31
0.0
  0
LINE
  5
8702
330
18
100
AcDbEntity
  8
HON
100
AcDbLine
 10
381.3493545262233
 20
71.06230425971137
 30
0.0
 11
382.6811196425267
 21
68.92030569512155
 31
0.0
  0
LINE
  5
8703
330
18
100
AcDbEntity
  8
HON
100
AcDbLine
 10
382.6811196425267
 20
68.92030569512155
 30
0.0
 11
381.8177771407907
 21
71.03196252261716
 31
0.0
  0
LINE
  5
8704
330
18
100
AcDbEntity
  8
HON
100
AcDbLine
 10
381.8177771407907
 20
71.03196252261716
 30
0.0
 11
384.4346177286068
 21
68.71723756096492
 31
0.0
  0
LINE
  5
8705
330
18
100
AcDbEntity
  8
HON
100
AcDbLine
 10
384.4346177286068
 20
68.71723756096492
 30
0.0
 11
382.2609974437007
 21
70.99232887488927
 31
0.0
  0
LINE
  5
8706
330
18
100
AcDbEntity
  8
HON
100
AcDbLine
 10
382.2609974437007
 20
70.99232887488927
 30
0.0
 11
385.5817273253822
 21
68.53649069603363
 31
0.0
  0
LINE
  5
8707
330
18
100
AcDbEntity
  8
HON
100
AcDbLine
 10
385.5817273253822
 20
68.53649069603363
 30
0.0
 11
382.8644880582458
 21
70.91035897652602
 31
0.0
  0
LINE
  5
8708
330
18
100
AcDbEntity
  8
HON
100
AcDbLine
 10
382.8644880582458
 20
70.91035897652602
 30
0.0
 11
386.1183543957766
 21
68.53649069603363
 31
0.0
  0
LINE
  5
8709
330
18
100
AcDbEntity
  8
HON
100
AcDbLine
 10
386.1183543957766
 20
68.53649069603363
 30
0.0
 11
383.3661312335742
 21
70.82583273734292
 31
0.0
  0
LINE
  5
870A
330
18
100
AcDbEntity
  8
HON
100
AcDbLine
 10
383.313468678213
 20
70.82583273734292
 30
0.0
 11
386.9643605766476
 21
68.26938563314854
 31
0.0
  0
LINE
  5
870B
330
18
100
AcDbEntity
  8
HON
100
AcDbLine
 10
386.9401973839838
 20
68.29557288828675
 30
0.0
 11
383.726229054552
 21
70.71811248393226
 31
0.0
  0
LINE
  5
870C
330
18
100
AcDbEntity
  8
HON
100
AcDbLine
 10
383.7788916099132
 20
70.71811248393226
 30
0.0
 11
387.2026321162055
 21
68.25674129712808
 31
0.0
  0
LINE
  5
870D
330
18
100
AcDbEntity
  8
HON
100
AcDbLine
 10
387.2026321162055
 20
68.25674129712808
 30
0.0
 11
384.121364368172
 21
70.56963195947594
 31
0.0
  0
LINE
  5
870E
330
18
100
AcDbEntity
  8
HON
100
AcDbLine
 10
387.2026321162055
 20
68.25674129712808
 30
0.0
 11
388.3669452626061
 21
67.81880931415855
 31
0.0
  0
LINE
  5
870F
330
18
100
AcDbEntity
  8
HON
100
AcDbLine
 10
380.0973447686781
 20
38.23402588262309
 30
0.0
 11
380.0973447686781
 21
37.38874117928265
 31
0.0
  0
LINE
  5
8710
330
18
100
AcDbEntity
  8
HON
100
AcDbLine
 10
380.0820132973011
 20
57.26979609682223
 30
0.0
 11
380.0595170561962
 21
48.04100585807157
 31
0.0
  0
VIEWPORT
  5
4E5F
102
{ACAD_XDICTIONARY
360
8762
102
}
330
15
100
AcDbEntity
 67
     1
  8
0
100
AcDbViewport
 10
204.1207418441771
 20
140.2079849243164
 30
0.0
 40
656.4358961669921
 41
314.2148930664063
 68
     1
 69
     1
 12
204.1207418441771
 22
140.2079849243164
 13
0.0
 23
0.0
 14
10.0
 24
10.0
 15
10.0
 25
10.0
 16
0.0
 26
0.0
 36
1.0
 17
0.0
 27
0.0
 37
0.0
 42
50.0
 43
0.0
 44
0.0
 45
314.2148930664063
 50
0.0
 51
0.0
 72
   100
 90
    32800
  1

281
     0
 71
     1
 74
     0
110
0.0
120
0.0
130
0.0
111
1.0
121
0.0
131
0.0
112
0.0
122
1.0
132
0.0
 79
     0
146
0.0
  0
VIEWPORT
  5
4E61
102
{ACAD_XDICTIONARY
360
8764
102
}
330
15
100
AcDbEntity
 67
     1
  8
0
100
AcDbViewport
 10
204.9462428092957
 20
141.4462471008301
 30
0.0
 40
327.913988494873
 41
226.3139953613281
 68
     2
 69
     2
 12
50.0
 22
62.5
 13
0.0
 23
0.0
 14
5.0
 24
5.0
 15
5.0
 25
5.0
 16
0.0
 26
0.0
 36
1.0
 17
0.0
 27
0.0
 37
0.0
 42
50.0
 43
0.0
 44
0.0
 45
106.9090909090909
 50
0.0
 51
0.0
 72
   100
 90
    32800
  1

281
     0
 71
     1
 74
     0
110
0.0
120
0.0
130
0.0
111
1.0
121
0.0
131
0.0
112
0.0
122
1.0
132
0.0
 79
     0
146
0.0
  0
ENDSEC
  0
SECTION
  2
OBJECTS
  0
DICTIONARY
  5
C
330
0
100
AcDbDictionary
281
     1
  3
ACAD_CIP_PREVIOUS_PRODUCT_INFO
350
4EDC
  3
ACAD_COLOR
350
4EC2
  3
ACAD_DETAILVIEWSTYLE
350
4ED7
  3
ACAD_GROUP
350
D
  3
ACAD_LAYOUT
350
4DFA
  3
ACAD_MATERIAL
350
4E90
  3
ACAD_MLEADERSTYLE
350
4ED3
  3
ACAD_MLINESTYLE
350
1B
  3
ACAD_PLOTSETTINGS
350
4DFB
  3
ACAD_PLOTSTYLENAME
350
4DF8
  3
ACAD_SCALELIST
350
4EC5
  3
ACAD_SECTIONVIEWSTYLE
350
4ED5
  3
ACAD_TABLESTYLE
350
4EC3
  3
ACAD_VISUALSTYLE
350
4EA9
  3
ACDB_RECOMPOSE_DATA
350
875C
  3
ACDBVARIABLEDICTIONARY
350
33
  3
CONTENTDICTIONARY
350
23
  3
DWGPROPS
350
875D
  0
DICTIONARY
  5
4EE8
330
8
100
AcDbDictionary
280
     1
281
     1
  0
DICTIONARY
  5
4F40
330
2
100
AcDbDictionary
280
     1
281
     1
  3
ACAD_LAYERSTATES
360
4F41
  0
DICTIONARY
  5
4EDD
330
E
100
AcDbDictionary
280
     1
281
     1
  3
ADSK_XREC_LAYER_RECONCILED
360
4EDE
  0
DICTIONARY
  5
4EDF
330
36
100
AcDbDictionary
280
     1
281
     1
  3
ADSK_XREC_LAYER_RECONCILED
360
4EE0
  0
DICTIONARY
  5
4EE1
330
37
100
AcDbDictionary
280
     1
281
     1
  3
ADSK_XREC_LAYER_RECONCILED
360
4EE2
  0
DICTIONARY
  5
4F3D
330
4F3C
100
AcDbDictionary
280
     1
281
     1
  0
DICTIONARY
  5
5613
330
5612
100
AcDbDictionary
280
     1
281
     1
  0
DICTIONARY
  5
5615
330
5614
100
AcDbDictionary
280
     1
281
     1
  0
DICTIONARY
  5
5617
330
5616
100
AcDbDictionary
280
     1
281
     1
  0
DICTIONARY
  5
4E52
330
18
100
AcDbDictionary
280
     1
281
     1
  3
ACAD_LAYOUTSELFREF
360
4E86
  0
DICTIONARY
  5
4E50
330
15
100
AcDbDictionary
280
     1
281
     1
  3
ACAD_LAYOUTSELFREF
360
4E85
  0
DICTIONARY
  5
8762
330
4E5F
100
AcDbDictionary
280
     1
281
     1
  3
ACAD_XREC_ROUNDTRIP
360
8763
  0
DICTIONARY
  5
8764
330
4E61
100
AcDbDictionary
280
     1
281
     1
  3
ACAD_XREC_ROUNDTRIP
360
8765
  0
XRECORD
  5
4EDC
102
{ACAD_REACTORS
330
C
102
}
330
C
100
AcDbXrecord
280
     1
300
ACDLT
300
2019
300
ACDLT_F_S
  0
DICTIONARY
  5
4EC2
102
{ACAD_REACTORS
330
C
102
}
330
C
100
AcDbDictionary
281
     1
  0
DICTIONARY
  5
4ED7
102
{ACAD_REACTORS
330
C
102
}
330
C
100
AcDbDictionary
281
     1
  3
Metric50
350
4ED8
  0
DICTIONARY
  5
D
102
{ACAD_REACTORS
330
C
102
}
330
C
100
AcDbDictionary
281
     1
  0
DICTIONARY
  5
4DFA
102
{ACAD_REACTORS
330
C
102
}
330
C
100
AcDbDictionary
281
     1
  3
Model
350
4DFC
  3
\U+FF9A\U+FF72\U+FF71\U+FF73\U+FF841
350
4DFD
  0
DICTIONARY
  5
4E90
102
{ACAD_REACTORS
330
C
102
}
330
C
100
AcDbDictionary
281
     1
  3
ByBlock
350
4E99
  3
ByLayer
350
4E91
  3
Global
350
4EA1
  0
DICTIONARY
  5
4ED3
102
{ACAD_REACTORS
330
C
102
}
330
C
100
AcDbDictionary
281
     1
  3
S2
350
5623
  3
Standard
350
4ED4
  0
DICTIONARY
  5
1B
102
{ACAD_REACTORS
330
C
102
}
330
C
100
AcDbDictionary
281
     1
  3
STANDARD
350
1C
  0
DICTIONARY
  5
4DFB
102
{ACAD_REACTORS
330
C
102
}
330
C
100
AcDbDictionary
281
     1
  0
ACDBDICTIONARYWDFLT
  5
4DF8
102
{ACAD_REACTORS
330
C
102
}
330
C
100
AcDbDictionary
281
     1
  3
Normal
350
4DF9
100
AcDbDictionaryWithDefault
340
4DF9
  0
DICTIONARY
  5
4EC5
102
{ACAD_REACTORS
330
C
102
}
330
C
100
AcDbDictionary
281
     1
  3
A0
350
4EC6
  3
A1
350
4EC7
  3
A2
350
4EC8
  3
A3
350
4EC9
  3
A4
350
4ECA
  3
A5
350
4ECB
  3
A6
350
4ECC
  3
A7
350
4ECD
  3
A8
350
4ECE
  3
A9
350
4ECF
  3
B0
350
4ED0
  3
B1
350
4ED1
  3
B2
350
4ED2
  0
DICTIONARY
  5
4ED5
102
{ACAD_REACTORS
330
C
102
}
330
C
100
AcDbDictionary
281
     1
  3
Metric50
350
4ED6
  0
DICTIONARY
  5
4EC3
102
{ACAD_REACTORS
330
C
102
}
330
C
100
AcDbDictionary
281
     1
  3
Standard
350
4EC4
  0
DICTIONARY
  5
4EA9
102
{ACAD_REACTORS
330
C
102
}
330
C
100
AcDbDictionary
281
     1
  3
2dWireframe
350
4EAF
  3
Basic
350
4EAE
  3
Brighten
350
4EB5
  3
ColorChange
350
4EB9
  3
Conceptual
350
4EB2
  3
Dim
350
4EB4
  3
EdgeColorOff
350
4EC1
  3
Facepattern
350
4EB8
  3
Flat
350
4EAA
  3
FlatWithEdges
350
4EAB
  3
Gouraud
350
4EAC
  3
GouraudWithEdges
350
4EAD
  3
Hidden
350
4EB1
  3
JitterOff
350
4EBF
  3
Linepattern
350
4EB7
  3
OverhangOff
350
4EC0
  3
Realistic
350
4EB3
  3
Shaded
350
4EBE
  3
Shaded with edges
350
4EBD
  3
Shades of Gray
350
4EBA
  3
Sketchy
350
4EBB
  3
Thicken
350
4EB6
  3
Wireframe
350
4EB0
  3
X-Ray
350
4EBC
  0
XRECORD
  5
875C
102
{ACAD_REACTORS
330
C
102
}
330
C
100
AcDbXrecord
280
     1
 90
        1
330
4EC4
  0
DICTIONARY
  5
33
102
{ACAD_REACTORS
330
C
102
}
330
C
100
AcDbDictionary
281
     1
  3
CANNOSCALE
350
4F31
  3
CMLEADERSTYLE
350
4F2E
  3
CTABLESTYLE
350
4F2D
  3
CVIEWDETAILSTYLE
350
4F2F
  3
CVIEWSECTIONSTYLE
350
4F30
  3
DIMADEC
350
34
  3
DIMASSOC
350
4F34
  3
INDEXCTL
350
4F33
  3
SORTENTS
350
4F32
  3
XCLIPFRAME
350
875A
  0
DICTIONARY
  5
23
102
{ACAD_REACTORS
330
C
102
}
330
C
100
AcDbDictionary
281
     1
  0
XRECORD
  5
875D
102
{ACAD_REACTORS
330
C
102
}
330
C
100
AcDbXrecord
280
     1
  1
DWGPROPS COOKIE
  2

  3

  4

  6

  7

  8
arai
  9

300
=
301
=
302
=
303
=
304
=
305
=
306
=
307
=
308
=
309
=
 40
0.202759375
 41
2451379.622546296
 42
2459040.63019676
  1

 90
        0
  0
DICTIONARY
  5
4F41
102
{ACAD_REACTORS
330
4F40
102
}
330
4F40
100
AcDbDictionary
281
     1
  0
XRECORD
  5
4EDE
102
{ACAD_REACTORS
330
4EDD
102
}
330
4EDD
100
AcDbXrecord
280
     1
290
     1
  0
XRECORD
  5
4EE0
102
{ACAD_REACTORS
330
4EDF
102
}
330
4EDF
100
AcDbXrecord
280
     1
290
     1
  0
XRECORD
  5
4EE2
102
{ACAD_REACTORS
330
4EE1
102
}
330
4EE1
100
AcDbXrecord
280
     1
290
     1
  0
XRECORD
  5
4E86
102
{ACAD_REACTORS
330
4E52
102
}
330
4E52
100
AcDbXrecord
280
     1
340
18
  0
XRECORD
  5
4E85
102
{ACAD_REACTORS
330
4E50
102
}
330
4E50
100
AcDbXrecord
280
     1
340
15
  0
XRECORD
  5
8763
102
{ACAD_REACTORS
330
8762
102
}
330
8762
100
AcDbXrecord
280
     1
102
SHADEPLOT
 70
     0
  0
XRECORD
  5
8765
102
{ACAD_REACTORS
330
8764
102
}
330
8764
100
AcDbXrecord
280
     1
102
SHADEPLOT
 70
     0
  0
ACDBDETAILVIEWSTYLE
  5
4ED8
102
{ACAD_XDICTIONARY
360
879E
102
}
102
{ACAD_REACTORS
330
4ED7
102
}
330
4ED7
100
AcDbModelDocViewStyle
 70
     0
  3
Metric50
290
     0
100
AcDbDetailViewStyle
 70
     0
 71
     0
 90
        3
 71
     1
340
F
 40
5.0
340
0
 40
5.0
300

 40
0.0
280
     1
 71
     2
340
14
 90
       25
 71
     3
340
F
 40
5.0
 90
        0
 40
15.0
 90
        1
300
%<\AcVar ViewDetailId>% (%<\AcVar ViewScale \f "%sn">%)
 71
     4
340
14
 90
       25
340
14
 90
       25
280
     0
  0
LAYOUT
  5
4DFC
102
{ACAD_XDICTIONARY
360
875E
102
}
102
{ACAD_REACTORS
330
4DFA
102
}
330
4DFA
100
AcDbPlotSettings
  1

  2
RICOH imagio MF4570
  4

  6

 40
0.0
 41
0.0
 42
0.0
 43
0.0
 44
0.0
 45
0.0
 46
0.0
 47
0.0
 48
0.0
 49
0.0
140
0.0
141
0.0
142
1.0
143
1.0
 70
  1712
 72
     0
 73
     0
 74
     0
  7
suzuki.ctb
 75
     0
147
1.0
148
0.0
149
0.0
100
AcDbLayout
  1
Model
 70
     1
 71
     0
 10
0.0
 20
0.0
 11
12.0
 21
9.0
 12
0.0
 22
0.0
 32
0.0
 14
0.0
 24
0.0
 34
0.0
 15
0.0
 25
0.0
 35
0.0
146
0.0
 13
0.0
 23
0.0
 33
0.0
 16
1.0
 26
0.0
 36
0.0
 17
0.0
 27
1.0
 37
0.0
 76
     0
330
18
331
4E62
  0
LAYOUT
  5
4DFD
102
{ACAD_XDICTIONARY
360
8760
102
}
102
{ACAD_REACTORS
330
4DFA
102
}
330
4DFA
100
AcDbPlotSettings
  1

  2
RICOH imagio MF4570
  4
A3
  6

 40
5.873749732971191
 41
8.286766052246091
 42
4.222747802734375
 43
5.81024169921875
 44
419.9889831542968
 45
296.989501953125
 46
0.0
 47
0.0
 48
0.0
 49
0.0
140
0.0
141
0.0
142
1.0
143
1.0
 70
   688
 72
     1
 73
     0
 74
     5
  7
suzuki.ctb
 75
    16
147
1.0
148
0.0
149
0.0
100
AcDbLayout
  1
\U+FF9A\U+FF72\U+FF71\U+FF73\U+FF841
 70
     1
 71
     1
 10
-5.873749732971191
 20
-8.286766052246091
 11
414.1152334213257
 21
288.7027359008789
 12
0.0
 22
0.0
 32
0.0
 14
40.98924856185914
 24
28.28924942016602
 34
0.0
 15
368.9032370567322
 25
254.6032447814941
 35
0.0
146
0.0
 13
0.0
 23
0.0
 33
0.0
 16
1.0
 26
0.0
 36
0.0
 17
0.0
 27
1.0
 37
0.0
 76
     0
330
15
331
4E5F
  0
MATERIAL
  5
4E99
102
{ACAD_XDICTIONARY
360
4E9A
102
}
102
{ACAD_REACTORS
330
4E90
102
}
330
4E90
100
AcDbMaterial
  1
ByBlock
 72
     0
 43
0.0208333333333333
 43
0.0
 43
0.0
 43
0.0
 43
0.0
 43
0.0208333333333333
 43
0.0
 43
0.0
 43
0.0
 43
0.0
 43
1.0
 43
0.0
 43
0.0
 43
0.0
 43
0.0
 43
1.0
 77
     0
 47
0.0208333333333333
 47
0.0
 47
0.0
 47
0.0
 47
0.0
 47
0.0208333333333333
 47
0.0
 47
0.0
 47
0.0
 47
0.0
 47
1.0
 47
0.0
 47
0.0
 47
0.0
 47
0.0
 47
1.0
171
     0
 49
0.0208333333333333
 49
0.0
 49
0.0
 49
0.0
 49
0.0
 49
0.0208333333333333
 49
0.0
 49
0.0
 49
0.0
 49
0.0
 49
1.0
 49
0.0
 49
0.0
 49
0.0
 49
0.0
 49
1.0
175
     0
142
0.0208333333333333
142
0.0
142
0.0
142
0.0
142
0.0
142
0.0208333333333333
142
0.0
142
0.0
142
0.0
142
0.0
142
1.0
142
0.0
142
0.0
142
0.0
142
0.0
142
1.0
179
     0
144
0.0208333333333333
144
0.0
144
0.0
144
0.0
144
0.0
144
0.0208333333333333
144
0.0
144
0.0
144
0.0
144
0.0
144
1.0
144
0.0
144
0.0
144
0.0
144
0.0
144
1.0
147
0.0208333333333333
147
0.0
147
0.0
147
0.0
147
0.0
147
0.0208333333333333
147
0.0
147
0.0
147
0.0
147
0.0
147
1.0
147
0.0
147
0.0
147
0.0
147
0.0
147
1.0
  0
MATERIAL
  5
4E91
102
{ACAD_XDICTIONARY
360
4E92
102
}
102
{ACAD_REACTORS
330
4E90
102
}
330
4E90
100
AcDbMaterial
  1
ByLayer
 72
     0
 43
0.0208333333333333
 43
0.0
 43
0.0
 43
0.0
 43
0.0
 43
0.0208333333333333
 43
0.0
 43
0.0
 43
0.0
 43
0.0
 43
1.0
 43
0.0
 43
0.0
 43
0.0
 43
0.0
 43
1.0
 77
     0
 47
0.0208333333333333
 47
0.0
 47
0.0
 47
0.0
 47
0.0
 47
0.0208333333333333
 47
0.0
 47
0.0
 47
0.0
 47
0.0
 47
1.0
 47
0.0
 47
0.0
 47
0.0
 47
0.0
 47
1.0
171
     0
 49
0.0208333333333333
 49
0.0
 49
0.0
 49
0.0
 49
0.0
 49
0.0208333333333333
 49
0.0
 49
0.0
 49
0.0
 49
0.0
 49
1.0
 49
0.0
 49
0.0
 49
0.0
 49
0.0
 49
1.0
175
     0
142
0.0208333333333333
142
0.0
142
0.0
142
0.0
142
0.0
142
0.0208333333333333
142
0.0
142
0.0
142
0.0
142
0.0
142
1.0
142
0.0
142
0.0
142
0.0
142
0.0
142
1.0
179
     0
144
0.0208333333333333
144
0.0
144
0.0
144
0.0
144
0.0
144
0.0208333333333333
144
0.0
144
0.0
144
0.0
144
0.0
144
1.0
144
0.0
144
0.0
144
0.0
144
0.0
144
1.0
147
0.0208333333333333
147
0.0
147
0.0
147
0.0
147
0.0
147
0.0208333333333333
147
0.0
147
0.0
147
0.0
147
0.0
147
1.0
147
0.0
147
0.0
147
0.0
147
0.0
147
1.0
  0
MATERIAL
  5
4EA1
102
{ACAD_XDICTIONARY
360
4EA2
102
}
102
{ACAD_REACTORS
330
4E90
102
}
330
4E90
100
AcDbMaterial
  1
Global
 72
     0
 43
0.0208333333333333
 43
0.0
 43
0.0
 43
0.0
 43
0.0
 43
0.0208333333333333
 43
0.0
 43
0.0
 43
0.0
 43
0.0
 43
1.0
 43
0.0
 43
0.0
 43
0.0
 43
0.0
 43
1.0
 77
     0
 47
0.0208333333333333
 47
0.0
 47
0.0
 47
0.0
 47
0.0
 47
0.0208333333333333
 47
0.0
 47
0.0
 47
0.0
 47
0.0
 47
1.0
 47
0.0
 47
0.0
 47
0.0
 47
0.0
 47
1.0
171
     0
 49
0.0208333333333333
 49
0.0
 49
0.0
 49
0.0
 49
0.0
 49
0.0208333333333333
 49
0.0
 49
0.0
 49
0.0
 49
0.0
 49
1.0
 49
0.0
 49
0.0
 49
0.0
 49
0.0
 49
1.0
175
     0
142
0.0208333333333333
142
0.0
142
0.0
142
0.0
142
0.0
142
0.0208333333333333
142
0.0
142
0.0
142
0.0
142
0.0
142
1.0
142
0.0
142
0.0
142
0.0
142
0.0
142
1.0
179
     0
144
0.0208333333333333
144
0.0
144
0.0
144
0.0
144
0.0
144
0.0208333333333333
144
0.0
144
0.0
144
0.0
144
0.0
144
1.0
144
0.0
144
0.0
144
0.0
144
0.0
144
1.0
147
0.0208333333333333
147
0.0
147
0.0
147
0.0
147
0.0
147
0.0208333333333333
147
0.0
147
0.0
147
0.0
147
0.0
147
1.0
147
0.0
147
0.0
147
0.0
147
0.0
147
1.0
  0
MLEADERSTYLE
  5
5623
102
{ACAD_XDICTIONARY
360
87A0
102
}
102
{ACAD_REACTORS
330
4ED3
102
}
330
4ED3
100
AcDbMLeaderStyle
170
     2
171
     1
172
     0
 90
        2
 40
0.0
 41
0.0
173
     1
 91
-1023410167
340
12
 92
       -2
290
     1
 42
1.0
291
     1
 43
0.36
  3
Standard
 44
2.5
300

342
F
174
     6
178
     6
175
     1
176
     0
 93
-1023410172
 45
2.5
292
     0
297
     0
 46
0.18
 94
-1056964608
 47
1.0
 49
1.0
140
1.0
293
     1
141
0.0
294
     1
177
     0
142
2.0
295
     0
296
     0
143
0.125
1001
ACAD_MLEADERVER
1070
     2
  0
MLEADERSTYLE
  5
4ED4
102
{ACAD_XDICTIONARY
360
879A
102
}
102
{ACAD_REACTORS
330
4ED3
102
}
330
4ED3
100
AcDbMLeaderStyle
170
     2
171
     1
172
     0
 90
        2
 40
0.0
 41
0.0
173
     1
 91
-1056964608
340
12
 92
       -2
290
     1
 42
2.0
291
     1
 43
0.36
  3
Standard
 44
4.0
300

342
F
174
     1
178
     6
175
     1
176
     0
 93
-1056964608
 45
4.0
292
     0
297
     0
 46
4.0
 94
-1056964608
 47
1.0
 49
1.0
140
1.0
293
     1
141
0.0
294
     1
177
     0
142
1.0
295
     0
296
     0
143
0.125
1001
ACAD_MLEADERVER
1070
     2
  0
MLINESTYLE
  5
1C
102
{ACAD_REACTORS
330
1B
102
}
330
1B
100
AcDbMlineStyle
  2
STANDARD
 70
     0
  3

 62
   256
 51
90.0
 52
90.0
 71
     2
 49
0.5
 62
   256
  6
BYLAYER
 49
-0.5
 62
   256
  6
BYLAYER
  0
ACDBPLACEHOLDER
  5
4DF9
102
{ACAD_REACTORS
330
4DF8
102
}
330
4DF8
  0
SCALE
  5
4EC6
102
{ACAD_REACTORS
330
4EC5
102
}
330
4EC5
100
AcDbScale
 70
     0
300
1:1
140
1.0
141
1.0
290
     1
  0
SCALE
  5
4EC7
102
{ACAD_REACTORS
330
4EC5
102
}
330
4EC5
100
AcDbScale
 70
     0
300
1:2
140
1.0
141
2.0
290
     0
  0
SCALE
  5
4EC8
102
{ACAD_REACTORS
330
4EC5
102
}
330
4EC5
100
AcDbScale
 70
     0
300
1:3
140
1.0
141
3.0
290
     0
  0
SCALE
  5
4EC9
102
{ACAD_REACTORS
330
4EC5
102
}
330
4EC5
100
AcDbScale
 70
     0
300
1:4
140
1.0
141
4.0
290
     0
  0
SCALE
  5
4ECA
102
{ACAD_REACTORS
330
4EC5
102
}
330
4EC5
100
AcDbScale
 70
     0
300
1:5
140
1.0
141
5.0
290
     0
  0
SCALE
  5
4ECB
102
{ACAD_REACTORS
330
4EC5
102
}
330
4EC5
100
AcDbScale
 70
     0
300
1:6
140
1.0
141
6.0
290
     0
  0
SCALE
  5
4ECC
102
{ACAD_REACTORS
330
4EC5
102
}
330
4EC5
100
AcDbScale
 70
     0
300
1:10
140
1.0
141
10.0
290
     0
  0
SCALE
  5
4ECD
102
{ACAD_REACTORS
330
4EC5
102
}
330
4EC5
100
AcDbScale
 70
     0
300
1:20
140
1.0
141
20.0
290
     0
  0
SCALE
  5
4ECE
102
{ACAD_REACTORS
330
4EC5
102
}
330
4EC5
100
AcDbScale
 70
     0
300
1:30
140
1.0
141
30.0
290
     0
  0
SCALE
  5
4ECF
102
{ACAD_REACTORS
330
4EC5
102
}
330
4EC5
100
AcDbScale
 70
     0
300
1:40
140
1.0
141
40.0
290
     0
  0
SCALE
  5
4ED0
102
{ACAD_REACTORS
330
4EC5
102
}
330
4EC5
100
AcDbScale
 70
     0
300
1:50
140
1.0
141
50.0
290
     0
  0
SCALE
  5
4ED1
102
{ACAD_REACTORS
330
4EC5
102
}
330
4EC5
100
AcDbScale
 70
     0
300
1:100
140
1.0
141
100.0
290
     0
  0
SCALE
  5
4ED2
102
{ACAD_REACTORS
330
4EC5
102
}
330
4EC5
100
AcDbScale
 70
     0
300
2:1
140
2.0
141
1.0
290
     0
  0
ACDBSECTIONVIEWSTYLE
  5
4ED6
102
{ACAD_XDICTIONARY
360
879C
102
}
102
{ACAD_REACTORS
330
4ED5
102
}
330
4ED5
100
AcDbModelDocViewStyle
 70
     0
  3
Metric50
290
     0
100
AcDbSectionViewStyle
 70
     0
 71
     0
 90
      102
 71
     1
340
F
 40
5.0
340
0
340
0
 40
5.0
300
I, O, Q, S, X, Z
 40
10.0
 90
        0
 40
2.5
 90
        0
 71
     2
340
14
 90
       25
340
14
 90
       50
 40
5.0
 40
2.5
 40
5.0
 71
     3
340
F
 40
5.0
 90
        0
 40
15.0
 90
        1
300
%<\AcVar ViewSectionStartId>%-%<\AcVar ViewSectionEndId>% (%<\AcVar ViewScale \f "%sn">%)
 71
     4
300
ANSI31
 40
1.0
 90
        0
290
     0
290
     0
 90
        6
 40
0.0
 40
1.570796326794896
 40
0.2617993877991494
 40
1.308996938995747
 40
-0.2617993877991494
 40
1.832595714594045
  0
TABLESTYLE
  5
4EC4
102
{ACAD_XDICTIONARY
360
4EE4
102
}
102
{ACAD_REACTORS
330
4EC3
102
}
330
4EC3
100
AcDbTableStyle
  3
Standard
 70
     0
 71
     0
 40
1.5
 41
1.5
280
     0
281
     0
  7
STANDARD
140
4.5
170
     2
 62
     0
 63
     7
283
     0
274
    -2
284
     1
 64
     0
275
    -2
285
     1
 65
     0
276
    -2
286
     1
 66
     0
277
    -2
287
     1
 67
     0
278
    -2
288
     1
 68
     0
279
    -2
289
     1
 69
     0
  7
STANDARD
140
6.0
170
     5
 62
     0
 63
     7
283
     0
274
    -2
284
     1
 64
     0
275
    -2
285
     1
 65
     0
276
    -2
286
     1
 66
     0
277
    -2
287
     1
 67
     0
278
    -2
288
     1
 68
     0
279
    -2
289
     1
 69
     0
  7
STANDARD
140
4.5
170
     5
 62
     0
 63
     7
283
     0
274
    -2
284
     1
 64
     0
275
    -2
285
     1
 65
     0
276
    -2
286
     1
 66
     0
277
    -2
287
     1
 67
     0
278
    -2
288
     1
 68
     0
279
    -2
289
     1
 69
     0
  0
VISUALSTYLE
  5
4EAF
102
{ACAD_XDICTIONARY
360
8773
102
}
102
{ACAD_REACTORS
330
4EA9
102
}
330
4EA9
100
AcDbVisualStyle
  2

 70
     4
 71
     0
 72
     2
 73
     0
 90
        0
 40
-0.6
 41
-30.0
 62
     5
 63
     7
 74
     1
 91
        4
 64
     7
 65
   257
 75
     1
175
     1
 42
1.0
 92
        0
 66
   257
 43
1.0
 76
     1
 77
     6
 78
     2
 67
     7
 79
     5
170
     0
171
     0
290
     0
174
     0
 93
        1
 44
0.0
173
     0
291
     0
 45
0.0
1001
ACAD
1000
AcDbSavedByObjectVersion
1070
     0
  0
VISUALSTYLE
  5
4EAE
102
{ACAD_XDICTIONARY
360
8771
102
}
102
{ACAD_REACTORS
330
4EA9
102
}
330
4EA9
100
AcDbVisualStyle
  2

 70
     7
 71
     1
 72
     0
 73
     1
 90
        0
 40
-0.6
 41
-30.0
 62
     5
 63
     7
 74
     0
 91
        4
 64
     7
 65
   257
 75
     1
175
     1
 42
1.0
 92
        8
 66
     7
 43
1.0
 76
     1
 77
     6
 78
     2
 67
     7
 79
     5
170
     0
171
     0
290
     0
174
     0
 93
        1
 44
0.0
173
     0
291
     1
 45
0.0
1001
ACAD
1000
AcDbSavedByObjectVersion
1070
     0
  0
VISUALSTYLE
  5
4EB5
102
{ACAD_XDICTIONARY
360
877F
102
}
102
{ACAD_REACTORS
330
4EA9
102
}
330
4EA9
100
AcDbVisualStyle
  2

 70
    12
 71
     2
 72
     2
 73
     0
 90
        0
 40
-0.6
 41
-30.0
 62
     5
 63
     7
 74
     1
 91
        4
 64
     7
 65
   257
 75
     1
175
     1
 42
1.0
 92
        8
 66
     7
 43
1.0
 76
     1
 77
     6
 78
     2
 67
     7
 79
     5
170
     0
171
     0
290
     0
174
     0
 93
        1
 44
50.0
173
     0
291
     1
 45
0.0
1001
ACAD
1000
AcDbSavedByObjectVersion
1070
     0
  0
VISUALSTYLE
  5
4EB9
102
{ACAD_XDICTIONARY
360
8787
102
}
102
{ACAD_REACTORS
330
4EA9
102
}
330
4EA9
100
AcDbVisualStyle
  2

 70
    16
 71
     2
 72
     2
 73
     3
 90
        0
 40
-0.6
 41
-30.0
 62
     5
 63
     8
 74
     1
 91
        4
 64
     7
 65
   257
 75
     1
175
     1
 42
1.0
 92
        8
 66
     8
 43
1.0
 76
     1
 77
     6
 78
     2
 67
     7
 79
     5
170
     0
171
     0
290
     0
174
     0
 93
        1
 44
0.0
173
     0
291
     1
 45
0.0
1001
ACAD
1000
AcDbSavedByObjectVersion
1070
     0
  0
VISUALSTYLE
  5
4EB2
102
{ACAD_XDICTIONARY
360
8779
102
}
102
{ACAD_REACTORS
330
4EA9
102
}
330
4EA9
100
AcDbVisualStyle
  2

 70
     9
 71
     3
 72
     2
 73
     0
 90
        0
 40
-0.6
 41
-30.0
 62
     5
 63
     7
 74
     2
 91
        2
 64
     7
 65
   257
 75
     1
175
     1
 42
179.0
 92
        8
 66
     7
 43
1.0
 76
     1
 77
     6
 78
     2
 67
     7
 79
     3
170
     0
171
     0
290
     0
174
     0
 93
        1
 44
0.0
173
     0
291
     0
 45
0.0
1001
ACAD
1000
AcDbSavedByObjectVersion
1070
     0
  0
VISUALSTYLE
  5
4EB4
102
{ACAD_XDICTIONARY
360
877D
102
}
102
{ACAD_REACTORS
330
4EA9
102
}
330
4EA9
100
AcDbVisualStyle
  2

 70
    11
 71
     2
 72
     2
 73
     0
 90
        0
 40
-0.6
 41
-30.0
 62
     5
 63
     7
 74
     1
 91
        4
 64
     7
 65
   257
 75
     1
175
     1
 42
1.0
 92
        8
 66
     7
 43
1.0
 76
     1
 77
     6
 78
     2
 67
     7
 79
     5
170
     0
171
     0
290
     0
174
     0
 93
        1
 44
-50.0
173
     0
291
     1
 45
0.0
1001
ACAD
1000
AcDbSavedByObjectVersion
1070
     0
  0
VISUALSTYLE
  5
4EC1
102
{ACAD_XDICTIONARY
360
8797
102
}
102
{ACAD_REACTORS
330
4EA9
102
}
330
4EA9
100
AcDbVisualStyle
  2

 70
    22
 71
     2
 72
     2
 73
     0
 90
        0
 40
-0.6
 41
-30.0
 62
     5
 63
     7
 74
     1
 91
        4
 64
     7
 65
   257
 75
     1
175
     1
 42
1.0
 92
        8
 66
     7
 43
1.0
 76
     1
 77
     6
 78
     2
 67
     7
 79
     5
170
     0
171
     0
290
     0
174
     0
 93
        1
 44
0.0
173
     0
291
     1
 45
0.0
1001
ACAD
1000
AcDbSavedByObjectVersion
1070
     0
  0
VISUALSTYLE
  5
4EB8
102
{ACAD_XDICTIONARY
360
8785
102
}
102
{ACAD_REACTORS
330
4EA9
102
}
330
4EA9
100
AcDbVisualStyle
  2

 70
    15
 71
     2
 72
     2
 73
     0
 90
        0
 40
-0.6
 41
-30.0
 62
     5
 63
     7
 74
     1
 91
        4
 64
     7
 65
   257
 75
     1
175
     1
 42
1.0
 92
        8
 66
     7
 43
1.0
 76
     1
 77
     6
 78
     2
 67
     7
 79
     5
170
     0
171
     0
290
     0
174
     0
 93
        1
 44
0.0
173
     0
291
     1
 45
0.0
1001
ACAD
1000
AcDbSavedByObjectVersion
1070
     0
  0
VISUALSTYLE
  5
4EAA
102
{ACAD_XDICTIONARY
360
8769
102
}
102
{ACAD_REACTORS
330
4EA9
102
}
330
4EA9
100
AcDbVisualStyle
  2

 70
     0
 71
     2
 72
     1
 73
     1
 90
        2
 40
-0.6
 41
30.0
 62
     5
 63
     7
 74
     0
 91
        0
 64
     7
 65
   257
 75
     1
175
     1
 42
1.0
 92
        8
 66
     7
 43
1.0
 76
     1
 77
     6
 78
     2
 67
     7
 79
     5
170
     0
171
     0
290
     0
174
     0
 93
       13
 44
0.0
173
     0
291
     1
 45
0.0
1001
ACAD
1000
AcDbSavedByObjectVersion
1070
     0
  0
VISUALSTYLE
  5
4EAB
102
{ACAD_XDICTIONARY
360
876B
102
}
102
{ACAD_REACTORS
330
4EA9
102
}
330
4EA9
100
AcDbVisualStyle
  2

 70
     1
 71
     2
 72
     1
 73
     1
 90
        2
 40
-0.6
 41
30.0
 62
     5
 63
     7
 74
     1
 91
        0
 64
     7
 65
   257
 75
     1
175
     1
 42
1.0
 92
        0
 66
   257
 43
1.0
 76
     1
 77
     6
 78
     2
 67
     7
 79
     5
170
     0
171
     0
290
     0
174
     0
 93
       13
 44
0.0
173
     0
291
     1
 45
0.0
1001
ACAD
1000
AcDbSavedByObjectVersion
1070
     0
  0
VISUALSTYLE
  5
4EAC
102
{ACAD_XDICTIONARY
360
876D
102
}
102
{ACAD_REACTORS
330
4EA9
102
}
330
4EA9
100
AcDbVisualStyle
  2

 70
     2
 71
     2
 72
     2
 73
     1
 90
        2
 40
-0.6
 41
30.0
 62
     5
 63
     7
 74
     0
 91
        0
 64
     7
 65
   257
 75
     1
175
     1
 42
1.0
 92
        0
 66
     7
 43
1.0
 76
     1
 77
     6
 78
     2
 67
     7
 79
     5
170
     0
171
     0
290
     0
174
     0
 93
       13
 44
0.0
173
     0
291
     1
 45
0.0
1001
ACAD
1000
AcDbSavedByObjectVersion
1070
     0
  0
VISUALSTYLE
  5
4EAD
102
{ACAD_XDICTIONARY
360
876F
102
}
102
{ACAD_REACTORS
330
4EA9
102
}
330
4EA9
100
AcDbVisualStyle
  2

 70
     3
 71
     2
 72
     2
 73
     1
 90
        2
 40
-0.6
 41
30.0
 62
     5
 63
     7
 74
     1
 91
        0
 64
     7
 65
   257
 75
     1
175
     1
 42
1.0
 92
        0
 66
   257
 43
1.0
 76
     1
 77
     6
 78
     2
 67
     7
 79
     5
170
     0
171
     0
290
     0
174
     0
 93
       13
 44
0.0
173
     0
291
     1
 45
0.0
1001
ACAD
1000
AcDbSavedByObjectVersion
1070
     0
  0
VISUALSTYLE
  5
4EB1
102
{ACAD_XDICTIONARY
360
8777
102
}
102
{ACAD_REACTORS
330
4EA9
102
}
330
4EA9
100
AcDbVisualStyle
  2

 70
     6
 71
     1
 72
     2
 73
     2
 90
        0
 40
-0.6
 41
-30.0
 62
     5
 63
     7
 74
     2
 91
        2
 64
     7
 65
   257
 75
     2
175
     1
 42
40.0
 92
        0
 66
   257
 43
1.0
 76
     1
 77
     6
 78
     2
 67
     7
 79
     3
170
     0
171
     0
290
     0
174
     0
 93
        1
 44
0.0
173
     0
291
     0
 45
0.0
1001
ACAD
1000
AcDbSavedByObjectVersion
1070
     0
  0
VISUALSTYLE
  5
4EBF
102
{ACAD_XDICTIONARY
360
8793
102
}
102
{ACAD_REACTORS
330
4EA9
102
}
330
4EA9
100
AcDbVisualStyle
  2

 70
    20
 71
     2
 72
     2
 73
     0
 90
        0
 40
-0.6
 41
-30.0
 62
     5
 63
     7
 74
     1
 91
        4
 64
     7
 65
   257
 75
     1
175
     1
 42
1.0
 92
       10
 66
     7
 43
1.0
 76
     1
 77
     6
 78
     2
 67
     7
 79
     5
170
     0
171
     0
290
     0
174
     0
 93
        1
 44
0.0
173
     0
291
     1
 45
0.0
1001
ACAD
1000
AcDbSavedByObjectVersion
1070
     0
  0
VISUALSTYLE
  5
4EB7
102
{ACAD_XDICTIONARY
360
8783
102
}
102
{ACAD_REACTORS
330
4EA9
102
}
330
4EA9
100
AcDbVisualStyle
  2

 70
    14
 71
     2
 72
     2
 73
     0
 90
        0
 40
-0.6
 41
-30.0
 62
     5
 63
     7
 74
     1
 91
        4
 64
     7
 65
   257
 75
     7
175
     7
 42
1.0
 92
        8
 66
     7
 43
1.0
 76
     1
 77
     6
 78
     2
 67
     7
 79
     5
170
     0
171
     0
290
     0
174
     0
 93
        1
 44
0.0
173
     0
291
     1
 45
0.0
1001
ACAD
1000
AcDbSavedByObjectVersion
1070
     0
  0
VISUALSTYLE
  5
4EC0
102
{ACAD_XDICTIONARY
360
8795
102
}
102
{ACAD_REACTORS
330
4EA9
102
}
330
4EA9
100
AcDbVisualStyle
  2

 70
    21
 71
     2
 72
     2
 73
     0
 90
        0
 40
-0.6
 41
-30.0
 62
     5
 63
     7
 74
     1
 91
        4
 64
     7
 65
   257
 75
     1
175
     1
 42
1.0
 92
        9
 66
     7
 43
1.0
 76
     1
 77
     6
 78
     2
 67
     7
 79
     5
170
     0
171
     0
290
     0
174
     0
 93
        1
 44
0.0
173
     0
291
     1
 45
0.0
1001
ACAD
1000
AcDbSavedByObjectVersion
1070
     0
  0
VISUALSTYLE
  5
4EB3
102
{ACAD_XDICTIONARY
360
877B
102
}
102
{ACAD_REACTORS
330
4EA9
102
}
330
4EA9
100
AcDbVisualStyle
  2

 70
     8
 71
     2
 72
     2
 73
     0
 90
        2
 40
-0.6
 41
30.0
 62
     5
 63
     7
 74
     0
 91
        0
 64
     7
 65
   257
 75
     1
175
     1
 42
1.0
 92
        8
 66
   257
 43
1.0
 76
     1
 77
     6
 78
     2
 67
     7
 79
     3
170
     0
171
     0
290
     0
174
     0
 93
       13
 44
0.0
173
     0
291
     0
 45
0.0
1001
ACAD
1000
AcDbSavedByObjectVersion
1070
     0
  0
VISUALSTYLE
  5
4EBE
102
{ACAD_XDICTIONARY
360
8791
102
}
102
{ACAD_REACTORS
330
4EA9
102
}
330
4EA9
100
AcDbVisualStyle
  2

 70
    27
 71
     2
 72
     2
 73
     1
 90
        2
 40
-0.6
 41
30.0
 62
     5
 63
     7
 74
     0
 91
        4
 64
     7
 65
   257
 75
     1
175
     1
 42
1.0
 92
        8
 66
   257
 43
1.0
 76
     1
 77
     6
 78
     2
 67
     8
 79
     3
170
     0
171
     0
290
     0
174
     0
 93
        5
 44
0.0
173
     0
291
     0
 45
0.0
1001
ACAD
1000
AcDbSavedByObjectVersion
1070
     0
  0
VISUALSTYLE
  5
4EBD
102
{ACAD_XDICTIONARY
360
878F
102
}
102
{ACAD_REACTORS
330
4EA9
102
}
330
4EA9
100
AcDbVisualStyle
  2

 70
    26
 71
     2
 72
     2
 73
     1
 90
        2
 40
-0.6
 41
30.0
 62
     5
 63
     7
 74
     1
 91
        2
 64
     7
 65
   257
 75
     2
175
     1
 42
1.0
 92
        8
 66
   257
 43
1.0
 76
     1
 77
     6
 78
     2
 67
     7
 79
     3
170
     0
171
     0
290
     0
174
     0
 93
        5
 44
0.0
173
     0
291
     0
 45
0.0
1001
ACAD
1000
AcDbSavedByObjectVersion
1070
     0
  0
VISUALSTYLE
  5
4EBA
102
{ACAD_XDICTIONARY
360
8789
102
}
102
{ACAD_REACTORS
330
4EA9
102
}
330
4EA9
100
AcDbVisualStyle
  2

 70
    23
 71
     2
 72
     2
 73
     3
 90
        0
 40
-0.6
 41
-30.0
 62
     5
 63
     7
 74
     2
 91
        2
 64
     7
 65
     7
 75
     1
175
     1
 42
40.0
 92
        8
 66
     7
 43
1.0
 76
     1
 77
     6
 78
     2
 67
     7
 79
     3
170
     0
171
     0
290
     0
174
     0
 93
        1
 44
0.0
173
     0
291
     0
 45
0.0
1001
ACAD
1000
AcDbSavedByObjectVersion
1070
     0
  0
VISUALSTYLE
  5
4EBB
102
{ACAD_XDICTIONARY
360
878B
102
}
102
{ACAD_REACTORS
330
4EA9
102
}
330
4EA9
100
AcDbVisualStyle
  2

 70
    24
 71
     1
 72
     2
 73
     2
 90
        0
 40
-0.6
 41
-30.0
 62
     5
 63
     7
 74
     2
 91
        2
 64
     7
 65
     7
 75
     1
175
     1
 42
40.0
 92
       11
 66
     7
 43
1.0
 76
     1
 77
     6
 78
     2
 67
     7
 79
     6
170
     0
171
     0
290
     0
174
     0
 93
        1
 44
0.0
173
     0
291
     0
 45
0.0
1001
ACAD
1000
AcDbSavedByObjectVersion
1070
     0
  0
VISUALSTYLE
  5
4EB6
102
{ACAD_XDICTIONARY
360
8781
102
}
102
{ACAD_REACTORS
330
4EA9
102
}
330
4EA9
100
AcDbVisualStyle
  2

 70
    13
 71
     2
 72
     2
 73
     0
 90
        0
 40
-0.6
 41
-30.0
 62
     5
 63
     7
 74
     1
 91
        4
 64
     7
 65
   257
 75
     1
175
     1
 42
1.0
 92
       12
 66
     7
 43
1.0
 76
     1
 77
     6
 78
     2
 67
     7
 79
     5
170
     0
171
     0
290
     0
174
     0
 93
        1
 44
0.0
173
     0
291
     1
 45
0.0
1001
ACAD
1000
AcDbSavedByObjectVersion
1070
     0
  0
VISUALSTYLE
  5
4EB0
102
{ACAD_XDICTIONARY
360
8775
102
}
102
{ACAD_REACTORS
330
4EA9
102
}
330
4EA9
100
AcDbVisualStyle
  2

 70
     5
 71
     0
 72
     2
 73
     0
 90
        0
 40
-0.6
 41
-30.0
 62
     5
 63
     7
 74
     1
 91
        4
 64
     7
 65
   257
 75
     1
175
     1
 42
1.0
 92
        0
 66
   257
 43
1.0
 76
     1
 77
     6
 78
     2
 67
     7
 79
     3
170
     0
171
     0
290
     0
174
     0
 93
        1
 44
0.0
173
     0
291
     0
 45
0.0
1001
ACAD
1000
AcDbSavedByObjectVersion
1070
     0
  0
VISUALSTYLE
  5
4EBC
102
{ACAD_XDICTIONARY
360
878D
102
}
102
{ACAD_REACTORS
330
4EA9
102
}
330
4EA9
100
AcDbVisualStyle
  2

 70
    25
 71
     2
 72
     2
 73
     1
 90
        1
 40
0.5
 41
-30.0
 62
     5
 63
     7
 74
     1
 91
        0
 64
     7
 65
   257
 75
     1
175
     1
 42
1.0
 92
        8
 66
     7
 43
1.0
 76
     1
 77
     6
 78
     2
 67
     7
 79
     3
170
     0
171
     0
290
     0
174
     0
 93
       13
 44
0.0
173
     0
291
     0
 45
0.0
1001
ACAD
1000
AcDbSavedByObjectVersion
1070
     0
  0
DICTIONARYVAR
  5
4F31
102
{ACAD_REACTORS
330
33
102
}
330
33
100
DictionaryVariables
280
     0
  1
1:1
  0
DICTIONARYVAR
  5
4F2E
102
{ACAD_REACTORS
330
33
102
}
330
33
100
DictionaryVariables
280
     0
  1
STANDARD
  0
DICTIONARYVAR
  5
4F2D
102
{ACAD_REACTORS
330
33
102
}
330
33
100
DictionaryVariables
280
     0
  1
STANDARD
  0
DICTIONARYVAR
  5
4F2F
102
{ACAD_REACTORS
330
33
102
}
330
33
100
DictionaryVariables
280
     0
  1
Metric50
  0
DICTIONARYVAR
  5
4F30
102
{ACAD_REACTORS
330
33
102
}
330
33
100
DictionaryVariables
280
     0
  1
Metric50
  0
DICTIONARYVAR
  5
34
102
{ACAD_REACTORS
330
33
102
}
330
33
100
DictionaryVariables
280
     0
  1
0
  0
DICTIONARYVAR
  5
4F34
102
{ACAD_REACTORS
330
33
102
}
330
33
100
DictionaryVariables
280
     0
  1
1
  0
DICTIONARYVAR
  5
4F33
102
{ACAD_REACTORS
330
33
102
}
330
33
100
DictionaryVariables
280
     0
  1
0
  0
DICTIONARYVAR
  5
4F32
102
{ACAD_REACTORS
330
33
102
}
330
33
100
DictionaryVariables
280
     0
  1
127
  0
DICTIONARYVAR
  5
875A
102
{ACAD_REACTORS
330
33
102
}
330
33
100
DictionaryVariables
280
     0
  1
2
  0
DICTIONARY
  5
879E
330
4ED8
100
AcDbDictionary
280
     1
281
     1
  3
ACAD_XREC_ROUNDTRIP
360
879F
  0
DICTIONARY
  5
875E
330
4DFC
100
AcDbDictionary
280
     1
281
     1
  3
ACAD_XREC_ROUNDTRIP
360
875F
  0
DICTIONARY
  5
8760
330
4DFD
100
AcDbDictionary
280
     1
281
     1
  3
ACAD_XREC_ROUNDTRIP
360
8761
  0
DICTIONARY
  5
4E9A
330
4E99
100
AcDbDictionary
280
     1
281
     1
  3
ACAD_XREC_ROUNDTRIP
360
8767
  3
BUMPTILE
360
4E9C
  3
DIFFUSETILE
360
4E9B
  3
OPACITYTILE
360
4E9F
  3
REFLECTIONTILE
360
4E9E
  3
REFRACTIONTILE
360
4EA0
  3
SPECULARTILE
360
4E9D
  0
DICTIONARY
  5
4E92
330
4E91
100
AcDbDictionary
280
     1
281
     1
  3
ACAD_XREC_ROUNDTRIP
360
8766
  3
BUMPTILE
360
4E94
  3
DIFFUSETILE
360
4E93
  3
OPACITYTILE
360
4E97
  3
REFLECTIONTILE
360
4E96
  3
REFRACTIONTILE
360
4E98
  3
SPECULARTILE
360
4E95
  0
DICTIONARY
  5
4EA2
330
4EA1
100
AcDbDictionary
280
     1
281
     1
  3
ACAD_XREC_ROUNDTRIP
360
8768
  3
BUMPTILE
360
4EA4
  3
DIFFUSETILE
360
4EA3
  3
OPACITYTILE
360
4EA7
  3
REFLECTIONTILE
360
4EA6
  3
REFRACTIONTILE
360
4EA8
  3
SPECULARTILE
360
4EA5
  0
DICTIONARY
  5
87A0
330
5623
100
AcDbDictionary
280
     1
281
     1
  3
ACAD_XREC_ROUNDTRIP
360
87A1
  0
DICTIONARY
  5
879A
330
4ED4
100
AcDbDictionary
280
     1
281
     1
  3
ACAD_XREC_ROUNDTRIP
360
879B
  0
DICTIONARY
  5
879C
330
4ED6
100
AcDbDictionary
280
     1
281
     1
  3
ACAD_XREC_ROUNDTRIP
360
879D
  0
DICTIONARY
  5
4EE4
330
4EC4
100
AcDbDictionary
280
     1
281
     1
  3
ACAD_ROUNDTRIP_2008_TABLESTYLE_CELLSTYLEMAP
360
875B
  3
ACAD_XREC_ROUNDTRIP
360
8799
  0
DICTIONARY
  5
8773
330
4EAF
100
AcDbDictionary
280
     1
281
     1
  3
ACAD_XREC_ROUNDTRIP
360
8774
  0
DICTIONARY
  5
8771
330
4EAE
100
AcDbDictionary
280
     1
281
     1
  3
ACAD_XREC_ROUNDTRIP
360
8772
  0
DICTIONARY
  5
877F
330
4EB5
100
AcDbDictionary
280
     1
281
     1
  3
ACAD_XREC_ROUNDTRIP
360
8780
  0
DICTIONARY
  5
8787
330
4EB9
100
AcDbDictionary
280
     1
281
     1
  3
ACAD_XREC_ROUNDTRIP
360
8788
  0
DICTIONARY
  5
8779
330
4EB2
100
AcDbDictionary
280
     1
281
     1
  3
ACAD_XREC_ROUNDTRIP
360
877A
  0
DICTIONARY
  5
877D
330
4EB4
100
AcDbDictionary
280
     1
281
     1
  3
ACAD_XREC_ROUNDTRIP
360
877E
  0
DICTIONARY
  5
8797
330
4EC1
100
AcDbDictionary
280
     1
281
     1
  3
ACAD_XREC_ROUNDTRIP
360
8798
  0
DICTIONARY
  5
8785
330
4EB8
100
AcDbDictionary
280
     1
281
     1
  3
ACAD_XREC_ROUNDTRIP
360
8786
  0
DICTIONARY
  5
8769
330
4EAA
100
AcDbDictionary
280
     1
281
     1
  3
ACAD_XREC_ROUNDTRIP
360
876A
  0
DICTIONARY
  5
876B
330
4EAB
100
AcDbDictionary
280
     1
281
     1
  3
ACAD_XREC_ROUNDTRIP
360
876C
  0
DICTIONARY
  5
876D
330
4EAC
100
AcDbDictionary
280
     1
281
     1
  3
ACAD_XREC_ROUNDTRIP
360
876E
  0
DICTIONARY
  5
876F
330
4EAD
100
AcDbDictionary
280
     1
281
     1
  3
ACAD_XREC_ROUNDTRIP
360
8770
  0
DICTIONARY
  5
8777
330
4EB1
100
AcDbDictionary
280
     1
281
     1
  3
ACAD_XREC_ROUNDTRIP
360
8778
  0
DICTIONARY
  5
8793
330
4EBF
100
AcDbDictionary
280
     1
281
     1
  3
ACAD_XREC_ROUNDTRIP
360
8794
  0
DICTIONARY
  5
8783
330
4EB7
100
AcDbDictionary
280
     1
281
     1
  3
ACAD_XREC_ROUNDTRIP
360
8784
  0
DICTIONARY
  5
8795
330
4EC0
100
AcDbDictionary
280
     1
281
     1
  3
ACAD_XREC_ROUNDTRIP
360
8796
  0
DICTIONARY
  5
877B
330
4EB3
100
AcDbDictionary
280
     1
281
     1
  3
ACAD_XREC_ROUNDTRIP
360
877C
  0
DICTIONARY
  5
8791
330
4EBE
100
AcDbDictionary
280
     1
281
     1
  3
ACAD_XREC_ROUNDTRIP
360
8792
  0
DICTIONARY
  5
878F
330
4EBD
100
AcDbDictionary
280
     1
281
     1
  3
ACAD_XREC_ROUNDTRIP
360
8790
  0
DICTIONARY
  5
8789
330
4EBA
100
AcDbDictionary
280
     1
281
     1
  3
ACAD_XREC_ROUNDTRIP
360
878A
  0
DICTIONARY
  5
878B
330
4EBB
100
AcDbDictionary
280
     1
281
     1
  3
ACAD_XREC_ROUNDTRIP
360
878C
  0
DICTIONARY
  5
8781
330
4EB6
100
AcDbDictionary
280
     1
281
     1
  3
ACAD_XREC_ROUNDTRIP
360
8782
  0
DICTIONARY
  5
8775
330
4EB0
100
AcDbDictionary
280
     1
281
     1
  3
ACAD_XREC_ROUNDTRIP
360
8776
  0
DICTIONARY
  5
878D
330
4EBC
100
AcDbDictionary
280
     1
281
     1
  3
ACAD_XREC_ROUNDTRIP
360
878E
  0
XRECORD
  5
879F
102
{ACAD_REACTORS
330
879E
102
}
330
879E
100
AcDbXrecord
280
     1
102
DISPLAYNAME
  1
Metric50
102
FLAGS
 90
        0
  0
XRECORD
  5
875F
102
{ACAD_REACTORS
330
875E
102
}
330
875E
100
AcDbXrecord
280
     1
102
SHADEPLOT
 70
     0
102
SHADEPLOTRESLEVEL
 70
     2
102
SHADEPLOTCUSTOMDPI
 70
   300
  0
XRECORD
  5
8761
102
{ACAD_REACTORS
330
8760
102
}
330
8760
100
AcDbXrecord
280
     1
102
SHADEPLOT
 70
     0
102
SHADEPLOTRESLEVEL
 70
     2
102
SHADEPLOTCUSTOMDPI
 70
   300
  0
XRECORD
  5
8767
102
{ACAD_REACTORS
330
4E9A
102
}
330
4E9A
100
AcDbXrecord
280
     1
102
MATERIAL
148
0.0
149
0.0
149
0.0
 93
        0
 94
      127
282
     0
 72
     0
 77
     0
171
     0
175
     0
179
     0
273
     0
  0
XRECORD
  5
4E9C
102
{ACAD_REACTORS
330
4E9A
102
}
330
4E9A
100
AcDbXrecord
280
     1
270
     1
271
     1
  0
XRECORD
  5
4E9B
102
{ACAD_REACTORS
330
4E9A
102
}
330
4E9A
100
AcDbXrecord
280
     1
270
     1
271
     1
  0
XRECORD
  5
4E9F
102
{ACAD_REACTORS
330
4E9A
102
}
330
4E9A
100
AcDbXrecord
280
     1
270
     1
271
     1
  0
XRECORD
  5
4E9E
102
{ACAD_REACTORS
330
4E9A
102
}
330
4E9A
100
AcDbXrecord
280
     1
270
     1
271
     1
  0
XRECORD
  5
4EA0
102
{ACAD_REACTORS
330
4E9A
102
}
330
4E9A
100
AcDbXrecord
280
     1
270
     1
271
     1
  0
XRECORD
  5
4E9D
102
{ACAD_REACTORS
330
4E9A
102
}
330
4E9A
100
AcDbXrecord
280
     1
270
     1
271
     1
  0
XRECORD
  5
8766
102
{ACAD_REACTORS
330
4E92
102
}
330
4E92
100
AcDbXrecord
280
     1
102
MATERIAL
148
0.0
149
0.0
149
0.0
 93
        0
 94
      127
282
     0
 72
     0
 77
     0
171
     0
175
     0
179
     0
273
     0
  0
XRECORD
  5
4E94
102
{ACAD_REACTORS
330
4E92
102
}
330
4E92
100
AcDbXrecord
280
     1
270
     1
271
     1
  0
XRECORD
  5
4E93
102
{ACAD_REACTORS
330
4E92
102
}
330
4E92
100
AcDbXrecord
280
     1
270
     1
271
     1
  0
XRECORD
  5
4E97
102
{ACAD_REACTORS
330
4E92
102
}
330
4E92
100
AcDbXrecord
280
     1
270
     1
271
     1
  0
XRECORD
  5
4E96
102
{ACAD_REACTORS
330
4E92
102
}
330
4E92
100
AcDbXrecord
280
     1
270
     1
271
     1
  0
XRECORD
  5
4E98
102
{ACAD_REACTORS
330
4E92
102
}
330
4E92
100
AcDbXrecord
280
     1
270
     1
271
     1
  0
XRECORD
  5
4E95
102
{ACAD_REACTORS
330
4E92
102
}
330
4E92
100
AcDbXrecord
280
     1
270
     1
271
     1
  0
XRECORD
  5
8768
102
{ACAD_REACTORS
330
4EA2
102
}
330
4EA2
100
AcDbXrecord
280
     1
102
MATERIAL
148
0.0
149
0.0
149
0.0
 93
        0
 94
      127
282
     0
 72
     0
 77
     0
171
     0
175
     0
179
     0
273
     0
  0
XRECORD
  5
4EA4
102
{ACAD_REACTORS
330
4EA2
102
}
330
4EA2
100
AcDbXrecord
280
     1
270
     1
271
     1
  0
XRECORD
  5
4EA3
102
{ACAD_REACTORS
330
4EA2
102
}
330
4EA2
100
AcDbXrecord
280
     1
270
     1
271
     1
  0
XRECORD
  5
4EA7
102
{ACAD_REACTORS
330
4EA2
102
}
330
4EA2
100
AcDbXrecord
280
     1
270
     1
271
     1
  0
XRECORD
  5
4EA6
102
{ACAD_REACTORS
330
4EA2
102
}
330
4EA2
100
AcDbXrecord
280
     1
270
     1
271
     1
  0
XRECORD
  5
4EA8
102
{ACAD_REACTORS
330
4EA2
102
}
330
4EA2
100
AcDbXrecord
280
     1
270
     1
271
     1
  0
XRECORD
  5
4EA5
102
{ACAD_REACTORS
330
4EA2
102
}
330
4EA2
100
AcDbXrecord
280
     1
270
     1
271
     1
  0
XRECORD
  5
87A1
102
{ACAD_REACTORS
330
87A0
102
}
330
87A0
100
AcDbXrecord
280
     1
102
ACAD_ROUNDTRIP_2012_MLEADER_STYLE
298
     1
  0
XRECORD
  5
879B
102
{ACAD_REACTORS
330
879A
102
}
330
879A
100
AcDbXrecord
280
     1
102
ACAD_ROUNDTRIP_2012_MLEADER_STYLE
298
     1
  0
XRECORD
  5
879D
102
{ACAD_REACTORS
330
879C
102
}
330
879C
100
AcDbXrecord
280
     1
102
DISPLAYNAME
  1
Metric50
102
FLAGS
 90
        0
  0
CELLSTYLEMAP
  5
875B
102
{ACAD_REACTORS
330
4EE4
102
}
330
4EE4
100
AcDbCellStyleMap
 90
        3
300
CELLSTYLE
  1
TABLEFORMAT_BEGIN
 90
        5
170
     1
 91
        0
 92
    32768
 62
   257
 93
        1
300
CONTENTFORMAT
  1
CONTENTFORMAT_BEGIN
 90
        0
 91
        0
 92
      512
 93
        0
300

 40
0.0
140
1.0
 94
        5
 62
     0
340
F
144
6.0
309
CONTENTFORMAT_END
171
     1
301
MARGIN
  1
CELLMARGIN_BEGIN
 40
1.5
 40
1.5
 40
1.5
 40
1.5
 40
0.18
 40
0.18
309
CELLMARGIN_END
 94
        6
 95
        1
302
GRIDFORMAT
  1
GRIDFORMAT_BEGIN
 90
        0
 91
        1
 62
     0
 92
       -2
340
0
 93
        0
 40
1.125
309
GRIDFORMAT_END
 95
        2
302
GRIDFORMAT
  1
GRIDFORMAT_BEGIN
 90
        0
 91
        1
 62
     0
 92
       -2
340
0
 93
        0
 40
1.125
309
GRIDFORMAT_END
 95
        4
302
GRIDFORMAT
  1
GRIDFORMAT_BEGIN
 90
        0
 91
        1
 62
     0
 92
       -2
340
0
 93
        0
 40
1.125
309
GRIDFORMAT_END
 95
        8
302
GRIDFORMAT
  1
GRIDFORMAT_BEGIN
 90
        0
 91
        1
 62
     0
 92
       -2
340
0
 93
        0
 40
1.125
309
GRIDFORMAT_END
 95
       16
302
GRIDFORMAT
  1
GRIDFORMAT_BEGIN
 90
        0
 91
        1
 62
     0
 92
       -2
340
0
 93
        0
 40
1.125
309
GRIDFORMAT_END
 95
       32
302
GRIDFORMAT
  1
GRIDFORMAT_BEGIN
 90
        0
 91
        1
 62
     0
 92
       -2
340
0
 93
        0
 40
1.125
309
GRIDFORMAT_END
309
TABLEFORMAT_END
  1
CELLSTYLE_BEGIN
 90
        1
 91
        1
300
_TITLE
309
CELLSTYLE_END
300
CELLSTYLE
  1
TABLEFORMAT_BEGIN
 90
        5
170
     1
 91
        0
 92
        0
 62
   257
 93
        1
300
CONTENTFORMAT
  1
CONTENTFORMAT_BEGIN
 90
        0
 91
        0
 92
      512
 93
        0
300

 40
0.0
140
1.0
 94
        5
 62
     0
340
F
144
4.5
309
CONTENTFORMAT_END
171
     1
301
MARGIN
  1
CELLMARGIN_BEGIN
 40
1.5
 40
1.5
 40
1.5
 40
1.5
 40
0.18
 40
0.18
309
CELLMARGIN_END
 94
        6
 95
        1
302
GRIDFORMAT
  1
GRIDFORMAT_BEGIN
 90
        0
 91
        1
 62
     0
 92
       -2
340
0
 93
        0
 40
1.125
309
GRIDFORMAT_END
 95
        2
302
GRIDFORMAT
  1
GRIDFORMAT_BEGIN
 90
        0
 91
        1
 62
     0
 92
       -2
340
0
 93
        0
 40
1.125
309
GRIDFORMAT_END
 95
        4
302
GRIDFORMAT
  1
GRIDFORMAT_BEGIN
 90
        0
 91
        1
 62
     0
 92
       -2
340
0
 93
        0
 40
1.125
309
GRIDFORMAT_END
 95
        8
302
GRIDFORMAT
  1
GRIDFORMAT_BEGIN
 90
        0
 91
        1
 62
     0
 92
       -2
340
0
 93
        0
 40
1.125
309
GRIDFORMAT_END
 95
       16
302
GRIDFORMAT
  1
GRIDFORMAT_BEGIN
 90
        0
 91
        1
 62
     0
 92
       -2
340
0
 93
        0
 40
1.125
309
GRIDFORMAT_END
 95
       32
302
GRIDFORMAT
  1
GRIDFORMAT_BEGIN
 90
        0
 91
        1
 62
     0
 92
       -2
340
0
 93
        0
 40
1.125
309
GRIDFORMAT_END
309
TABLEFORMAT_END
  1
CELLSTYLE_BEGIN
 90
        2
 91
        1
300
_HEADER
309
CELLSTYLE_END
300
CELLSTYLE
  1
TABLEFORMAT_BEGIN
 90
        5
170
     1
 91
        0
 92
        0
 62
   257
 93
        1
300
CONTENTFORMAT
  1
CONTENTFORMAT_BEGIN
 90
        0
 91
        0
 92
      512
 93
        0
300

 40
0.0
140
1.0
 94
        2
 62
     0
340
F
144
4.5
309
CONTENTFORMAT_END
171
     1
301
MARGIN
  1
CELLMARGIN_BEGIN
 40
1.5
 40
1.5
 40
1.5
 40
1.5
 40
0.18
 40
0.18
309
CELLMARGIN_END
 94
        6
 95
        1
302
GRIDFORMAT
  1
GRIDFORMAT_BEGIN
 90
        0
 91
        1
 62
     0
 92
       -2
340
0
 93
        0
 40
1.125
309
GRIDFORMAT_END
 95
        2
302
GRIDFORMAT
  1
GRIDFORMAT_BEGIN
 90
        0
 91
        1
 62
     0
 92
       -2
340
0
 93
        0
 40
1.125
309
GRIDFORMAT_END
 95
        4
302
GRIDFORMAT
  1
GRIDFORMAT_BEGIN
 90
        0
 91
        1
 62
     0
 92
       -2
340
0
 93
        0
 40
1.125
309
GRIDFORMAT_END
 95
        8
302
GRIDFORMAT
  1
GRIDFORMAT_BEGIN
 90
        0
 91
        1
 62
     0
 92
       -2
340
0
 93
        0
 40
1.125
309
GRIDFORMAT_END
 95
       16
302
GRIDFORMAT
  1
GRIDFORMAT_BEGIN
 90
        0
 91
        1
 62
     0
 92
       -2
340
0
 93
        0
 40
1.125
309
GRIDFORMAT_END
 95
       32
302
GRIDFORMAT
  1
GRIDFORMAT_BEGIN
 90
        0
 91
        1
 62
     0
 92
       -2
340
0
 93
        0
 40
1.125
309
GRIDFORMAT_END
309
TABLEFORMAT_END
  1
CELLSTYLE_BEGIN
 90
        3
 91
        2
300
_DATA
309
CELLSTYLE_END
  0
XRECORD
  5
8799
102
{ACAD_REACTORS
330
4EE4
102
}
330
4EE4
100
AcDbXrecord
280
     1
102
ACAD_ROUNDTRIP_PRE2007_TABLESTYLE
 90
      512
 91
        0
  1

 92
      512
 93
        0
  2

 94
      512
 95
        0
  3

  0
XRECORD
  5
8774
102
{ACAD_REACTORS
330
8773
102
}
330
8773
100
AcDbXrecord
280
     1
102
RTVSPost2010Prop28
280
     1
102
RTVSPost2010PropOp28
 70
     1
102
RTVSPost2010Prop29
280
     1
102
RTVSPost2010PropOp29
 70
     1
102
RTVSPost2010Prop30
280
     0
102
RTVSPost2010PropOp30
 70
     1
102
RTVSPost2010Prop31
280
     0
102
RTVSPost2010PropOp31
 70
     1
102
RTVSPost2010Prop32
280
     0
102
RTVSPost2010PropOp32
 70
     1
102
RTVSPost2010Prop33
280
     0
102
RTVSPost2010PropOp33
 70
     1
102
RTVSPost2010Prop34
280
     0
102
RTVSPost2010PropOp34
 70
     1
102
RTVSPost2010Prop35
280
     0
102
RTVSPost2010PropOp35
 70
     1
102
RTVSPost2010Prop36
280
     0
102
RTVSPost2010PropOp36
 70
     1
102
RTVSPost2010Prop37
 90
       50
102
RTVSPost2010PropOp37
 70
     1
102
RTVSPost2010Prop38
140
0.0
102
RTVSPost2010PropOp38
 70
     1
102
RTVSPost2010Prop39
140
1.0
102
RTVSPost2010PropOp39
 70
     1
102
RTVSPost2010Prop40
 90
        0
102
RTVSPost2010PropOp40
 70
     1
102
RTVSPost2010Prop41ColorIndex
 90
       18
102
RTVSPost2010Prop41ColorRGB
 90
        0
102
RTVSPost2010PropOp41
 70
     1
102
RTVSPost2010Prop42
 90
       50
102
RTVSPost2010PropOp42
 70
     1
102
RTVSPost2010Prop43
 90
        3
102
RTVSPost2010PropOp43
 70
     1
102
RTVSPost2010Prop44ColorIndex
 90
        5
102
RTVSPost2010Prop44ColorRGB
 90
      255
102
RTVSPost2010PropOp44
 70
     1
102
RTVSPost2010Prop45
280
     0
102
RTVSPost2010PropOp45
 70
     1
102
RTVSPost2010Prop46
 90
       50
102
RTVSPost2010PropOp46
 70
     1
102
RTVSPost2010Prop47
 90
       50
102
RTVSPost2010PropOp47
 70
     1
102
RTVSPost2010Prop48
 90
       50
102
RTVSPost2010PropOp48
 70
     1
102
RTVSPost2010Prop49
280
     0
102
RTVSPost2010PropOp49
 70
     1
102
RTVSPost2010Prop50
 90
       50
102
RTVSPost2010PropOp50
 70
     1
102
RTVSPost2010Prop51ColorIndex
 90
      256
102
RTVSPost2010Prop51ColorRGB
 90
-16777216
102
RTVSPost2010PropOp51
 70
     0
102
RTVSPost2010Prop52
140
1.0
102
RTVSPost2010PropOp52
 70
     0
102
RTVSPost2010Prop53
 90
        2
102
RTVSPost2010PropOp53
 70
     1
102
RTVSPost2010Prop54
  1
strokes_ogs.tif
102
RTVSPost2010PropOp54
 70
     1
102
RTVSPost2010Prop55
280
     0
102
RTVSPost2010PropOp55
 70
     1
102
RTVSPost2010Prop56
140
1.0
102
RTVSPost2010PropOp56
 70
     1
102
RTVSPost2010Prop57
140
1.0
102
RTVSPost2010PropOp57
 70
     1
102
RTVSPropertyOp0
 70
     1
102
RTVSPropertyOp1
 70
     1
102
RTVSPropertyOp2
 70
     1
102
RTVSPropertyOp3
 70
     1
102
RTVSPropertyOp4
 70
     1
102
RTVSPropertyOp5
 70
     1
102
RTVSPropertyOp6
 70
     1
102
RTVSPropertyOp7
 70
     1
102
RTVSPropertyOp8
 70
     1
102
RTVSPropertyOp9
 70
     1
102
RTVSPropertyOp10
 70
     1
102
RTVSPropertyOp11
 70
     1
102
RTVSPropertyOp12
 70
     1
102
RTVSPropertyOp13
 70
     1
102
RTVSPropertyOp14
 70
     1
102
RTVSPropertyOp15
 70
     1
102
RTVSPropertyOp16
 70
     1
102
RTVSPropertyOp17
 70
     1
102
RTVSPropertyOp18
 70
     1
102
RTVSPropertyOp19
 70
     1
102
RTVSPropertyOp20
 70
     1
102
RTVSPropertyOp21
 70
     1
102
RTVSPropertyOp22
 70
     1
102
RTVSPropertyOp23
 70
     1
102
RTVSPropertyOp24
 70
     1
102
RTVSPropertyOp25
 70
     1
102
RTVSPropertyOp26
 70
     1
102
RTVSPropertyOp27
 70
     1
102
RTVSPropertyOp28
 70
     1
102
RTVSPropertyOp29
 70
     1
102
RTVSPropertyOp30
 70
     1
102
RTVSPropertyOp31
 70
     1
102
RTVSPropertyOp32
 70
     1
102
RTVSPropertyOp33
 70
     1
102
RTVSPropertyOp34
 70
     1
102
RTVSPropertyOp35
 70
     1
102
RTVSPropertyOp36
 70
     1
102
RTVSPropertyOp37
 70
     1
102
RTVSPropertyOp38
 70
     1
102
RTVSPropertyOp39
 70
     1
102
RTVSPropertyOp40
 70
     1
102
RTVSPropertyOp41
 70
     1
102
RTVSPropertyOp42
 70
     1
102
RTVSPropertyOp43
 70
     1
102
RTVSPropertyOp44
 70
     1
102
RTVSPropertyOp45
 70
     1
102
RTVSPropertyOp46
 70
     1
102
RTVSPropertyOp47
 70
     1
102
RTVSPropertyOp48
 70
     1
102
RTVSPropertyOp49
 70
     1
102
RTVSPropertyOp50
 70
     1
102
RTVSPropertyOp51
 70
     0
102
RTVSPropertyOp52
 70
     0
102
RTVSPropertyOp53
 70
     1
102
RTVSPropertyOp54
 70
     1
102
RTVSPropertyOp55
 70
     1
102
RTVSPropertyOp56
 70
     1
102
RTVSPropertyOp57
 70
     1
102
RTVSPropertyOp58
 70
     1
102
RTVSPropertyOp59
 70
     1
102
RTVSPropertyOp60
 70
     1
102
RTVSPropertyOp61
 70
     1
102
RTVSPropertyOp62
 70
     1
  0
XRECORD
  5
8772
102
{ACAD_REACTORS
330
8771
102
}
330
8771
100
AcDbXrecord
280
     1
102
RTVSPost2010Prop28
280
     0
102
RTVSPost2010PropOp28
 70
     1
102
RTVSPost2010Prop29
280
     1
102
RTVSPost2010PropOp29
 70
     1
102
RTVSPost2010Prop30
280
     1
102
RTVSPost2010PropOp30
 70
     1
102
RTVSPost2010Prop31
280
     0
102
RTVSPost2010PropOp31
 70
     1
102
RTVSPost2010Prop32
280
     0
102
RTVSPost2010PropOp32
 70
     1
102
RTVSPost2010Prop33
280
     0
102
RTVSPost2010PropOp33
 70
     1
102
RTVSPost2010Prop34
280
     0
102
RTVSPost2010PropOp34
 70
     1
102
RTVSPost2010Prop35
280
     0
102
RTVSPost2010PropOp35
 70
     1
102
RTVSPost2010Prop36
280
     0
102
RTVSPost2010PropOp36
 70
     1
102
RTVSPost2010Prop37
 90
       50
102
RTVSPost2010PropOp37
 70
     1
102
RTVSPost2010Prop38
140
0.0
102
RTVSPost2010PropOp38
 70
     1
102
RTVSPost2010Prop39
140
1.0
102
RTVSPost2010PropOp39
 70
     1
102
RTVSPost2010Prop40
 90
        0
102
RTVSPost2010PropOp40
 70
     1
102
RTVSPost2010Prop41ColorIndex
 90
       18
102
RTVSPost2010Prop41ColorRGB
 90
        0
102
RTVSPost2010PropOp41
 70
     1
102
RTVSPost2010Prop42
 90
       50
102
RTVSPost2010PropOp42
 70
     1
102
RTVSPost2010Prop43
 90
        3
102
RTVSPost2010PropOp43
 70
     1
102
RTVSPost2010Prop44ColorIndex
 90
        5
102
RTVSPost2010Prop44ColorRGB
 90
      255
102
RTVSPost2010PropOp44
 70
     1
102
RTVSPost2010Prop45
280
     0
102
RTVSPost2010PropOp45
 70
     1
102
RTVSPost2010Prop46
 90
       50
102
RTVSPost2010PropOp46
 70
     1
102
RTVSPost2010Prop47
 90
       50
102
RTVSPost2010PropOp47
 70
     1
102
RTVSPost2010Prop48
 90
       50
102
RTVSPost2010PropOp48
 70
     1
102
RTVSPost2010Prop49
280
     0
102
RTVSPost2010PropOp49
 70
     1
102
RTVSPost2010Prop50
 90
       50
102
RTVSPost2010PropOp50
 70
     1
102
RTVSPost2010Prop51ColorIndex
 90
      256
102
RTVSPost2010Prop51ColorRGB
 90
-16777216
102
RTVSPost2010PropOp51
 70
     0
102
RTVSPost2010Prop52
140
1.0
102
RTVSPost2010PropOp52
 70
     0
102
RTVSPost2010Prop53
 90
        2
102
RTVSPost2010PropOp53
 70
     1
102
RTVSPost2010Prop54
  1
strokes_ogs.tif
102
RTVSPost2010PropOp54
 70
     1
102
RTVSPost2010Prop55
280
     0
102
RTVSPost2010PropOp55
 70
     1
102
RTVSPost2010Prop56
140
1.0
102
RTVSPost2010PropOp56
 70
     1
102
RTVSPost2010Prop57
140
1.0
102
RTVSPost2010PropOp57
 70
     1
102
RTVSPropertyOp0
 70
     1
102
RTVSPropertyOp1
 70
     1
102
RTVSPropertyOp2
 70
     1
102
RTVSPropertyOp3
 70
     1
102
RTVSPropertyOp4
 70
     1
102
RTVSPropertyOp5
 70
     1
102
RTVSPropertyOp6
 70
     1
102
RTVSPropertyOp7
 70
     1
102
RTVSPropertyOp8
 70
     1
102
RTVSPropertyOp9
 70
     1
102
RTVSPropertyOp10
 70
     1
102
RTVSPropertyOp11
 70
     1
102
RTVSPropertyOp12
 70
     1
102
RTVSPropertyOp13
 70
     1
102
RTVSPropertyOp14
 70
     1
102
RTVSPropertyOp15
 70
     1
102
RTVSPropertyOp16
 70
     1
102
RTVSPropertyOp17
 70
     1
102
RTVSPropertyOp18
 70
     1
102
RTVSPropertyOp19
 70
     1
102
RTVSPropertyOp20
 70
     1
102
RTVSPropertyOp21
 70
     1
102
RTVSPropertyOp22
 70
     1
102
RTVSPropertyOp23
 70
     1
102
RTVSPropertyOp24
 70
     1
102
RTVSPropertyOp25
 70
     1
102
RTVSPropertyOp26
 70
     1
102
RTVSPropertyOp27
 70
     1
102
RTVSPropertyOp28
 70
     1
102
RTVSPropertyOp29
 70
     1
102
RTVSPropertyOp30
 70
     1
102
RTVSPropertyOp31
 70
     1
102
RTVSPropertyOp32
 70
     1
102
RTVSPropertyOp33
 70
     1
102
RTVSPropertyOp34
 70
     1
102
RTVSPropertyOp35
 70
     1
102
RTVSPropertyOp36
 70
     1
102
RTVSPropertyOp37
 70
     1
102
RTVSPropertyOp38
 70
     1
102
RTVSPropertyOp39
 70
     1
102
RTVSPropertyOp40
 70
     1
102
RTVSPropertyOp41
 70
     1
102
RTVSPropertyOp42
 70
     1
102
RTVSPropertyOp43
 70
     1
102
RTVSPropertyOp44
 70
     1
102
RTVSPropertyOp45
 70
     1
102
RTVSPropertyOp46
 70
     1
102
RTVSPropertyOp47
 70
     1
102
RTVSPropertyOp48
 70
     1
102
RTVSPropertyOp49
 70
     1
102
RTVSPropertyOp50
 70
     1
102
RTVSPropertyOp51
 70
     0
102
RTVSPropertyOp52
 70
     0
102
RTVSPropertyOp53
 70
     1
102
RTVSPropertyOp54
 70
     1
102
RTVSPropertyOp55
 70
     1
102
RTVSPropertyOp56
 70
     1
102
RTVSPropertyOp57
 70
     1
102
RTVSPropertyOp58
 70
     1
102
RTVSPropertyOp59
 70
     1
102
RTVSPropertyOp60
 70
     1
102
RTVSPropertyOp61
 70
     1
102
RTVSPropertyOp62
 70
     1
  0
XRECORD
  5
8780
102
{ACAD_REACTORS
330
877F
102
}
330
877F
100
AcDbXrecord
280
     1
102
RTVSPost2010Prop28
280
     0
102
RTVSPost2010PropOp28
 70
     1
102
RTVSPost2010Prop29
280
     1
102
RTVSPost2010PropOp29
 70
     1
102
RTVSPost2010Prop30
280
     1
102
RTVSPost2010PropOp30
 70
     1
102
RTVSPost2010Prop31
280
     0
102
RTVSPost2010PropOp31
 70
     1
102
RTVSPost2010Prop32
280
     0
102
RTVSPost2010PropOp32
 70
     1
102
RTVSPost2010Prop33
280
     0
102
RTVSPost2010PropOp33
 70
     1
102
RTVSPost2010Prop34
280
     0
102
RTVSPost2010PropOp34
 70
     1
102
RTVSPost2010Prop35
280
     0
102
RTVSPost2010PropOp35
 70
     1
102
RTVSPost2010Prop36
280
     0
102
RTVSPost2010PropOp36
 70
     1
102
RTVSPost2010Prop37
 90
       50
102
RTVSPost2010PropOp37
 70
     1
102
RTVSPost2010Prop38
140
0.0
102
RTVSPost2010PropOp38
 70
     1
102
RTVSPost2010Prop39
140
1.0
102
RTVSPost2010PropOp39
 70
     1
102
RTVSPost2010Prop40
 90
        0
102
RTVSPost2010PropOp40
 70
     1
102
RTVSPost2010Prop41ColorIndex
 90
       18
102
RTVSPost2010Prop41ColorRGB
 90
        0
102
RTVSPost2010PropOp41
 70
     1
102
RTVSPost2010Prop42
 90
       50
102
RTVSPost2010PropOp42
 70
     1
102
RTVSPost2010Prop43
 90
        3
102
RTVSPost2010PropOp43
 70
     1
102
RTVSPost2010Prop44ColorIndex
 90
        5
102
RTVSPost2010Prop44ColorRGB
 90
      255
102
RTVSPost2010PropOp44
 70
     1
102
RTVSPost2010Prop45
280
     0
102
RTVSPost2010PropOp45
 70
     1
102
RTVSPost2010Prop46
 90
       50
102
RTVSPost2010PropOp46
 70
     1
102
RTVSPost2010Prop47
 90
       50
102
RTVSPost2010PropOp47
 70
     1
102
RTVSPost2010Prop48
 90
       50
102
RTVSPost2010PropOp48
 70
     1
102
RTVSPost2010Prop49
280
     0
102
RTVSPost2010PropOp49
 70
     1
102
RTVSPost2010Prop50
 90
       50
102
RTVSPost2010PropOp50
 70
     1
102
RTVSPost2010Prop51ColorIndex
 90
      256
102
RTVSPost2010Prop51ColorRGB
 90
-16777216
102
RTVSPost2010PropOp51
 70
     0
102
RTVSPost2010Prop52
140
1.0
102
RTVSPost2010PropOp52
 70
     0
102
RTVSPost2010Prop53
 90
        2
102
RTVSPost2010PropOp53
 70
     1
102
RTVSPost2010Prop54
  1
strokes_ogs.tif
102
RTVSPost2010PropOp54
 70
     1
102
RTVSPost2010Prop55
280
     0
102
RTVSPost2010PropOp55
 70
     1
102
RTVSPost2010Prop56
140
1.0
102
RTVSPost2010PropOp56
 70
     1
102
RTVSPost2010Prop57
140
1.0
102
RTVSPost2010PropOp57
 70
     1
102
RTVSPropertyOp0
 70
     1
102
RTVSPropertyOp1
 70
     1
102
RTVSPropertyOp2
 70
     1
102
RTVSPropertyOp3
 70
     1
102
RTVSPropertyOp4
 70
     1
102
RTVSPropertyOp5
 70
     1
102
RTVSPropertyOp6
 70
     1
102
RTVSPropertyOp7
 70
     1
102
RTVSPropertyOp8
 70
     1
102
RTVSPropertyOp9
 70
     1
102
RTVSPropertyOp10
 70
     1
102
RTVSPropertyOp11
 70
     1
102
RTVSPropertyOp12
 70
     1
102
RTVSPropertyOp13
 70
     1
102
RTVSPropertyOp14
 70
     1
102
RTVSPropertyOp15
 70
     1
102
RTVSPropertyOp16
 70
     1
102
RTVSPropertyOp17
 70
     1
102
RTVSPropertyOp18
 70
     1
102
RTVSPropertyOp19
 70
     1
102
RTVSPropertyOp20
 70
     1
102
RTVSPropertyOp21
 70
     1
102
RTVSPropertyOp22
 70
     1
102
RTVSPropertyOp23
 70
     1
102
RTVSPropertyOp24
 70
     1
102
RTVSPropertyOp25
 70
     1
102
RTVSPropertyOp26
 70
     1
102
RTVSPropertyOp27
 70
     1
102
RTVSPropertyOp28
 70
     1
102
RTVSPropertyOp29
 70
     1
102
RTVSPropertyOp30
 70
     1
102
RTVSPropertyOp31
 70
     1
102
RTVSPropertyOp32
 70
     1
102
RTVSPropertyOp33
 70
     1
102
RTVSPropertyOp34
 70
     1
102
RTVSPropertyOp35
 70
     1
102
RTVSPropertyOp36
 70
     1
102
RTVSPropertyOp37
 70
     1
102
RTVSPropertyOp38
 70
     1
102
RTVSPropertyOp39
 70
     1
102
RTVSPropertyOp40
 70
     1
102
RTVSPropertyOp41
 70
     1
102
RTVSPropertyOp42
 70
     1
102
RTVSPropertyOp43
 70
     1
102
RTVSPropertyOp44
 70
     1
102
RTVSPropertyOp45
 70
     1
102
RTVSPropertyOp46
 70
     1
102
RTVSPropertyOp47
 70
     1
102
RTVSPropertyOp48
 70
     1
102
RTVSPropertyOp49
 70
     1
102
RTVSPropertyOp50
 70
     1
102
RTVSPropertyOp51
 70
     0
102
RTVSPropertyOp52
 70
     0
102
RTVSPropertyOp53
 70
     1
102
RTVSPropertyOp54
 70
     1
102
RTVSPropertyOp55
 70
     1
102
RTVSPropertyOp56
 70
     1
102
RTVSPropertyOp57
 70
     1
102
RTVSPropertyOp58
 70
     1
102
RTVSPropertyOp59
 70
     1
102
RTVSPropertyOp60
 70
     1
102
RTVSPropertyOp61
 70
     1
102
RTVSPropertyOp62
 70
     1
  0
XRECORD
  5
8788
102
{ACAD_REACTORS
330
8787
102
}
330
8787
100
AcDbXrecord
280
     1
102
RTVSPost2010Prop28
280
     0
102
RTVSPost2010PropOp28
 70
     1
102
RTVSPost2010Prop29
280
     1
102
RTVSPost2010PropOp29
 70
     1
102
RTVSPost2010Prop30
280
     1
102
RTVSPost2010PropOp30
 70
     1
102
RTVSPost2010Prop31
280
     0
102
RTVSPost2010PropOp31
 70
     1
102
RTVSPost2010Prop32
280
     0
102
RTVSPost2010PropOp32
 70
     1
102
RTVSPost2010Prop33
280
     0
102
RTVSPost2010PropOp33
 70
     1
102
RTVSPost2010Prop34
280
     0
102
RTVSPost2010PropOp34
 70
     1
102
RTVSPost2010Prop35
280
     0
102
RTVSPost2010PropOp35
 70
     1
102
RTVSPost2010Prop36
280
     0
102
RTVSPost2010PropOp36
 70
     1
102
RTVSPost2010Prop37
 90
       50
102
RTVSPost2010PropOp37
 70
     1
102
RTVSPost2010Prop38
140
0.0
102
RTVSPost2010PropOp38
 70
     1
102
RTVSPost2010Prop39
140
1.0
102
RTVSPost2010PropOp39
 70
     1
102
RTVSPost2010Prop40
 90
        0
102
RTVSPost2010PropOp40
 70
     1
102
RTVSPost2010Prop41ColorIndex
 90
       18
102
RTVSPost2010Prop41ColorRGB
 90
        0
102
RTVSPost2010PropOp41
 70
     1
102
RTVSPost2010Prop42
 90
       50
102
RTVSPost2010PropOp42
 70
     1
102
RTVSPost2010Prop43
 90
        3
102
RTVSPost2010PropOp43
 70
     1
102
RTVSPost2010Prop44ColorIndex
 90
        5
102
RTVSPost2010Prop44ColorRGB
 90
      255
102
RTVSPost2010PropOp44
 70
     1
102
RTVSPost2010Prop45
280
     0
102
RTVSPost2010PropOp45
 70
     1
102
RTVSPost2010Prop46
 90
       50
102
RTVSPost2010PropOp46
 70
     1
102
RTVSPost2010Prop47
 90
       50
102
RTVSPost2010PropOp47
 70
     1
102
RTVSPost2010Prop48
 90
       50
102
RTVSPost2010PropOp48
 70
     1
102
RTVSPost2010Prop49
280
     0
102
RTVSPost2010PropOp49
 70
     1
102
RTVSPost2010Prop50
 90
       50
102
RTVSPost2010PropOp50
 70
     1
102
RTVSPost2010Prop51ColorIndex
 90
      256
102
RTVSPost2010Prop51ColorRGB
 90
-16777216
102
RTVSPost2010PropOp51
 70
     0
102
RTVSPost2010Prop52
140
1.0
102
RTVSPost2010PropOp52
 70
     0
102
RTVSPost2010Prop53
 90
        2
102
RTVSPost2010PropOp53
 70
     1
102
RTVSPost2010Prop54
  1
strokes_ogs.tif
102
RTVSPost2010PropOp54
 70
     1
102
RTVSPost2010Prop55
280
     0
102
RTVSPost2010PropOp55
 70
     1
102
RTVSPost2010Prop56
140
1.0
102
RTVSPost2010PropOp56
 70
     1
102
RTVSPost2010Prop57
140
1.0
102
RTVSPost2010PropOp57
 70
     1
102
RTVSPropertyOp0
 70
     1
102
RTVSPropertyOp1
 70
     1
102
RTVSPropertyOp2
 70
     1
102
RTVSPropertyOp3
 70
     1
102
RTVSPropertyOp4
 70
     1
102
RTVSPropertyOp5
 70
     1
102
RTVSPropertyOp6
 70
     1
102
RTVSPropertyOp7
 70
     1
102
RTVSPropertyOp8
 70
     1
102
RTVSPropertyOp9
 70
     1
102
RTVSPropertyOp10
 70
     1
102
RTVSPropertyOp11
 70
     1
102
RTVSPropertyOp12
 70
     1
102
RTVSPropertyOp13
 70
     1
102
RTVSPropertyOp14
 70
     1
102
RTVSPropertyOp15
 70
     1
102
RTVSPropertyOp16
 70
     1
102
RTVSPropertyOp17
 70
     1
102
RTVSPropertyOp18
 70
     1
102
RTVSPropertyOp19
 70
     1
102
RTVSPropertyOp20
 70
     1
102
RTVSPropertyOp21
 70
     1
102
RTVSPropertyOp22
 70
     1
102
RTVSPropertyOp23
 70
     1
102
RTVSPropertyOp24
 70
     1
102
RTVSPropertyOp25
 70
     1
102
RTVSPropertyOp26
 70
     1
102
RTVSPropertyOp27
 70
     1
102
RTVSPropertyOp28
 70
     1
102
RTVSPropertyOp29
 70
     1
102
RTVSPropertyOp30
 70
     1
102
RTVSPropertyOp31
 70
     1
102
RTVSPropertyOp32
 70
     1
102
RTVSPropertyOp33
 70
     1
102
RTVSPropertyOp34
 70
     1
102
RTVSPropertyOp35
 70
     1
102
RTVSPropertyOp36
 70
     1
102
RTVSPropertyOp37
 70
     1
102
RTVSPropertyOp38
 70
     1
102
RTVSPropertyOp39
 70
     1
102
RTVSPropertyOp40
 70
     1
102
RTVSPropertyOp41
 70
     1
102
RTVSPropertyOp42
 70
     1
102
RTVSPropertyOp43
 70
     1
102
RTVSPropertyOp44
 70
     1
102
RTVSPropertyOp45
 70
     1
102
RTVSPropertyOp46
 70
     1
102
RTVSPropertyOp47
 70
     1
102
RTVSPropertyOp48
 70
     1
102
RTVSPropertyOp49
 70
     1
102
RTVSPropertyOp50
 70
     1
102
RTVSPropertyOp51
 70
     0
102
RTVSPropertyOp52
 70
     0
102
RTVSPropertyOp53
 70
     1
102
RTVSPropertyOp54
 70
     1
102
RTVSPropertyOp55
 70
     1
102
RTVSPropertyOp56
 70
     1
102
RTVSPropertyOp57
 70
     1
102
RTVSPropertyOp58
 70
     1
102
RTVSPropertyOp59
 70
     1
102
RTVSPropertyOp60
 70
     1
102
RTVSPropertyOp61
 70
     1
102
RTVSPropertyOp62
 70
     1
  0
XRECORD
  5
877A
102
{ACAD_REACTORS
330
8779
102
}
330
8779
100
AcDbXrecord
280
     1
102
RTVSPost2010Prop28
280
     0
102
RTVSPost2010PropOp28
 70
     1
102
RTVSPost2010Prop29
280
     1
102
RTVSPost2010PropOp29
 70
     1
102
RTVSPost2010Prop30
280
     1
102
RTVSPost2010PropOp30
 70
     1
102
RTVSPost2010Prop31
280
     0
102
RTVSPost2010PropOp31
 70
     1
102
RTVSPost2010Prop32
280
     0
102
RTVSPost2010PropOp32
 70
     1
102
RTVSPost2010Prop33
280
     0
102
RTVSPost2010PropOp33
 70
     1
102
RTVSPost2010Prop34
280
     0
102
RTVSPost2010PropOp34
 70
     1
102
RTVSPost2010Prop35
280
     0
102
RTVSPost2010PropOp35
 70
     1
102
RTVSPost2010Prop36
280
     0
102
RTVSPost2010PropOp36
 70
     1
102
RTVSPost2010Prop37
 90
       50
102
RTVSPost2010PropOp37
 70
     1
102
RTVSPost2010Prop38
140
0.0
102
RTVSPost2010PropOp38
 70
     1
102
RTVSPost2010Prop39
140
1.0
102
RTVSPost2010PropOp39
 70
     1
102
RTVSPost2010Prop40
 90
        0
102
RTVSPost2010PropOp40
 70
     1
102
RTVSPost2010Prop41ColorIndex
 90
       18
102
RTVSPost2010Prop41ColorRGB
 90
        0
102
RTVSPost2010PropOp41
 70
     1
102
RTVSPost2010Prop42
 90
       50
102
RTVSPost2010PropOp42
 70
     1
102
RTVSPost2010Prop43
 90
        3
102
RTVSPost2010PropOp43
 70
     1
102
RTVSPost2010Prop44ColorIndex
 90
        5
102
RTVSPost2010Prop44ColorRGB
 90
      255
102
RTVSPost2010PropOp44
 70
     1
102
RTVSPost2010Prop45
280
     0
102
RTVSPost2010PropOp45
 70
     1
102
RTVSPost2010Prop46
 90
       50
102
RTVSPost2010PropOp46
 70
     1
102
RTVSPost2010Prop47
 90
       50
102
RTVSPost2010PropOp47
 70
     1
102
RTVSPost2010Prop48
 90
       50
102
RTVSPost2010PropOp48
 70
     1
102
RTVSPost2010Prop49
280
     0
102
RTVSPost2010PropOp49
 70
     1
102
RTVSPost2010Prop50
 90
       50
102
RTVSPost2010PropOp50
 70
     1
102
RTVSPost2010Prop51ColorIndex
 90
      256
102
RTVSPost2010Prop51ColorRGB
 90
-16777216
102
RTVSPost2010PropOp51
 70
     0
102
RTVSPost2010Prop52
140
1.0
102
RTVSPost2010PropOp52
 70
     0
102
RTVSPost2010Prop53
 90
        2
102
RTVSPost2010PropOp53
 70
     1
102
RTVSPost2010Prop54
  1
strokes_ogs.tif
102
RTVSPost2010PropOp54
 70
     1
102
RTVSPost2010Prop55
280
     0
102
RTVSPost2010PropOp55
 70
     1
102
RTVSPost2010Prop56
140
1.0
102
RTVSPost2010PropOp56
 70
     1
102
RTVSPost2010Prop57
140
1.0
102
RTVSPost2010PropOp57
 70
     1
102
RTVSPropertyOp0
 70
     1
102
RTVSPropertyOp1
 70
     1
102
RTVSPropertyOp2
 70
     1
102
RTVSPropertyOp3
 70
     1
102
RTVSPropertyOp4
 70
     1
102
RTVSPropertyOp5
 70
     1
102
RTVSPropertyOp6
 70
     1
102
RTVSPropertyOp7
 70
     1
102
RTVSPropertyOp8
 70
     1
102
RTVSPropertyOp9
 70
     1
102
RTVSPropertyOp10
 70
     1
102
RTVSPropertyOp11
 70
     1
102
RTVSPropertyOp12
 70
     1
102
RTVSPropertyOp13
 70
     1
102
RTVSPropertyOp14
 70
     1
102
RTVSPropertyOp15
 70
     1
102
RTVSPropertyOp16
 70
     1
102
RTVSPropertyOp17
 70
     1
102
RTVSPropertyOp18
 70
     1
102
RTVSPropertyOp19
 70
     1
102
RTVSPropertyOp20
 70
     1
102
RTVSPropertyOp21
 70
     1
102
RTVSPropertyOp22
 70
     1
102
RTVSPropertyOp23
 70
     1
102
RTVSPropertyOp24
 70
     1
102
RTVSPropertyOp25
 70
     1
102
RTVSPropertyOp26
 70
     1
102
RTVSPropertyOp27
 70
     1
102
RTVSPropertyOp28
 70
     1
102
RTVSPropertyOp29
 70
     1
102
RTVSPropertyOp30
 70
     1
102
RTVSPropertyOp31
 70
     1
102
RTVSPropertyOp32
 70
     1
102
RTVSPropertyOp33
 70
     1
102
RTVSPropertyOp34
 70
     1
102
RTVSPropertyOp35
 70
     1
102
RTVSPropertyOp36
 70
     1
102
RTVSPropertyOp37
 70
     1
102
RTVSPropertyOp38
 70
     1
102
RTVSPropertyOp39
 70
     1
102
RTVSPropertyOp40
 70
     1
102
RTVSPropertyOp41
 70
     1
102
RTVSPropertyOp42
 70
     1
102
RTVSPropertyOp43
 70
     1
102
RTVSPropertyOp44
 70
     1
102
RTVSPropertyOp45
 70
     1
102
RTVSPropertyOp46
 70
     1
102
RTVSPropertyOp47
 70
     1
102
RTVSPropertyOp48
 70
     1
102
RTVSPropertyOp49
 70
     1
102
RTVSPropertyOp50
 70
     1
102
RTVSPropertyOp51
 70
     0
102
RTVSPropertyOp52
 70
     0
102
RTVSPropertyOp53
 70
     1
102
RTVSPropertyOp54
 70
     1
102
RTVSPropertyOp55
 70
     1
102
RTVSPropertyOp56
 70
     1
102
RTVSPropertyOp57
 70
     1
102
RTVSPropertyOp58
 70
     1
102
RTVSPropertyOp59
 70
     1
102
RTVSPropertyOp60
 70
     1
102
RTVSPropertyOp61
 70
     1
102
RTVSPropertyOp62
 70
     1
  0
XRECORD
  5
877E
102
{ACAD_REACTORS
330
877D
102
}
330
877D
100
AcDbXrecord
280
     1
102
RTVSPost2010Prop28
280
     0
102
RTVSPost2010PropOp28
 70
     1
102
RTVSPost2010Prop29
280
     1
102
RTVSPost2010PropOp29
 70
     1
102
RTVSPost2010Prop30
280
     1
102
RTVSPost2010PropOp30
 70
     1
102
RTVSPost2010Prop31
280
     0
102
RTVSPost2010PropOp31
 70
     1
102
RTVSPost2010Prop32
280
     0
102
RTVSPost2010PropOp32
 70
     1
102
RTVSPost2010Prop33
280
     0
102
RTVSPost2010PropOp33
 70
     1
102
RTVSPost2010Prop34
280
     0
102
RTVSPost2010PropOp34
 70
     1
102
RTVSPost2010Prop35
280
     0
102
RTVSPost2010PropOp35
 70
     1
102
RTVSPost2010Prop36
280
     0
102
RTVSPost2010PropOp36
 70
     1
102
RTVSPost2010Prop37
 90
       50
102
RTVSPost2010PropOp37
 70
     1
102
RTVSPost2010Prop38
140
0.0
102
RTVSPost2010PropOp38
 70
     1
102
RTVSPost2010Prop39
140
1.0
102
RTVSPost2010PropOp39
 70
     1
102
RTVSPost2010Prop40
 90
        0
102
RTVSPost2010PropOp40
 70
     1
102
RTVSPost2010Prop41ColorIndex
 90
       18
102
RTVSPost2010Prop41ColorRGB
 90
        0
102
RTVSPost2010PropOp41
 70
     1
102
RTVSPost2010Prop42
 90
       50
102
RTVSPost2010PropOp42
 70
     1
102
RTVSPost2010Prop43
 90
        3
102
RTVSPost2010PropOp43
 70
     1
102
RTVSPost2010Prop44ColorIndex
 90
        5
102
RTVSPost2010Prop44ColorRGB
 90
      255
102
RTVSPost2010PropOp44
 70
     1
102
RTVSPost2010Prop45
280
     0
102
RTVSPost2010PropOp45
 70
     1
102
RTVSPost2010Prop46
 90
       50
102
RTVSPost2010PropOp46
 70
     1
102
RTVSPost2010Prop47
 90
       50
102
RTVSPost2010PropOp47
 70
     1
102
RTVSPost2010Prop48
 90
       50
102
RTVSPost2010PropOp48
 70
     1
102
RTVSPost2010Prop49
280
     0
102
RTVSPost2010PropOp49
 70
     1
102
RTVSPost2010Prop50
 90
       50
102
RTVSPost2010PropOp50
 70
     1
102
RTVSPost2010Prop51ColorIndex
 90
      256
102
RTVSPost2010Prop51ColorRGB
 90
-16777216
102
RTVSPost2010PropOp51
 70
     0
102
RTVSPost2010Prop52
140
1.0
102
RTVSPost2010PropOp52
 70
     0
102
RTVSPost2010Prop53
 90
        2
102
RTVSPost2010PropOp53
 70
     1
102
RTVSPost2010Prop54
  1
strokes_ogs.tif
102
RTVSPost2010PropOp54
 70
     1
102
RTVSPost2010Prop55
280
     0
102
RTVSPost2010PropOp55
 70
     1
102
RTVSPost2010Prop56
140
1.0
102
RTVSPost2010PropOp56
 70
     1
102
RTVSPost2010Prop57
140
1.0
102
RTVSPost2010PropOp57
 70
     1
102
RTVSPropertyOp0
 70
     1
102
RTVSPropertyOp1
 70
     1
102
RTVSPropertyOp2
 70
     1
102
RTVSPropertyOp3
 70
     1
102
RTVSPropertyOp4
 70
     1
102
RTVSPropertyOp5
 70
     1
102
RTVSPropertyOp6
 70
     1
102
RTVSPropertyOp7
 70
     1
102
RTVSPropertyOp8
 70
     1
102
RTVSPropertyOp9
 70
     1
102
RTVSPropertyOp10
 70
     1
102
RTVSPropertyOp11
 70
     1
102
RTVSPropertyOp12
 70
     1
102
RTVSPropertyOp13
 70
     1
102
RTVSPropertyOp14
 70
     1
102
RTVSPropertyOp15
 70
     1
102
RTVSPropertyOp16
 70
     1
102
RTVSPropertyOp17
 70
     1
102
RTVSPropertyOp18
 70
     1
102
RTVSPropertyOp19
 70
     1
102
RTVSPropertyOp20
 70
     1
102
RTVSPropertyOp21
 70
     1
102
RTVSPropertyOp22
 70
     1
102
RTVSPropertyOp23
 70
     1
102
RTVSPropertyOp24
 70
     1
102
RTVSPropertyOp25
 70
     1
102
RTVSPropertyOp26
 70
     1
102
RTVSPropertyOp27
 70
     1
102
RTVSPropertyOp28
 70
     1
102
RTVSPropertyOp29
 70
     1
102
RTVSPropertyOp30
 70
     1
102
RTVSPropertyOp31
 70
     1
102
RTVSPropertyOp32
 70
     1
102
RTVSPropertyOp33
 70
     1
102
RTVSPropertyOp34
 70
     1
102
RTVSPropertyOp35
 70
     1
102
RTVSPropertyOp36
 70
     1
102
RTVSPropertyOp37
 70
     1
102
RTVSPropertyOp38
 70
     1
102
RTVSPropertyOp39
 70
     1
102
RTVSPropertyOp40
 70
     1
102
RTVSPropertyOp41
 70
     1
102
RTVSPropertyOp42
 70
     1
102
RTVSPropertyOp43
 70
     1
102
RTVSPropertyOp44
 70
     1
102
RTVSPropertyOp45
 70
     1
102
RTVSPropertyOp46
 70
     1
102
RTVSPropertyOp47
 70
     1
102
RTVSPropertyOp48
 70
     1
102
RTVSPropertyOp49
 70
     1
102
RTVSPropertyOp50
 70
     1
102
RTVSPropertyOp51
 70
     0
102
RTVSPropertyOp52
 70
     0
102
RTVSPropertyOp53
 70
     1
102
RTVSPropertyOp54
 70
     1
102
RTVSPropertyOp55
 70
     1
102
RTVSPropertyOp56
 70
     1
102
RTVSPropertyOp57
 70
     1
102
RTVSPropertyOp58
 70
     1
102
RTVSPropertyOp59
 70
     1
102
RTVSPropertyOp60
 70
     1
102
RTVSPropertyOp61
 70
     1
102
RTVSPropertyOp62
 70
     1
  0
XRECORD
  5
8798
102
{ACAD_REACTORS
330
8797
102
}
330
8797
100
AcDbXrecord
280
     1
102
RTVSPost2010Prop28
280
     0
102
RTVSPost2010PropOp28
 70
     0
102
RTVSPost2010Prop29
280
     1
102
RTVSPost2010PropOp29
 70
     0
102
RTVSPost2010Prop30
280
     1
102
RTVSPost2010PropOp30
 70
     0
102
RTVSPost2010Prop31
280
     0
102
RTVSPost2010PropOp31
 70
     0
102
RTVSPost2010Prop32
280
     0
102
RTVSPost2010PropOp32
 70
     0
102
RTVSPost2010Prop33
280
     0
102
RTVSPost2010PropOp33
 70
     0
102
RTVSPost2010Prop34
280
     0
102
RTVSPost2010PropOp34
 70
     0
102
RTVSPost2010Prop35
280
     0
102
RTVSPost2010PropOp35
 70
     0
102
RTVSPost2010Prop36
280
     0
102
RTVSPost2010PropOp36
 70
     0
102
RTVSPost2010Prop37
 90
       50
102
RTVSPost2010PropOp37
 70
     0
102
RTVSPost2010Prop38
140
0.0
102
RTVSPost2010PropOp38
 70
     0
102
RTVSPost2010Prop39
140
1.0
102
RTVSPost2010PropOp39
 70
     0
102
RTVSPost2010Prop40
 90
        0
102
RTVSPost2010PropOp40
 70
     0
102
RTVSPost2010Prop41ColorIndex
 90
       18
102
RTVSPost2010Prop41ColorRGB
 90
        0
102
RTVSPost2010PropOp41
 70
     0
102
RTVSPost2010Prop42
 90
       50
102
RTVSPost2010PropOp42
 70
     0
102
RTVSPost2010Prop43
 90
        3
102
RTVSPost2010PropOp43
 70
     0
102
RTVSPost2010Prop44ColorIndex
 90
        5
102
RTVSPost2010Prop44ColorRGB
 90
      255
102
RTVSPost2010PropOp44
 70
     0
102
RTVSPost2010Prop45
280
     0
102
RTVSPost2010PropOp45
 70
     0
102
RTVSPost2010Prop46
 90
       50
102
RTVSPost2010PropOp46
 70
     0
102
RTVSPost2010Prop47
 90
       50
102
RTVSPost2010PropOp47
 70
     0
102
RTVSPost2010Prop48
 90
       50
102
RTVSPost2010PropOp48
 70
     0
102
RTVSPost2010Prop49
280
     0
102
RTVSPost2010PropOp49
 70
     0
102
RTVSPost2010Prop50
 90
       50
102
RTVSPost2010PropOp50
 70
     0
102
RTVSPost2010Prop51ColorIndex
 90
      256
102
RTVSPost2010Prop51ColorRGB
 90
-16777216
102
RTVSPost2010PropOp51
 70
     0
102
RTVSPost2010Prop52
140
1.0
102
RTVSPost2010PropOp52
 70
     0
102
RTVSPost2010Prop53
 90
        2
102
RTVSPost2010PropOp53
 70
     0
102
RTVSPost2010Prop54
  1
strokes_ogs.tif
102
RTVSPost2010PropOp54
 70
     0
102
RTVSPost2010Prop55
280
     0
102
RTVSPost2010PropOp55
 70
     0
102
RTVSPost2010Prop56
140
1.0
102
RTVSPost2010PropOp56
 70
     0
102
RTVSPost2010Prop57
140
1.0
102
RTVSPost2010PropOp57
 70
     0
102
RTVSPropertyOp0
 70
     0
102
RTVSPropertyOp1
 70
     0
102
RTVSPropertyOp2
 70
     0
102
RTVSPropertyOp3
 70
     0
102
RTVSPropertyOp4
 70
     0
102
RTVSPropertyOp5
 70
     0
102
RTVSPropertyOp6
 70
     0
102
RTVSPropertyOp7
 70
     0
102
RTVSPropertyOp8
 70
     0
102
RTVSPropertyOp9
 70
     0
102
RTVSPropertyOp10
 70
     0
102
RTVSPropertyOp11
 70
     0
102
RTVSPropertyOp12
 70
     0
102
RTVSPropertyOp13
 70
     0
102
RTVSPropertyOp14
 70
     2
102
RTVSPropertyOp15
 70
     0
102
RTVSPropertyOp16
 70
     0
102
RTVSPropertyOp17
 70
     0
102
RTVSPropertyOp18
 70
     0
102
RTVSPropertyOp19
 70
     0
102
RTVSPropertyOp20
 70
     0
102
RTVSPropertyOp21
 70
     0
102
RTVSPropertyOp22
 70
     0
102
RTVSPropertyOp23
 70
     0
102
RTVSPropertyOp24
 70
     0
102
RTVSPropertyOp25
 70
     0
102
RTVSPropertyOp26
 70
     0
102
RTVSPropertyOp27
 70
     0
102
RTVSPropertyOp28
 70
     0
102
RTVSPropertyOp29
 70
     0
102
RTVSPropertyOp30
 70
     0
102
RTVSPropertyOp31
 70
     0
102
RTVSPropertyOp32
 70
     0
102
RTVSPropertyOp33
 70
     0
102
RTVSPropertyOp34
 70
     0
102
RTVSPropertyOp35
 70
     0
102
RTVSPropertyOp36
 70
     0
102
RTVSPropertyOp37
 70
     0
102
RTVSPropertyOp38
 70
     0
102
RTVSPropertyOp39
 70
     0
102
RTVSPropertyOp40
 70
     0
102
RTVSPropertyOp41
 70
     0
102
RTVSPropertyOp42
 70
     0
102
RTVSPropertyOp43
 70
     0
102
RTVSPropertyOp44
 70
     0
102
RTVSPropertyOp45
 70
     0
102
RTVSPropertyOp46
 70
     0
102
RTVSPropertyOp47
 70
     0
102
RTVSPropertyOp48
 70
     0
102
RTVSPropertyOp49
 70
     0
102
RTVSPropertyOp50
 70
     0
102
RTVSPropertyOp51
 70
     0
102
RTVSPropertyOp52
 70
     0
102
RTVSPropertyOp53
 70
     0
102
RTVSPropertyOp54
 70
     0
102
RTVSPropertyOp55
 70
     0
102
RTVSPropertyOp56
 70
     0
102
RTVSPropertyOp57
 70
     0
102
RTVSPropertyOp58
 70
     0
102
RTVSPropertyOp59
 70
     0
102
RTVSPropertyOp60
 70
     0
102
RTVSPropertyOp61
 70
     0
102
RTVSPropertyOp62
 70
     0
  0
XRECORD
  5
8786
102
{ACAD_REACTORS
330
8785
102
}
330
8785
100
AcDbXrecord
280
     1
102
RTVSPost2010Prop28
280
     0
102
RTVSPost2010PropOp28
 70
     1
102
RTVSPost2010Prop29
280
     1
102
RTVSPost2010PropOp29
 70
     1
102
RTVSPost2010Prop30
280
     1
102
RTVSPost2010PropOp30
 70
     1
102
RTVSPost2010Prop31
280
     0
102
RTVSPost2010PropOp31
 70
     1
102
RTVSPost2010Prop32
280
     0
102
RTVSPost2010PropOp32
 70
     1
102
RTVSPost2010Prop33
280
     0
102
RTVSPost2010PropOp33
 70
     1
102
RTVSPost2010Prop34
280
     0
102
RTVSPost2010PropOp34
 70
     1
102
RTVSPost2010Prop35
280
     0
102
RTVSPost2010PropOp35
 70
     1
102
RTVSPost2010Prop36
280
     0
102
RTVSPost2010PropOp36
 70
     1
102
RTVSPost2010Prop37
 90
       50
102
RTVSPost2010PropOp37
 70
     1
102
RTVSPost2010Prop38
140
0.0
102
RTVSPost2010PropOp38
 70
     1
102
RTVSPost2010Prop39
140
1.0
102
RTVSPost2010PropOp39
 70
     1
102
RTVSPost2010Prop40
 90
        0
102
RTVSPost2010PropOp40
 70
     1
102
RTVSPost2010Prop41ColorIndex
 90
       18
102
RTVSPost2010Prop41ColorRGB
 90
        0
102
RTVSPost2010PropOp41
 70
     1
102
RTVSPost2010Prop42
 90
       50
102
RTVSPost2010PropOp42
 70
     1
102
RTVSPost2010Prop43
 90
        3
102
RTVSPost2010PropOp43
 70
     1
102
RTVSPost2010Prop44ColorIndex
 90
        5
102
RTVSPost2010Prop44ColorRGB
 90
      255
102
RTVSPost2010PropOp44
 70
     1
102
RTVSPost2010Prop45
280
     0
102
RTVSPost2010PropOp45
 70
     1
102
RTVSPost2010Prop46
 90
       50
102
RTVSPost2010PropOp46
 70
     1
102
RTVSPost2010Prop47
 90
       50
102
RTVSPost2010PropOp47
 70
     1
102
RTVSPost2010Prop48
 90
       50
102
RTVSPost2010PropOp48
 70
     1
102
RTVSPost2010Prop49
280
     0
102
RTVSPost2010PropOp49
 70
     1
102
RTVSPost2010Prop50
 90
       50
102
RTVSPost2010PropOp50
 70
     1
102
RTVSPost2010Prop51ColorIndex
 90
      256
102
RTVSPost2010Prop51ColorRGB
 90
-16777216
102
RTVSPost2010PropOp51
 70
     0
102
RTVSPost2010Prop52
140
1.0
102
RTVSPost2010PropOp52
 70
     0
102
RTVSPost2010Prop53
 90
        2
102
RTVSPost2010PropOp53
 70
     1
102
RTVSPost2010Prop54
  1
strokes_ogs.tif
102
RTVSPost2010PropOp54
 70
     1
102
RTVSPost2010Prop55
280
     0
102
RTVSPost2010PropOp55
 70
     1
102
RTVSPost2010Prop56
140
1.0
102
RTVSPost2010PropOp56
 70
     1
102
RTVSPost2010Prop57
140
1.0
102
RTVSPost2010PropOp57
 70
     1
102
RTVSPropertyOp0
 70
     1
102
RTVSPropertyOp1
 70
     1
102
RTVSPropertyOp2
 70
     1
102
RTVSPropertyOp3
 70
     1
102
RTVSPropertyOp4
 70
     1
102
RTVSPropertyOp5
 70
     1
102
RTVSPropertyOp6
 70
     1
102
RTVSPropertyOp7
 70
     1
102
RTVSPropertyOp8
 70
     1
102
RTVSPropertyOp9
 70
     1
102
RTVSPropertyOp10
 70
     1
102
RTVSPropertyOp11
 70
     1
102
RTVSPropertyOp12
 70
     1
102
RTVSPropertyOp13
 70
     1
102
RTVSPropertyOp14
 70
     1
102
RTVSPropertyOp15
 70
     1
102
RTVSPropertyOp16
 70
     1
102
RTVSPropertyOp17
 70
     1
102
RTVSPropertyOp18
 70
     1
102
RTVSPropertyOp19
 70
     1
102
RTVSPropertyOp20
 70
     1
102
RTVSPropertyOp21
 70
     1
102
RTVSPropertyOp22
 70
     1
102
RTVSPropertyOp23
 70
     1
102
RTVSPropertyOp24
 70
     1
102
RTVSPropertyOp25
 70
     1
102
RTVSPropertyOp26
 70
     1
102
RTVSPropertyOp27
 70
     1
102
RTVSPropertyOp28
 70
     1
102
RTVSPropertyOp29
 70
     1
102
RTVSPropertyOp30
 70
     1
102
RTVSPropertyOp31
 70
     1
102
RTVSPropertyOp32
 70
     1
102
RTVSPropertyOp33
 70
     1
102
RTVSPropertyOp34
 70
     1
102
RTVSPropertyOp35
 70
     1
102
RTVSPropertyOp36
 70
     1
102
RTVSPropertyOp37
 70
     1
102
RTVSPropertyOp38
 70
     1
102
RTVSPropertyOp39
 70
     1
102
RTVSPropertyOp40
 70
     1
102
RTVSPropertyOp41
 70
     1
102
RTVSPropertyOp42
 70
     1
102
RTVSPropertyOp43
 70
     1
102
RTVSPropertyOp44
 70
     1
102
RTVSPropertyOp45
 70
     1
102
RTVSPropertyOp46
 70
     1
102
RTVSPropertyOp47
 70
     1
102
RTVSPropertyOp48
 70
     1
102
RTVSPropertyOp49
 70
     1
102
RTVSPropertyOp50
 70
     1
102
RTVSPropertyOp51
 70
     0
102
RTVSPropertyOp52
 70
     0
102
RTVSPropertyOp53
 70
     1
102
RTVSPropertyOp54
 70
     1
102
RTVSPropertyOp55
 70
     1
102
RTVSPropertyOp56
 70
     1
102
RTVSPropertyOp57
 70
     1
102
RTVSPropertyOp58
 70
     1
102
RTVSPropertyOp59
 70
     1
102
RTVSPropertyOp60
 70
     1
102
RTVSPropertyOp61
 70
     1
102
RTVSPropertyOp62
 70
     1
  0
XRECORD
  5
876A
102
{ACAD_REACTORS
330
8769
102
}
330
8769
100
AcDbXrecord
280
     1
102
RTVSPost2010Prop28
280
     0
102
RTVSPost2010PropOp28
 70
     1
102
RTVSPost2010Prop29
280
     1
102
RTVSPost2010PropOp29
 70
     1
102
RTVSPost2010Prop30
280
     1
102
RTVSPost2010PropOp30
 70
     1
102
RTVSPost2010Prop31
280
     0
102
RTVSPost2010PropOp31
 70
     1
102
RTVSPost2010Prop32
280
     0
102
RTVSPost2010PropOp32
 70
     1
102
RTVSPost2010Prop33
280
     0
102
RTVSPost2010PropOp33
 70
     1
102
RTVSPost2010Prop34
280
     0
102
RTVSPost2010PropOp34
 70
     1
102
RTVSPost2010Prop35
280
     0
102
RTVSPost2010PropOp35
 70
     1
102
RTVSPost2010Prop36
280
     0
102
RTVSPost2010PropOp36
 70
     1
102
RTVSPost2010Prop37
 90
       50
102
RTVSPost2010PropOp37
 70
     1
102
RTVSPost2010Prop38
140
0.0
102
RTVSPost2010PropOp38
 70
     1
102
RTVSPost2010Prop39
140
1.0
102
RTVSPost2010PropOp39
 70
     1
102
RTVSPost2010Prop40
 90
        0
102
RTVSPost2010PropOp40
 70
     1
102
RTVSPost2010Prop41ColorIndex
 90
       18
102
RTVSPost2010Prop41ColorRGB
 90
        0
102
RTVSPost2010PropOp41
 70
     1
102
RTVSPost2010Prop42
 90
       50
102
RTVSPost2010PropOp42
 70
     1
102
RTVSPost2010Prop43
 90
        3
102
RTVSPost2010PropOp43
 70
     1
102
RTVSPost2010Prop44ColorIndex
 90
        5
102
RTVSPost2010Prop44ColorRGB
 90
      255
102
RTVSPost2010PropOp44
 70
     1
102
RTVSPost2010Prop45
280
     0
102
RTVSPost2010PropOp45
 70
     1
102
RTVSPost2010Prop46
 90
       50
102
RTVSPost2010PropOp46
 70
     1
102
RTVSPost2010Prop47
 90
       50
102
RTVSPost2010PropOp47
 70
     1
102
RTVSPost2010Prop48
 90
       50
102
RTVSPost2010PropOp48
 70
     1
102
RTVSPost2010Prop49
280
     0
102
RTVSPost2010PropOp49
 70
     1
102
RTVSPost2010Prop50
 90
       50
102
RTVSPost2010PropOp50
 70
     1
102
RTVSPost2010Prop51ColorIndex
 90
      256
102
RTVSPost2010Prop51ColorRGB
 90
-16777216
102
RTVSPost2010PropOp51
 70
     0
102
RTVSPost2010Prop52
140
1.0
102
RTVSPost2010PropOp52
 70
     0
102
RTVSPost2010Prop53
 90
        2
102
RTVSPost2010PropOp53
 70
     1
102
RTVSPost2010Prop54
  1
strokes_ogs.tif
102
RTVSPost2010PropOp54
 70
     1
102
RTVSPost2010Prop55
280
     0
102
RTVSPost2010PropOp55
 70
     1
102
RTVSPost2010Prop56
140
1.0
102
RTVSPost2010PropOp56
 70
     1
102
RTVSPost2010Prop57
140
1.0
102
RTVSPost2010PropOp57
 70
     1
102
RTVSPropertyOp0
 70
     1
102
RTVSPropertyOp1
 70
     1
102
RTVSPropertyOp2
 70
     1
102
RTVSPropertyOp3
 70
     1
102
RTVSPropertyOp4
 70
     1
102
RTVSPropertyOp5
 70
     1
102
RTVSPropertyOp6
 70
     1
102
RTVSPropertyOp7
 70
     1
102
RTVSPropertyOp8
 70
     1
102
RTVSPropertyOp9
 70
     1
102
RTVSPropertyOp10
 70
     1
102
RTVSPropertyOp11
 70
     1
102
RTVSPropertyOp12
 70
     1
102
RTVSPropertyOp13
 70
     1
102
RTVSPropertyOp14
 70
     1
102
RTVSPropertyOp15
 70
     1
102
RTVSPropertyOp16
 70
     1
102
RTVSPropertyOp17
 70
     1
102
RTVSPropertyOp18
 70
     1
102
RTVSPropertyOp19
 70
     1
102
RTVSPropertyOp20
 70
     1
102
RTVSPropertyOp21
 70
     1
102
RTVSPropertyOp22
 70
     1
102
RTVSPropertyOp23
 70
     1
102
RTVSPropertyOp24
 70
     1
102
RTVSPropertyOp25
 70
     1
102
RTVSPropertyOp26
 70
     1
102
RTVSPropertyOp27
 70
     1
102
RTVSPropertyOp28
 70
     1
102
RTVSPropertyOp29
 70
     1
102
RTVSPropertyOp30
 70
     1
102
RTVSPropertyOp31
 70
     1
102
RTVSPropertyOp32
 70
     1
102
RTVSPropertyOp33
 70
     1
102
RTVSPropertyOp34
 70
     1
102
RTVSPropertyOp35
 70
     1
102
RTVSPropertyOp36
 70
     1
102
RTVSPropertyOp37
 70
     1
102
RTVSPropertyOp38
 70
     1
102
RTVSPropertyOp39
 70
     1
102
RTVSPropertyOp40
 70
     1
102
RTVSPropertyOp41
 70
     1
102
RTVSPropertyOp42
 70
     1
102
RTVSPropertyOp43
 70
     1
102
RTVSPropertyOp44
 70
     1
102
RTVSPropertyOp45
 70
     1
102
RTVSPropertyOp46
 70
     1
102
RTVSPropertyOp47
 70
     1
102
RTVSPropertyOp48
 70
     1
102
RTVSPropertyOp49
 70
     1
102
RTVSPropertyOp50
 70
     1
102
RTVSPropertyOp51
 70
     0
102
RTVSPropertyOp52
 70
     0
102
RTVSPropertyOp53
 70
     1
102
RTVSPropertyOp54
 70
     1
102
RTVSPropertyOp55
 70
     1
102
RTVSPropertyOp56
 70
     1
102
RTVSPropertyOp57
 70
     1
102
RTVSPropertyOp58
 70
     1
102
RTVSPropertyOp59
 70
     1
102
RTVSPropertyOp60
 70
     1
102
RTVSPropertyOp61
 70
     1
102
RTVSPropertyOp62
 70
     1
  0
XRECORD
  5
876C
102
{ACAD_REACTORS
330
876B
102
}
330
876B
100
AcDbXrecord
280
     1
102
RTVSPost2010Prop28
280
     0
102
RTVSPost2010PropOp28
 70
     1
102
RTVSPost2010Prop29
280
     1
102
RTVSPost2010PropOp29
 70
     1
102
RTVSPost2010Prop30
280
     1
102
RTVSPost2010PropOp30
 70
     1
102
RTVSPost2010Prop31
280
     0
102
RTVSPost2010PropOp31
 70
     1
102
RTVSPost2010Prop32
280
     0
102
RTVSPost2010PropOp32
 70
     1
102
RTVSPost2010Prop33
280
     0
102
RTVSPost2010PropOp33
 70
     1
102
RTVSPost2010Prop34
280
     0
102
RTVSPost2010PropOp34
 70
     1
102
RTVSPost2010Prop35
280
     0
102
RTVSPost2010PropOp35
 70
     1
102
RTVSPost2010Prop36
280
     0
102
RTVSPost2010PropOp36
 70
     1
102
RTVSPost2010Prop37
 90
       50
102
RTVSPost2010PropOp37
 70
     1
102
RTVSPost2010Prop38
140
0.0
102
RTVSPost2010PropOp38
 70
     1
102
RTVSPost2010Prop39
140
1.0
102
RTVSPost2010PropOp39
 70
     1
102
RTVSPost2010Prop40
 90
        0
102
RTVSPost2010PropOp40
 70
     1
102
RTVSPost2010Prop41ColorIndex
 90
       18
102
RTVSPost2010Prop41ColorRGB
 90
        0
102
RTVSPost2010PropOp41
 70
     1
102
RTVSPost2010Prop42
 90
       50
102
RTVSPost2010PropOp42
 70
     1
102
RTVSPost2010Prop43
 90
        3
102
RTVSPost2010PropOp43
 70
     1
102
RTVSPost2010Prop44ColorIndex
 90
        5
102
RTVSPost2010Prop44ColorRGB
 90
      255
102
RTVSPost2010PropOp44
 70
     1
102
RTVSPost2010Prop45
280
     0
102
RTVSPost2010PropOp45
 70
     1
102
RTVSPost2010Prop46
 90
       50
102
RTVSPost2010PropOp46
 70
     1
102
RTVSPost2010Prop47
 90
       50
102
RTVSPost2010PropOp47
 70
     1
102
RTVSPost2010Prop48
 90
       50
102
RTVSPost2010PropOp48
 70
     1
102
RTVSPost2010Prop49
280
     0
102
RTVSPost2010PropOp49
 70
     1
102
RTVSPost2010Prop50
 90
       50
102
RTVSPost2010PropOp50
 70
     1
102
RTVSPost2010Prop51ColorIndex
 90
      256
102
RTVSPost2010Prop51ColorRGB
 90
-16777216
102
RTVSPost2010PropOp51
 70
     0
102
RTVSPost2010Prop52
140
1.0
102
RTVSPost2010PropOp52
 70
     0
102
RTVSPost2010Prop53
 90
        2
102
RTVSPost2010PropOp53
 70
     1
102
RTVSPost2010Prop54
  1
strokes_ogs.tif
102
RTVSPost2010PropOp54
 70
     1
102
RTVSPost2010Prop55
280
     0
102
RTVSPost2010PropOp55
 70
     1
102
RTVSPost2010Prop56
140
1.0
102
RTVSPost2010PropOp56
 70
     1
102
RTVSPost2010Prop57
140
1.0
102
RTVSPost2010PropOp57
 70
     1
102
RTVSPropertyOp0
 70
     1
102
RTVSPropertyOp1
 70
     1
102
RTVSPropertyOp2
 70
     1
102
RTVSPropertyOp3
 70
     1
102
RTVSPropertyOp4
 70
     1
102
RTVSPropertyOp5
 70
     1
102
RTVSPropertyOp6
 70
     1
102
RTVSPropertyOp7
 70
     1
102
RTVSPropertyOp8
 70
     1
102
RTVSPropertyOp9
 70
     1
102
RTVSPropertyOp10
 70
     1
102
RTVSPropertyOp11
 70
     1
102
RTVSPropertyOp12
 70
     1
102
RTVSPropertyOp13
 70
     1
102
RTVSPropertyOp14
 70
     1
102
RTVSPropertyOp15
 70
     1
102
RTVSPropertyOp16
 70
     1
102
RTVSPropertyOp17
 70
     1
102
RTVSPropertyOp18
 70
     1
102
RTVSPropertyOp19
 70
     1
102
RTVSPropertyOp20
 70
     1
102
RTVSPropertyOp21
 70
     1
102
RTVSPropertyOp22
 70
     1
102
RTVSPropertyOp23
 70
     1
102
RTVSPropertyOp24
 70
     1
102
RTVSPropertyOp25
 70
     1
102
RTVSPropertyOp26
 70
     1
102
RTVSPropertyOp27
 70
     1
102
RTVSPropertyOp28
 70
     1
102
RTVSPropertyOp29
 70
     1
102
RTVSPropertyOp30
 70
     1
102
RTVSPropertyOp31
 70
     1
102
RTVSPropertyOp32
 70
     1
102
RTVSPropertyOp33
 70
     1
102
RTVSPropertyOp34
 70
     1
102
RTVSPropertyOp35
 70
     1
102
RTVSPropertyOp36
 70
     1
102
RTVSPropertyOp37
 70
     1
102
RTVSPropertyOp38
 70
     1
102
RTVSPropertyOp39
 70
     1
102
RTVSPropertyOp40
 70
     1
102
RTVSPropertyOp41
 70
     1
102
RTVSPropertyOp42
 70
     1
102
RTVSPropertyOp43
 70
     1
102
RTVSPropertyOp44
 70
     1
102
RTVSPropertyOp45
 70
     1
102
RTVSPropertyOp46
 70
     1
102
RTVSPropertyOp47
 70
     1
102
RTVSPropertyOp48
 70
     1
102
RTVSPropertyOp49
 70
     1
102
RTVSPropertyOp50
 70
     1
102
RTVSPropertyOp51
 70
     0
102
RTVSPropertyOp52
 70
     0
102
RTVSPropertyOp53
 70
     1
102
RTVSPropertyOp54
 70
     1
102
RTVSPropertyOp55
 70
     1
102
RTVSPropertyOp56
 70
     1
102
RTVSPropertyOp57
 70
     1
102
RTVSPropertyOp58
 70
     1
102
RTVSPropertyOp59
 70
     1
102
RTVSPropertyOp60
 70
     1
102
RTVSPropertyOp61
 70
     1
102
RTVSPropertyOp62
 70
     1
  0
XRECORD
  5
876E
102
{ACAD_REACTORS
330
876D
102
}
330
876D
100
AcDbXrecord
280
     1
102
RTVSPost2010Prop28
280
     0
102
RTVSPost2010PropOp28
 70
     1
102
RTVSPost2010Prop29
280
     1
102
RTVSPost2010PropOp29
 70
     1
102
RTVSPost2010Prop30
280
     1
102
RTVSPost2010PropOp30
 70
     1
102
RTVSPost2010Prop31
280
     0
102
RTVSPost2010PropOp31
 70
     1
102
RTVSPost2010Prop32
280
     0
102
RTVSPost2010PropOp32
 70
     1
102
RTVSPost2010Prop33
280
     0
102
RTVSPost2010PropOp33
 70
     1
102
RTVSPost2010Prop34
280
     0
102
RTVSPost2010PropOp34
 70
     1
102
RTVSPost2010Prop35
280
     0
102
RTVSPost2010PropOp35
 70
     1
102
RTVSPost2010Prop36
280
     0
102
RTVSPost2010PropOp36
 70
     1
102
RTVSPost2010Prop37
 90
       50
102
RTVSPost2010PropOp37
 70
     1
102
RTVSPost2010Prop38
140
0.0
102
RTVSPost2010PropOp38
 70
     1
102
RTVSPost2010Prop39
140
1.0
102
RTVSPost2010PropOp39
 70
     1
102
RTVSPost2010Prop40
 90
        0
102
RTVSPost2010PropOp40
 70
     1
102
RTVSPost2010Prop41ColorIndex
 90
       18
102
RTVSPost2010Prop41ColorRGB
 90
        0
102
RTVSPost2010PropOp41
 70
     1
102
RTVSPost2010Prop42
 90
       50
102
RTVSPost2010PropOp42
 70
     1
102
RTVSPost2010Prop43
 90
        3
102
RTVSPost2010PropOp43
 70
     1
102
RTVSPost2010Prop44ColorIndex
 90
        5
102
RTVSPost2010Prop44ColorRGB
 90
      255
102
RTVSPost2010PropOp44
 70
     1
102
RTVSPost2010Prop45
280
     0
102
RTVSPost2010PropOp45
 70
     1
102
RTVSPost2010Prop46
 90
       50
102
RTVSPost2010PropOp46
 70
     1
102
RTVSPost2010Prop47
 90
       50
102
RTVSPost2010PropOp47
 70
     1
102
RTVSPost2010Prop48
 90
       50
102
RTVSPost2010PropOp48
 70
     1
102
RTVSPost2010Prop49
280
     0
102
RTVSPost2010PropOp49
 70
     1
102
RTVSPost2010Prop50
 90
       50
102
RTVSPost2010PropOp50
 70
     1
102
RTVSPost2010Prop51ColorIndex
 90
      256
102
RTVSPost2010Prop51ColorRGB
 90
-16777216
102
RTVSPost2010PropOp51
 70
     0
102
RTVSPost2010Prop52
140
1.0
102
RTVSPost2010PropOp52
 70
     0
102
RTVSPost2010Prop53
 90
        2
102
RTVSPost2010PropOp53
 70
     1
102
RTVSPost2010Prop54
  1
strokes_ogs.tif
102
RTVSPost2010PropOp54
 70
     1
102
RTVSPost2010Prop55
280
     0
102
RTVSPost2010PropOp55
 70
     1
102
RTVSPost2010Prop56
140
1.0
102
RTVSPost2010PropOp56
 70
     1
102
RTVSPost2010Prop57
140
1.0
102
RTVSPost2010PropOp57
 70
     1
102
RTVSPropertyOp0
 70
     1
102
RTVSPropertyOp1
 70
     1
102
RTVSPropertyOp2
 70
     1
102
RTVSPropertyOp3
 70
     1
102
RTVSPropertyOp4
 70
     1
102
RTVSPropertyOp5
 70
     1
102
RTVSPropertyOp6
 70
     1
102
RTVSPropertyOp7
 70
     1
102
RTVSPropertyOp8
 70
     1
102
RTVSPropertyOp9
 70
     1
102
RTVSPropertyOp10
 70
     1
102
RTVSPropertyOp11
 70
     1
102
RTVSPropertyOp12
 70
     1
102
RTVSPropertyOp13
 70
     1
102
RTVSPropertyOp14
 70
     1
102
RTVSPropertyOp15
 70
     1
102
RTVSPropertyOp16
 70
     1
102
RTVSPropertyOp17
 70
     1
102
RTVSPropertyOp18
 70
     1
102
RTVSPropertyOp19
 70
     1
102
RTVSPropertyOp20
 70
     1
102
RTVSPropertyOp21
 70
     1
102
RTVSPropertyOp22
 70
     1
102
RTVSPropertyOp23
 70
     1
102
RTVSPropertyOp24
 70
     1
102
RTVSPropertyOp25
 70
     1
102
RTVSPropertyOp26
 70
     1
102
RTVSPropertyOp27
 70
     1
102
RTVSPropertyOp28
 70
     1
102
RTVSPropertyOp29
 70
     1
102
RTVSPropertyOp30
 70
     1
102
RTVSPropertyOp31
 70
     1
102
RTVSPropertyOp32
 70
     1
102
RTVSPropertyOp33
 70
     1
102
RTVSPropertyOp34
 70
     1
102
RTVSPropertyOp35
 70
     1
102
RTVSPropertyOp36
 70
     1
102
RTVSPropertyOp37
 70
     1
102
RTVSPropertyOp38
 70
     1
102
RTVSPropertyOp39
 70
     1
102
RTVSPropertyOp40
 70
     1
102
RTVSPropertyOp41
 70
     1
102
RTVSPropertyOp42
 70
     1
102
RTVSPropertyOp43
 70
     1
102
RTVSPropertyOp44
 70
     1
102
RTVSPropertyOp45
 70
     1
102
RTVSPropertyOp46
 70
     1
102
RTVSPropertyOp47
 70
     1
102
RTVSPropertyOp48
 70
     1
102
RTVSPropertyOp49
 70
     1
102
RTVSPropertyOp50
 70
     1
102
RTVSPropertyOp51
 70
     0
102
RTVSPropertyOp52
 70
     0
102
RTVSPropertyOp53
 70
     1
102
RTVSPropertyOp54
 70
     1
102
RTVSPropertyOp55
 70
     1
102
RTVSPropertyOp56
 70
     1
102
RTVSPropertyOp57
 70
     1
102
RTVSPropertyOp58
 70
     1
102
RTVSPropertyOp59
 70
     1
102
RTVSPropertyOp60
 70
     1
102
RTVSPropertyOp61
 70
     1
102
RTVSPropertyOp62
 70
     1
  0
XRECORD
  5
8770
102
{ACAD_REACTORS
330
876F
102
}
330
876F
100
AcDbXrecord
280
     1
102
RTVSPost2010Prop28
280
     0
102
RTVSPost2010PropOp28
 70
     1
102
RTVSPost2010Prop29
280
     1
102
RTVSPost2010PropOp29
 70
     1
102
RTVSPost2010Prop30
280
     1
102
RTVSPost2010PropOp30
 70
     1
102
RTVSPost2010Prop31
280
     0
102
RTVSPost2010PropOp31
 70
     1
102
RTVSPost2010Prop32
280
     0
102
RTVSPost2010PropOp32
 70
     1
102
RTVSPost2010Prop33
280
     0
102
RTVSPost2010PropOp33
 70
     1
102
RTVSPost2010Prop34
280
     0
102
RTVSPost2010PropOp34
 70
     1
102
RTVSPost2010Prop35
280
     0
102
RTVSPost2010PropOp35
 70
     1
102
RTVSPost2010Prop36
280
     0
102
RTVSPost2010PropOp36
 70
     1
102
RTVSPost2010Prop37
 90
       50
102
RTVSPost2010PropOp37
 70
     1
102
RTVSPost2010Prop38
140
0.0
102
RTVSPost2010PropOp38
 70
     1
102
RTVSPost2010Prop39
140
1.0
102
RTVSPost2010PropOp39
 70
     1
102
RTVSPost2010Prop40
 90
        0
102
RTVSPost2010PropOp40
 70
     1
102
RTVSPost2010Prop41ColorIndex
 90
       18
102
RTVSPost2010Prop41ColorRGB
 90
        0
102
RTVSPost2010PropOp41
 70
     1
102
RTVSPost2010Prop42
 90
       50
102
RTVSPost2010PropOp42
 70
     1
102
RTVSPost2010Prop43
 90
        3
102
RTVSPost2010PropOp43
 70
     1
102
RTVSPost2010Prop44ColorIndex
 90
        5
102
RTVSPost2010Prop44ColorRGB
 90
      255
102
RTVSPost2010PropOp44
 70
     1
102
RTVSPost2010Prop45
280
     0
102
RTVSPost2010PropOp45
 70
     1
102
RTVSPost2010Prop46
 90
       50
102
RTVSPost2010PropOp46
 70
     1
102
RTVSPost2010Prop47
 90
       50
102
RTVSPost2010PropOp47
 70
     1
102
RTVSPost2010Prop48
 90
       50
102
RTVSPost2010PropOp48
 70
     1
102
RTVSPost2010Prop49
280
     0
102
RTVSPost2010PropOp49
 70
     1
102
RTVSPost2010Prop50
 90
       50
102
RTVSPost2010PropOp50
 70
     1
102
RTVSPost2010Prop51ColorIndex
 90
      256
102
RTVSPost2010Prop51ColorRGB
 90
-16777216
102
RTVSPost2010PropOp51
 70
     0
102
RTVSPost2010Prop52
140
1.0
102
RTVSPost2010PropOp52
 70
     0
102
RTVSPost2010Prop53
 90
        2
102
RTVSPost2010PropOp53
 70
     1
102
RTVSPost2010Prop54
  1
strokes_ogs.tif
102
RTVSPost2010PropOp54
 70
     1
102
RTVSPost2010Prop55
280
     0
102
RTVSPost2010PropOp55
 70
     1
102
RTVSPost2010Prop56
140
1.0
102
RTVSPost2010PropOp56
 70
     1
102
RTVSPost2010Prop57
140
1.0
102
RTVSPost2010PropOp57
 70
     1
102
RTVSPropertyOp0
 70
     1
102
RTVSPropertyOp1
 70
     1
102
RTVSPropertyOp2
 70
     1
102
RTVSPropertyOp3
 70
     1
102
RTVSPropertyOp4
 70
     1
102
RTVSPropertyOp5
 70
     1
102
RTVSPropertyOp6
 70
     1
102
RTVSPropertyOp7
 70
     1
102
RTVSPropertyOp8
 70
     1
102
RTVSPropertyOp9
 70
     1
102
RTVSPropertyOp10
 70
     1
102
RTVSPropertyOp11
 70
     1
102
RTVSPropertyOp12
 70
     1
102
RTVSPropertyOp13
 70
     1
102
RTVSPropertyOp14
 70
     1
102
RTVSPropertyOp15
 70
     1
102
RTVSPropertyOp16
 70
     1
102
RTVSPropertyOp17
 70
     1
102
RTVSPropertyOp18
 70
     1
102
RTVSPropertyOp19
 70
     1
102
RTVSPropertyOp20
 70
     1
102
RTVSPropertyOp21
 70
     1
102
RTVSPropertyOp22
 70
     1
102
RTVSPropertyOp23
 70
     1
102
RTVSPropertyOp24
 70
     1
102
RTVSPropertyOp25
 70
     1
102
RTVSPropertyOp26
 70
     1
102
RTVSPropertyOp27
 70
     1
102
RTVSPropertyOp28
 70
     1
102
RTVSPropertyOp29
 70
     1
102
RTVSPropertyOp30
 70
     1
102
RTVSPropertyOp31
 70
     1
102
RTVSPropertyOp32
 70
     1
102
RTVSPropertyOp33
 70
     1
102
RTVSPropertyOp34
 70
     1
102
RTVSPropertyOp35
 70
     1
102
RTVSPropertyOp36
 70
     1
102
RTVSPropertyOp37
 70
     1
102
RTVSPropertyOp38
 70
     1
102
RTVSPropertyOp39
 70
     1
102
RTVSPropertyOp40
 70
     1
102
RTVSPropertyOp41
 70
     1
102
RTVSPropertyOp42
 70
     1
102
RTVSPropertyOp43
 70
     1
102
RTVSPropertyOp44
 70
     1
102
RTVSPropertyOp45
 70
     1
102
RTVSPropertyOp46
 70
     1
102
RTVSPropertyOp47
 70
     1
102
RTVSPropertyOp48
 70
     1
102
RTVSPropertyOp49
 70
     1
102
RTVSPropertyOp50
 70
     1
102
RTVSPropertyOp51
 70
     0
102
RTVSPropertyOp52
 70
     0
102
RTVSPropertyOp53
 70
     1
102
RTVSPropertyOp54
 70
     1
102
RTVSPropertyOp55
 70
     1
102
RTVSPropertyOp56
 70
     1
102
RTVSPropertyOp57
 70
     1
102
RTVSPropertyOp58
 70
     1
102
RTVSPropertyOp59
 70
     1
102
RTVSPropertyOp60
 70
     1
102
RTVSPropertyOp61
 70
     1
102
RTVSPropertyOp62
 70
     1
  0
XRECORD
  5
8778
102
{ACAD_REACTORS
330
8777
102
}
330
8777
100
AcDbXrecord
280
     1
102
RTVSPost2010Prop28
280
     0
102
RTVSPost2010PropOp28
 70
     1
102
RTVSPost2010Prop29
280
     1
102
RTVSPost2010PropOp29
 70
     1
102
RTVSPost2010Prop30
280
     1
102
RTVSPost2010PropOp30
 70
     1
102
RTVSPost2010Prop31
280
     0
102
RTVSPost2010PropOp31
 70
     1
102
RTVSPost2010Prop32
280
     0
102
RTVSPost2010PropOp32
 70
     1
102
RTVSPost2010Prop33
280
     0
102
RTVSPost2010PropOp33
 70
     1
102
RTVSPost2010Prop34
280
     0
102
RTVSPost2010PropOp34
 70
     1
102
RTVSPost2010Prop35
280
     0
102
RTVSPost2010PropOp35
 70
     1
102
RTVSPost2010Prop36
280
     0
102
RTVSPost2010PropOp36
 70
     1
102
RTVSPost2010Prop37
 90
       50
102
RTVSPost2010PropOp37
 70
     1
102
RTVSPost2010Prop38
140
0.0
102
RTVSPost2010PropOp38
 70
     1
102
RTVSPost2010Prop39
140
1.0
102
RTVSPost2010PropOp39
 70
     1
102
RTVSPost2010Prop40
 90
        0
102
RTVSPost2010PropOp40
 70
     1
102
RTVSPost2010Prop41ColorIndex
 90
       18
102
RTVSPost2010Prop41ColorRGB
 90
        0
102
RTVSPost2010PropOp41
 70
     1
102
RTVSPost2010Prop42
 90
       50
102
RTVSPost2010PropOp42
 70
     1
102
RTVSPost2010Prop43
 90
        3
102
RTVSPost2010PropOp43
 70
     1
102
RTVSPost2010Prop44ColorIndex
 90
        5
102
RTVSPost2010Prop44ColorRGB
 90
      255
102
RTVSPost2010PropOp44
 70
     1
102
RTVSPost2010Prop45
280
     0
102
RTVSPost2010PropOp45
 70
     1
102
RTVSPost2010Prop46
 90
       50
102
RTVSPost2010PropOp46
 70
     1
102
RTVSPost2010Prop47
 90
       50
102
RTVSPost2010PropOp47
 70
     1
102
RTVSPost2010Prop48
 90
       50
102
RTVSPost2010PropOp48
 70
     1
102
RTVSPost2010Prop49
280
     0
102
RTVSPost2010PropOp49
 70
     1
102
RTVSPost2010Prop50
 90
       50
102
RTVSPost2010PropOp50
 70
     1
102
RTVSPost2010Prop51ColorIndex
 90
      256
102
RTVSPost2010Prop51ColorRGB
 90
-16777216
102
RTVSPost2010PropOp51
 70
     0
102
RTVSPost2010Prop52
140
1.0
102
RTVSPost2010PropOp52
 70
     0
102
RTVSPost2010Prop53
 90
        2
102
RTVSPost2010PropOp53
 70
     1
102
RTVSPost2010Prop54
  1
strokes_ogs.tif
102
RTVSPost2010PropOp54
 70
     1
102
RTVSPost2010Prop55
280
     0
102
RTVSPost2010PropOp55
 70
     1
102
RTVSPost2010Prop56
140
1.0
102
RTVSPost2010PropOp56
 70
     1
102
RTVSPost2010Prop57
140
1.0
102
RTVSPost2010PropOp57
 70
     1
102
RTVSPropertyOp0
 70
     1
102
RTVSPropertyOp1
 70
     1
102
RTVSPropertyOp2
 70
     1
102
RTVSPropertyOp3
 70
     1
102
RTVSPropertyOp4
 70
     1
102
RTVSPropertyOp5
 70
     1
102
RTVSPropertyOp6
 70
     1
102
RTVSPropertyOp7
 70
     1
102
RTVSPropertyOp8
 70
     1
102
RTVSPropertyOp9
 70
     1
102
RTVSPropertyOp10
 70
     1
102
RTVSPropertyOp11
 70
     1
102
RTVSPropertyOp12
 70
     1
102
RTVSPropertyOp13
 70
     1
102
RTVSPropertyOp14
 70
     1
102
RTVSPropertyOp15
 70
     1
102
RTVSPropertyOp16
 70
     1
102
RTVSPropertyOp17
 70
     1
102
RTVSPropertyOp18
 70
     1
102
RTVSPropertyOp19
 70
     1
102
RTVSPropertyOp20
 70
     1
102
RTVSPropertyOp21
 70
     1
102
RTVSPropertyOp22
 70
     1
102
RTVSPropertyOp23
 70
     1
102
RTVSPropertyOp24
 70
     1
102
RTVSPropertyOp25
 70
     1
102
RTVSPropertyOp26
 70
     1
102
RTVSPropertyOp27
 70
     1
102
RTVSPropertyOp28
 70
     1
102
RTVSPropertyOp29
 70
     1
102
RTVSPropertyOp30
 70
     1
102
RTVSPropertyOp31
 70
     1
102
RTVSPropertyOp32
 70
     1
102
RTVSPropertyOp33
 70
     1
102
RTVSPropertyOp34
 70
     1
102
RTVSPropertyOp35
 70
     1
102
RTVSPropertyOp36
 70
     1
102
RTVSPropertyOp37
 70
     1
102
RTVSPropertyOp38
 70
     1
102
RTVSPropertyOp39
 70
     1
102
RTVSPropertyOp40
 70
     1
102
RTVSPropertyOp41
 70
     1
102
RTVSPropertyOp42
 70
     1
102
RTVSPropertyOp43
 70
     1
102
RTVSPropertyOp44
 70
     1
102
RTVSPropertyOp45
 70
     1
102
RTVSPropertyOp46
 70
     1
102
RTVSPropertyOp47
 70
     1
102
RTVSPropertyOp48
 70
     1
102
RTVSPropertyOp49
 70
     1
102
RTVSPropertyOp50
 70
     1
102
RTVSPropertyOp51
 70
     0
102
RTVSPropertyOp52
 70
     0
102
RTVSPropertyOp53
 70
     1
102
RTVSPropertyOp54
 70
     1
102
RTVSPropertyOp55
 70
     1
102
RTVSPropertyOp56
 70
     1
102
RTVSPropertyOp57
 70
     1
102
RTVSPropertyOp58
 70
     1
102
RTVSPropertyOp59
 70
     1
102
RTVSPropertyOp60
 70
     1
102
RTVSPropertyOp61
 70
     1
102
RTVSPropertyOp62
 70
     1
  0
XRECORD
  5
8794
102
{ACAD_REACTORS
330
8793
102
}
330
8793
100
AcDbXrecord
280
     1
102
RTVSPost2010Prop28
280
     0
102
RTVSPost2010PropOp28
 70
     0
102
RTVSPost2010Prop29
280
     1
102
RTVSPost2010PropOp29
 70
     0
102
RTVSPost2010Prop30
280
     1
102
RTVSPost2010PropOp30
 70
     0
102
RTVSPost2010Prop31
280
     0
102
RTVSPost2010PropOp31
 70
     0
102
RTVSPost2010Prop32
280
     0
102
RTVSPost2010PropOp32
 70
     0
102
RTVSPost2010Prop33
280
     0
102
RTVSPost2010PropOp33
 70
     0
102
RTVSPost2010Prop34
280
     0
102
RTVSPost2010PropOp34
 70
     0
102
RTVSPost2010Prop35
280
     0
102
RTVSPost2010PropOp35
 70
     0
102
RTVSPost2010Prop36
280
     0
102
RTVSPost2010PropOp36
 70
     0
102
RTVSPost2010Prop37
 90
       50
102
RTVSPost2010PropOp37
 70
     0
102
RTVSPost2010Prop38
140
0.0
102
RTVSPost2010PropOp38
 70
     0
102
RTVSPost2010Prop39
140
1.0
102
RTVSPost2010PropOp39
 70
     0
102
RTVSPost2010Prop40
 90
        0
102
RTVSPost2010PropOp40
 70
     0
102
RTVSPost2010Prop41ColorIndex
 90
       18
102
RTVSPost2010Prop41ColorRGB
 90
        0
102
RTVSPost2010PropOp41
 70
     0
102
RTVSPost2010Prop42
 90
       50
102
RTVSPost2010PropOp42
 70
     0
102
RTVSPost2010Prop43
 90
        3
102
RTVSPost2010PropOp43
 70
     0
102
RTVSPost2010Prop44ColorIndex
 90
        5
102
RTVSPost2010Prop44ColorRGB
 90
      255
102
RTVSPost2010PropOp44
 70
     0
102
RTVSPost2010Prop45
280
     0
102
RTVSPost2010PropOp45
 70
     0
102
RTVSPost2010Prop46
 90
       50
102
RTVSPost2010PropOp46
 70
     0
102
RTVSPost2010Prop47
 90
       50
102
RTVSPost2010PropOp47
 70
     0
102
RTVSPost2010Prop48
 90
       50
102
RTVSPost2010PropOp48
 70
     0
102
RTVSPost2010Prop49
280
     0
102
RTVSPost2010PropOp49
 70
     0
102
RTVSPost2010Prop50
 90
       50
102
RTVSPost2010PropOp50
 70
     0
102
RTVSPost2010Prop51ColorIndex
 90
      256
102
RTVSPost2010Prop51ColorRGB
 90
-16777216
102
RTVSPost2010PropOp51
 70
     0
102
RTVSPost2010Prop52
140
1.0
102
RTVSPost2010PropOp52
 70
     0
102
RTVSPost2010Prop53
 90
        2
102
RTVSPost2010PropOp53
 70
     0
102
RTVSPost2010Prop54
  1
strokes_ogs.tif
102
RTVSPost2010PropOp54
 70
     0
102
RTVSPost2010Prop55
280
     0
102
RTVSPost2010PropOp55
 70
     0
102
RTVSPost2010Prop56
140
1.0
102
RTVSPost2010PropOp56
 70
     0
102
RTVSPost2010Prop57
140
1.0
102
RTVSPost2010PropOp57
 70
     0
102
RTVSPropertyOp0
 70
     0
102
RTVSPropertyOp1
 70
     0
102
RTVSPropertyOp2
 70
     0
102
RTVSPropertyOp3
 70
     0
102
RTVSPropertyOp4
 70
     0
102
RTVSPropertyOp5
 70
     0
102
RTVSPropertyOp6
 70
     0
102
RTVSPropertyOp7
 70
     0
102
RTVSPropertyOp8
 70
     0
102
RTVSPropertyOp9
 70
     0
102
RTVSPropertyOp10
 70
     0
102
RTVSPropertyOp11
 70
     0
102
RTVSPropertyOp12
 70
     0
102
RTVSPropertyOp13
 70
     0
102
RTVSPropertyOp14
 70
     2
102
RTVSPropertyOp15
 70
     0
102
RTVSPropertyOp16
 70
     0
102
RTVSPropertyOp17
 70
     0
102
RTVSPropertyOp18
 70
     0
102
RTVSPropertyOp19
 70
     0
102
RTVSPropertyOp20
 70
     0
102
RTVSPropertyOp21
 70
     0
102
RTVSPropertyOp22
 70
     0
102
RTVSPropertyOp23
 70
     0
102
RTVSPropertyOp24
 70
     0
102
RTVSPropertyOp25
 70
     0
102
RTVSPropertyOp26
 70
     0
102
RTVSPropertyOp27
 70
     0
102
RTVSPropertyOp28
 70
     0
102
RTVSPropertyOp29
 70
     0
102
RTVSPropertyOp30
 70
     0
102
RTVSPropertyOp31
 70
     0
102
RTVSPropertyOp32
 70
     0
102
RTVSPropertyOp33
 70
     0
102
RTVSPropertyOp34
 70
     0
102
RTVSPropertyOp35
 70
     0
102
RTVSPropertyOp36
 70
     0
102
RTVSPropertyOp37
 70
     0
102
RTVSPropertyOp38
 70
     0
102
RTVSPropertyOp39
 70
     0
102
RTVSPropertyOp40
 70
     0
102
RTVSPropertyOp41
 70
     0
102
RTVSPropertyOp42
 70
     0
102
RTVSPropertyOp43
 70
     0
102
RTVSPropertyOp44
 70
     0
102
RTVSPropertyOp45
 70
     0
102
RTVSPropertyOp46
 70
     0
102
RTVSPropertyOp47
 70
     0
102
RTVSPropertyOp48
 70
     0
102
RTVSPropertyOp49
 70
     0
102
RTVSPropertyOp50
 70
     0
102
RTVSPropertyOp51
 70
     0
102
RTVSPropertyOp52
 70
     0
102
RTVSPropertyOp53
 70
     0
102
RTVSPropertyOp54
 70
     0
102
RTVSPropertyOp55
 70
     0
102
RTVSPropertyOp56
 70
     0
102
RTVSPropertyOp57
 70
     0
102
RTVSPropertyOp58
 70
     0
102
RTVSPropertyOp59
 70
     0
102
RTVSPropertyOp60
 70
     0
102
RTVSPropertyOp61
 70
     0
102
RTVSPropertyOp62
 70
     0
  0
XRECORD
  5
8784
102
{ACAD_REACTORS
330
8783
102
}
330
8783
100
AcDbXrecord
280
     1
102
RTVSPost2010Prop28
280
     0
102
RTVSPost2010PropOp28
 70
     1
102
RTVSPost2010Prop29
280
     1
102
RTVSPost2010PropOp29
 70
     1
102
RTVSPost2010Prop30
280
     1
102
RTVSPost2010PropOp30
 70
     1
102
RTVSPost2010Prop31
280
     0
102
RTVSPost2010PropOp31
 70
     1
102
RTVSPost2010Prop32
280
     0
102
RTVSPost2010PropOp32
 70
     1
102
RTVSPost2010Prop33
280
     0
102
RTVSPost2010PropOp33
 70
     1
102
RTVSPost2010Prop34
280
     0
102
RTVSPost2010PropOp34
 70
     1
102
RTVSPost2010Prop35
280
     0
102
RTVSPost2010PropOp35
 70
     1
102
RTVSPost2010Prop36
280
     0
102
RTVSPost2010PropOp36
 70
     1
102
RTVSPost2010Prop37
 90
       50
102
RTVSPost2010PropOp37
 70
     1
102
RTVSPost2010Prop38
140
0.0
102
RTVSPost2010PropOp38
 70
     1
102
RTVSPost2010Prop39
140
1.0
102
RTVSPost2010PropOp39
 70
     1
102
RTVSPost2010Prop40
 90
        0
102
RTVSPost2010PropOp40
 70
     1
102
RTVSPost2010Prop41ColorIndex
 90
       18
102
RTVSPost2010Prop41ColorRGB
 90
        0
102
RTVSPost2010PropOp41
 70
     1
102
RTVSPost2010Prop42
 90
       50
102
RTVSPost2010PropOp42
 70
     1
102
RTVSPost2010Prop43
 90
        3
102
RTVSPost2010PropOp43
 70
     1
102
RTVSPost2010Prop44ColorIndex
 90
        5
102
RTVSPost2010Prop44ColorRGB
 90
      255
102
RTVSPost2010PropOp44
 70
     1
102
RTVSPost2010Prop45
280
     0
102
RTVSPost2010PropOp45
 70
     1
102
RTVSPost2010Prop46
 90
       50
102
RTVSPost2010PropOp46
 70
     1
102
RTVSPost2010Prop47
 90
       50
102
RTVSPost2010PropOp47
 70
     1
102
RTVSPost2010Prop48
 90
       50
102
RTVSPost2010PropOp48
 70
     1
102
RTVSPost2010Prop49
280
     0
102
RTVSPost2010PropOp49
 70
     1
102
RTVSPost2010Prop50
 90
       50
102
RTVSPost2010PropOp50
 70
     1
102
RTVSPost2010Prop51ColorIndex
 90
      256
102
RTVSPost2010Prop51ColorRGB
 90
-16777216
102
RTVSPost2010PropOp51
 70
     0
102
RTVSPost2010Prop52
140
1.0
102
RTVSPost2010PropOp52
 70
     0
102
RTVSPost2010Prop53
 90
        2
102
RTVSPost2010PropOp53
 70
     1
102
RTVSPost2010Prop54
  1
strokes_ogs.tif
102
RTVSPost2010PropOp54
 70
     1
102
RTVSPost2010Prop55
280
     0
102
RTVSPost2010PropOp55
 70
     1
102
RTVSPost2010Prop56
140
1.0
102
RTVSPost2010PropOp56
 70
     1
102
RTVSPost2010Prop57
140
1.0
102
RTVSPost2010PropOp57
 70
     1
102
RTVSPropertyOp0
 70
     1
102
RTVSPropertyOp1
 70
     1
102
RTVSPropertyOp2
 70
     1
102
RTVSPropertyOp3
 70
     1
102
RTVSPropertyOp4
 70
     1
102
RTVSPropertyOp5
 70
     1
102
RTVSPropertyOp6
 70
     1
102
RTVSPropertyOp7
 70
     1
102
RTVSPropertyOp8
 70
     1
102
RTVSPropertyOp9
 70
     1
102
RTVSPropertyOp10
 70
     1
102
RTVSPropertyOp11
 70
     1
102
RTVSPropertyOp12
 70
     1
102
RTVSPropertyOp13
 70
     1
102
RTVSPropertyOp14
 70
     1
102
RTVSPropertyOp15
 70
     1
102
RTVSPropertyOp16
 70
     1
102
RTVSPropertyOp17
 70
     1
102
RTVSPropertyOp18
 70
     1
102
RTVSPropertyOp19
 70
     1
102
RTVSPropertyOp20
 70
     1
102
RTVSPropertyOp21
 70
     1
102
RTVSPropertyOp22
 70
     1
102
RTVSPropertyOp23
 70
     1
102
RTVSPropertyOp24
 70
     1
102
RTVSPropertyOp25
 70
     1
102
RTVSPropertyOp26
 70
     1
102
RTVSPropertyOp27
 70
     1
102
RTVSPropertyOp28
 70
     1
102
RTVSPropertyOp29
 70
     1
102
RTVSPropertyOp30
 70
     1
102
RTVSPropertyOp31
 70
     1
102
RTVSPropertyOp32
 70
     1
102
RTVSPropertyOp33
 70
     1
102
RTVSPropertyOp34
 70
     1
102
RTVSPropertyOp35
 70
     1
102
RTVSPropertyOp36
 70
     1
102
RTVSPropertyOp37
 70
     1
102
RTVSPropertyOp38
 70
     1
102
RTVSPropertyOp39
 70
     1
102
RTVSPropertyOp40
 70
     1
102
RTVSPropertyOp41
 70
     1
102
RTVSPropertyOp42
 70
     1
102
RTVSPropertyOp43
 70
     1
102
RTVSPropertyOp44
 70
     1
102
RTVSPropertyOp45
 70
     1
102
RTVSPropertyOp46
 70
     1
102
RTVSPropertyOp47
 70
     1
102
RTVSPropertyOp48
 70
     1
102
RTVSPropertyOp49
 70
     1
102
RTVSPropertyOp50
 70
     1
102
RTVSPropertyOp51
 70
     0
102
RTVSPropertyOp52
 70
     0
102
RTVSPropertyOp53
 70
     1
102
RTVSPropertyOp54
 70
     1
102
RTVSPropertyOp55
 70
     1
102
RTVSPropertyOp56
 70
     1
102
RTVSPropertyOp57
 70
     1
102
RTVSPropertyOp58
 70
     1
102
RTVSPropertyOp59
 70
     1
102
RTVSPropertyOp60
 70
     1
102
RTVSPropertyOp61
 70
     1
102
RTVSPropertyOp62
 70
     1
  0
XRECORD
  5
8796
102
{ACAD_REACTORS
330
8795
102
}
330
8795
100
AcDbXrecord
280
     1
102
RTVSPost2010Prop28
280
     0
102
RTVSPost2010PropOp28
 70
     0
102
RTVSPost2010Prop29
280
     1
102
RTVSPost2010PropOp29
 70
     0
102
RTVSPost2010Prop30
280
     1
102
RTVSPost2010PropOp30
 70
     0
102
RTVSPost2010Prop31
280
     0
102
RTVSPost2010PropOp31
 70
     0
102
RTVSPost2010Prop32
280
     0
102
RTVSPost2010PropOp32
 70
     0
102
RTVSPost2010Prop33
280
     0
102
RTVSPost2010PropOp33
 70
     0
102
RTVSPost2010Prop34
280
     0
102
RTVSPost2010PropOp34
 70
     0
102
RTVSPost2010Prop35
280
     0
102
RTVSPost2010PropOp35
 70
     0
102
RTVSPost2010Prop36
280
     0
102
RTVSPost2010PropOp36
 70
     0
102
RTVSPost2010Prop37
 90
       50
102
RTVSPost2010PropOp37
 70
     0
102
RTVSPost2010Prop38
140
0.0
102
RTVSPost2010PropOp38
 70
     0
102
RTVSPost2010Prop39
140
1.0
102
RTVSPost2010PropOp39
 70
     0
102
RTVSPost2010Prop40
 90
        0
102
RTVSPost2010PropOp40
 70
     0
102
RTVSPost2010Prop41ColorIndex
 90
       18
102
RTVSPost2010Prop41ColorRGB
 90
        0
102
RTVSPost2010PropOp41
 70
     0
102
RTVSPost2010Prop42
 90
       50
102
RTVSPost2010PropOp42
 70
     0
102
RTVSPost2010Prop43
 90
        3
102
RTVSPost2010PropOp43
 70
     0
102
RTVSPost2010Prop44ColorIndex
 90
        5
102
RTVSPost2010Prop44ColorRGB
 90
      255
102
RTVSPost2010PropOp44
 70
     0
102
RTVSPost2010Prop45
280
     0
102
RTVSPost2010PropOp45
 70
     0
102
RTVSPost2010Prop46
 90
       50
102
RTVSPost2010PropOp46
 70
     0
102
RTVSPost2010Prop47
 90
       50
102
RTVSPost2010PropOp47
 70
     0
102
RTVSPost2010Prop48
 90
       50
102
RTVSPost2010PropOp48
 70
     0
102
RTVSPost2010Prop49
280
     0
102
RTVSPost2010PropOp49
 70
     0
102
RTVSPost2010Prop50
 90
       50
102
RTVSPost2010PropOp50
 70
     0
102
RTVSPost2010Prop51ColorIndex
 90
      256
102
RTVSPost2010Prop51ColorRGB
 90
-16777216
102
RTVSPost2010PropOp51
 70
     0
102
RTVSPost2010Prop52
140
1.0
102
RTVSPost2010PropOp52
 70
     0
102
RTVSPost2010Prop53
 90
        2
102
RTVSPost2010PropOp53
 70
     0
102
RTVSPost2010Prop54
  1
strokes_ogs.tif
102
RTVSPost2010PropOp54
 70
     0
102
RTVSPost2010Prop55
280
     0
102
RTVSPost2010PropOp55
 70
     0
102
RTVSPost2010Prop56
140
1.0
102
RTVSPost2010PropOp56
 70
     0
102
RTVSPost2010Prop57
140
1.0
102
RTVSPost2010PropOp57
 70
     0
102
RTVSPropertyOp0
 70
     0
102
RTVSPropertyOp1
 70
     0
102
RTVSPropertyOp2
 70
     0
102
RTVSPropertyOp3
 70
     0
102
RTVSPropertyOp4
 70
     0
102
RTVSPropertyOp5
 70
     0
102
RTVSPropertyOp6
 70
     0
102
RTVSPropertyOp7
 70
     0
102
RTVSPropertyOp8
 70
     0
102
RTVSPropertyOp9
 70
     0
102
RTVSPropertyOp10
 70
     0
102
RTVSPropertyOp11
 70
     0
102
RTVSPropertyOp12
 70
     0
102
RTVSPropertyOp13
 70
     0
102
RTVSPropertyOp14
 70
     2
102
RTVSPropertyOp15
 70
     0
102
RTVSPropertyOp16
 70
     0
102
RTVSPropertyOp17
 70
     0
102
RTVSPropertyOp18
 70
     0
102
RTVSPropertyOp19
 70
     0
102
RTVSPropertyOp20
 70
     0
102
RTVSPropertyOp21
 70
     0
102
RTVSPropertyOp22
 70
     0
102
RTVSPropertyOp23
 70
     0
102
RTVSPropertyOp24
 70
     0
102
RTVSPropertyOp25
 70
     0
102
RTVSPropertyOp26
 70
     0
102
RTVSPropertyOp27
 70
     0
102
RTVSPropertyOp28
 70
     0
102
RTVSPropertyOp29
 70
     0
102
RTVSPropertyOp30
 70
     0
102
RTVSPropertyOp31
 70
     0
102
RTVSPropertyOp32
 70
     0
102
RTVSPropertyOp33
 70
     0
102
RTVSPropertyOp34
 70
     0
102
RTVSPropertyOp35
 70
     0
102
RTVSPropertyOp36
 70
     0
102
RTVSPropertyOp37
 70
     0
102
RTVSPropertyOp38
 70
     0
102
RTVSPropertyOp39
 70
     0
102
RTVSPropertyOp40
 70
     0
102
RTVSPropertyOp41
 70
     0
102
RTVSPropertyOp42
 70
     0
102
RTVSPropertyOp43
 70
     0
102
RTVSPropertyOp44
 70
     0
102
RTVSPropertyOp45
 70
     0
102
RTVSPropertyOp46
 70
     0
102
RTVSPropertyOp47
 70
     0
102
RTVSPropertyOp48
 70
     0
102
RTVSPropertyOp49
 70
     0
102
RTVSPropertyOp50
 70
     0
102
RTVSPropertyOp51
 70
     0
102
RTVSPropertyOp52
 70
     0
102
RTVSPropertyOp53
 70
     0
102
RTVSPropertyOp54
 70
     0
102
RTVSPropertyOp55
 70
     0
102
RTVSPropertyOp56
 70
     0
102
RTVSPropertyOp57
 70
     0
102
RTVSPropertyOp58
 70
     0
102
RTVSPropertyOp59
 70
     0
102
RTVSPropertyOp60
 70
     0
102
RTVSPropertyOp61
 70
     0
102
RTVSPropertyOp62
 70
     0
  0
XRECORD
  5
877C
102
{ACAD_REACTORS
330
877B
102
}
330
877B
100
AcDbXrecord
280
     1
102
RTVSPost2010Prop28
280
     0
102
RTVSPost2010PropOp28
 70
     1
102
RTVSPost2010Prop29
280
     1
102
RTVSPost2010PropOp29
 70
     1
102
RTVSPost2010Prop30
280
     1
102
RTVSPost2010PropOp30
 70
     1
102
RTVSPost2010Prop31
280
     0
102
RTVSPost2010PropOp31
 70
     1
102
RTVSPost2010Prop32
280
     0
102
RTVSPost2010PropOp32
 70
     1
102
RTVSPost2010Prop33
280
     0
102
RTVSPost2010PropOp33
 70
     1
102
RTVSPost2010Prop34
280
     0
102
RTVSPost2010PropOp34
 70
     1
102
RTVSPost2010Prop35
280
     0
102
RTVSPost2010PropOp35
 70
     1
102
RTVSPost2010Prop36
280
     0
102
RTVSPost2010PropOp36
 70
     1
102
RTVSPost2010Prop37
 90
       50
102
RTVSPost2010PropOp37
 70
     1
102
RTVSPost2010Prop38
140
0.0
102
RTVSPost2010PropOp38
 70
     1
102
RTVSPost2010Prop39
140
1.0
102
RTVSPost2010PropOp39
 70
     1
102
RTVSPost2010Prop40
 90
        0
102
RTVSPost2010PropOp40
 70
     1
102
RTVSPost2010Prop41ColorIndex
 90
       18
102
RTVSPost2010Prop41ColorRGB
 90
        0
102
RTVSPost2010PropOp41
 70
     1
102
RTVSPost2010Prop42
 90
       50
102
RTVSPost2010PropOp42
 70
     1
102
RTVSPost2010Prop43
 90
        3
102
RTVSPost2010PropOp43
 70
     1
102
RTVSPost2010Prop44ColorIndex
 90
        5
102
RTVSPost2010Prop44ColorRGB
 90
      255
102
RTVSPost2010PropOp44
 70
     1
102
RTVSPost2010Prop45
280
     0
102
RTVSPost2010PropOp45
 70
     1
102
RTVSPost2010Prop46
 90
       50
102
RTVSPost2010PropOp46
 70
     1
102
RTVSPost2010Prop47
 90
       50
102
RTVSPost2010PropOp47
 70
     1
102
RTVSPost2010Prop48
 90
       50
102
RTVSPost2010PropOp48
 70
     1
102
RTVSPost2010Prop49
280
     0
102
RTVSPost2010PropOp49
 70
     1
102
RTVSPost2010Prop50
 90
       50
102
RTVSPost2010PropOp50
 70
     1
102
RTVSPost2010Prop51ColorIndex
 90
      256
102
RTVSPost2010Prop51ColorRGB
 90
-16777216
102
RTVSPost2010PropOp51
 70
     0
102
RTVSPost2010Prop52
140
1.0
102
RTVSPost2010PropOp52
 70
     0
102
RTVSPost2010Prop53
 90
        2
102
RTVSPost2010PropOp53
 70
     1
102
RTVSPost2010Prop54
  1
strokes_ogs.tif
102
RTVSPost2010PropOp54
 70
     1
102
RTVSPost2010Prop55
280
     0
102
RTVSPost2010PropOp55
 70
     1
102
RTVSPost2010Prop56
140
1.0
102
RTVSPost2010PropOp56
 70
     1
102
RTVSPost2010Prop57
140
1.0
102
RTVSPost2010PropOp57
 70
     1
102
RTVSPropertyOp0
 70
     1
102
RTVSPropertyOp1
 70
     1
102
RTVSPropertyOp2
 70
     1
102
RTVSPropertyOp3
 70
     1
102
RTVSPropertyOp4
 70
     1
102
RTVSPropertyOp5
 70
     1
102
RTVSPropertyOp6
 70
     1
102
RTVSPropertyOp7
 70
     1
102
RTVSPropertyOp8
 70
     1
102
RTVSPropertyOp9
 70
     1
102
RTVSPropertyOp10
 70
     1
102
RTVSPropertyOp11
 70
     1
102
RTVSPropertyOp12
 70
     1
102
RTVSPropertyOp13
 70
     1
102
RTVSPropertyOp14
 70
     1
102
RTVSPropertyOp15
 70
     1
102
RTVSPropertyOp16
 70
     1
102
RTVSPropertyOp17
 70
     1
102
RTVSPropertyOp18
 70
     1
102
RTVSPropertyOp19
 70
     1
102
RTVSPropertyOp20
 70
     1
102
RTVSPropertyOp21
 70
     1
102
RTVSPropertyOp22
 70
     1
102
RTVSPropertyOp23
 70
     1
102
RTVSPropertyOp24
 70
     1
102
RTVSPropertyOp25
 70
     1
102
RTVSPropertyOp26
 70
     1
102
RTVSPropertyOp27
 70
     1
102
RTVSPropertyOp28
 70
     1
102
RTVSPropertyOp29
 70
     1
102
RTVSPropertyOp30
 70
     1
102
RTVSPropertyOp31
 70
     1
102
RTVSPropertyOp32
 70
     1
102
RTVSPropertyOp33
 70
     1
102
RTVSPropertyOp34
 70
     1
102
RTVSPropertyOp35
 70
     1
102
RTVSPropertyOp36
 70
     1
102
RTVSPropertyOp37
 70
     1
102
RTVSPropertyOp38
 70
     1
102
RTVSPropertyOp39
 70
     1
102
RTVSPropertyOp40
 70
     1
102
RTVSPropertyOp41
 70
     1
102
RTVSPropertyOp42
 70
     1
102
RTVSPropertyOp43
 70
     1
102
RTVSPropertyOp44
 70
     1
102
RTVSPropertyOp45
 70
     1
102
RTVSPropertyOp46
 70
     1
102
RTVSPropertyOp47
 70
     1
102
RTVSPropertyOp48
 70
     1
102
RTVSPropertyOp49
 70
     1
102
RTVSPropertyOp50
 70
     1
102
RTVSPropertyOp51
 70
     0
102
RTVSPropertyOp52
 70
     0
102
RTVSPropertyOp53
 70
     1
102
RTVSPropertyOp54
 70
     1
102
RTVSPropertyOp55
 70
     1
102
RTVSPropertyOp56
 70
     1
102
RTVSPropertyOp57
 70
     1
102
RTVSPropertyOp58
 70
     1
102
RTVSPropertyOp59
 70
     1
102
RTVSPropertyOp60
 70
     1
102
RTVSPropertyOp61
 70
     1
102
RTVSPropertyOp62
 70
     1
  0
XRECORD
  5
8792
102
{ACAD_REACTORS
330
8791
102
}
330
8791
100
AcDbXrecord
280
     1
102
RTVSPost2010Prop28
280
     0
102
RTVSPost2010PropOp28
 70
     1
102
RTVSPost2010Prop29
280
     1
102
RTVSPost2010PropOp29
 70
     1
102
RTVSPost2010Prop30
280
     1
102
RTVSPost2010PropOp30
 70
     1
102
RTVSPost2010Prop31
280
     0
102
RTVSPost2010PropOp31
 70
     1
102
RTVSPost2010Prop32
280
     0
102
RTVSPost2010PropOp32
 70
     1
102
RTVSPost2010Prop33
280
     0
102
RTVSPost2010PropOp33
 70
     1
102
RTVSPost2010Prop34
280
     0
102
RTVSPost2010PropOp34
 70
     1
102
RTVSPost2010Prop35
280
     0
102
RTVSPost2010PropOp35
 70
     1
102
RTVSPost2010Prop36
280
     0
102
RTVSPost2010PropOp36
 70
     1
102
RTVSPost2010Prop37
 90
       50
102
RTVSPost2010PropOp37
 70
     1
102
RTVSPost2010Prop38
140
0.0
102
RTVSPost2010PropOp38
 70
     1
102
RTVSPost2010Prop39
140
1.0
102
RTVSPost2010PropOp39
 70
     1
102
RTVSPost2010Prop40
 90
        0
102
RTVSPost2010PropOp40
 70
     1
102
RTVSPost2010Prop41ColorIndex
 90
       18
102
RTVSPost2010Prop41ColorRGB
 90
        0
102
RTVSPost2010PropOp41
 70
     1
102
RTVSPost2010Prop42
 90
       50
102
RTVSPost2010PropOp42
 70
     1
102
RTVSPost2010Prop43
 90
        3
102
RTVSPost2010PropOp43
 70
     1
102
RTVSPost2010Prop44ColorIndex
 90
        5
102
RTVSPost2010Prop44ColorRGB
 90
      255
102
RTVSPost2010PropOp44
 70
     1
102
RTVSPost2010Prop45
280
     0
102
RTVSPost2010PropOp45
 70
     1
102
RTVSPost2010Prop46
 90
       50
102
RTVSPost2010PropOp46
 70
     1
102
RTVSPost2010Prop47
 90
       50
102
RTVSPost2010PropOp47
 70
     1
102
RTVSPost2010Prop48
 90
       50
102
RTVSPost2010PropOp48
 70
     1
102
RTVSPost2010Prop49
280
     0
102
RTVSPost2010PropOp49
 70
     1
102
RTVSPost2010Prop50
 90
       50
102
RTVSPost2010PropOp50
 70
     1
102
RTVSPost2010Prop51ColorIndex
 90
      256
102
RTVSPost2010Prop51ColorRGB
 90
-16777216
102
RTVSPost2010PropOp51
 70
     0
102
RTVSPost2010Prop52
140
1.0
102
RTVSPost2010PropOp52
 70
     0
102
RTVSPost2010Prop53
 90
        2
102
RTVSPost2010PropOp53
 70
     1
102
RTVSPost2010Prop54
  1
strokes_ogs.tif
102
RTVSPost2010PropOp54
 70
     1
102
RTVSPost2010Prop55
280
     0
102
RTVSPost2010PropOp55
 70
     1
102
RTVSPost2010Prop56
140
1.0
102
RTVSPost2010PropOp56
 70
     1
102
RTVSPost2010Prop57
140
1.0
102
RTVSPost2010PropOp57
 70
     1
102
RTVSPropertyOp0
 70
     1
102
RTVSPropertyOp1
 70
     1
102
RTVSPropertyOp2
 70
     1
102
RTVSPropertyOp3
 70
     1
102
RTVSPropertyOp4
 70
     1
102
RTVSPropertyOp5
 70
     1
102
RTVSPropertyOp6
 70
     1
102
RTVSPropertyOp7
 70
     1
102
RTVSPropertyOp8
 70
     1
102
RTVSPropertyOp9
 70
     1
102
RTVSPropertyOp10
 70
     1
102
RTVSPropertyOp11
 70
     1
102
RTVSPropertyOp12
 70
     1
102
RTVSPropertyOp13
 70
     1
102
RTVSPropertyOp14
 70
     1
102
RTVSPropertyOp15
 70
     1
102
RTVSPropertyOp16
 70
     1
102
RTVSPropertyOp17
 70
     1
102
RTVSPropertyOp18
 70
     1
102
RTVSPropertyOp19
 70
     1
102
RTVSPropertyOp20
 70
     1
102
RTVSPropertyOp21
 70
     1
102
RTVSPropertyOp22
 70
     1
102
RTVSPropertyOp23
 70
     1
102
RTVSPropertyOp24
 70
     1
102
RTVSPropertyOp25
 70
     1
102
RTVSPropertyOp26
 70
     1
102
RTVSPropertyOp27
 70
     1
102
RTVSPropertyOp28
 70
     1
102
RTVSPropertyOp29
 70
     1
102
RTVSPropertyOp30
 70
     1
102
RTVSPropertyOp31
 70
     1
102
RTVSPropertyOp32
 70
     1
102
RTVSPropertyOp33
 70
     1
102
RTVSPropertyOp34
 70
     1
102
RTVSPropertyOp35
 70
     1
102
RTVSPropertyOp36
 70
     1
102
RTVSPropertyOp37
 70
     1
102
RTVSPropertyOp38
 70
     1
102
RTVSPropertyOp39
 70
     1
102
RTVSPropertyOp40
 70
     1
102
RTVSPropertyOp41
 70
     1
102
RTVSPropertyOp42
 70
     1
102
RTVSPropertyOp43
 70
     1
102
RTVSPropertyOp44
 70
     1
102
RTVSPropertyOp45
 70
     1
102
RTVSPropertyOp46
 70
     1
102
RTVSPropertyOp47
 70
     1
102
RTVSPropertyOp48
 70
     1
102
RTVSPropertyOp49
 70
     1
102
RTVSPropertyOp50
 70
     1
102
RTVSPropertyOp51
 70
     0
102
RTVSPropertyOp52
 70
     0
102
RTVSPropertyOp53
 70
     1
102
RTVSPropertyOp54
 70
     1
102
RTVSPropertyOp55
 70
     1
102
RTVSPropertyOp56
 70
     1
102
RTVSPropertyOp57
 70
     1
102
RTVSPropertyOp58
 70
     1
102
RTVSPropertyOp59
 70
     1
102
RTVSPropertyOp60
 70
     1
102
RTVSPropertyOp61
 70
     1
102
RTVSPropertyOp62
 70
     1
  0
XRECORD
  5
8790
102
{ACAD_REACTORS
330
878F
102
}
330
878F
100
AcDbXrecord
280
     1
102
RTVSPost2010Prop28
280
     0
102
RTVSPost2010PropOp28
 70
     1
102
RTVSPost2010Prop29
280
     1
102
RTVSPost2010PropOp29
 70
     1
102
RTVSPost2010Prop30
280
     1
102
RTVSPost2010PropOp30
 70
     1
102
RTVSPost2010Prop31
280
     0
102
RTVSPost2010PropOp31
 70
     1
102
RTVSPost2010Prop32
280
     0
102
RTVSPost2010PropOp32
 70
     1
102
RTVSPost2010Prop33
280
     0
102
RTVSPost2010PropOp33
 70
     1
102
RTVSPost2010Prop34
280
     0
102
RTVSPost2010PropOp34
 70
     1
102
RTVSPost2010Prop35
280
     0
102
RTVSPost2010PropOp35
 70
     1
102
RTVSPost2010Prop36
280
     0
102
RTVSPost2010PropOp36
 70
     1
102
RTVSPost2010Prop37
 90
       50
102
RTVSPost2010PropOp37
 70
     1
102
RTVSPost2010Prop38
140
0.0
102
RTVSPost2010PropOp38
 70
     1
102
RTVSPost2010Prop39
140
1.0
102
RTVSPost2010PropOp39
 70
     1
102
RTVSPost2010Prop40
 90
        0
102
RTVSPost2010PropOp40
 70
     1
102
RTVSPost2010Prop41ColorIndex
 90
       18
102
RTVSPost2010Prop41ColorRGB
 90
        0
102
RTVSPost2010PropOp41
 70
     1
102
RTVSPost2010Prop42
 90
       50
102
RTVSPost2010PropOp42
 70
     1
102
RTVSPost2010Prop43
 90
        3
102
RTVSPost2010PropOp43
 70
     1
102
RTVSPost2010Prop44ColorIndex
 90
        5
102
RTVSPost2010Prop44ColorRGB
 90
      255
102
RTVSPost2010PropOp44
 70
     1
102
RTVSPost2010Prop45
280
     0
102
RTVSPost2010PropOp45
 70
     1
102
RTVSPost2010Prop46
 90
       50
102
RTVSPost2010PropOp46
 70
     1
102
RTVSPost2010Prop47
 90
       50
102
RTVSPost2010PropOp47
 70
     1
102
RTVSPost2010Prop48
 90
       50
102
RTVSPost2010PropOp48
 70
     1
102
RTVSPost2010Prop49
280
     0
102
RTVSPost2010PropOp49
 70
     1
102
RTVSPost2010Prop50
 90
       50
102
RTVSPost2010PropOp50
 70
     1
102
RTVSPost2010Prop51ColorIndex
 90
      256
102
RTVSPost2010Prop51ColorRGB
 90
-16777216
102
RTVSPost2010PropOp51
 70
     0
102
RTVSPost2010Prop52
140
1.0
102
RTVSPost2010PropOp52
 70
     0
102
RTVSPost2010Prop53
 90
        2
102
RTVSPost2010PropOp53
 70
     1
102
RTVSPost2010Prop54
  1
strokes_ogs.tif
102
RTVSPost2010PropOp54
 70
     1
102
RTVSPost2010Prop55
280
     0
102
RTVSPost2010PropOp55
 70
     1
102
RTVSPost2010Prop56
140
1.0
102
RTVSPost2010PropOp56
 70
     1
102
RTVSPost2010Prop57
140
1.0
102
RTVSPost2010PropOp57
 70
     1
102
RTVSPropertyOp0
 70
     1
102
RTVSPropertyOp1
 70
     1
102
RTVSPropertyOp2
 70
     1
102
RTVSPropertyOp3
 70
     1
102
RTVSPropertyOp4
 70
     1
102
RTVSPropertyOp5
 70
     1
102
RTVSPropertyOp6
 70
     1
102
RTVSPropertyOp7
 70
     1
102
RTVSPropertyOp8
 70
     1
102
RTVSPropertyOp9
 70
     1
102
RTVSPropertyOp10
 70
     1
102
RTVSPropertyOp11
 70
     1
102
RTVSPropertyOp12
 70
     1
102
RTVSPropertyOp13
 70
     1
102
RTVSPropertyOp14
 70
     1
102
RTVSPropertyOp15
 70
     1
102
RTVSPropertyOp16
 70
     1
102
RTVSPropertyOp17
 70
     1
102
RTVSPropertyOp18
 70
     1
102
RTVSPropertyOp19
 70
     1
102
RTVSPropertyOp20
 70
     1
102
RTVSPropertyOp21
 70
     1
102
RTVSPropertyOp22
 70
     1
102
RTVSPropertyOp23
 70
     1
102
RTVSPropertyOp24
 70
     1
102
RTVSPropertyOp25
 70
     1
102
RTVSPropertyOp26
 70
     1
102
RTVSPropertyOp27
 70
     1
102
RTVSPropertyOp28
 70
     1
102
RTVSPropertyOp29
 70
     1
102
RTVSPropertyOp30
 70
     1
102
RTVSPropertyOp31
 70
     1
102
RTVSPropertyOp32
 70
     1
102
RTVSPropertyOp33
 70
     1
102
RTVSPropertyOp34
 70
     1
102
RTVSPropertyOp35
 70
     1
102
RTVSPropertyOp36
 70
     1
102
RTVSPropertyOp37
 70
     1
102
RTVSPropertyOp38
 70
     1
102
RTVSPropertyOp39
 70
     1
102
RTVSPropertyOp40
 70
     1
102
RTVSPropertyOp41
 70
     1
102
RTVSPropertyOp42
 70
     1
102
RTVSPropertyOp43
 70
     1
102
RTVSPropertyOp44
 70
     1
102
RTVSPropertyOp45
 70
     1
102
RTVSPropertyOp46
 70
     1
102
RTVSPropertyOp47
 70
     1
102
RTVSPropertyOp48
 70
     1
102
RTVSPropertyOp49
 70
     1
102
RTVSPropertyOp50
 70
     1
102
RTVSPropertyOp51
 70
     0
102
RTVSPropertyOp52
 70
     0
102
RTVSPropertyOp53
 70
     1
102
RTVSPropertyOp54
 70
     1
102
RTVSPropertyOp55
 70
     1
102
RTVSPropertyOp56
 70
     1
102
RTVSPropertyOp57
 70
     1
102
RTVSPropertyOp58
 70
     1
102
RTVSPropertyOp59
 70
     1
102
RTVSPropertyOp60
 70
     1
102
RTVSPropertyOp61
 70
     1
102
RTVSPropertyOp62
 70
     1
  0
XRECORD
  5
878A
102
{ACAD_REACTORS
330
8789
102
}
330
8789
100
AcDbXrecord
280
     1
102
RTVSPost2010Prop28
280
     0
102
RTVSPost2010PropOp28
 70
     1
102
RTVSPost2010Prop29
280
     1
102
RTVSPost2010PropOp29
 70
     1
102
RTVSPost2010Prop30
280
     1
102
RTVSPost2010PropOp30
 70
     1
102
RTVSPost2010Prop31
280
     0
102
RTVSPost2010PropOp31
 70
     1
102
RTVSPost2010Prop32
280
     0
102
RTVSPost2010PropOp32
 70
     1
102
RTVSPost2010Prop33
280
     0
102
RTVSPost2010PropOp33
 70
     1
102
RTVSPost2010Prop34
280
     0
102
RTVSPost2010PropOp34
 70
     1
102
RTVSPost2010Prop35
280
     0
102
RTVSPost2010PropOp35
 70
     1
102
RTVSPost2010Prop36
280
     0
102
RTVSPost2010PropOp36
 70
     1
102
RTVSPost2010Prop37
 90
       50
102
RTVSPost2010PropOp37
 70
     1
102
RTVSPost2010Prop38
140
0.0
102
RTVSPost2010PropOp38
 70
     1
102
RTVSPost2010Prop39
140
1.0
102
RTVSPost2010PropOp39
 70
     1
102
RTVSPost2010Prop40
 90
        0
102
RTVSPost2010PropOp40
 70
     1
102
RTVSPost2010Prop41ColorIndex
 90
       18
102
RTVSPost2010Prop41ColorRGB
 90
        0
102
RTVSPost2010PropOp41
 70
     1
102
RTVSPost2010Prop42
 90
       50
102
RTVSPost2010PropOp42
 70
     1
102
RTVSPost2010Prop43
 90
        3
102
RTVSPost2010PropOp43
 70
     1
102
RTVSPost2010Prop44ColorIndex
 90
        5
102
RTVSPost2010Prop44ColorRGB
 90
      255
102
RTVSPost2010PropOp44
 70
     1
102
RTVSPost2010Prop45
280
     0
102
RTVSPost2010PropOp45
 70
     1
102
RTVSPost2010Prop46
 90
       50
102
RTVSPost2010PropOp46
 70
     1
102
RTVSPost2010Prop47
 90
       50
102
RTVSPost2010PropOp47
 70
     1
102
RTVSPost2010Prop48
 90
       50
102
RTVSPost2010PropOp48
 70
     1
102
RTVSPost2010Prop49
280
     0
102
RTVSPost2010PropOp49
 70
     1
102
RTVSPost2010Prop50
 90
       50
102
RTVSPost2010PropOp50
 70
     1
102
RTVSPost2010Prop51ColorIndex
 90
      256
102
RTVSPost2010Prop51ColorRGB
 90
-16777216
102
RTVSPost2010PropOp51
 70
     0
102
RTVSPost2010Prop52
140
1.0
102
RTVSPost2010PropOp52
 70
     0
102
RTVSPost2010Prop53
 90
        2
102
RTVSPost2010PropOp53
 70
     1
102
RTVSPost2010Prop54
  1
strokes_ogs.tif
102
RTVSPost2010PropOp54
 70
     1
102
RTVSPost2010Prop55
280
     0
102
RTVSPost2010PropOp55
 70
     1
102
RTVSPost2010Prop56
140
1.0
102
RTVSPost2010PropOp56
 70
     1
102
RTVSPost2010Prop57
140
1.0
102
RTVSPost2010PropOp57
 70
     1
102
RTVSPropertyOp0
 70
     1
102
RTVSPropertyOp1
 70
     1
102
RTVSPropertyOp2
 70
     1
102
RTVSPropertyOp3
 70
     1
102
RTVSPropertyOp4
 70
     1
102
RTVSPropertyOp5
 70
     1
102
RTVSPropertyOp6
 70
     1
102
RTVSPropertyOp7
 70
     1
102
RTVSPropertyOp8
 70
     1
102
RTVSPropertyOp9
 70
     1
102
RTVSPropertyOp10
 70
     1
102
RTVSPropertyOp11
 70
     1
102
RTVSPropertyOp12
 70
     1
102
RTVSPropertyOp13
 70
     1
102
RTVSPropertyOp14
 70
     1
102
RTVSPropertyOp15
 70
     1
102
RTVSPropertyOp16
 70
     1
102
RTVSPropertyOp17
 70
     1
102
RTVSPropertyOp18
 70
     1
102
RTVSPropertyOp19
 70
     1
102
RTVSPropertyOp20
 70
     1
102
RTVSPropertyOp21
 70
     1
102
RTVSPropertyOp22
 70
     1
102
RTVSPropertyOp23
 70
     1
102
RTVSPropertyOp24
 70
     1
102
RTVSPropertyOp25
 70
     1
102
RTVSPropertyOp26
 70
     1
102
RTVSPropertyOp27
 70
     1
102
RTVSPropertyOp28
 70
     1
102
RTVSPropertyOp29
 70
     1
102
RTVSPropertyOp30
 70
     1
102
RTVSPropertyOp31
 70
     1
102
RTVSPropertyOp32
 70
     1
102
RTVSPropertyOp33
 70
     1
102
RTVSPropertyOp34
 70
     1
102
RTVSPropertyOp35
 70
     1
102
RTVSPropertyOp36
 70
     1
102
RTVSPropertyOp37
 70
     1
102
RTVSPropertyOp38
 70
     1
102
RTVSPropertyOp39
 70
     1
102
RTVSPropertyOp40
 70
     1
102
RTVSPropertyOp41
 70
     1
102
RTVSPropertyOp42
 70
     1
102
RTVSPropertyOp43
 70
     1
102
RTVSPropertyOp44
 70
     1
102
RTVSPropertyOp45
 70
     1
102
RTVSPropertyOp46
 70
     1
102
RTVSPropertyOp47
 70
     1
102
RTVSPropertyOp48
 70
     1
102
RTVSPropertyOp49
 70
     1
102
RTVSPropertyOp50
 70
     1
102
RTVSPropertyOp51
 70
     0
102
RTVSPropertyOp52
 70
     0
102
RTVSPropertyOp53
 70
     1
102
RTVSPropertyOp54
 70
     1
102
RTVSPropertyOp55
 70
     1
102
RTVSPropertyOp56
 70
     1
102
RTVSPropertyOp57
 70
     1
102
RTVSPropertyOp58
 70
     1
102
RTVSPropertyOp59
 70
     1
102
RTVSPropertyOp60
 70
     1
102
RTVSPropertyOp61
 70
     1
102
RTVSPropertyOp62
 70
     1
  0
XRECORD
  5
878C
102
{ACAD_REACTORS
330
878B
102
}
330
878B
100
AcDbXrecord
280
     1
102
RTVSPost2010Prop28
280
     0
102
RTVSPost2010PropOp28
 70
     1
102
RTVSPost2010Prop29
280
     1
102
RTVSPost2010PropOp29
 70
     1
102
RTVSPost2010Prop30
280
     1
102
RTVSPost2010PropOp30
 70
     1
102
RTVSPost2010Prop31
280
     0
102
RTVSPost2010PropOp31
 70
     1
102
RTVSPost2010Prop32
280
     0
102
RTVSPost2010PropOp32
 70
     1
102
RTVSPost2010Prop33
280
     0
102
RTVSPost2010PropOp33
 70
     1
102
RTVSPost2010Prop34
280
     0
102
RTVSPost2010PropOp34
 70
     1
102
RTVSPost2010Prop35
280
     0
102
RTVSPost2010PropOp35
 70
     1
102
RTVSPost2010Prop36
280
     0
102
RTVSPost2010PropOp36
 70
     1
102
RTVSPost2010Prop37
 90
       50
102
RTVSPost2010PropOp37
 70
     1
102
RTVSPost2010Prop38
140
0.0
102
RTVSPost2010PropOp38
 70
     1
102
RTVSPost2010Prop39
140
1.0
102
RTVSPost2010PropOp39
 70
     1
102
RTVSPost2010Prop40
 90
        0
102
RTVSPost2010PropOp40
 70
     1
102
RTVSPost2010Prop41ColorIndex
 90
       18
102
RTVSPost2010Prop41ColorRGB
 90
        0
102
RTVSPost2010PropOp41
 70
     1
102
RTVSPost2010Prop42
 90
       50
102
RTVSPost2010PropOp42
 70
     1
102
RTVSPost2010Prop43
 90
        3
102
RTVSPost2010PropOp43
 70
     1
102
RTVSPost2010Prop44ColorIndex
 90
        5
102
RTVSPost2010Prop44ColorRGB
 90
      255
102
RTVSPost2010PropOp44
 70
     1
102
RTVSPost2010Prop45
280
     0
102
RTVSPost2010PropOp45
 70
     1
102
RTVSPost2010Prop46
 90
       50
102
RTVSPost2010PropOp46
 70
     1
102
RTVSPost2010Prop47
 90
       50
102
RTVSPost2010PropOp47
 70
     1
102
RTVSPost2010Prop48
 90
       50
102
RTVSPost2010PropOp48
 70
     1
102
RTVSPost2010Prop49
280
     0
102
RTVSPost2010PropOp49
 70
     1
102
RTVSPost2010Prop50
 90
       50
102
RTVSPost2010PropOp50
 70
     1
102
RTVSPost2010Prop51ColorIndex
 90
      256
102
RTVSPost2010Prop51ColorRGB
 90
-16777216
102
RTVSPost2010PropOp51
 70
     0
102
RTVSPost2010Prop52
140
1.0
102
RTVSPost2010PropOp52
 70
     0
102
RTVSPost2010Prop53
 90
        2
102
RTVSPost2010PropOp53
 70
     1
102
RTVSPost2010Prop54
  1
strokes_ogs.tif
102
RTVSPost2010PropOp54
 70
     1
102
RTVSPost2010Prop55
280
     0
102
RTVSPost2010PropOp55
 70
     1
102
RTVSPost2010Prop56
140
1.0
102
RTVSPost2010PropOp56
 70
     1
102
RTVSPost2010Prop57
140
1.0
102
RTVSPost2010PropOp57
 70
     1
102
RTVSPropertyOp0
 70
     1
102
RTVSPropertyOp1
 70
     1
102
RTVSPropertyOp2
 70
     1
102
RTVSPropertyOp3
 70
     1
102
RTVSPropertyOp4
 70
     1
102
RTVSPropertyOp5
 70
     1
102
RTVSPropertyOp6
 70
     1
102
RTVSPropertyOp7
 70
     1
102
RTVSPropertyOp8
 70
     1
102
RTVSPropertyOp9
 70
     1
102
RTVSPropertyOp10
 70
     1
102
RTVSPropertyOp11
 70
     1
102
RTVSPropertyOp12
 70
     1
102
RTVSPropertyOp13
 70
     1
102
RTVSPropertyOp14
 70
     1
102
RTVSPropertyOp15
 70
     1
102
RTVSPropertyOp16
 70
     1
102
RTVSPropertyOp17
 70
     1
102
RTVSPropertyOp18
 70
     1
102
RTVSPropertyOp19
 70
     1
102
RTVSPropertyOp20
 70
     1
102
RTVSPropertyOp21
 70
     1
102
RTVSPropertyOp22
 70
     1
102
RTVSPropertyOp23
 70
     1
102
RTVSPropertyOp24
 70
     1
102
RTVSPropertyOp25
 70
     1
102
RTVSPropertyOp26
 70
     1
102
RTVSPropertyOp27
 70
     1
102
RTVSPropertyOp28
 70
     1
102
RTVSPropertyOp29
 70
     1
102
RTVSPropertyOp30
 70
     1
102
RTVSPropertyOp31
 70
     1
102
RTVSPropertyOp32
 70
     1
102
RTVSPropertyOp33
 70
     1
102
RTVSPropertyOp34
 70
     1
102
RTVSPropertyOp35
 70
     1
102
RTVSPropertyOp36
 70
     1
102
RTVSPropertyOp37
 70
     1
102
RTVSPropertyOp38
 70
     1
102
RTVSPropertyOp39
 70
     1
102
RTVSPropertyOp40
 70
     1
102
RTVSPropertyOp41
 70
     1
102
RTVSPropertyOp42
 70
     1
102
RTVSPropertyOp43
 70
     1
102
RTVSPropertyOp44
 70
     1
102
RTVSPropertyOp45
 70
     1
102
RTVSPropertyOp46
 70
     1
102
RTVSPropertyOp47
 70
     1
102
RTVSPropertyOp48
 70
     1
102
RTVSPropertyOp49
 70
     1
102
RTVSPropertyOp50
 70
     1
102
RTVSPropertyOp51
 70
     0
102
RTVSPropertyOp52
 70
     0
102
RTVSPropertyOp53
 70
     1
102
RTVSPropertyOp54
 70
     1
102
RTVSPropertyOp55
 70
     1
102
RTVSPropertyOp56
 70
     1
102
RTVSPropertyOp57
 70
     1
102
RTVSPropertyOp58
 70
     1
102
RTVSPropertyOp59
 70
     1
102
RTVSPropertyOp60
 70
     1
102
RTVSPropertyOp61
 70
     1
102
RTVSPropertyOp62
 70
     1
  0
XRECORD
  5
8782
102
{ACAD_REACTORS
330
8781
102
}
330
8781
100
AcDbXrecord
280
     1
102
RTVSPost2010Prop28
280
     0
102
RTVSPost2010PropOp28
 70
     1
102
RTVSPost2010Prop29
280
     1
102
RTVSPost2010PropOp29
 70
     1
102
RTVSPost2010Prop30
280
     1
102
RTVSPost2010PropOp30
 70
     1
102
RTVSPost2010Prop31
280
     0
102
RTVSPost2010PropOp31
 70
     1
102
RTVSPost2010Prop32
280
     0
102
RTVSPost2010PropOp32
 70
     1
102
RTVSPost2010Prop33
280
     0
102
RTVSPost2010PropOp33
 70
     1
102
RTVSPost2010Prop34
280
     0
102
RTVSPost2010PropOp34
 70
     1
102
RTVSPost2010Prop35
280
     0
102
RTVSPost2010PropOp35
 70
     1
102
RTVSPost2010Prop36
280
     0
102
RTVSPost2010PropOp36
 70
     1
102
RTVSPost2010Prop37
 90
       50
102
RTVSPost2010PropOp37
 70
     1
102
RTVSPost2010Prop38
140
0.0
102
RTVSPost2010PropOp38
 70
     1
102
RTVSPost2010Prop39
140
1.0
102
RTVSPost2010PropOp39
 70
     1
102
RTVSPost2010Prop40
 90
        0
102
RTVSPost2010PropOp40
 70
     1
102
RTVSPost2010Prop41ColorIndex
 90
       18
102
RTVSPost2010Prop41ColorRGB
 90
        0
102
RTVSPost2010PropOp41
 70
     1
102
RTVSPost2010Prop42
 90
       50
102
RTVSPost2010PropOp42
 70
     1
102
RTVSPost2010Prop43
 90
        3
102
RTVSPost2010PropOp43
 70
     1
102
RTVSPost2010Prop44ColorIndex
 90
        5
102
RTVSPost2010Prop44ColorRGB
 90
      255
102
RTVSPost2010PropOp44
 70
     1
102
RTVSPost2010Prop45
280
     0
102
RTVSPost2010PropOp45
 70
     1
102
RTVSPost2010Prop46
 90
       50
102
RTVSPost2010PropOp46
 70
     1
102
RTVSPost2010Prop47
 90
       50
102
RTVSPost2010PropOp47
 70
     1
102
RTVSPost2010Prop48
 90
       50
102
RTVSPost2010PropOp48
 70
     1
102
RTVSPost2010Prop49
280
     0
102
RTVSPost2010PropOp49
 70
     1
102
RTVSPost2010Prop50
 90
       50
102
RTVSPost2010PropOp50
 70
     1
102
RTVSPost2010Prop51ColorIndex
 90
      256
102
RTVSPost2010Prop51ColorRGB
 90
-16777216
102
RTVSPost2010PropOp51
 70
     0
102
RTVSPost2010Prop52
140
1.0
102
RTVSPost2010PropOp52
 70
     0
102
RTVSPost2010Prop53
 90
        2
102
RTVSPost2010PropOp53
 70
     1
102
RTVSPost2010Prop54
  1
strokes_ogs.tif
102
RTVSPost2010PropOp54
 70
     1
102
RTVSPost2010Prop55
280
     0
102
RTVSPost2010PropOp55
 70
     1
102
RTVSPost2010Prop56
140
1.0
102
RTVSPost2010PropOp56
 70
     1
102
RTVSPost2010Prop57
140
1.0
102
RTVSPost2010PropOp57
 70
     1
102
RTVSPropertyOp0
 70
     1
102
RTVSPropertyOp1
 70
     1
102
RTVSPropertyOp2
 70
     1
102
RTVSPropertyOp3
 70
     1
102
RTVSPropertyOp4
 70
     1
102
RTVSPropertyOp5
 70
     1
102
RTVSPropertyOp6
 70
     1
102
RTVSPropertyOp7
 70
     1
102
RTVSPropertyOp8
 70
     1
102
RTVSPropertyOp9
 70
     1
102
RTVSPropertyOp10
 70
     1
102
RTVSPropertyOp11
 70
     1
102
RTVSPropertyOp12
 70
     1
102
RTVSPropertyOp13
 70
     1
102
RTVSPropertyOp14
 70
     1
102
RTVSPropertyOp15
 70
     1
102
RTVSPropertyOp16
 70
     1
102
RTVSPropertyOp17
 70
     1
102
RTVSPropertyOp18
 70
     1
102
RTVSPropertyOp19
 70
     1
102
RTVSPropertyOp20
 70
     1
102
RTVSPropertyOp21
 70
     1
102
RTVSPropertyOp22
 70
     1
102
RTVSPropertyOp23
 70
     1
102
RTVSPropertyOp24
 70
     1
102
RTVSPropertyOp25
 70
     1
102
RTVSPropertyOp26
 70
     1
102
RTVSPropertyOp27
 70
     1
102
RTVSPropertyOp28
 70
     1
102
RTVSPropertyOp29
 70
     1
102
RTVSPropertyOp30
 70
     1
102
RTVSPropertyOp31
 70
     1
102
RTVSPropertyOp32
 70
     1
102
RTVSPropertyOp33
 70
     1
102
RTVSPropertyOp34
 70
     1
102
RTVSPropertyOp35
 70
     1
102
RTVSPropertyOp36
 70
     1
102
RTVSPropertyOp37
 70
     1
102
RTVSPropertyOp38
 70
     1
102
RTVSPropertyOp39
 70
     1
102
RTVSPropertyOp40
 70
     1
102
RTVSPropertyOp41
 70
     1
102
RTVSPropertyOp42
 70
     1
102
RTVSPropertyOp43
 70
     1
102
RTVSPropertyOp44
 70
     1
102
RTVSPropertyOp45
 70
     1
102
RTVSPropertyOp46
 70
     1
102
RTVSPropertyOp47
 70
     1
102
RTVSPropertyOp48
 70
     1
102
RTVSPropertyOp49
 70
     1
102
RTVSPropertyOp50
 70
     1
102
RTVSPropertyOp51
 70
     0
102
RTVSPropertyOp52
 70
     0
102
RTVSPropertyOp53
 70
     1
102
RTVSPropertyOp54
 70
     1
102
RTVSPropertyOp55
 70
     1
102
RTVSPropertyOp56
 70
     1
102
RTVSPropertyOp57
 70
     1
102
RTVSPropertyOp58
 70
     1
102
RTVSPropertyOp59
 70
     1
102
RTVSPropertyOp60
 70
     1
102
RTVSPropertyOp61
 70
     1
102
RTVSPropertyOp62
 70
     1
  0
XRECORD
  5
8776
102
{ACAD_REACTORS
330
8775
102
}
330
8775
100
AcDbXrecord
280
     1
102
RTVSPost2010Prop28
280
     0
102
RTVSPost2010PropOp28
 70
     1
102
RTVSPost2010Prop29
280
     1
102
RTVSPost2010PropOp29
 70
     1
102
RTVSPost2010Prop30
280
     1
102
RTVSPost2010PropOp30
 70
     1
102
RTVSPost2010Prop31
280
     0
102
RTVSPost2010PropOp31
 70
     1
102
RTVSPost2010Prop32
280
     0
102
RTVSPost2010PropOp32
 70
     1
102
RTVSPost2010Prop33
280
     0
102
RTVSPost2010PropOp33
 70
     1
102
RTVSPost2010Prop34
280
     0
102
RTVSPost2010PropOp34
 70
     1
102
RTVSPost2010Prop35
280
     0
102
RTVSPost2010PropOp35
 70
     1
102
RTVSPost2010Prop36
280
     0
102
RTVSPost2010PropOp36
 70
     1
102
RTVSPost2010Prop37
 90
       50
102
RTVSPost2010PropOp37
 70
     1
102
RTVSPost2010Prop38
140
0.0
102
RTVSPost2010PropOp38
 70
     1
102
RTVSPost2010Prop39
140
1.0
102
RTVSPost2010PropOp39
 70
     1
102
RTVSPost2010Prop40
 90
        0
102
RTVSPost2010PropOp40
 70
     1
102
RTVSPost2010Prop41ColorIndex
 90
       18
102
RTVSPost2010Prop41ColorRGB
 90
        0
102
RTVSPost2010PropOp41
 70
     1
102
RTVSPost2010Prop42
 90
       50
102
RTVSPost2010PropOp42
 70
     1
102
RTVSPost2010Prop43
 90
        3
102
RTVSPost2010PropOp43
 70
     1
102
RTVSPost2010Prop44ColorIndex
 90
        5
102
RTVSPost2010Prop44ColorRGB
 90
      255
102
RTVSPost2010PropOp44
 70
     1
102
RTVSPost2010Prop45
280
     0
102
RTVSPost2010PropOp45
 70
     1
102
RTVSPost2010Prop46
 90
       50
102
RTVSPost2010PropOp46
 70
     1
102
RTVSPost2010Prop47
 90
       50
102
RTVSPost2010PropOp47
 70
     1
102
RTVSPost2010Prop48
 90
       50
102
RTVSPost2010PropOp48
 70
     1
102
RTVSPost2010Prop49
280
     0
102
RTVSPost2010PropOp49
 70
     1
102
RTVSPost2010Prop50
 90
       50
102
RTVSPost2010PropOp50
 70
     1
102
RTVSPost2010Prop51ColorIndex
 90
      256
102
RTVSPost2010Prop51ColorRGB
 90
-16777216
102
RTVSPost2010PropOp51
 70
     0
102
RTVSPost2010Prop52
140
1.0
102
RTVSPost2010PropOp52
 70
     0
102
RTVSPost2010Prop53
 90
        2
102
RTVSPost2010PropOp53
 70
     1
102
RTVSPost2010Prop54
  1
strokes_ogs.tif
102
RTVSPost2010PropOp54
 70
     1
102
RTVSPost2010Prop55
280
     0
102
RTVSPost2010PropOp55
 70
     1
102
RTVSPost2010Prop56
140
1.0
102
RTVSPost2010PropOp56
 70
     1
102
RTVSPost2010Prop57
140
1.0
102
RTVSPost2010PropOp57
 70
     1
102
RTVSPropertyOp0
 70
     1
102
RTVSPropertyOp1
 70
     1
102
RTVSPropertyOp2
 70
     1
102
RTVSPropertyOp3
 70
     1
102
RTVSPropertyOp4
 70
     1
102
RTVSPropertyOp5
 70
     1
102
RTVSPropertyOp6
 70
     1
102
RTVSPropertyOp7
 70
     1
102
RTVSPropertyOp8
 70
     1
102
RTVSPropertyOp9
 70
     1
102
RTVSPropertyOp10
 70
     1
102
RTVSPropertyOp11
 70
     1
102
RTVSPropertyOp12
 70
     1
102
RTVSPropertyOp13
 70
     1
102
RTVSPropertyOp14
 70
     1
102
RTVSPropertyOp15
 70
     1
102
RTVSPropertyOp16
 70
     1
102
RTVSPropertyOp17
 70
     1
102
RTVSPropertyOp18
 70
     1
102
RTVSPropertyOp19
 70
     1
102
RTVSPropertyOp20
 70
     1
102
RTVSPropertyOp21
 70
     1
102
RTVSPropertyOp22
 70
     1
102
RTVSPropertyOp23
 70
     1
102
RTVSPropertyOp24
 70
     1
102
RTVSPropertyOp25
 70
     1
102
RTVSPropertyOp26
 70
     1
102
RTVSPropertyOp27
 70
     1
102
RTVSPropertyOp28
 70
     1
102
RTVSPropertyOp29
 70
     1
102
RTVSPropertyOp30
 70
     1
102
RTVSPropertyOp31
 70
     1
102
RTVSPropertyOp32
 70
     1
102
RTVSPropertyOp33
 70
     1
102
RTVSPropertyOp34
 70
     1
102
RTVSPropertyOp35
 70
     1
102
RTVSPropertyOp36
 70
     1
102
RTVSPropertyOp37
 70
     1
102
RTVSPropertyOp38
 70
     1
102
RTVSPropertyOp39
 70
     1
102
RTVSPropertyOp40
 70
     1
102
RTVSPropertyOp41
 70
     1
102
RTVSPropertyOp42
 70
     1
102
RTVSPropertyOp43
 70
     1
102
RTVSPropertyOp44
 70
     1
102
RTVSPropertyOp45
 70
     1
102
RTVSPropertyOp46
 70
     1
102
RTVSPropertyOp47
 70
     1
102
RTVSPropertyOp48
 70
     1
102
RTVSPropertyOp49
 70
     1
102
RTVSPropertyOp50
 70
     1
102
RTVSPropertyOp51
 70
     0
102
RTVSPropertyOp52
 70
     0
102
RTVSPropertyOp53
 70
     1
102
RTVSPropertyOp54
 70
     1
102
RTVSPropertyOp55
 70
     1
102
RTVSPropertyOp56
 70
     1
102
RTVSPropertyOp57
 70
     1
102
RTVSPropertyOp58
 70
     1
102
RTVSPropertyOp59
 70
     1
102
RTVSPropertyOp60
 70
     1
102
RTVSPropertyOp61
 70
     1
102
RTVSPropertyOp62
 70
     1
  0
XRECORD
  5
878E
102
{ACAD_REACTORS
330
878D
102
}
330
878D
100
AcDbXrecord
280
     1
102
RTVSPost2010Prop28
280
     0
102
RTVSPost2010PropOp28
 70
     1
102
RTVSPost2010Prop29
280
     1
102
RTVSPost2010PropOp29
 70
     1
102
RTVSPost2010Prop30
280
     1
102
RTVSPost2010PropOp30
 70
     1
102
RTVSPost2010Prop31
280
     0
102
RTVSPost2010PropOp31
 70
     1
102
RTVSPost2010Prop32
280
     0
102
RTVSPost2010PropOp32
 70
     1
102
RTVSPost2010Prop33
280
     0
102
RTVSPost2010PropOp33
 70
     1
102
RTVSPost2010Prop34
280
     0
102
RTVSPost2010PropOp34
 70
     1
102
RTVSPost2010Prop35
280
     0
102
RTVSPost2010PropOp35
 70
     1
102
RTVSPost2010Prop36
280
     0
102
RTVSPost2010PropOp36
 70
     1
102
RTVSPost2010Prop37
 90
       50
102
RTVSPost2010PropOp37
 70
     1
102
RTVSPost2010Prop38
140
0.0
102
RTVSPost2010PropOp38
 70
     1
102
RTVSPost2010Prop39
140
1.0
102
RTVSPost2010PropOp39
 70
     1
102
RTVSPost2010Prop40
 90
        0
102
RTVSPost2010PropOp40
 70
     1
102
RTVSPost2010Prop41ColorIndex
 90
       18
102
RTVSPost2010Prop41ColorRGB
 90
        0
102
RTVSPost2010PropOp41
 70
     1
102
RTVSPost2010Prop42
 90
       50
102
RTVSPost2010PropOp42
 70
     1
102
RTVSPost2010Prop43
 90
        3
102
RTVSPost2010PropOp43
 70
     1
102
RTVSPost2010Prop44ColorIndex
 90
        5
102
RTVSPost2010Prop44ColorRGB
 90
      255
102
RTVSPost2010PropOp44
 70
     1
102
RTVSPost2010Prop45
280
     0
102
RTVSPost2010PropOp45
 70
     1
102
RTVSPost2010Prop46
 90
       50
102
RTVSPost2010PropOp46
 70
     1
102
RTVSPost2010Prop47
 90
       50
102
RTVSPost2010PropOp47
 70
     1
102
RTVSPost2010Prop48
 90
       50
102
RTVSPost2010PropOp48
 70
     1
102
RTVSPost2010Prop49
280
     0
102
RTVSPost2010PropOp49
 70
     1
102
RTVSPost2010Prop50
 90
       50
102
RTVSPost2010PropOp50
 70
     1
102
RTVSPost2010Prop51ColorIndex
 90
      256
102
RTVSPost2010Prop51ColorRGB
 90
-16777216
102
RTVSPost2010PropOp51
 70
     0
102
RTVSPost2010Prop52
140
1.0
102
RTVSPost2010PropOp52
 70
     0
102
RTVSPost2010Prop53
 90
        2
102
RTVSPost2010PropOp53
 70
     1
102
RTVSPost2010Prop54
  1
strokes_ogs.tif
102
RTVSPost2010PropOp54
 70
     1
102
RTVSPost2010Prop55
280
     0
102
RTVSPost2010PropOp55
 70
     1
102
RTVSPost2010Prop56
140
1.0
102
RTVSPost2010PropOp56
 70
     1
102
RTVSPost2010Prop57
140
1.0
102
RTVSPost2010PropOp57
 70
     1
102
RTVSPropertyOp0
 70
     1
102
RTVSPropertyOp1
 70
     1
102
RTVSPropertyOp2
 70
     1
102
RTVSPropertyOp3
 70
     1
102
RTVSPropertyOp4
 70
     1
102
RTVSPropertyOp5
 70
     1
102
RTVSPropertyOp6
 70
     1
102
RTVSPropertyOp7
 70
     1
102
RTVSPropertyOp8
 70
     1
102
RTVSPropertyOp9
 70
     1
102
RTVSPropertyOp10
 70
     1
102
RTVSPropertyOp11
 70
     1
102
RTVSPropertyOp12
 70
     1
102
RTVSPropertyOp13
 70
     1
102
RTVSPropertyOp14
 70
     1
102
RTVSPropertyOp15
 70
     1
102
RTVSPropertyOp16
 70
     1
102
RTVSPropertyOp17
 70
     1
102
RTVSPropertyOp18
 70
     1
102
RTVSPropertyOp19
 70
     1
102
RTVSPropertyOp20
 70
     1
102
RTVSPropertyOp21
 70
     1
102
RTVSPropertyOp22
 70
     1
102
RTVSPropertyOp23
 70
     1
102
RTVSPropertyOp24
 70
     1
102
RTVSPropertyOp25
 70
     1
102
RTVSPropertyOp26
 70
     1
102
RTVSPropertyOp27
 70
     1
102
RTVSPropertyOp28
 70
     1
102
RTVSPropertyOp29
 70
     1
102
RTVSPropertyOp30
 70
     1
102
RTVSPropertyOp31
 70
     1
102
RTVSPropertyOp32
 70
     1
102
RTVSPropertyOp33
 70
     1
102
RTVSPropertyOp34
 70
     1
102
RTVSPropertyOp35
 70
     1
102
RTVSPropertyOp36
 70
     1
102
RTVSPropertyOp37
 70
     1
102
RTVSPropertyOp38
 70
     1
102
RTVSPropertyOp39
 70
     1
102
RTVSPropertyOp40
 70
     1
102
RTVSPropertyOp41
 70
     1
102
RTVSPropertyOp42
 70
     1
102
RTVSPropertyOp43
 70
     1
102
RTVSPropertyOp44
 70
     1
102
RTVSPropertyOp45
 70
     1
102
RTVSPropertyOp46
 70
     1
102
RTVSPropertyOp47
 70
     1
102
RTVSPropertyOp48
 70
     1
102
RTVSPropertyOp49
 70
     1
102
RTVSPropertyOp50
 70
     1
102
RTVSPropertyOp51
 70
     0
102
RTVSPropertyOp52
 70
     0
102
RTVSPropertyOp53
 70
     1
102
RTVSPropertyOp54
 70
     1
102
RTVSPropertyOp55
 70
     1
102
RTVSPropertyOp56
 70
     1
102
RTVSPropertyOp57
 70
     1
102
RTVSPropertyOp58
 70
     1
102
RTVSPropertyOp59
 70
     1
102
RTVSPropertyOp60
 70
     1
102
RTVSPropertyOp61
 70
     1
102
RTVSPropertyOp62
 70
     1
  0
ENDSEC
  0
EOF
