  0
SECTION
  2
HEADER
  9
$ACADVER
  1
AC1032
  9
$ACADMAINTVER
 90
      228
  9
$DWGCODEPAGE
  3
ANSI_932
  9
$REQUIREDVERSIONS
160
                 0
  9
$INSBASE
 10
0.0
 20
0.0
 30
0.0
  9
$EXTMIN
 10
1.000000000000000E+20
 20
1.000000000000000E+20
 30
1.000000000000000E+20
  9
$EXTMAX
 10
-1.000000000000000E+20
 20
-1.000000000000000E+20
 30
-1.000000000000000E+20
  9
$LIMMIN
 10
0.0
 20
0.0
  9
$LIMMAX
 10
12.0
 20
9.0
  9
$ORTHOMODE
 70
     0
  9
$REGENMODE
 70
     1
  9
$FILLMODE
 70
     1
  9
$QTEXTMODE
 70
     0
  9
$MIRRTEXT
 70
     0
  9
$LTSCALE
 40
1.0
  9
$ATTMODE
 70
     1
  9
$TEXTSIZE
 40
0.2
  9
$TRACEWID
 40
0.05
  9
$TEXTSTYLE
  7
Standard
  9
$CLAYER
  8
0
  9
$CELTYPE
  6
ByLayer
  9
$CECOLOR
 62
   256
  9
$CELTSCALE
 40
1.0
  9
$DISPSILH
 70
     0
  9
$DIMSCALE
 40
1.0
  9
$DIMASZ
 40
0.18
  9
$DIMEXO
 40
0.0625
  9
$DIMDLI
 40
0.38
  9
$DIMRND
 40
0.0
  9
$DIMDLE
 40
0.0
  9
$DIMEXE
 40
0.18
  9
$DIMTP
 40
0.0
  9
$DIMTM
 40
0.0
  9
$DIMTXT
 40
0.18
  9
$DIMCEN
 40
0.09
  9
$DIMTSZ
 40
0.0
  9
$DIMTOL
 70
     0
  9
$DIMLIM
 70
     0
  9
$DIMTIH
 70
     1
  9
$DIMTOH
 70
     1
  9
$DIMSE1
 70
     0
  9
$DIMSE2
 70
     0
  9
$DIMTAD
 70
     0
  9
$DIMZIN
 70
     0
  9
$DIMBLK
  1

  9
$DIMASO
 70
     1
  9
$DIMSHO
 70
     1
  9
$DIMPOST
  1

  9
$DIMAPOST
  1

  9
$DIMALT
 70
     0
  9
$DIMALTD
 70
     2
  9
$DIMALTF
 40
25.4
  9
$DIMLFAC
 40
1.0
  9
$DIMTOFL
 70
     0
  9
$DIMTVP
 40
0.0
  9
$DIMTIX
 70
     0
  9
$DIMSOXD
 70
     0
  9
$DIMSAH
 70
     0
  9
$DIMBLK1
  1

  9
$DIMBLK2
  1

  9
$DIMSTYLE
  2
Standard
  9
$DIMCLRD
 70
     0
  9
$DIMCLRE
 70
     0
  9
$DIMCLRT
 70
     0
  9
$DIMTFAC
 40
1.0
  9
$DIMGAP
 40
0.09
  9
$DIMJUST
 70
     0
  9
$DIMSD1
 70
     0
  9
$DIMSD2
 70
     0
  9
$DIMTOLJ
 70
     1
  9
$DIMTZIN
 70
     0
  9
$DIMALTZ
 70
     0
  9
$DIMALTTZ
 70
     0
  9
$DIMUPT
 70
     0
  9
$DIMDEC
 70
     4
  9
$DIMTDEC
 70
     4
  9
$DIMALTU
 70
     2
  9
$DIMALTTD
 70
     2
  9
$DIMTXSTY
  7
Standard
  9
$DIMAUNIT
 70
     0
  9
$DIMADEC
 70
     0
  9
$DIMALTRND
 40
0.0
  9
$DIMAZIN
 70
     0
  9
$DIMDSEP
 70
    46
  9
$DIMATFIT
 70
     3
  9
$DIMFRAC
 70
     0
  9
$DIMLDRBLK
  1

  9
$DIMLUNIT
 70
     2
  9
$DIMLWD
 70
    -2
  9
$DIMLWE
 70
    -2
  9
$DIMTMOVE
 70
     0
  9
$DIMFXL
 40
1.0
  9
$DIMFXLON
 70
     0
  9
$DIMJOGANG
 40
0.7853981633974483
  9
$DIMTFILL
 70
     0
  9
$DIMTFILLCLR
 70
     0
  9
$DIMARCSYM
 70
     0
  9
$DIMLTYPE
  6

  9
$DIMLTEX1
  6

  9
$DIMLTEX2
  6

  9
$DIMTXTDIRECTION
 70
     0
  9
$LUNITS
 70
     2
  9
$LUPREC
 70
     4
  9
$SKETCHINC
 40
0.1
  9
$FILLETRAD
 40
0.0
  9
$AUNITS
 70
     0
  9
$AUPREC
 70
     0
  9
$MENU
  1
.
  9
$ELEVATION
 40
0.0
  9
$PELEVATION
 40
0.0
  9
$THICKNESS
 40
0.0
  9
$LIMCHECK
 70
     0
  9
$CHAMFERA
 40
0.0
  9
$CHAMFERB
 40
0.0
  9
$CHAMFERC
 40
0.0
  9
$CHAMFERD
 40
0.0
  9
$SKPOLY
 70
     0
  9
$TDCREATE
 40
2460061.682870370
  9
$TDUCREATE
 40
2460061.307870371
  9
$TDUPDATE
 40
2460061.682870370
  9
$TDUUPDATE
 40
2460061.307870371
  9
$TDINDWG
 40
0.0000000000
  9
$TDUSRTIMER
 40
0.0000000000
  9
$USRTIMER
 70
     1
  9
$ANGBASE
 50
0.0
  9
$ANGDIR
 70
     0
  9
$PDMODE
 70
     0
  9
$PDSIZE
 40
0.0
  9
$PLINEWID
 40
0.0
  9
$SPLFRAME
 70
     0
  9
$SPLINETYPE
 70
     6
  9
$SPLINESEGS
 70
     8
  9
$HANDSEED
  5
143
  9
$SURFTAB1
 70
     6
  9
$SURFTAB2
 70
     6
  9
$SURFTYPE
 70
     6
  9
$SURFU
 70
     6
  9
$SURFV
 70
     6
  9
$UCSBASE
  2

  9
$UCSNAME
  2

  9
$UCSORG
 10
0.0
 20
0.0
 30
0.0
  9
$UCSXDIR
 10
1.0
 20
0.0
 30
0.0
  9
$UCSYDIR
 10
0.0
 20
1.0
 30
0.0
  9
$UCSORTHOREF
  2

  9
$UCSORTHOVIEW
 70
     0
  9
$UCSORGTOP
 10
0.0
 20
0.0
 30
0.0
  9
$UCSORGBOTTOM
 10
0.0
 20
0.0
 30
0.0
  9
$UCSORGLEFT
 10
0.0
 20
0.0
 30
0.0
  9
$UCSORGRIGHT
 10
0.0
 20
0.0
 30
0.0
  9
$UCSORGFRONT
 10
0.0
 20
0.0
 30
0.0
  9
$UCSORGBACK
 10
0.0
 20
0.0
 30
0.0
  9
$PUCSBASE
  2

  9
$PUCSNAME
  2

  9
$PUCSORG
 10
0.0
 20
0.0
 30
0.0
  9
$PUCSXDIR
 10
1.0
 20
0.0
 30
0.0
  9
$PUCSYDIR
 10
0.0
 20
1.0
 30
0.0
  9
$PUCSORTHOREF
  2

  9
$PUCSORTHOVIEW
 70
     0
  9
$PUCSORGTOP
 10
0.0
 20
0.0
 30
0.0
  9
$PUCSORGBOTTOM
 10
0.0
 20
0.0
 30
0.0
  9
$PUCSORGLEFT
 10
0.0
 20
0.0
 30
0.0
  9
$PUCSORGRIGHT
 10
0.0
 20
0.0
 30
0.0
  9
$PUCSORGFRONT
 10
0.0
 20
0.0
 30
0.0
  9
$PUCSORGBACK
 10
0.0
 20
0.0
 30
0.0
  9
$USERI1
 70
     0
  9
$USERI2
 70
     0
  9
$USERI3
 70
     0
  9
$USERI4
 70
     0
  9
$USERI5
 70
     0
  9
$USERR1
 40
0.0
  9
$USERR2
 40
0.0
  9
$USERR3
 40
0.0
  9
$USERR4
 40
0.0
  9
$USERR5
 40
0.0
  9
$WORLDVIEW
 70
     1
  9
$SHADEDGE
 70
     3
  9
$SHADEDIF
 70
    70
  9
$TILEMODE
 70
     1
  9
$MAXACTVP
 70
    64
  9
$PINSBASE
 10
0.0
 20
0.0
 30
0.0
  9
$PLIMCHECK
 70
     0
  9
$PEXTMIN
 10
1.000000000000000E+20
 20
1.000000000000000E+20
 30
1.000000000000000E+20
  9
$PEXTMAX
 10
-1.000000000000000E+20
 20
-1.000000000000000E+20
 30
-1.000000000000000E+20
  9
$PLIMMIN
 10
0.0
 20
0.0
  9
$PLIMMAX
 10
12.0
 20
9.0
  9
$UNITMODE
 70
     0
  9
$VISRETAIN
 70
     1
  9
$PLINEGEN
 70
     0
  9
$PSLTSCALE
 70
     1
  9
$TREEDEPTH
 70
  3020
  9
$CMLSTYLE
  2
Standard
  9
$CMLJUST
 70
     0
  9
$CMLSCALE
 40
1.0
  9
$PROXYGRAPHICS
 70
     1
  9
$MEASUREMENT
 70
     0
  9
$CELWEIGHT
370
    -1
  9
$ENDCAPS
280
     0
  9
$JOINSTYLE
280
     0
  9
$LWDISPLAY
290
     1
  9
$INSUNITS
 70
     4
  9
$HYPERLINKBASE
  1

  9
$STYLESHEET
  1

  9
$XEDIT
290
     1
  9
$CEPSNTYPE
380
     0
  9
$PSTYLEMODE
290
     1
  9
$FINGERPRINTGUID
  2
{BF8E5014-C4EA-3C47-9299-FEAB7D0CE1F4}
  9
$VERSIONGUID
  2
{F10B5D0C-4FE2-BB4E-8974-A6E59DDB370F}
  9
$EXTNAMES
290
     1
  9
$PSVPSCALE
 40
0.0
  9
$OLESTARTUP
290
     0
  9
$SORTENTS
280
   127
  9
$INDEXCTL
280
     0
  9
$HIDETEXT
280
     1
  9
$XCLIPFRAME
280
     2
  9
$HALOGAP
280
     0
  9
$OBSCOLOR
 70
   257
  9
$OBSLTYPE
280
     0
  9
$INTERSECTIONDISPLAY
280
     0
  9
$INTERSECTIONCOLOR
 70
   257
  9
$DIMASSOC
280
     2
  9
$PROJECTNAME
  1

  9
$CAMERADISPLAY
290
     0
  9
$LENSLENGTH
 40
50.0
  9
$CAMERAHEIGHT
 40
0.0
  9
$STEPSPERSEC
 40
2.0
  9
$STEPSIZE
 40
6.0
  9
$3DDWFPREC
 40
2.0
  9
$PSOLWIDTH
 40
0.25
  9
$PSOLHEIGHT
 40
4.0
  9
$LOFTANG1
 40
1.570796326794896
  9
$LOFTANG2
 40
1.570796326794896
  9
$LOFTMAG1
 40
0.0
  9
$LOFTMAG2
 40
0.0
  9
$LOFTPARAM
 70
     7
  9
$LOFTNORMALS
280
     1
  9
$LATITUDE
 40
37.795
  9
$LONGITUDE
 40
-122.394
  9
$NORTHDIRECTION
 40
0.0
  9
$TIMEZONE
 70
 -8000
  9
$LIGHTGLYPHDISPLAY
280
     1
  9
$TILEMODELIGHTSYNCH
280
     1
  9
$CMATERIAL
347
11
  9
$SOLIDHIST
280
     0
  9
$SHOWHIST
280
     1
  9
$DWFFRAME
280
     2
  9
$DGNFRAME
280
     0
  9
$REALWORLDSCALE
290
     1
  9
$INTERFERECOLOR
 62
     1
  9
$INTERFEREOBJVS
345
33
  9
$INTERFEREVPVS
346
30
  9
$CSHADOW
280
     0
  9
$SHADOWPLANELOCATION
 40
0.0
  0
ENDSEC
  0
SECTION
  2
CLASSES
  0
CLASS
  1
ACDBDICTIONARYWDFLT
  2
AcDbDictionaryWithDefault
  3
ObjectDBX Classes
 90
        0
 91
        1
280
     0
281
     0
  0
CLASS
  1
MATERIAL
  2
AcDbMaterial
  3
ObjectDBX Classes
 90
     1153
 91
        3
280
     0
281
     0
  0
CLASS
  1
VISUALSTYLE
  2
AcDbVisualStyle
  3
ObjectDBX Classes
 90
     4095
 91
       24
280
     0
281
     0
  0
CLASS
  1
SCALE
  2
AcDbScale
  3
ObjectDBX Classes
 90
     1153
 91
       17
280
     0
281
     0
  0
CLASS
  1
TABLESTYLE
  2
AcDbTableStyle
  3
ObjectDBX Classes
 90
     4095
 91
        1
280
     0
281
     0
  0
CLASS
  1
MLEADERSTYLE
  2
AcDbMLeaderStyle
  3
ACDB_MLEADERSTYLE_CLASS
 90
     4095
 91
        1
280
     0
281
     0
  0
CLASS
  1
ACDBSECTIONVIEWSTYLE
  2
AcDbSectionViewStyle
  3
ObjectDBX Classes
 90
     1025
 91
        1
280
     0
281
     0
  0
CLASS
  1
ACDBDETAILVIEWSTYLE
  2
AcDbDetailViewStyle
  3
ObjectDBX Classes
 90
     1025
 91
        1
280
     0
281
     0
  0
CLASS
  1
DICTIONARYVAR
  2
AcDbDictionaryVar
  3
ObjectDBX Classes
 90
        0
 91
        5
280
     0
281
     0
  0
CLASS
  1
CELLSTYLEMAP
  2
AcDbCellStyleMap
  3
ObjectDBX Classes
 90
     1152
 91
        1
280
     0
281
     0
  0
ENDSEC
  0
SECTION
  2
TABLES
  0
TABLE
  2
VPORT
  5
8
330
0
100
AcDbSymbolTable
 70
     1
  0
VPORT
  5
57
330
8
100
AcDbSymbolTableRecord
100
AcDbViewportTableRecord
  2
*Active
 70
     0
 10
0.0
 20
0.0
 11
1.0
 21
1.0
 12
0.0
 22
0.0
 13
0.0
 23
0.0
 14
1.0
 24
1.0
 15
0.0
 25
0.0
 16
0.0
 26
0.0
 36
1.0
 17
338.666666582
 27
190.499999952375
 37
0.0
 40
388.619999902845
 41
1.777777777777777
 42
50.0
 43
0.0
 44
0.0
 50
0.0
 51
0.0
 71
     0
 72
   100
 73
     1
 74
     1
 75
     0
 76
     0
 77
     0
 78
     0
281
     0
 65
     1
110
0.0
120
0.0
130
0.0
111
1.0
121
0.0
131
0.0
112
0.0
122
1.0
132
0.0
 79
     0
146
0.0
 60
     3
 61
     5
292
     1
282
     1
141
0.0
142
0.0
 63
   250
421
  3355443
  0
ENDTAB
  0
TABLE
  2
LTYPE
  5
5
330
0
100
AcDbSymbolTable
 70
     1
  0
LTYPE
  5
5B
330
5
100
AcDbSymbolTableRecord
100
AcDbLinetypeTableRecord
  2
ByBlock
 70
     0
  3

 72
    65
 73
     0
 40
0.0
  0
LTYPE
  5
5C
330
5
100
AcDbSymbolTableRecord
100
AcDbLinetypeTableRecord
  2
ByLayer
 70
     0
  3

 72
    65
 73
     0
 40
0.0
  0
LTYPE
  5
5D
330
5
100
AcDbSymbolTableRecord
100
AcDbLinetypeTableRecord
  2
Continuous
 70
     0
  3
Solid line
 72
    65
 73
     0
 40
0.0
  0
ENDTAB
  0
TABLE
  2
LAYER
  5
2
330
0
100
AcDbSymbolTable
 70
     7
  0
LAYER
  5
54
330
2
100
AcDbSymbolTableRecord
100
AcDbLayerTableRecord
  2
0
 70
     0
 62
     7
  6
Continuous
370
    -3
390
F
347
21
348
0
  0
LAYER
  5
78
330
2
100
AcDbSymbolTableRecord
100
AcDbLayerTableRecord
  2
レイヤー_1
 70
     0
 62
     7
  6
Continuous
370
     0
390
F
347
21
348
0
  0
LAYER
  5
7C
330
2
100
AcDbSymbolTableRecord
100
AcDbLayerTableRecord
  2
_U+30EC_U+30A4_U+30E4_U+30FC 1
 70
     0
 62
     7
  6
Continuous
370
     0
390
F
347
21
348
0
  0
LAYER
  5
85
330
2
100
AcDbSymbolTableRecord
100
AcDbLayerTableRecord
  2
FLAME
 70
     0
 62
     7
  6
Continuous
370
     0
390
F
347
21
348
0
  0
LAYER
  5
8D
330
2
100
AcDbSymbolTableRecord
100
AcDbLayerTableRecord
  2
Defpoints
 70
     0
 62
     7
  6
Continuous
290
     0
370
     0
390
F
347
21
348
0
  0
LAYER
  5
8F
330
2
100
AcDbSymbolTableRecord
100
AcDbLayerTableRecord
  2
text
 70
     0
 62
     7
  6
Continuous
370
     0
390
F
347
21
348
0
  0
LAYER
  5
93
330
2
100
AcDbSymbolTableRecord
100
AcDbLayerTableRecord
  2
shade
 70
     0
 62
     7
  6
Continuous
370
     0
390
F
347
21
348
0
  0
ENDTAB
  0
TABLE
  2
STYLE
  5
3
330
0
100
AcDbSymbolTable
 70
     2
  0
STYLE
  5
55
330
3
100
AcDbSymbolTableRecord
100
AcDbTextStyleTableRecord
  2
Standard
 70
     0
 40
0.0
 41
1.0
 50
0.0
 71
     0
 42
0.2
  3
txt
  4

  0
STYLE
  5
5A
330
3
100
AcDbSymbolTableRecord
100
AcDbTextStyleTableRecord
  2
Annotative
 70
     0
 40
0.0
 41
1.0
 50
0.0
 71
     0
 42
0.2
  3
txt
  4

1001
AcadAnnotative
1000
AnnotativeData
1002
{
1070
     1
1070
     1
1002
}
  0
ENDTAB
  0
TABLE
  2
VIEW
  5
6
330
0
100
AcDbSymbolTable
 70
     0
  0
ENDTAB
  0
TABLE
  2
UCS
  5
7
330
0
100
AcDbSymbolTable
 70
     0
  0
ENDTAB
  0
TABLE
  2
APPID
  5
9
330
0
100
AcDbSymbolTable
 70
     2
  0
APPID
  5
56
330
9
100
AcDbSymbolTableRecord
100
AcDbRegAppTableRecord
  2
ACAD
 70
     0
  0
APPID
  5
5E
330
9
100
AcDbSymbolTableRecord
100
AcDbRegAppTableRecord
  2
AcadAnnotative
 70
     0
  0
ENDTAB
  0
TABLE
  2
DIMSTYLE
  5
A
330
0
100
AcDbSymbolTable
 70
     2
100
AcDbDimStyleTable
 71
     0
  0
DIMSTYLE
105
58
330
A
100
AcDbSymbolTableRecord
100
AcDbDimStyleTableRecord
  2
Standard
 70
     0
340
55
  0
DIMSTYLE
105
59
330
A
100
AcDbSymbolTableRecord
100
AcDbDimStyleTableRecord
  2
Annotative
 70
     0
340
55
1001
AcadAnnotative
1000
AnnotativeData
1002
{
1070
     1
1070
     1
1002
}
  0
ENDTAB
  0
TABLE
  2
BLOCK_RECORD
  5
1
330
0
100
AcDbSymbolTable
 70
     1
  0
BLOCK_RECORD
  5
70
330
1
100
AcDbSymbolTableRecord
100
AcDbBlockTableRecord
  2
*Model_Space
340
73
 70
     0
280
     1
281
     0
  0
BLOCK_RECORD
  5
6C
330
1
100
AcDbSymbolTableRecord
100
AcDbBlockTableRecord
  2
*Paper_Space
340
6F
 70
     0
280
     1
281
     0
  0
BLOCK_RECORD
  5
74
330
1
100
AcDbSymbolTableRecord
100
AcDbBlockTableRecord
  2
*Paper_Space0
340
77
 70
     0
280
     1
281
     0
  0
ENDTAB
  0
ENDSEC
  0
SECTION
  2
BLOCKS
  0
BLOCK
  5
71
330
70
100
AcDbEntity
  8
0
100
AcDbBlockBegin
  2
*Model_Space
 70
     0
 10
0.0
 20
0.0
 30
0.0
  3
*Model_Space
  1

  0
ENDBLK
  5
72
330
70
100
AcDbEntity
  8
0
100
AcDbBlockEnd
  0
BLOCK
  5
6D
330
6C
100
AcDbEntity
 67
     1
  8
0
100
AcDbBlockBegin
  2
*Paper_Space
 70
     0
 10
0.0
 20
0.0
 30
0.0
  3
*Paper_Space
  1

  0
ENDBLK
  5
6E
330
6C
100
AcDbEntity
 67
     1
  8
0
100
AcDbBlockEnd
  0
BLOCK
  5
75
330
74
100
AcDbEntity
 67
     1
  8
0
100
AcDbBlockBegin
  2
*Paper_Space0
 70
     0
 10
0.0
 20
0.0
 30
0.0
  3
*Paper_Space0
  1

  0
ENDBLK
  5
76
330
74
100
AcDbEntity
 67
     1
  8
0
100
AcDbBlockEnd
  0
ENDSEC
  0
SECTION
  2
ENTITIES
  0
SPLINE
  5
79
330
70
100
AcDbEntity
  8
レイヤー_1
 62
    18
420
        0
370
     0
100
AcDbSpline
210
0.0
220
0.0
230
1.0
 70
     9
 71
     3
 72
    11
 73
     7
 74
     0
 42
0.0000000001
 43
0.0000000001
 40
0.0
 40
0.0
 40
0.0
 40
0.0
 40
1.0
 40
1.0
 40
1.0
 40
2.0
 40
2.0
 40
2.0
 40
2.0
 10
537.975604656842
 20
376.3056151581261
 30
0.0
 10
537.9850660902008
 20
376.3033513795926
 30
0.0
 10
537.9951950479996
 20
376.3044735945921
 30
0.0
 10
538.0047338754962
 20
376.3056151581261
 30
0.0
 10
538.0047338754962
 20
376.3056151581261
 30
0.0
 10
537.975604656842
 20
376.3056151581261
 30
0.0
 10
537.975604656842
 20
376.3056151581261
 30
0.0
  0
SPLINE
  5
7A
330
70
100
AcDbEntity
  8
レイヤー_1
100
AcDbSpline
210
0.0
220
0.0
230
1.0
 70
     9
 71
     3
 72
    11
 73
     7
 74
     0
 42
0.0000000001
 43
0.0000000001
 40
0.0
 40
0.0
 40
0.0
 40
0.0
 40
1.0
 40
1.0
 40
1.0
 40
2.0
 40
2.0
 40
2.0
 40
2.0
 10
537.975604656842
 20
376.3056151581267
 30
0.0
 10
537.9850660902015
 20
376.3033513795932
 30
0.0
 10
537.9951950480002
 20
376.3044735945924
 30
0.0
 10
538.0047338754955
 20
376.3056151581267
 30
0.0
 10
538.0047338754955
 20
376.3056151581267
 30
0.0
 10
537.975604656842
 20
376.3056151581267
 30
0.0
 10
537.975604656842
 20
376.3056151581267
 30
0.0
  0
HATCH
  5
7B
330
70
100
AcDbEntity
  8
レイヤー_1
 62
    18
420
        0
440
 33554687
100
AcDbHatch
 10
0.0
 20
0.0
 30
0.0
210
0.0
220
0.0
230
1.0
  2
SOLID
 70
     1
 71
     1
 91
        1
 92
        1
 93
        1
 72
     4
 94
        3
 73
     0
 74
     0
 95
       11
 96
        7
 40
0.0
 40
0.0
 40
0.0
 40
0.0
 40
1.0
 40
1.0
 40
1.0
 40
2.0
 40
2.0
 40
2.0
 40
2.0
 10
537.975604656842
 20
376.3056151581267
 10
537.9850660902015
 20
376.3033513795932
 10
537.9951950480002
 20
376.3044735945924
 10
538.0047338754955
 20
376.3056151581267
 10
538.0047338754955
 20
376.3056151581267
 10
537.975604656842
 20
376.3056151581267
 10
537.975604656842
 20
376.3056151581267
 97
        0
 97
        1
330
7A
 75
     0
 76
     1
 98
        1
 10
0.0
 20
0.0
450
        0
451
        0
460
0.0
461
0.0
452
        0
462
0.0
453
        0
470

  0
SPLINE
  5
7D
330
70
100
AcDbEntity
  8
_U+30EC_U+30A4_U+30E4_U+30FC 1
 62
    18
420
        0
370
     0
100
AcDbSpline
210
0.0
220
0.0
230
1.0
 70
    11
 71
     3
 72
    20
 73
    16
 74
     0
 42
0.0000000001
 43
0.0000000001
 40
0.0
 40
0.0
 40
0.0
 40
0.0
 40
1.0
 40
1.0
 40
1.0
 40
2.0
 40
2.0
 40
2.0
 40
3.0
 40
3.0
 40
3.0
 40
4.0
 40
4.0
 40
4.0
 40
5.0
 40
5.0
 40
5.0
 40
5.0
 10
322.459170922778
 20
0.0814101738938158
 30
0.0
 10
322.459170922778
 20
0.0814101738938158
 30
0.0
 10
322.4561986524568
 20
0.0784377145925548
 30
0.0
 10
322.4561986524568
 20
0.0784377145925548
 30
0.0
 10
322.4727449457065
 20
0.0653591960376472
 30
0.0
 10
322.4863189686349
 20
0.0288978601270385
 30
0.0
 10
322.4948396784662
 20
0.0100726625161144
 30
0.0
 10
322.4948396784662
 20
0.0100726625161144
 30
0.0
 10
322.5156467045906
 20
0.0100726625161144
 30
0.0
 10
322.5156467045906
 20
0.0100726625161144
 30
0.0
 10
322.5318460313912
 20
0.045790930845858
 30
0.0
 10
322.4863189686349
 20
0.0708086102653727
 30
0.0
 10
322.459170922778
 20
0.0814101738938158
 30
0.0
 10
322.459170922778
 20
0.0814101738938158
 30
0.0
 10
322.459170922778
 20
0.0814101738938158
 30
0.0
 10
322.459170922778
 20
0.0814101738938158
 30
0.0
  0
SPLINE
  5
7E
330
70
100
AcDbEntity
  8
_U+30EC_U+30A4_U+30E4_U+30FC 1
 62
    18
420
        0
370
     0
100
AcDbSpline
210
0.0
220
0.0
230
1.0
 70
    11
 71
     3
 72
    65
 73
    61
 74
     0
 42
0.0000000001
 43
0.0000000001
 40
0.0
 40
0.0
 40
0.0
 40
0.0
 40
1.0
 40
1.0
 40
1.0
 40
2.0
 40
2.0
 40
2.0
 40
3.0
 40
3.0
 40
3.0
 40
4.0
 40
4.0
 40
4.0
 40
5.0
 40
5.0
 40
5.0
 40
6.0
 40
6.0
 40
6.0
 40
7.0
 40
7.0
 40
7.0
 40
8.0
 40
8.0
 40
8.0
 40
9.0
 40
9.0
 40
9.0
 40
10.0
 40
10.0
 40
10.0
 40
11.0
 40
11.0
 40
11.0
 40
12.0
 40
12.0
 40
12.0
 40
13.0
 40
13.0
 40
13.0
 40
14.0
 40
14.0
 40
14.0
 40
15.0
 40
15.0
 40
15.0
 40
16.0
 40
16.0
 40
16.0
 40
17.0
 40
17.0
 40
17.0
 40
18.0
 40
18.0
 40
18.0
 40
19.0
 40
19.0
 40
19.0
 40
20.0
 40
20.0
 40
20.0
 40
20.0
 10
342.7606041897154
 20
2.842761744933789
 30
0.0
 10
342.7606041897154
 20
2.842761744933789
 30
0.0
 10
342.7606041897154
 20
2.839789096654086
 30
0.0
 10
342.7606041897154
 20
2.839789096654086
 30
0.0
 10
342.7606041897154
 20
2.839789096654086
 30
0.0
 10
342.7665487303572
 20
2.833844556012298
 30
0.0
 10
342.7665487303572
 20
2.833844556012298
 30
0.0
 10
342.7665487303572
 20
2.833844556012298
 30
0.0
 10
342.7784378116414
 20
2.824927367089524
 30
0.0
 10
342.7784378116414
 20
2.824927367089524
 30
0.0
 10
342.7784378116414
 20
2.824927367089524
 30
0.0
 10
342.7873546226048
 20
2.818982448488286
 30
0.0
 10
342.7873546226048
 20
2.818982448488286
 30
0.0
 10
342.7873546226048
 20
2.818982448488286
 30
0.0
 10
342.7962714335674
 20
2.810065259566795
 30
0.0
 10
342.7962714335674
 20
2.810065259566795
 30
0.0
 10
342.7962714335674
 20
2.810065259566795
 30
0.0
 10
342.8022174860457
 20
2.801148070644021
 30
0.0
 10
342.8022174860457
 20
2.801148070644021
 30
0.0
 10
342.8022174860457
 20
2.801148070644021
 30
0.0
 10
342.8111342970091
 20
2.792230881721888
 30
0.0
 10
342.8111342970091
 20
2.792230881721888
 30
0.0
 10
342.8111342970091
 20
2.792230881721888
 30
0.0
 10
342.8170788376509
 20
2.783313692800398
 30
0.0
 10
342.8170788376509
 20
2.783313692800398
 30
0.0
 10
342.8170788376509
 20
2.783313692800398
 30
0.0
 10
342.8200511079717
 20
2.774396503878265
 30
0.0
 10
342.8200511079717
 20
2.774396503878265
 30
0.0
 10
342.8200511079717
 20
2.774396503878265
 30
0.0
 10
342.8230233782933
 20
2.768451963235836
 30
0.0
 10
342.8230233782933
 20
2.768451963235836
 30
0.0
 10
342.8230233782933
 20
2.768451963235836
 30
0.0
 10
342.8319401892559
 20
2.762507044634597
 30
0.0
 10
342.8319401892559
 20
2.762507044634597
 30
0.0
 10
342.8319401892559
 20
2.762507044634597
 30
0.0
 10
342.8408585120552
 20
2.762507044634597
 30
0.0
 10
342.8408585120552
 20
2.762507044634597
 30
0.0
 10
342.8408585120552
 20
2.762507044634597
 30
0.0
 10
342.8468030526976
 20
2.765479314956133
 30
0.0
 10
342.8468030526976
 20
2.765479314956133
 30
0.0
 10
342.8468030526976
 20
2.765479314956133
 30
0.0
 10
342.8527475933393
 20
2.774396503878265
 30
0.0
 10
342.8527475933393
 20
2.774396503878265
 30
0.0
 10
342.8527475933393
 20
2.774396503878265
 30
0.0
 10
342.8497753230185
 20
2.786286341080101
 30
0.0
 10
342.8497753230185
 20
2.786286341080101
 30
0.0
 10
342.8497753230185
 20
2.786286341080101
 30
0.0
 10
342.8468030526976
 20
2.795203530002233
 30
0.0
 10
342.8468030526976
 20
2.795203530002233
 30
0.0
 10
342.8468030526976
 20
2.795203530002233
 30
0.0
 10
342.8408585120552
 20
2.804120718925007
 30
0.0
 10
342.8408585120552
 20
2.804120718925007
 30
0.0
 10
342.8408585120552
 20
2.804120718925007
 30
0.0
 10
342.8319401892559
 20
2.813037529887689
 30
0.0
 10
342.8319401892559
 20
2.813037529887689
 30
0.0
 10
342.7948850796083
 20
2.835627767020669
 30
0.0
 10
342.8045956046701
 20
2.832358420851852
 30
0.0
 10
342.7606041897154
 20
2.842761744933789
 30
0.0
 10
342.7606041897154
 20
2.842761744933789
 30
0.0
 10
342.7606041897154
 20
2.842761744933789
 30
0.0
 10
342.7606041897154
 20
2.842761744933789
 30
0.0
  0
SPLINE
  5
7F
330
70
100
AcDbEntity
  8
_U+30EC_U+30A4_U+30E4_U+30FC 1
 62
    18
420
        0
370
     0
100
AcDbSpline
210
0.0
220
0.0
230
1.0
 70
    11
 71
     3
 72
    41
 73
    37
 74
     0
 42
0.0000000001
 43
0.0000000001
 40
0.0
 40
0.0
 40
0.0
 40
0.0
 40
1.0
 40
1.0
 40
1.0
 40
2.0
 40
2.0
 40
2.0
 40
3.0
 40
3.0
 40
3.0
 40
4.0
 40
4.0
 40
4.0
 40
5.0
 40
5.0
 40
5.0
 40
6.0
 40
6.0
 40
6.0
 40
7.0
 40
7.0
 40
7.0
 40
8.0
 40
8.0
 40
8.0
 40
9.0
 40
9.0
 40
9.0
 40
10.0
 40
10.0
 40
10.0
 40
11.0
 40
11.0
 40
11.0
 40
12.0
 40
12.0
 40
12.0
 40
12.0
 10
342.8111342970091
 20
2.881402770943213
 30
0.0
 10
342.8111342970091
 20
2.881402770943213
 30
0.0
 10
342.8081620266882
 20
2.875457852341974
 30
0.0
 10
342.8081620266882
 20
2.875457852341974
 30
0.0
 10
342.8081620266882
 20
2.875457852341974
 30
0.0
 10
342.8170788376509
 20
2.87248558202108
 30
0.0
 10
342.8170788376509
 20
2.87248558202108
 30
0.0
 10
342.8170788376509
 20
2.87248558202108
 30
0.0
 10
342.8349139714133
 20
2.854651204176816
 30
0.0
 10
342.8349139714133
 20
2.854651204176816
 30
0.0
 10
342.8349139714133
 20
2.854651204176816
 30
0.0
 10
342.8438307823767
 20
2.848706285575577
 30
0.0
 10
342.8438307823767
 20
2.848706285575577
 30
0.0
 10
342.8438307823767
 20
2.848706285575577
 30
0.0
 10
342.8527475933393
 20
2.839789096654086
 30
0.0
 10
342.8527475933393
 20
2.839789096654086
 30
0.0
 10
342.8527475933393
 20
2.839789096654086
 30
0.0
 10
342.8646366746236
 20
2.82195471880918
 30
0.0
 10
342.8646366746236
 20
2.82195471880918
 30
0.0
 10
342.8646366746236
 20
2.82195471880918
 30
0.0
 10
342.8735549974228
 20
2.804120718925007
 30
0.0
 10
342.8735549974228
 20
2.804120718925007
 30
0.0
 10
342.8735549974228
 20
2.804120718925007
 30
0.0
 10
342.8794995380646
 20
2.798175800323127
 30
0.0
 10
342.8794995380646
 20
2.798175800323127
 30
0.0
 10
342.8794995380646
 20
2.798175800323127
 30
0.0
 10
342.8913886193488
 20
2.798175800323127
 30
0.0
 10
342.8913886193488
 20
2.798175800323127
 30
0.0
 10
342.8913886193488
 20
2.798175800323127
 30
0.0
 10
342.8943608896697
 20
2.801148070644021
 30
0.0
 10
342.8943608896697
 20
2.801148070644021
 30
0.0
 10
342.9249271975791
 20
2.840730592758615
 30
0.0
 10
342.8426409671466
 20
2.878727576470885
 30
0.0
 10
342.8111342970091
 20
2.881402770943213
 30
0.0
 10
342.8111342970091
 20
2.881402770943213
 30
0.0
 10
342.8111342970091
 20
2.881402770943213
 30
0.0
 10
342.8111342970091
 20
2.881402770943213
 30
0.0
  0
SPLINE
  5
80
330
70
100
AcDbEntity
  8
_U+30EC_U+30A4_U+30E4_U+30FC 1
 62
    18
420
        0
370
     0
100
AcDbSpline
210
0.0
220
0.0
230
1.0
 70
    11
 71
     3
 72
    20
 73
    16
 74
     0
 42
0.0000000001
 43
0.0000000001
 40
0.0
 40
0.0
 40
0.0
 40
0.0
 40
1.0
 40
1.0
 40
1.0
 40
2.0
 40
2.0
 40
2.0
 40
3.0
 40
3.0
 40
3.0
 40
4.0
 40
4.0
 40
4.0
 40
5.0
 40
5.0
 40
5.0
 40
5.0
 10
337.0655014318749
 20
5.969717116882567
 30
0.0
 10
337.0655014318749
 20
5.969717116882567
 30
0.0
 10
337.0565846209118
 20
5.960800305919885
 30
0.0
 10
337.0565846209118
 20
5.960800305919885
 30
0.0
 10
337.0866550464889
 20
5.942321885778466
 30
0.0
 10
337.1258418454313
 20
5.862512799252122
 30
0.0
 10
337.1308944026098
 20
5.827042094129731
 30
0.0
 10
337.1308944026098
 20
5.827042094129731
 30
0.0
 10
337.175479969261
 20
5.827042094129731
 30
0.0
 10
337.175479969261
 20
5.827042094129731
 30
0.0
 10
337.2154090798654
 20
5.887035541237301
 30
0.0
 10
337.1101867797274
 20
5.952378621370624
 30
0.0
 10
337.0655014318749
 20
5.969717116882567
 30
0.0
 10
337.0655014318749
 20
5.969717116882567
 30
0.0
 10
337.0655014318749
 20
5.969717116882567
 30
0.0
 10
337.0655014318749
 20
5.969717116882567
 30
0.0
  0
SPLINE
  5
81
330
70
100
AcDbEntity
  8
_U+30EC_U+30A4_U+30E4_U+30FC 1
 62
    18
420
        0
370
     0
100
AcDbSpline
210
0.0
220
0.0
230
1.0
 70
    11
 71
     3
 72
    59
 73
    55
 74
     0
 42
0.0000000001
 43
0.0000000001
 40
0.0
 40
0.0
 40
0.0
 40
0.0
 40
1.0
 40
1.0
 40
1.0
 40
2.0
 40
2.0
 40
2.0
 40
3.0
 40
3.0
 40
3.0
 40
4.0
 40
4.0
 40
4.0
 40
5.0
 40
5.0
 40
5.0
 40
6.0
 40
6.0
 40
6.0
 40
7.0
 40
7.0
 40
7.0
 40
8.0
 40
8.0
 40
8.0
 40
9.0
 40
9.0
 40
9.0
 40
10.0
 40
10.0
 40
10.0
 40
11.0
 40
11.0
 40
11.0
 40
12.0
 40
12.0
 40
12.0
 40
13.0
 40
13.0
 40
13.0
 40
14.0
 40
14.0
 40
14.0
 40
15.0
 40
15.0
 40
15.0
 40
16.0
 40
16.0
 40
16.0
 40
17.0
 40
17.0
 40
17.0
 40
18.0
 40
18.0
 40
18.0
 40
18.0
 10
342.5703698181533
 20
4.260592137833485
 30
0.0
 10
342.5703698181533
 20
4.260592137833485
 30
0.0
 10
342.5673975478324
 20
4.260592137833485
 30
0.0
 10
342.5673975478324
 20
4.260592137833485
 30
0.0
 10
342.5673975478324
 20
4.260592137833485
 30
0.0
 10
342.5555084665482
 20
4.19817219333801
 30
0.0
 10
342.5555084665482
 20
4.19817219333801
 30
0.0
 10
342.5555084665482
 20
4.19817219333801
 30
0.0
 10
342.5525361962273
 20
4.195199923017115
 30
0.0
 10
342.5525361962273
 20
4.195199923017115
 30
0.0
 10
342.5525361962273
 20
4.195199923017115
 30
0.0
 10
342.5495639259064
 20
4.186282356136174
 30
0.0
 10
342.5495639259064
 20
4.186282356136174
 30
0.0
 10
342.5495639259064
 20
4.186282356136174
 30
0.0
 10
342.543619385264
 20
4.18331008581528
 30
0.0
 10
342.543619385264
 20
4.18331008581528
 30
0.0
 10
342.543619385264
 20
4.18331008581528
 30
0.0
 10
342.3860814990695
 20
4.18331008581528
 30
0.0
 10
342.3860814990695
 20
4.18331008581528
 30
0.0
 10
342.3860814990695
 20
4.18331008581528
 30
0.0
 10
342.3593310661802
 20
4.180337815494386
 30
0.0
 10
342.3593310661802
 20
4.180337815494386
 30
0.0
 10
342.3593310661802
 20
4.180337815494386
 30
0.0
 10
342.3593310661802
 20
4.171420248612803
 30
0.0
 10
342.3593310661802
 20
4.171420248612803
 30
0.0
 10
342.3593310661802
 20
4.171420248612803
 30
0.0
 10
342.3623033365011
 20
4.165475707971015
 30
0.0
 10
342.3623033365011
 20
4.165475707971015
 30
0.0
 10
342.3623033365011
 20
4.165475707971015
 30
0.0
 10
342.3712201474644
 20
4.162503437650121
 30
0.0
 10
342.3712201474644
 20
4.162503437650121
 30
0.0
 10
342.3712201474644
 20
4.162503437650121
 30
0.0
 10
342.543619385264
 20
4.162503437650121
 30
0.0
 10
342.543619385264
 20
4.162503437650121
 30
0.0
 10
342.5601649225957
 20
4.16131437833824
 30
0.0
 10
342.5670014467008
 20
4.164435564541585
 30
0.0
 10
342.5822604112734
 20
4.171420248612803
 30
0.0
 10
342.5822604112734
 20
4.171420248612803
 30
0.0
 10
342.5822604112734
 20
4.17736554517285
 30
0.0
 10
342.5822604112734
 20
4.17736554517285
 30
0.0
 10
342.5822604112734
 20
4.17736554517285
 30
0.0
 10
342.5792881409525
 20
4.18331008581528
 30
0.0
 10
342.5792881409525
 20
4.18331008581528
 30
0.0
 10
342.5792881409525
 20
4.18331008581528
 30
0.0
 10
342.5733420884742
 20
4.189254626457068
 30
0.0
 10
342.5733420884742
 20
4.189254626457068
 30
0.0
 10
342.5733420884742
 20
4.189254626457068
 30
0.0
 10
342.5703698181533
 20
4.195199923017115
 30
0.0
 10
342.5703698181533
 20
4.195199923017115
 30
0.0
 10
342.5703698181533
 20
4.195199923017115
 30
0.0
 10
342.5703698181533
 20
4.260592137833485
 30
0.0
 10
342.5703698181533
 20
4.260592137833485
 30
0.0
 10
342.5703698181533
 20
4.260592137833485
 30
0.0
 10
342.5703698181533
 20
4.260592137833485
 30
0.0
 10
342.5703698181533
 20
4.260592137833485
 30
0.0
  0
SPLINE
  5
82
330
70
100
AcDbEntity
  8
_U+30EC_U+30A4_U+30E4_U+30FC 1
 62
    18
420
        0
370
     0
100
AcDbSpline
210
0.0
220
0.0
230
1.0
 70
    11
 71
     3
 72
    23
 73
    19
 74
     0
 42
0.0000000001
 43
0.0000000001
 40
0.0
 40
0.0
 40
0.0
 40
0.0
 40
1.0
 40
1.0
 40
1.0
 40
2.0
 40
2.0
 40
2.0
 40
3.0
 40
3.0
 40
3.0
 40
4.0
 40
4.0
 40
4.0
 40
5.0
 40
5.0
 40
5.0
 40
6.0
 40
6.0
 40
6.0
 40
6.0
 10
340.6234541424059
 20
3.669086532531486
 30
0.0
 10
340.6234541424059
 20
3.669086532531486
 30
0.0
 10
340.620481872085
 20
3.663141613930247
 30
0.0
 10
340.620481872085
 20
3.663141613930247
 30
0.0
 10
340.6534262986182
 20
3.645455774010907
 30
0.0
 10
340.6731920474369
 20
3.61697050887671
 30
0.0
 10
340.6918193834615
 20
3.585859561912041
 30
0.0
 10
340.6918193834615
 20
3.585859561912041
 30
0.0
 10
340.7007361944248
 20
3.588831832232935
 30
0.0
 10
340.7007361944248
 20
3.588831832232935
 30
0.0
 10
340.7007361944248
 20
3.588831832232935
 30
0.0
 10
340.7066807350665
 20
3.588831832232935
 30
0.0
 10
340.7066807350665
 20
3.588831832232935
 30
0.0
 10
340.7319964352319
 20
3.631535162592065
 30
0.0
 10
340.6558527960067
 20
3.664082732075967
 30
0.0
 10
340.6234541424059
 20
3.669086532531486
 30
0.0
 10
340.6234541424059
 20
3.669086532531486
 30
0.0
 10
340.6234541424059
 20
3.669086532531486
 30
0.0
 10
340.6234541424059
 20
3.669086532531486
 30
0.0
  0
SPLINE
  5
83
330
70
100
AcDbEntity
  8
_U+30EC_U+30A4_U+30E4_U+30FC 1
 62
    18
420
        0
370
     0
100
AcDbSpline
210
0.0
220
0.0
230
1.0
 70
    11
 71
     3
 72
    20
 73
    16
 74
     0
 42
0.0000000001
 43
0.0000000001
 40
0.0
 40
0.0
 40
0.0
 40
0.0
 40
1.0
 40
1.0
 40
1.0
 40
2.0
 40
2.0
 40
2.0
 40
3.0
 40
3.0
 40
3.0
 40
4.0
 40
4.0
 40
4.0
 40
5.0
 40
5.0
 40
5.0
 40
5.0
 10
226.0350024737056
 20
55.66692719141627
 30
0.0
 10
226.0350024737056
 20
55.66692719141627
 30
0.0
 10
226.0320292817365
 20
55.66395381040867
 30
0.0
 10
226.0320292817365
 20
55.66395381040867
 30
0.0
 10
226.0485807056975
 20
55.65087123643776
 30
0.0
 10
226.0621589376887
 20
55.61439859451455
 30
0.0
 10
226.0706822896414
 20
55.59556755954457
 30
0.0
 10
226.0706822896414
 20
55.59556755954457
 30
0.0
 10
226.0914957676549
 20
55.59556755954457
 30
0.0
 10
226.0914957676549
 20
55.59556755954457
 30
0.0
 10
226.1077001175785
 20
55.6312969034746
 30
0.0
 10
226.0621589376887
 20
55.65632234043167
 30
0.0
 10
226.0350024737056
 20
55.66692719141627
 30
0.0
 10
226.0350024737056
 20
55.66692719141627
 30
0.0
 10
226.0350024737056
 20
55.66692719141627
 30
0.0
 10
226.0350024737056
 20
55.66692719141627
 30
0.0
  0
SPLINE
  5
84
330
70
100
AcDbEntity
  8
_U+30EC_U+30A4_U+30E4_U+30FC 1
 62
    18
420
        0
370
     0
100
AcDbSpline
210
0.0
220
0.0
230
1.0
 70
    11
 71
     3
 72
    20
 73
    16
 74
     0
 42
0.0000000001
 43
0.0000000001
 40
0.0
 40
0.0
 40
0.0
 40
0.0
 40
1.0
 40
1.0
 40
1.0
 40
2.0
 40
2.0
 40
2.0
 40
3.0
 40
3.0
 40
3.0
 40
4.0
 40
4.0
 40
4.0
 40
5.0
 40
5.0
 40
5.0
 40
5.0
 10
227.9545511756149
 20
159.7744557508928
 30
0.0
 10
227.9545511756149
 20
159.7744557508928
 30
0.0
 10
227.9517266432442
 20
159.7716310389355
 30
0.0
 10
227.9517266432442
 20
159.7716310389355
 30
0.0
 10
227.9674504960069
 20
159.7592025936625
 30
0.0
 10
227.9803498163989
 20
159.724553583836
 30
0.0
 10
227.9884470007542
 20
159.7066641006142
 30
0.0
 10
227.9884470007542
 20
159.7066641006142
 30
0.0
 10
228.0082198048668
 20
159.7066641006142
 30
0.0
 10
228.0082198048668
 20
159.7066641006142
 30
0.0
 10
228.0236139372944
 20
159.7406069773483
 30
0.0
 10
227.9803498163989
 20
159.7643811424571
 30
0.0
 10
227.9545511756149
 20
159.7744557508928
 30
0.0
 10
227.9545511756149
 20
159.7744557508928
 30
0.0
 10
227.9545511756149
 20
159.7744557508928
 30
0.0
 10
227.9545511756149
 20
159.7744557508928
 30
0.0
  0
LINE
  5
86
330
70
100
AcDbEntity
  8
FLAME
 62
     2
420
 16776960
370
    25
100
AcDbLine
 10
329.4037267628415
 20
268.3144526217124
 30
0.0
 11
329.4037267628415
 21
128.2590955354174
 31
0.0
  0
LINE
  5
87
330
70
100
AcDbEntity
  8
FLAME
 62
     2
420
 16776960
370
    25
100
AcDbLine
 10
209.3562778316684
 20
128.2590955354174
 30
0.0
 11
209.3562778316684
 21
268.3144526217124
 31
0.0
  0
LINE
  5
88
330
70
100
AcDbEntity
  8
FLAME
 62
     2
420
 16776960
370
    25
100
AcDbLine
 10
329.4037267628415
 20
128.2590955354174
 30
0.0
 11
209.3562778316684
 21
128.2590955354174
 31
0.0
  0
LINE
  5
89
330
70
100
AcDbEntity
  8
FLAME
 62
     2
420
 16776960
370
    25
100
AcDbLine
 10
329.4037267628415
 20
134.9283982538072
 30
0.0
 11
209.3562778316684
 21
134.9283982538072
 31
0.0
  0
LINE
  5
8A
330
70
100
AcDbEntity
  8
FLAME
 62
     2
420
 16776960
370
    25
100
AcDbLine
 10
329.4037267628415
 20
141.5977009721976
 30
0.0
 11
209.3562778316684
 21
141.5977009721976
 31
0.0
  0
LINE
  5
8B
330
70
100
AcDbEntity
  8
FLAME
 62
     2
420
 16776960
370
    25
100
AcDbLine
 10
329.4037267628415
 20
148.2670036905881
 30
0.0
 11
209.3562778316684
 21
148.2670036905881
 31
0.0
  0
LINE
  5
8C
330
70
100
AcDbEntity
  8
FLAME
 62
     2
420
 16776960
370
    25
100
AcDbLine
 10
329.4037267628415
 20
268.3144526217124
 30
0.0
 11
209.3562778316684
 21
268.3144526217124
 31
0.0
  0
LWPOLYLINE
  5
8E
330
70
100
AcDbEntity
  8
Defpoints
 62
    18
420
        0
370
     0
100
AcDbPolyline
 90
        4
 70
     1
 43
0.0
 10
139.3285992885038
 20
380.9999999047501
 10
399.4314053059775
 20
380.9999999047501
 10
399.4314053059968
 20
4.851326587172287
 10
139.3285992885038
 20
4.851326587172287
  0
MTEXT
  5
90
330
70
100
AcDbEntity
  8
text
100
AcDbMText
 10
213.7344775195373
 20
136.4528575132229
 30
0.0
 40
0.2
 41
0.0
 46
0.0
 71
     7
 72
     1
  1
\C4;\c16776960;\FMS PMincho|b0|i0|c128;\H3.334651;\W1.000000;KP130A
 73
     1
 44
1.0
  0
MTEXT
  5
91
330
70
100
AcDbEntity
  8
text
100
AcDbMText
 10
213.7532102262384
 20
143.3973733331556
 30
0.0
 40
0.2
 41
0.0
 46
0.0
 71
     7
 72
     1
  1
\C4;\c16776960;\FMS PMincho|b0|i0|c128;\H3.334651;\W1.000000;ペンダント 130A
 73
     1
 44
1.0
  0
MTEXT
  5
92
330
70
100
AcDbEntity
  8
text
100
AcDbMText
 10
213.8496944316721
 20
130.2671885694568
 30
0.0
 40
0.2
 41
0.0
 46
0.0
 71
     7
 72
     1
  1
\C4;\c16776960;\FMS PMincho|b0|i0|c128;\H3.334651;\W0.836900;E26 LED電球(100W相当　電球色　全方向/広配光タイプ）
 73
     1
 44
1.0
  0
SPLINE
  5
94
330
70
100
AcDbEntity
  8
shade
 62
     6
420
 16711935
370
    25
100
AcDbSpline
210
0.0
220
0.0
230
1.0
 70
     8
 71
     3
 72
    14
 73
    10
 74
     0
 42
0.0000000001
 43
0.0000000001
 40
0.0
 40
0.0
 40
0.0
 40
0.0
 40
1.0
 40
1.0
 40
1.0
 40
2.0
 40
2.0
 40
2.0
 40
3.0
 40
3.0
 40
3.0
 40
3.0
 10
269.4641565676574
 20
246.2025098019567
 30
0.0
 10
269.4641565676574
 20
246.2025098019567
 30
0.0
 10
264.662258610391
 20
246.2025098019567
 30
0.0
 10
264.662258610391
 20
246.2025098019567
 30
0.0
 10
264.662258610391
 20
242.5189909584004
 30
0.0
 10
266.2580175370445
 20
239.0161055096533
 30
0.0
 10
269.0373211936694
 20
236.5987138874726
 30
0.0
 10
269.0373211936694
 20
236.5987138874726
 30
0.0
 10
269.4641565676574
 20
236.5987138874726
 30
0.0
 10
269.4641565676574
 20
236.5987138874726
 30
0.0
  0
LINE
  5
95
330
70
100
AcDbEntity
  8
shade
 62
     6
420
 16711935
370
    25
100
AcDbLine
 10
269.1440307602175
 20
198.7521438013844
 30
0.0
 11
269.1440300951238
 21
236.5987138874726
 31
0.0
  0
SPLINE
  5
96
330
70
100
AcDbEntity
  8
shade
 62
     6
420
 16711935
370
    25
100
AcDbSpline
210
0.0
220
0.0
230
1.0
 70
     8
 71
     3
 72
    14
 73
    10
 74
     0
 42
0.0000000001
 43
0.0000000001
 40
0.0
 40
0.0
 40
0.0
 40
0.0
 40
1.0
 40
1.0
 40
1.0
 40
2.0
 40
2.0
 40
2.0
 40
3.0
 40
3.0
 40
3.0
 40
3.0
 10
269.4641565676574
 20
246.2025098019567
 30
0.0
 10
269.4641565676574
 20
246.2025098019567
 30
0.0
 10
274.2660545248751
 20
246.2025098019567
 30
0.0
 10
274.2660545248751
 20
246.2025098019567
 30
0.0
 10
274.2660545248751
 20
242.5189909584004
 30
0.0
 10
272.6702955982408
 20
239.0161055096533
 30
0.0
 10
269.8909919416159
 20
236.5987138874726
 30
0.0
 10
269.8909919416159
 20
236.5987138874726
 30
0.0
 10
269.4641565676574
 20
236.5987138874726
 30
0.0
 10
269.4641565676574
 20
236.5987138874726
 30
0.0
  0
LINE
  5
97
330
70
100
AcDbEntity
  8
shade
 62
     6
420
 16711935
370
    25
100
AcDbLine
 10
269.7842823749703
 20
198.7421656935776
 30
0.0
 11
269.7842830401619
 21
236.5987138874726
 31
0.0
  0
LINE
  5
98
330
70
100
AcDbEntity
  8
shade
 62
     6
420
 16711935
370
    25
100
AcDbLine
 10
269.4544536824629
 20
170.6624692027944
 30
0.0
 11
269.4544536824629
 21
197.0098706467461
 31
0.0
  0
LINE
  5
99
330
70
100
AcDbEntity
  8
shade
 62
     6
420
 16711935
370
    25
100
AcDbLine
 10
270.0171026052807
 20
196.9904698104271
 30
0.0
 11
271.2006029598243
 21
170.6624692027944
 31
0.0
  0
LINE
  5
9A
330
70
100
AcDbEntity
  8
shade
 62
     6
420
 16711935
370
    25
100
AcDbLine
 10
270.5215440851693
 20
197.165077337029
 30
0.0
 11
273.0243555823343
 21
170.6624692027944
 31
0.0
  0
LINE
  5
9B
330
70
100
AcDbEntity
  8
shade
 62
     6
420
 16711935
370
    25
100
AcDbLine
 10
274.7899007618959
 20
170.6818700390646
 30
0.0
 11
271.0259855650286
 21
196.7382392023185
 31
0.0
  0
LINE
  5
9C
330
70
100
AcDbEntity
  8
shade
 62
     6
420
 16711935
370
    25
100
AcDbLine
 10
271.5498328152868
 20
196.5442308394465
 30
0.0
 11
276.6136533844159
 21
170.6430683665248
 31
0.0
  0
LINE
  5
9D
330
70
100
AcDbEntity
  8
shade
 62
     6
420
 16711935
370
    25
100
AcDbLine
 10
278.4568117772955
 20
170.7400725479485
 30
0.0
 11
272.2870941988009
 21
195.6323520611418
 31
0.0
  0
LINE
  5
9E
330
70
100
AcDbEntity
  8
shade
 62
     6
420
 16711935
370
    25
100
AcDbLine
 10
272.7915356786895
 20
195.6323520611418
 30
0.0
 11
280.1641544479979
 21
170.8370767293965
 31
0.0
  0
LINE
  5
9F
330
70
100
AcDbEntity
  8
shade
 62
     6
420
 16711935
370
    25
100
AcDbLine
 10
281.8326905120409
 20
170.8564775656912
 30
0.0
 11
273.2765763222594
 21
195.6711537337063
 31
0.0
  0
LINE
  5
A0
330
70
100
AcDbEntity
  8
shade
 62
     6
420
 16711935
370
    25
100
AcDbLine
 10
273.8004186384374
 20
195.7875587514737
 30
0.0
 11
283.1326008183729
 21
171.0504859285629
 31
0.0
  0
LINE
  5
A1
330
70
100
AcDbEntity
  8
shade
 62
     6
420
 16711935
370
    25
100
AcDbLine
 10
284.3549028455054
 20
171.1087081737753
 30
0.0
 11
274.2078559368584
 21
195.7875587514249
 31
0.0
  0
LINE
  5
A2
330
70
100
AcDbEntity
  8
shade
 62
     6
420
 16711935
370
    25
100
AcDbLine
 10
274.6152883011995
 20
195.8263604240139
 30
0.0
 11
285.5578040363192
 21
171.2639148641073
 31
0.0
  0
LINE
  5
A3
330
70
100
AcDbEntity
  8
shade
 62
     6
420
 16711935
370
    25
100
AcDbLine
 10
286.5084844871884
 20
171.3221173729905
 30
0.0
 11
274.9063107137135
 21
195.7487570788601
 31
0.0
  0
LINE
  5
A4
330
70
100
AcDbEntity
  8
shade
 62
     6
420
 16711935
370
    25
100
AcDbLine
 10
275.236139732906
 20
195.8263604240139
 30
0.0
 11
287.4397641017877
 21
171.4967248995926
 31
0.0
  0
LINE
  5
A5
330
70
100
AcDbEntity
  8
shade
 62
     6
420
 16711935
370
    25
100
AcDbLine
 10
288.1382188786428
 20
171.5937488173693
 30
0.0
 11
275.430157963962
 21
195.7681579151547
 31
0.0
  0
LINE
  5
A6
330
70
100
AcDbEntity
  8
shade
 62
     6
420
 16711935
370
    25
100
AcDbLine
 10
275.5465679157989
 20
195.8845826692504
 30
0.0
 11
288.7784760807282
 21
171.6907529988174
 31
0.0
  0
LINE
  5
A7
330
70
100
AcDbEntity
  8
shade
 62
     6
420
 16711935
370
    25
100
AcDbLine
 10
289.2247101176391
 20
171.8071580165601
 30
0.0
 11
275.6823787039063
 21
195.8651818329317
 31
0.0
  0
LINE
  5
A8
330
70
100
AcDbEntity
  8
shade
 62
     6
420
 16711935
370
    25
100
AcDbLine
 10
275.8375903283128
 20
195.8845826692504
 30
0.0
 11
289.5157374642424
 21
171.942963870573
 31
0.0
  0
LINE
  5
A9
330
70
100
AcDbEntity
  8
shade
 62
     6
420
 16711935
370
    25
100
AcDbLine
 10
289.6127465797606
 20
172.1175911335525
 30
0.0
 11
275.9734011164199
 21
195.8651818329317
 31
0.0
  0
LINE
  5
AA
330
70
100
AcDbEntity
  8
shade
 62
     6
420
 16711935
370
    25
100
AcDbLine
 10
268.9112105300047
 20
196.9904698104271
 30
0.0
 11
267.7083093391716
 21
170.6624692027944
 31
0.0
  0
LINE
  5
AB
330
70
100
AcDbEntity
  8
shade
 62
     6
420
 16711935
370
    25
100
AcDbLine
 10
268.406769050116
 20
197.165077337029
 30
0.0
 11
265.8845567166515
 21
170.6624692027944
 31
0.0
  0
LINE
  5
AC
330
70
100
AcDbEntity
  8
shade
 62
     6
420
 16711935
370
    25
100
AcDbLine
 10
264.1384074392902
 20
170.6818700390646
 30
0.0
 11
267.9023275702567
 21
196.7382392023185
 31
0.0
  0
LINE
  5
AD
330
70
100
AcDbEntity
  8
shade
 62
     6
420
 16711935
370
    25
100
AcDbLine
 10
267.3590794837088
 20
196.5442308394465
 30
0.0
 11
262.2952539804806
 21
170.6430683665248
 31
0.0
  0
LINE
  5
AE
330
70
100
AcDbEntity
  8
shade
 62
     6
420
 16711935
370
    25
100
AcDbLine
 10
260.4715013579703
 20
170.7400725479485
 30
0.0
 11
266.621818100195
 21
195.6323520611418
 31
0.0
  0
LINE
  5
AF
330
70
100
AcDbEntity
  8
shade
 62
     6
420
 16711935
370
    25
100
AcDbLine
 10
266.1367774565958
 20
195.6323520611418
 30
0.0
 11
258.744757850998
 21
170.8370767293965
 31
0.0
  0
LINE
  5
B0
330
70
100
AcDbEntity
  8
shade
 62
     6
420
 16711935
370
    25
100
AcDbLine
 10
257.0956201562094
 20
170.8564775656912
 30
0.0
 11
265.6323359767365
 21
195.6711537337063
 31
0.0
  0
LINE
  5
B1
330
70
100
AcDbEntity
  8
shade
 62
     6
420
 16711935
370
    25
100
AcDbLine
 10
265.1278944968479
 20
195.7875587514737
 30
0.0
 11
255.7957098498578
 21
171.0504859285629
 31
0.0
  0
LINE
  5
B2
330
70
100
AcDbEntity
  8
shade
 62
     6
420
 16711935
370
    25
100
AcDbLine
 10
254.5540069864551
 20
171.1087081737753
 30
0.0
 11
264.720457198427
 21
195.7875587514249
 31
0.0
  0
LINE
  5
B3
330
70
100
AcDbEntity
  8
shade
 62
     6
420
 16711935
370
    25
100
AcDbLine
 10
264.2936239977863
 20
195.8263604240139
 30
0.0
 11
253.3511057956416
 21
171.2639148641073
 31
0.0
  0
LINE
  5
B4
330
70
100
AcDbEntity
  8
shade
 62
     6
420
 16711935
370
    25
100
AcDbLine
 10
252.4198286480773
 20
171.3221173729905
 30
0.0
 11
264.0220024215523
 21
195.7487570788601
 31
0.0
  0
LINE
  5
B5
330
70
100
AcDbEntity
  8
shade
 62
     6
420
 16711935
370
    25
100
AcDbLine
 10
263.6921734023796
 20
195.8263604240139
 30
0.0
 11
251.4691481972078
 21
171.4967248995926
 31
0.0
  0
LINE
  5
B6
330
70
100
AcDbEntity
  8
shade
 62
     6
420
 16711935
370
    25
100
AcDbLine
 10
250.7706884862537
 20
171.5937488173693
 30
0.0
 11
263.4787543350047
 21
195.7681579151547
 31
0.0
  0
LINE
  5
B7
330
70
100
AcDbEntity
  8
shade
 62
     6
420
 16711935
370
    25
100
AcDbLine
 10
263.3817452194865
 20
195.8845826692504
 30
0.0
 11
250.1304362182869
 21
171.6907529988174
 31
0.0
  0
LINE
  5
B8
330
70
100
AcDbEntity
  8
shade
 62
     6
420
 16711935
370
    25
100
AcDbLine
 10
249.7036005506115
 20
171.8071580165601
 30
0.0
 11
263.2265335950799
 21
195.8651818329317
 31
0.0
  0
LINE
  5
B9
330
70
100
AcDbEntity
  8
shade
 62
     6
420
 16711935
370
    25
100
AcDbLine
 10
263.0713219706831
 20
195.8845826692504
 30
0.0
 11
249.3931748347439
 21
171.942963870573
 31
0.0
  0
LINE
  5
BA
330
70
100
AcDbEntity
  8
shade
 62
     6
420
 16711935
370
    25
100
AcDbLine
 10
249.2961657192257
 20
172.1175911335525
 30
0.0
 11
262.9355111825756
 21
195.8651818329317
 31
0.0
  0
LWPOLYLINE
  5
BB
330
70
100
AcDbEntity
  8
shade
 62
     6
420
 16711935
370
    25
100
AcDbPolyline
 90
        9
 70
     0
 43
0.0
 10
276.6136533844159
 20
170.6430683665248
 10
275.5077613091203
 20
170.0804046414237
 10
274.7899007618959
 20
170.6818700390646
 10
273.8198194747369
 20
170.0610038051048
 10
273.0243555823343
 20
170.6624692027944
 10
271.9960668521976
 20
170.0998054776933
 10
271.2006029598243
 20
170.6624692027944
 10
270.3275307881738
 20
170.0998054776933
 10
269.4544536824629
 20
170.6624692027944
  0
LINE
  5
BC
330
70
100
AcDbEntity
  8
shade
 62
     6
420
 16711935
370
    25
100
AcDbLine
 10
269.4544536824629
 20
198.5813975952225
 30
0.0
 11
269.4544536824629
 21
198.0381544427691
 31
0.0
  0
LINE
  5
BD
330
70
100
AcDbEntity
  8
shade
 62
     6
420
 16711935
370
    25
100
AcDbLine
 10
269.7648818653364
 20
196.4666274942686
 30
0.0
 11
269.7648818653364
 21
195.8651818329317
 31
0.0
  0
LINE
  5
BE
330
70
100
AcDbEntity
  8
shade
 62
     6
420
 16711935
370
    25
100
AcDbLine
 10
270.3469316244729
 20
196.2920002313135
 30
0.0
 11
270.3081250177847
 21
195.8845826692504
 31
0.0
  0
LINE
  5
BF
330
70
100
AcDbEntity
  8
shade
 62
     6
420
 16711935
370
    25
100
AcDbLine
 10
270.9289764494909
 20
196.2725993950189
 30
0.0
 11
270.8125714317726
 21
195.8457809966615
 31
0.0
  0
LINE
  5
C0
330
70
100
AcDbEntity
  8
shade
 62
     6
420
 16711935
370
    25
100
AcDbLine
 10
271.4916253723283
 20
196.2531985587243
 30
0.0
 11
271.3558145842017
 21
195.8263604240139
 31
0.0
  0
LINE
  5
C1
330
70
100
AcDbEntity
  8
shade
 62
     6
420
 16711935
370
    25
100
AcDbLine
 10
272.1124768040345
 20
196.3696233128447
 30
0.0
 11
271.8990577366791
 21
195.7293562425899
 31
0.0
  0
LINE
  5
C2
330
70
100
AcDbEntity
  8
shade
 62
     6
420
 16711935
370
    25
100
AcDbLine
 10
272.6557248905824
 20
196.3502224765257
 30
0.0
 11
272.2870941988009
 21
195.6323520611418
 31
0.0
  0
LWPOLYLINE
  5
C3
330
70
100
AcDbEntity
  8
shade
 62
     6
420
 16711935
370
    25
100
AcDbPolyline
 90
        3
 70
     0
 43
0.0
 10
273.1989680430307
 20
196.3502224765257
 10
272.7915356786895
 20
195.6323520611418
 10
272.5587157750155
 20
196.1755952135708
  0
LINE
  5
C4
330
70
100
AcDbEntity
  8
shade
 62
     6
420
 16711935
370
    25
100
AcDbLine
 10
273.2959771585781
 20
195.6905545699766
 30
0.0
 11
273.063157254904
 21
196.136793541006
 31
0.0
  0
LINE
  5
C5
330
70
100
AcDbEntity
  8
shade
 62
     6
420
 16711935
370
    25
100
AcDbLine
 10
273.7422161295782
 20
196.3114010676078
 30
0.0
 11
273.2765763222594
 21
195.6711537337063
 31
0.0
  0
LWPOLYLINE
  5
C6
330
70
100
AcDbEntity
  8
shade
 62
     6
420
 16711935
370
    25
100
AcDbPolyline
 90
        3
 70
     0
 43
0.0
 10
274.2660584457175
 20
196.3502224765257
 10
273.8004186384374
 20
195.7875587514249
 10
273.6064053414516
 20
196.136793541006
  0
LINE
  5
C7
330
70
100
AcDbEntity
  8
shade
 62
     6
420
 16711935
370
    25
100
AcDbLine
 10
274.2078559368584
 20
195.7875587514737
 30
0.0
 11
274.0332385420923
 21
196.0785910321468
 31
0.0
  0
LINE
  5
C8
330
70
100
AcDbEntity
  8
shade
 62
     6
420
 16711935
370
    25
100
AcDbLine
 10
274.6152883011995
 20
195.8263604240139
 30
0.0
 11
274.4406709064139
 21
196.0785910321468
 31
0.0
  0
LINE
  5
C9
330
70
100
AcDbEntity
  8
shade
 62
     6
420
 16711935
370
    25
100
AcDbLine
 10
274.634689137499
 20
196.2920002313135
 30
0.0
 11
274.2078559368584
 21
195.7875587514737
 31
0.0
  0
LINE
  5
CA
330
70
100
AcDbEntity
  8
shade
 62
     6
420
 16711935
370
    25
100
AcDbLine
 10
275.0421215018206
 20
196.2725993950189
 30
0.0
 11
274.6152883011995
 21
195.8263604240139
 31
0.0
  0
LINE
  5
CB
330
70
100
AcDbEntity
  8
shade
 62
     6
420
 16711935
370
    25
100
AcDbLine
 10
275.3525496847137
 20
196.2531985587243
 30
0.0
 11
274.9063107137135
 21
195.7487570788601
 31
0.0
  0
LINE
  5
CC
330
70
100
AcDbEntity
  8
shade
 62
     6
420
 16711935
370
    25
100
AcDbLine
 10
275.236139732906
 20
195.8263604240139
 30
0.0
 11
275.1003289447986
 21
195.9815868506988
 31
0.0
  0
LINE
  5
CD
330
70
100
AcDbEntity
  8
shade
 62
     6
420
 16711935
370
    25
100
AcDbLine
 10
275.430157963962
 20
195.7681579151547
 30
0.0
 11
275.3331488484435
 21
195.9233843418152
 31
0.0
  0
LINE
  5
CE
330
70
100
AcDbEntity
  8
shade
 62
     6
420
 16711935
370
    25
100
AcDbLine
 10
275.6241712609575
 20
196.2337977224544
 30
0.0
 11
275.236139732906
 21
195.8263604240139
 31
0.0
  0
LWPOLYLINE
  5
CF
330
70
100
AcDbEntity
  8
shade
 62
     6
420
 16711935
370
    25
100
AcDbPolyline
 90
        3
 70
     0
 43
0.0
 10
275.8375903283128
 20
196.2143968861841
 10
275.5077613091203
 20
195.8457809966615
 10
275.430157963962
 20
195.7681579151547
  0
LINE
  5
D0
330
70
100
AcDbEntity
  8
shade
 62
     6
420
 16711935
370
    25
100
AcDbLine
 10
276.0510093956682
 20
196.1755952135708
 30
0.0
 11
275.6823787039063
 21
195.8651818329317
 31
0.0
  0
LINE
  5
D1
330
70
100
AcDbEntity
  8
shade
 62
     6
420
 16711935
370
    25
100
AcDbLine
 10
270.1335125571179
 20
198.5425959226333
 30
0.0
 11
270.1141117208185
 21
198.0381544427691
 31
0.0
  0
LWPOLYLINE
  5
D2
330
70
100
AcDbEntity
  8
shade
 62
     6
420
 16711935
370
    25
100
AcDbPolyline
 90
        5
 70
     0
 43
0.0
 10
270.6767557095662
 20
198.0381544427691
 10
270.3469316244729
 20
196.2920002313135
 10
270.1141117208185
 20
198.0381544427691
 10
269.7648818653364
 20
196.4666274942686
 10
269.4544536824629
 20
198.0381544427691
  0
LWPOLYLINE
  5
D3
330
70
100
AcDbEntity
  8
shade
 62
     6
420
 16711935
370
    25
100
AcDbPolyline
 90
        3
 70
     0
 43
0.0
 10
270.6767557095662
 20
198.5619967589279
 10
270.6767557095662
 20
198.0381544427691
 10
270.9289764494909
 20
196.2725993950189
  0
LINE
  5
D4
330
70
100
AcDbEntity
  8
shade
 62
     6
420
 16711935
370
    25
100
AcDbLine
 10
271.239404632384
 20
198.0575552790637
 30
0.0
 11
270.9289764494909
 21
196.2725993950189
 31
0.0
  0
LWPOLYLINE
  5
D5
330
70
100
AcDbEntity
  8
shade
 62
     6
420
 16711935
370
    25
100
AcDbPolyline
 90
        4
 70
     0
 43
0.0
 10
271.1812021235249
 20
198.5619967589279
 10
271.4916253723283
 20
196.2531985587243
 10
271.8408552277908
 20
198.1157577879229
 10
272.1124768040345
 20
196.3696233128447
  0
LINE
  5
D6
330
70
100
AcDbEntity
  8
shade
 62
     6
420
 16711935
370
    25
100
AcDbLine
 10
271.743846112253
 20
198.5231950863634
 30
0.0
 11
271.8408552277908
 21
198.1157577879229
 31
0.0
  0
LINE
  5
D7
330
70
100
AcDbEntity
  8
shade
 62
     6
420
 16711935
370
    25
100
AcDbLine
 10
272.4617066594969
 20
198.193361133101
 30
0.0
 11
272.1124768040345
 21
196.3696233128447
 31
0.0
  0
LWPOLYLINE
  5
D8
330
70
100
AcDbEntity
  8
shade
 62
     6
420
 16711935
370
    25
100
AcDbPolyline
 90
        3
 70
     0
 43
0.0
 10
272.3452967076601
 20
198.5037942500688
 10
272.4617066594969
 20
198.193361133101
 10
272.6557248905824
 20
196.3502224765257
  0
LINE
  5
D9
330
70
100
AcDbEntity
  8
shade
 62
     6
420
 16711935
370
    25
100
AcDbLine
 10
272.8303373512492
 20
198.5231950863634
 30
0.0
 11
273.0437564186046
 21
198.1351586242175
 31
0.0
  0
LINE
  5
DA
330
70
100
AcDbEntity
  8
shade
 62
     6
420
 16711935
370
    25
100
AcDbLine
 10
273.412387110386
 20
198.4843934137741
 30
0.0
 11
273.6258061777414
 21
198.0963569516039
 31
0.0
  0
LWPOLYLINE
  5
DB
330
70
100
AcDbEntity
  8
shade
 62
     6
420
 16711935
370
    25
100
AcDbPolyline
 90
       15
 70
     0
 43
0.0
 10
273.3929862740962
 20
198.5037942500688
 10
272.4811074957868
 20
198.6978026129652
 10
272.8303373512492
 20
198.5231950863634
 10
272.1318776403047
 20
198.6784017766706
 10
272.3452967076601
 20
198.5037942500688
 10
271.4722245360388
 20
198.7172034492352
 10
271.743846112253
 20
198.5231950863634
 10
271.0065847287587
 20
198.7560248581774
 10
271.1812021235249
 20
198.5619967589279
 10
270.5409449214395
 20
198.7560248581774
 10
270.6767557095662
 20
198.5619967589279
 10
270.1723142296776
 20
198.775425694472
 10
270.1335125571179
 20
198.5425959226336
 10
269.7260801927671
 20
198.775425694472
 10
269.4544536824629
 20
198.5813975952225
  0
LWPOLYLINE
  5
DC
330
70
100
AcDbEntity
  8
shade
 62
     6
420
 16711935
370
    25
100
AcDbPolyline
 90
        3
 70
     0
 43
0.0
 10
273.8392203110071
 20
198.4843934137741
 10
272.9273464667965
 20
198.6978026129652
 10
273.412387110386
 20
198.4843934137741
  0
LWPOLYLINE
  5
DD
330
70
100
AcDbEntity
  8
shade
 62
     6
420
 16711935
370
    25
100
AcDbPolyline
 90
        8
 70
     0
 43
0.0
 10
273.2959771585781
 20
198.6784017766706
 10
273.8392203110071
 20
198.4843934137741
 10
274.1496484939002
 20
198.0963569516039
 10
273.7422161295587
 20
196.3114010676078
 10
273.6258061777414
 20
198.0963569516039
 10
273.1989680430307
 20
196.3502224765257
 10
273.0437564186046
 20
198.1351586242175
 10
272.6557248905824
 20
196.3502224765257
  0
LINE
  5
DE
330
70
100
AcDbEntity
  8
shade
 62
     6
420
 16711935
370
    25
100
AcDbLine
 10
275.5077613091203
 20
198.3873892323261
 30
0.0
 11
275.4495588002611
 21
198.426190904915
 31
0.0
  0
LINE
  5
DF
330
70
100
AcDbEntity
  8
shade
 62
     6
420
 16711935
370
    25
100
AcDbLine
 10
275.1585314536578
 20
198.426190904915
 30
0.0
 11
275.0033198292513
 21
198.4649925774798
 31
0.0
  0
LINE
  5
E0
330
70
100
AcDbEntity
  8
shade
 62
     6
420
 16711935
370
    25
100
AcDbLine
 10
274.7122974167472
 20
198.5037942500688
 30
0.0
 11
274.7899007618959
 21
198.4649925774798
 31
0.0
  0
LWPOLYLINE
  5
E1
330
70
100
AcDbEntity
  8
shade
 62
     6
420
 16711935
370
    25
100
AcDbPolyline
 90
        3
 70
     0
 43
0.0
 10
274.6152883011995
 20
198.1157577879229
 10
274.3630675612553
 20
198.5037942500688
 10
273.2959771585781
 20
198.6784017766706
  0
LINE
  5
E2
330
70
100
AcDbEntity
  8
shade
 62
     6
420
 16711935
370
    25
100
AcDbLine
 10
274.9839189929614
 20
198.0769561153336
 30
0.0
 11
274.7704999256064
 21
198.5037942500688
 31
0.0
  0
LINE
  5
E3
330
70
100
AcDbEntity
  8
shade
 62
     6
420
 16711935
370
    25
100
AcDbLine
 10
275.3525496847137
 20
198.0575552790637
 30
0.0
 11
275.1391306173584
 21
198.4455917411852
 31
0.0
  0
LINE
  5
E4
330
70
100
AcDbEntity
  8
shade
 62
     6
420
 16711935
370
    25
100
AcDbLine
 10
275.6823787039063
 20
198.0187536064748
 30
0.0
 11
275.4883604728503
 21
198.4067900686451
 31
0.0
  0
LINE
  5
E5
330
70
100
AcDbEntity
  8
shade
 62
     6
420
 16711935
370
    25
100
AcDbLine
 10
275.9345994438506
 20
197.9993527701802
 30
0.0
 11
275.7211803764952
 21
198.3873892323261
 31
0.0
  0
LINE
  5
E6
330
70
100
AcDbEntity
  8
shade
 62
     6
420
 16711935
370
    25
100
AcDbLine
 10
276.167419347505
 20
197.9605510976153
 30
0.0
 11
275.9151986075607
 21
198.3679883960315
 31
0.0
  0
LWPOLYLINE
  5
E7
330
70
100
AcDbEntity
  8
shade
 62
     6
420
 16711935
370
    25
100
AcDbPolyline
 90
       15
 70
     0
 43
0.0
 10
276.3420318082014
 20
197.9799519338856
 10
276.0510093956682
 20
196.1755952135708
 10
276.167419347505
 20
197.9605510976157
 10
275.8375903283128
 20
196.2143968861354
 10
275.9345994438506
 20
197.9993527701802
 10
275.6241712609575
 20
196.2337977224544
 10
275.6823787039063
 20
198.0187536064748
 10
275.3525496847137
 20
196.2531985587243
 10
275.3525496847137
 20
198.0575552790637
 10
275.0421215018206
 20
196.2725993950189
 10
274.9839189929614
 20
198.0769561153336
 10
274.634689137499
 20
196.2920002313135
 10
274.6152883011995
 20
198.1157577879229
 10
274.2660584457175
 20
196.3502224765257
 10
274.1496484939002
 20
198.0963569516039
  0
LWPOLYLINE
  5
E8
330
70
100
AcDbEntity
  8
shade
 62
     6
420
 16711935
370
    25
100
AcDbPolyline
 90
        3
 70
     0
 43
0.0
 10
276.0898110682571
 20
198.3485875597615
 10
276.3420318082014
 20
197.9799519338856
 10
276.2062210200651
 20
196.1561943773006
  0
LINE
  5
E9
330
70
100
AcDbEntity
  8
shade
 62
     6
420
 16711935
370
    25
100
AcDbLine
 10
276.4390409237196
 20
197.9217494250508
 30
0.0
 11
276.2062210200651
 21
198.3291867234669
 31
0.0
  0
LWPOLYLINE
  5
EA
330
70
100
AcDbEntity
  8
shade
 62
     6
420
 16711935
370
    25
100
AcDbPolyline
 90
        3
 70
     0
 43
0.0
 10
273.2959771585781
 20
198.6784017766706
 10
276.283829299313
 20
198.3097858871479
 10
276.5554508755567
 20
197.9217494250508
  0
LWPOLYLINE
  5
EB
330
70
100
AcDbEntity
  8
shade
 62
     6
420
 16711935
370
    25
100
AcDbPolyline
 90
        3
 70
     0
 43
0.0
 10
275.7793828853543
 20
195.9427851781099
 10
275.8375903283128
 20
195.8845826692504
 10
275.9345994438506
 20
195.9233843418152
  0
LINE
  5
EC
330
70
100
AcDbEntity
  8
shade
 62
     6
420
 16711935
370
    25
100
AcDbLine
 10
276.3420318082014
 20
196.1367935409816
 30
0.0
 11
275.9734011164199
 21
195.8651818329317
 31
0.0
  0
LWPOLYLINE
  5
ED
330
70
100
AcDbEntity
  8
shade
 62
     6
420
 16711935
370
    25
100
AcDbPolyline
 90
        5
 70
     0
 43
0.0
 10
275.9345994438506
 20
195.9233843418152
 10
276.2062210200651
 20
196.1561943773006
 10
276.4390409237196
 20
197.9217494250508
 10
276.3420318082014
 20
196.1367935409816
 10
276.5554508755567
 20
197.9217494250508
  0
LINE
  5
EE
330
70
100
AcDbEntity
  8
shade
 62
     6
420
 16711935
370
    25
100
AcDbLine
 10
281.8908979549897
 20
170.3714369220965
 30
0.0
 11
281.6386772150455
 21
170.7788742205126
 31
0.0
  0
LINE
  5
EF
330
70
100
AcDbEntity
  8
shade
 62
     6
420
 16711935
370
    25
100
AcDbLine
 10
288.7008678014607
 20
171.4191215544385
 30
0.0
 11
288.662066128891
 21
171.4579232270278
 31
0.0
  0
LINE
  5
F0
330
70
100
AcDbEntity
  8
shade
 62
     6
420
 16711935
370
    25
100
AcDbLine
 10
288.3516379459982
 20
171.2251131915424
 30
0.0
 11
288.1964263215914
 21
171.3609190455797
 31
0.0
  0
LINE
  5
F1
330
70
100
AcDbEntity
  8
shade
 62
     6
420
 16711935
370
    25
100
AcDbLine
 10
287.7889939572698
 20
171.12810901007
 30
0.0
 11
287.6337773987543
 21
171.2445140278126
 31
0.0
  0
LINE
  5
F2
330
70
100
AcDbEntity
  8
shade
 62
     6
420
 16711935
370
    25
100
AcDbLine
 10
287.1099350825955
 20
170.9146800745499
 30
0.0
 11
286.8965160152401
 21
171.1669106826585
 31
0.0
  0
LINE
  5
F3
330
70
100
AcDbEntity
  8
shade
 62
     6
420
 16711935
370
    25
100
AcDbLine
 10
286.3144662561229
 20
170.8370767293965
 30
0.0
 11
286.081646352478
 21
171.1087081738241
 31
0.0
  0
LWPOLYLINE
  5
F4
330
70
100
AcDbEntity
  8
shade
 62
     6
420
 16711935
370
    25
100
AcDbPolyline
 90
       11
 70
     0
 43
0.0
 10
283.1326008183729
 20
171.0504859285629
 10
281.8908979549897
 20
170.3714369220965
 10
281.8326905120409
 20
170.8564775656912
 10
280.4939785330908
 20
170.2744327406485
 10
280.1641544479979
 20
170.8370767293965
 10
279.0000549297438
 20
170.2162302317653
 10
278.4568117772955
 20
170.7400725479485
 10
277.2345048161124
 20
170.1386268866112
 10
276.6136533844159
 20
170.6430683665248
 10
275.5077613091203
 20
170.0804046414237
 10
274.7899007618959
 20
170.6818700390646
  0
LINE
  5
F5
330
70
100
AcDbEntity
  8
shade
 62
     6
420
 16711935
370
    25
100
AcDbLine
 10
283.1326008183729
 20
170.4684411035209
 30
0.0
 11
282.8609792421584
 21
170.8952792382797
 31
0.0
  0
LWPOLYLINE
  5
F6
330
70
100
AcDbEntity
  8
shade
 62
     6
420
 16711935
370
    25
100
AcDbPolyline
 90
        4
 70
     0
 43
0.0
 10
284.3355020092062
 20
170.5460444486987
 10
284.3549028455054
 20
171.1087081738241
 10
283.1326008183729
 20
170.4684411035209
 10
283.1326008183729
 20
171.0504859285629
  0
LWPOLYLINE
  5
F7
330
70
100
AcDbEntity
  8
shade
 62
     6
420
 16711935
370
    25
100
AcDbPolyline
 90
        4
 70
     0
 43
0.0
 10
285.3637907393237
 20
170.7012708753592
 10
285.5578040363192
 20
171.2639148641073
 10
284.3355020092062
 20
170.5460444486987
 10
284.0250738263132
 20
170.9340809108446
  0
LWPOLYLINE
  5
F8
330
70
100
AcDbEntity
  8
shade
 62
     6
420
 16711935
370
    25
100
AcDbPolyline
 90
       13
 70
     0
 43
0.0
 10
289.5157374642424
 20
171.942963870573
 10
288.7008678014607
 20
171.4191215544385
 10
289.2247101176391
 20
171.8071580165601
 10
288.3516379459982
 20
171.2251131915424
 10
288.7784760807282
 20
171.6907529988174
 10
287.7889939572698
 20
171.12810901007
 10
288.1382188786428
 20
171.5937488173693
 10
287.1099350825955
 20
170.9146800745499
 10
287.4397641017877
 20
171.4967248995926
 10
286.3144662561229
 20
170.8370767293965
 10
286.5084844871884
 20
171.3221173729905
 10
285.3637907393237
 20
170.7012708753592
 10
285.1115650653094
 20
171.011684255998
  0
LINE
  5
F9
330
70
100
AcDbEntity
  8
shade
 62
     6
420
 16711935
370
    25
100
AcDbLine
 10
289.6127465797606
 20
172.1175911335525
 30
0.0
 11
289.4575300212935
 21
172.0399680520461
 31
0.0
  0
LINE
  5
FA
330
70
100
AcDbEntity
  8
shade
 62
     6
420
 16711935
370
    25
100
AcDbLine
 10
269.4544536824629
 20
198.5813975952225
 30
0.0
 11
269.4544536824629
 21
198.0381544427691
 31
0.0
  0
LINE
  5
FB
330
70
100
AcDbEntity
  8
shade
 62
     6
420
 16711935
370
    25
100
AcDbLine
 10
269.1440304336302
 20
196.4666274942686
 30
0.0
 11
269.1634312699297
 21
195.8651818329317
 31
0.0
  0
LINE
  5
FC
330
70
100
AcDbEntity
  8
shade
 62
     6
420
 16711935
370
    25
100
AcDbLine
 10
268.5619806745226
 20
196.2920002313135
 30
0.0
 11
268.6007823471115
 21
195.8845826692504
 31
0.0
  0
LINE
  5
FD
330
70
100
AcDbEntity
  8
shade
 62
     6
420
 16711935
370
    25
100
AcDbLine
 10
267.9799309154057
 20
196.2725993950189
 30
0.0
 11
268.1157417035127
 21
195.8457809966615
 31
0.0
  0
LINE
  5
FE
330
70
100
AcDbEntity
  8
shade
 62
     6
420
 16711935
370
    25
100
AcDbLine
 10
267.4172869266576
 20
196.2531985587243
 30
0.0
 11
267.5724985510641
 21
195.8263604240139
 31
0.0
  0
LINE
  5
FF
330
70
100
AcDbEntity
  8
shade
 62
     6
420
 16711935
370
    25
100
AcDbLine
 10
266.7964305608913
 20
196.3696233128447
 30
0.0
 11
267.0292504645361
 21
195.7293562425899
 31
0.0
  0
LINE
  5
100
330
70
100
AcDbEntity
  8
shade
 62
     6
420
 16711935
370
    25
100
AcDbLine
 10
266.2725882447033
 20
196.3502224765257
 30
0.0
 11
266.621818100195
 21
195.6323520611418
 31
0.0
  0
LWPOLYLINE
  5
101
330
70
100
AcDbEntity
  8
shade
 62
     6
420
 16711935
370
    25
100
AcDbPolyline
 90
        3
 70
     0
 43
0.0
 10
265.7099393218854
 20
196.3502224765257
 10
266.1367774565958
 20
195.6323520611418
 10
266.3501965239512
 20
196.1755952135708
  0
LINE
  5
102
330
70
100
AcDbEntity
  8
shade
 62
     6
420
 16711935
370
    25
100
AcDbLine
 10
265.6323359767365
 20
195.6905545699766
 30
0.0
 11
265.8457550440918
 21
196.136793541006
 31
0.0
  0
LINE
  5
103
330
70
100
AcDbEntity
  8
shade
 62
     6
420
 16711935
370
    25
100
AcDbLine
 10
265.1860970057071
 20
196.3114010676078
 30
0.0
 11
265.6323359767365
 21
195.6711537337063
 31
0.0
  0
LWPOLYLINE
  5
104
330
70
100
AcDbEntity
  8
shade
 62
     6
420
 16711935
370
    25
100
AcDbPolyline
 90
        3
 70
     0
 43
0.0
 10
264.6622546895482
 20
196.3502224765257
 10
265.1278944968479
 20
195.7875587514249
 10
265.3219077938337
 20
196.136793541006
  0
LINE
  5
105
330
70
100
AcDbEntity
  8
shade
 62
     6
420
 16711935
370
    25
100
AcDbLine
 10
264.720457198427
 20
195.7875587514737
 30
0.0
 11
264.8756737569232
 21
196.0785910321468
 31
0.0
  0
LINE
  5
106
330
70
100
AcDbEntity
  8
shade
 62
     6
420
 16711935
370
    25
100
AcDbLine
 10
264.2936239977863
 20
195.8263604240139
 30
0.0
 11
264.4682364584827
 21
196.0785910321468
 31
0.0
  0
LINE
  5
107
330
70
100
AcDbEntity
  8
shade
 62
     6
420
 16711935
370
    25
100
AcDbLine
 10
264.2742231615161
 20
196.2920002313135
 30
0.0
 11
264.720457198427
 21
195.7875587514737
 31
0.0
  0
LINE
  5
108
330
70
100
AcDbEntity
  8
shade
 62
     6
420
 16711935
370
    25
100
AcDbLine
 10
263.886186699375
 20
196.2725993950189
 30
0.0
 11
264.2936239977863
 21
195.8263604240139
 31
0.0
  0
LINE
  5
109
330
70
100
AcDbEntity
  8
shade
 62
     6
420
 16711935
370
    25
100
AcDbLine
 10
263.5563626142722
 20
196.2531985587243
 30
0.0
 11
264.0220024215523
 21
195.7487570788601
 31
0.0
  0
LINE
  5
10A
330
70
100
AcDbEntity
  8
shade
 62
     6
420
 16711935
370
    25
100
AcDbLine
 10
263.6921734023796
 20
195.8263604240139
 30
0.0
 11
263.8085833541973
 21
195.9815868506988
 31
0.0
  0
LINE
  5
10B
330
70
100
AcDbEntity
  8
shade
 62
     6
420
 16711935
370
    25
100
AcDbLine
 10
263.4787543350242
 20
195.7681579151547
 30
0.0
 11
263.5757634505424
 21
195.9233843418152
 31
0.0
  0
LINE
  5
10C
330
70
100
AcDbEntity
  8
shade
 62
     6
420
 16711935
370
    25
100
AcDbLine
 10
263.2847361039683
 20
196.2337977224544
 30
0.0
 11
263.6921734023796
 21
195.8263604240139
 31
0.0
  0
LWPOLYLINE
  5
10D
330
70
100
AcDbEntity
  8
shade
 62
     6
420
 16711935
370
    25
100
AcDbPolyline
 90
        3
 70
     0
 43
0.0
 10
263.090722806953
 20
196.2143968861841
 10
263.4205518261455
 20
195.8457809966615
 10
263.4787543350242
 20
195.7681579151547
  0
LINE
  5
10E
330
70
100
AcDbEntity
  8
shade
 62
     6
420
 16711935
370
    25
100
AcDbLine
 10
262.8773037395979
 20
196.1755952135708
 30
0.0
 11
263.2265335950799
 21
195.8651818329317
 31
0.0
  0
LINE
  5
10F
330
70
100
AcDbEntity
  8
shade
 62
     6
420
 16711935
370
    25
100
AcDbLine
 10
268.7948005781678
 20
198.5425959226333
 30
0.0
 11
268.7948005781678
 21
198.0381544427691
 31
0.0
  0
LWPOLYLINE
  5
110
330
70
100
AcDbEntity
  8
shade
 62
     6
420
 16711935
370
    25
100
AcDbPolyline
 90
        5
 70
     0
 43
0.0
 10
268.2321516553499
 20
198.0381544427691
 10
268.5619806745226
 20
196.2920002313135
 10
268.7948005781678
 20
198.0381544427691
 10
269.1440304336595
 20
196.4666274942686
 10
269.4544536824629
 20
198.0381544427691
  0
LWPOLYLINE
  5
111
330
70
100
AcDbEntity
  8
shade
 62
     6
420
 16711935
370
    25
100
AcDbPolyline
 90
        3
 70
     0
 43
0.0
 10
268.2515524916491
 20
198.5619967589279
 10
268.2321516553499
 20
198.0381544427691
 10
267.9799309154057
 20
196.2725993950189
  0
LINE
  5
112
330
70
100
AcDbEntity
  8
shade
 62
     6
420
 16711935
370
    25
100
AcDbLine
 10
267.6695076666019
 20
198.0575552790637
 30
0.0
 11
267.9799309154057
 21
196.2725993950189
 31
0.0
  0
LWPOLYLINE
  5
113
330
70
100
AcDbEntity
  8
shade
 62
     6
420
 16711935
370
    25
100
AcDbPolyline
 90
        4
 70
     0
 43
0.0
 10
267.7277101754611
 20
198.5619967589279
 10
267.4172869266576
 20
196.2531985587243
 10
267.0874579074946
 20
198.1157577879229
 10
266.7964305608913
 20
196.3696233128447
  0
LINE
  5
114
330
70
100
AcDbEntity
  8
shade
 62
     6
420
 16711935
370
    25
100
AcDbLine
 10
267.1650612526436
 20
198.5231950863634
 30
0.0
 11
267.0874579074946
 21
198.1157577879229
 31
0.0
  0
LINE
  5
115
330
70
100
AcDbEntity
  8
shade
 62
     6
420
 16711935
370
    25
100
AcDbLine
 10
266.4472056394986
 20
198.193361133101
 30
0.0
 11
266.7964305608913
 21
196.3696233128447
 31
0.0
  0
LWPOLYLINE
  5
116
330
70
100
AcDbEntity
  8
shade
 62
     6
420
 16711935
370
    25
100
AcDbPolyline
 90
        3
 70
     0
 43
0.0
 10
266.5636106572169
 20
198.5037942500688
 10
266.4472056394986
 20
198.193361133101
 10
266.2725882447033
 20
196.3502224765257
  0
LINE
  5
117
330
70
100
AcDbEntity
  8
shade
 62
     6
420
 16711935
370
    25
100
AcDbLine
 10
266.0785700136473
 20
198.5231950863634
 30
0.0
 11
265.8845567166515
 21
198.1351586242175
 31
0.0
  0
LINE
  5
118
330
70
100
AcDbEntity
  8
shade
 62
     6
420
 16711935
370
    25
100
AcDbLine
 10
265.4965251886002
 20
198.4843934137741
 30
0.0
 11
265.2831061212448
 21
198.0963569516039
 31
0.0
  0
LWPOLYLINE
  5
119
330
70
100
AcDbEntity
  8
shade
 62
     6
420
 16711935
370
    25
100
AcDbPolyline
 90
       15
 70
     0
 43
0.0
 10
265.5159260248993
 20
198.5037942500688
 10
266.4277998691098
 20
198.6978026129652
 10
266.0785700136473
 20
198.5231950863634
 10
266.7964305608913
 20
198.6784017766706
 10
266.5636106572169
 20
198.5037942500688
 10
267.4560885992469
 20
198.7172034492352
 10
267.1650612526436
 20
198.5231950863634
 10
267.9023275702567
 20
198.7560248581774
 10
267.7277101754611
 20
198.5619967589279
 10
268.367962443457
 20
198.7560248581774
 10
268.2515524916491
 20
198.5619967589279
 10
268.7365931352189
 20
198.775425694472
 10
268.7948005781678
 20
198.5425959226336
 10
269.1828321062192
 20
198.775425694472
 10
269.4544536824629
 20
198.5813975952225
  0
LWPOLYLINE
  5
11A
330
70
100
AcDbEntity
  8
shade
 62
     6
420
 16711935
370
    25
100
AcDbPolyline
 90
        3
 70
     0
 43
0.0
 10
265.0696870538895
 20
198.4843934137741
 10
265.9815658321989
 20
198.6978026129652
 10
265.4965251886002
 20
198.4843934137741
  0
LWPOLYLINE
  5
11B
330
70
100
AcDbEntity
  8
shade
 62
     6
420
 16711935
370
    25
100
AcDbPolyline
 90
        8
 70
     0
 43
0.0
 10
265.6323359767365
 20
198.6784017766706
 10
265.0696870538895
 20
198.4843934137741
 10
264.7786646413854
 20
198.0963569516039
 10
265.1860970057071
 20
196.3114010676078
 10
265.2831061212448
 20
198.0963569516039
 10
265.7099393218854
 20
196.3502224765257
 10
265.8845567166515
 20
198.1351586242175
 10
266.2725882447033
 20
196.3502224765257
  0
LINE
  5
11C
330
70
100
AcDbEntity
  8
shade
 62
     6
420
 16711935
370
    25
100
AcDbLine
 10
263.4205518261455
 20
198.3873892323261
 30
0.0
 11
263.4593534987345
 21
198.426190904915
 31
0.0
  0
LINE
  5
11D
330
70
100
AcDbEntity
  8
shade
 62
     6
420
 16711935
370
    25
100
AcDbLine
 10
263.7503759112388
 20
198.426190904915
 30
0.0
 11
263.9055924697347
 21
198.4649925774798
 31
0.0
  0
LINE
  5
11E
330
70
100
AcDbEntity
  8
shade
 62
     6
420
 16711935
370
    25
100
AcDbLine
 10
264.1966148822486
 20
198.5037942500688
 30
0.0
 11
264.1190066030203
 21
198.4649925774798
 31
0.0
  0
LWPOLYLINE
  5
11F
330
70
100
AcDbEntity
  8
shade
 62
     6
420
 16711935
370
    25
100
AcDbPolyline
 90
        3
 70
     0
 43
0.0
 10
264.3130248340858
 20
198.1157577879229
 10
264.5652455740301
 20
198.5037942500688
 10
265.6323359767365
 20
198.6784017766706
  0
LINE
  5
120
330
70
100
AcDbEntity
  8
shade
 62
     6
420
 16711935
370
    25
100
AcDbLine
 10
263.9249933060341
 20
198.0769561153336
 30
0.0
 11
264.1384074392902
 21
198.5037942500688
 31
0.0
  0
LINE
  5
121
330
70
100
AcDbEntity
  8
shade
 62
     6
420
 16711935
370
    25
100
AcDbLine
 10
263.5563626142722
 20
198.0575552790637
 30
0.0
 11
263.7697767475379
 21
198.4455917411852
 31
0.0
  0
LINE
  5
122
330
70
100
AcDbEntity
  8
shade
 62
     6
420
 16711935
370
    25
100
AcDbLine
 10
263.2459344313791
 20
198.0187536064748
 30
0.0
 11
263.4205518261455
 21
198.4067900686451
 31
0.0
  0
LINE
  5
123
330
70
100
AcDbEntity
  8
shade
 62
     6
420
 16711935
370
    25
100
AcDbLine
 10
262.9743128551357
 20
197.9993527701802
 30
0.0
 11
263.1877319225202
 21
198.3873892323261
 31
0.0
  0
LINE
  5
124
330
70
100
AcDbEntity
  8
shade
 62
     6
420
 16711935
370
    25
100
AcDbLine
 10
262.7414929514905
 20
197.9605510976153
 30
0.0
 11
263.0131145277246
 21
198.3679883960315
 31
0.0
  0
LWPOLYLINE
  5
125
330
70
100
AcDbEntity
  8
shade
 62
     6
420
 16711935
370
    25
100
AcDbPolyline
 90
       15
 70
     0
 43
0.0
 10
262.586281327084
 20
197.9799519338856
 10
262.8773037395979
 20
196.1755952135708
 10
262.7414929514905
 20
197.9605510976157
 10
263.0907228069726
 20
196.2143968861354
 10
262.9743128551357
 20
197.9993527701802
 10
263.2847361039683
 20
196.2337977224544
 10
263.2459344313791
 20
198.0187536064748
 10
263.5563626142722
 20
196.2531985587243
 10
263.5563626142722
 20
198.0575552790637
 10
263.886186699375
 20
196.2725993950189
 10
263.9249933060341
 20
198.0769561153336
 10
264.2742231615161
 20
196.2920002313135
 10
264.3130248340858
 20
198.1157577879229
 10
264.6622546895482
 20
196.3502224765257
 10
264.7786646413852
 20
198.0963569516039
  0
LWPOLYLINE
  5
126
330
70
100
AcDbEntity
  8
shade
 62
     6
420
 16711935
370
    25
100
AcDbPolyline
 90
        3
 70
     0
 43
0.0
 10
262.8385020670574
 20
198.3485875597615
 10
262.586281327084
 20
197.9799519338856
 10
262.7026912789212
 20
196.1561943773006
  0
LINE
  5
127
330
70
100
AcDbEntity
  8
shade
 62
     6
420
 16711935
370
    25
100
AcDbLine
 10
262.4892722115462
 20
197.9217494250508
 30
0.0
 11
262.7026912789212
 21
198.3291867234669
 31
0.0
  0
LWPOLYLINE
  5
128
330
70
100
AcDbEntity
  8
shade
 62
     6
420
 16711935
370
    25
100
AcDbPolyline
 90
        3
 70
     0
 43
0.0
 10
265.6323359767365
 20
198.6784017766706
 10
262.6444838359723
 20
198.3097858871479
 10
262.3728622597286
 20
197.9217494250508
  0
LWPOLYLINE
  5
129
330
70
100
AcDbEntity
  8
shade
 62
     6
420
 16711935
370
    25
100
AcDbPolyline
 90
        3
 70
     0
 43
0.0
 10
263.1295244795618
 20
195.9427851781099
 10
263.0713219706831
 20
195.8845826692504
 10
262.9743128551357
 20
195.9233843418152
  0
LINE
  5
12A
330
70
100
AcDbEntity
  8
shade
 62
     6
420
 16711935
370
    25
100
AcDbLine
 10
262.5668804908137
 20
196.1367935409816
 30
0.0
 11
262.9355111825756
 21
195.8651818329317
 31
0.0
  0
LWPOLYLINE
  5
12B
330
70
100
AcDbEntity
  8
shade
 62
     6
420
 16711935
370
    25
100
AcDbPolyline
 90
        5
 70
     0
 43
0.0
 10
262.9743128551357
 20
195.9233843418152
 10
262.7026912789212
 20
196.1561943773006
 10
262.4892722115462
 20
197.9217494250508
 10
262.5668804908137
 20
196.1367935409816
 10
262.3728622597286
 20
197.9217494250508
  0
LINE
  5
12C
330
70
100
AcDbEntity
  8
shade
 62
     6
420
 16711935
370
    25
100
AcDbLine
 10
257.0180143440257
 20
170.3714369220965
 30
0.0
 11
257.2702350839408
 21
170.7788742205126
 31
0.0
  0
LINE
  5
12D
330
70
100
AcDbEntity
  8
shade
 62
     6
420
 16711935
370
    25
100
AcDbLine
 10
250.2080420305001
 20
171.4191215544385
 30
0.0
 11
250.2468461700949
 21
171.4579232270278
 31
0.0
  0
LINE
  5
12E
330
70
100
AcDbEntity
  8
shade
 62
     6
420
 16711935
370
    25
100
AcDbLine
 10
250.5766727222328
 20
171.2251131915424
 30
0.0
 11
250.7124859773945
 21
171.3609190455797
 31
0.0
  0
LINE
  5
12F
330
70
100
AcDbEntity
  8
shade
 62
     6
420
 16711935
370
    25
100
AcDbLine
 10
251.1199183417454
 20
171.12810901007
 30
0.0
 11
251.2945332694767
 21
171.2445140278126
 31
0.0
  0
LINE
  5
130
330
70
100
AcDbEntity
  8
shade
 62
     6
420
 16711935
370
    25
100
AcDbLine
 10
251.7989747493653
 20
170.9146800745499
 30
0.0
 11
252.0123938167207
 21
171.1669106826585
 31
0.0
  0
LINE
  5
131
330
70
100
AcDbEntity
  8
shade
 62
     6
420
 16711935
370
    25
100
AcDbLine
 10
252.6138444121274
 20
170.8370767293965
 30
0.0
 11
252.8272610124477
 21
171.1087081738241
 31
0.0
  0
LWPOLYLINE
  5
132
330
70
100
AcDbEntity
  8
shade
 62
     6
420
 16711935
370
    25
100
AcDbPolyline
 90
       17
 70
     0
 43
0.0
 10
255.7957098498578
 20
171.0504859285629
 10
257.0180143439962
 20
170.3714369220965
 10
257.0956201562094
 20
170.8564775656912
 10
258.4149312988405
 20
170.2744327406485
 10
258.744757850998
 20
170.8370767293965
 10
259.9088573692226
 20
170.2162302317653
 10
260.4715013579703
 20
170.7400725479485
 10
261.6938033850739
 20
170.1386268866112
 10
262.2952539804806
 20
170.6430683665248
 10
263.4205518261455
 20
170.0804046414237
 10
264.1384074392902
 20
170.6818700390646
 10
265.1084887264783
 20
170.0610038051048
 10
265.8845567166515
 20
170.6624692027944
 10
266.9128405126989
 20
170.0998054776933
 10
267.7083093391716
 20
170.6624692027944
 10
268.5813815108125
 20
170.0998054776933
 10
269.4544536824629
 20
170.6624692027944
  0
LINE
  5
133
330
70
100
AcDbEntity
  8
shade
 62
     6
420
 16711935
370
    25
100
AcDbLine
 10
255.7763090135587
 20
170.4684411035209
 30
0.0
 11
256.0479330568372
 21
170.8952792382797
 31
0.0
  0
LWPOLYLINE
  5
134
330
70
100
AcDbEntity
  8
shade
 62
     6
420
 16711935
370
    25
100
AcDbPolyline
 90
        4
 70
     0
 43
0.0
 10
254.5928111260794
 20
170.5460444486987
 10
254.5540069864551
 20
171.1087081738241
 10
255.7763090135587
 20
170.4684411035209
 10
255.7957098498578
 20
171.0504859285629
  0
LWPOLYLINE
  5
135
330
70
100
AcDbEntity
  8
shade
 62
     6
420
 16711935
370
    25
100
AcDbPolyline
 90
        4
 70
     0
 43
0.0
 10
253.5451215596625
 20
170.7012708753592
 10
253.3511057956416
 20
171.2639148641073
 10
254.5928111260794
 20
170.5460444486987
 10
254.8838335385834
 20
170.9340809108446
  0
LWPOLYLINE
  5
136
330
70
100
AcDbEntity
  8
shade
 62
     6
420
 16711935
370
    25
100
AcDbPolyline
 90
       13
 70
     0
 43
0.0
 10
249.3931748347439
 20
171.942963870573
 10
250.2080420305001
 20
171.4191215544385
 10
249.7036005506115
 20
171.8071580165601
 10
250.5766727222328
 20
171.2251131915424
 10
250.1304362182869
 20
171.6907529988174
 10
251.1199183417454
 20
171.12810901007
 10
250.7706884862537
 20
171.5937488173693
 10
251.7989747493653
 20
170.9146800745499
 10
251.4691481972078
 20
171.4967248995926
 10
252.6138444121274
 20
170.8370767293965
 10
252.4198286480773
 20
171.3221173729905
 10
253.5451215596625
 20
170.7012708753592
 10
253.7973422995872
 20
171.011684255998
  0
LINE
  5
137
330
70
100
AcDbEntity
  8
shade
 62
     6
420
 16711935
370
    25
100
AcDbLine
 10
269.4544536824629
 20
187.8523009274878
 30
0.0
 11
269.4544536824629
 21
197.0098706467218
 31
0.0
  0
LINE
  5
138
330
70
100
AcDbEntity
  8
shade
 62
     6
420
 16711935
370
    25
100
AcDbLine
 10
269.4544536824629
 20
170.6624692027944
 30
0.0
 11
269.4544536824629
 21
180.6348937825323
 31
0.0
  0
LINE
  5
139
330
70
100
AcDbEntity
  8
shade
 62
     6
420
 16711935
370
    25
100
AcDbLine
 10
249.2961657192257
 20
172.1175911335525
 30
0.0
 11
249.4707806469568
 21
172.0399680520461
 31
0.0
  0
ENDSEC
  0
SECTION
  2
OBJECTS
  0
DICTIONARY
  5
C
330
0
100
AcDbDictionary
281
     1
  3
ACAD_COLOR
350
63
  3
ACAD_DETAILVIEWSTYLE
350
6A
  3
ACAD_GROUP
350
D
  3
ACAD_LAYOUT
350
62
  3
ACAD_MATERIAL
350
10
  3
ACAD_MLEADERSTYLE
350
66
  3
ACAD_MLINESTYLE
350
5F
  3
ACAD_PLOTSETTINGS
350
61
  3
ACAD_PLOTSTYLENAME
350
E
  3
ACAD_SCALELIST
350
42
  3
ACAD_SECTIONVIEWSTYLE
350
68
  3
ACAD_TABLESTYLE
350
64
  3
ACAD_VISUALSTYLE
350
29
  3
ACDB_RECOMPOSE_DATA
350
142
  3
AcDbVariableDictionary
350
13A
  0
DICTIONARY
  5
63
102
{ACAD_REACTORS
330
C
102
}
330
C
100
AcDbDictionary
281
     1
  0
DICTIONARY
  5
6A
102
{ACAD_REACTORS
330
C
102
}
330
C
100
AcDbDictionary
281
     1
  3
Imperial24
350
6B
  0
DICTIONARY
  5
D
102
{ACAD_REACTORS
330
C
102
}
330
C
100
AcDbDictionary
281
     1
  0
DICTIONARY
  5
62
102
{ACAD_REACTORS
330
C
102
}
330
C
100
AcDbDictionary
281
     1
  3
Layout1
350
6F
  3
Layout2
350
77
  3
Model
350
73
  0
DICTIONARY
  5
10
102
{ACAD_REACTORS
330
C
102
}
330
C
100
AcDbDictionary
281
     1
  3
ByBlock
350
19
  3
ByLayer
350
11
  3
Global
350
21
  0
DICTIONARY
  5
66
102
{ACAD_REACTORS
330
C
102
}
330
C
100
AcDbDictionary
281
     1
  3
Standard
350
67
  0
DICTIONARY
  5
5F
102
{ACAD_REACTORS
330
C
102
}
330
C
100
AcDbDictionary
281
     1
  3
Standard
350
60
  0
DICTIONARY
  5
61
102
{ACAD_REACTORS
330
C
102
}
330
C
100
AcDbDictionary
281
     1
  0
ACDBDICTIONARYWDFLT
  5
E
102
{ACAD_REACTORS
330
C
102
}
330
C
100
AcDbDictionary
281
     1
  3
Normal
350
F
100
AcDbDictionaryWithDefault
340
F
  0
DICTIONARY
  5
42
102
{ACAD_REACTORS
330
C
102
}
330
C
100
AcDbDictionary
281
     1
  3
A0
350
43
  3
A1
350
44
  3
A2
350
45
  3
A3
350
46
  3
A4
350
47
  3
A5
350
48
  3
A6
350
49
  3
A7
350
4A
  3
A8
350
4B
  3
A9
350
4C
  3
B0
350
4D
  3
B1
350
4E
  3
B2
350
4F
  3
B3
350
50
  3
B4
350
51
  3
B5
350
52
  3
B6
350
53
  0
DICTIONARY
  5
68
102
{ACAD_REACTORS
330
C
102
}
330
C
100
AcDbDictionary
281
     1
  3
Imperial24
350
69
  0
DICTIONARY
  5
64
102
{ACAD_REACTORS
330
C
102
}
330
C
100
AcDbDictionary
281
     1
  3
Standard
350
65
  0
DICTIONARY
  5
29
102
{ACAD_REACTORS
330
C
102
}
330
C
100
AcDbDictionary
281
     1
  3
2dWireframe
350
2F
  3
Basic
350
2E
  3
Brighten
350
35
  3
ColorChange
350
39
  3
Conceptual
350
32
  3
Dim
350
34
  3
EdgeColorOff
350
41
  3
Facepattern
350
38
  3
Flat
350
2A
  3
FlatWithEdges
350
2B
  3
Gouraud
350
2C
  3
GouraudWithEdges
350
2D
  3
Hidden
350
31
  3
JitterOff
350
3F
  3
Linepattern
350
37
  3
OverhangOff
350
40
  3
Realistic
350
33
  3
Shaded
350
3E
  3
Shaded with edges
350
3D
  3
Shades of Gray
350
3A
  3
Sketchy
350
3B
  3
Thicken
350
36
  3
Wireframe
350
30
  3
X-Ray
350
3C
  0
XRECORD
  5
142
102
{ACAD_REACTORS
330
C
102
}
330
C
100
AcDbXrecord
280
     1
 90
        1
330
65
  0
DICTIONARY
  5
13A
102
{ACAD_REACTORS
330
C
102
}
330
C
100
AcDbDictionary
281
     1
  3
CANNOSCALE
350
13F
  3
CMLEADERSTYLE
350
13C
  3
CTABLESTYLE
350
13B
  3
CVIEWDETAILSTYLE
350
13D
  3
CVIEWSECTIONSTYLE
350
13E
  0
ACDBDETAILVIEWSTYLE
  5
6B
102
{ACAD_REACTORS
330
6A
102
}
330
6A
100
AcDbModelDocViewStyle
 70
     0
  3
Imperial24
290
     1
300
Imperial24
 90
        0
100
AcDbDetailViewStyle
 70
     0
 71
     0
 90
        3
 71
     1
340
55
 62
   256
 40
0.24
340
0
 62
   256
 40
0.24
300

 40
0.36
280
     3
 71
     2
340
5D
 90
       25
 62
   256
 71
     3
340
55
 62
   256
 40
0.24
 90
        1
 40
0.75
 90
        1
300
%<\AcVar ViewType \f "%tc1">% %<\AcVar ViewDetailId>%\PSCALE %<\AcVar ViewScale \f "%sn">%
 71
     4
340
5D
 90
       25
 62
   256
340
5D
 90
       25
 62
   256
280
     0
  0
LAYOUT
  5
6F
102
{ACAD_REACTORS
330
62
102
}
330
62
100
AcDbPlotSettings
  1

  2

  4

  6

 40
0.0
 41
0.0
 42
0.0
 43
0.0
 44
0.0
 45
0.0
 46
0.0
 47
0.0
 48
0.0
 49
0.0
140
0.0
141
0.0
142
1.0
143
1.0
 70
   688
 72
     0
 73
     0
 74
     5
  7

 75
    16
147
1.0
 76
     0
 77
     2
 78
   300
148
0.0
149
0.0
100
AcDbLayout
  1
Layout1
 70
     1
 71
     1
 10
0.0
 20
0.0
 11
12.0
 21
9.0
 12
0.0
 22
0.0
 32
0.0
 14
0.0
 24
0.0
 34
0.0
 15
0.0
 25
0.0
 35
0.0
146
0.0
 13
0.0
 23
0.0
 33
0.0
 16
1.0
 26
0.0
 36
0.0
 17
0.0
 27
1.0
 37
0.0
 76
     0
330
6C
  0
LAYOUT
  5
77
102
{ACAD_REACTORS
330
62
102
}
330
62
100
AcDbPlotSettings
  1

  2

  4

  6

 40
0.0
 41
0.0
 42
0.0
 43
0.0
 44
0.0
 45
0.0
 46
0.0
 47
0.0
 48
0.0
 49
0.0
140
0.0
141
0.0
142
1.0
143
1.0
 70
   688
 72
     0
 73
     0
 74
     5
  7

 75
    16
147
1.0
 76
     0
 77
     2
 78
   300
148
0.0
149
0.0
100
AcDbLayout
  1
Layout2
 70
     1
 71
     2
 10
0.0
 20
0.0
 11
12.0
 21
9.0
 12
0.0
 22
0.0
 32
0.0
 14
0.0
 24
0.0
 34
0.0
 15
0.0
 25
0.0
 35
0.0
146
0.0
 13
0.0
 23
0.0
 33
0.0
 16
1.0
 26
0.0
 36
0.0
 17
0.0
 27
1.0
 37
0.0
 76
     0
330
74
  0
LAYOUT
  5
73
102
{ACAD_REACTORS
330
62
102
}
330
62
100
AcDbPlotSettings
  1

  2

  4

  6

 40
0.0
 41
0.0
 42
0.0
 43
0.0
 44
0.0
 45
0.0
 46
0.0
 47
0.0
 48
0.0
 49
0.0
140
0.0
141
0.0
142
1.0
143
1.0
 70
  1712
 72
     0
 73
     0
 74
     0
  7

 75
     0
147
1.0
 76
     0
 77
     2
 78
   300
148
0.0
149
0.0
100
AcDbLayout
  1
Model
 70
     1
 71
     0
 10
0.0
 20
0.0
 11
12.0
 21
9.0
 12
0.0
 22
0.0
 32
0.0
 14
0.0
 24
0.0
 34
0.0
 15
0.0
 25
0.0
 35
0.0
146
0.0
 13
0.0
 23
0.0
 33
0.0
 16
1.0
 26
0.0
 36
0.0
 17
0.0
 27
1.0
 37
0.0
 76
     0
330
70
  0
MATERIAL
  5
19
102
{ACAD_XDICTIONARY
360
1A
102
}
102
{ACAD_REACTORS
330
10
102
}
330
10
100
AcDbMaterial
  1
ByBlock
 72
     0
 43
0.0208333333333333
 43
0.0
 43
0.0
 43
0.0
 43
0.0
 43
0.0208333333333333
 43
0.0
 43
0.0
 43
0.0
 43
0.0
 43
1.0
 43
0.0
 43
0.0
 43
0.0
 43
0.0
 43
1.0
 77
     0
 47
0.0208333333333333
 47
0.0
 47
0.0
 47
0.0
 47
0.0
 47
0.0208333333333333
 47
0.0
 47
0.0
 47
0.0
 47
0.0
 47
1.0
 47
0.0
 47
0.0
 47
0.0
 47
0.0
 47
1.0
171
     0
 49
0.0208333333333333
 49
0.0
 49
0.0
 49
0.0
 49
0.0
 49
0.0208333333333333
 49
0.0
 49
0.0
 49
0.0
 49
0.0
 49
1.0
 49
0.0
 49
0.0
 49
0.0
 49
0.0
 49
1.0
175
     0
142
0.0208333333333333
142
0.0
142
0.0
142
0.0
142
0.0
142
0.0208333333333333
142
0.0
142
0.0
142
0.0
142
0.0
142
1.0
142
0.0
142
0.0
142
0.0
142
0.0
142
1.0
179
     0
144
0.0208333333333333
144
0.0
144
0.0
144
0.0
144
0.0
144
0.0208333333333333
144
0.0
144
0.0
144
0.0
144
0.0
144
1.0
144
0.0
144
0.0
144
0.0
144
0.0
144
1.0
147
0.0208333333333333
147
0.0
147
0.0
147
0.0
147
0.0
147
0.0208333333333333
147
0.0
147
0.0
147
0.0
147
0.0
147
1.0
147
0.0
147
0.0
147
0.0
147
0.0
147
1.0
  0
MATERIAL
  5
11
102
{ACAD_XDICTIONARY
360
12
102
}
102
{ACAD_REACTORS
330
10
102
}
330
10
100
AcDbMaterial
  1
ByLayer
 72
     0
 43
0.0208333333333333
 43
0.0
 43
0.0
 43
0.0
 43
0.0
 43
0.0208333333333333
 43
0.0
 43
0.0
 43
0.0
 43
0.0
 43
1.0
 43
0.0
 43
0.0
 43
0.0
 43
0.0
 43
1.0
 77
     0
 47
0.0208333333333333
 47
0.0
 47
0.0
 47
0.0
 47
0.0
 47
0.0208333333333333
 47
0.0
 47
0.0
 47
0.0
 47
0.0
 47
1.0
 47
0.0
 47
0.0
 47
0.0
 47
0.0
 47
1.0
171
     0
 49
0.0208333333333333
 49
0.0
 49
0.0
 49
0.0
 49
0.0
 49
0.0208333333333333
 49
0.0
 49
0.0
 49
0.0
 49
0.0
 49
1.0
 49
0.0
 49
0.0
 49
0.0
 49
0.0
 49
1.0
175
     0
142
0.0208333333333333
142
0.0
142
0.0
142
0.0
142
0.0
142
0.0208333333333333
142
0.0
142
0.0
142
0.0
142
0.0
142
1.0
142
0.0
142
0.0
142
0.0
142
0.0
142
1.0
179
     0
144
0.0208333333333333
144
0.0
144
0.0
144
0.0
144
0.0
144
0.0208333333333333
144
0.0
144
0.0
144
0.0
144
0.0
144
1.0
144
0.0
144
0.0
144
0.0
144
0.0
144
1.0
147
0.0208333333333333
147
0.0
147
0.0
147
0.0
147
0.0
147
0.0208333333333333
147
0.0
147
0.0
147
0.0
147
0.0
147
1.0
147
0.0
147
0.0
147
0.0
147
0.0
147
1.0
  0
MATERIAL
  5
21
102
{ACAD_XDICTIONARY
360
22
102
}
102
{ACAD_REACTORS
330
10
102
}
330
10
100
AcDbMaterial
  1
Global
 72
     0
 43
0.0208333333333333
 43
0.0
 43
0.0
 43
0.0
 43
0.0
 43
0.0208333333333333
 43
0.0
 43
0.0
 43
0.0
 43
0.0
 43
1.0
 43
0.0
 43
0.0
 43
0.0
 43
0.0
 43
1.0
 77
     0
 47
0.0208333333333333
 47
0.0
 47
0.0
 47
0.0
 47
0.0
 47
0.0208333333333333
 47
0.0
 47
0.0
 47
0.0
 47
0.0
 47
1.0
 47
0.0
 47
0.0
 47
0.0
 47
0.0
 47
1.0
171
     0
 49
0.0208333333333333
 49
0.0
 49
0.0
 49
0.0
 49
0.0
 49
0.0208333333333333
 49
0.0
 49
0.0
 49
0.0
 49
0.0
 49
1.0
 49
0.0
 49
0.0
 49
0.0
 49
0.0
 49
1.0
175
     0
142
0.0208333333333333
142
0.0
142
0.0
142
0.0
142
0.0
142
0.0208333333333333
142
0.0
142
0.0
142
0.0
142
0.0
142
1.0
142
0.0
142
0.0
142
0.0
142
0.0
142
1.0
179
     0
144
0.0208333333333333
144
0.0
144
0.0
144
0.0
144
0.0
144
0.0208333333333333
144
0.0
144
0.0
144
0.0
144
0.0
144
1.0
144
0.0
144
0.0
144
0.0
144
0.0
144
1.0
147
0.0208333333333333
147
0.0
147
0.0
147
0.0
147
0.0
147
0.0208333333333333
147
0.0
147
0.0
147
0.0
147
0.0
147
1.0
147
0.0
147
0.0
147
0.0
147
0.0
147
1.0
  0
MLEADERSTYLE
  5
67
102
{ACAD_REACTORS
330
66
102
}
330
66
100
AcDbMLeaderStyle
179
     2
170
     2
171
     1
172
     0
 90
        2
 40
0.0
 41
0.0
173
     1
 91
-1056964608
340
5B
 92
       -2
290
     1
 42
0.09
291
     1
 43
0.36
  3
Standard
 44
0.18
300

342
55
174
     1
178
     6
175
     1
176
     0
 93
-1056964608
 45
0.18
292
     0
297
     0
 46
0.18
 94
-1056964608
 47
1.0
 49
1.0
140
1.0
293
     1
141
0.0
294
     1
177
     0
142
1.0
295
     1
296
     0
143
0.125
271
     0
272
     9
273
     9
298
     1
  0
MLINESTYLE
  5
60
102
{ACAD_REACTORS
330
5F
102
}
330
5F
100
AcDbMlineStyle
  2
STANDARD
 70
     0
  3

 62
   256
 51
90.0
 52
90.0
 71
     2
 49
0.5
 62
   256
  6
BYLAYER
 49
-0.5
 62
   256
  6
BYLAYER
  0
ACDBPLACEHOLDER
  5
F
102
{ACAD_REACTORS
330
E
102
}
330
E
  0
SCALE
  5
43
102
{ACAD_REACTORS
330
42
102
}
330
42
100
AcDbScale
 70
     0
300
1:1
140
1.0
141
1.0
290
     1
  0
SCALE
  5
44
102
{ACAD_REACTORS
330
42
102
}
330
42
100
AcDbScale
 70
     0
300
1/128" = 1'-0"
140
0.0078125
141
12.0
290
     0
  0
SCALE
  5
45
102
{ACAD_REACTORS
330
42
102
}
330
42
100
AcDbScale
 70
     0
300
1/64" = 1'-0"
140
0.015625
141
12.0
290
     0
  0
SCALE
  5
46
102
{ACAD_REACTORS
330
42
102
}
330
42
100
AcDbScale
 70
     0
300
1/32" = 1'-0"
140
0.03125
141
12.0
290
     0
  0
SCALE
  5
47
102
{ACAD_REACTORS
330
42
102
}
330
42
100
AcDbScale
 70
     0
300
1/16" = 1'-0"
140
0.0625
141
12.0
290
     0
  0
SCALE
  5
48
102
{ACAD_REACTORS
330
42
102
}
330
42
100
AcDbScale
 70
     0
300
3/32" = 1'-0"
140
0.09375
141
12.0
290
     0
  0
SCALE
  5
49
102
{ACAD_REACTORS
330
42
102
}
330
42
100
AcDbScale
 70
     0
300
1/8" = 1'-0"
140
0.125
141
12.0
290
     0
  0
SCALE
  5
4A
102
{ACAD_REACTORS
330
42
102
}
330
42
100
AcDbScale
 70
     0
300
3/16" = 1'-0"
140
0.1875
141
12.0
290
     0
  0
SCALE
  5
4B
102
{ACAD_REACTORS
330
42
102
}
330
42
100
AcDbScale
 70
     0
300
1/4" = 1'-0"
140
0.25
141
12.0
290
     0
  0
SCALE
  5
4C
102
{ACAD_REACTORS
330
42
102
}
330
42
100
AcDbScale
 70
     0
300
3/8" = 1'-0"
140
0.375
141
12.0
290
     0
  0
SCALE
  5
4D
102
{ACAD_REACTORS
330
42
102
}
330
42
100
AcDbScale
 70
     0
300
1/2" = 1'-0"
140
0.5
141
12.0
290
     0
  0
SCALE
  5
4E
102
{ACAD_REACTORS
330
42
102
}
330
42
100
AcDbScale
 70
     0
300
3/4" = 1'-0"
140
0.75
141
12.0
290
     0
  0
SCALE
  5
4F
102
{ACAD_REACTORS
330
42
102
}
330
42
100
AcDbScale
 70
     0
300
1" = 1'-0"
140
1.0
141
12.0
290
     0
  0
SCALE
  5
50
102
{ACAD_REACTORS
330
42
102
}
330
42
100
AcDbScale
 70
     0
300
1-1/2" = 1'-0"
140
1.5
141
12.0
290
     0
  0
SCALE
  5
51
102
{ACAD_REACTORS
330
42
102
}
330
42
100
AcDbScale
 70
     0
300
3" = 1'-0"
140
3.0
141
12.0
290
     0
  0
SCALE
  5
52
102
{ACAD_REACTORS
330
42
102
}
330
42
100
AcDbScale
 70
     0
300
6" = 1'-0"
140
6.0
141
12.0
290
     0
  0
SCALE
  5
53
102
{ACAD_REACTORS
330
42
102
}
330
42
100
AcDbScale
 70
     0
300
1'-0" = 1'-0"
140
12.0
141
12.0
290
     0
  0
ACDBSECTIONVIEWSTYLE
  5
69
102
{ACAD_REACTORS
330
68
102
}
330
68
100
AcDbModelDocViewStyle
 70
     0
  3
Imperial24
290
     1
300
Imperial24
 90
        0
100
AcDbSectionViewStyle
 70
     0
 71
     0
 90
       78
 71
     1
340
55
 62
   256
 40
0.24
340
0
340
0
 62
   256
 40
0.24
300
I, O, Q, S, X, Z
 40
0.48
 90
        3
 40
0.18
 90
        1
 71
     2
340
5D
 90
       25
 62
   256
340
5D
 90
       50
 62
   256
 40
0.24
 40
0.0
 40
0.24
 71
     3
340
55
 62
   256
 40
0.24
 90
        1
 40
0.75
 90
        1
300
%<\AcVar ViewType \f "%tc1">% %<\AcVar ViewSectionStartId>%-%<\AcVar ViewSectionEndId>%\PSCALE %<\AcVar ViewScale \f "%sn">%
 71
     4
 62
   256
 62
   257
300
ANSI31
 40
1.0
 90
        0
290
     0
290
     0
 90
        6
 40
0.0
 40
1.570796326794896
 40
0.2617993877991494
 40
1.308996938995747
 40
-0.2617993877991494
 40
1.832595714594046
  0
TABLESTYLE
  5
65
102
{ACAD_XDICTIONARY
360
140
102
}
102
{ACAD_REACTORS
330
64
102
}
330
64
100
AcDbTableStyle
280
     0
  3
Standard
 70
     0
 71
     0
 40
0.06
 41
0.06
280
     0
281
     0
  7
Standard
140
0.18
170
     2
 62
     0
 63
     7
283
     0
 90
      512
 91
        0
  1

274
    -2
284
     1
 64
     0
275
    -2
285
     1
 65
     0
276
    -2
286
     1
 66
     0
277
    -2
287
     1
 67
     0
278
    -2
288
     1
 68
     0
279
    -2
289
     1
 69
     0
  7
Standard
140
0.25
170
     5
 62
     0
 63
     7
283
     0
 90
      512
 91
        0
  1

274
    -2
284
     1
 64
     0
275
    -2
285
     1
 65
     0
276
    -2
286
     1
 66
     0
277
    -2
287
     1
 67
     0
278
    -2
288
     1
 68
     0
279
    -2
289
     1
 69
     0
  7
Standard
140
0.18
170
     5
 62
     0
 63
     7
283
     0
 90
      512
 91
        0
  1

274
    -2
284
     1
 64
     0
275
    -2
285
     1
 65
     0
276
    -2
286
     1
 66
     0
277
    -2
287
     1
 67
     0
278
    -2
288
     1
 68
     0
279
    -2
289
     1
 69
     0
  0
VISUALSTYLE
  5
2F
102
{ACAD_REACTORS
330
29
102
}
330
29
100
AcDbVisualStyle
  2
2dWireframe
 70
     4
177
     3
291
     0
 70
    58
 90
        0
176
     1
 90
        2
176
     1
 90
        0
176
     1
 90
        0
176
     1
 40
0.6
176
     1
 40
30.0
176
     1
 62
     7
420
 16777215
176
     1
 90
        1
176
     1
 90
        4
176
     1
 62
     7
176
     1
 62
   257
176
     1
 90
        1
176
     1
 90
        1
176
     1
 40
1.0
176
     1
 90
        0
176
     1
 62
   257
176
     1
 40
1.0
176
     1
 90
        1
176
     1
 90
        6
176
     1
 90
        2
176
     1
 62
     7
176
     1
 90
        5
176
     1
 90
        0
176
     1
 90
        0
176
     1
290
     0
176
     1
 90
        1
176
     1
 40
0.0
176
     1
 90
        0
176
     1
290
     1
176
     1
290
     1
176
     1
290
     0
176
     1
290
     0
176
     1
290
     0
176
     1
290
     0
176
     1
290
     0
176
     1
290
     0
176
     1
290
     0
176
     1
 90
       50
176
     1
 40
0.0
176
     1
 40
1.0
176
     1
 90
        0
176
     1
 62
    18
420
        0
176
     1
 90
       50
176
     1
 90
        3
176
     1
 62
     5
420
      255
176
     1
290
     0
176
     1
 90
       50
176
     1
 90
       50
176
     1
 90
       50
176
     1
290
     0
176
     1
 90
       50
176
     1
 62
   256
176
     0
 40
1.0
176
     0
 90
        2
176
     1
  1
strokes_ogs.tif
176
     1
290
     0
176
     1
 40
1.0
176
     1
 40
1.0
176
     1
  0
VISUALSTYLE
  5
2E
102
{ACAD_REACTORS
330
29
102
}
330
29
100
AcDbVisualStyle
  2
Basic
 70
     7
177
     3
291
     1
 70
    58
 90
        1
176
     1
 90
        0
176
     1
 90
        1
176
     1
 90
        0
176
     1
 40
0.6
176
     1
 40
30.0
176
     1
 62
     7
420
 16777215
176
     1
 90
        0
176
     1
 90
        4
176
     1
 62
     7
176
     1
 62
   257
176
     1
 90
        1
176
     1
 90
        1
176
     1
 40
1.0
176
     1
 90
        8
176
     1
 62
     7
176
     1
 40
1.0
176
     1
 90
        1
176
     1
 90
        6
176
     1
 90
        2
176
     1
 62
     7
176
     1
 90
        5
176
     1
 90
        0
176
     1
 90
        0
176
     1
290
     0
176
     1
 90
        1
176
     1
 40
0.0
176
     1
 90
        0
176
     1
290
     0
176
     1
290
     1
176
     1
290
     1
176
     1
290
     0
176
     1
290
     0
176
     1
290
     0
176
     1
290
     0
176
     1
290
     0
176
     1
290
     0
176
     1
 90
       50
176
     1
 40
0.0
176
     1
 40
1.0
176
     1
 90
        0
176
     1
 62
    18
420
        0
176
     1
 90
       50
176
     1
 90
        3
176
     1
 62
     5
420
      255
176
     1
290
     0
176
     1
 90
       50
176
     1
 90
       50
176
     1
 90
       50
176
     1
290
     0
176
     1
 90
       50
176
     1
 62
   256
176
     0
 40
1.0
176
     0
 90
        2
176
     1
  1
strokes_ogs.tif
176
     1
290
     0
176
     1
 40
1.0
176
     1
 40
1.0
176
     1
  0
VISUALSTYLE
  5
35
102
{ACAD_REACTORS
330
29
102
}
330
29
100
AcDbVisualStyle
  2
Brighten
 70
    12
177
     3
291
     1
 70
    58
 90
        2
176
     1
 90
        2
176
     1
 90
        0
176
     1
 90
        0
176
     1
 40
0.6
176
     1
 40
30.0
176
     1
 62
     7
420
 16777215
176
     1
 90
        1
176
     1
 90
        4
176
     1
 62
     7
176
     1
 62
   257
176
     1
 90
        1
176
     1
 90
        1
176
     1
 40
1.0
176
     1
 90
        8
176
     1
 62
     7
176
     1
 40
1.0
176
     1
 90
        1
176
     1
 90
        6
176
     1
 90
        2
176
     1
 62
     7
176
     1
 90
        5
176
     1
 90
        0
176
     1
 90
        0
176
     1
290
     0
176
     1
 90
        1
176
     1
 40
50.0
176
     1
 90
        0
176
     1
290
     0
176
     1
290
     1
176
     1
290
     1
176
     1
290
     0
176
     1
290
     0
176
     1
290
     0
176
     1
290
     0
176
     1
290
     0
176
     1
290
     0
176
     1
 90
       50
176
     1
 40
0.0
176
     1
 40
1.0
176
     1
 90
        0
176
     1
 62
    18
420
        0
176
     1
 90
       50
176
     1
 90
        3
176
     1
 62
     5
420
      255
176
     1
290
     0
176
     1
 90
       50
176
     1
 90
       50
176
     1
 90
       50
176
     1
290
     0
176
     1
 90
       50
176
     1
 62
   256
176
     0
 40
1.0
176
     0
 90
        2
176
     1
  1
strokes_ogs.tif
176
     1
290
     0
176
     1
 40
1.0
176
     1
 40
1.0
176
     1
  0
VISUALSTYLE
  5
39
102
{ACAD_REACTORS
330
29
102
}
330
29
100
AcDbVisualStyle
  2
ColorChange
 70
    16
177
     3
291
     1
 70
    58
 90
        2
176
     1
 90
        2
176
     1
 90
        3
176
     1
 90
        0
176
     1
 40
0.6
176
     1
 40
30.0
176
     1
 62
     8
420
  8421504
176
     1
 90
        1
176
     1
 90
        4
176
     1
 62
     7
176
     1
 62
   257
176
     1
 90
        1
176
     1
 90
        1
176
     1
 40
1.0
176
     1
 90
        8
176
     1
 62
     8
420
  8421504
176
     1
 40
1.0
176
     1
 90
        1
176
     1
 90
        6
176
     1
 90
        2
176
     1
 62
     7
176
     1
 90
        5
176
     1
 90
        0
176
     1
 90
        0
176
     1
290
     0
176
     1
 90
        1
176
     1
 40
0.0
176
     1
 90
        0
176
     1
290
     0
176
     1
290
     1
176
     1
290
     1
176
     1
290
     0
176
     1
290
     0
176
     1
290
     0
176
     1
290
     0
176
     1
290
     0
176
     1
290
     0
176
     1
 90
       50
176
     1
 40
0.0
176
     1
 40
1.0
176
     1
 90
        0
176
     1
 62
    18
420
        0
176
     1
 90
       50
176
     1
 90
        3
176
     1
 62
     5
420
      255
176
     1
290
     0
176
     1
 90
       50
176
     1
 90
       50
176
     1
 90
       50
176
     1
290
     0
176
     1
 90
       50
176
     1
 62
   256
176
     0
 40
1.0
176
     0
 90
        2
176
     1
  1
strokes_ogs.tif
176
     1
290
     0
176
     1
 40
1.0
176
     1
 40
1.0
176
     1
  0
VISUALSTYLE
  5
32
102
{ACAD_REACTORS
330
29
102
}
330
29
100
AcDbVisualStyle
  2
Conceptual
 70
     9
177
     3
291
     0
 70
    58
 90
        3
176
     1
 90
        2
176
     1
 90
        0
176
     1
 90
        0
176
     1
 40
0.6
176
     1
 40
30.0
176
     1
 62
     7
420
 16777215
176
     1
 90
        2
176
     1
 90
        2
176
     1
 62
     7
176
     1
 62
   257
176
     1
 90
        1
176
     1
 90
        1
176
     1
 40
179.0
176
     1
 90
        8
176
     1
 62
     7
176
     1
 40
1.0
176
     1
 90
        1
176
     1
 90
        6
176
     1
 90
        2
176
     1
 62
     7
176
     1
 90
        3
176
     1
 90
        0
176
     1
 90
        0
176
     1
290
     0
176
     1
 90
        1
176
     1
 40
0.0
176
     1
 90
        0
176
     1
290
     0
176
     1
290
     1
176
     1
290
     1
176
     1
290
     0
176
     1
290
     0
176
     1
290
     0
176
     1
290
     0
176
     1
290
     0
176
     1
290
     0
176
     1
 90
       50
176
     1
 40
0.0
176
     1
 40
1.0
176
     1
 90
        0
176
     1
 62
    18
420
        0
176
     1
 90
       50
176
     1
 90
        3
176
     1
 62
     5
420
      255
176
     1
290
     0
176
     1
 90
       50
176
     1
 90
       50
176
     1
 90
       50
176
     1
290
     0
176
     1
 90
       50
176
     1
 62
   256
176
     0
 40
1.0
176
     0
 90
        2
176
     1
  1
strokes_ogs.tif
176
     1
290
     0
176
     1
 40
1.0
176
     1
 40
1.0
176
     1
  0
VISUALSTYLE
  5
34
102
{ACAD_REACTORS
330
29
102
}
330
29
100
AcDbVisualStyle
  2
Dim
 70
    11
177
     3
291
     1
 70
    58
 90
        2
176
     1
 90
        2
176
     1
 90
        0
176
     1
 90
        0
176
     1
 40
0.6
176
     1
 40
30.0
176
     1
 62
     7
420
 16777215
176
     1
 90
        1
176
     1
 90
        4
176
     1
 62
     7
176
     1
 62
   257
176
     1
 90
        1
176
     1
 90
        1
176
     1
 40
1.0
176
     1
 90
        8
176
     1
 62
     7
176
     1
 40
1.0
176
     1
 90
        1
176
     1
 90
        6
176
     1
 90
        2
176
     1
 62
     7
176
     1
 90
        5
176
     1
 90
        0
176
     1
 90
        0
176
     1
290
     0
176
     1
 90
        1
176
     1
 40
-50.0
176
     1
 90
        0
176
     1
290
     0
176
     1
290
     1
176
     1
290
     1
176
     1
290
     0
176
     1
290
     0
176
     1
290
     0
176
     1
290
     0
176
     1
290
     0
176
     1
290
     0
176
     1
 90
       50
176
     1
 40
0.0
176
     1
 40
1.0
176
     1
 90
        0
176
     1
 62
    18
420
        0
176
     1
 90
       50
176
     1
 90
        3
176
     1
 62
     5
420
      255
176
     1
290
     0
176
     1
 90
       50
176
     1
 90
       50
176
     1
 90
       50
176
     1
290
     0
176
     1
 90
       50
176
     1
 62
   256
176
     0
 40
1.0
176
     0
 90
        2
176
     1
  1
strokes_ogs.tif
176
     1
290
     0
176
     1
 40
1.0
176
     1
 40
1.0
176
     1
  0
VISUALSTYLE
  5
41
102
{ACAD_REACTORS
330
29
102
}
330
29
100
AcDbVisualStyle
  2
EdgeColorOff
 70
    22
177
     3
291
     1
 70
    58
 90
        2
176
     0
 90
        2
176
     0
 90
        0
176
     0
 90
        0
176
     0
 40
0.6
176
     0
 40
30.0
176
     0
 62
     7
420
 16777215
176
     0
 90
        1
176
     0
 90
        4
176
     0
 62
     7
176
     0
 62
   257
176
     0
 90
        1
176
     0
 90
        1
176
     0
 40
1.0
176
     0
 90
        8
176
     2
 62
     7
176
     0
 40
1.0
176
     0
 90
        1
176
     0
 90
        6
176
     0
 90
        2
176
     0
 62
     7
176
     0
 90
        5
176
     0
 90
        0
176
     0
 90
        0
176
     0
290
     0
176
     0
 90
        1
176
     0
 40
0.0
176
     0
 90
        0
176
     0
290
     0
176
     0
290
     1
176
     0
290
     1
176
     0
290
     0
176
     0
290
     0
176
     0
290
     0
176
     0
290
     0
176
     0
290
     0
176
     0
290
     0
176
     0
 90
       50
176
     0
 40
0.0
176
     0
 40
1.0
176
     0
 90
        0
176
     0
 62
    18
420
        0
176
     0
 90
       50
176
     0
 90
        3
176
     0
 62
     5
420
      255
176
     0
290
     0
176
     0
 90
       50
176
     0
 90
       50
176
     0
 90
       50
176
     0
290
     0
176
     0
 90
       50
176
     0
 62
   256
176
     0
 40
1.0
176
     0
 90
        2
176
     0
  1
strokes_ogs.tif
176
     0
290
     0
176
     0
 40
1.0
176
     0
 40
1.0
176
     0
  0
VISUALSTYLE
  5
38
102
{ACAD_REACTORS
330
29
102
}
330
29
100
AcDbVisualStyle
  2
Facepattern
 70
    15
177
     3
291
     1
 70
    58
 90
        2
176
     1
 90
        2
176
     1
 90
        0
176
     1
 90
        0
176
     1
 40
0.6
176
     1
 40
30.0
176
     1
 62
     7
420
 16777215
176
     1
 90
        1
176
     1
 90
        4
176
     1
 62
     7
176
     1
 62
   257
176
     1
 90
        1
176
     1
 90
        1
176
     1
 40
1.0
176
     1
 90
        8
176
     1
 62
     7
176
     1
 40
1.0
176
     1
 90
        1
176
     1
 90
        6
176
     1
 90
        2
176
     1
 62
     7
176
     1
 90
        5
176
     1
 90
        0
176
     1
 90
        0
176
     1
290
     0
176
     1
 90
        1
176
     1
 40
0.0
176
     1
 90
        0
176
     1
290
     0
176
     1
290
     1
176
     1
290
     1
176
     1
290
     0
176
     1
290
     0
176
     1
290
     0
176
     1
290
     0
176
     1
290
     0
176
     1
290
     0
176
     1
 90
       50
176
     1
 40
0.0
176
     1
 40
1.0
176
     1
 90
        0
176
     1
 62
    18
420
        0
176
     1
 90
       50
176
     1
 90
        3
176
     1
 62
     5
420
      255
176
     1
290
     0
176
     1
 90
       50
176
     1
 90
       50
176
     1
 90
       50
176
     1
290
     0
176
     1
 90
       50
176
     1
 62
   256
176
     0
 40
1.0
176
     0
 90
        2
176
     1
  1
strokes_ogs.tif
176
     1
290
     0
176
     1
 40
1.0
176
     1
 40
1.0
176
     1
  0
VISUALSTYLE
  5
2A
102
{ACAD_REACTORS
330
29
102
}
330
29
100
AcDbVisualStyle
  2
Flat
 70
     0
177
     3
291
     1
 70
    58
 90
        2
176
     1
 90
        1
176
     1
 90
        1
176
     1
 90
        2
176
     1
 40
0.6
176
     1
 40
30.0
176
     1
 62
     7
420
 16777215
176
     1
 90
        0
176
     1
 90
        0
176
     1
 62
     7
176
     1
 62
   257
176
     1
 90
        1
176
     1
 90
        1
176
     1
 40
1.0
176
     1
 90
        8
176
     1
 62
     7
176
     1
 40
1.0
176
     1
 90
        1
176
     1
 90
        6
176
     1
 90
        2
176
     1
 62
     7
176
     1
 90
        5
176
     1
 90
        0
176
     1
 90
        0
176
     1
290
     0
176
     1
 90
       13
176
     1
 40
0.0
176
     1
 90
        0
176
     1
290
     0
176
     1
290
     1
176
     1
290
     1
176
     1
290
     0
176
     1
290
     0
176
     1
290
     0
176
     1
290
     0
176
     1
290
     0
176
     1
290
     0
176
     1
 90
       50
176
     1
 40
0.0
176
     1
 40
1.0
176
     1
 90
        0
176
     1
 62
    18
420
        0
176
     1
 90
       50
176
     1
 90
        3
176
     1
 62
     5
420
      255
176
     1
290
     0
176
     1
 90
       50
176
     1
 90
       50
176
     1
 90
       50
176
     1
290
     0
176
     1
 90
       50
176
     1
 62
   256
176
     0
 40
1.0
176
     0
 90
        2
176
     1
  1
strokes_ogs.tif
176
     1
290
     0
176
     1
 40
1.0
176
     1
 40
1.0
176
     1
  0
VISUALSTYLE
  5
2B
102
{ACAD_REACTORS
330
29
102
}
330
29
100
AcDbVisualStyle
  2
FlatWithEdges
 70
     1
177
     3
291
     1
 70
    58
 90
        2
176
     1
 90
        1
176
     1
 90
        1
176
     1
 90
        2
176
     1
 40
0.6
176
     1
 40
30.0
176
     1
 62
     7
420
 16777215
176
     1
 90
        1
176
     1
 90
        0
176
     1
 62
     7
176
     1
 62
   257
176
     1
 90
        1
176
     1
 90
        1
176
     1
 40
1.0
176
     1
 90
        0
176
     1
 62
   257
176
     1
 40
1.0
176
     1
 90
        1
176
     1
 90
        6
176
     1
 90
        2
176
     1
 62
     7
176
     1
 90
        5
176
     1
 90
        0
176
     1
 90
        0
176
     1
290
     0
176
     1
 90
       13
176
     1
 40
0.0
176
     1
 90
        0
176
     1
290
     0
176
     1
290
     1
176
     1
290
     1
176
     1
290
     0
176
     1
290
     0
176
     1
290
     0
176
     1
290
     0
176
     1
290
     0
176
     1
290
     0
176
     1
 90
       50
176
     1
 40
0.0
176
     1
 40
1.0
176
     1
 90
        0
176
     1
 62
    18
420
        0
176
     1
 90
       50
176
     1
 90
        3
176
     1
 62
     5
420
      255
176
     1
290
     0
176
     1
 90
       50
176
     1
 90
       50
176
     1
 90
       50
176
     1
290
     0
176
     1
 90
       50
176
     1
 62
   256
176
     0
 40
1.0
176
     0
 90
        2
176
     1
  1
strokes_ogs.tif
176
     1
290
     0
176
     1
 40
1.0
176
     1
 40
1.0
176
     1
  0
VISUALSTYLE
  5
2C
102
{ACAD_REACTORS
330
29
102
}
330
29
100
AcDbVisualStyle
  2
Gouraud
 70
     2
177
     3
291
     1
 70
    58
 90
        2
176
     1
 90
        2
176
     1
 90
        1
176
     1
 90
        2
176
     1
 40
0.6
176
     1
 40
30.0
176
     1
 62
     7
420
 16777215
176
     1
 90
        0
176
     1
 90
        0
176
     1
 62
     7
176
     1
 62
   257
176
     1
 90
        1
176
     1
 90
        1
176
     1
 40
1.0
176
     1
 90
        0
176
     1
 62
     7
176
     1
 40
1.0
176
     1
 90
        1
176
     1
 90
        6
176
     1
 90
        2
176
     1
 62
     7
176
     1
 90
        5
176
     1
 90
        0
176
     1
 90
        0
176
     1
290
     0
176
     1
 90
       13
176
     1
 40
0.0
176
     1
 90
        0
176
     1
290
     0
176
     1
290
     1
176
     1
290
     1
176
     1
290
     0
176
     1
290
     0
176
     1
290
     0
176
     1
290
     0
176
     1
290
     0
176
     1
290
     0
176
     1
 90
       50
176
     1
 40
0.0
176
     1
 40
1.0
176
     1
 90
        0
176
     1
 62
    18
420
        0
176
     1
 90
       50
176
     1
 90
        3
176
     1
 62
     5
420
      255
176
     1
290
     0
176
     1
 90
       50
176
     1
 90
       50
176
     1
 90
       50
176
     1
290
     0
176
     1
 90
       50
176
     1
 62
   256
176
     0
 40
1.0
176
     0
 90
        2
176
     1
  1
strokes_ogs.tif
176
     1
290
     0
176
     1
 40
1.0
176
     1
 40
1.0
176
     1
  0
VISUALSTYLE
  5
2D
102
{ACAD_REACTORS
330
29
102
}
330
29
100
AcDbVisualStyle
  2
GouraudWithEdges
 70
     3
177
     3
291
     1
 70
    58
 90
        2
176
     1
 90
        2
176
     1
 90
        1
176
     1
 90
        2
176
     1
 40
0.6
176
     1
 40
30.0
176
     1
 62
     7
420
 16777215
176
     1
 90
        1
176
     1
 90
        0
176
     1
 62
     7
176
     1
 62
   257
176
     1
 90
        1
176
     1
 90
        1
176
     1
 40
1.0
176
     1
 90
        0
176
     1
 62
   257
176
     1
 40
1.0
176
     1
 90
        1
176
     1
 90
        6
176
     1
 90
        2
176
     1
 62
     7
176
     1
 90
        5
176
     1
 90
        0
176
     1
 90
        0
176
     1
290
     0
176
     1
 90
       13
176
     1
 40
0.0
176
     1
 90
        0
176
     1
290
     0
176
     1
290
     1
176
     1
290
     1
176
     1
290
     0
176
     1
290
     0
176
     1
290
     0
176
     1
290
     0
176
     1
290
     0
176
     1
290
     0
176
     1
 90
       50
176
     1
 40
0.0
176
     1
 40
1.0
176
     1
 90
        0
176
     1
 62
    18
420
        0
176
     1
 90
       50
176
     1
 90
        3
176
     1
 62
     5
420
      255
176
     1
290
     0
176
     1
 90
       50
176
     1
 90
       50
176
     1
 90
       50
176
     1
290
     0
176
     1
 90
       50
176
     1
 62
   256
176
     0
 40
1.0
176
     0
 90
        2
176
     1
  1
strokes_ogs.tif
176
     1
290
     0
176
     1
 40
1.0
176
     1
 40
1.0
176
     1
  0
VISUALSTYLE
  5
31
102
{ACAD_REACTORS
330
29
102
}
330
29
100
AcDbVisualStyle
  2
Hidden
 70
     6
177
     3
291
     0
 70
    58
 90
        1
176
     1
 90
        2
176
     1
 90
        2
176
     1
 90
        0
176
     1
 40
0.6
176
     1
 40
30.0
176
     1
 62
     7
420
 16777215
176
     1
 90
        2
176
     1
 90
        2
176
     1
 62
     7
176
     1
 62
   257
176
     1
 90
        2
176
     1
 90
        1
176
     1
 40
40.0
176
     1
 90
        0
176
     1
 62
   257
176
     1
 40
1.0
176
     1
 90
        1
176
     1
 90
        6
176
     1
 90
        2
176
     1
 62
     7
176
     1
 90
        3
176
     1
 90
        0
176
     1
 90
        0
176
     1
290
     0
176
     1
 90
        1
176
     1
 40
0.0
176
     1
 90
        0
176
     1
290
     0
176
     1
290
     1
176
     1
290
     1
176
     1
290
     0
176
     1
290
     0
176
     1
290
     0
176
     1
290
     0
176
     1
290
     0
176
     1
290
     0
176
     1
 90
       50
176
     1
 40
0.0
176
     1
 40
1.0
176
     1
 90
        0
176
     1
 62
    18
420
        0
176
     1
 90
       50
176
     1
 90
        3
176
     1
 62
     5
420
      255
176
     1
290
     0
176
     1
 90
       50
176
     1
 90
       50
176
     1
 90
       50
176
     1
290
     0
176
     1
 90
       50
176
     1
 62
   256
176
     0
 40
1.0
176
     0
 90
        2
176
     1
  1
strokes_ogs.tif
176
     1
290
     0
176
     1
 40
1.0
176
     1
 40
1.0
176
     1
  0
VISUALSTYLE
  5
3F
102
{ACAD_REACTORS
330
29
102
}
330
29
100
AcDbVisualStyle
  2
JitterOff
 70
    20
177
     3
291
     1
 70
    58
 90
        2
176
     0
 90
        2
176
     0
 90
        0
176
     0
 90
        0
176
     0
 40
0.6
176
     0
 40
30.0
176
     0
 62
     7
420
 16777215
176
     0
 90
        1
176
     0
 90
        4
176
     0
 62
     7
176
     0
 62
   257
176
     0
 90
        1
176
     0
 90
        1
176
     0
 40
1.0
176
     0
 90
       10
176
     2
 62
     7
176
     0
 40
1.0
176
     0
 90
        1
176
     0
 90
        6
176
     0
 90
        2
176
     0
 62
     7
176
     0
 90
        5
176
     0
 90
        0
176
     0
 90
        0
176
     0
290
     0
176
     0
 90
        1
176
     0
 40
0.0
176
     0
 90
        0
176
     0
290
     0
176
     0
290
     1
176
     0
290
     1
176
     0
290
     0
176
     0
290
     0
176
     0
290
     0
176
     0
290
     0
176
     0
290
     0
176
     0
290
     0
176
     0
 90
       50
176
     0
 40
0.0
176
     0
 40
1.0
176
     0
 90
        0
176
     0
 62
    18
420
        0
176
     0
 90
       50
176
     0
 90
        3
176
     0
 62
     5
420
      255
176
     0
290
     0
176
     0
 90
       50
176
     0
 90
       50
176
     0
 90
       50
176
     0
290
     0
176
     0
 90
       50
176
     0
 62
   256
176
     0
 40
1.0
176
     0
 90
        2
176
     0
  1
strokes_ogs.tif
176
     0
290
     0
176
     0
 40
1.0
176
     0
 40
1.0
176
     0
  0
VISUALSTYLE
  5
37
102
{ACAD_REACTORS
330
29
102
}
330
29
100
AcDbVisualStyle
  2
Linepattern
 70
    14
177
     3
291
     1
 70
    58
 90
        2
176
     1
 90
        2
176
     1
 90
        0
176
     1
 90
        0
176
     1
 40
0.6
176
     1
 40
30.0
176
     1
 62
     7
420
 16777215
176
     1
 90
        1
176
     1
 90
        4
176
     1
 62
     7
176
     1
 62
   257
176
     1
 90
        7
176
     1
 90
        7
176
     1
 40
1.0
176
     1
 90
        8
176
     1
 62
     7
176
     1
 40
1.0
176
     1
 90
        1
176
     1
 90
        6
176
     1
 90
        2
176
     1
 62
     7
176
     1
 90
        5
176
     1
 90
        0
176
     1
 90
        0
176
     1
290
     0
176
     1
 90
        1
176
     1
 40
0.0
176
     1
 90
        0
176
     1
290
     0
176
     1
290
     1
176
     1
290
     1
176
     1
290
     0
176
     1
290
     0
176
     1
290
     0
176
     1
290
     0
176
     1
290
     0
176
     1
290
     0
176
     1
 90
       50
176
     1
 40
0.0
176
     1
 40
1.0
176
     1
 90
        0
176
     1
 62
    18
420
        0
176
     1
 90
       50
176
     1
 90
        3
176
     1
 62
     5
420
      255
176
     1
290
     0
176
     1
 90
       50
176
     1
 90
       50
176
     1
 90
       50
176
     1
290
     0
176
     1
 90
       50
176
     1
 62
   256
176
     0
 40
1.0
176
     0
 90
        2
176
     1
  1
strokes_ogs.tif
176
     1
290
     0
176
     1
 40
1.0
176
     1
 40
1.0
176
     1
  0
VISUALSTYLE
  5
40
102
{ACAD_REACTORS
330
29
102
}
330
29
100
AcDbVisualStyle
  2
OverhangOff
 70
    21
177
     3
291
     1
 70
    58
 90
        2
176
     0
 90
        2
176
     0
 90
        0
176
     0
 90
        0
176
     0
 40
0.6
176
     0
 40
30.0
176
     0
 62
     7
420
 16777215
176
     0
 90
        1
176
     0
 90
        4
176
     0
 62
     7
176
     0
 62
   257
176
     0
 90
        1
176
     0
 90
        1
176
     0
 40
1.0
176
     0
 90
        9
176
     2
 62
     7
176
     0
 40
1.0
176
     0
 90
        1
176
     0
 90
        6
176
     0
 90
        2
176
     0
 62
     7
176
     0
 90
        5
176
     0
 90
        0
176
     0
 90
        0
176
     0
290
     0
176
     0
 90
        1
176
     0
 40
0.0
176
     0
 90
        0
176
     0
290
     0
176
     0
290
     1
176
     0
290
     1
176
     0
290
     0
176
     0
290
     0
176
     0
290
     0
176
     0
290
     0
176
     0
290
     0
176
     0
290
     0
176
     0
 90
       50
176
     0
 40
0.0
176
     0
 40
1.0
176
     0
 90
        0
176
     0
 62
    18
420
        0
176
     0
 90
       50
176
     0
 90
        3
176
     0
 62
     5
420
      255
176
     0
290
     0
176
     0
 90
       50
176
     0
 90
       50
176
     0
 90
       50
176
     0
290
     0
176
     0
 90
       50
176
     0
 62
   256
176
     0
 40
1.0
176
     0
 90
        2
176
     0
  1
strokes_ogs.tif
176
     0
290
     0
176
     0
 40
1.0
176
     0
 40
1.0
176
     0
  0
VISUALSTYLE
  5
33
102
{ACAD_REACTORS
330
29
102
}
330
29
100
AcDbVisualStyle
  2
Realistic
 70
     8
177
     3
291
     0
 70
    58
 90
        2
176
     1
 90
        3
176
     1
 90
        0
176
     1
 90
        2
176
     1
 40
0.6
176
     1
 40
30.0
176
     1
 62
     7
420
 16777215
176
     1
 90
        0
176
     1
 90
        0
176
     1
 62
     7
176
     1
 62
   257
176
     1
 90
        1
176
     1
 90
        1
176
     1
 40
1.0
176
     1
 90
        8
176
     1
 62
   257
176
     1
 40
1.0
176
     1
 90
        1
176
     1
 90
        6
176
     1
 90
        2
176
     1
 62
     7
176
     1
 90
        3
176
     1
 90
        0
176
     1
 90
        0
176
     1
290
     0
176
     1
 90
       13
176
     1
 40
0.0
176
     1
 90
        0
176
     1
290
     0
176
     1
290
     1
176
     1
290
     1
176
     1
290
     0
176
     1
290
     0
176
     1
290
     0
176
     1
290
     0
176
     1
290
     0
176
     1
290
     0
176
     1
 90
       50
176
     1
 40
0.0
176
     1
 40
1.0
176
     1
 90
        0
176
     1
 62
    18
420
        0
176
     1
 90
       50
176
     1
 90
        3
176
     1
 62
     5
420
      255
176
     1
290
     0
176
     1
 90
       50
176
     1
 90
       50
176
     1
 90
       50
176
     1
290
     0
176
     1
 90
       50
176
     1
 62
   256
176
     0
 40
1.0
176
     0
 90
        2
176
     1
  1
strokes_ogs.tif
176
     1
290
     0
176
     1
 40
1.0
176
     1
 40
1.0
176
     1
  0
VISUALSTYLE
  5
3E
102
{ACAD_REACTORS
330
29
102
}
330
29
100
AcDbVisualStyle
  2
Shaded
 70
    27
177
     3
291
     0
 70
    58
 90
        2
176
     1
 90
        2
176
     1
 90
        1
176
     1
 90
        2
176
     1
 40
0.6
176
     1
 40
30.0
176
     1
 62
     7
420
 16777215
176
     1
 90
        0
176
     1
 90
        4
176
     1
 62
     7
176
     1
 62
   257
176
     1
 90
        1
176
     1
 90
        1
176
     1
 40
1.0
176
     1
 90
        8
176
     1
 62
   257
176
     1
 40
1.0
176
     1
 90
        1
176
     1
 90
        6
176
     1
 90
        2
176
     1
 62
     8
420
  7895160
176
     1
 90
        3
176
     1
 90
        0
176
     1
 90
        0
176
     1
290
     0
176
     1
 90
        5
176
     1
 40
0.0
176
     1
 90
        0
176
     1
290
     0
176
     1
290
     1
176
     1
290
     1
176
     1
290
     0
176
     1
290
     0
176
     1
290
     0
176
     1
290
     0
176
     1
290
     0
176
     1
290
     0
176
     1
 90
       50
176
     1
 40
0.0
176
     1
 40
1.0
176
     1
 90
        0
176
     1
 62
    18
420
        0
176
     1
 90
       50
176
     1
 90
        3
176
     1
 62
     5
420
      255
176
     1
290
     0
176
     1
 90
       50
176
     1
 90
       50
176
     1
 90
       50
176
     1
290
     0
176
     1
 90
       50
176
     1
 62
   256
176
     0
 40
1.0
176
     0
 90
        2
176
     1
  1
strokes_ogs.tif
176
     1
290
     0
176
     1
 40
1.0
176
     1
 40
1.0
176
     1
  0
VISUALSTYLE
  5
3D
102
{ACAD_REACTORS
330
29
102
}
330
29
100
AcDbVisualStyle
  2
Shaded with edges
 70
    26
177
     3
291
     0
 70
    58
 90
        2
176
     1
 90
        2
176
     1
 90
        1
176
     1
 90
        2
176
     1
 40
0.6
176
     1
 40
30.0
176
     1
 62
     7
420
 16777215
176
     1
 90
        1
176
     1
 90
        2
176
     1
 62
     7
176
     1
 62
   257
176
     1
 90
        2
176
     1
 90
        1
176
     1
 40
1.0
176
     1
 90
        8
176
     1
 62
   257
176
     1
 40
1.0
176
     1
 90
        1
176
     1
 90
        6
176
     1
 90
        2
176
     1
 62
     7
176
     1
 90
        3
176
     1
 90
        0
176
     1
 90
        0
176
     1
290
     0
176
     1
 90
        5
176
     1
 40
0.0
176
     1
 90
        0
176
     1
290
     0
176
     1
290
     1
176
     1
290
     1
176
     1
290
     0
176
     1
290
     0
176
     1
290
     0
176
     1
290
     0
176
     1
290
     0
176
     1
290
     0
176
     1
 90
       50
176
     1
 40
0.0
176
     1
 40
1.0
176
     1
 90
        0
176
     1
 62
    18
420
        0
176
     1
 90
       50
176
     1
 90
        3
176
     1
 62
     5
420
      255
176
     1
290
     0
176
     1
 90
       50
176
     1
 90
       50
176
     1
 90
       50
176
     1
290
     0
176
     1
 90
       50
176
     1
 62
   256
176
     0
 40
1.0
176
     0
 90
        2
176
     1
  1
strokes_ogs.tif
176
     1
290
     0
176
     1
 40
1.0
176
     1
 40
1.0
176
     1
  0
VISUALSTYLE
  5
3A
102
{ACAD_REACTORS
330
29
102
}
330
29
100
AcDbVisualStyle
  2
Shades of Gray
 70
    23
177
     3
291
     0
 70
    58
 90
        2
176
     1
 90
        2
176
     1
 90
        3
176
     1
 90
        0
176
     1
 40
0.6
176
     1
 40
30.0
176
     1
 62
     7
420
 16777215
176
     1
 90
        2
176
     1
 90
        2
176
     1
 62
     7
176
     1
 62
     7
176
     1
 90
        1
176
     1
 90
        1
176
     1
 40
40.0
176
     1
 90
        8
176
     1
 62
     7
176
     1
 40
1.0
176
     1
 90
        1
176
     1
 90
        6
176
     1
 90
        2
176
     1
 62
     7
176
     1
 90
        3
176
     1
 90
        0
176
     1
 90
        0
176
     1
290
     0
176
     1
 90
        1
176
     1
 40
0.0
176
     1
 90
        0
176
     1
290
     0
176
     1
290
     1
176
     1
290
     1
176
     1
290
     0
176
     1
290
     0
176
     1
290
     0
176
     1
290
     0
176
     1
290
     0
176
     1
290
     0
176
     1
 90
       50
176
     1
 40
0.0
176
     1
 40
1.0
176
     1
 90
        0
176
     1
 62
    18
420
        0
176
     1
 90
       50
176
     1
 90
        3
176
     1
 62
     5
420
      255
176
     1
290
     0
176
     1
 90
       50
176
     1
 90
       50
176
     1
 90
       50
176
     1
290
     0
176
     1
 90
       50
176
     1
 62
   256
176
     0
 40
1.0
176
     0
 90
        2
176
     1
  1
strokes_ogs.tif
176
     1
290
     0
176
     1
 40
1.0
176
     1
 40
1.0
176
     1
  0
VISUALSTYLE
  5
3B
102
{ACAD_REACTORS
330
29
102
}
330
29
100
AcDbVisualStyle
  2
Sketchy
 70
    24
177
     3
291
     0
 70
    58
 90
        1
176
     1
 90
        2
176
     1
 90
        2
176
     1
 90
        0
176
     1
 40
0.6
176
     1
 40
30.0
176
     1
 62
     7
420
 16777215
176
     1
 90
        2
176
     1
 90
        2
176
     1
 62
     7
176
     1
 62
     7
176
     1
 90
        1
176
     1
 90
        1
176
     1
 40
40.0
176
     1
 90
       11
176
     1
 62
     7
176
     1
 40
1.0
176
     1
 90
        1
176
     1
 90
        6
176
     1
 90
        2
176
     1
 62
     7
176
     1
 90
        6
176
     1
 90
        0
176
     1
 90
        0
176
     1
290
     0
176
     1
 90
        1
176
     1
 40
0.0
176
     1
 90
        0
176
     1
290
     0
176
     1
290
     1
176
     1
290
     1
176
     1
290
     0
176
     1
290
     0
176
     1
290
     0
176
     1
290
     0
176
     1
290
     0
176
     1
290
     0
176
     1
 90
       50
176
     1
 40
0.0
176
     1
 40
1.0
176
     1
 90
        0
176
     1
 62
    18
420
        0
176
     1
 90
       50
176
     1
 90
        3
176
     1
 62
     5
420
      255
176
     1
290
     0
176
     1
 90
       50
176
     1
 90
       50
176
     1
 90
       50
176
     1
290
     0
176
     1
 90
       50
176
     1
 62
   256
176
     0
 40
1.0
176
     0
 90
        2
176
     1
  1
strokes_ogs.tif
176
     1
290
     0
176
     1
 40
1.0
176
     1
 40
1.0
176
     1
  0
VISUALSTYLE
  5
36
102
{ACAD_REACTORS
330
29
102
}
330
29
100
AcDbVisualStyle
  2
Thicken
 70
    13
177
     3
291
     1
 70
    58
 90
        2
176
     1
 90
        2
176
     1
 90
        0
176
     1
 90
        0
176
     1
 40
0.6
176
     1
 40
30.0
176
     1
 62
     7
420
 16777215
176
     1
 90
        1
176
     1
 90
        4
176
     1
 62
     7
176
     1
 62
   257
176
     1
 90
        1
176
     1
 90
        1
176
     1
 40
1.0
176
     1
 90
       12
176
     1
 62
     7
176
     1
 40
1.0
176
     1
 90
        1
176
     1
 90
        6
176
     1
 90
        2
176
     1
 62
     7
176
     1
 90
        5
176
     1
 90
        0
176
     1
 90
        0
176
     1
290
     0
176
     1
 90
        1
176
     1
 40
0.0
176
     1
 90
        0
176
     1
290
     0
176
     1
290
     1
176
     1
290
     1
176
     1
290
     0
176
     1
290
     0
176
     1
290
     0
176
     1
290
     0
176
     1
290
     0
176
     1
290
     0
176
     1
 90
       50
176
     1
 40
0.0
176
     1
 40
1.0
176
     1
 90
        0
176
     1
 62
    18
420
        0
176
     1
 90
       50
176
     1
 90
        3
176
     1
 62
     5
420
      255
176
     1
290
     0
176
     1
 90
       50
176
     1
 90
       50
176
     1
 90
       50
176
     1
290
     0
176
     1
 90
       50
176
     1
 62
   256
176
     0
 40
1.0
176
     0
 90
        2
176
     1
  1
strokes_ogs.tif
176
     1
290
     0
176
     1
 40
1.0
176
     1
 40
1.0
176
     1
  0
VISUALSTYLE
  5
30
102
{ACAD_REACTORS
330
29
102
}
330
29
100
AcDbVisualStyle
  2
Wireframe
 70
     5
177
     3
291
     0
 70
    58
 90
        0
176
     1
 90
        2
176
     1
 90
        0
176
     1
 90
        0
176
     1
 40
0.6
176
     1
 40
30.0
176
     1
 62
     7
420
 16777215
176
     1
 90
        1
176
     1
 90
        4
176
     1
 62
     7
176
     1
 62
   257
176
     1
 90
        1
176
     1
 90
        1
176
     1
 40
1.0
176
     1
 90
        0
176
     1
 62
   257
176
     1
 40
1.0
176
     1
 90
        1
176
     1
 90
        6
176
     1
 90
        2
176
     1
 62
     7
176
     1
 90
        3
176
     1
 90
        0
176
     1
 90
        0
176
     1
290
     0
176
     1
 90
        1
176
     1
 40
0.0
176
     1
 90
        0
176
     1
290
     0
176
     1
290
     1
176
     1
290
     1
176
     1
290
     0
176
     1
290
     0
176
     1
290
     0
176
     1
290
     0
176
     1
290
     0
176
     1
290
     0
176
     1
 90
       50
176
     1
 40
0.0
176
     1
 40
1.0
176
     1
 90
        0
176
     1
 62
    18
420
        0
176
     1
 90
       50
176
     1
 90
        3
176
     1
 62
     5
420
      255
176
     1
290
     0
176
     1
 90
       50
176
     1
 90
       50
176
     1
 90
       50
176
     1
290
     0
176
     1
 90
       50
176
     1
 62
   256
176
     0
 40
1.0
176
     0
 90
        2
176
     1
  1
strokes_ogs.tif
176
     1
290
     0
176
     1
 40
1.0
176
     1
 40
1.0
176
     1
  0
VISUALSTYLE
  5
3C
102
{ACAD_REACTORS
330
29
102
}
330
29
100
AcDbVisualStyle
  2
X-Ray
 70
    25
177
     3
291
     0
 70
    58
 90
        2
176
     1
 90
        2
176
     1
 90
        1
176
     1
 90
        1
176
     1
 40
0.5
176
     1
 40
30.0
176
     1
 62
     7
420
 16777215
176
     1
 90
        1
176
     1
 90
        0
176
     1
 62
     7
176
     1
 62
   257
176
     1
 90
        1
176
     1
 90
        1
176
     1
 40
1.0
176
     1
 90
        8
176
     1
 62
     7
176
     1
 40
1.0
176
     1
 90
        1
176
     1
 90
        6
176
     1
 90
        2
176
     1
 62
     7
176
     1
 90
        3
176
     1
 90
        0
176
     1
 90
        0
176
     1
290
     0
176
     1
 90
       13
176
     1
 40
0.0
176
     1
 90
        0
176
     1
290
     0
176
     1
290
     1
176
     1
290
     1
176
     1
290
     0
176
     1
290
     0
176
     1
290
     0
176
     1
290
     0
176
     1
290
     0
176
     1
290
     0
176
     1
 90
       50
176
     1
 40
0.0
176
     1
 40
1.0
176
     1
 90
        0
176
     1
 62
    18
420
        0
176
     1
 90
       50
176
     1
 90
        3
176
     1
 62
     5
420
      255
176
     1
290
     0
176
     1
 90
       50
176
     1
 90
       50
176
     1
 90
       50
176
     1
290
     0
176
     1
 90
       50
176
     1
 62
   256
176
     0
 40
1.0
176
     0
 90
        2
176
     1
  1
strokes_ogs.tif
176
     1
290
     0
176
     1
 40
1.0
176
     1
 40
1.0
176
     1
  0
DICTIONARYVAR
  5
13F
102
{ACAD_REACTORS
330
13A
102
}
330
13A
100
DictionaryVariables
280
     0
  1
1:1
  0
DICTIONARYVAR
  5
13C
102
{ACAD_REACTORS
330
13A
102
}
330
13A
100
DictionaryVariables
280
     0
  1
STANDARD
  0
DICTIONARYVAR
  5
13B
102
{ACAD_REACTORS
330
13A
102
}
330
13A
100
DictionaryVariables
280
     0
  1
STANDARD
  0
DICTIONARYVAR
  5
13D
102
{ACAD_REACTORS
330
13A
102
}
330
13A
100
DictionaryVariables
280
     0
  1
Imperial24
  0
DICTIONARYVAR
  5
13E
102
{ACAD_REACTORS
330
13A
102
}
330
13A
100
DictionaryVariables
280
     0
  1
Imperial24
  0
DICTIONARY
  5
1A
330
19
100
AcDbDictionary
280
     1
281
     1
  3
BUMPTILE
360
1C
  3
DIFFUSETILE
360
1B
  3
OPACITYTILE
360
1F
  3
REFLECTIONTILE
360
1E
  3
REFRACTIONTILE
360
20
  3
SPECULARTILE
360
1D
  0
DICTIONARY
  5
12
330
11
100
AcDbDictionary
280
     1
281
     1
  3
BUMPTILE
360
14
  3
DIFFUSETILE
360
13
  3
OPACITYTILE
360
17
  3
REFLECTIONTILE
360
16
  3
REFRACTIONTILE
360
18
  3
SPECULARTILE
360
15
  0
DICTIONARY
  5
22
330
21
100
AcDbDictionary
280
     1
281
     1
  3
BUMPTILE
360
24
  3
DIFFUSETILE
360
23
  3
OPACITYTILE
360
27
  3
REFLECTIONTILE
360
26
  3
REFRACTIONTILE
360
28
  3
SPECULARTILE
360
25
  0
DICTIONARY
  5
140
330
65
100
AcDbDictionary
280
     1
281
     1
  3
ACAD_ROUNDTRIP_2008_TABLESTYLE_CELLSTYLEMAP
360
141
  0
XRECORD
  5
1C
102
{ACAD_REACTORS
330
1A
102
}
330
1A
100
AcDbXrecord
280
     1
270
     1
271
     1
  0
XRECORD
  5
1B
102
{ACAD_REACTORS
330
1A
102
}
330
1A
100
AcDbXrecord
280
     1
270
     1
271
     1
  0
XRECORD
  5
1F
102
{ACAD_REACTORS
330
1A
102
}
330
1A
100
AcDbXrecord
280
     1
270
     1
271
     1
  0
XRECORD
  5
1E
102
{ACAD_REACTORS
330
1A
102
}
330
1A
100
AcDbXrecord
280
     1
270
     1
271
     1
  0
XRECORD
  5
20
102
{ACAD_REACTORS
330
1A
102
}
330
1A
100
AcDbXrecord
280
     1
270
     1
271
     1
  0
XRECORD
  5
1D
102
{ACAD_REACTORS
330
1A
102
}
330
1A
100
AcDbXrecord
280
     1
270
     1
271
     1
  0
XRECORD
  5
14
102
{ACAD_REACTORS
330
12
102
}
330
12
100
AcDbXrecord
280
     1
270
     1
271
     1
  0
XRECORD
  5
13
102
{ACAD_REACTORS
330
12
102
}
330
12
100
AcDbXrecord
280
     1
270
     1
271
     1
  0
XRECORD
  5
17
102
{ACAD_REACTORS
330
12
102
}
330
12
100
AcDbXrecord
280
     1
270
     1
271
     1
  0
XRECORD
  5
16
102
{ACAD_REACTORS
330
12
102
}
330
12
100
AcDbXrecord
280
     1
270
     1
271
     1
  0
XRECORD
  5
18
102
{ACAD_REACTORS
330
12
102
}
330
12
100
AcDbXrecord
280
     1
270
     1
271
     1
  0
XRECORD
  5
15
102
{ACAD_REACTORS
330
12
102
}
330
12
100
AcDbXrecord
280
     1
270
     1
271
     1
  0
XRECORD
  5
24
102
{ACAD_REACTORS
330
22
102
}
330
22
100
AcDbXrecord
280
     1
270
     1
271
     1
  0
XRECORD
  5
23
102
{ACAD_REACTORS
330
22
102
}
330
22
100
AcDbXrecord
280
     1
270
     1
271
     1
  0
XRECORD
  5
27
102
{ACAD_REACTORS
330
22
102
}
330
22
100
AcDbXrecord
280
     1
270
     1
271
     1
  0
XRECORD
  5
26
102
{ACAD_REACTORS
330
22
102
}
330
22
100
AcDbXrecord
280
     1
270
     1
271
     1
  0
XRECORD
  5
28
102
{ACAD_REACTORS
330
22
102
}
330
22
100
AcDbXrecord
280
     1
270
     1
271
     1
  0
XRECORD
  5
25
102
{ACAD_REACTORS
330
22
102
}
330
22
100
AcDbXrecord
280
     1
270
     1
271
     1
  0
CELLSTYLEMAP
  5
141
102
{ACAD_REACTORS
330
140
102
}
330
140
100
AcDbCellStyleMap
 90
        3
300
CELLSTYLE
  1
TABLEFORMAT_BEGIN
 90
        5
170
     1
 91
        0
 92
    32768
 62
   257
 93
        1
300
CONTENTFORMAT
  1
CONTENTFORMAT_BEGIN
 90
        0
 91
        0
 92
      512
 93
        0
300

 40
0.0
140
1.0
 94
        5
 62
     0
340
55
144
0.25
309
CONTENTFORMAT_END
171
     0
 94
        0
309
TABLEFORMAT_END
  1
CELLSTYLE_BEGIN
 90
        1
 91
        1
300
_TITLE
309
CELLSTYLE_END
300
CELLSTYLE
  1
TABLEFORMAT_BEGIN
 90
        5
170
     1
 91
        0
 92
        0
 62
   257
 93
        1
300
CONTENTFORMAT
  1
CONTENTFORMAT_BEGIN
 90
        0
 91
        0
 92
      512
 93
        0
300

 40
0.0
140
1.0
 94
        5
 62
     0
340
55
144
0.18
309
CONTENTFORMAT_END
171
     0
 94
        0
309
TABLEFORMAT_END
  1
CELLSTYLE_BEGIN
 90
        2
 91
        1
300
_HEADER
309
CELLSTYLE_END
300
CELLSTYLE
  1
TABLEFORMAT_BEGIN
 90
        5
170
     1
 91
        0
 92
        0
 62
   257
 93
        1
300
CONTENTFORMAT
  1
CONTENTFORMAT_BEGIN
 90
        0
 91
        0
 92
      512
 93
        0
300

 40
0.0
140
1.0
 94
        2
 62
     0
340
55
144
0.18
309
CONTENTFORMAT_END
171
     0
 94
        0
309
TABLEFORMAT_END
  1
CELLSTYLE_BEGIN
 90
        3
 91
        2
300
_DATA
309
CELLSTYLE_END
  0
ENDSEC
  0
EOF
