  0
SECTION
  2
HEADER
  9
$ACADVER
  1
AC1024
  9
$ACADMAINTVER
 70
     6
  9
$DWGCODEPAGE
  3
ANSI_932
  9
$LASTSAVEDBY
  1
takeshitobe
  9
$INSBASE
 10
0.0
 20
0.0
 30
0.0
  9
$EXTMIN
 10
124.0
 20
58.0
 30
0.0
  9
$EXTMAX
 10
334.0
 20
355.0
 30
0.0
  9
$LIMMIN
 10
0.0
 20
0.0
  9
$LIMMAX
 10
420.0
 20
297.0
  9
$ORTHOMODE
 70
     0
  9
$REGENMODE
 70
     1
  9
$FILLMODE
 70
     1
  9
$QTEXTMODE
 70
     0
  9
$MIRRTEXT
 70
     1
  9
$LTSCALE
 40
1.0
  9
$ATTMODE
 70
     1
  9
$TEXTSIZE
 40
2.5
  9
$TRACEWID
 40
1.0
  9
$TEXTSTYLE
  7
Standard
  9
$CLAYER
  8
0
  9
$CELTYPE
  6
ByLayer
  9
$CECOLOR
 62
   256
  9
$CELTSCALE
 40
1.0
  9
$DISPSILH
 70
     0
  9
$DIMSCALE
 40
1.0
  9
$DIMASZ
 40
2.5
  9
$DIMEXO
 40
0.625
  9
$DIMDLI
 40
3.75
  9
$DIMRND
 40
0.0
  9
$DIMDLE
 40
0.0
  9
$DIMEXE
 40
1.25
  9
$DIMTP
 40
0.0
  9
$DIMTM
 40
0.0
  9
$DIMTXT
 40
2.5
  9
$DIMCEN
 40
2.5
  9
$DIMTSZ
 40
0.0
  9
$DIMTOL
 70
     0
  9
$DIMLIM
 70
     0
  9
$DIMTIH
 70
     0
  9
$DIMTOH
 70
     0
  9
$DIMSE1
 70
     0
  9
$DIMSE2
 70
     0
  9
$DIMTAD
 70
     1
  9
$DIMZIN
 70
     8
  9
$DIMBLK
  1

  9
$DIMASO
 70
     1
  9
$DIMSHO
 70
     1
  9
$DIMPOST
  1

  9
$DIMAPOST
  1

  9
$DIMALT
 70
     0
  9
$DIMALTD
 70
     3
  9
$DIMALTF
 40
0.03937007874
  9
$DIMLFAC
 40
1.0
  9
$DIMTOFL
 70
     1
  9
$DIMTVP
 40
0.0
  9
$DIMTIX
 70
     0
  9
$DIMSOXD
 70
     0
  9
$DIMSAH
 70
     0
  9
$DIMBLK1
  1

  9
$DIMBLK2
  1

  9
$DIMSTYLE
  2
ISO-25
  9
$DIMCLRD
 70
     0
  9
$DIMCLRE
 70
     0
  9
$DIMCLRT
 70
     0
  9
$DIMTFAC
 40
1.0
  9
$DIMGAP
 40
0.625
  9
$DIMJUST
 70
     0
  9
$DIMSD1
 70
     0
  9
$DIMSD2
 70
     0
  9
$DIMTOLJ
 70
     0
  9
$DIMTZIN
 70
     8
  9
$DIMALTZ
 70
     0
  9
$DIMALTTZ
 70
     0
  9
$DIMUPT
 70
     0
  9
$DIMDEC
 70
     2
  9
$DIMTDEC
 70
     2
  9
$DIMALTU
 70
     2
  9
$DIMALTTD
 70
     3
  9
$DIMTXSTY
  7
Standard
  9
$DIMAUNIT
 70
     0
  9
$DIMADEC
 70
     0
  9
$DIMALTRND
 40
0.0
  9
$DIMAZIN
 70
     0
  9
$DIMDSEP
 70
    44
  9
$DIMATFIT
 70
     3
  9
$DIMFRAC
 70
     0
  9
$DIMLDRBLK
  1

  9
$DIMLUNIT
 70
     2
  9
$DIMLWD
 70
    -2
  9
$DIMLWE
 70
    -2
  9
$DIMTMOVE
 70
     0
  9
$DIMFXL
 40
1.0
  9
$DIMFXLON
 70
     0
  9
$DIMJOGANG
 40
0.785398163397
  9
$DIMTFILL
 70
     0
  9
$DIMTFILLCLR
 70
     0
  9
$DIMARCSYM
 70
     0
  9
$DIMLTYPE
  6

  9
$DIMLTEX1
  6

  9
$DIMLTEX2
  6

  9
$DIMTXTDIRECTION
 70
     0
  9
$LUNITS
 70
     2
  9
$LUPREC
 70
     4
  9
$SKETCHINC
 40
1.0
  9
$FILLETRAD
 40
10.0
  9
$AUNITS
 70
     0
  9
$AUPREC
 70
     0
  9
$MENU
  1
.
  9
$ELEVATION
 40
0.0
  9
$PELEVATION
 40
0.0
  9
$THICKNESS
 40
0.0
  9
$LIMCHECK
 70
     0
  9
$CHAMFERA
 40
10.0
  9
$CHAMFERB
 40
10.0
  9
$CHAMFERC
 40
20.0
  9
$CHAMFERD
 40
0.0
  9
$SKPOLY
 70
     0
  9
$TDCREATE
 40
2458282.468819653
  9
$TDUCREATE
 40
2458282.093819653
  9
$TDUPDATE
 40
2458284.376449491
  9
$TDUUPDATE
 40
2458284.001449491
  9
$TDINDWG
 40
0.0005280903
  9
$TDUSRTIMER
 40
0.0005280903
  9
$USRTIMER
 70
     1
  9
$ANGBASE
 50
0.0
  9
$ANGDIR
 70
     0
  9
$PDMODE
 70
     0
  9
$PDSIZE
 40
0.0
  9
$PLINEWID
 40
0.0
  9
$SPLFRAME
 70
     0
  9
$SPLINETYPE
 70
     6
  9
$SPLINESEGS
 70
     8
  9
$HANDSEED
  5
1050
  9
$SURFTAB1
 70
     6
  9
$SURFTAB2
 70
     6
  9
$SURFTYPE
 70
     6
  9
$SURFU
 70
     6
  9
$SURFV
 70
     6
  9
$UCSBASE
  2

  9
$UCSNAME
  2

  9
$UCSORG
 10
0.0
 20
0.0
 30
0.0
  9
$UCSXDIR
 10
1.0
 20
0.0
 30
0.0
  9
$UCSYDIR
 10
0.0
 20
1.0
 30
0.0
  9
$UCSORTHOREF
  2

  9
$UCSORTHOVIEW
 70
     0
  9
$UCSORGTOP
 10
0.0
 20
0.0
 30
0.0
  9
$UCSORGBOTTOM
 10
0.0
 20
0.0
 30
0.0
  9
$UCSORGLEFT
 10
0.0
 20
0.0
 30
0.0
  9
$UCSORGRIGHT
 10
0.0
 20
0.0
 30
0.0
  9
$UCSORGFRONT
 10
0.0
 20
0.0
 30
0.0
  9
$UCSORGBACK
 10
0.0
 20
0.0
 30
0.0
  9
$PUCSBASE
  2

  9
$PUCSNAME
  2

  9
$PUCSORG
 10
0.0
 20
0.0
 30
0.0
  9
$PUCSXDIR
 10
1.0
 20
0.0
 30
0.0
  9
$PUCSYDIR
 10
0.0
 20
1.0
 30
0.0
  9
$PUCSORTHOREF
  2

  9
$PUCSORTHOVIEW
 70
     0
  9
$PUCSORGTOP
 10
0.0
 20
0.0
 30
0.0
  9
$PUCSORGBOTTOM
 10
0.0
 20
0.0
 30
0.0
  9
$PUCSORGLEFT
 10
0.0
 20
0.0
 30
0.0
  9
$PUCSORGRIGHT
 10
0.0
 20
0.0
 30
0.0
  9
$PUCSORGFRONT
 10
0.0
 20
0.0
 30
0.0
  9
$PUCSORGBACK
 10
0.0
 20
0.0
 30
0.0
  9
$USERI1
 70
     0
  9
$USERI2
 70
     0
  9
$USERI3
 70
     0
  9
$USERI4
 70
     0
  9
$USERI5
 70
     0
  9
$USERR1
 40
0.0
  9
$USERR2
 40
0.0
  9
$USERR3
 40
0.0
  9
$USERR4
 40
0.0
  9
$USERR5
 40
0.0
  9
$WORLDVIEW
 70
     1
  9
$SHADEDGE
 70
     3
  9
$SHADEDIF
 70
    70
  9
$TILEMODE
 70
     1
  9
$MAXACTVP
 70
    48
  9
$PINSBASE
 10
0.0
 20
0.0
 30
0.0
  9
$PLIMCHECK
 70
     0
  9
$PEXTMIN
 10
40.5
 20
25.7
 30
0.0
  9
$PEXTMAX
 10
364.5
 20
231.3
 30
0.0
  9
$PLIMMIN
 10
-7.5
 20
-20.0
  9
$PLIMMAX
 10
412.5
 20
277.0
  9
$UNITMODE
 70
     0
  9
$VISRETAIN
 70
     1
  9
$PLINEGEN
 70
     0
  9
$PSLTSCALE
 70
     1
  9
$TREEDEPTH
 70
  3020
  9
$CMLSTYLE
  2
Standard
  9
$CMLJUST
 70
     0
  9
$CMLSCALE
 40
20.0
  9
$PROXYGRAPHICS
 70
     1
  9
$MEASUREMENT
 70
     1
  9
$CELWEIGHT
370
    -1
  9
$ENDCAPS
280
     0
  9
$JOINSTYLE
280
     0
  9
$LWDISPLAY
290
     0
  9
$INSUNITS
 70
     4
  9
$HYPERLINKBASE
  1

  9
$STYLESHEET
  1

  9
$XEDIT
290
     1
  9
$CEPSNTYPE
380
     0
  9
$PSTYLEMODE
290
     1
  9
$FINGERPRINTGUID
  2
{A1014036-E31F-484B-AEBC-447A9B222B2A}
  9
$VERSIONGUID
  2
{B1DCADED-1393-43F9-849F-85D3B7CD1A10}
  9
$EXTNAMES
290
     1
  9
$PSVPSCALE
 40
0.0
  9
$OLESTARTUP
290
     0
  9
$SORTENTS
280
   127
  9
$INDEXCTL
280
     0
  9
$HIDETEXT
280
     1
  9
$XCLIPFRAME
280
     0
  9
$HALOGAP
280
     0
  9
$OBSCOLOR
 70
   257
  9
$OBSLTYPE
280
     0
  9
$INTERSECTIONDISPLAY
280
     0
  9
$INTERSECTIONCOLOR
 70
   257
  9
$DIMASSOC
280
     1
  9
$PROJECTNAME
  1

  9
$CAMERADISPLAY
290
     0
  9
$LENSLENGTH
 40
50.0
  9
$CAMERAHEIGHT
 40
0.0
  9
$STEPSPERSEC
 40
2.0
  9
$STEPSIZE
 40
6.0
  9
$3DDWFPREC
 40
2.0
  9
$PSOLWIDTH
 40
0.25
  9
$PSOLHEIGHT
 40
4.0
  9
$LOFTANG1
 40
1.570796326795
  9
$LOFTANG2
 40
1.570796326795
  9
$LOFTMAG1
 40
0.0
  9
$LOFTMAG2
 40
0.0
  9
$LOFTPARAM
 70
     7
  9
$LOFTNORMALS
280
     1
  9
$LATITUDE
 40
37.795
  9
$LONGITUDE
 40
-122.394
  9
$NORTHDIRECTION
 40
0.0
  9
$TIMEZONE
 70
 -8000
  9
$LIGHTGLYPHDISPLAY
280
     1
  9
$TILEMODELIGHTSYNCH
280
     1
  9
$SOLIDHIST
280
     1
  9
$SHOWHIST
280
     1
  9
$DWFFRAME
280
     2
  9
$DGNFRAME
280
     2
  9
$REALWORLDSCALE
290
     1
  9
$INTERFERECOLOR
 62
   256
  9
$CSHADOW
280
     0
  9
$SHADOWPLANELOCATION
 40
0.0
  0
ENDSEC
  0
SECTION
  2
CLASSES
  0
CLASS
  1
ACDBDICTIONARYWDFLT
  2
AcDbDictionaryWithDefault
  3
ObjectDBX Classes
 90
        0
 91
        3
280
     0
281
     0
  0
CLASS
  1
ACDBPLACEHOLDER
  2
AcDbPlaceHolder
  3
ObjectDBX Classes
 90
        0
 91
        1
280
     0
281
     0
  0
CLASS
  1
LAYOUT
  2
AcDbLayout
  3
ObjectDBX Classes
 90
        0
 91
        1
280
     0
281
     0
  0
CLASS
  1
LONG_TRANSACTION
  2
AcDbLongTransaction
  3
ObjectDBX Classes
 90
        0
 91
        1
280
     0
281
     0
  0
CLASS
  1
LWPOLYLINE
  2
AcDbPolyline
  3
ObjectDBX Classes
 90
        0
 91
        1
280
     0
281
     1
  0
CLASS
  1
HATCH
  2
AcDbHatch
  3
ObjectDBX Classes
 90
        0
 91
        1
280
     0
281
     1
  0
CLASS
  1
XRECORD
  2
AcDbXrecord
  3
ObjectDBX Classes
 90
        0
 91
        1
280
     0
281
     0
  0
CLASS
  1
LONG_TRANSACTION
  2
AcDbLongTransaction
  3
ObjectDBX Classes
 90
        0
 91
        1
280
     0
281
     0
  0
CLASS
  1
LWPOLYLINE
  2
AcDbPolyline
  3
ObjectDBX Classes
 90
        0
 91
        1
280
     0
281
     1
  0
CLASS
  1
HATCH
  2
AcDbHatch
  3
ObjectDBX Classes
 90
        0
 91
        1
280
     0
281
     1
  0
CLASS
  1
XRECORD
  2
AcDbXrecord
  3
ObjectDBX Classes
 90
        0
 91
        1
280
     0
281
     0
  0
CLASS
  1
LONG_TRANSACTION
  2
AcDbLongTransaction
  3
ObjectDBX Classes
 90
        0
 91
        1
280
     0
281
     0
  0
CLASS
  1
LWPOLYLINE
  2
AcDbPolyline
  3
ObjectDBX Classes
 90
        0
 91
        1
280
     0
281
     1
  0
CLASS
  1
HATCH
  2
AcDbHatch
  3
ObjectDBX Classes
 90
        0
 91
        1
280
     0
281
     1
  0
CLASS
  1
XRECORD
  2
AcDbXrecord
  3
ObjectDBX Classes
 90
        0
 91
        1
280
     0
281
     0
  0
CLASS
  1
LONG_TRANSACTION
  2
AcDbLongTransaction
  3
ObjectDBX Classes
 90
        0
 91
        1
280
     0
281
     0
  0
CLASS
  1
LWPOLYLINE
  2
AcDbPolyline
  3
ObjectDBX Classes
 90
        0
 91
        1
280
     0
281
     1
  0
CLASS
  1
HATCH
  2
AcDbHatch
  3
ObjectDBX Classes
 90
        0
 91
        1
280
     0
281
     1
  0
CLASS
  1
XRECORD
  2
AcDbXrecord
  3
ObjectDBX Classes
 90
        0
 91
        1
280
     0
281
     0
  0
CLASS
  1
LONG_TRANSACTION
  2
AcDbLongTransaction
  3
ObjectDBX Classes
 90
        0
 91
        1
280
     0
281
     0
  0
CLASS
  1
LWPOLYLINE
  2
AcDbPolyline
  3
ObjectDBX Classes
 90
        0
 91
        1
280
     0
281
     1
  0
CLASS
  1
HATCH
  2
AcDbHatch
  3
ObjectDBX Classes
 90
        0
 91
        1
280
     0
281
     1
  0
CLASS
  1
XRECORD
  2
AcDbXrecord
  3
ObjectDBX Classes
 90
        0
 91
        1
280
     0
281
     0
  0
CLASS
  1
LONG_TRANSACTION
  2
AcDbLongTransaction
  3
ObjectDBX Classes
 90
        0
 91
        1
280
     0
281
     0
  0
CLASS
  1
LWPOLYLINE
  2
AcDbPolyline
  3
ObjectDBX Classes
 90
        0
 91
        1
280
     0
281
     1
  0
CLASS
  1
HATCH
  2
AcDbHatch
  3
ObjectDBX Classes
 90
        0
 91
        1
280
     0
281
     1
  0
CLASS
  1
XRECORD
  2
AcDbXrecord
  3
ObjectDBX Classes
 90
        0
 91
        1
280
     0
281
     0
  0
CLASS
  1
LONG_TRANSACTION
  2
AcDbLongTransaction
  3
ObjectDBX Classes
 90
        0
 91
        1
280
     0
281
     0
  0
CLASS
  1
LWPOLYLINE
  2
AcDbPolyline
  3
ObjectDBX Classes
 90
        0
 91
        1
280
     0
281
     1
  0
CLASS
  1
HATCH
  2
AcDbHatch
  3
ObjectDBX Classes
 90
        0
 91
        1
280
     0
281
     1
  0
CLASS
  1
XRECORD
  2
AcDbXrecord
  3
ObjectDBX Classes
 90
        0
 91
        1
280
     0
281
     0
  0
CLASS
  1
LONG_TRANSACTION
  2
AcDbLongTransaction
  3
ObjectDBX Classes
 90
        0
 91
        1
280
     0
281
     0
  0
CLASS
  1
LWPOLYLINE
  2
AcDbPolyline
  3
ObjectDBX Classes
 90
        0
 91
        1
280
     0
281
     1
  0
CLASS
  1
HATCH
  2
AcDbHatch
  3
ObjectDBX Classes
 90
        0
 91
        1
280
     0
281
     1
  0
CLASS
  1
XRECORD
  2
AcDbXrecord
  3
ObjectDBX Classes
 90
        0
 91
        1
280
     0
281
     0
  0
CLASS
  1
LONG_TRANSACTION
  2
AcDbLongTransaction
  3
ObjectDBX Classes
 90
        0
 91
        1
280
     0
281
     0
  0
CLASS
  1
LWPOLYLINE
  2
AcDbPolyline
  3
ObjectDBX Classes
 90
        0
 91
        1
280
     0
281
     1
  0
CLASS
  1
HATCH
  2
AcDbHatch
  3
ObjectDBX Classes
 90
        0
 91
        1
280
     0
281
     1
  0
CLASS
  1
XRECORD
  2
AcDbXrecord
  3
ObjectDBX Classes
 90
        0
 91
        1
280
     0
281
     0
  0
CLASS
  1
LONG_TRANSACTION
  2
AcDbLongTransaction
  3
ObjectDBX Classes
 90
        0
 91
        1
280
     0
281
     0
  0
CLASS
  1
LWPOLYLINE
  2
AcDbPolyline
  3
ObjectDBX Classes
 90
        0
 91
        1
280
     0
281
     1
  0
CLASS
  1
HATCH
  2
AcDbHatch
  3
ObjectDBX Classes
 90
        0
 91
        1
280
     0
281
     1
  0
CLASS
  1
XRECORD
  2
AcDbXrecord
  3
ObjectDBX Classes
 90
        0
 91
        1
280
     0
281
     0
  0
CLASS
  1
LONG_TRANSACTION
  2
AcDbLongTransaction
  3
ObjectDBX Classes
 90
        0
 91
        1
280
     0
281
     0
  0
CLASS
  1
LWPOLYLINE
  2
AcDbPolyline
  3
ObjectDBX Classes
 90
        0
 91
        1
280
     0
281
     1
  0
CLASS
  1
HATCH
  2
AcDbHatch
  3
ObjectDBX Classes
 90
        0
 91
        1
280
     0
281
     1
  0
CLASS
  1
XRECORD
  2
AcDbXrecord
  3
ObjectDBX Classes
 90
        0
 91
        1
280
     0
281
     0
  0
CLASS
  1
LONG_TRANSACTION
  2
AcDbLongTransaction
  3
ObjectDBX Classes
 90
        0
 91
        1
280
     0
281
     0
  0
CLASS
  1
LWPOLYLINE
  2
AcDbPolyline
  3
ObjectDBX Classes
 90
        0
 91
        1
280
     0
281
     1
  0
CLASS
  1
HATCH
  2
AcDbHatch
  3
ObjectDBX Classes
 90
        0
 91
        1
280
     0
281
     1
  0
CLASS
  1
XRECORD
  2
AcDbXrecord
  3
ObjectDBX Classes
 90
        0
 91
        1
280
     0
281
     0
  0
CLASS
  1
LONG_TRANSACTION
  2
AcDbLongTransaction
  3
ObjectDBX Classes
 90
        0
 91
        1
280
     0
281
     0
  0
CLASS
  1
LWPOLYLINE
  2
AcDbPolyline
  3
ObjectDBX Classes
 90
        0
 91
        1
280
     0
281
     1
  0
CLASS
  1
HATCH
  2
AcDbHatch
  3
ObjectDBX Classes
 90
        0
 91
        1
280
     0
281
     1
  0
CLASS
  1
XRECORD
  2
AcDbXrecord
  3
ObjectDBX Classes
 90
        0
 91
        1
280
     0
281
     0
  0
CLASS
  1
DICTIONARYVAR
  2
AcDbDictionaryVar
  3
ObjectDBX Classes
 90
        0
 91
        3
280
     0
281
     0
  0
CLASS
  1
LONG_TRANSACTION
  2
AcDbLongTransaction
  3
ObjectDBX Classes
 90
        0
 91
        1
280
     0
281
     0
  0
CLASS
  1
LWPOLYLINE
  2
AcDbPolyline
  3
ObjectDBX Classes
 90
        0
 91
        1
280
     0
281
     1
  0
CLASS
  1
HATCH
  2
AcDbHatch
  3
ObjectDBX Classes
 90
        0
 91
        1
280
     0
281
     1
  0
CLASS
  1
XRECORD
  2
AcDbXrecord
  3
ObjectDBX Classes
 90
        0
 91
        1
280
     0
281
     0
  0
CLASS
  1
SCALE
  2
AcDbScale
  3
ObjectDBX Classes
 90
     1153
 91
        3
280
     0
281
     0
  0
CLASS
  1
MATERIAL
  2
AcDbMaterial
  3
ObjectDBX Classes
 90
     1153
 91
        3
280
     0
281
     0
  0
CLASS
  1
TABLESTYLE
  2
AcDbTableStyle
  3
ObjectDBX Classes
 90
     4095
 91
        3
280
     0
281
     0
  0
CLASS
  1
SUN
  2
AcDbSun
  3
SCENEOE
 90
     1153
 91
        3
280
     0
281
     0
  0
CLASS
  1
VISUALSTYLE
  2
AcDbVisualStyle
  3
ObjectDBX Classes
 90
     4095
 91
        3
280
     0
281
     0
  0
CLASS
  1
MLEADERSTYLE
  2
AcDbMLeaderStyle
  3
ACDB_MLEADERSTYLE_CLASS
 90
     4095
 91
        3
280
     0
281
     0
  0
CLASS
  1
CELLSTYLEMAP
  2
AcDbCellStyleMap
  3
ObjectDBX Classes
 90
     1152
 91
        3
280
     0
281
     0
  0
ENDSEC
  0
SECTION
  2
TABLES
  0
TABLE
  2
VPORT
  5
8
330
0
100
AcDbSymbolTable
 70
     1
  0
VPORT
  5
E61
330
8
100
AcDbSymbolTableRecord
100
AcDbViewportTableRecord
  2
*Active
 70
     0
 10
0.0
 20
0.0
 11
1.0
 21
1.0
 12
221.916912397485
 22
202.244828567096
 13
0.0
 23
0.0
 14
1.0
 24
1.0
 15
1.0
 25
1.0
 16
0.0
 26
0.0
 36
1.0
 17
0.0
 27
0.0
 37
0.0
 40
407.85425915801
 41
2.164402173913
 42
50.0
 43
0.0
 44
0.0
 50
0.0
 51
0.0
 71
    16
 72
   500
 73
     1
 74
     3
 75
     1
 76
     0
 77
     0
 78
     0
281
     0
 65
     1
110
0.0
120
0.0
130
0.0
111
1.0
121
0.0
131
0.0
112
0.0
122
1.0
132
0.0
 79
     0
146
0.0
348
E93
 60
     3
 61
     5
292
     1
282
     1
141
0.0
142
0.0
 63
   250
421
  3355443
361
E8A
  0
ENDTAB
  0
TABLE
  2
LTYPE
  5
5
330
0
100
AcDbSymbolTable
 70
     2
  0
LTYPE
  5
14
330
5
100
AcDbSymbolTableRecord
100
AcDbLinetypeTableRecord
  2
ByBlock
 70
     0
  3

 72
    65
 73
     0
 40
0.0
  0
LTYPE
  5
15
330
5
100
AcDbSymbolTableRecord
100
AcDbLinetypeTableRecord
  2
ByLayer
 70
     0
  3

 72
    65
 73
     0
 40
0.0
  0
LTYPE
  5
16
330
5
100
AcDbSymbolTableRecord
100
AcDbLinetypeTableRecord
  2
Continuous
 70
     0
  3
Solid line
 72
    65
 73
     0
 40
0.0
  0
LTYPE
  5
EB1
330
5
100
AcDbSymbolTableRecord
100
AcDbLinetypeTableRecord
  2
PHANTOM
 70
     0
  3
PHANTOM
 72
    83
 73
     6
 40
2.5
 49
1.25
 74
     0
 49
-0.25
 74
     0
 49
0.25
 74
     0
 49
-0.25
 74
     0
 49
0.25
 74
     0
 49
-0.25
 74
     0
  0
ENDTAB
  0
TABLE
  2
LAYER
  5
2
102
{ACAD_XDICTIONARY
360
F74
102
}
330
0
100
AcDbSymbolTable
 70
     6
  0
LAYER
  5
10
330
2
100
AcDbSymbolTableRecord
100
AcDbLayerTableRecord
  2
0
 70
     0
 62
     7
  6
Continuous
370
    -3
390
F
347
E86
  0
LAYER
  5
E89
330
2
100
AcDbSymbolTableRecord
100
AcDbLayerTableRecord
  2
Defpoints
 70
     0
 62
     7
  6
Continuous
290
     0
370
    -3
390
F
347
E86
  0
LAYER
  5
EAA
330
2
100
AcDbSymbolTableRecord
100
AcDbLayerTableRecord
  2
DIM
 70
     0
 62
     8
  6
Continuous
370
    -3
390
F
347
E86
  0
LAYER
  5
EAE
330
2
100
AcDbSymbolTableRecord
100
AcDbLayerTableRecord
  2
text
 70
     0
 62
     4
  6
Continuous
370
    -3
390
F
347
E86
  0
LAYER
  5
EAF
330
2
100
AcDbSymbolTableRecord
100
AcDbLayerTableRecord
  2
shade
 70
     0
 62
     6
  6
Continuous
370
    -3
390
F
347
E86
  0
LAYER
  5
EB0
330
2
100
AcDbSymbolTableRecord
100
AcDbLayerTableRecord
  2
FLAME
 70
     0
 62
     2
  6
Continuous
370
    -3
390
F
347
E86
  0
ENDTAB
  0
TABLE
  2
STYLE
  5
3
330
0
100
AcDbSymbolTable
 70
     6
  0
STYLE
  5
11
330
3
100
AcDbSymbolTableRecord
100
AcDbTextStyleTableRecord
  2
Standard
 70
     0
 40
0.0
 41
1.0
 50
0.0
 71
     0
 42
2.5
  3
MS UI Gothic.ttf
  4

1001
ACAD
1000
MS UI Gothic
1071
    32818
  0
STYLE
  5
78
330
3
100
AcDbSymbolTableRecord
100
AcDbTextStyleTableRecord
  2
VERTICAL
 70
     0
 40
0.0
 41
1.0
 50
0.0
 71
     0
 42
2.5
  3
@MS UI Gothic.ttf
  4

1001
ACAD
1000
@MS UI Gothic
1071
    32818
  0
STYLE
  5
9D
330
3
100
AcDbSymbolTableRecord
100
AcDbTextStyleTableRecord
  2

 70
     1
 40
0.0
 41
1.0
 50
0.0
 71
     0
 42
2.5
  3
ltypeshp.shx
  4

  0
STYLE
  5
EB3
330
3
100
AcDbSymbolTableRecord
100
AcDbTextStyleTableRecord
  2
GOTHIC
 70
     0
 40
0.0
 41
1.0
 50
0.0
 71
     0
 42
2.5
  3

  4

1001
ACAD
1000
ＭＳ Ｐゴシック
1071
    32818
  0
STYLE
  5
EB8
330
3
100
AcDbSymbolTableRecord
100
AcDbTextStyleTableRecord
  2
新規スタイル1
 70
     0
 40
0.0
 41
1.0
 50
0.0
 71
     0
 42
2.5
  3

  4

1001
ACAD
1000
ＭＳ Ｐ明朝
1071
    32786
  0
STYLE
  5
1014
330
3
100
AcDbSymbolTableRecord
100
AcDbTextStyleTableRecord
  2
DYN_DIM
 70
     0
 40
0.0
 41
1.0
 50
0.0
 71
     0
 42
2.5
  3
MS UI Gothic.ttf
  4

1001
ACAD
1000
MS UI Gothic
1071
    32818
  0
ENDTAB
  0
TABLE
  2
VIEW
  5
6
330
0
100
AcDbSymbolTable
 70
     0
  0
ENDTAB
  0
TABLE
  2
UCS
  5
7
330
0
100
AcDbSymbolTable
 70
     0
  0
ENDTAB
  0
TABLE
  2
APPID
  5
9
330
0
100
AcDbSymbolTable
 70
     7
  0
APPID
  5
12
330
9
100
AcDbSymbolTableRecord
100
AcDbRegAppTableRecord
  2
ACAD
 70
     0
  0
APPID
  5
4BA
330
9
100
AcDbSymbolTableRecord
100
AcDbRegAppTableRecord
  2
ALFADenkiAttdef
 70
     0
  0
APPID
  5
58B
330
9
100
AcDbSymbolTableRecord
100
AcDbRegAppTableRecord
  2
ALFADenkiAddress
 70
     0
  0
APPID
  5
AB8
330
9
100
AcDbSymbolTableRecord
100
AcDbRegAppTableRecord
  2
ALFADenkiHistory_BackupText
 70
     0
  0
APPID
  5
EB4
330
9
100
AcDbSymbolTableRecord
100
AcDbRegAppTableRecord
  2
AcadAnnotative
 70
     0
  0
APPID
  5
EB5
330
9
100
AcDbSymbolTableRecord
100
AcDbRegAppTableRecord
  2
ACAD_PSEXT
 70
     0
  0
APPID
  5
EB6
330
9
100
AcDbSymbolTableRecord
100
AcDbRegAppTableRecord
  2
ACAD_NAV_VCDISPLAY
 70
     0
  0
ENDTAB
  0
TABLE
  2
DIMSTYLE
  5
A
330
0
100
AcDbSymbolTable
 70
     3
100
AcDbDimStyleTable
  0
DIMSTYLE
105
27
330
A
100
AcDbSymbolTableRecord
100
AcDbDimStyleTableRecord
  2
ISO-25
 70
     0
 41
2.5
 42
0.625
 43
3.75
 44
1.25
 73
     0
 74
     0
 77
     1
 78
     8
140
2.5
141
2.5
143
0.03937007874
147
0.625
171
     3
172
     1
178
     0
271
     2
272
     2
274
     3
278
    44
283
     0
284
     8
340
11
  0
DIMSTYLE
105
6E
330
A
100
AcDbSymbolTableRecord
100
AcDbDimStyleTableRecord
  2
Standard
 70
     0
178
     0
340
11
  0
DIMSTYLE
105
EB2
330
A
100
AcDbSymbolTableRecord
100
AcDbDimStyleTableRecord
  2
SC3
 70
     0
 40
3.0
 41
2.5
 42
1.0
 43
2.5
 44
1.0
 73
     0
 74
     0
 77
     1
140
2.5
141
2.5
143
0.03937
147
1.0
173
     1
176
   256
177
   256
271
     0
178
     4
271
     0
272
     0
278
     0
340
EB3
1001
AcadAnnotative
1000
AnnotativeData
1002
{
1070
     1
1070
     0
1002
}
  0
ENDTAB
  0
TABLE
  2
BLOCK_RECORD
  5
1
330
0
100
AcDbSymbolTable
 70
     1
  0
BLOCK_RECORD
  5
1F
330
1
100
AcDbSymbolTableRecord
100
AcDbBlockTableRecord
  2
*Model_Space
340
22
 70
     0
280
     1
281
     0
  0
BLOCK_RECORD
  5
23
330
1
100
AcDbSymbolTableRecord
100
AcDbBlockTableRecord
  2
*Paper_Space
340
26
 70
     0
280
     1
281
     0
  0
BLOCK_RECORD
  5
1B
330
1
100
AcDbSymbolTableRecord
100
AcDbBlockTableRecord
  2
*Paper_Space0
340
1E
 70
     0
280
     1
281
     0
  0
ENDTAB
  0
ENDSEC
  0
SECTION
  2
BLOCKS
  0
BLOCK
  5
20
330
1F
100
AcDbEntity
  8
0
100
AcDbBlockBegin
  2
*Model_Space
 70
     2
 10
0.0
 20
0.0
 30
0.0
  3
*Model_Space
  1

  0
ENDBLK
  5
21
330
1F
100
AcDbEntity
  8
0
100
AcDbBlockEnd
  0
BLOCK
  5
24
330
23
100
AcDbEntity
 67
     1
  8
0
100
AcDbBlockBegin
  2
*Paper_Space
 70
     0
 10
0.0
 20
0.0
 30
0.0
  3
*Paper_Space
  1

  0
ENDBLK
  5
25
330
23
100
AcDbEntity
 67
     1
  8
0
100
AcDbBlockEnd
  0
BLOCK
  5
1C
330
1B
100
AcDbEntity
  8
0
100
AcDbBlockBegin
  2
*Paper_Space0
 70
     0
 10
0.0
 20
0.0
 30
0.0
  3
*Paper_Space0
  1

  0
VIEWPORT
  5
8C
330
1B
100
AcDbEntity
  8
0
100
AcDbViewport
 10
202.5
 20
128.5
 30
0.0
 40
556.786421052632
 41
314.226
 68
     1
 69
     1
 12
202.5
 22
128.5
 13
0.0
 23
0.0
 14
10.0
 24
10.0
 15
10.0
 25
10.0
 16
0.0
 26
0.0
 36
1.0
 17
0.0
 27
0.0
 37
0.0
 42
50.0
 43
0.0
 44
0.0
 45
314.226
 50
0.0
 51
0.0
 72
   100
 90
    32800
  1

281
     0
 71
     1
 74
     0
110
0.0
120
0.0
130
0.0
111
1.0
121
0.0
131
0.0
112
0.0
122
1.0
132
0.0
 79
     0
146
0.0
170
     0
 61
     5
348
E93
292
     1
282
     1
141
0.0
142
0.0
 63
   250
421
  3355443
  0
VIEWPORT
  5
8E
330
1B
100
AcDbEntity
  8
0
100
AcDbViewport
 10
202.5
 20
128.5
 30
0.0
 40
324.0
 41
205.6
 68
     2
 69
     2
 12
210.0
 22
148.5
 13
0.0
 23
0.0
 14
10.0
 24
10.0
 15
10.0
 25
10.0
 16
0.0
 26
0.0
 36
1.0
 17
0.0
 27
0.0
 37
0.0
 42
50.0
 43
0.0
 44
0.0
 45
302.335329341317
 50
0.0
 51
0.0
 72
   100
 90
    32864
  1

281
     0
 71
     1
 74
     0
110
0.0
120
0.0
130
0.0
111
1.0
121
0.0
131
0.0
112
0.0
122
1.0
132
0.0
 79
     0
146
0.0
170
     0
 61
     5
348
E93
292
     1
282
     1
141
0.0
142
0.0
 63
   250
421
  3355443
  0
ENDBLK
  5
1D
330
1B
100
AcDbEntity
  8
0
100
AcDbBlockEnd
  0
ENDSEC
  0
SECTION
  2
ENTITIES
  0
LINE
  5
F78
330
1F
100
AcDbEntity
  8
FLAME
100
AcDbLine
 10
274.0
 20
259.0
 30
0.0
 11
274.0
 21
154.0
 31
0.0
  0
LINE
  5
F79
330
1F
100
AcDbEntity
  8
FLAME
100
AcDbLine
 10
184.0
 20
154.0
 30
0.0
 11
184.0
 21
259.0
 31
0.0
  0
LINE
  5
F7A
330
1F
100
AcDbEntity
  8
FLAME
100
AcDbLine
 10
274.0
 20
154.0
 30
0.0
 11
184.0
 21
154.0
 31
0.0
  0
LINE
  5
F7B
330
1F
100
AcDbEntity
  8
FLAME
100
AcDbLine
 10
274.0
 20
159.0
 30
0.0
 11
184.0
 21
159.0
 31
0.0
  0
LINE
  5
F7C
330
1F
100
AcDbEntity
  8
FLAME
100
AcDbLine
 10
274.0
 20
164.0
 30
0.0
 11
184.0
 21
164.0
 31
0.0
  0
LINE
  5
F7D
330
1F
100
AcDbEntity
  8
FLAME
100
AcDbLine
 10
274.0
 20
169.0
 30
0.0
 11
184.0
 21
169.0
 31
0.0
  0
LINE
  5
F7E
330
1F
100
AcDbEntity
  8
FLAME
100
AcDbLine
 10
274.0
 20
259.0
 30
0.0
 11
184.0
 21
259.0
 31
0.0
  0
TEXT
  5
F7F
330
1F
100
AcDbEntity
  8
text
  6
Continuous
100
AcDbText
 10
187.448885885664
 20
160.139737333617
 30
0.0
 40
2.5
  1
KP1312L
  7
新規スタイル1
 11
187.448885885664
 21
161.389737333617
 31
0.0
100
AcDbText
 73
     2
  0
TEXT
  5
F80
330
1F
100
AcDbEntity
  8
text
  6
Continuous
100
AcDbText
 10
187.448885885664
 20
165.139737333617
 30
0.0
 40
2.5
  1
ペンダント　スワール2　Large　1312L
  7
新規スタイル1
 11
187.448885885664
 21
166.389737333617
 31
0.0
100
AcDbText
 73
     2
  0
TEXT
  5
F81
330
1F
100
AcDbEntity
  8
text
  6
Continuous
100
AcDbText
 10
187.195709672025
 20
155.252931267349
 30
0.0
 40
2.5
  1
E26 LED電球(100W形相当　電球色　全方向/広配光タイプ）（別売）
 41
0.82730471649
  7
新規スタイル1
 72
     5
 11
271.33053107727
 21
155.252931267349
 31
0.0
100
AcDbText
  0
LWPOLYLINE
  5
F82
330
1F
100
AcDbEntity
  8
Defpoints
100
AcDbPolyline
 90
        4
 70
     1
 43
0.0
 10
334.0
 20
58.0
 10
334.0
 20
355.0
 10
124.0
 20
355.0
 10
124.0
 20
58.0
  0
LINE
  5
F83
330
1F
100
AcDbEntity
  8
shade
  6
Continuous
370
     0
100
AcDbLine
 10
227.960968625917
 20
220.164062095309
 30
0.0
 11
227.960968625917
 21
240.740474531806
 31
0.0
  0
LINE
  5
F84
330
1F
100
AcDbEntity
  8
shade
  6
Continuous
370
     0
100
AcDbLine
 10
227.656840656331
 20
240.740474531806
 30
0.0
 11
227.656840656331
 21
220.161662182763
 31
0.0
  0
LWPOLYLINE
  5
F85
330
1F
100
AcDbEntity
  8
shade
100
AcDbPolyline
 90
       17
 70
     0
 43
0.0
 10
239.62015413241
 20
212.996310653228
 42
0.00024482459
 10
239.635960352844
 20
213.025458495888
 42
0.001225719406
 10
239.651680733352
 20
213.054652615661
 42
0.008377955654
 10
239.704719674901
 20
213.157850834637
 42
0.019601328023
 10
239.751874733858
 20
213.263787145881
 42
0.021730439844
 10
239.796521423083
 20
213.391567406009
 42
0.016865517231
 10
239.831195684492
 20
213.522458898719
 42
0.017178831444
 10
239.859081495901
 20
213.666772594791
 42
0.015987429164
 10
239.877342641288
 20
213.812628711816
 42
0.009656869576
 10
239.882845330725
 20
213.88759953561
 42
0.012682535738
 10
239.884993892738
 20
213.962731154021
 42
0.019379888135
 10
239.881562354427
 20
214.059274333866
 42
0.020312501389
 10
239.870487432931
 20
214.155234353651
 42
0.019984085339
 10
239.846761365281
 20
214.275054183057
 42
0.009336379685
 10
239.816035274007
 20
214.393351555154
 42
0.002520537669
 10
239.801040486211
 20
214.445925965022
 42
0.000501100214
 10
239.785728066192
 20
214.498409438438
  0
LWPOLYLINE
  5
F86
330
1F
100
AcDbEntity
  8
shade
100
AcDbPolyline
 90
        5
 70
     0
 43
0.0
 10
234.906210400546
 20
215.459986049311
 42
-0.011112162851
 10
235.163260197312
 20
214.938727949519
 42
-0.010116830656
 10
235.397964190342
 20
214.407006978617
 42
-0.001407568702
 10
235.429729406125
 20
214.330305017235
 42
-0.001389162404
 10
235.461065101215
 20
214.253426571321
  0
LWPOLYLINE
  5
F87
330
1F
100
AcDbEntity
  8
shade
100
AcDbPolyline
 90
        5
 70
     0
 43
0.0
 10
235.003653415355
 20
215.50971106889
 42
-0.011536456701
 10
235.270818743365
 20
214.972771371275
 42
-0.010471229482
 10
235.514111733493
 20
214.42457085848
 42
-0.000680622002
 10
235.529512094239
 20
214.387671789743
 42
-0.000676310107
 10
235.54481225953
 20
214.350731062026
  0
LINE
  5
F88
330
1F
100
AcDbEntity
  8
shade
370
     0
100
AcDbLine
 10
234.237806820507
 20
216.782679489
 30
0.0
 11
234.222367733117
 21
216.795095016221
 31
0.0
  0
LINE
  5
F89
330
1F
100
AcDbEntity
  8
shade
370
     0
100
AcDbLine
 10
234.092606522763
 20
216.772739813033
 30
0.0
 11
234.237806820507
 21
216.782679489
 31
0.0
  0
LINE
  5
F8A
330
1F
100
AcDbEntity
  8
shade
370
     0
100
AcDbLine
 10
235.563563315302
 20
214.372517615371
 30
0.0
 11
235.522495145979
 21
214.404519337863
 31
0.0
  0
LINE
  5
F8B
330
1F
100
AcDbEntity
  8
shade
370
     0
100
AcDbLine
 10
235.435371991538
 20
214.223574156001
 30
0.0
 11
235.563563315302
 21
214.372517615371
 31
0.0
  0
LINE
  5
F8C
330
1F
100
AcDbEntity
  8
shade
370
     0
100
AcDbLine
 10
232.72889680383
 20
218.577075576121
 30
0.0
 11
232.940181541946
 21
219.79490718638
 31
0.0
  0
LINE
  5
F8D
330
1F
100
AcDbEntity
  8
shade
370
     0
100
AcDbLine
 10
233.39547032868
 20
217.879910925091
 30
0.0
 11
234.265688451585
 21
218.541062834835
 31
0.0
  0
LWPOLYLINE
  5
F8E
330
1F
100
AcDbEntity
  8
shade
100
AcDbPolyline
 90
        7
 70
     0
 43
0.0
 10
221.556676048345
 20
212.156979957017
 42
-0.001969910965
 10
222.542289404559
 20
212.61862275784
 42
-0.007210663885
 10
223.536116690961
 20
213.062049348208
 42
-0.008583112139
 10
225.050561636519
 20
213.681184345686
 42
-0.001838828793
 10
226.577796276773
 20
214.268703461161
 10
227.335202494622
 20
214.55793492072
 42
0.000630101029
 10
227.598226881122
 20
214.659414086824
  0
LWPOLYLINE
  5
F8F
330
1F
100
AcDbEntity
  8
shade
100
AcDbPolyline
 90
       11
 70
     0
 43
0.0
 10
219.089967968755
 20
210.390850844599
 42
-0.00117518038
 10
219.265770298649
 20
210.567652680787
 42
-0.005896106139
 10
219.444043470048
 20
210.741939009342
 42
-0.008383395579
 10
219.623400547958
 20
210.90753673388
 42
-0.011002039048
 10
219.809022549483
 20
211.066042068905
 42
-0.015475080649
 10
220.108626795616
 20
211.295609622457
 42
-0.012630369272
 10
220.420704334674
 20
211.508017588185
 42
-0.010342496809
 10
220.738902879975
 20
211.703834576925
 42
-0.005971622858
 10
221.063366199574
 20
211.889193643314
 42
-0.003051739974
 10
221.309528815413
 20
212.023988458946
 42
-0.000608655137
 10
221.556676048345
 20
212.156979957017
  0
LINE
  5
F90
330
1F
100
AcDbEntity
  8
shade
370
     0
100
AcDbLine
 10
218.965936693592
 20
210.382874944679
 30
0.0
 11
214.810942856158
 21
206.3388977876
 31
0.0
  0
LWPOLYLINE
  5
F91
330
1F
100
AcDbEntity
  8
shade
100
AcDbPolyline
 90
       37
 70
     0
 43
0.0
 10
217.194565011014
 20
191.615656147912
 42
-0.011889511694
 10
216.763018548987
 20
191.923202118894
 42
-0.015975451724
 10
216.277639486685
 20
192.31163069796
 42
-0.015462613839
 10
215.86989539963
 20
192.682273075467
 42
-0.018907345292
 10
215.488659643011
 20
193.079949514948
 42
-0.014589461459
 10
215.241020236754
 20
193.375569428507
 42
-0.017313262058
 10
215.012772064136
 20
193.686322542192
 42
-0.029908272905
 10
214.707718800735
 20
194.196285615074
 42
-0.039091706272
 10
214.475979724684
 20
194.742658138934
 42
-0.032876743152
 10
214.363707579461
 20
195.169386216465
 42
-0.031463454598
 10
214.307094072539
 20
195.607070610168
 42
-0.03763428649
 10
214.311706817016
 20
196.092319464587
 42
-0.039367208251
 10
214.390642175304
 20
196.570996055787
 42
-0.029067078465
 10
214.509599738165
 20
196.955221322737
 42
-0.0178305538
 10
214.664175454651
 20
197.327011149903
 42
-0.009315762137
 10
214.805327044631
 20
197.620484301355
 42
-0.000851994985
 10
214.952442128168
 20
197.911076672475
 42
-0.04048043825
 10
215.957340381015
 20
199.152416438566
 42
-0.028628375686
 10
217.125531184876
 20
200.245323550096
 42
-0.013585208117
 10
217.88540592463
 20
200.84450462054
 42
-0.008356670785
 10
218.671014053454
 20
201.409904712923
 42
-0.011789858804
 10
219.856968529231
 20
202.192905608392
 42
-0.009151936825
 10
221.074801608353
 20
202.925645214587
 42
-0.011625577678
 10
222.981602196007
 20
203.967574478854
 42
-0.006448222162
 10
224.925174711501
 20
204.940096216538
 42
-0.001635456108
 10
225.58356786052
 20
205.256338126415
 42
-0.001105082099
 10
226.24368637495
 20
205.568967512249
 10
228.887994880721
 20
206.802536889065
 10
233.147076434156
 20
208.795683928407
 42
0.001354726199
 10
233.889059894704
 20
209.144992146005
 42
0.003869374327
 10
234.627333897304
 20
209.502024138645
 42
0.009830160901
 10
235.919840806742
 20
210.171377796493
 42
0.018273300569
 10
237.172113154227
 20
210.911926596963
 42
0.015764353703
 10
238.015044994092
 20
211.491227005251
 42
0.021256102202
 10
238.812496085051
 20
212.13102729929
 42
0.032590681749
 10
239.39072748093
 20
212.707424889307
 42
0.025329103338
 10
239.62015413241
 20
212.996310653228
  0
LWPOLYLINE
  5
F92
330
1F
100
AcDbEntity
  8
shade
100
AcDbPolyline
 90
       36
 70
     0
 43
0.0
 10
216.29570801722
 20
212.499734262471
 42
-0.011183879704
 10
216.095604662691
 20
212.801481076499
 42
-0.040069763343
 10
215.927912049641
 20
213.121164732623
 42
-0.073197446984
 10
215.777380683383
 20
213.694241502861
 42
-0.086613696719
 10
215.813972017739
 20
214.283087471132
 42
-0.043104619893
 10
215.899749280057
 20
214.541053300837
 42
-0.035777538012
 10
216.025115065562
 20
214.782628517171
 42
-0.035881596152
 10
216.207927114261
 20
215.03764712399
 42
-0.027556653529
 10
216.42175429861
 20
215.26773596301
 42
-0.041700491353
 10
216.842498924045
 20
215.610461808561
 42
-0.026407108578
 10
217.306835637906
 20
215.893495319471
 42
-0.010122492887
 10
217.554409386779
 20
216.020615663728
 42
-0.005703791436
 10
217.805917216419
 20
216.139854177589
 42
-0.014300207481
 10
218.639979420273
 20
216.495150987209
 42
-0.011286228308
 10
219.491253800028
 20
216.807370590593
 42
-0.013107745895
 10
220.707267054753
 20
217.187192062683
 42
-0.007991281682
 10
221.93848597165
 20
217.515450380129
 42
-0.004239316385
 10
222.651280051234
 20
217.686932621404
 42
-0.003648252428
 10
223.366697142515
 20
217.847151121065
 42
-0.007821185237
 10
225.159636129332
 20
218.205705074534
 42
-0.004201635081
 10
226.960834280804
 20
218.521075274546
 10
229.011876121049
 20
218.857059016767
 42
0.001069780783
 10
229.526819386869
 20
218.943805649479
 42
0.001664874089
 10
230.041278834937
 20
219.033367061431
 10
230.558118287026
 20
219.127211368503
 10
231.076827953664
 20
219.226224909724
 10
231.367790929371
 20
219.284548649013
 42
0.009366132032
 10
231.932553098866
 20
219.411958071058
 42
0.017752158961
 10
232.489325334645
 20
219.569721745383
 42
0.00332347236
 10
232.633796550655
 20
219.617319745216
 42
0.00186989043
 10
232.777767770258
 20
219.666416470536
 42
0.006776927702
 10
232.825775251356
 20
219.683720221559
 42
0.041164949445
 10
232.871754772648
 20
219.705466603862
 42
0.103061027114
 10
232.920631278148
 20
219.749159647965
 42
0.151256358047
 10
232.941705358026
 20
219.80955982051
 42
0.090935065386
 10
232.937580905618
 20
219.837626649174
  0
LWPOLYLINE
  5
F93
330
1F
100
AcDbEntity
  8
shade
100
AcDbPolyline
 90
       28
 70
     0
 43
0.0
 10
218.803069424963
 20
216.615079526109
 42
-0.016473959618
 10
218.694391310857
 20
216.784572536304
 42
-0.081011030632
 10
218.621466071321
 20
216.969540788744
 42
-0.076699617125
 10
218.608768689519
 20
217.178196823451
 42
-0.056688765133
 10
218.651669397888
 20
217.383932495297
 42
-0.078206119746
 10
218.796837273663
 20
217.666260525649
 42
-0.053507137671
 10
219.01180847632
 20
217.902671754087
 42
-0.053306318202
 10
219.31724610572
 20
218.120466894164
 42
-0.038289015342
 10
219.658162922968
 20
218.279460659909
 42
-0.020652755554
 10
219.904414243598
 20
218.360668061866
 42
-0.01154389458
 10
220.15552759761
 20
218.425901161902
 42
-0.005306910839
 10
220.325555752532
 20
218.464004407692
 42
-0.001475158616
 10
220.49609394793
 20
218.499799811266
 10
221.358656425055
 20
218.673392855016
 42
-0.002639800067
 10
222.217204247685
 20
218.836714997072
 42
-0.002603563514
 10
223.077417869406
 20
218.991025046379
 10
223.935042682586
 20
219.135736514105
 10
224.792447453732
 20
219.271493109936
 42
-0.002456545306
 10
225.650354314139
 20
219.39863099184
 42
-0.002367333526
 10
226.509448561836
 20
219.517486326142
 42
-0.001165868074
 10
226.939831797254
 20
219.573933175952
 42
-0.001139256392
 10
227.370470744743
 20
219.628395266629
 10
228.364991785036
 20
219.746698207608
 10
229.36205346771
 20
219.855344591638
 10
230.360706368516
 20
219.954770471712
 10
231.360001063196
 20
220.045411900823
 42
-0.000533407325
 10
231.669452560103
 20
220.071833011931
 42
0.005294107955
 10
232.449734992157
 20
220.161665598781
  0
LWPOLYLINE
  5
F94
330
1F
100
AcDbEntity
  8
shade
100
AcDbPolyline
 90
       32
 70
     0
 43
0.0
 10
220.921775449478
 20
218.622325937081
 42
-0.023301787096
 10
220.882085935913
 20
218.695967120715
 42
-0.126814771068
 10
220.866336657562
 20
218.775518753854
 42
-0.078194932246
 10
220.879065881407
 20
218.834400363313
 42
-0.042277047825
 10
220.905687168459
 20
218.889024034864
 42
-0.042790231283
 10
220.95829549773
 20
218.962169489023
 42
-0.017114160313
 10
221.019453385734
 20
219.028710494175
 42
-0.04081498024
 10
221.183408830726
 20
219.170125492543
 42
-0.042247223071
 10
221.368436925444
 20
219.282472681845
 42
-0.024266155124
 10
221.53700091214
 20
219.356282085427
 42
-0.010099099652
 10
221.71040401053
 20
219.418403081642
 42
-0.030388236284
 10
222.52063541958
 20
219.636587567119
 42
-0.01911258479
 10
223.349386179096
 20
219.773792815702
 42
-0.007852614274
 10
223.8112178337
 20
219.824867090341
 42
-0.004064625698
 10
224.274177310375
 20
219.864924169859
 42
-0.001098703135
 10
224.459629314708
 20
219.879042434489
 42
-0.00049588593
 10
224.645125758121
 20
219.892569215032
 10
225.180032037064
 20
219.929912196022
 10
225.714964543944
 20
219.96475849225
 42
-0.001384663847
 10
226.249874807945
 20
219.996748296656
 42
-0.001607823033
 10
226.784966233954
 20
220.025536087327
 10
227.320064413327
 20
220.050754914634
 42
-0.000929026174
 10
227.587635262667
 20
220.061915626333
 42
-0.000984752628
 10
227.855246813098
 20
220.072052114092
 42
-0.001012493602
 10
228.122869697974
 20
220.081118636457
 42
-0.001068106077
 10
228.39052793138
 20
220.089071449927
 10
228.925922266293
 20
220.101456686369
 42
0.009746674562
 10
229.365547839474
 20
220.113107296344
 42
-0.011610886236
 10
229.805208392458
 20
220.121409436348
 10
230.684752720652
 20
220.1278817586
 10
231.564469183533
 20
220.132179380576
 10
232.449734992157
 20
220.161665598781
  0
LWPOLYLINE
  5
F95
330
1F
100
AcDbEntity
  8
shade
100
AcDbPolyline
 90
       47
 70
     0
 43
0.0
 10
215.131224623219
 20
198.54269420371
 10
214.901280946109
 20
198.757744562879
 42
-0.006550201247
 10
214.433899044827
 20
199.209975400026
 42
-0.015378091369
 10
213.986965331165
 20
199.682078617377
 42
-0.018720015285
 10
213.607734456531
 20
200.141725511156
 42
-0.028559983019
 10
213.273898199534
 20
200.634660080084
 42
-0.031463520579
 10
213.004026394912
 20
201.159066273861
 42
-0.038423866641
 10
212.810003114359
 20
201.715403825327
 42
-0.044858830887
 10
212.710030400503
 20
202.300983111412
 42
-0.048091917405
 10
212.719928703673
 20
202.894595537298
 42
-0.035496949198
 10
212.809327219707
 20
203.375637995178
 42
-0.03154877734
 10
212.962291165748
 20
203.840664429635
 42
-0.055581441158
 10
213.384176957597
 20
204.627988140711
 42
-0.03137681871
 10
213.938170265559
 20
205.333469124917
 42
-0.018886031248
 10
214.398535420103
 20
205.81186333508
 42
-0.013574524821
 10
214.889133212666
 20
206.259540680728
 42
-0.022059868528
 10
215.861993825147
 20
207.027804368693
 42
-0.017660782597
 10
216.893106746076
 20
207.716692918949
 42
-0.018190453655
 10
218.193943398714
 20
208.45684724703
 42
-0.011657983525
 10
219.537141844969
 20
209.11833806487
 42
-0.001649025262
 10
219.764982788834
 20
209.223105510898
 42
-0.001476656878
 10
219.993474461637
 20
209.326446714865
 10
220.913316195785
 20
209.728070535638
 10
221.838099603465
 20
210.115616160989
 10
223.358768462835
 20
210.73551036067
 10
224.877462926572
 20
211.340980971518
 10
227.907635145128
 20
212.533383136233
 10
229.276953774015
 20
213.075981887596
 10
230.645702618325
 20
213.626377945512
 10
232.015728959137
 20
214.188982392244
 42
0.001238681506
 10
232.703070799995
 20
214.476778596373
 42
0.001406154699
 10
233.388880077564
 20
214.768206310057
 42
0.001217675209
 10
233.749386614485
 20
214.923638354458
 42
0.003054429421
 10
234.108546331263
 20
215.082142436388
 10
234.464870195165
 20
215.245426480695
 42
0.011651409681
 10
235.158847350232
 20
215.59090915716
 42
0.019992773123
 10
235.829233177052
 20
215.97938211591
 42
0.020609394862
 10
236.362046607897
 20
216.348915913524
 42
0.040883447905
 10
236.844320873512
 20
216.779921060443
 42
0.01647792286
 10
236.950456614604
 20
216.899285277648
 42
0.049291675669
 10
237.039644777389
 20
217.030962120753
 42
0.084637775003
 10
237.093080856685
 20
217.188008148181
 42
0.08790149164
 10
237.090387316774
 20
217.353687642534
 42
0.100736316997
 10
236.980610522034
 20
217.618933896163
 42
0.062346207423
 10
236.789435392046
 20
217.837905279644
 42
0.025066938716
 10
236.672714332977
 20
217.931986846724
 42
0.01966146396
 10
236.547995980323
 20
218.015306867919
  0
LWPOLYLINE
  5
F96
330
1F
100
AcDbEntity
  8
shade
100
AcDbPolyline
 90
        9
 70
     0
 43
0.0
 10
232.439536969889
 20
218.814764427797
 42
-0.000673037254
 10
232.550011006118
 20
218.717096622858
 42
-0.003370923981
 10
232.659689117345
 20
218.618540670015
 42
-0.003721091154
 10
232.745205055086
 20
218.53947583628
 42
-0.004903942396
 10
232.829342756142
 20
218.458949335809
 42
-0.003902346
 10
232.909013139946
 20
218.379963513805
 42
-0.002256613693
 10
232.98770616223
 20
218.300000718212
 42
-0.001153946485
 10
233.046339922639
 20
218.239602263918
 42
-0.000230636306
 10
233.104806354677
 20
218.179041520035
  0
LWPOLYLINE
  5
F97
330
1F
100
AcDbEntity
  8
shade
100
AcDbPolyline
 90
        9
 70
     0
 43
0.0
 10
232.38269062636
 20
218.755414727326
 42
-0.0008157609
 10
232.489737720252
 20
218.659907834672
 42
-0.004086158625
 10
232.595839953025
 20
218.56335917665
 42
-0.004420159364
 10
232.675512229453
 20
218.488343727393
 42
-0.004315306682
 10
232.753861975743
 20
218.411947717098
 42
-0.00199109811
 10
232.797455225342
 20
218.368355516871
 42
-0.00152158985
 10
232.84074129319
 20
218.324457991495
 42
-0.002340557542
 10
232.926669127737
 20
218.235959340235
 42
-0.000467503564
 10
233.012099489973
 20
218.146978570673
  0
ARC
  5
F98
330
1F
100
AcDbEntity
  8
shade
370
     0
100
AcDbCircle
 10
223.814339971817
 20
209.245371786984
 30
0.0
 40
10.65242856308519
100
AcDbArc
 50
25.967529045883
 51
30.237639593831
  0
LWPOLYLINE
  5
F99
330
1F
100
AcDbEntity
  8
shade
100
AcDbPolyline
 90
        9
 70
     0
 43
0.0
 10
233.39547032868
 20
217.879910925091
 42
-0.000144065642
 10
233.448817375871
 20
217.812197138966
 42
-0.000288144543
 10
233.502164423062
 20
217.744483352841
 42
-0.000252125358
 10
233.555433458339
 20
217.676718085865
 42
-0.000396306851
 10
233.608614556544
 20
217.608883805866
 42
-0.002305060856
 10
233.819754811642
 20
217.336549792432
 42
-0.004620336302
 10
234.027096263348
 20
217.061326376178
 42
-0.002743894013
 10
234.128660896507
 20
216.922296000848
 42
-0.003323231345
 10
234.228530367835
 20
216.782044470098
  0
LWPOLYLINE
  5
F9A
330
1F
100
AcDbEntity
  8
shade
100
AcDbPolyline
 90
        9
 70
     0
 43
0.0
 10
233.307179469266
 20
217.835242164412
 42
-0.000256829234
 10
233.433069161712
 20
217.675280889808
 42
-0.001644992468
 10
233.59335098573
 20
217.470017663645
 42
-0.000694657084
 10
233.646437253377
 20
217.401373534818
 42
-0.000841344194
 10
233.699312372139
 20
217.33256668004
 42
-0.003520969598
 10
233.882161130414
 20
217.090277796904
 42
-0.005322022373
 10
234.060690743481
 20
216.844800956952
 42
-0.000833505305
 10
234.085753803261
 20
216.809432142732
 42
-0.000870151525
 10
234.110696202059
 20
216.773978140731
  0
LWPOLYLINE
  5
F9B
330
1F
100
AcDbEntity
  8
shade
100
AcDbPolyline
 90
        2
 70
     0
 43
0.0
 10
222.345831736138
 20
217.879910925091
 42
0.001534150589
 10
222.16273709527
 20
217.646173727019
  0
LWPOLYLINE
  5
F9C
330
1F
100
AcDbEntity
  8
shade
100
AcDbPolyline
 90
        2
 70
     0
 43
0.0
 10
222.222338953563
 20
217.879910925091
 42
0.001779103802
 10
222.010143131844
 20
217.608749842886
  0
ARC
  5
F9D
330
1F
100
AcDbEntity
  8
shade
370
     0
100
AcDbCircle
 10
245.592047061044
 20
205.789764556263
 30
0.0
 40
24.92829011136979
100
AcDbArc
 50
170.843598690651
 51
174.979379350096
  0
ARC
  5
F9E
330
1F
100
AcDbEntity
  8
shade
370
     0
100
AcDbCircle
 10
231.803469310431
 20
209.245371786984
 30
0.0
 40
10.65242856308519
100
AcDbArc
 50
133.173757687122
 51
142.720738521898
  0
LWPOLYLINE
  5
F9F
330
1F
100
AcDbEntity
  8
shade
100
AcDbPolyline
 90
       41
 70
     0
 43
0.0
 10
240.843162711806
 20
206.309117335385
 42
-0.0002186826
 10
240.791535635279
 20
206.256054877099
 42
-0.00404705713
 10
240.60201960437
 20
206.064565774966
 42
-0.010662829
 10
240.406990951036
 20
205.878770249653
 42
-0.008656428654
 10
239.769922137439
 20
205.317170385155
 42
-0.015959806181
 10
239.106227809898
 20
204.787791091814
 42
-0.007881306883
 10
238.304023446912
 20
204.208266288271
 42
-0.00674399065
 10
237.485186268308
 20
203.652432070638
 42
-0.013861365593
 10
235.484795139786
 20
202.411753424964
 42
-0.008336336692
 10
233.430811421944
 20
201.260789521787
 10
232.225792544752
 20
200.623150858786
 42
-0.001344956299
 10
231.61838644111
 20
200.308907500653
 42
-0.000947884339
 10
231.009544601111
 20
199.997452239132
 10
229.787245933916
 20
199.379130588407
 10
227.345209800431
 20
198.146365896045
 42
0.003583512082
 10
225.545176836391
 20
197.212018366375
 42
0.007391773945
 10
223.766233745875
 20
196.238469263896
 42
0.009211563132
 10
222.06525757979
 20
195.232803337922
 42
0.013682521568
 10
220.412431695582
 20
194.150559333276
 42
0.008027337564
 10
219.694911739085
 20
193.634897004255
 42
0.016826601925
 10
219.004200216394
 20
193.084463144185
 42
0.021827821027
 10
218.351431845616
 20
192.476161381996
 42
0.033706782906
 10
217.77085504852
 20
191.8001657434
 42
0.025969543911
 10
217.444569925929
 20
191.313157850025
 42
0.031567248566
 10
217.176516598931
 20
190.792251275127
 42
-0.207730227006
 10
217.167407856115
 20
190.783782195175
 42
0.065948698972
 10
217.155430064528
 20
190.777681362017
 42
0.039769732431
 10
217.065460006383
 20
190.37637110746
 42
0.0461786834
 10
217.045438579711
 20
189.966040268387
 42
0.04791246382
 10
217.103608799964
 20
189.551121476602
 42
0.04325633972
 10
217.23611339707
 20
189.153274484565
 42
0.02765414396
 10
217.368083215366
 20
188.889073769159
 42
0.023088231675
 10
217.526208062889
 20
188.639483205238
 42
0.024430031135
 10
217.740206398308
 20
188.363597565794
 42
0.019192089785
 10
217.9775344636
 20
188.107287142197
 42
0.019584770493
 10
218.275212941617
 20
187.832027130445
 42
0.015024350773
 10
218.591314314597
 20
187.577932102468
 42
0.015986982611
 10
218.995765204989
 20
187.292196363282
 42
0.01193894139
 10
219.415629907904
 20
187.029422738205
 42
0.008941567218
 10
219.782440351712
 20
186.820639752424
 42
0.005282527008
 10
220.071991620172
 20
186.6665662169
  0
LWPOLYLINE
  5
FA0
330
1F
100
AcDbEntity
  8
shade
100
AcDbPolyline
 90
       17
 70
     0
 43
0.0
 10
226.586555150321
 20
181.486890049571
 10
226.242815487127
 20
181.533381359788
 42
-0.011901878528
 10
225.986889514837
 20
181.578227075137
 42
-0.036583404637
 10
225.737103982072
 20
181.647466156067
 42
-0.049006051096
 10
225.519783158461
 20
181.750167866352
 42
-0.034933824264
 10
225.322197335092
 20
181.888042649165
 42
-0.022205455202
 10
225.260517084171
 20
181.942522304372
 42
-0.081775503016
 10
225.211994420304
 20
182.007731944215
 42
-0.095161166435
 10
225.195258703521
 20
182.064481189729
 42
-0.102041956936
 10
225.201522295256
 20
182.123152974634
 42
-0.089619284746
 10
225.23863211497
 20
182.1929796739
 42
-0.038135341887
 10
225.292863828703
 20
182.251958693167
 42
-0.018812053847
 10
225.387352576732
 20
182.333743576839
 42
-0.009011455157
 10
225.486297373393
 20
182.410188729103
 42
-0.036714360402
 10
225.779412487924
 20
182.596578214809
 42
-0.019263528104
 10
226.020741498607
 20
182.746150844644
 10
226.147778615597
 20
182.819375739842
  0
LWPOLYLINE
  5
FA1
330
1F
100
AcDbEntity
  8
shade
100
AcDbPolyline
 90
       15
 70
     0
 43
0.0
 10
230.473462871696
 20
181.976258655336
 42
-0.000844211982
 10
230.418406335502
 20
181.933774164428
 42
-0.004240897487
 10
230.36292249637
 20
181.891853243372
 42
-0.012374337022
 10
230.262942708292
 20
181.8214061117
 42
-0.018007800262
 10
230.158905356559
 20
181.757181909322
 42
-0.024391853609
 10
229.9929199371
 20
181.673227730061
 42
-0.020040574881
 10
229.820072929129
 20
181.604306445761
 42
-0.020120241166
 10
229.6202637266
 20
181.542692965802
 42
-0.015944953464
 10
229.416472747225
 20
181.49562368887
 42
-0.037477535366
 10
228.904949318163
 20
181.433850739523
 42
-0.034090091924
 10
228.389594650589
 20
181.445650850946
 42
-0.007335478141
 10
228.277376544238
 20
181.457558669003
 42
-0.007288088226
 10
228.165554486843
 20
181.472742947205
 42
-0.002857624592
 10
228.113072662016
 20
181.48095713466
 42
-0.000572156144
 10
228.060647595186
 20
181.48953126194
  0
LWPOLYLINE
  5
FA2
330
1F
100
AcDbEntity
  8
shade
100
AcDbPolyline
 90
       36
 70
     0
 43
0.0
 10
227.294888351073
 20
181.839893374834
 42
0.003564161199
 10
227.320323672655
 20
181.752897356122
 42
0.018278908617
 10
227.349514915262
 20
181.667150175678
 10
227.400638505751
 20
181.540291453037
 42
-0.00168210806
 10
227.407073294942
 20
181.522693614365
 42
0.012453629525
 10
227.413883576006
 20
181.505243779358
 42
0.047241438285
 10
227.430073557407
 20
181.474993893899
 42
0.066729796484
 10
227.452573353468
 20
181.449293350507
 42
0.109748770188
 10
227.515168001839
 20
181.415112262717
 42
0.081747977686
 10
227.586754430715
 20
181.406620884826
 42
0.030205431159
 10
227.626807404433
 20
181.410860610135
 42
0.005388899726
 10
227.666527605443
 20
181.41795028853
 42
-0.004298883328
 10
227.869091828366
 20
181.454561909997
 42
-0.011415786625
 10
228.072660931452
 20
181.484783490687
 42
0.00440940122
 10
228.181616801292
 20
181.499401742518
 42
0.01151795874
 10
228.290027282295
 20
181.517478539563
 42
0.013198612634
 10
228.506324363718
 20
181.56463417448
 42
-0.002727944524
 10
228.721658475117
 20
181.616325599229
 42
-0.009373129494
 10
229.087146082557
 20
181.694758834257
 42
-0.001806753414
 10
229.454358013712
 20
181.765013014792
 42
0.001123039422
 10
229.729085157031
 20
181.817183891174
 42
0.005422572568
 10
230.00309038102
 20
181.872943540963
 42
0.015470041845
 10
230.525972536856
 20
182.002310003792
 42
0.010565033419
 10
231.041545091524
 20
182.15875365564
 42
0.002737406186
 10
231.251836500811
 20
182.228724709058
 42
0.003878869614
 10
231.461180472526
 20
182.301471137487
 42
0.009600665005
 10
231.693397165551
 20
182.389249997617
 42
0.020898231576
 10
231.919675678371
 20
182.49094991195
 42
0.026802286545
 10
232.131785562025
 20
182.611770080005
 42
0.03878601885
 10
232.325971902084
 20
182.7590546065
 42
0.053228820608
 10
232.519947283698
 20
182.97234571878
 42
0.065949138978
 10
232.657734570372
 20
183.224598961827
 42
0.02716150262
 10
232.691594233929
 20
183.328891806749
 42
0.0207053148
 10
232.715346505018
 20
183.436009386694
 42
0.004274239596
 10
232.722332577685
 20
183.477137226586
 42
0.000852689624
 10
232.728896803896
 20
183.51833598237
  0
LWPOLYLINE
  5
FA3
330
1F
100
AcDbEntity
  8
shade
100
AcDbPolyline
 90
       43
 70
     0
 43
0.0
 10
227.431253631319
 20
181.472742947135
 42
-0.010076992831
 10
227.286076655202
 20
181.434261045495
 42
-0.037013454155
 10
227.138300381408
 20
181.409659763883
 42
-0.014916829325
 10
227.042937458753
 20
181.403822085139
 42
0.000095155433
 10
226.947400910898
 20
181.400811882827
 42
-0.003405322936
 10
226.858210367665
 20
181.398592573368
 42
-0.033302698656
 10
226.769292572313
 20
181.4029096969
 42
-0.045903326457
 10
226.691220359828
 20
181.419292194682
 42
-0.055677109703
 10
226.618198678978
 20
181.451013932832
 42
-0.055636273419
 10
226.598794963336
 20
181.465227423582
 42
-0.14691754342
 10
226.586963777527
 20
181.485159829774
 42
-0.187852168852
 10
226.593794353928
 20
181.538463709324
 42
-0.096071170143
 10
226.629849416186
 20
181.582115199056
 42
-0.05123070069
 10
226.693031188126
 20
181.624098452139
 42
-0.026573398062
 10
226.762217889936
 20
181.655911326957
 42
-0.015598494629
 10
226.823519263489
 20
181.67805596825
 42
-0.000159050682
 10
226.885518080793
 20
181.698268003913
 10
227.294888351073
 20
181.839893374834
 42
-0.010966190383
 10
227.55092304875
 20
181.918734034719
 42
-0.001501193535
 10
227.808904641122
 20
181.991184006402
 42
0.001105152202
 10
228.193566824071
 20
182.098881539534
 42
0.000433208775
 10
228.577896626186
 20
182.207762284369
 10
229.346642630237
 20
182.426027133211
 10
229.946548230047
 20
182.594999880314
 10
230.246276312788
 20
182.680559218533
 10
230.545356541428
 20
182.767899992643
 10
230.843415383968
 20
182.857821797226
 42
0.007721735369
 10
231.477175471586
 20
183.063513070213
 42
0.01021288258
 10
232.103095797804
 20
183.291778617417
 42
0.00704961431
 10
232.663731675804
 20
183.518453923745
 42
0.003131249368
 10
233.219680571061
 20
183.756515819732
 42
0.001726233083
 10
233.448500289011
 20
183.857139958991
 42
0.005050144905
 10
233.675925064101
 20
183.960851207663
 42
0.01281380794
 10
234.064946091308
 20
184.155328328476
 42
0.023925727319
 10
234.438337599122
 20
184.377654328607
 42
0.023731562567
 10
234.72184173731
 20
184.585380930659
 42
0.030921854854
 10
234.980796346836
 20
184.822601148609
 42
0.044632542863
 10
235.250813409595
 20
185.157777676
 42
0.057469984162
 10
235.446806715454
 20
185.539707525004
 42
0.03861244718
 10
235.526315780608
 20
185.814013117489
 42
0.035548341051
 10
235.564452100869
 20
186.097182753659
 42
0.021631179165
 10
235.56939037186
 20
186.349764082383
 42
0.004216174819
 10
235.561265147004
 20
186.602490636412
  0
LWPOLYLINE
  5
FA4
330
1F
100
AcDbEntity
  8
shade
100
AcDbPolyline
 90
       52
 70
     0
 43
0.0
 10
226.592032327815
 20
181.472742947205
 10
226.143694188488
 20
181.533381359788
 42
-0.011901878529
 10
225.887768216195
 20
181.578227075137
 42
-0.036583404637
 10
225.637982683435
 20
181.647466156067
 42
-0.049006051096
 10
225.420661859822
 20
181.750167866352
 42
-0.034933824264
 10
225.223076036449
 20
181.888042649165
 42
-0.022205455202
 10
225.161395785533
 20
181.942522304372
 42
-0.081775503016
 10
225.11287312167
 20
182.007731944215
 42
-0.095161166435
 10
225.096137404882
 20
182.064481189729
 42
-0.102041956937
 10
225.102400996617
 20
182.123152974634
 42
-0.089619284746
 10
225.139510816331
 20
182.1929796739
 42
-0.038135341887
 10
225.193742530066
 20
182.251958693167
 42
-0.018812053846
 10
225.288231278095
 20
182.333743576839
 42
-0.009011455156
 10
225.387176074753
 20
182.410188729103
 42
-0.036714360402
 10
225.680291189285
 20
182.596578214809
 42
-0.017558691689
 10
225.99251627782
 20
182.750447671927
 42
-0.004533808096
 10
226.27674945646
 20
182.875237447501
 42
-0.001162757639
 10
226.562396866562
 20
182.996785574408
 42
-0.00129500593
 10
226.769454934223
 20
183.083692930144
 42
-0.001267139284
 10
226.976955649356
 20
183.16953813667
 10
227.392246404397
 20
183.337714345947
 10
227.808904641122
 20
183.501790708308
 10
228.192256534976
 20
183.648949357395
 42
-0.002333735305
 10
228.770053341013
 20
183.865213129451
 42
-0.001255851752
 10
229.34939232008
 20
184.077324907172
 42
-0.000739038524
 10
230.12346144981
 20
184.357235428985
 42
0.001161775875
 10
230.897530579536
 20
184.637145950799
 10
231.490848826626
 20
184.855164375748
 10
232.082037962511
 20
185.077514933872
 42
0.001370583818
 10
232.376701552952
 20
185.190871059726
 42
0.001609958398
 10
232.670683767627
 20
185.30598151012
 42
0.001729563766
 10
232.963964927498
 20
185.423082572748
 42
0.001966179462
 10
233.25637202241
 20
185.542347989441
 10
233.547977624816
 20
185.664051156799
 10
233.838688507301
 20
185.788398256782
 42
0.002436381138
 10
234.128610538401
 20
185.915682616282
 42
0.00266187775
 10
234.417219002742
 20
186.045916197091
 10
234.704935060803
 20
186.179533008656
 42
0.005988076628
 10
235.29920650733
 20
186.468366201815
 42
0.0082013515
 10
235.885006374105
 20
186.773926083679
 42
0.013844251829
 10
236.517268994914
 20
187.140040540547
 42
0.02445822429
 10
237.119173770405
 20
187.553125426793
 42
0.024988874895
 10
237.590454974048
 20
187.950356856714
 42
0.032839441882
 10
238.012379551943
 20
188.398898030279
 42
0.02840553117
 10
238.267509007135
 20
188.747071640863
 42
0.04122033559
 10
238.47150080046
 20
189.126596974651
 42
0.064396062424
 10
238.63519924018
 20
189.691236064721
 42
0.061646464015
 10
238.653097881001
 20
190.279261211335
 42
0.018285159559
 10
238.620546316051
 20
190.529659486159
 42
0.005223835707
 10
238.576235671881
 20
190.778403986035
 42
0.002590445734
 10
238.50186265662
 20
191.161162543989
 42
0.000522921286
 10
238.425106779145
 20
191.543455506251
  0
LWPOLYLINE
  5
FA5
330
1F
100
AcDbEntity
  8
shade
100
AcDbPolyline
 90
       68
 70
     0
 43
0.0
 10
240.502230016731
 20
198.488067997123
 10
240.515946223999
 20
198.480839954291
 42
0.011591269512
 10
240.689699624661
 20
198.098937905018
 42
0.000710092997
 10
240.872843955662
 20
197.721324541152
 42
-0.005725522445
 10
241.043232501179
 20
197.360846771558
 42
-0.018621283135
 10
241.19577886771
 20
196.992734622294
 42
-0.025947891635
 10
241.319710438973
 20
196.597337940995
 42
-0.032230405733
 10
241.396858146905
 20
196.190527225335
 42
-0.051832068691
 10
241.40943386369
 20
195.542536177851
 42
-0.04882132037
 10
241.292227332593
 20
194.904709666006
 42
-0.040752264252
 10
241.080292771952
 20
194.342946469147
 42
-0.031893898443
 10
240.788918463399
 20
193.817090684225
 42
-0.02665441367
 10
240.452585447532
 20
193.348996164904
 42
-0.020560777812
 10
240.073404062521
 20
192.91444303435
 42
-0.012652007266
 10
239.79608326603
 20
192.636276068858
 42
-0.010819437878
 10
239.505990430967
 20
192.371405574019
 42
-0.014738498426
 10
239.053935101041
 20
191.999167595016
 42
-0.012208233324
 10
238.582421495881
 20
191.651772157065
 42
-0.001904714497
 10
238.503967972052
 20
191.597317819613
 42
-0.001858700998
 10
238.425106778977
 20
191.543455506142
 42
-0.014200316787
 10
237.253328837269
 20
190.810988905367
 42
-0.01119041482
 10
236.045699036647
 20
190.138839394442
 42
-0.012152235381
 10
234.445601739119
 20
189.343675903964
 42
-0.00704472474
 10
232.815843187231
 20
188.610371215817
 42
-0.002349018378
 10
232.080490706994
 20
188.29597654652
 42
-0.001371317081
 10
231.342813933654
 20
187.98705979059
 10
229.859277095109
 20
187.375100652246
 10
229.116346106053
 20
187.068279507521
 42
0.001265485767
 10
228.373937874978
 20
186.758100569893
 42
0.002219531664
 10
227.633714537526
 20
186.442756700695
 42
-0.02229774788
 10
227.270643214044
 20
186.294890927097
 42
0.018832994673
 10
226.826630434307
 20
186.111792873597
 10
226.712812680271
 20
186.064098687516
 42
-0.000852248184
 10
226.660399215589
 20
186.038397468804
 42
-0.000755895611
 10
226.607903343382
 20
186.012864951562
 42
-0.003638149136
 10
226.283414331892
 20
185.858553898222
 42
-0.000611053356
 10
225.957617279764
 20
185.707002113881
 42
0.000760206833
 10
225.623174956185
 20
185.551307416936
 42
0.003487801618
 10
225.290075186513
 20
185.39278062892
 42
0.005795569938
 10
224.903687434893
 20
185.200015137821
 42
0.009813905464
 10
224.523552452725
 20
184.995308885572
 42
0.00999488542
 10
224.210352322209
 20
184.810284018357
 42
0.013580867981
 10
223.906272213011
 20
184.610736859532
 42
0.009945649364
 10
223.714278976504
 20
184.471399233292
 42
0.011789549673
 10
223.528536899326
 20
184.323861994718
 42
0.013463524265
 10
223.367172248907
 20
184.181829074241
 42
0.027313915898
 10
223.218080728358
 20
184.02729966495
 42
0.018107692961
 10
223.141335258839
 20
183.931745163866
 42
0.022854944077
 10
223.072692260594
 20
183.830271080782
 42
0.045880727819
 10
222.979653794155
 20
183.64122801241
 42
0.058130918703
 10
222.927756094356
 20
183.43757540931
 10
222.920414224078
 20
183.42391611577
 42
0.041502588231
 10
222.969589026956
 20
183.233811247098
 42
0.04528500428
 10
223.050784064817
 20
183.055164131449
 42
0.041710863816
 10
223.155517802928
 20
182.902229882557
 42
0.035627917267
 10
223.282671427147
 20
182.767119883329
 42
0.02517106396
 10
223.395762785629
 20
182.672986126982
 42
0.020063392939
 10
223.516950869936
 20
182.589414086309
 42
0.020751241984
 10
223.668385714827
 20
182.502285874305
 42
0.015166741704
 10
223.825746038347
 20
182.426219677079
 42
0.014712159431
 10
224.013163164571
 20
182.349067634178
 42
0.009544556241
 10
224.204148918388
 20
182.281077487133
 42
0.008031910476
 10
224.418005323465
 20
182.213314396646
 42
0.002839250657
 10
224.633308677112
 20
182.150209489028
 42
0.000245229167
 10
224.835987872462
 20
182.092159985938
 42
-0.006145052539
 10
225.037952790564
 20
182.031727624755
 42
-0.001641817032
 10
225.075456710762
 20
182.019866228385
 42
-0.002000963137
 10
225.11287312167
 20
182.007731944215
  0
LWPOLYLINE
  5
FA6
330
1F
100
AcDbEntity
  8
shade
100
AcDbPolyline
 90
       71
 70
     0
 43
0.0
 10
240.837907155499
 20
206.313875662647
 42
-0.005531297111
 10
241.197677262655
 20
205.980934325069
 42
-0.010233485764
 10
241.546721334138
 20
205.636868251722
 42
-0.0143410859
 10
241.914312193494
 20
205.237054758861
 42
-0.021898584161
 10
242.251803995645
 20
204.811907516012
 42
-0.025483193024
 10
242.537868819778
 20
204.371656123487
 42
-0.0344631199
 10
242.768992669964
 20
203.900866125419
 42
-0.046560545946
 10
242.949209155762
 20
203.306528714742
 42
-0.04933775729
 10
243.012883758052
 20
202.689074431809
 42
-0.043608546294
 10
242.967243602008
 20
202.140431641761
 42
-0.035249301624
 10
242.83587064371
 20
201.605050169836
 42
-0.019390053416
 10
242.703609726048
 20
201.242576028003
 42
-0.017091801414
 10
242.545253041591
 20
200.890647691642
 42
-0.029870537333
 10
242.243616301095
 20
200.359811801696
 42
-0.026770049253
 10
241.883796416219
 20
199.866290715379
 42
-0.01179608724
 10
241.680750447555
 20
199.628670917953
 42
-0.009087659695
 10
241.467935956283
 20
199.399710373914
 42
-0.010698213125
 10
241.146838305433
 20
199.080558164278
 42
-0.005792319312
 10
240.815337862983
 20
198.77211752494
 42
-0.001287629413
 10
240.724634107184
 20
198.690088512186
 42
-0.00080966717
 10
240.633586889617
 20
198.60844052145
 42
-0.054238785836
 10
240.580255188113
 20
198.570283194157
 42
0.08096841759
 10
240.529397426741
 20
198.529638136176
 42
0.040368418332
 10
240.514249292073
 20
198.50988742631
 42
0.035055098404
 10
240.502230016731
 20
198.488067997123
 42
-0.007945838624
 10
239.970281151091
 20
198.055021264484
 42
-0.007237447207
 10
239.425417929559
 20
197.63831587603
 42
-0.013356404662
 10
238.299913200786
 20
196.848805820202
 42
-0.010131053883
 10
237.138402216724
 20
196.112903598551
 42
-0.004488318083
 10
236.541525136359
 20
195.758756968821
 42
-0.003665081438
 10
235.938944613406
 20
195.414385468129
 42
0.08570707538
 10
235.844212045802
 20
195.390017719466
 42
0.015720888795
 10
235.755056374113
 20
195.346487396487
 42
-0.001164335299
 10
235.232493133783
 20
195.072229934288
 42
-0.001066969371
 10
234.708710969906
 20
194.800307071717
 42
-0.0010247359
 10
234.17114242838
 20
194.524075788021
 42
-0.000922089189
 10
233.632502201541
 20
194.249939586554
 42
-0.001746403947
 10
232.530352042495
 20
193.696395733321
 42
-0.001466709374
 10
231.424665482762
 20
193.149944939267
 42
-0.001998654456
 10
229.766523549722
 20
192.344710965034
 42
-0.001676783521
 10
228.102503363491
 20
191.551685541748
 42
-0.000519715151
 10
227.564765936844
 20
191.298307704657
 42
-0.000502325753
 10
227.026511689855
 20
191.046029566369
 42
0.000137632014
 10
226.668630073906
 20
190.878609803734
 42
0.00072802845
 10
226.311039216991
 20
190.710570856251
 42
0.004824435534
 10
224.998881603198
 20
190.076079217654
 42
0.011646464948
 10
223.708622622624
 20
189.398868455679
 42
0.008414181171
 10
222.988969379108
 20
188.983509238583
 42
0.011798422171
 10
222.286785901259
 20
188.539466957431
 42
0.009824253753
 10
221.795630166538
 20
188.198284606914
 42
0.012662858677
 10
221.32037027009
 20
187.835412619629
 42
0.021544297502
 10
220.891018121845
 20
187.458456889926
 42
0.038417498074
 10
220.510598927873
 20
187.033719677403
 42
0.037607996661
 10
220.270934869644
 20
186.666661050843
 42
0.023777204953
 10
220.090235323521
 20
186.269077358823
 10
220.088017424108
 20
186.256341372602
 42
0.040077763253
 10
220.088446081378
 20
185.952821527886
 42
0.045868348277
 10
220.140700510907
 20
185.654139853088
 42
0.042599540933
 10
220.236846632772
 20
185.390760630237
 42
0.038215953695
 10
220.374200338551
 20
185.146101421462
 42
0.023388429432
 10
220.485684971913
 20
184.994704520876
 42
0.019818990406
 10
220.609856627674
 20
184.853449223219
 42
0.021457881562
 10
220.77247697014
 20
184.696664344931
 42
0.016920976956
 10
220.946700373901
 20
184.552759406665
 42
0.019471864537
 10
221.191651245614
 20
184.378770928404
 42
0.013853730901
 10
221.447741014748
 20
184.221422328346
 42
0.010541131853
 10
221.684791507301
 20
184.091251319785
 42
0.007320565299
 10
221.926367584783
 20
183.969615564044
 42
0.005755058757
 10
222.165207554975
 20
183.857086784277
 42
0.002930392301
 10
222.405977917419
 20
183.748718287038
 10
222.898130223419
 20
183.531894903162
  0
LWPOLYLINE
  5
FA7
330
1F
100
AcDbEntity
  8
shade
100
AcDbPolyline
 90
       62
 70
     0
 43
0.0
 10
239.273793105309
 20
212.581408300119
 42
-0.007759483153
 10
239.85876664828
 20
212.209537325692
 42
-0.017416260437
 10
240.369673578758
 20
211.843769850869
 42
-0.01496232899
 10
240.726979106612
 20
211.551219288837
 42
-0.019671635642
 10
241.063072282619
 20
211.234745962934
 42
-0.015704617788
 10
241.284715972872
 20
210.994289865706
 42
-0.019136570185
 10
241.489032759055
 20
210.739047682404
 42
-0.008094980278
 10
241.564136432649
 20
210.633975254609
 42
-0.008724325409
 10
241.63566236561
 20
210.526438695589
 42
-0.040114067261
 10
241.888938049477
 20
210.050800456184
 42
-0.050389473777
 10
242.052213246392
 20
209.538313042034
 42
-0.045690914312
 10
242.104020423692
 20
209.095301979173
 42
-0.044962755333
 10
242.075147993728
 20
208.650148405155
 42
-0.032549440079
 10
241.998815925252
 20
208.308334310663
 42
-0.026397950404
 10
241.882736398129
 20
207.977627415411
 42
-0.025895015663
 10
241.711777660834
 20
207.616487789767
 42
-0.017679297381
 10
241.509895487467
 20
207.271348565281
 42
-0.010682767331
 10
241.346057650906
 20
207.024513856139
 42
-0.006693010894
 10
241.173718922448
 20
206.78348706282
 42
-0.001749903734
 10
241.116206568937
 20
206.705857019616
 42
-0.001309229594
 10
241.058220177565
 20
206.628580094452
 42
0.006485861079
 10
240.874260409575
 20
206.44337044416
 42
-0.000771142444
 10
240.692414336641
 20
206.256054877099
 42
-0.00404705713
 10
240.502898305736
 20
206.064565774966
 42
-0.010662829
 10
240.307869652393
 20
205.878770249653
 42
-0.008656428654
 10
239.670800838805
 20
205.317170385155
 42
-0.015959806181
 10
239.007106511261
 20
204.787791091814
 42
-0.007881306883
 10
238.204902148274
 20
204.208266288271
 42
-0.00674399065
 10
237.386064969669
 20
203.652432070638
 42
-0.013861365593
 10
235.385673841149
 20
202.411753424964
 42
-0.008336336692
 10
233.331690123307
 20
201.260789521787
 10
232.126671246113
 20
200.623150858786
 42
-0.001344956299
 10
231.519265142473
 20
200.308907500653
 42
-0.000947884339
 10
230.910423302474
 20
199.997452239132
 10
229.688124635277
 20
199.379130588407
 10
227.246088501788
 20
198.146365896045
 42
0.003583512082
 10
225.446055537754
 20
197.212018366375
 42
0.007391773945
 10
223.667112447238
 20
196.238469263896
 42
0.009211563132
 10
221.966136281153
 20
195.232803337922
 42
0.013682521568
 10
220.313310396945
 20
194.150559333276
 42
0.008027337564
 10
219.595790440451
 20
193.634897004255
 42
0.016826601925
 10
218.905078917755
 20
193.084463144185
 42
0.021827821027
 10
218.252310546977
 20
192.476161381996
 42
0.033706782906
 10
217.671733749881
 20
191.8001657434
 42
0.025969543911
 10
217.345448627291
 20
191.313157850025
 42
0.031567248566
 10
217.077395300294
 20
190.792251275127
 42
-0.207730227006
 10
217.068286557482
 20
190.783782195175
 42
0.065948698972
 10
217.05630876589
 20
190.777681362017
 42
0.039769732431
 10
216.966338707742
 20
190.37637110746
 42
0.0461786834
 10
216.946317281077
 20
189.966040268387
 42
0.04791246382
 10
217.004487501325
 20
189.551121476602
 42
0.04325633972
 10
217.136992098433
 20
189.153274484565
 42
0.02765414396
 10
217.268961916727
 20
188.889073769159
 42
0.023088231675
 10
217.427086764252
 20
188.639483205238
 42
0.024430031135
 10
217.641085099671
 20
188.363597565794
 42
0.019192089785
 10
217.878413164963
 20
188.107287142197
 42
0.019584770493
 10
218.176091642979
 20
187.832027130445
 42
0.015024350773
 10
218.492193015958
 20
187.577932102468
 42
0.015986982611
 10
218.896643906352
 20
187.292196363282
 42
0.01193894139
 10
219.316508609267
 20
187.029422738205
 42
0.008941567218
 10
219.683319053074
 20
186.820639752424
 42
0.006798248983
 10
220.056544135241
 20
186.623491800231
  0
LWPOLYLINE
  5
FA8
330
1F
100
AcDbEntity
  8
shade
100
AcDbPolyline
 90
       57
 70
     0
 43
0.0
 10
217.184542638306
 20
191.555924377028
 42
-0.014296306346
 10
216.66389725035
 20
191.923202118894
 42
-0.015975451724
 10
216.178518188046
 20
192.31163069796
 42
-0.015462613839
 10
215.770774100996
 20
192.682273075467
 42
-0.018907345292
 10
215.389538344371
 20
193.079949514948
 42
-0.014589461459
 10
215.141898938116
 20
193.375569428507
 42
-0.017313262058
 10
214.913650765497
 20
193.686322542192
 42
-0.029908272905
 10
214.608597502092
 20
194.196285615074
 42
-0.039091706272
 10
214.376858426045
 20
194.742658138934
 42
-0.032876743152
 10
214.264586280824
 20
195.169386216465
 42
-0.031463454598
 10
214.207972773906
 20
195.607070610168
 42
-0.03763428649
 10
214.212585518373
 20
196.092319464587
 42
-0.039367208251
 10
214.291520876661
 20
196.570996055787
 42
-0.029067078465
 10
214.410478439528
 20
196.955221322737
 42
-0.0178305538
 10
214.565054156014
 20
197.327011149903
 42
-0.009315762137
 10
214.706205745993
 20
197.620484301355
 42
-0.000851994985
 10
214.85332082953
 20
197.911076672475
 42
-0.04048043825
 10
215.858219082376
 20
199.152416438566
 42
-0.028628375686
 10
217.026409886234
 20
200.245323550096
 42
-0.013585208117
 10
217.786284625992
 20
200.84450462054
 42
-0.008356670785
 10
218.571892754811
 20
201.409904712923
 42
-0.011789858804
 10
219.757847230594
 20
202.192905608392
 42
-0.009151936825
 10
220.975680309715
 20
202.925645214587
 42
-0.011625577678
 10
222.882480897364
 20
203.967574478854
 42
-0.006448222162
 10
224.826053412868
 20
204.940096216538
 42
-0.001635456108
 10
225.484446561883
 20
205.256338126415
 42
-0.001105082099
 10
226.144565076313
 20
205.568967512249
 10
228.788873582083
 20
206.802536889065
 10
233.047955135518
 20
208.795683928407
 42
0.001354726199
 10
233.789938596066
 20
209.144992146005
 42
0.003869374327
 10
234.528212598667
 20
209.502024138645
 42
0.009830160901
 10
235.820719508105
 20
210.171377796493
 42
0.018273300569
 10
237.07299185559
 20
210.911926596963
 42
0.015764353703
 10
237.915923695455
 20
211.491227005251
 42
0.021256102202
 10
238.713374786414
 20
212.13102729929
 42
0.032590681749
 10
239.291606182287
 20
212.707424889307
 42
0.046455003109
 10
239.693585525445
 20
213.260720070291
 42
0.086585022375
 10
239.840967642276
 20
213.694693344086
 42
0.049082919163
 10
239.867715036191
 20
214.024512629207
 42
0.04932378622
 10
239.832133110815
 20
214.330582384131
 42
0.04831795818
 10
239.737863254322
 20
214.624002336412
 42
0.018362210037
 10
239.684214675723
 20
214.736744157704
 42
0.01682812868
 10
239.6227647776
 20
214.845446342108
 42
0.018484368545
 10
239.542613618101
 20
214.966423195187
 42
0.016172851191
 10
239.454262849318
 20
215.081577433025
 42
0.022878419491
 10
239.303522529426
 20
215.24916121279
 42
0.018111100458
 10
239.139503238923
 20
215.403900890768
 42
0.019364944282
 10
238.925913751274
 20
215.577100382393
 42
0.014575721959
 10
238.700996170834
 20
215.735466408175
 42
0.016425446421
 10
238.391092438298
 20
215.926101494778
 42
0.01134224343
 10
238.070995261343
 20
216.099291045192
 42
0.004377189665
 10
237.927258630472
 20
216.171314439632
 42
0.003630695407
 10
237.782385247037
 20
216.241027488848
 42
0.007232617532
 10
237.43528900333
 20
216.398857501047
 42
0.002863549816
 10
237.085045920914
 20
216.549660528357
 42
0.000235008622
 10
236.957828916955
 20
216.603503883916
 42
-0.000715192697
 10
236.830611912997
 20
216.657347239476
  0
LWPOLYLINE
  5
FA9
330
1F
100
AcDbEntity
  8
shade
100
AcDbPolyline
 90
       57
 70
     0
 43
0.0
 10
215.119790881017
 20
198.525858709252
 42
-0.000967404865
 10
214.802674123426
 20
198.822432870194
 42
-0.004861693788
 10
214.489050573362
 20
199.122670147708
 42
-0.006813509854
 10
214.183142865437
 20
199.429525731205
 42
-0.010740424248
 10
213.888234827155
 20
199.746885724344
 42
-0.018720015284
 10
213.509003952528
 20
200.206532618124
 42
-0.028559983014
 10
213.175167695528
 20
200.699467187051
 42
-0.031463520577
 10
212.905295890905
 20
201.223873380811
 42
-0.038423866646
 10
212.711272610348
 20
201.780210932262
 42
-0.044858830895
 10
212.611299896493
 20
202.365790218394
 42
-0.048091917398
 10
212.621198199675
 20
202.95940264433
 42
-0.03549694919
 10
212.710596715706
 20
203.440445102238
 42
-0.031548777354
 10
212.863560661755
 20
203.90547153672
 42
-0.055581441215
 10
213.28544645383
 20
204.692795247956
 42
-0.03137681835
 10
213.839439761648
 20
205.398276232658
 42
-0.018886031373
 10
214.299804915569
 20
205.876670443066
 42
-0.013574526001
 10
214.790402708655
 20
206.324347787695
 42
-0.022059870862
 10
215.763263317116
 20
207.092611458743
 42
-0.017660783269
 10
216.794376236987
 20
207.781499986365
 42
-0.018190452962
 10
218.095212891289
 20
208.521654290145
 42
-0.011657979231
 10
219.438411331363
 20
209.183145097116
 10
219.894743948595
 20
209.391253751506
 42
-0.002698484093
 10
220.35371540593
 20
209.594236111503
 42
-0.002022039562
 10
220.814585685741
 20
209.792877595613
 10
221.739369099454
 20
210.180423267956
 10
223.260037974558
 20
210.800317590101
 10
224.778732451723
 20
211.405788305542
 42
-0.000892287482
 10
226.293818546425
 20
212.00198927437
 42
0.00030821406
 10
227.808904641122
 20
212.598190243199
 10
229.178223219273
 20
213.140788599533
 10
230.54697202028
 20
213.691184320337
 10
231.916998364815
 20
214.253788796029
 42
0.001238734685
 10
232.604340286432
 20
214.541585269526
 42
0.001406221126
 10
233.290149573557
 20
214.833013417024
 10
234.009815912428
 20
215.146950206492
 42
0.008812608407
 10
234.714892774884
 20
215.478323422476
 42
0.016836313621
 10
235.401769429043
 20
215.84526023578
 42
0.009907281543
 10
235.7295865175
 20
216.043605514767
 42
0.012127033963
 10
236.048316574201
 20
216.25617862126
 42
0.019490293912
 10
236.411761697642
 20
216.533285732132
 42
0.030171586812
 10
236.745590369501
 20
216.84472816741
 42
0.016477878211
 10
236.851726131588
 20
216.964093146768
 42
0.049290874959
 10
236.940914451559
 20
217.095770614896
 42
0.084637390791
 10
236.994350067043
 20
217.252814777173
 42
0.087902564418
 10
236.991656494765
 20
217.418492273696
 42
0.100716858864
 10
236.881884755458
 20
217.68375334135
 42
0.062377420527
 10
236.690707488127
 20
217.902732629822
 42
0.050881183015
 10
236.426258068939
 20
218.094257721076
 42
0.031876076189
 10
236.132961776559
 20
218.240084674895
 42
0.010327859888
 10
236.01297354415
 20
218.287595336228
 42
0.007724860022
 10
235.891337104887
 20
218.330747928784
 42
0.013502541888
 10
235.579679253113
 20
218.426630186175
 42
0.003797339893
 10
235.264785510593
 20
218.511703010807
 42
0.000947645968
 10
235.074853465967
 20
218.561086622227
 42
-0.001535524253
 10
234.884980169976
 20
218.610693368128
 42
-0.001997777811
 10
234.676896403167
 20
218.666631569955
 42
-0.00054531945
 10
234.469098303789
 20
218.723627818124
  0
LWPOLYLINE
  5
FAA
330
1F
100
AcDbEntity
  8
shade
100
AcDbPolyline
 90
       45
 70
     0
 43
0.0
 10
216.273033651916
 20
212.569604449392
 42
-0.011183879704
 10
216.072930297387
 20
212.87135126342
 42
-0.040069763343
 10
215.905237684334
 20
213.191034919544
 42
-0.073197446983
 10
215.754706318079
 20
213.764111689782
 42
-0.086613696719
 10
215.791297652431
 20
214.352957658054
 42
-0.043104619893
 10
215.877074914753
 20
214.610923487758
 42
-0.035777538012
 10
216.002440700253
 20
214.852498704092
 42
-0.035881596152
 10
216.185252748957
 20
215.107517310912
 42
-0.027556653529
 10
216.399079933306
 20
215.337606149931
 42
-0.041700491353
 10
216.819824558741
 20
215.680331995482
 42
-0.026407108578
 10
217.284161272599
 20
215.963365506392
 42
-0.010122492887
 10
217.531735021475
 20
216.09048585065
 42
-0.005703791436
 10
217.783242851116
 20
216.20972436451
 42
-0.014300207481
 10
218.61730505497
 20
216.565021174129
 42
-0.011286228308
 10
219.468579434724
 20
216.877240777514
 42
-0.005068827943
 10
219.89931500083
 20
217.019420230691
 42
-0.004306907845
 10
220.332646932013
 20
217.153500212098
 42
-0.003931059409
 10
220.768436468023
 20
217.280512414472
 42
-0.003179519538
 10
221.205992806146
 20
217.401315868805
 42
-0.002380363318
 10
221.56047765463
 20
217.494954970606
 42
-0.002231538008
 10
221.915811606346
 20
217.58532056705
 42
-0.004239316385
 10
222.628605685926
 20
217.756802808326
 42
-0.003648252428
 10
223.344022777212
 20
217.917021307986
 42
-0.007821185237
 10
225.136961764025
 20
218.275575261455
 42
-0.004201635081
 10
226.9381599155
 20
218.590945461467
 42
-0.001279878404
 10
227.963680835623
 20
218.758937332578
 42
0.001191485971
 10
228.989201755745
 20
218.926929203689
 10
230.018604469633
 20
219.103237248352
 10
230.535443921719
 20
219.197081555424
 10
231.05415358836
 20
219.296095096645
 10
231.345116564067
 20
219.354418835935
 42
0.009366132032
 10
231.909878733562
 20
219.481828257978
 42
0.017752158961
 10
232.466650969342
 20
219.639591932304
 42
0.00332347236
 10
232.611122185352
 20
219.687189932137
 42
0.00186989043
 10
232.755093404954
 20
219.736286657458
 42
0.006776927701
 10
232.803100886053
 20
219.75359040848
 42
0.041164949445
 10
232.849080407341
 20
219.775336790783
 42
0.103061027115
 10
232.897956912844
 20
219.819029834886
 42
0.151256358047
 10
232.919030992722
 20
219.879430007431
 42
0.132697935621
 10
232.909744412322
 20
219.919381628588
 42
0.117897342772
 10
232.882281765389
 20
219.950257629268
 42
0.036844656975
 10
232.860429798295
 20
219.963222258656
 42
0.013458368696
 10
232.837332299208
 20
219.973952620692
 42
0.069167124481
 10
232.650600091227
 20
220.025606775123
 42
0.014392437753
 10
232.456109329181
 20
220.045705743413
  0
LWPOLYLINE
  5
FAB
330
1F
100
AcDbEntity
  8
shade
100
AcDbPolyline
 90
       27
 70
     0
 43
0.0
 10
218.787197369249
 20
216.657347239476
 42
-0.016473959618
 10
218.678519255143
 20
216.82684024967
 42
-0.081011030632
 10
218.605594015609
 20
217.01180850211
 42
-0.076699617125
 10
218.592896633802
 20
217.220464536817
 42
-0.056688765134
 10
218.635797342176
 20
217.426200208663
 42
-0.078206119746
 10
218.780965217951
 20
217.708528239014
 42
-0.053507137671
 10
218.995936420606
 20
217.944939467453
 42
-0.053306318202
 10
219.301374050006
 20
218.16273460753
 42
-0.038289015342
 10
219.642290867256
 20
218.321728373276
 42
-0.020652755554
 10
219.888542187884
 20
218.402935775232
 42
-0.01154389458
 10
220.139655541898
 20
218.468168875269
 42
-0.005306910839
 10
220.30968369682
 20
218.506272121057
 42
-0.001475158616
 10
220.480221892216
 20
218.542067524633
 10
221.342784369339
 20
218.715660568382
 10
222.202988035508
 20
218.879290260068
 42
-0.00130692325
 10
222.632066475377
 20
218.957408936797
 42
-0.001296109868
 10
223.061545813693
 20
219.033292759745
 42
-0.003833386723
 10
224.346477593888
 20
219.246755257575
 42
-0.003675282611
 10
225.634473050111
 20
219.440898707296
 10
226.493576506124
 20
219.559754039507
 42
-0.001165868074
 10
226.92395974154
 20
219.616200889318
 42
-0.001139256392
 10
227.354598689029
 20
219.670662979995
 10
228.349119729322
 20
219.788965920975
 10
229.346181411998
 20
219.897612305005
 42
-0.002280597143
 10
230.344737369645
 20
219.997030188975
 42
-0.002108186848
 10
231.344129007484
 20
220.08767961419
 10
232.449734992157
 20
220.161665598781
  0
LWPOLYLINE
  5
FAC
330
1F
100
AcDbEntity
  8
shade
100
AcDbPolyline
 90
       28
 70
     0
 43
0.0
 10
220.871607596666
 20
218.810694403882
 42
-0.021548826824
 10
220.871799935958
 20
218.824688259408
 42
-0.078194932246
 10
220.884529159808
 20
218.883569868866
 42
-0.042277047825
 10
220.911150446855
 20
218.938193540418
 42
-0.042790231283
 10
220.963758776126
 20
219.011338994578
 42
-0.017114160313
 10
221.02491666413
 20
219.077879999729
 42
-0.04081498024
 10
221.188872109122
 20
219.219294998097
 42
-0.042247223071
 10
221.373900203835
 20
219.331642187399
 42
-0.024266155124
 10
221.542464190536
 20
219.405451590981
 42
-0.010099099652
 10
221.715867288925
 20
219.467572587196
 42
-0.030388236285
 10
222.52609869797
 20
219.685757072673
 42
-0.01911258479
 10
223.354849457488
 20
219.822962321257
 42
-0.004938726751
 10
223.631710622711
 20
219.855214806267
 42
-0.003573456085
 10
223.909087163174
 20
219.8827501302
 42
-0.005196450143
 10
224.546981721815
 20
219.934794032796
 42
-0.000882110723
 10
225.18549531546
 20
219.979081701577
 10
225.72042782234
 20
220.013927997804
 42
-0.001384663847
 10
226.255338086341
 20
220.045917802211
 42
-0.001607823033
 10
226.790429512354
 20
220.074705592882
 10
227.325527691723
 20
220.099924420188
 10
227.860710091489
 20
220.121221619646
 10
228.395991209774
 20
220.138240955481
 10
228.931385544689
 20
220.150626191923
 42
-0.001833261602
 10
229.37101111787
 20
220.157182638301
 42
-0.001513872473
 10
229.810671670853
 20
220.160795998828
 10
230.690215999046
 20
220.160876801133
 10
231.569932461929
 20
220.154231600372
 10
232.449734992157
 20
220.161665598781
  0
LWPOLYLINE
  5
FAD
330
1F
100
AcDbEntity
  8
shade
100
AcDbPolyline
 90
       26
 70
     0
 43
0.0
 10
222.450562406495
 20
219.831012218915
 42
-0.013709238191
 10
222.487745514411
 20
219.861182541046
 42
-0.020899004409
 10
222.526906495712
 20
219.888695601086
 42
-0.03030243558
 10
222.596862893612
 20
219.927832368505
 42
-0.02644232938
 10
222.670832787209
 20
219.958810931149
 42
-0.016657417075
 10
222.745102372133
 20
219.98263617209
 42
-0.01325128711
 10
222.820678745471
 20
220.00198312718
 42
-0.016068181438
 10
222.903095530699
 20
220.018002425505
 42
-0.008659382887
 10
222.986233880569
 20
220.029932502525
 42
-0.003755953665
 10
223.054057483936
 20
220.03795196451
 42
0.001771812869
 10
223.121913864903
 20
220.045702393057
 10
223.266698030033
 20
220.063853096989
 42
-0.003931738486
 10
223.373632026376
 20
220.07655785799
 42
-0.007419889131
 10
223.480818387754
 20
220.086831023564
 42
-0.003878398717
 10
223.584996542984
 20
220.094444940475
 42
0.001824081928
 10
223.689207542937
 20
220.101630936451
 42
0.001325054968
 10
223.792507655287
 20
220.109408119196
 42
-0.00627384947
 10
223.895871906519
 20
220.116162024516
 42
-0.009059594411
 10
224.049045265772
 20
220.121461154403
 42
0.003073837693
 10
224.202293342923
 20
220.124926807793
 42
0.005595719142
 10
224.387748533483
 20
220.13233964679
 42
-0.001593433052
 10
224.573149116541
 20
220.141237212763
 42
-0.001297762577
 10
224.650566353974
 20
220.144503978186
 42
-0.000825818498
 10
224.7279969228
 20
220.147441917604
 42
-0.000589860996
 10
224.805437579629
 20
220.150160684866
 42
-0.001657873058
 10
225.178537049975
 20
220.161664770746
  0
LINE
  5
FAE
330
1F
100
AcDbEntity
  8
shade
370
     0
100
AcDbLine
 10
222.450562406495
 20
219.831012218915
 30
0.0
 11
222.471267709412
 21
219.674279734492
 31
0.0
  0
LINE
  5
FAF
330
1F
100
AcDbEntity
  8
shade
370
     0
100
AcDbLine
 10
223.161671496197
 20
220.161664770746
 30
0.0
 11
232.449751361246
 21
220.161664770746
 31
0.0
  0
LINE
  5
FB0
330
1F
100
AcDbEntity
  8
shade
370
     0
100
AcDbLine
 10
223.161671496197
 20
220.050686563764
 30
0.0
 11
223.161671496197
 21
220.161664770746
 31
0.0
  0
LWPOLYLINE
  5
FB1
330
1F
100
AcDbEntity
  8
shade
100
AcDbPolyline
 90
       40
 70
     0
 43
0.0
 10
213.514666376872
 20
208.955238727815
 42
-0.052021598659
 10
213.576161621433
 20
209.440375352484
 42
-0.041933704531
 10
213.727421150732
 20
209.906388362122
 42
-0.013912900171
 10
213.802082164339
 20
210.071137055981
 42
-0.012480415683
 10
213.885337472622
 20
210.231729399714
 42
-0.045601869029
 10
214.293975844659
 20
210.836297505419
 42
-0.032048950992
 10
214.792211819944
 20
211.37154988293
 42
-0.032871379214
 10
215.503005924817
 20
211.959874503818
 42
-0.020079399574
 10
216.273033651916
 20
212.470483150754
 42
-0.014832477557
 10
217.021823841427
 20
212.894962865992
 42
-0.011196290828
 10
217.791831587505
 20
213.279980242858
 42
-0.007215520645
 10
218.3805213125
 20
213.547716876848
 42
-0.005204949485
 10
218.975709198963
 20
213.800761649158
 42
-0.003639597689
 10
219.494139198281
 20
214.010424345121
 42
-0.002999738451
 10
220.015311871033
 20
214.213186446289
 42
-0.003608405898
 10
220.658298187353
 20
214.453605507257
 42
-0.003256646495
 10
221.304527881775
 20
214.685175068592
 42
-0.00301743668
 10
221.942273241209
 20
214.904714222983
 42
-0.002738126638
 10
222.582505487415
 20
215.116898529629
 42
-0.001311331454
 10
222.897985588475
 20
215.218626070342
 42
-0.001260271527
 10
223.213984803011
 20
215.318729720782
 10
223.847560389573
 20
215.514283722378
 42
-0.001158007956
 10
224.165135876758
 20
215.609839212101
 42
-0.001106309541
 10
224.483140916171
 20
215.703955566076
 42
-0.003166574171
 10
225.440490396411
 20
215.978415819002
 42
-0.002698815843
 10
226.400998826848
 20
216.241628466357
 42
-0.000848738777
 10
226.722202346384
 20
216.327203983626
 42
-0.00079672742
 10
227.043685804258
 20
216.41172199504
 10
229.755447505286
 20
217.1062890334
 42
0.00178225822
 10
230.430188178074
 20
217.284342078102
 42
0.002858880667
 10
231.1032403463
 20
217.468648637782
 42
0.00537909577
 10
232.082242314975
 20
217.754155127821
 42
0.006602658519
 10
233.054093714245
 20
218.063028378663
 10
233.676493694024
 20
218.274663163711
 42
0.011644260499
 10
233.984532463453
 20
218.389645867444
 42
0.058284254033
 10
234.271676424456
 20
218.545389348065
 42
0.042675885617
 10
234.410986388999
 20
218.662423349882
 42
0.032291708113
 10
234.5314490978
 20
218.799157412763
 42
0.017902938918
 10
234.564412836769
 20
218.84515033407
 42
0.2859165828
 10
234.582559204784
 20
219.063481899544
  0
LWPOLYLINE
  5
FB2
330
1F
100
AcDbEntity
  8
shade
100
AcDbPolyline
 90
       56
 70
     0
 43
0.0
 10
214.790402708655
 20
206.324347787695
 42
-0.005237077706
 10
214.490028212927
 20
206.689687400634
 42
-0.02691806424
 10
214.214133476871
 20
207.073037143572
 42
-0.028643884505
 10
213.981252226691
 20
207.486721752907
 42
-0.012984216999
 10
213.783314378696
 20
207.918899567282
 42
-0.009204054831
 10
213.67708874747
 20
208.180956291159
 42
-0.02477936321
 10
213.588996273123
 20
208.449337026898
 42
-0.087992379954
 10
213.521844439372
 20
209.176587013421
 42
-0.068871997795
 10
213.682891472819
 20
209.893457927309
 42
-0.019397333796
 10
213.776188544583
 20
210.115797707808
 42
-0.01678882913
 10
213.885337472622
 20
210.330850698352
 42
-0.045601869029
 10
214.293975844659
 20
210.935418804058
 42
-0.032048950992
 10
214.792211819944
 20
211.470671181569
 42
-0.032871379214
 10
215.503005924817
 20
212.058995802457
 42
-0.020079399574
 10
216.273033651916
 20
212.569604449392
 42
-0.018259558313
 10
217.21275332975
 20
213.093843936953
 42
-0.012580238662
 10
218.183337861428
 20
213.559330010722
 42
-0.004249783808
 10
218.578224951054
 20
213.73262051917
 42
-0.003360660861
 10
218.975709198963
 20
213.899882947796
 42
-0.003639597689
 10
219.494139198281
 20
214.109545643759
 42
-0.002999738451
 10
220.015311871033
 20
214.312307744928
 42
-0.003608405898
 10
220.658298187353
 20
214.552726805895
 42
-0.003256646495
 10
221.304527881775
 20
214.784296367231
 10
221.953213773721
 20
215.0075164159
 42
-0.004086650617
 10
222.89804679143
 20
215.317766207027
 42
-0.003627305957
 10
223.847560389573
 20
215.613405021017
 42
-0.004480197532
 10
225.121314377338
 20
215.987454496325
 42
-0.003649538053
 10
226.400998826848
 20
216.340749764995
 42
-0.000848738777
 10
226.722202346384
 20
216.426325282264
 42
-0.00079672742
 10
227.043685804258
 20
216.510843293679
 10
229.755447505286
 20
217.205410332038
 42
0.002868299493
 10
230.765960327593
 20
217.474417260315
 42
0.005306509782
 10
231.771900059628
 20
217.759897501808
 42
0.004206422267
 10
232.41469622795
 20
217.955607544717
 42
0.004241612053
 10
233.054093714245
 20
218.162149677301
 10
233.676493694024
 20
218.373784462349
 42
0.011644260499
 10
233.984532463453
 20
218.488767166082
 42
0.058284254033
 10
234.271676424456
 20
218.644510646704
 42
0.042675885617
 10
234.410986388999
 20
218.76154464852
 42
0.032291708112
 10
234.5314490978
 20
218.898278711402
 42
0.017902938917
 10
234.564412836769
 20
218.944271632709
 42
0.048218706842
 10
234.59092164237
 20
218.994007626391
 42
0.103134624451
 10
234.596209308394
 20
219.021833955394
 42
0.117497655455
 10
234.58920023891
 20
219.049092537209
 42
0.061104116823
 10
234.553615183399
 20
219.100261599435
 42
0.021406460108
 10
234.509829009428
 20
219.145190103526
 42
0.014224552543
 10
234.479091685493
 20
219.172532974725
 42
0.009964775082
 10
234.447061495817
 20
219.198362808932
 42
0.015391321676
 10
234.387964234491
 20
219.241264875971
 42
0.012955251359
 10
234.326522638099
 20
219.280755092151
 42
0.043642801113
 10
234.049556443975
 20
219.417325124263
 42
0.037396767183
 10
233.753890787826
 20
219.507529011778
 42
-0.009026925229
 10
233.499059892096
 20
219.564082569824
 42
0.02692356724
 10
233.263592717632
 20
219.623041900513
 42
-0.020692377595
 10
233.181843764487
 20
219.643157898952
 42
0.031620913965
 10
232.921614355091
 20
219.69411590584
  0
LWPOLYLINE
  5
FB3
330
1F
100
AcDbEntity
  8
shade
100
AcDbPolyline
 90
       20
 70
     0
 43
0.0
 10
222.018246342577
 20
217.62246169871
 42
-0.012266301849
 10
222.04245635929
 20
217.655911599471
 42
-0.00783316272
 10
222.06799560613
 20
217.688367345405
 42
-0.003031488185
 10
222.081050185845
 20
217.704235396496
 42
-0.001875449809
 10
222.094260011001
 20
217.719974748348
 42
-0.001291465044
 10
222.10754765107
 20
217.735604697313
 42
-0.000125336467
 10
222.120879570839
 20
217.751196983223
 42
0.000907943228
 10
222.140813269874
 20
217.774584363139
 42
0.003544900898
 10
222.160537437978
 20
217.798147782617
 42
0.007809808043
 10
222.189332507853
 20
217.834179432349
 42
0.013614159843
 10
222.216551043473
 20
217.871402129828
 10
222.222338953563
 20
217.879910925091
 42
-0.013606556004
 10
222.233555354982
 20
217.881830491857
 42
-0.011129558303
 10
222.24485434061
 20
217.883193232319
 42
-0.015596154378
 10
222.263761421449
 20
217.884453921781
 42
-0.008233070934
 10
222.282713742436
 20
217.884812619491
 42
-0.003974147496
 10
222.297916363739
 20
217.88472915685
 42
0.000660751289
 10
222.313118565078
 20
217.884544947137
 42
0.002967884102
 10
222.328286650505
 20
217.884471237869
 42
0.007667718332
 10
222.343451356292
 20
217.884720134691
  0
LWPOLYLINE
  5
FB4
330
1F
100
AcDbEntity
  8
shade
100
AcDbPolyline
 90
        9
 70
     0
 43
0.0
 10
222.343451356292
 20
217.884720134691
 42
0.002460807524
 10
222.43463344816
 20
217.880744052957
 42
-0.001781366868
 10
222.525821384503
 20
217.876891857726
 42
-0.002088991041
 10
222.580298280089
 20
217.874167915847
 42
-0.003649876589
 10
222.634739348156
 20
217.870818957828
 42
-0.007794740394
 10
222.724740954784
 20
217.863211373211
 42
-0.012263081154
 10
222.814349005213
 20
217.85200255288
 42
-0.008406339908
 10
222.867564760763
 20
217.843098832632
 42
-0.009977042724
 10
222.920414224078
 20
217.832245682006
  0
LWPOLYLINE
  5
FB5
330
1F
100
AcDbEntity
  8
shade
100
AcDbPolyline
 90
       13
 70
     0
 43
0.0
 10
221.39930960401
 20
216.625873950609
 42
0.02614520738
 10
221.753056691707
 20
216.601544741182
 42
0.021683152845
 10
222.107661789396
 20
216.611110913299
 42
0.013098712304
 10
222.352634330635
 20
216.634830814622
 42
0.009611219303
 10
222.596315915494
 20
216.669654053976
 42
0.008997603603
 10
222.884687826805
 20
216.721878802427
 42
0.003556247995
 10
223.171696981955
 20
216.781334660601
 42
0.000833618116
 10
223.362154291284
 20
216.822536300552
 42
-0.001620164585
 10
223.552675443421
 20
216.863438125184
 42
-0.004739293307
 10
223.838924740274
 20
216.921092849206
 42
-0.010249431168
 10
224.126725929282
 20
216.970134056756
 42
-0.008370823275
 10
224.320422795146
 20
216.995760742619
 42
-0.010659449501
 10
224.514937546925
 20
217.013997085195
  0
LWPOLYLINE
  5
FB6
330
1F
100
AcDbEntity
  8
shade
100
AcDbPolyline
 90
       11
 70
     0
 43
0.0
 10
224.514937546925
 20
217.013997085195
 42
-0.015857153559
 10
224.566514244136
 20
217.031420621867
 42
-0.013312887078
 10
224.619026841094
 20
217.045809591523
 42
-0.014081251853
 10
224.681995516252
 20
217.059406135112
 42
-0.010640062277
 10
224.745570004148
 20
217.069875945262
 42
-0.011492094945
 10
224.829359861684
 20
217.079890716202
 42
-0.00641582045
 10
224.913469876319
 20
217.086900076836
 42
-0.002998718345
 10
224.970148780811
 20
217.090550393685
 42
-0.000919958812
 10
225.026855476917
 20
217.093756443599
 42
-0.000043406807
 10
225.064630013603
 20
217.095819112049
 42
0.00087799596
 10
225.102400996617
 20
217.097944826747
  0
LWPOLYLINE
  5
FB7
330
1F
100
AcDbEntity
  8
shade
100
AcDbPolyline
 90
        7
 70
     0
 43
0.0
 10
225.102400996617
 20
217.097944826747
 42
-0.00697624985
 10
225.243595782862
 20
217.126307318146
 42
-0.007331569412
 10
225.38554280891
 20
217.150618192617
 42
-0.012457596886
 10
225.617666442875
 20
217.180975980717
 42
-0.014538623537
 10
225.851063827029
 20
217.198761477628
 42
-0.005791453378
 10
225.938278647278
 20
217.201849969752
 42
-0.006253317936
 10
226.025541585077
 20
217.202836818395
  0
LWPOLYLINE
  5
FB8
330
1F
100
AcDbEntity
  8
shade
100
AcDbPolyline
 90
       12
 70
     0
 43
0.0
 10
226.025541585077
 20
217.202836818395
 10
226.032769627909
 20
217.216581482521
 42
-0.005707259425
 10
226.2147830956
 20
217.242060339186
 42
-0.003761258036
 10
226.397253114044
 20
217.264088878951
 42
-0.002862089605
 10
226.581737412336
 20
217.283884990558
 42
-0.001042265036
 10
226.76637329006
 20
217.302240192874
 42
-0.000153629371
 10
226.858981643989
 20
217.311223029184
 42
0.00029276327
 10
226.951589997916
 20
217.320205865494
 42
0.001612723315
 10
227.182486440997
 20
217.343490937886
 42
0.004460611636
 10
227.413075046617
 20
217.369577929736
 42
0.001064044843
 10
227.458886734381
 20
217.375274031979
 42
-0.002212978309
 10
227.598226881122
 20
217.392544443177
  0
LWPOLYLINE
  5
FB9
330
1F
100
AcDbEntity
  8
shade
100
AcDbPolyline
 90
        5
 70
     0
 43
0.0
 10
228.522232789426
 20
217.475595836286
 42
-0.001189588478
 10
228.673556061924
 20
217.49370164017
 42
-0.002699178074
 10
228.825013796242
 20
217.510629789953
 42
-0.003442639246
 10
228.977744729144
 20
217.525803230707
 42
-0.004612788953
 10
229.130697402939
 20
217.538513957157
  0
LWPOLYLINE
  5
FBA
330
1F
100
AcDbEntity
  8
shade
100
AcDbPolyline
 90
       11
 70
     0
 43
0.0
 10
231.994539034913
 20
217.905692841649
 42
0.010190165137
 10
232.011753767374
 20
217.925484797021
 42
0.008959700704
 10
232.028198833414
 20
217.94592234016
 42
0.012465046407
 10
232.051845261269
 20
217.978034402614
 42
0.00984289257
 10
232.074038585508
 20
218.011172999664
 42
0.011391282099
 10
232.102175770731
 20
218.057309767114
 42
0.0073085663
 10
232.128572270069
 20
218.104473516727
 42
0.004273632766
 10
232.147658664337
 20
218.140509939867
 42
0.002192133649
 10
232.166277972878
 20
218.176791134885
 42
0.001329622391
 10
232.190512399622
 20
218.224844058622
 42
-0.002427268616
 10
232.214852056979
 20
218.272843269278
  0
LWPOLYLINE
  5
FBB
330
1F
100
AcDbEntity
  8
shade
100
AcDbPolyline
 90
       11
 70
     0
 43
0.0
 10
232.38269062636
 20
218.755414727326
 42
-0.035922247963
 10
232.389256370256
 20
218.768146924431
 42
-0.033121277564
 10
232.397514733722
 20
218.779859143602
 42
-0.015188150802
 10
232.402093864943
 20
218.78517869493
 42
-0.013733156427
 10
232.406973253292
 20
218.790225073006
 42
-0.012954034523
 10
232.412116658068
 20
218.795005606846
 42
-0.011377741553
 10
232.417486920773
 20
218.799530643891
 42
-0.014672890837
 10
232.425359614568
 20
218.805491807104
 42
-0.011729449565
 10
232.433537219429
 20
218.811030026208
 42
-0.007542290457
 10
232.439536969901
 20
218.814764427803
 42
-0.006185782401
 10
232.445637204099
 20
218.818332848198
  0
LWPOLYLINE
  5
FBC
330
1F
100
AcDbEntity
  8
shade
100
AcDbPolyline
 90
       44
 70
     0
 43
0.0
 10
232.550529195742
 20
218.734413563507
 42
-0.002890060947
 10
232.553678691685
 20
218.744306616617
 42
-0.008872287624
 10
232.557059545248
 20
218.75412146857
 42
-0.006745046123
 10
232.559210284055
 20
218.759784366922
 42
-0.009353108735
 10
232.56154200116
 20
218.765374628866
 42
-0.003372797676
 10
232.56235037586
 20
218.767181821342
 42
-0.003696943514
 10
232.563184217737
 20
218.76897739537
 42
-0.02255078203
 10
232.568114820895
 20
218.778283050765
 42
-0.033590419239
 10
232.57404939624
 20
218.786967074995
 42
-0.006557419357
 10
232.575221062758
 20
218.788416678755
 42
-0.00690223641
 10
232.576431310586
 20
218.789834208008
 10
232.577677041656
 20
218.791213459147
 42
0.006219035493
 10
232.579520245681
 20
218.806232824819
 42
0.009333878208
 10
232.580895320945
 20
218.821300789087
 42
0.010405574684
 10
232.581623103633
 20
218.835412170384
 42
0.015646253857
 10
232.581615025614
 20
218.849538446474
 42
0.01189581431
 10
232.581119372797
 20
218.858435490431
 42
0.016671996309
 10
232.580116778103
 20
218.867287300528
 42
0.01503005349
 10
232.578922745141
 20
218.873994284534
 42
0.02078688084
 10
232.5772524814
 20
218.880595898509
 42
0.004357591879
 10
232.576875632471
 20
218.881822437432
 42
0.004662664424
 10
232.576476721022
 20
218.883041971925
 10
232.575628147622
 20
218.885405670855
 42
0.045690645481
 10
232.562611751309
 20
218.888176652397
 42
0.037873622242
 10
232.549298436479
 20
218.888745794978
 42
0.022906801182
 10
232.540047173081
 20
218.888015349926
 42
0.017039131639
 10
232.530879399366
 20
218.886548336121
 42
0.002422046891
 10
232.529429802207
 20
218.886258119934
 42
0.002258028238
 10
232.527982982745
 20
218.885954347769
 10
232.525145675247
 20
218.885320300271
 42
-0.043843144105
 10
232.518757641852
 20
218.877150502563
 42
-0.038269688873
 10
232.511113552355
 20
218.870127858576
 42
-0.015710549055
 10
232.507134205307
 20
218.867195062723
 42
-0.012174768206
 10
232.502996760608
 20
218.864488092988
 42
-0.015890748533
 10
232.495929598488
 20
218.860411265379
 42
-0.00514101023
 10
232.488693991843
 20
218.856633498115
 42
0.000304105722
 10
232.481509714617
 20
218.852970532395
 42
0.011556984947
 10
232.474416233996
 20
218.849139216715
 42
0.009654610898
 10
232.470317171303
 20
218.846695214486
 42
0.013885614038
 10
232.466338459271
 20
218.844061540142
 42
0.03142676285
 10
232.459450629476
 20
218.838544659413
 42
0.041501125482
 10
232.453446142759
 20
218.832095180514
 42
0.038535273287
 10
232.449035569853
 20
218.825503523675
 42
0.03506017096
 10
232.445637204099
 20
218.818332848198
  0
LWPOLYLINE
  5
FBD
330
1F
100
AcDbEntity
  8
shade
100
AcDbPolyline
 90
       15
 70
     0
 43
0.0
 10
232.728896803896
 20
218.577075576035
 42
-0.040606296445
 10
232.707999679003
 20
218.583526176061
 42
-0.033681356217
 10
232.688266700023
 20
218.593007465385
 42
-0.025089203422
 10
232.672539438458
 20
218.60298670006
 42
-0.019097852941
 10
232.657746307856
 20
218.614320840959
 42
-0.01689310319
 10
232.643346450839
 20
218.627097669242
 42
-0.011952273247
 10
232.629703298768
 20
218.640687332907
 42
-0.008177481189
 10
232.619042025899
 20
218.652198073761
 42
-0.005615992139
 10
232.608701579153
 20
218.663999338391
 42
-0.004431359886
 10
232.598613822314
 20
218.675989973212
 42
-0.002115347369
 10
232.588683622136
 20
218.688112026585
 42
-0.000945649332
 10
232.579039284883
 20
218.700033254539
 42
0.001490952805
 10
232.569381977673
 20
218.711943925589
 42
0.002693530485
 10
232.560050008657
 20
218.723258457919
 42
0.005732226173
 10
232.550529195742
 20
218.734413563507
  0
LWPOLYLINE
  5
FBE
330
1F
100
AcDbEntity
  8
shade
100
AcDbPolyline
 90
       17
 70
     0
 43
0.0
 10
232.550529195742
 20
218.734413563507
 42
0.018698692217
 10
232.541753690564
 20
218.740677402895
 42
0.012262964178
 10
232.532603761167
 20
218.746388502291
 42
0.005770265871
 10
232.527002289709
 20
218.749610108001
 42
0.003431541202
 10
232.521342237847
 20
218.752728221741
 42
0.001637116471
 10
232.517555122173
 20
218.75476477173
 42
0.000599961207
 10
232.513758914991
 20
218.756784366632
 42
-0.0003533583
 10
232.506210714522
 20
218.760795259269
 42
-0.00460602711
 10
232.498702984249
 20
218.76488064943
 42
-0.003101459677
 10
232.495016168747
 20
218.766961148163
 42
-0.004218770768
 10
232.49136026638
 20
218.769095363513
 42
-0.012895171939
 10
232.482516658074
 20
218.774672295285
 42
-0.020150683082
 10
232.47406468997
 20
218.780818108919
 42
-0.026431864576
 10
232.465431546612
 20
218.788418428075
 42
-0.033055567874
 10
232.457767278062
 20
218.796982694207
 42
-0.037225158633
 10
232.450924269324
 20
218.80721410944
 42
-0.035622202666
 10
232.445637204099
 20
218.818332848198
  0
LWPOLYLINE
  5
FBF
330
1F
100
AcDbEntity
  8
shade
100
AcDbPolyline
 90
       29
 70
     0
 43
0.0
 10
232.19385089316
 20
218.44071029552
 42
-0.037438718894
 10
232.205134650019
 20
218.434905258601
 42
-0.028165830945
 10
232.215574981805
 20
218.427665548782
 42
-0.017280496468
 10
232.223066864306
 20
218.421391230061
 42
-0.009754265028
 10
232.230211647995
 20
218.414718509609
 42
-0.006625585554
 10
232.238171634905
 20
218.406780652124
 42
0.002954285195
 10
232.246073680475
 20
218.39878400106
 42
0.003260885568
 10
232.250077533821
 20
218.394831703126
 42
0.005660873243
 10
232.254151093932
 20
218.390951638979
 42
0.005033501493
 10
232.257265233693
 20
218.388109940892
 42
0.006385424432
 10
232.260443355171
 20
218.385340182617
 10
232.262602670648
 20
218.383540460681
 42
-0.018244802679
 10
232.264264131245
 20
218.374340030525
 42
-0.011060150682
 10
232.265384328866
 20
218.365054172
 42
-0.00442758465
 10
232.265808945695
 20
218.360300104047
 42
-0.002861288688
 10
232.266164224728
 20
218.355540242837
 10
232.266757372436
 20
218.345948946582
 42
0.024963030827
 10
232.262242897728
 20
218.338410551526
 42
0.014824632
 10
232.258338698965
 20
218.330530843921
 42
0.009270022544
 10
232.254876235927
 20
218.322604214037
 42
-0.00163005508
 10
232.251534730061
 20
218.314624278122
 42
-0.007157618964
 10
232.248141384396
 20
218.306904242016
 42
-0.019324036635
 10
232.244346593532
 20
218.299379501091
 42
-0.016213095947
 10
232.241524280495
 20
218.294651411173
 42
-0.021618791743
 10
232.238353978668
 20
218.290152002467
 42
-0.041796045899
 10
232.23213778498
 20
218.28335210768
 42
-0.046468454722
 10
232.224830718442
 20
218.277753312591
 42
-0.026722672799
 10
232.219965584614
 20
218.275047926467
 42
-0.023505443683
 10
232.214852056979
 20
218.272843269278
  0
LWPOLYLINE
  5
FC0
330
1F
100
AcDbEntity
  8
shade
100
AcDbPolyline
 90
       11
 70
     0
 43
0.0
 10
232.38269062636
 20
218.755414727326
 42
-0.002875321174
 10
232.360261706739
 20
218.728366985021
 42
0.001077993805
 10
232.337735385228
 20
218.701399657951
 42
0.003732174725
 10
232.311883511389
 20
218.669838950767
 42
0.009293163302
 10
232.28686609997
 20
218.637620251536
 42
0.008330351017
 10
232.269998174434
 20
218.614240409805
 42
0.011338545201
 10
232.254064625648
 20
218.590218144104
 42
0.021263703154
 10
232.231253810045
 20
218.550420597165
 42
0.028334225328
 10
232.212508659442
 20
218.508589414448
 42
0.023674303968
 10
232.201512827318
 20
218.475104968141
 42
0.025388241931
 10
232.19385089316
 20
218.44071029552
  0
LWPOLYLINE
  5
FC1
330
1F
100
AcDbEntity
  8
shade
100
AcDbPolyline
 90
       24
 70
     0
 43
0.0
 10
232.19385089316
 20
218.44071029552
 42
0.014911245197
 10
232.187022878859
 20
218.437123175153
 42
0.010410836672
 10
232.180383683435
 20
218.433194126966
 42
0.004176060884
 10
232.17717449366
 20
218.431166273868
 42
0.002891295518
 10
232.173994228742
 20
218.429093226434
 10
232.167727494265
 20
218.424888280503
 42
-0.001519842731
 10
232.165752412457
 20
218.408038612065
 42
0.003629067001
 10
232.163848468324
 20
218.391181128005
 42
0.001301477332
 10
232.163405869576
 20
218.386882696219
 42
0.00161401163
 10
232.162988343012
 20
218.382581764578
 10
232.16224310116
 20
218.373950053702
 42
0.009949221057
 10
232.161239817538
 20
218.356720152363
 42
0.015699014673
 10
232.161121278321
 20
218.33946656245
 42
0.013647258475
 10
232.161779238053
 20
218.326780409364
 42
0.017546652037
 10
232.163226446906
 20
218.314163021297
 42
0.012658984186
 10
232.164674637574
 20
218.305953471222
 42
0.014472386116
 10
232.166565737334
 20
218.297835341188
 42
0.00373771088
 10
232.167109345739
 20
218.295834484613
 42
0.003845539547
 10
232.167683235371
 20
218.293842105692
 10
232.168922682449
 20
218.289888929342
 42
-0.027141939739
 10
232.186880113139
 20
218.284838424667
 42
-0.023976948837
 10
232.204234090514
 20
218.277979732787
 42
-0.006778054707
 10
232.209575588802
 20
218.275478865332
 42
-0.005904817555
 10
232.214852056979
 20
218.272843269278
  0
LWPOLYLINE
  5
FC2
330
1F
100
AcDbEntity
  8
shade
100
AcDbPolyline
 90
       15
 70
     0
 43
0.0
 10
230.09578340531
 20
217.034998249014
 42
0.017763972461
 10
230.14796409014
 20
217.032893454154
 42
0.014302265199
 10
230.200183995037
 20
217.034137148448
 42
0.012312489233
 10
230.252116672593
 20
217.038145886871
 42
0.008355263302
 10
230.303847804938
 20
217.044298175075
 42
0.005279821397
 10
230.345310669776
 20
217.050379965613
 42
0.002760433858
 10
230.386672056255
 20
217.057127953881
 42
0.001826909917
 10
230.449060464771
 20
217.067894964624
 42
-0.003677233891
 10
230.511487019034
 20
217.078430811843
 42
-0.006434199875
 10
230.574582974006
 20
217.087771608637
 42
-0.011761673512
 10
230.637964707339
 20
217.094809271054
 42
-0.00936135181
 10
230.68081420642
 20
217.097742118695
 42
-0.011506257152
 10
230.723744915149
 20
217.098884563189
 42
-0.006191163684
 10
230.745475914202
 20
217.098693573469
 42
-0.006645283311
 10
230.767194596559
 20
217.097944826747
  0
LWPOLYLINE
  5
FC3
330
1F
100
AcDbEntity
  8
shade
100
AcDbPolyline
 90
       18
 70
     0
 43
0.0
 10
230.767194596559
 20
217.097944826747
 42
-0.018854360619
 10
230.771696707197
 20
217.106426823737
 42
-0.01165651676
 10
230.776709859638
 20
217.114622103846
 42
-0.001788447377
 10
230.777741614673
 20
217.116211155606
 42
-0.001453494673
 10
230.778783653424
 20
217.117793487674
 10
230.783016611578
 20
217.124068225644
 42
-0.013445166205
 10
230.804201467621
 20
217.126625177546
 42
-0.008313501276
 10
230.825482252492
 20
217.128258498506
 42
-0.003233812771
 10
230.836180093491
 20
217.128831450227
 42
-0.001994984404
 10
230.846883479766
 20
217.129292505249
 42
-0.001381562801
 10
230.857588503502
 20
217.129681224667
 42
-0.000154693016
 10
230.868294711405
 20
217.130037052353
 42
0.000913838607
 10
230.884281759547
 20
217.130592693193
 42
0.003732521513
 10
230.900262535508
 20
217.131296852064
 42
0.007136714478
 10
230.921271553294
 20
217.132680665473
 42
0.012533502008
 10
230.942205448329
 20
217.134889197355
 42
0.003540447652
 10
230.947361155904
 20
217.135601337369
 42
0.003893579497
 10
230.952505678926
 20
217.136390046692
  0
LWPOLYLINE
  5
FC4
330
1F
100
AcDbEntity
  8
shade
100
AcDbPolyline
 90
        9
 70
     0
 43
0.0
 10
231.994539034913
 20
217.905692841649
 42
-0.005106282268
 10
231.935796780046
 20
217.894913022823
 42
-0.003472839229
 10
231.876876568114
 20
217.885142374491
 42
-0.004028556995
 10
231.777994229027
 20
217.870265498019
 42
0.00036096922
 10
231.679002239909
 20
217.856113874625
 42
0.001853939672
 10
231.599926202696
 20
217.844451701331
 42
0.004686929075
 10
231.521012412451
 20
217.831756579698
 42
0.006096874007
 10
231.442833313678
 20
217.817443601741
 42
0.009039429663
 10
231.3651301713
 20
217.800772393139
  0
LWPOLYLINE
  5
FC5
330
1F
100
AcDbEntity
  8
shade
100
AcDbPolyline
 90
        9
 70
     0
 43
0.0
 10
233.39547032868
 20
217.879910925091
 42
0.605736641569
 10
233.375565255061
 20
217.891543314197
 42
0.027031935628
 10
233.361793303911
 20
217.886492884464
 42
0.031993240814
 10
233.34758621851
 20
217.879284998641
 42
0.037234153975
 10
233.334518843723
 20
217.870192663712
 42
0.039742133969
 10
233.322923083637
 20
217.859132084874
 42
0.04123204835
 10
233.313263676713
 20
217.846350456715
 42
0.020157125293
 10
233.30926916502
 20
217.839445012122
 42
0.019304357222
 10
233.305831214821
 20
217.832245682006
  0
LWPOLYLINE
  5
FC6
330
1F
100
AcDbEntity
  8
shade
100
AcDbPolyline
 90
        9
 70
     0
 43
0.0
 10
233.305831214821
 20
217.832245682006
 42
-0.025779059154
 10
232.965016423359
 20
217.648665677752
 42
-0.022467069466
 10
232.607989212758
 20
217.498719940334
 42
-0.016077415174
 10
232.317303352593
 20
217.402216841413
 42
-0.012861149458
 10
232.021467285005
 20
217.32267395633
 42
-0.012546340051
 10
231.681693411623
 20
217.249596105879
 42
-0.008312747107
 10
231.339106975849
 20
217.190741497222
 42
-0.003772231328
 10
231.145978845121
 20
217.162349704167
 42
-0.002519886102
 10
230.952505678926
 20
217.136390046692
  0
LWPOLYLINE
  5
FC7
330
1F
100
AcDbEntity
  8
shade
100
AcDbPolyline
 90
        9
 70
     0
 43
0.0
 10
231.3651301713
 20
217.800772393139
 42
-0.001105755222
 10
231.210615419648
 20
217.784473160623
 42
0.001518186396
 10
231.056114499555
 20
217.768046516041
 42
0.00279437002
 10
230.901247628395
 20
217.750228848869
 42
0.005555018071
 10
230.746706990161
 20
217.729828659195
 42
0.006886222657
 10
230.596534306083
 20
217.706190013322
 42
0.010409792659
 10
230.447287172214
 20
217.677375424101
 42
0.002275852721
 10
230.418370500796
 20
217.671027702066
 42
0.002447476952
 10
230.389515130157
 20
217.664407112624
  0
LWPOLYLINE
  5
FC8
330
1F
100
AcDbEntity
  8
shade
100
AcDbPolyline
 90
        9
 70
     0
 43
0.0
 10
230.389515130157
 20
217.664407112624
 42
0.011087410849
 10
230.151241623578
 20
217.651138912419
 42
0.006795648912
 10
229.913558447346
 20
217.629355818058
 42
0.003176007373
 10
229.75712949554
 20
217.611867421458
 42
0.001060994127
 10
229.600851553831
 20
217.593053755498
 42
-0.000186503333
 10
229.405269522747
 20
217.569161329847
 42
-0.003483774663
 10
229.209522117399
 20
217.546705753855
 42
-0.000892837142
 10
229.170117582564
 20
217.542534492653
 42
-0.001019299041
 10
229.130697402939
 20
217.538513957157
  0
LWPOLYLINE
  5
FC9
330
1F
100
AcDbEntity
  8
shade
100
AcDbPolyline
 90
       10
 70
     0
 43
0.0
 10
225.102400996617
 20
217.097944826747
 10
225.109629039451
 20
217.084171705761
 42
0.005225734616
 10
225.211585405737
 20
217.064702186038
 42
0.003482090137
 10
225.313868471447
 20
217.047010615588
 42
0.00391447005
 10
225.486138346372
 20
217.019831784412
 42
-0.000791511782
 10
225.658579684155
 20
216.993728685561
 42
-0.00230388956
 10
225.797678330364
 20
216.971791095705
 42
-0.005204927462
 10
225.936425810687
 20
216.947768186338
 42
-0.006688032461
 10
226.075890454955
 20
216.920189629231
 42
-0.009433407191
 10
226.214381318274
 20
216.88813238659
  0
LWPOLYLINE
  5
FCA
330
1F
100
AcDbEntity
  8
shade
100
AcDbPolyline
 90
        7
 70
     0
 43
0.0
 10
226.214381318274
 20
216.88813238659
 42
-0.013679930015
 10
226.378369973672
 20
216.876119856714
 42
-0.011089668127
 10
226.541583592381
 20
216.855999365406
 42
-0.013744482917
 10
226.758473247097
 20
216.81824969969
 42
-0.013157746949
 10
226.973025851408
 20
216.768889799753
 42
-0.003255335912
 10
227.023892372696
 20
216.755415400482
 42
-0.003386684547
 10
227.074575329001
 20
216.741266524166
  0
LWPOLYLINE
  5
FCB
330
1F
100
AcDbEntity
  8
shade
100
AcDbPolyline
 90
        9
 70
     0
 43
0.0
 10
227.074575329001
 20
216.741266524166
 42
0.001672211372
 10
227.157739606317
 20
216.754797269606
 42
0.005029693068
 10
227.240711322136
 20
216.769440817967
 42
0.003175083677
 10
227.281973578294
 20
216.777423400879
 42
0.004166061384
 10
227.32311359071
 20
216.786010798247
 42
0.007897326057
 10
227.389374086135
 20
216.801518793635
 42
0.011584029604
 10
227.454970813866
 20
216.819593368606
 42
0.005076264901
 10
227.479909919461
 20
216.827367777356
 42
-0.007458364265
 10
228.113136947879
 20
216.940578382414
  0
LWPOLYLINE
  5
FCC
330
1F
100
AcDbEntity
  8
shade
100
AcDbPolyline
 90
        7
 70
     0
 43
0.0
 10
224.368071684497
 20
216.048911082822
 42
-0.002488416634
 10
224.325261871851
 20
216.03170491658
 42
-0.004667224496
 10
224.282211552923
 20
216.015113668717
 42
-0.009092274505
 10
224.216565907649
 20
215.991867877099
 42
-0.013859922531
 10
224.149937335314
 20
215.97166320919
 42
-0.016405191954
 10
224.081164184816
 20
215.955276953205
 42
-0.020364372355
 10
224.011393381919
 20
215.943990634313
  0
LWPOLYLINE
  5
FCD
330
1F
100
AcDbEntity
  8
shade
100
AcDbPolyline
 90
        7
 70
     0
 43
0.0
 10
229.872580361834
 20
217.234963364454
 42
-0.007067211095
 10
229.117448642275
 20
217.118911935487
 42
0.004588554213
 10
228.884636923794
 20
217.082229080322
 42
0.003585208753
 10
228.652743897381
 20
217.041795628736
 42
0.001586911995
 10
228.421276737437
 20
216.998964748085
 42
0.000557524405
 10
228.267206842662
 20
216.96977156525
 42
-0.000332973014
 10
228.113136947879
 20
216.940578382414
  0
LWPOLYLINE
  5
FCE
330
1F
100
AcDbEntity
  8
shade
100
AcDbPolyline
 90
       13
 70
     0
 43
0.0
 10
230.767194596559
 20
217.097944826747
 42
0.031905065991
 10
230.792058265693
 20
217.085095908682
 42
0.025236232949
 10
230.818244587404
 20
217.075157691783
 42
0.013255004733
 10
230.833920832119
 20
217.070552050154
 42
0.011314776738
 10
230.849805886897
 20
217.066721576672
 42
0.013069665807
 10
230.87013482948
 20
217.062857153607
 42
0.01059514147
 10
230.8906262335
 20
217.059958473695
 42
0.013007213517
 10
230.919425978509
 20
217.057262950622
 42
0.009336135786
 10
230.948322124274
 20
217.055856366908
 42
0.007431514301
 10
230.976096624665
 20
217.05543681971
 42
0.00429202553
 10
231.003875371776
 20
217.05566856708
 42
0.000861974668
 10
231.011399897585
 20
217.055808918528
 42
0.000579078223
 10
231.01892399377
 20
217.055970955972
  0
LWPOLYLINE
  5
FCF
330
1F
100
AcDbEntity
  8
shade
100
AcDbPolyline
 90
       11
 70
     0
 43
0.0
 10
223.810834836939
 20
216.287532567942
 42
0.004424201147
 10
223.854677792147
 20
216.269254797516
 42
0.003527465569
 10
223.929428283265
 20
216.239478236446
 42
0.001411804664
 10
223.985986163447
 20
216.217593476118
 42
-0.000725014762
 10
224.042574216783
 20
216.195786359076
 42
-0.001787121904
 10
224.098796783768
 20
216.173795028791
 42
-0.003989580014
 10
224.154760106388
 20
216.151156197288
 42
-0.006988696026
 10
224.227640085903
 20
216.119795049882
 42
-0.011298713154
 10
224.299313293015
 20
216.085795343868
 42
-0.00641562055
 10
224.333951350705
 20
216.067834417952
 42
-0.0075894893
 10
224.368071684497
 20
216.048911082822
  0
LWPOLYLINE
  5
FD0
330
1F
100
AcDbEntity
  8
shade
100
AcDbPolyline
 90
        8
 70
     0
 43
0.0
 10
224.368071684497
 20
216.048911082822
 42
-0.005382806958
 10
224.826893181889
 20
216.180629761046
 42
-0.003089594228
 10
225.287898549246
 20
216.30456013481
 42
-0.000787716654
 10
225.442199876099
 20
216.344760018462
 42
-0.000543097494
 10
225.596607753931
 20
216.3845490934
 10
226.212872659977
 20
216.541393976818
 42
0.000751387938
 10
226.518045503606
 20
216.619572314176
 42
0.001777380942
 10
226.822817474929
 20
216.69929265339
  0
LWPOLYLINE
  5
FD1
330
1F
100
AcDbEntity
  8
shade
100
AcDbPolyline
 90
        6
 70
     0
 43
0.0
 10
220.602033714164
 20
214.548779169715
 42
-0.006603514061
 10
221.096345529164
 20
214.778817633087
 42
-0.004735776813
 10
221.595767828196
 20
214.997597010546
 42
-0.004970246451
 10
222.270460981537
 20
215.277675683735
 42
-0.001923329231
 10
222.948979855306
 20
215.548437368713
 10
223.287564651704
 20
215.681732198332
  0
LWPOLYLINE
  5
FD2
330
1F
100
AcDbEntity
  8
shade
100
AcDbPolyline
 90
        7
 70
     0
 43
0.0
 10
226.822817474929
 20
216.69929265339
 42
0.009748056864
 10
226.875355358523
 20
216.702026205981
 42
0.013789524863
 10
226.927696457427
 20
216.707227932775
 42
0.01685065722
 10
226.982591620832
 20
216.716105555871
 42
0.02101616844
 10
227.036640807597
 20
216.729106561071
 42
0.007940219194
 10
227.055706933916
 20
216.734878501708
 42
0.008301254452
 10
227.074575329001
 20
216.741266524166
  0
LWPOLYLINE
  5
FD3
330
1F
100
AcDbEntity
  8
shade
100
AcDbPolyline
 90
       14
 70
     0
 43
0.0
 10
235.435371991538
 20
214.223574156001
 42
-0.008534529304
 10
235.109637077707
 20
214.363460995234
 42
-0.003521069296
 10
234.787330330877
 20
214.511177984731
 42
-0.000398408897
 10
234.723187949958
 20
214.541185823937
 42
-0.000195763009
 10
234.65908125852
 20
214.571269872381
 10
234.402672486138
 20
214.691575700939
 42
0.006339375145
 10
234.280687395018
 20
214.588501416786
 42
0.001495374622
 10
234.160323181914
 20
214.483520471982
 42
-0.000788006461
 10
234.038742258563
 20
214.377175092882
 42
-0.005402981915
 10
233.915860955718
 20
214.272349216686
 42
-0.009991355192
 10
233.75904118379
 20
214.146702308861
 42
-0.017712622436
 10
233.595574254769
 20
214.029982071343
 42
-0.012471088131
 10
233.494351880345
 20
213.96656057901
 42
-0.015323210385
 10
233.389778956374
 20
213.908869724196
  0
LWPOLYLINE
  5
FD4
330
1F
100
AcDbEntity
  8
shade
100
AcDbPolyline
 90
        9
 70
     0
 43
0.0
 10
233.389778956374
 20
213.908869724196
 42
-0.014083249983
 10
233.114832615234
 20
213.719905729408
 42
-0.01091413818
 10
232.830742006012
 20
213.544889494112
 42
-0.005308429344
 10
232.673830049218
 20
213.455110412233
 42
-0.004494415844
 10
232.515185662545
 20
213.368423345867
 42
-0.005734085582
 10
232.286496978888
 20
213.249471148746
 42
-0.004203729842
 10
232.055482363532
 20
213.135083959214
 42
-0.000747218089
 10
232.009305964475
 20
213.112786228633
 42
-0.000687946411
 10
231.963065746046
 20
213.090621127385
  0
LWPOLYLINE
  5
FD5
330
1F
100
AcDbEntity
  8
shade
100
AcDbPolyline
 90
        9
 70
     0
 43
0.0
 10
231.963065746046
 20
213.090621127385
 42
0.006605892805
 10
231.542192589053
 20
212.876930434575
 42
-0.002599666017
 10
231.41432374794
 20
212.811507225442
 42
-0.005882876493
 10
231.090442503864
 20
212.652669618448
 42
-0.004096610914
 10
230.763444112821
 20
212.500322065375
 42
-0.003240477094
 10
230.433255753996
 20
212.352345614983
 42
-0.001527317716
 10
230.101665972159
 20
212.207522010949
 42
-0.000672647095
 10
229.836466252755
 20
212.093081408338
 42
0.000421407438
 10
229.57126653335
 20
211.978640805726
  0
LWPOLYLINE
  5
FD6
330
1F
100
AcDbEntity
  8
shade
100
AcDbPolyline
 90
        5
 70
     0
 43
0.0
 10
224.990482222009
 20
215.851038319252
 42
0.010474871042
 10
225.595370088431
 20
215.586535829039
 42
0.004189115036
 10
225.944414039393
 20
215.445950343135
 42
0.004473710632
 10
226.43979936188
 20
215.256329535542
 42
0.002870319482
 10
227.598226881122
 20
214.832313422559
  0
LWPOLYLINE
  5
FD7
330
1F
100
AcDbEntity
  8
shade
100
AcDbPolyline
 90
       13
 70
     0
 43
0.0
 10
223.287564651704
 20
215.681732198332
 42
-0.010679871018
 10
223.366282522873
 20
215.712033933492
 42
-0.006342368288
 10
223.445997931341
 20
215.739642873797
 42
-0.003313796871
 10
223.50386041881
 20
215.758439860565
 42
-0.00125543488
 10
223.561893354528
 20
215.776707640689
 42
-0.000175789664
 10
223.631621729257
 20
215.798437771535
 42
0.002766129429
 10
223.701235531227
 20
215.820528511845
 42
0.005068269778
 10
223.78122615103
 20
215.847298725374
 42
0.009367266475
 10
223.86040084904
 20
215.876363218966
 42
0.009685704295
 10
223.92610831184
 20
215.903366873754
 42
0.013171563522
 10
223.990502900073
 20
215.933340143241
 42
0.002349458131
 10
224.000973698248
 20
215.93861527163
 42
0.002448841658
 10
224.011393381919
 20
215.943990634313
  0
LWPOLYLINE
  5
FD8
330
1F
100
AcDbEntity
  8
shade
100
AcDbPolyline
 90
        9
 70
     0
 43
0.0
 10
222.52526224469
 20
214.478832204043
 42
0.004880425214
 10
222.937956072528
 20
214.302064572923
 42
0.001732524753
 10
223.352968912957
 20
214.130763324834
 42
0.000287063484
 10
223.629711732696
 20
214.017840678572
 42
-0.001111499406
 10
223.906267343697
 20
213.904462134285
 42
-0.002368671417
 10
224.249124920745
 20
213.761106489584
 42
-0.004621750807
 10
224.589934097916
 20
213.612976264412
 42
-0.001058411729
 10
224.65740921547
 20
213.582732790326
 42
-0.001151318474
 10
224.724749987081
 20
213.552191421614
  0
LWPOLYLINE
  5
FD9
330
1F
100
AcDbEntity
  8
shade
100
AcDbPolyline
 90
       11
 70
     0
 43
0.0
 10
230.699093892148
 20
213.648303194083
 42
0.020614109572
 10
231.026343725909
 20
213.49287971423
 42
0.004471390512
 10
231.161083802715
 20
213.436984262295
 42
0.002647254786
 10
231.297329980278
 20
213.382724407338
 42
-0.001017780567
 10
231.433753892914
 20
213.328908214624
 42
-0.001194062831
 10
231.501715004028
 20
213.301751039799
 42
-0.00212349413
 10
231.56949401175
 20
213.274143707122
 42
-0.006441312009
 10
231.719679034562
 20
213.209950499768
 42
-0.011412127926
 10
231.867450524525
 20
213.140449221344
 42
-0.004343951496
 10
231.915489295581
 20
213.115978121304
 42
-0.004923848422
 10
231.963065746046
 20
213.090621127385
  0
LWPOLYLINE
  5
FDA
330
1F
100
AcDbEntity
  8
shade
100
AcDbPolyline
 90
       11
 70
     0
 43
0.0
 10
223.591796958466
 20
213.090621127385
 42
0.002713038282
 10
223.507611605917
 20
213.140888252603
 42
0.002096106911
 10
223.422946169625
 20
213.190343641119
 42
0.00329372053
 10
223.251703988444
 20
213.287910497243
 42
0.000892532371
 10
223.079647482991
 20
213.384042161108
 42
-0.000545299543
 10
222.863593861115
 20
213.504559154703
 42
-0.004233787544
 10
222.648709582929
 20
213.627131357627
 42
-0.00106889241
 10
222.605963527665
 20
213.652118662703
 42
-0.001217111769
 10
222.563332189775
 20
213.677301124112
 42
-0.005609837281
 10
222.394243558194
 20
213.780322086786
 42
-0.007991598921
 10
222.22803032587
 20
213.887897017238
  0
LWPOLYLINE
  5
FDB
330
1F
100
AcDbEntity
  8
shade
100
AcDbPolyline
 90
       13
 70
     0
 43
0.0
 10
230.404684245173
 20
213.529460557767
 42
0.034144930089
 10
230.676895169989
 20
213.376566309345
 42
0.008224588879
 10
230.777388211191
 20
213.330836305943
 42
0.006534441458
 10
230.880895161146
 20
213.28737490719
 42
0.003065796047
 10
230.985224400125
 20
213.24590599676
 42
0.001426494628
 10
231.090748615854
 20
213.205056106523
 42
-0.001873299527
 10
231.196235974636
 20
213.164112056126
 42
-0.004249274735
 10
231.318254037154
 20
213.115024234041
 42
-0.008923170227
 10
231.438921863228
 20
213.062745766106
 42
-0.009488154707
 10
231.539364421144
 20
213.014763834069
 42
-0.0132229909
 10
231.637508140982
 20
212.962279740442
 42
-0.002374438611
 10
231.653466056885
 20
212.953094754296
 42
-0.00248047234
 10
231.669334021199
 20
212.943755264961
  0
LWPOLYLINE
  5
FDC
330
1F
100
AcDbEntity
  8
shade
100
AcDbPolyline
 90
        5
 70
     0
 43
0.0
 10
228.019582401121
 20
211.327565704347
 42
-0.00421649485
 10
228.362628823199
 20
211.466940163587
 42
0.0033213158
 10
228.766527831554
 20
211.634017541116
 42
0.002062456973
 10
229.169174473223
 20
211.8056771538
 42
-0.000443742284
 10
229.57126653335
 20
211.978640805726
  0
LWPOLYLINE
  5
FDD
330
1F
100
AcDbEntity
  8
shade
100
AcDbPolyline
 90
        9
 70
     0
 43
0.0
 10
225.889176304565
 20
210.457536185663
 42
0.004498106636
 10
226.057535753327
 20
210.520610684869
 42
0.00321998151
 10
226.224904861592
 20
210.586277674271
 42
0.003975780116
 10
226.503098807721
 20
210.700073082617
 42
0.000502976783
 10
226.780270909818
 20
210.816359424183
 42
-0.001217697583
 10
227.057513106069
 20
210.932209394888
 42
-0.00469999125
 10
227.33609549145
 20
211.044765442892
 42
-0.003656254531
 10
227.503777181555
 20
211.109275862052
 42
-0.002768912943
 10
227.598226881122
 20
211.144225938183
  0
LWPOLYLINE
  5
FDE
330
1F
100
AcDbEntity
  8
shade
100
AcDbPolyline
 90
        5
 70
     0
 43
0.0
 10
223.035806797638
 20
209.198718458442
 42
-0.002227746547
 10
223.569319537026
 20
209.440928356172
 42
-0.001472619242
 10
224.104613169311
 20
209.679184608954
 42
-0.001642979523
 10
224.99640509701
 20
210.069476816477
 42
0.000390671884
 10
225.889176304565
 20
210.457536185663
  0
LWPOLYLINE
  5
FDF
330
1F
100
AcDbEntity
  8
shade
100
AcDbPolyline
 90
       11
 70
     0
 43
0.0
 10
221.512989826875
 20
209.979373587185
 42
0.029494597624
 10
221.789159975449
 20
209.768609021181
 42
0.009607367651
 10
221.920806641783
 20
209.683540658146
 42
0.007858778199
 10
222.056388719411
 20
209.602497349747
 42
0.004328529808
 10
222.193917531094
 20
209.524775809349
 42
0.00286015854
 10
222.352820067079
 20
209.437965487821
 42
-0.001609028852
 10
222.511941105649
 20
209.351552084611
 42
-0.000752412289
 10
222.551510373214
 20
209.329820696448
 42
-0.001036497082
 10
222.591001596602
 20
209.307947898283
 42
-0.005528407411
 10
222.746663590517
 20
209.219041718942
 42
-0.010287203423
 10
222.899413060257
 20
209.125271298799
  0
LWPOLYLINE
  5
FE0
330
1F
100
AcDbEntity
  8
shade
100
AcDbPolyline
 90
        5
 70
     0
 43
0.0
 10
220.759400158491
 20
207.971345563226
 42
-0.008434480394
 10
221.615888549128
 20
208.463569792306
 42
-0.009779027958
 10
222.489691779138
 20
208.924253397511
 42
-0.002358491201
 10
222.69407081749
 20
209.025744152689
 42
0.010545677598
 10
223.035806797638
 20
209.198718458442
  0
LWPOLYLINE
  5
FE1
330
1F
100
AcDbEntity
  8
shade
100
AcDbPolyline
 90
       26
 70
     0
 43
0.0
 10
218.59838609291
 20
205.411679324285
 10
218.612130757036
 20
205.418907367117
 42
0.015590206875
 10
218.659450528767
 20
205.482756603831
 42
0.01231828727
 10
218.703142813725
 20
205.549158240906
 42
0.01486389298
 10
218.759233809773
 20
205.645415214571
 42
0.010230961956
 10
218.810437284248
 20
205.744387849122
 42
0.010587788102
 10
218.87222233073
 20
205.877072418248
 42
0.00523783907
 10
218.929787365907
 20
206.011668517343
 42
0.00339674864
 10
218.997796043841
 20
206.178599006272
 42
-0.003037002698
 10
219.065684914549
 20
206.34557915613
 42
-0.006122591298
 10
219.135322902439
 20
206.508255000865
 42
-0.013666859671
 10
219.211320212244
 20
206.668000406543
 42
-0.01110516859
 10
219.264599552407
 20
206.767030256094
 42
-0.015671740372
 10
219.323088760018
 20
206.863042901863
 42
-0.0174364784
 10
219.384667114557
 20
206.950521684169
 42
-0.023053885774
 10
219.453087929356
 20
207.032695985227
 42
-0.021561171921
 10
219.553812480648
 20
207.133795860381
 42
-0.015564538967
 10
219.661806628374
 20
207.227187663809
 42
-0.017301644169
 10
219.820966052939
 20
207.347501965299
 42
-0.008723874769
 10
219.98624291777
 20
207.459423249375
 42
-0.004316995461
 10
220.11642948119
 20
207.54271468735
 42
-0.000344487042
 10
220.247391744571
 20
207.624791845155
 42
0.001551384153
 10
220.379000484845
 20
207.707717290319
 42
0.00545351195
 10
220.50942745837
 20
207.792473700321
 42
0.007389746066
 10
220.636137234345
 20
207.879523271111
 42
0.01176149188
 10
220.759400158491
 20
207.971345563226
  0
LWPOLYLINE
  5
FE2
330
1F
100
AcDbEntity
  8
shade
100
AcDbPolyline
 90
        9
 70
     0
 43
0.0
 10
214.809005367675
 20
197.823318908715
 10
214.809005367675
 20
197.823318908715
 42
-0.004228187422
 10
215.544277949999
 20
199.444346471288
 42
0.001835419299
 10
215.959700929763
 20
200.366982969291
 42
0.001213067616
 10
216.369721374191
 20
201.29265536361
 42
-0.000032381824
 10
216.777556021536
 20
202.219296111578
 10
217.186370684834
 20
203.144708024459
 42
-0.002616909402
 10
217.80783441988
 20
204.52463047723
 42
-0.005475719152
 10
218.451520230486
 20
205.894250782333
  0
LWPOLYLINE
  5
FE3
330
1F
100
AcDbEntity
  8
shade
100
AcDbPolyline
 90
        7
 70
     0
 43
0.0
 10
219.019547288093
 20
199.68807976702
 42
0.005130877975
 10
219.217554968283
 20
200.23138688485
 42
0.003395362806
 10
219.407699235195
 20
200.782132118851
 42
0.002033908869
 10
219.546877073262
 20
201.19990650186
 42
0.001142877117
 10
219.683398536074
 20
201.618559092208
 42
0.000283395387
 10
219.728421225966
 20
201.757972264938
 42
0.000591844757
 10
219.870827930305
 20
202.201589790187
  0
LWPOLYLINE
  5
FE4
330
1F
100
AcDbEntity
  8
shade
100
AcDbPolyline
 90
       16
 70
     0
 43
0.0
 10
217.056308765894
 20
190.777681361962
 10
217.056308765903
 20
190.777681362026
 42
-0.004276875508
 10
217.472960122894
 20
193.217582369931
 42
0.00220959505
 10
217.738375773446
 20
194.804446433475
 10
217.912970568676
 20
195.889856939222
 10
218.261727637062
 20
198.074337244255
 42
-0.001225003415
 10
218.440026290857
 20
199.159882604098
 42
-0.002137176488
 10
218.625619309407
 20
200.244197836672
 42
0.005436441843
 10
218.635462865041
 20
200.304081740103
 42
-0.000640247854
 10
218.644732093679
 20
200.364060805322
 42
-0.009575352159
 10
218.665044531917
 20
200.479782197767
 42
-0.039247467773
 10
218.696446214597
 20
200.592645881329
 42
-0.012212582404
 10
218.706586674512
 20
200.618464901838
 42
-0.014556388199
 10
218.718092715562
 20
200.643701159204
 42
-0.015492342301
 10
218.730889319628
 20
200.667815897576
 42
-0.017629353373
 10
218.745251955334
 20
200.691027476621
  0
LWPOLYLINE
  5
FE5
330
1F
100
AcDbEntity
  8
shade
100
AcDbPolyline
 90
        5
 70
     0
 43
0.0
 10
220.090235323521
 20
186.269077358823
 42
-0.006014353638
 10
219.983569779219
 20
189.278766461846
 42
0.003573814018
 10
219.881687837022
 20
191.838377972791
 42
0.001134852089
 10
219.839872319148
 20
192.687601436274
 42
0.00129667426
 10
219.785000318021
 20
193.701575982616
  0
LWPOLYLINE
  5
FE6
330
1F
100
AcDbEntity
  8
shade
100
AcDbPolyline
 90
        7
 70
     0
 43
0.0
 10
224.336598395634
 20
184.756209459495
 42
-0.005779346107
 10
224.488536929033
 20
184.264510707243
 42
-0.00288861411
 10
224.631936265763
 20
183.770227227981
 42
-0.001437929065
 10
224.770940419967
 20
183.275123190254
 42
0.001456929638
 10
224.909944574172
 20
182.780019152526
 42
0.00177314377
 10
225.004582490332
 20
182.451117878525
 42
-0.041976107347
 10
225.099669186402
 20
182.043329055857
  0
LWPOLYLINE
  5
FE7
330
1F
100
AcDbEntity
  8
shade
100
AcDbPolyline
 90
        3
 70
     0
 43
0.0
 10
222.920414224078
 20
183.42391611577
 42
-0.003073880248
 10
222.426313943939
 20
185.891302599217
 42
0.008584291436
 10
221.934327057887
 20
188.102622549519
  0
LWPOLYLINE
  5
FE8
330
1F
100
AcDbEntity
  8
shade
100
AcDbPolyline
 90
        7
 70
     0
 43
0.0
 10
226.147778615597
 20
182.819375739842
 42
-0.005482390553
 10
226.252352915744
 20
182.54531996285
 42
-0.006902641083
 10
226.349962395496
 20
182.269168882849
 42
-0.006515239646
 10
226.42731876474
 20
182.030084447334
 42
-0.007662463317
 10
226.497863431836
 20
181.788910823137
 42
-0.004046904111
 10
226.530230755347
 20
181.667799219384
 42
-0.012475806279
 10
226.585245643686
 20
181.48713103229
  0
LINE
  5
FE9
330
1F
100
AcDbEntity
  8
shade
  6
PHANTOM
100
AcDbLine
 10
227.808904641122
 20
218.502784273082
 30
0.0
 11
227.808904641122
 21
217.783936991929
 31
0.0
  0
SPLINE
  5
FEA
330
1F
100
AcDbEntity
  8
shade
370
     0
100
AcDbSpline
210
0.0
220
0.0
230
1.0
 70
     8
 71
     3
 72
    13
 73
     9
 74
     0
 42
0.000000001
 43
0.0000000001
 40
0.0
 40
0.0
 40
0.0
 40
0.0
 40
3.69054681420124
 40
8.323740953862101
 40
10.25078875009099
 40
13.37250389519122
 40
15.11569921697533
 40
17.64036446910842
 40
17.64036446910842
 40
17.64036446910842
 40
17.64036446910842
 10
240.8431627118061
 20
206.309117335385
 30
0.0
 10
240.9862474439942
 20
206.4545305365229
 30
0.0
 10
241.308963915335
 20
206.782498688258
 30
0.0
 10
241.5882973055395
 20
207.2780707024878
 30
0.0
 10
241.8528197891574
 20
207.7409720439952
 30
0.0
 10
241.9847574602354
 20
208.0930757406413
 30
0.0
 10
242.0887642147336
 20
208.4876358189039
 30
0.0
 10
242.0993379536776
 20
208.7239556194184
 30
0.0
 10
242.0990108666483
 20
208.8633555822716
 30
0.0
  0
ARC
  5
FEB
330
1F
100
AcDbEntity
  8
shade
370
     0
100
AcDbCircle
 10
223.814339971817
 20
209.245371786984
 30
0.0
 40
10.65242856308519
100
AcDbArc
 50
41.333202603667
 51
47.813234198038
  0
SPLINE
  5
FEC
330
1F
100
AcDbEntity
  8
shade
370
     0
100
AcDbSpline
210
0.0
220
0.0
230
1.0
 70
     8
 71
     3
 72
     8
 73
     4
 74
     0
 42
0.000000001
 43
0.0000000001
 40
21.0280078769416
 40
21.0280078769416
 40
21.0280078769416
 40
21.0280078769416
 40
21.39273850961351
 40
21.39273850961351
 40
21.39273850961351
 40
21.39273850961351
 10
242.0737237549583
 20
209.4225039375484
 30
0.0
 10
242.0723270411563
 20
209.4425295384951
 30
0.0
 10
242.0709174688927
 20
209.4625540536253
 30
0.0
 10
242.069507896631
 20
209.4825785687539
 30
0.0
  0
LINE
  5
FED
330
1F
100
AcDbEntity
  8
shade
370
     0
100
AcDbLine
 10
232.449734992157
 20
220.161665598781
 30
0.0
 11
232.445661516471
 21
219.632862302257
 31
0.0
  0
LINE
  5
FEE
330
1F
100
AcDbEntity
  8
shade
370
     0
100
AcDbLine
 10
232.917849376614
 20
219.895748338272
 30
0.0
 11
232.937580905618
 21
219.837626649174
 31
0.0
  0
ARC
  5
FEF
330
1F
100
AcDbEntity
  8
shade
370
     0
100
AcDbCircle
 10
231.803469310431
 20
209.245371786984
 30
0.0
 40
10.65242856308519
100
AcDbArc
 50
145.667081843784
 51
164.137594794307
  0
LINE
  5
FF0
330
1F
100
AcDbEntity
  8
shade
370
     0
100
AcDbLine
 10
221.40443714504
 20
216.625254712933
 30
0.0
 11
221.277056714389
 21
216.625254712933
 31
0.0
  0
LWPOLYLINE
  5
FF1
330
1F
100
AcDbEntity
  8
shade
100
AcDbPolyline
 90
        5
 70
     0
 43
0.0
 10
221.280944362474
 20
216.625254712933
 42
0.008231392702
 10
221.076339791507
 20
216.311929218146
 42
0.023385466172
 10
220.529461275768
 20
215.346206181975
 42
0.019551959999
 10
220.067261668286
 20
214.336810403625
 42
0.000094889503
 10
220.064977853368
 20
214.331256206302
  0
LWPOLYLINE
  5
FF2
330
1F
100
AcDbEntity
  8
shade
100
AcDbPolyline
 90
        4
 70
     0
 43
0.0
 10
221.404437145044
 20
216.625254712931
 42
0.008231392702
 10
221.199832574077
 20
216.311929218146
 42
0.023385466172
 10
220.65295405834
 20
215.346206181975
 42
0.018600116427
 10
220.211413015822
 20
214.386754239091
  0
LWPOLYLINE
  5
FF3
330
1F
100
AcDbEntity
  8
shade
100
AcDbPolyline
 90
        4
 70
     0
 43
0.0
 10
220.163213110936
 20
214.269426336758
 42
0.026962799575
 10
219.607771036925
 20
212.657232464255
 42
0.020795478638
 10
219.191272827564
 20
210.927518683289
 42
0.005288557885
 10
219.091638345411
 20
210.392538557908
  0
LWPOLYLINE
  5
FF4
330
1F
100
AcDbEntity
  8
shade
100
AcDbPolyline
 90
        4
 70
     0
 43
0.0
 10
220.017318059738
 20
214.213953075888
 42
0.026016845111
 10
219.484278254353
 20
212.657232464255
 42
0.020795478638
 10
219.067780044988
 20
210.927518683289
 42
0.005436157148
 10
218.965527341668
 20
210.377578369004
  0
LINE
  5
FF5
330
1F
100
AcDbEntity
  8
shade
370
     0
100
AcDbLine
 10
219.089967968755
 20
210.390850844599
 30
0.0
 11
218.959625515712
 21
210.376948897401
 31
0.0
  0
LWPOLYLINE
  5
FF6
330
1F
100
AcDbEntity
  8
shade
100
AcDbPolyline
 90
        3
 70
     0
 43
0.0
 10
218.860044216324
 20
208.794613161392
 42
0.005264265547
 10
218.774810845112
 20
208.012573874633
 42
0.018064378208
 10
218.614202558925
 20
205.421535063494
  0
LWPOLYLINE
  5
FF7
330
1F
100
AcDbEntity
  8
shade
100
AcDbPolyline
 90
        3
 70
     0
 43
0.0
 10
218.728831590401
 20
208.729612850706
 42
0.00482623833
 10
218.651318062537
 20
208.012573874633
 42
0.018138785135
 10
218.49043571189
 20
205.410845653576
  0
LINE
  5
FF8
330
1F
100
AcDbEntity
  8
shade
370
     0
100
AcDbLine
 10
218.59838609291
 20
205.411679324285
 30
0.0
 11
218.475595160851
 21
205.410731044137
 31
0.0
  0
LINE
  5
FF9
330
1F
100
AcDbEntity
  8
shade
370
     0
100
AcDbLine
 10
218.475595160851
 20
205.410731044137
 30
0.0
 11
218.49119976486
 21
205.440344823446
 31
0.0
  0
LINE
  5
FFA
330
1F
100
AcDbEntity
  8
shade
370
     0
100
AcDbLine
 10
219.019547288093
 20
199.68807976702
 30
0.0
 11
218.8959788109
 21
199.688576274672
 31
0.0
  0
LWPOLYLINE
  5
FFB
330
1F
100
AcDbEntity
  8
shade
100
AcDbPolyline
 90
        4
 70
     0
 43
0.0
 10
218.773994659194
 20
201.481121145567
 42
0.000614607104
 10
218.781270944932
 20
201.416447690961
 42
0.008075292783
 10
218.928390297118
 20
200.286010549483
 10
219.019547288093
 20
199.68807976702
  0
LWPOLYLINE
  5
FFC
330
1F
100
AcDbEntity
  8
shade
100
AcDbPolyline
 90
        3
 70
     0
 43
0.0
 10
218.65944048957
 20
201.401861227896
 42
0.007971296821
 10
218.804897514547
 20
200.286010549483
 10
218.8959788109
 20
199.688576274672
  0
LWPOLYLINE
  5
FFD
330
1F
100
AcDbEntity
  8
shade
100
AcDbPolyline
 90
       19
 70
     0
 43
0.0
 10
227.29944321181
 20
181.437543451467
 42
-0.027687123808
 10
227.188511795055
 20
181.421193922582
 42
-0.014916829325
 10
227.093148872398
 20
181.415356243838
 42
0.000095155433
 10
226.99761232454
 20
181.412346041526
 42
-0.003405322936
 10
226.908421781311
 20
181.410126732067
 42
-0.033302698656
 10
226.81950398596
 20
181.414443855598
 42
-0.045903326457
 10
226.741431773473
 20
181.43082635338
 42
-0.055677109703
 10
226.668410092625
 20
181.462548091531
 42
-0.055636273419
 10
226.649006376978
 20
181.47676158228
 42
-0.14691754342
 10
226.637175191172
 20
181.496693988473
 42
-0.187852168852
 10
226.64400576757
 20
181.549997868022
 42
-0.096071170143
 10
226.680060829827
 20
181.593649357754
 42
-0.05123070069
 10
226.743242601773
 20
181.635632610838
 42
-0.026573398062
 10
226.812429303583
 20
181.667445485656
 42
-0.015598494629
 10
226.873730677135
 20
181.689590126949
 42
-0.000159050682
 10
226.935729494435
 20
181.709802162611
 10
227.345099764712
 20
181.851427533533
 42
-0.01739124717
 10
227.601432582274
 20
181.931697305173
 42
-0.001263891549
 10
227.808904641122
 20
181.991184006402
  0
LWPOLYLINE
  5
FFE
330
1F
100
AcDbEntity
  8
shade
100
AcDbPolyline
 90
        8
 70
     0
 43
0.0
 10
227.936638401121
 20
216.610551178129
 10
228.576750244683
 20
216.466829218402
 42
-0.000709750536
 10
228.897352047485
 20
216.394152351263
 42
-0.00148566305
 10
229.21763055828
 20
216.320068735293
 42
-0.00353668537
 10
229.777610671876
 20
216.184599981495
 42
-0.005934955239
 10
230.334898951267
 20
216.038555036203
 42
-0.002913452802
 10
230.572448490193
 20
215.971788013795
 42
-0.003362102932
 10
230.809140010471
 20
215.902045220398
  0
LWPOLYLINE
  5
FFF
330
1F
100
AcDbEntity
  8
shade
100
AcDbPolyline
 90
        9
 70
     0
 43
0.0
 10
228.563383867373
 20
216.747114727141
 42
0.004754521687
 10
229.099057607473
 20
216.612048684404
 42
0.000561797209
 10
229.396334201952
 20
216.54044556298
 42
-0.000705267346
 10
229.770314916659
 20
216.450253664703
 42
-0.003862066077
 10
230.143445410871
 20
216.356652101155
 42
-0.003078888006
 10
230.365800510534
 20
216.297580646307
 42
-0.004272646996
 10
230.587259193193
 20
216.235247501483
 42
-0.006593805795
 10
230.877991322992
 20
216.146554217906
 42
-0.008885925651
 10
231.165818313055
 20
216.048911082822
  0
LWPOLYLINE
  5
1000
330
1F
100
AcDbEntity
  8
shade
100
AcDbPolyline
 90
        2
 70
     0
 43
0.0
 10
228.019582401121
 20
217.437177003008
 42
-0.007945963859
 10
228.522232789426
 20
217.475595836286
  0
LWPOLYLINE
  5
1001
330
1F
100
AcDbEntity
  8
shade
100
AcDbPolyline
 90
       51
 70
     0
 43
0.0
 10
240.719615314112
 20
198.597386998299
 42
-0.040074400459
 10
240.679376486751
 20
198.570283194157
 42
0.08096841759
 10
240.628518725378
 20
198.529638136176
 42
0.040368418332
 10
240.613370590716
 20
198.50988742631
 42
0.035055098404
 10
240.601351315374
 20
198.488067997123
 42
-0.007945838624
 10
240.069402449733
 20
198.055021264484
 42
-0.007237447207
 10
239.524539228198
 20
197.63831587603
 42
-0.013356404662
 10
238.39903449942
 20
196.848805820202
 42
-0.010131053883
 10
237.237523515363
 20
196.112903598551
 42
-0.004488318083
 10
236.640646434997
 20
195.758756968821
 42
-0.003665081438
 10
236.03806591204
 20
195.414385468129
 42
0.08570707538
 10
235.943333344445
 20
195.390017719466
 42
0.015720888795
 10
235.854177672751
 20
195.346487396487
 42
-0.001164335299
 10
235.331614432422
 20
195.072229934288
 42
-0.001066969371
 10
234.807832268543
 20
194.800307071717
 42
-0.0010247359
 10
234.270263727014
 20
194.524075788021
 42
-0.000922089189
 10
233.731623500184
 20
194.249939586554
 42
-0.001746403947
 10
232.629473341132
 20
193.696395733321
 42
-0.001466709374
 10
231.523786781399
 20
193.149944939267
 42
-0.001998654456
 10
229.865644848362
 20
192.344710965034
 42
-0.001676783521
 10
228.20162466213
 20
191.551685541748
 42
-0.000519715151
 10
227.663887235487
 20
191.298307704657
 42
-0.000502325753
 10
227.125632988496
 20
191.046029566369
 42
0.000137632014
 10
226.767751372543
 20
190.878609803734
 42
0.00072802845
 10
226.410160515634
 20
190.710570856251
 42
0.004824435534
 10
225.098002901836
 20
190.076079217654
 42
0.011646464948
 10
223.807743921261
 20
189.398868455679
 42
0.008414181171
 10
223.088090677747
 20
188.983509238583
 42
0.011798422171
 10
222.385907199896
 20
188.539466957431
 42
0.009824253753
 10
221.894751465181
 20
188.198284606914
 42
0.012662858677
 10
221.419491568733
 20
187.835412619629
 42
0.021544297502
 10
220.990139420479
 20
187.458456889926
 42
0.038417498074
 10
220.609720226512
 20
187.033719677403
 42
0.037607996661
 10
220.370056168282
 20
186.666661050843
 42
0.023777204953
 10
220.189356622159
 20
186.269077358823
 10
220.187138722747
 20
186.256341372602
 42
0.040077763253
 10
220.18756738002
 20
185.952821527886
 42
0.045868348277
 10
220.239821809544
 20
185.654139853088
 42
0.042599540933
 10
220.335967931409
 20
185.390760630237
 42
0.038215953695
 10
220.473321637193
 20
185.146101421462
 42
0.023388429432
 10
220.584806270552
 20
184.994704520876
 42
0.019818990406
 10
220.708977926313
 20
184.853449223219
 42
0.021457881562
 10
220.871598268777
 20
184.696664344931
 42
0.016920976956
 10
221.045821672538
 20
184.552759406665
 42
0.019471864537
 10
221.290772544253
 20
184.378770928404
 42
0.013853730901
 10
221.546862313387
 20
184.221422328346
 42
0.010541131853
 10
221.783912805939
 20
184.091251319785
 42
0.007320565299
 10
222.025488883421
 20
183.969615564044
 42
0.005755058757
 10
222.264328853615
 20
183.857086784277
 42
0.002930392301
 10
222.505099216058
 20
183.748718287038
 10
222.888238171105
 20
183.579921994274
  0
SPLINE
  5
1002
330
1F
100
AcDbEntity
  8
shade
370
     0
100
AcDbSpline
210
0.0
220
0.0
230
1.0
 70
  1064
 71
     3
 72
    12
 73
     8
 74
     6
 42
0.000000001
 43
0.0000000001
 44
0.0000000001
 40
0.0
 40
0.0
 40
0.0
 40
0.0
 40
0.6327590528269776
 40
1.195568675228483
 40
1.776549896618256
 40
2.32545153353686
 40
3.24176519987814
 40
3.24176519987814
 40
3.24176519987814
 40
3.24176519987814
 10
240.7196153141122
 20
198.5973869982988
 30
0.0
 10
240.8792763358204
 20
198.7356963804554
 30
0.0
 10
241.1809483788461
 20
198.9970254978467
 30
0.0
 10
241.5683960099113
 20
199.4461654490277
 30
0.0
 10
241.9406290432869
 20
199.8702265502434
 30
0.0
 10
242.3297724610996
 20
200.433388817949
 30
0.0
 10
242.5369222882116
 20
200.8767558862134
 30
0.0
 10
242.6664692681952
 20
201.1540279724061
 30
0.0
 11
240.7196153141122
 21
198.5973869982988
 31
0.0
 11
241.1871333441541
 21
199.0237799045721
 31
0.0
 11
241.5649358681549
 21
199.4409368581595
 31
0.0
 11
241.938802949202
 21
199.885641912456
 31
0.0
 11
242.2498635732372
 21
200.3378965920191
 31
0.0
 11
242.6664692681952
 21
201.1540279724061
 31
0.0
  0
LWPOLYLINE
  5
1003
330
1F
100
AcDbEntity
  8
shade
100
AcDbPolyline
 90
       47
 70
     0
 43
0.0
 10
238.511366271276
 20
191.534904306584
 42
-0.014041601761
 10
237.352450135912
 20
190.810988905367
 42
-0.01119041482
 10
236.144820335285
 20
190.138839394442
 42
-0.012152235381
 10
234.544723037761
 20
189.343675903964
 42
-0.00704472474
 10
232.914964485873
 20
188.610371215817
 42
-0.002349018378
 10
232.179612005633
 20
188.29597654652
 42
-0.001371317081
 10
231.441935232291
 20
187.98705979059
 10
229.958398393752
 20
187.375100652246
 10
229.215467404692
 20
187.068279507521
 42
0.001265485767
 10
228.473059173617
 20
186.758100569893
 42
0.002219531664
 10
227.732835836163
 20
186.442756700695
 42
-0.02229774788
 10
227.369764512683
 20
186.294890927097
 42
0.018832994673
 10
226.925751732941
 20
186.111792873597
 10
226.811933978908
 20
186.064098687516
 42
-0.000852248184
 10
226.759520514226
 20
186.038397468804
 42
-0.000755895611
 10
226.707024642021
 20
186.012864951562
 42
-0.003638149136
 10
226.38253563053
 20
185.858553898222
 42
-0.000611053356
 10
226.056738578403
 20
185.707002113881
 42
0.000760206833
 10
225.722296254822
 20
185.551307416936
 42
0.003487801618
 10
225.389196485152
 20
185.39278062892
 42
0.005795569938
 10
225.00280873353
 20
185.200015137821
 42
0.009813905464
 10
224.622673751359
 20
184.995308885572
 42
0.00999488542
 10
224.309473620851
 20
184.810284018357
 42
0.013580867981
 10
224.005393511648
 20
184.610736859532
 42
0.009945649364
 10
223.813400275143
 20
184.471399233292
 42
0.011789549673
 10
223.627658197966
 20
184.323861994718
 42
0.013463524265
 10
223.466293547546
 20
184.181829074241
 42
0.027313915898
 10
223.317202026996
 20
184.02729966495
 42
0.018107692961
 10
223.240456557478
 20
183.931745163866
 42
0.022854944077
 10
223.171813559233
 20
183.830271080782
 42
0.045880727819
 10
223.078775092794
 20
183.64122801241
 42
0.058130918703
 10
223.026877392995
 20
183.43757540931
 10
223.019535522715
 20
183.42391611577
 42
0.041502588231
 10
223.068710325595
 20
183.233811247098
 42
0.04528500428
 10
223.149905363454
 20
183.055164131449
 42
0.041710863816
 10
223.254639101568
 20
182.902229882557
 42
0.035627917267
 10
223.381792725784
 20
182.767119883329
 42
0.02517106396
 10
223.494884084266
 20
182.672986126982
 42
0.020063392939
 10
223.61607216857
 20
182.589414086309
 42
0.020751241984
 10
223.767507013466
 20
182.502285874305
 42
0.015166741704
 10
223.924867336984
 20
182.426219677079
 42
0.014712159431
 10
224.112284463208
 20
182.349067634178
 42
0.009544556241
 10
224.303270217028
 20
182.281077487133
 42
0.008031910476
 10
224.517126622104
 20
182.213314396646
 42
0.002839250657
 10
224.732429975749
 20
182.150209489028
 42
0.000245229167
 10
224.935109171101
 20
182.092159985938
 42
-0.005003489621
 10
225.099669186398
 20
182.043329055856
  0
SPLINE
  5
1004
330
1F
100
AcDbEntity
  8
shade
370
     0
100
AcDbSpline
210
0.0
220
0.0
230
1.0
 70
  1064
 71
     3
 72
    10
 73
     6
 74
     4
 42
0.000000001
 43
0.0000000001
 44
0.0000000001
 40
0.0
 40
0.0
 40
0.0
 40
0.0
 40
0.7325338884777031
 40
1.586625595557636
 40
2.147675707515086
 40
2.147675707515086
 40
2.147675707515086
 40
2.147675707515086
 10
238.5113662712756
 20
191.5349043065839
 30
0.0
 10
238.7076361195943
 20
191.6800055291755
 30
0.0
 10
239.1327451416845
 20
191.9942862980681
 30
0.0
 10
239.6790990350149
 20
192.4616259242185
 30
0.0
 10
239.9850350658986
 20
192.8213005091404
 30
0.0
 10
240.1063271103212
 20
192.9638978541018
 30
0.0
 11
238.5113662712756
 21
191.5349043065839
 31
0.0
 11
239.0955966172605
 21
191.9768101795915
 31
0.0
 11
239.733952718143
 21
192.5442378248194
 31
0.0
 11
240.1063271103212
 21
192.9638978541018
 31
0.0
  0
LWPOLYLINE
  5
1005
330
1F
100
AcDbEntity
  8
shade
100
AcDbPolyline
 90
       19
 70
     0
 43
0.0
 10
228.019582401121
 20
214.823847168386
 42
0.000261336479
 10
228.09056801833
 20
214.851839178468
 10
229.621515751369
 20
215.465172413698
 42
-0.003383854621
 10
230.390654978533
 20
215.765099118207
 42
-0.007036471543
 10
231.165818313055
 20
216.048911082822
 42
0.000389033824
 10
231.610494868666
 20
216.205049095276
 42
0.020341739335
 10
232.0479563275
 20
216.379337917545
 42
0.0171462021
 10
232.30839349413
 20
216.506463455095
 42
-0.002930489774
 10
232.565258561604
 20
216.641017141818
 42
-0.011257436331
 10
232.765643668788
 20
216.73884304969
 42
-0.025451478406
 10
232.972448066619
 20
216.82162296168
 42
-0.029586411233
 10
233.107246717727
 20
216.859031369783
 42
-0.052354437765
 10
233.2458226934
 20
216.87390635692
 42
-0.031214003112
 10
233.373033602442
 20
216.866253191878
 42
-0.004436731074
 10
233.499617855941
 20
216.84952749564
 42
0.001954583984
 10
233.6483040113
 20
216.829129954934
 42
0.001274873221
 10
233.797119463517
 20
216.809693097891
 42
0.000909453306
 10
233.944842668901
 20
216.791054889858
 42
0.00018420022
 10
234.092606522763
 20
216.772739813033
  0
LINE
  5
1006
330
1F
100
AcDbEntity
  8
shade
370
     0
100
AcDbLine
 10
227.598226881122
 20
214.190613971459
 30
0.0
 11
228.019582401121
 21
214.190613971459
 31
0.0
  0
LWPOLYLINE
  5
1007
330
1F
100
AcDbEntity
  8
shade
100
AcDbPolyline
 90
       11
 70
     0
 43
0.0
 10
223.56316288386
 20
213.043251772941
 42
0.002713038282
 10
223.479493265537
 20
213.093210952943
 42
0.002096106911
 10
223.395228559171
 20
213.142432264185
 42
0.00329289261
 10
223.224663034418
 20
213.239613963006
 10
223.052666475176
 20
213.335712133635
 10
222.836603303784
 20
213.456234454048
 42
-0.004235312323
 10
222.620827249028
 20
213.57931561839
 10
222.57792092514
 20
213.604396608859
 10
222.535122727319
 20
213.629677634935
 42
-0.005611737066
 10
222.364915434066
 20
213.73337928005
 42
-0.007991598921
 10
222.197216879456
 20
213.841915526518
  0
LWPOLYLINE
  5
1008
330
1F
100
AcDbEntity
  8
shade
100
AcDbPolyline
 90
       11
 70
     0
 43
0.0
 10
223.789084857861
 20
216.236633605488
 42
0.004424201147
 10
223.833831914828
 20
216.217978922412
 42
0.003530866689
 10
223.909380925053
 20
216.187884869868
 10
223.966046961792
 20
216.165958258956
 10
224.022540737806
 20
216.144187473197
 10
224.078541345973
 20
216.122282961604
 42
-0.003982970133
 10
224.133594176597
 20
216.100011604368
 42
-0.006988696026
 10
224.205052899002
 20
216.069262041298
 42
-0.011298713154
 10
224.274466210834
 20
216.03633436454
 42
-0.00641562055
 10
224.307843314757
 20
216.019027282942
 42
-0.0075894893
 10
224.34049424892
 20
216.000918885377
  0
LWPOLYLINE
  5
1009
330
1F
100
AcDbEntity
  8
shade
100
AcDbPolyline
 90
        5
 70
     0
 43
0.0
 10
224.967248470668
 20
215.800799302865
 42
0.010474871042
 10
225.574261022917
 20
215.535367740134
 42
0.004189115036
 10
225.924165288172
 20
215.394435742845
 42
0.004473710632
 10
226.420475642924
 20
215.204460856606
 42
0.002916598668
 10
227.598226881122
 20
214.773495345019
  0
LWPOLYLINE
  5
100A
330
1F
100
AcDbEntity
  8
shade
100
AcDbPolyline
 90
        8
 70
     0
 43
0.0
 10
227.924512466852
 20
216.556544440707
 10
228.564568742189
 20
216.412834957508
 10
228.884996490346
 20
216.340197546625
 10
229.205076462826
 20
216.266159854549
 42
-0.003536180053
 10
229.764215464354
 20
216.130893981975
 42
-0.005934955239
 10
230.320232682023
 20
215.985182135633
 42
-0.002913452802
 10
230.55716123498
 20
215.918589651066
 42
-0.003362102932
 10
230.79313872843
 20
215.849057250614
  0
LWPOLYLINE
  5
100B
330
1F
100
AcDbEntity
  8
shade
100
AcDbPolyline
 90
       11
 70
     0
 43
0.0
 10
230.673307246565
 20
213.599325496318
 42
0.020614109572
 10
231.00467805014
 20
213.441944810063
 42
0.004471390512
 10
231.140332536912
 20
213.385670025125
 42
0.002646240905
 10
231.277070734264
 20
213.331213902709
 10
231.413328406157
 20
213.277463288262
 10
231.481114356389
 20
213.250376107506
 42
-0.002121567147
 10
231.548396730512
 20
213.222970758282
 42
-0.006441312009
 10
231.697270435816
 20
213.159338044077
 42
-0.011412127926
 10
231.84275578628
 20
213.090912004303
 42
-0.004343951496
 10
231.889937584756
 20
213.066877448776
 42
-0.004923848422
 10
231.936552004103
 20
213.042033192083
  0
LWPOLYLINE
  5
100C
330
1F
100
AcDbEntity
  8
shade
100
AcDbPolyline
 90
       11
 70
     0
 43
0.0
 10
221.549105270207
 20
210.021319274948
 42
0.029494597624
 10
221.820088723493
 20
209.814513035311
 42
0.009607367651
 10
221.949948977321
 20
209.730599028795
 42
0.007858778199
 10
222.084037646857
 20
209.650448395407
 42
0.004328529808
 10
222.22073213096
 20
209.573198357847
 42
0.002861569056
 10
222.379157274288
 20
209.486649421837
 10
222.538471510725
 20
209.400131099218
 10
222.578242137302
 20
209.378289124957
 10
222.617870082828
 20
209.356340601213
 42
-0.005530167724
 10
222.774645132873
 20
209.266799433044
 42
-0.010287203423
 10
222.929335467594
 20
209.171837547392
  0
SPLINE
  5
100D
330
1F
100
AcDbEntity
  8
shade
370
     0
100
AcDbSpline
210
0.0
220
0.0
230
1.0
 70
  1064
 71
     3
 72
    11
 73
     7
 74
     5
 42
0.000000001
 43
0.0000000001
 44
0.0000000001
 40
0.0
 40
0.0
 40
0.0
 40
0.0
 40
0.8402941704644196
 40
1.449275726001577
 40
1.793078735489743
 40
2.193102259995281
 40
2.193102259995281
 40
2.193102259995281
 40
2.193102259995281
 10
230.0957834053097
 20
217.034998249014
 30
0.0
 10
229.8174740024573
 20
217.0005599660107
 30
0.0
 10
229.3374670286507
 20
216.9411634244706
 30
0.0
 10
228.7580117287453
 20
216.7894619070051
 30
0.0
 10
228.3107714097293
 20
216.728152277102
 30
0.0
 10
228.0692482879998
 20
216.6714885135958
 30
0.0
 10
227.9393592265205
 20
216.6410152280196
 30
0.0
 11
230.0957834053097
 21
217.034998249014
 31
0.0
 11
229.2647735481041
 21
216.9104313587756
 31
0.0
 11
228.6694204200012
 21
216.7823173944997
 31
0.0
 11
228.3302952204467
 21
216.7257965279081
 31
0.0
 11
227.9393592265205
 21
216.6410152280196
 31
0.0
  0
LWPOLYLINE
  5
100E
330
1F
100
AcDbEntity
  8
shade
370
     0
100
AcDbPolyline
 90
        4
 70
     0
 43
0.0
 10
227.598226881122
 20
216.865465432603
 10
227.598226881122
 20
217.909466787034
 10
228.019582401121
 20
217.909466787034
 10
228.019582401121
 20
216.910980692653
  0
LWPOLYLINE
  5
100F
330
1F
100
AcDbEntity
  8
shade
370
     0
100
AcDbPolyline
 90
        2
 70
     0
 43
0.0
 10
228.019582401121
 20
216.640435100754
 10
228.019582401121
 20
214.190613971459
  0
LWPOLYLINE
  5
1010
330
1F
100
AcDbEntity
  8
shade
370
     0
100
AcDbPolyline
 90
        2
 70
     0
 43
0.0
 10
227.598226881122
 20
214.190613971459
 10
227.598226881122
 20
216.575001873824
  0
LWPOLYLINE
  5
1011
330
1F
100
AcDbEntity
  8
shade
370
     0
100
AcDbPolyline
 90
        4
 70
     0
 43
0.0
 10
228.019582401121
 20
212.544875808687
 10
228.019582401121
 20
210.225216146764
 10
227.598226881122
 20
210.225216146764
 10
227.598226881122
 20
212.44426725134
  0
LWPOLYLINE
  5
1012
330
1F
100
AcDbEntity
  8
shade
100
AcDbPolyline
 90
        4
 70
     0
 43
0.0
 10
230.293242284057
 20
245.709149817677
 10
225.324566998186
 20
245.709149817677
 42
0.217047275996
 10
227.588074628415
 20
240.740474531806
 10
227.808904641122
 20
240.740474531806
  0
LWPOLYLINE
  5
1013
330
1F
100
AcDbEntity
  8
shade
100
AcDbPolyline
 90
        4
 70
     0
 43
0.0
 10
225.324566998186
 20
245.709149817677
 10
230.293242284057
 20
245.709149817677
 42
-0.217047275996
 10
228.029734653828
 20
240.740474531806
 10
227.808904641122
 20
240.740474531806
  0
VIEWPORT
  5
92
330
23
100
AcDbEntity
 67
     1
  8
0
100
AcDbViewport
 10
202.5
 20
168.661532219742
 30
0.0
 40
556.786421052632
 41
394.549064439485
 68
     2
 69
     1
 12
202.5
 22
168.661532219742
 13
0.0
 23
0.0
 14
10.0
 24
10.0
 15
10.0
 25
10.0
 16
0.0
 26
0.0
 36
1.0
 17
0.0
 27
0.0
 37
0.0
 42
50.0
 43
0.0
 44
0.0
 45
394.549064439485
 50
0.0
 51
0.0
 72
   100
 90
    32800
  1

281
     0
 71
     1
 74
     0
110
0.0
120
0.0
130
0.0
111
1.0
121
0.0
131
0.0
112
0.0
122
1.0
132
0.0
 79
     0
146
0.0
170
     0
 61
     5
348
E93
292
     1
282
     1
141
0.0
142
0.0
 63
   250
421
  3355443
  0
VIEWPORT
  5
94
330
23
100
AcDbEntity
 67
     1
  8
0
100
AcDbViewport
 10
202.5
 20
128.5
 30
0.0
 40
324.0
 41
205.6
 68
     1
 69
     2
 12
210.0
 22
148.5
 13
0.0
 23
0.0
 14
10.0
 24
10.0
 15
10.0
 25
10.0
 16
0.0
 26
0.0
 36
1.0
 17
0.0
 27
0.0
 37
0.0
 42
50.0
 43
0.0
 44
0.0
 45
302.335329341317
 50
0.0
 51
0.0
 72
   100
 90
    32864
  1

281
     0
 71
     1
 74
     0
110
0.0
120
0.0
130
0.0
111
1.0
121
0.0
131
0.0
112
0.0
122
1.0
132
0.0
 79
     0
146
0.0
170
     0
 61
     5
348
E93
292
     1
282
     1
141
0.0
142
0.0
 63
   250
421
  3355443
  0
ENDSEC
  0
SECTION
  2
OBJECTS
  0
DICTIONARY
  5
C
330
0
100
AcDbDictionary
281
     1
  3
ACAD_COLOR
350
C8E
  3
ACAD_DETAILVIEWSTYLE
350
1019
  3
ACAD_GROUP
350
D
  3
ACAD_LAYOUT
350
1A
  3
ACAD_MATERIAL
350
C8D
  3
ACAD_MLEADERSTYLE
350
E8C
  3
ACAD_MLINESTYLE
350
17
  3
ACAD_PLOTSETTINGS
350
19
  3
ACAD_PLOTSTYLENAME
350
E
  3
ACAD_SCALELIST
350
E62
  3
ACAD_SECTIONVIEWSTYLE
350
101A
  3
ACAD_TABLESTYLE
350
E87
  3
ACAD_VISUALSTYLE
350
E8E
  3
ACDB_RECOMPOSE_DATA
350
104F
  3
AcDbVariableDictionary
350
4A4
  0
SUN
  5
E8A
330
E61
100
AcDbSun
 90
        1
290
     0
 63
     7
421
 16777215
 40
1.0
291
     1
 91
  2455461
 92
 54000000
292
     0
 70
     2
 71
   256
280
     1
  0
DICTIONARY
  5
F74
330
2
100
AcDbDictionary
280
     1
281
     1
  3
ACAD_LAYERSTATES
360
F75
  0
DICTIONARY
  5
C8E
102
{ACAD_REACTORS
330
C
102
}
330
C
100
AcDbDictionary
281
     1
  0
DICTIONARY
  5
1019
102
{ACAD_REACTORS
330
C
102
}
330
C
100
AcDbDictionary
281
     1
  0
DICTIONARY
  5
D
102
{ACAD_REACTORS
330
C
102
}
330
C
100
AcDbDictionary
281
     1
  0
DICTIONARY
  5
1A
102
{ACAD_REACTORS
330
C
102
}
330
C
100
AcDbDictionary
281
     1
  3
Model
350
22
  3
ﾚｲｱｳﾄ1
350
1E
  3
ﾚｲｱｳﾄ2
350
26
  0
DICTIONARY
  5
C8D
102
{ACAD_REACTORS
330
C
102
}
330
C
100
AcDbDictionary
281
     1
  3
ByBlock
350
E85
  3
ByLayer
350
E84
  3
Global
350
E86
  0
DICTIONARY
  5
E8C
102
{ACAD_REACTORS
330
C
102
}
330
C
100
AcDbDictionary
281
     1
  3
Standard
350
EA7
  0
DICTIONARY
  5
17
102
{ACAD_REACTORS
330
C
102
}
330
C
100
AcDbDictionary
281
     1
  3
Standard
350
18
  0
DICTIONARY
  5
19
102
{ACAD_REACTORS
330
C
102
}
330
C
100
AcDbDictionary
281
     1
  0
ACDBDICTIONARYWDFLT
  5
E
102
{ACAD_REACTORS
330
C
102
}
330
C
100
AcDbDictionary
281
     1
  3
Normal
350
F
100
AcDbDictionaryWithDefault
340
F
  0
DICTIONARY
  5
E62
102
{ACAD_REACTORS
330
C
102
}
330
C
100
AcDbDictionary
281
     1
  3
A0
350
E63
  3
A1
350
E64
  3
A2
350
E65
  3
A3
350
E66
  3
A4
350
E67
  3
A5
350
E68
  3
A6
350
E69
  3
A7
350
E6A
  3
A8
350
E6B
  3
A9
350
E6C
  3
B0
350
E6D
  3
B1
350
E6E
  3
B2
350
E6F
  3
B3
350
E70
  3
B4
350
E71
  3
B5
350
E72
  3
B6
350
E73
  3
B7
350
E74
  3
B8
350
E75
  3
B9
350
E76
  3
C0
350
E77
  3
C1
350
E78
  3
C2
350
E79
  3
C3
350
E7A
  3
C4
350
E7B
  3
C5
350
E7C
  3
C6
350
E7D
  3
C7
350
E7E
  3
C8
350
E7F
  3
C9
350
E80
  3
D0
350
E81
  3
D1
350
E82
  3
D2
350
E83
  0
DICTIONARY
  5
101A
102
{ACAD_REACTORS
330
C
102
}
330
C
100
AcDbDictionary
281
     1
  0
DICTIONARY
  5
E87
102
{ACAD_REACTORS
330
C
102
}
330
C
100
AcDbDictionary
281
     1
  3
Standard
350
E88
  0
DICTIONARY
  5
E8E
102
{ACAD_REACTORS
330
C
102
}
330
C
100
AcDbDictionary
281
     1
  3
2dWireframe
350
E93
  3
Basic
350
E96
  3
Brighten
350
E9A
  3
ColorChange
350
E9E
  3
Conceptual
350
E98
  3
Dim
350
E99
  3
EdgeColorOff
350
EA1
  3
Facepattern
350
E9D
  3
Flat
350
E8F
  3
FlatWithEdges
350
E90
  3
Gouraud
350
E91
  3
GouraudWithEdges
350
E92
  3
Hidden
350
E95
  3
JitterOff
350
E9F
  3
Linepattern
350
E9C
  3
Modeling
350
EA8
  3
OverhangOff
350
EA0
  3
Realistic
350
E97
  3
Shaded
350
EA6
  3
Shaded with edges
350
EA5
  3
Shades of Gray
350
EA2
  3
Sketchy
350
EA3
  3
Thicken
350
E9B
  3
Wireframe
350
E94
  3
X-Ray
350
EA4
  0
XRECORD
  5
104F
102
{ACAD_REACTORS
330
C
102
}
330
C
100
AcDbXrecord
280
     1
 90
        1
330
E88
  0
DICTIONARY
  5
4A4
102
{ACAD_REACTORS
330
C
102
}
330
C
100
AcDbDictionary
281
     1
  3
CANNOSCALE
350
E8B
  3
CMLEADERSTYLE
350
1017
  3
CTABLESTYLE
350
1016
  3
DIMASSOC
350
4A5
  3
PROJECTNAME
350
D6B
  3
XCLIPFRAME
350
1018
  0
DICTIONARY
  5
F75
102
{ACAD_REACTORS
330
F74
102
}
330
F74
100
AcDbDictionary
281
     1
  0
LAYOUT
  5
22
102
{ACAD_REACTORS
330
1A
102
}
330
1A
100
AcDbPlotSettings
  1

  2
default.pc3
  4
A4
  6

 40
5.08
 41
5.08
 42
5.08
 43
5.08
 44
210.0
 45
297.0
 46
0.0
 47
0.0
 48
0.0
 49
0.0
140
0.0
141
0.0
142
1.0
143
2.872255699296
 70
 11952
 72
     1
 73
     0
 74
     0
  7

 75
     0
 76
     0
 77
     2
 78
   300
147
0.348158417875
148
0.0
149
0.0
100
AcDbLayout
  1
Model
 70
     1
 71
     0
 10
0.0
 20
0.0
 11
12.0
 21
9.0
 12
0.0
 22
0.0
 32
0.0
 14
124.0
 24
58.0
 34
0.0
 15
334.0
 25
355.0
 35
0.0
146
0.0
 13
0.0
 23
0.0
 33
0.0
 16
1.0
 26
0.0
 36
0.0
 17
0.0
 27
1.0
 37
0.0
 76
     0
330
1F
331
E61
  0
LAYOUT
  5
1E
102
{ACAD_REACTORS
330
1A
102
}
330
1A
100
AcDbPlotSettings
  1

  2
none_device
  4
ISO_A3_(420.00_x_297.00_MM)
  6

 40
7.5
 41
20.0
 42
7.5
 43
20.0
 44
420.0
 45
297.0
 46
0.0
 47
0.0
 48
0.0
 49
0.0
140
0.0
141
0.0
142
1.0
143
1.0
 70
   688
 72
     1
 73
     0
 74
     5
  7

 75
    16
 76
     0
 77
     2
 78
   300
147
1.0
148
0.0
149
0.0
100
AcDbLayout
  1
ﾚｲｱｳﾄ1
 70
     1
 71
     1
 10
-7.5
 20
-20.0
 11
412.5
 21
277.0
 12
0.0
 22
0.0
 32
0.0
 14
40.5
 24
25.7
 34
0.0
 15
364.5
 25
231.3
 35
0.0
146
0.0
 13
0.0
 23
0.0
 33
0.0
 16
1.0
 26
0.0
 36
0.0
 17
0.0
 27
1.0
 37
0.0
 76
     0
330
1B
331
8C
  0
LAYOUT
  5
26
102
{ACAD_REACTORS
330
1A
102
}
330
1A
100
AcDbPlotSettings
  1

  2
none_device
  4
ISO_A3_(420.00_x_297.00_MM)
  6

 40
7.5
 41
20.0
 42
7.5
 43
20.0
 44
420.0
 45
297.0
 46
0.0
 47
0.0
 48
0.0
 49
0.0
140
0.0
141
0.0
142
1.0
143
1.0
 70
   688
 72
     1
 73
     0
 74
     5
  7

 75
    16
 76
     0
 77
     2
 78
   300
147
1.0
148
0.0
149
0.0
100
AcDbLayout
  1
ﾚｲｱｳﾄ2
 70
     1
 71
     2
 10
-7.5
 20
-20.0
 11
412.5
 21
277.0
 12
0.0
 22
0.0
 32
0.0
 14
40.5
 24
25.7
 34
0.0
 15
364.5
 25
231.3
 35
0.0
146
0.0
 13
0.0
 23
0.0
 33
0.0
 16
1.0
 26
0.0
 36
0.0
 17
0.0
 27
1.0
 37
0.0
 76
     0
330
23
331
94
  0
MATERIAL
  5
E85
102
{ACAD_REACTORS
330
C8D
102
}
330
C8D
100
AcDbMaterial
  1
ByBlock
 72
     1
 94
       63
  0
MATERIAL
  5
E84
102
{ACAD_REACTORS
330
C8D
102
}
330
C8D
100
AcDbMaterial
  1
ByLayer
 72
     1
 94
       63
  0
MATERIAL
  5
E86
102
{ACAD_REACTORS
330
C8D
102
}
330
C8D
100
AcDbMaterial
  1
Global
 72
     1
 94
       63
  0
MLEADERSTYLE
  5
EA7
102
{ACAD_REACTORS
330
E8C
102
}
330
E8C
100
AcDbMLeaderStyle
179
     2
170
     2
171
     1
172
     0
 90
        2
 40
0.0
 41
0.0
173
     1
 91
-1056964608
340
14
 92
       -2
290
     1
 42
2.0
291
     1
 43
8.0
  3
Standard
341
0
 44
4.0
300

342
11
174
     1
178
     6
175
     1
176
     0
 93
-1056964608
 45
4.0
292
     0
297
     0
 46
4.0
343
0
 94
-1056964608
 47
1.0
 49
1.0
140
1.0
293
     1
141
0.0
294
     1
177
     0
142
1.0
295
     0
296
     0
143
3.75
271
     0
272
     9
273
     9
  0
MLINESTYLE
  5
18
102
{ACAD_REACTORS
330
17
102
}
330
17
100
AcDbMlineStyle
  2
STANDARD
 70
     0
  3

 62
   256
 51
90.0
 52
90.0
 71
     2
 49
0.5
 62
   256
  6
BYLAYER
 49
-0.5
 62
   256
  6
BYLAYER
  0
ACDBPLACEHOLDER
  5
F
102
{ACAD_REACTORS
330
E
102
}
330
E
  0
SCALE
  5
E63
102
{ACAD_REACTORS
330
E62
102
}
330
E62
100
AcDbScale
 70
     0
300
1:1
140
1.0
141
1.0
290
     1
  0
SCALE
  5
E64
102
{ACAD_REACTORS
330
E62
102
}
330
E62
100
AcDbScale
 70
     0
300
1:2
140
1.0
141
2.0
290
     0
  0
SCALE
  5
E65
102
{ACAD_REACTORS
330
E62
102
}
330
E62
100
AcDbScale
 70
     0
300
1:4
140
1.0
141
4.0
290
     0
  0
SCALE
  5
E66
102
{ACAD_REACTORS
330
E62
102
}
330
E62
100
AcDbScale
 70
     0
300
1:5
140
1.0
141
5.0
290
     0
  0
SCALE
  5
E67
102
{ACAD_REACTORS
330
E62
102
}
330
E62
100
AcDbScale
 70
     0
300
1:8
140
1.0
141
8.0
290
     0
  0
SCALE
  5
E68
102
{ACAD_REACTORS
330
E62
102
}
330
E62
100
AcDbScale
 70
     0
300
1:10
140
1.0
141
10.0
290
     0
  0
SCALE
  5
E69
102
{ACAD_REACTORS
330
E62
102
}
330
E62
100
AcDbScale
 70
     0
300
1:16
140
1.0
141
16.0
290
     0
  0
SCALE
  5
E6A
102
{ACAD_REACTORS
330
E62
102
}
330
E62
100
AcDbScale
 70
     0
300
1:20
140
1.0
141
20.0
290
     0
  0
SCALE
  5
E6B
102
{ACAD_REACTORS
330
E62
102
}
330
E62
100
AcDbScale
 70
     0
300
1:30
140
1.0
141
30.0
290
     0
  0
SCALE
  5
E6C
102
{ACAD_REACTORS
330
E62
102
}
330
E62
100
AcDbScale
 70
     0
300
1:40
140
1.0
141
40.0
290
     0
  0
SCALE
  5
E6D
102
{ACAD_REACTORS
330
E62
102
}
330
E62
100
AcDbScale
 70
     0
300
1:50
140
1.0
141
50.0
290
     0
  0
SCALE
  5
E6E
102
{ACAD_REACTORS
330
E62
102
}
330
E62
100
AcDbScale
 70
     0
300
1:100
140
1.0
141
100.0
290
     0
  0
SCALE
  5
E6F
102
{ACAD_REACTORS
330
E62
102
}
330
E62
100
AcDbScale
 70
     0
300
2:1
140
2.0
141
1.0
290
     0
  0
SCALE
  5
E70
102
{ACAD_REACTORS
330
E62
102
}
330
E62
100
AcDbScale
 70
     0
300
4:1
140
4.0
141
1.0
290
     0
  0
SCALE
  5
E71
102
{ACAD_REACTORS
330
E62
102
}
330
E62
100
AcDbScale
 70
     0
300
8:1
140
8.0
141
1.0
290
     0
  0
SCALE
  5
E72
102
{ACAD_REACTORS
330
E62
102
}
330
E62
100
AcDbScale
 70
     0
300
10:1
140
10.0
141
1.0
290
     0
  0
SCALE
  5
E73
102
{ACAD_REACTORS
330
E62
102
}
330
E62
100
AcDbScale
 70
     0
300
100:1
140
100.0
141
1.0
290
     0
  0
SCALE
  5
E74
102
{ACAD_REACTORS
330
E62
102
}
330
E62
100
AcDbScale
 70
     0
300
1/128" = 1'-0"
140
0.0078125
141
12.0
290
     0
  0
SCALE
  5
E75
102
{ACAD_REACTORS
330
E62
102
}
330
E62
100
AcDbScale
 70
     0
300
1/64" = 1'-0"
140
0.015625
141
12.0
290
     0
  0
SCALE
  5
E76
102
{ACAD_REACTORS
330
E62
102
}
330
E62
100
AcDbScale
 70
     0
300
1/32" = 1'-0"
140
0.03125
141
12.0
290
     0
  0
SCALE
  5
E77
102
{ACAD_REACTORS
330
E62
102
}
330
E62
100
AcDbScale
 70
     0
300
1/16" = 1'-0"
140
0.0625
141
12.0
290
     0
  0
SCALE
  5
E78
102
{ACAD_REACTORS
330
E62
102
}
330
E62
100
AcDbScale
 70
     0
300
3/32" = 1'-0"
140
0.09375
141
12.0
290
     0
  0
SCALE
  5
E79
102
{ACAD_REACTORS
330
E62
102
}
330
E62
100
AcDbScale
 70
     0
300
1/8" = 1'-0"
140
0.125
141
12.0
290
     0
  0
SCALE
  5
E7A
102
{ACAD_REACTORS
330
E62
102
}
330
E62
100
AcDbScale
 70
     0
300
3/16" = 1'-0"
140
0.1875
141
12.0
290
     0
  0
SCALE
  5
E7B
102
{ACAD_REACTORS
330
E62
102
}
330
E62
100
AcDbScale
 70
     0
300
1/4" = 1'-0"
140
0.25
141
12.0
290
     0
  0
SCALE
  5
E7C
102
{ACAD_REACTORS
330
E62
102
}
330
E62
100
AcDbScale
 70
     0
300
3/8" = 1'-0"
140
0.375
141
12.0
290
     0
  0
SCALE
  5
E7D
102
{ACAD_REACTORS
330
E62
102
}
330
E62
100
AcDbScale
 70
     0
300
1/2" = 1'-0"
140
0.5
141
12.0
290
     0
  0
SCALE
  5
E7E
102
{ACAD_REACTORS
330
E62
102
}
330
E62
100
AcDbScale
 70
     0
300
3/4" = 1'-0"
140
0.75
141
12.0
290
     0
  0
SCALE
  5
E7F
102
{ACAD_REACTORS
330
E62
102
}
330
E62
100
AcDbScale
 70
     0
300
1" = 1'-0"
140
1.0
141
12.0
290
     0
  0
SCALE
  5
E80
102
{ACAD_REACTORS
330
E62
102
}
330
E62
100
AcDbScale
 70
     0
300
1-1/2" = 1'-0"
140
1.5
141
12.0
290
     0
  0
SCALE
  5
E81
102
{ACAD_REACTORS
330
E62
102
}
330
E62
100
AcDbScale
 70
     0
300
3" = 1'-0"
140
3.0
141
12.0
290
     0
  0
SCALE
  5
E82
102
{ACAD_REACTORS
330
E62
102
}
330
E62
100
AcDbScale
 70
     0
300
6" = 1'-0"
140
6.0
141
12.0
290
     0
  0
SCALE
  5
E83
102
{ACAD_REACTORS
330
E62
102
}
330
E62
100
AcDbScale
 70
     0
300
1'-0" = 1'-0"
140
12.0
141
12.0
290
     0
  0
TABLESTYLE
  5
E88
102
{ACAD_REACTORS
330
E87
102
}
102
{ACAD_XDICTIONARY
360
101B
102
}
330
E87
100
AcDbTableStyle
  3

 70
     0
 71
     0
 40
0.06
 41
0.06
280
     0
281
     0
  7
Standard
140
4.5
170
     2
 62
     0
 63
   257
283
     0
 90
        4
 91
        0
  1

274
    -2
284
     1
 64
     0
275
    -2
285
     1
 65
     0
276
    -2
286
     1
 66
     0
277
    -2
287
     1
 67
     0
278
    -2
288
     1
 68
     0
279
    -2
289
     1
 69
     0
  7
Standard
140
6.0
170
     5
 62
     0
 63
   257
283
     0
 90
        4
 91
        0
  1

274
    -2
284
     1
 64
     0
275
    -2
285
     1
 65
     0
276
    -2
286
     1
 66
     0
277
    -2
287
     1
 67
     0
278
    -2
288
     1
 68
     0
279
    -2
289
     1
 69
     0
  7
Standard
140
4.5
170
     5
 62
     0
 63
   257
283
     0
 90
        4
 91
        0
  1

274
    -2
284
     1
 64
     0
275
    -2
285
     1
 65
     0
276
    -2
286
     1
 66
     0
277
    -2
287
     1
 67
     0
278
    -2
288
     1
 68
     0
279
    -2
289
     1
 69
     0
  0
VISUALSTYLE
  5
E93
102
{ACAD_REACTORS
330
E8E
102
}
102
{ACAD_XDICTIONARY
360
1025
102
}
330
E8E
100
AcDbVisualStyle
  2
2dWireframe
 70
     4
177
     2
291
     0
 71
     0
176
     1
 72
     2
176
     1
 73
     0
176
     1
 90
        0
176
     1
 40
0.6
176
     1
 41
30.0
176
     1
 62
     5
 63
     7
421
 16777215
176
     1
 74
     1
176
     1
 91
        4
176
     1
 64
     7
176
     1
 65
   257
176
     1
 75
     1
176
     1
175
     1
176
     1
 42
1.0
176
     1
 92
        0
176
     1
 66
   257
176
     1
 43
1.0
176
     1
 76
     1
176
     1
 77
     6
176
     1
 78
     2
176
     1
 67
     7
176
     1
 79
     5
176
     1
170
     0
176
     1
171
     0
176
     1
290
     0
176
     1
 93
        1
176
     1
 44
0.0
176
     1
173
     0
176
     1
  0
VISUALSTYLE
  5
E96
102
{ACAD_REACTORS
330
E8E
102
}
102
{ACAD_XDICTIONARY
360
102B
102
}
330
E8E
100
AcDbVisualStyle
  2
Basic
 70
     7
177
     2
291
     1
 71
     1
176
     1
 72
     0
176
     1
 73
     1
176
     1
 90
        0
176
     1
 40
0.6
176
     1
 41
30.0
176
     1
 62
     5
 63
     7
421
 16777215
176
     1
 74
     0
176
     1
 91
        4
176
     1
 64
     7
176
     1
 65
   257
176
     1
 75
     1
176
     1
175
     1
176
     1
 42
1.0
176
     1
 92
        8
176
     1
 66
     7
176
     1
 43
1.0
176
     1
 76
     1
176
     1
 77
     6
176
     1
 78
     2
176
     1
 67
     7
176
     1
 79
     5
176
     1
170
     0
176
     1
171
     0
176
     1
290
     0
176
     1
 93
        1
176
     1
 44
0.0
176
     1
173
     0
176
     1
  0
VISUALSTYLE
  5
E9A
102
{ACAD_REACTORS
330
E8E
102
}
102
{ACAD_XDICTIONARY
360
1033
102
}
330
E8E
100
AcDbVisualStyle
  2
Brighten
 70
    12
177
     2
291
     1
 71
     2
176
     1
 72
     2
176
     1
 73
     0
176
     1
 90
        0
176
     1
 40
0.6
176
     1
 41
30.0
176
     1
 62
     5
 63
     7
421
 16777215
176
     1
 74
     1
176
     1
 91
        4
176
     1
 64
     7
176
     1
 65
   257
176
     1
 75
     1
176
     1
175
     1
176
     1
 42
1.0
176
     1
 92
        8
176
     1
 66
     7
176
     1
 43
1.0
176
     1
 76
     1
176
     1
 77
     6
176
     1
 78
     2
176
     1
 67
     7
176
     1
 79
     5
176
     1
170
     0
176
     1
171
     0
176
     1
290
     0
176
     1
 93
        1
176
     1
 44
50.0
176
     1
173
     0
176
     1
  0
VISUALSTYLE
  5
E9E
102
{ACAD_REACTORS
330
E8E
102
}
102
{ACAD_XDICTIONARY
360
103B
102
}
330
E8E
100
AcDbVisualStyle
  2
ColorChange
 70
    16
177
     2
291
     1
 71
     2
176
     1
 72
     2
176
     1
 73
     3
176
     1
 90
        0
176
     1
 40
0.6
176
     1
 41
30.0
176
     1
 62
     5
 63
     8
421
  8421504
176
     1
 74
     1
176
     1
 91
        4
176
     1
 64
     7
176
     1
 65
   257
176
     1
 75
     1
176
     1
175
     1
176
     1
 42
1.0
176
     1
 92
        8
176
     1
 66
     8
424
  8421504
176
     1
 43
1.0
176
     1
 76
     1
176
     1
 77
     6
176
     1
 78
     2
176
     1
 67
     7
176
     1
 79
     5
176
     1
170
     0
176
     1
171
     0
176
     1
290
     0
176
     1
 93
        1
176
     1
 44
0.0
176
     1
173
     0
176
     1
  0
VISUALSTYLE
  5
E98
102
{ACAD_REACTORS
330
E8E
102
}
102
{ACAD_XDICTIONARY
360
102F
102
}
330
E8E
100
AcDbVisualStyle
  2
Conceptual
 70
     9
177
     2
291
     0
 71
     3
176
     1
 72
     2
176
     1
 73
     0
176
     1
 90
        0
176
     1
 40
0.6
176
     1
 41
30.0
176
     1
 62
     5
 63
     7
421
 16777215
176
     1
 74
     2
176
     1
 91
        2
176
     1
 64
     7
176
     1
 65
   257
176
     1
 75
     1
176
     1
175
     1
176
     1
 42
179.0
176
     1
 92
        8
176
     1
 66
     7
176
     1
 43
1.0
176
     1
 76
     1
176
     1
 77
     6
176
     1
 78
     2
176
     1
 67
     7
176
     1
 79
     3
176
     1
170
     0
176
     1
171
     0
176
     1
290
     0
176
     1
 93
        1
176
     1
 44
0.0
176
     1
173
     0
176
     1
  0
VISUALSTYLE
  5
E99
102
{ACAD_REACTORS
330
E8E
102
}
102
{ACAD_XDICTIONARY
360
1031
102
}
330
E8E
100
AcDbVisualStyle
  2
Dim
 70
    11
177
     2
291
     1
 71
     2
176
     1
 72
     2
176
     1
 73
     0
176
     1
 90
        0
176
     1
 40
0.6
176
     1
 41
30.0
176
     1
 62
     5
 63
     7
421
 16777215
176
     1
 74
     1
176
     1
 91
        4
176
     1
 64
     7
176
     1
 65
   257
176
     1
 75
     1
176
     1
175
     1
176
     1
 42
1.0
176
     1
 92
        8
176
     1
 66
     7
176
     1
 43
1.0
176
     1
 76
     1
176
     1
 77
     6
176
     1
 78
     2
176
     1
 67
     7
176
     1
 79
     5
176
     1
170
     0
176
     1
171
     0
176
     1
290
     0
176
     1
 93
        1
176
     1
 44
-50.0
176
     1
173
     0
176
     1
  0
VISUALSTYLE
  5
EA1
102
{ACAD_REACTORS
330
E8E
102
}
102
{ACAD_XDICTIONARY
360
1041
102
}
330
E8E
100
AcDbVisualStyle
  2
EdgeColorOff
 70
    22
177
     2
291
     1
 71
     2
176
     0
 72
     2
176
     0
 73
     0
176
     0
 90
        0
176
     0
 40
0.6
176
     0
 41
30.0
176
     0
 62
     5
 63
     7
421
 16777215
176
     0
 74
     1
176
     0
 91
        4
176
     0
 64
     7
176
     0
 65
   257
176
     0
 75
     1
176
     0
175
     1
176
     0
 42
1.0
176
     0
 92
        8
176
     2
 66
     7
176
     0
 43
1.0
176
     0
 76
     1
176
     0
 77
     6
176
     0
 78
     2
176
     0
 67
     7
176
     0
 79
     5
176
     0
170
     0
176
     0
171
     0
176
     0
290
     0
176
     0
 93
        1
176
     0
 44
0.0
176
     0
173
     0
176
     0
  0
VISUALSTYLE
  5
E9D
102
{ACAD_REACTORS
330
E8E
102
}
102
{ACAD_XDICTIONARY
360
1039
102
}
330
E8E
100
AcDbVisualStyle
  2
Facepattern
 70
    15
177
     2
291
     1
 71
     2
176
     1
 72
     2
176
     1
 73
     0
176
     1
 90
        0
176
     1
 40
0.6
176
     1
 41
30.0
176
     1
 62
     5
 63
     7
421
 16777215
176
     1
 74
     1
176
     1
 91
        4
176
     1
 64
     7
176
     1
 65
   257
176
     1
 75
     1
176
     1
175
     1
176
     1
 42
1.0
176
     1
 92
        8
176
     1
 66
     7
176
     1
 43
1.0
176
     1
 76
     1
176
     1
 77
     6
176
     1
 78
     2
176
     1
 67
     7
176
     1
 79
     5
176
     1
170
     0
176
     1
171
     0
176
     1
290
     0
176
     1
 93
        1
176
     1
 44
0.0
176
     1
173
     0
176
     1
  0
VISUALSTYLE
  5
E8F
102
{ACAD_REACTORS
330
E8E
102
}
102
{ACAD_XDICTIONARY
360
101D
102
}
330
E8E
100
AcDbVisualStyle
  2
Flat
 70
     0
177
     2
291
     1
 71
     2
176
     1
 72
     1
176
     1
 73
     1
176
     1
 90
        2
176
     1
 40
0.6
176
     1
 41
30.0
176
     1
 62
     5
 63
     7
421
 16777215
176
     1
 74
     0
176
     1
 91
        0
176
     1
 64
     7
176
     1
 65
   257
176
     1
 75
     1
176
     1
175
     1
176
     1
 42
1.0
176
     1
 92
        8
176
     1
 66
     7
176
     1
 43
1.0
176
     1
 76
     1
176
     1
 77
     6
176
     1
 78
     2
176
     1
 67
     7
176
     1
 79
     5
176
     1
170
     0
176
     1
171
     0
176
     1
290
     0
176
     1
 93
       13
176
     1
 44
0.0
176
     1
173
     0
176
     1
  0
VISUALSTYLE
  5
E90
102
{ACAD_REACTORS
330
E8E
102
}
102
{ACAD_XDICTIONARY
360
101F
102
}
330
E8E
100
AcDbVisualStyle
  2
FlatWithEdges
 70
     1
177
     2
291
     1
 71
     2
176
     1
 72
     1
176
     1
 73
     1
176
     1
 90
        2
176
     1
 40
0.6
176
     1
 41
30.0
176
     1
 62
     5
 63
     7
421
 16777215
176
     1
 74
     1
176
     1
 91
        0
176
     1
 64
     7
176
     1
 65
   257
176
     1
 75
     1
176
     1
175
     1
176
     1
 42
1.0
176
     1
 92
        0
176
     1
 66
   257
176
     1
 43
1.0
176
     1
 76
     1
176
     1
 77
     6
176
     1
 78
     2
176
     1
 67
     7
176
     1
 79
     5
176
     1
170
     0
176
     1
171
     0
176
     1
290
     0
176
     1
 93
       13
176
     1
 44
0.0
176
     1
173
     0
176
     1
  0
VISUALSTYLE
  5
E91
102
{ACAD_REACTORS
330
E8E
102
}
102
{ACAD_XDICTIONARY
360
1021
102
}
330
E8E
100
AcDbVisualStyle
  2
Gouraud
 70
     2
177
     2
291
     1
 71
     2
176
     1
 72
     2
176
     1
 73
     1
176
     1
 90
        2
176
     1
 40
0.6
176
     1
 41
30.0
176
     1
 62
     5
 63
     7
421
 16777215
176
     1
 74
     0
176
     1
 91
        0
176
     1
 64
     7
176
     1
 65
   257
176
     1
 75
     1
176
     1
175
     1
176
     1
 42
1.0
176
     1
 92
        0
176
     1
 66
     7
176
     1
 43
1.0
176
     1
 76
     1
176
     1
 77
     6
176
     1
 78
     2
176
     1
 67
     7
176
     1
 79
     5
176
     1
170
     0
176
     1
171
     0
176
     1
290
     0
176
     1
 93
       13
176
     1
 44
0.0
176
     1
173
     0
176
     1
  0
VISUALSTYLE
  5
E92
102
{ACAD_REACTORS
330
E8E
102
}
102
{ACAD_XDICTIONARY
360
1023
102
}
330
E8E
100
AcDbVisualStyle
  2
GouraudWithEdges
 70
     3
177
     2
291
     1
 71
     2
176
     1
 72
     2
176
     1
 73
     1
176
     1
 90
        2
176
     1
 40
0.6
176
     1
 41
30.0
176
     1
 62
     5
 63
     7
421
 16777215
176
     1
 74
     1
176
     1
 91
        0
176
     1
 64
     7
176
     1
 65
   257
176
     1
 75
     1
176
     1
175
     1
176
     1
 42
1.0
176
     1
 92
        0
176
     1
 66
   257
176
     1
 43
1.0
176
     1
 76
     1
176
     1
 77
     6
176
     1
 78
     2
176
     1
 67
     7
176
     1
 79
     5
176
     1
170
     0
176
     1
171
     0
176
     1
290
     0
176
     1
 93
       13
176
     1
 44
0.0
176
     1
173
     0
176
     1
  0
VISUALSTYLE
  5
E95
102
{ACAD_REACTORS
330
E8E
102
}
102
{ACAD_XDICTIONARY
360
1029
102
}
330
E8E
100
AcDbVisualStyle
  2
Hidden
 70
     6
177
     2
291
     0
 71
     1
176
     1
 72
     2
176
     1
 73
     2
176
     1
 90
        0
176
     1
 40
0.6
176
     1
 41
30.0
176
     1
 62
     5
 63
     7
421
 16777215
176
     1
 74
     2
176
     1
 91
        2
176
     1
 64
     7
176
     1
 65
   257
176
     1
 75
     2
176
     1
175
     1
176
     1
 42
40.0
176
     1
 92
        0
176
     1
 66
   257
176
     1
 43
1.0
176
     1
 76
     1
176
     1
 77
     6
176
     1
 78
     2
176
     1
 67
     7
176
     1
 79
     3
176
     1
170
     0
176
     1
171
     0
176
     1
290
     0
176
     1
 93
        1
176
     1
 44
0.0
176
     1
173
     0
176
     1
  0
VISUALSTYLE
  5
E9F
102
{ACAD_REACTORS
330
E8E
102
}
102
{ACAD_XDICTIONARY
360
103D
102
}
330
E8E
100
AcDbVisualStyle
  2
JitterOff
 70
    20
177
     2
291
     1
 71
     2
176
     0
 72
     2
176
     0
 73
     0
176
     0
 90
        0
176
     0
 40
0.6
176
     0
 41
30.0
176
     0
 62
     5
 63
     7
421
 16777215
176
     0
 74
     1
176
     0
 91
        4
176
     0
 64
     7
176
     0
 65
   257
176
     0
 75
     1
176
     0
175
     1
176
     0
 42
1.0
176
     0
 92
       10
176
     2
 66
     7
176
     0
 43
1.0
176
     0
 76
     1
176
     0
 77
     6
176
     0
 78
     2
176
     0
 67
     7
176
     0
 79
     5
176
     0
170
     0
176
     0
171
     0
176
     0
290
     0
176
     0
 93
        1
176
     0
 44
0.0
176
     0
173
     0
176
     0
  0
VISUALSTYLE
  5
E9C
102
{ACAD_REACTORS
330
E8E
102
}
102
{ACAD_XDICTIONARY
360
1037
102
}
330
E8E
100
AcDbVisualStyle
  2
Linepattern
 70
    14
177
     2
291
     1
 71
     2
176
     1
 72
     2
176
     1
 73
     0
176
     1
 90
        0
176
     1
 40
0.6
176
     1
 41
30.0
176
     1
 62
     5
 63
     7
421
 16777215
176
     1
 74
     1
176
     1
 91
        4
176
     1
 64
     7
176
     1
 65
   257
176
     1
 75
     7
176
     1
175
     7
176
     1
 42
1.0
176
     1
 92
        8
176
     1
 66
     7
176
     1
 43
1.0
176
     1
 76
     1
176
     1
 77
     6
176
     1
 78
     2
176
     1
 67
     7
176
     1
 79
     5
176
     1
170
     0
176
     1
171
     0
176
     1
290
     0
176
     1
 93
        1
176
     1
 44
0.0
176
     1
173
     0
176
     1
  0
VISUALSTYLE
  5
EA8
102
{ACAD_REACTORS
330
E8E
102
}
102
{ACAD_XDICTIONARY
360
104D
102
}
330
E8E
100
AcDbVisualStyle
  2
Modeling
 70
    10
177
     2
291
     0
 71
     2
176
     1
 72
     3
176
     1
 73
     0
176
     1
 90
        2
176
     1
 40
0.6
176
     1
 41
30.0
176
     1
 62
     5
 63
     7
421
 16777215
176
     1
 74
     2
176
     1
 91
        0
176
     1
 64
     7
176
     1
 65
   257
176
     1
 75
     1
176
     1
175
     1
176
     1
 42
180.0
176
     1
 92
        8
176
     1
 66
     8
424
  7895160
176
     1
 43
1.0
176
     1
 76
     1
176
     1
 77
     6
176
     1
 78
     2
176
     1
 67
     7
176
     1
 79
     5
176
     1
170
     0
176
     1
171
     0
176
     1
290
     0
176
     1
 93
       13
176
     1
 44
0.0
176
     1
173
     0
176
     1
  0
VISUALSTYLE
  5
EA0
102
{ACAD_REACTORS
330
E8E
102
}
102
{ACAD_XDICTIONARY
360
103F
102
}
330
E8E
100
AcDbVisualStyle
  2
OverhangOff
 70
    21
177
     2
291
     1
 71
     2
176
     0
 72
     2
176
     0
 73
     0
176
     0
 90
        0
176
     0
 40
0.6
176
     0
 41
30.0
176
     0
 62
     5
 63
     7
421
 16777215
176
     0
 74
     1
176
     0
 91
        4
176
     0
 64
     7
176
     0
 65
   257
176
     0
 75
     1
176
     0
175
     1
176
     0
 42
1.0
176
     0
 92
        9
176
     2
 66
     7
176
     0
 43
1.0
176
     0
 76
     1
176
     0
 77
     6
176
     0
 78
     2
176
     0
 67
     7
176
     0
 79
     5
176
     0
170
     0
176
     0
171
     0
176
     0
290
     0
176
     0
 93
        1
176
     0
 44
0.0
176
     0
173
     0
176
     0
  0
VISUALSTYLE
  5
E97
102
{ACAD_REACTORS
330
E8E
102
}
102
{ACAD_XDICTIONARY
360
102D
102
}
330
E8E
100
AcDbVisualStyle
  2
Realistic
 70
     8
177
     2
291
     0
 71
     2
176
     1
 72
     3
176
     1
 73
     0
176
     1
 90
        2
176
     1
 40
0.6
176
     1
 41
30.0
176
     1
 62
     5
 63
     7
421
 16777215
176
     1
 74
     0
176
     1
 91
        0
176
     1
 64
     7
176
     1
 65
   257
176
     1
 75
     1
176
     1
175
     1
176
     1
 42
1.0
176
     1
 92
        8
176
     1
 66
   257
176
     1
 43
1.0
176
     1
 76
     1
176
     1
 77
     6
176
     1
 78
     2
176
     1
 67
     7
176
     1
 79
     3
176
     1
170
     0
176
     1
171
     0
176
     1
290
     0
176
     1
 93
       13
176
     1
 44
0.0
176
     1
173
     0
176
     1
  0
VISUALSTYLE
  5
EA6
102
{ACAD_REACTORS
330
E8E
102
}
102
{ACAD_XDICTIONARY
360
104B
102
}
330
E8E
100
AcDbVisualStyle
  2
Shaded
 70
    27
177
     2
291
     0
 71
     2
176
     1
 72
     2
176
     1
 73
     1
176
     1
 90
        2
176
     1
 40
0.6
176
     1
 41
30.0
176
     1
 62
     5
 63
     7
421
 16777215
176
     1
 74
     0
176
     1
 91
        4
176
     1
 64
     7
176
     1
 65
   257
176
     1
 75
     1
176
     1
175
     1
176
     1
 42
1.0
176
     1
 92
        8
176
     1
 66
   257
176
     1
 43
1.0
176
     1
 76
     1
176
     1
 77
     6
176
     1
 78
     2
176
     1
 67
     8
425
  7895160
176
     1
 79
     3
176
     1
170
     0
176
     1
171
     0
176
     1
290
     0
176
     1
 93
        5
176
     1
 44
0.0
176
     1
173
     0
176
     1
  0
VISUALSTYLE
  5
EA5
102
{ACAD_REACTORS
330
E8E
102
}
102
{ACAD_XDICTIONARY
360
1049
102
}
330
E8E
100
AcDbVisualStyle
  2
Shaded with edges
 70
    26
177
     2
291
     0
 71
     2
176
     1
 72
     2
176
     1
 73
     1
176
     1
 90
        2
176
     1
 40
0.6
176
     1
 41
30.0
176
     1
 62
     5
 63
     7
421
 16777215
176
     1
 74
     1
176
     1
 91
       10
176
     1
 64
     7
176
     1
 65
   257
176
     1
 75
     2
176
     1
175
     1
176
     1
 42
1.0
176
     1
 92
        8
176
     1
 66
   257
176
     1
 43
1.0
176
     1
 76
     1
176
     1
 77
     6
176
     1
 78
     2
176
     1
 67
     7
176
     1
 79
     3
176
     1
170
     0
176
     1
171
     0
176
     1
290
     0
176
     1
 93
        5
176
     1
 44
0.0
176
     1
173
     0
176
     1
  0
VISUALSTYLE
  5
EA2
102
{ACAD_REACTORS
330
E8E
102
}
102
{ACAD_XDICTIONARY
360
1043
102
}
330
E8E
100
AcDbVisualStyle
  2
Shades of Gray
 70
    23
177
     2
291
     0
 71
     2
176
     1
 72
     2
176
     1
 73
     3
176
     1
 90
        0
176
     1
 40
0.6
176
     1
 41
30.0
176
     1
 62
     5
 63
     7
421
 16777215
176
     1
 74
     2
176
     1
 91
        2
176
     1
 64
     7
176
     1
 65
     7
176
     1
 75
     1
176
     1
175
     1
176
     1
 42
40.0
176
     1
 92
        8
176
     1
 66
     7
176
     1
 43
1.0
176
     1
 76
     1
176
     1
 77
     6
176
     1
 78
     2
176
     1
 67
     7
176
     1
 79
     3
176
     1
170
     0
176
     1
171
     0
176
     1
290
     0
176
     1
 93
        1
176
     1
 44
0.0
176
     1
173
     0
176
     1
  0
VISUALSTYLE
  5
EA3
102
{ACAD_REACTORS
330
E8E
102
}
102
{ACAD_XDICTIONARY
360
1045
102
}
330
E8E
100
AcDbVisualStyle
  2
Sketchy
 70
    24
177
     2
291
     0
 71
     1
176
     1
 72
     2
176
     1
 73
     2
176
     1
 90
        0
176
     1
 40
0.6
176
     1
 41
30.0
176
     1
 62
     5
 63
     7
421
 16777215
176
     1
 74
     2
176
     1
 91
        2
176
     1
 64
     7
176
     1
 65
     7
176
     1
 75
     1
176
     1
175
     1
176
     1
 42
40.0
176
     1
 92
       11
176
     1
 66
     7
176
     1
 43
1.0
176
     1
 76
     1
176
     1
 77
     6
176
     1
 78
     2
176
     1
 67
     7
176
     1
 79
     6
176
     1
170
     0
176
     1
171
     0
176
     1
290
     0
176
     1
 93
        1
176
     1
 44
0.0
176
     1
173
     0
176
     1
  0
VISUALSTYLE
  5
E9B
102
{ACAD_REACTORS
330
E8E
102
}
102
{ACAD_XDICTIONARY
360
1035
102
}
330
E8E
100
AcDbVisualStyle
  2
Thicken
 70
    13
177
     2
291
     1
 71
     2
176
     1
 72
     2
176
     1
 73
     0
176
     1
 90
        0
176
     1
 40
0.6
176
     1
 41
30.0
176
     1
 62
     5
 63
     7
421
 16777215
176
     1
 74
     1
176
     1
 91
        4
176
     1
 64
     7
176
     1
 65
   257
176
     1
 75
     1
176
     1
175
     1
176
     1
 42
1.0
176
     1
 92
       12
176
     1
 66
     7
176
     1
 43
1.0
176
     1
 76
     1
176
     1
 77
     6
176
     1
 78
     2
176
     1
 67
     7
176
     1
 79
     5
176
     1
170
     0
176
     1
171
     0
176
     1
290
     0
176
     1
 93
        1
176
     1
 44
0.0
176
     1
173
     0
176
     1
  0
VISUALSTYLE
  5
E94
102
{ACAD_REACTORS
330
E8E
102
}
102
{ACAD_XDICTIONARY
360
1027
102
}
330
E8E
100
AcDbVisualStyle
  2
Wireframe
 70
     5
177
     2
291
     0
 71
     0
176
     1
 72
     2
176
     1
 73
     0
176
     1
 90
        0
176
     1
 40
0.6
176
     1
 41
30.0
176
     1
 62
     5
 63
     7
421
 16777215
176
     1
 74
     1
176
     1
 91
        4
176
     1
 64
     7
176
     1
 65
   257
176
     1
 75
     1
176
     1
175
     1
176
     1
 42
1.0
176
     1
 92
        0
176
     1
 66
   257
176
     1
 43
1.0
176
     1
 76
     1
176
     1
 77
     6
176
     1
 78
     2
176
     1
 67
     7
176
     1
 79
     3
176
     1
170
     0
176
     1
171
     0
176
     1
290
     0
176
     1
 93
        1
176
     1
 44
0.0
176
     1
173
     0
176
     1
  0
VISUALSTYLE
  5
EA4
102
{ACAD_REACTORS
330
E8E
102
}
102
{ACAD_XDICTIONARY
360
1047
102
}
330
E8E
100
AcDbVisualStyle
  2
X-Ray
 70
    25
177
     2
291
     0
 71
     2
176
     1
 72
     2
176
     1
 73
     1
176
     1
 90
        1
176
     1
 40
0.5
176
     1
 41
30.0
176
     1
 62
     5
 63
     7
421
 16777215
176
     1
 74
     1
176
     1
 91
        0
176
     1
 64
     7
176
     1
 65
   257
176
     1
 75
     1
176
     1
175
     1
176
     1
 42
1.0
176
     1
 92
        8
176
     1
 66
     7
176
     1
 43
1.0
176
     1
 76
     1
176
     1
 77
     6
176
     1
 78
     2
176
     1
 67
     7
176
     1
 79
     3
176
     1
170
     0
176
     1
171
     0
176
     1
290
     0
176
     1
 93
       13
176
     1
 44
0.0
176
     1
173
     0
176
     1
  0
DICTIONARYVAR
  5
E8B
102
{ACAD_REACTORS
330
4A4
102
}
330
4A4
100
DictionaryVariables
280
     0
  1
1:1
  0
DICTIONARYVAR
  5
1017
102
{ACAD_REACTORS
330
4A4
102
}
330
4A4
100
DictionaryVariables
280
     0
  1
Standard
  0
DICTIONARYVAR
  5
1016
102
{ACAD_REACTORS
330
4A4
102
}
330
4A4
100
DictionaryVariables
280
     0
  1
Standard
  0
DICTIONARYVAR
  5
4A5
102
{ACAD_REACTORS
330
4A4
102
}
330
4A4
100
DictionaryVariables
280
     0
  1
1
  0
DICTIONARYVAR
  5
D6B
102
{ACAD_REACTORS
330
4A4
102
}
330
4A4
100
DictionaryVariables
280
     0
  1

  0
DICTIONARYVAR
  5
1018
102
{ACAD_REACTORS
330
4A4
102
}
330
4A4
100
DictionaryVariables
280
     0
  1
0
  0
DICTIONARY
  5
101B
330
E88
100
AcDbDictionary
280
     1
281
     1
  3
ACAD_ROUNDTRIP_2008_TABLESTYLE_CELLSTYLEMAP
360
101C
  0
DICTIONARY
  5
1025
330
E93
100
AcDbDictionary
280
     1
281
     1
  3
ACAD_XREC_ROUNDTRIP
360
1026
  0
DICTIONARY
  5
102B
330
E96
100
AcDbDictionary
280
     1
281
     1
  3
ACAD_XREC_ROUNDTRIP
360
102C
  0
DICTIONARY
  5
1033
330
E9A
100
AcDbDictionary
280
     1
281
     1
  3
ACAD_XREC_ROUNDTRIP
360
1034
  0
DICTIONARY
  5
103B
330
E9E
100
AcDbDictionary
280
     1
281
     1
  3
ACAD_XREC_ROUNDTRIP
360
103C
  0
DICTIONARY
  5
102F
330
E98
100
AcDbDictionary
280
     1
281
     1
  3
ACAD_XREC_ROUNDTRIP
360
1030
  0
DICTIONARY
  5
1031
330
E99
100
AcDbDictionary
280
     1
281
     1
  3
ACAD_XREC_ROUNDTRIP
360
1032
  0
DICTIONARY
  5
1041
330
EA1
100
AcDbDictionary
280
     1
281
     1
  3
ACAD_XREC_ROUNDTRIP
360
1042
  0
DICTIONARY
  5
1039
330
E9D
100
AcDbDictionary
280
     1
281
     1
  3
ACAD_XREC_ROUNDTRIP
360
103A
  0
DICTIONARY
  5
101D
330
E8F
100
AcDbDictionary
280
     1
281
     1
  3
ACAD_XREC_ROUNDTRIP
360
101E
  0
DICTIONARY
  5
101F
330
E90
100
AcDbDictionary
280
     1
281
     1
  3
ACAD_XREC_ROUNDTRIP
360
1020
  0
DICTIONARY
  5
1021
330
E91
100
AcDbDictionary
280
     1
281
     1
  3
ACAD_XREC_ROUNDTRIP
360
1022
  0
DICTIONARY
  5
1023
330
E92
100
AcDbDictionary
280
     1
281
     1
  3
ACAD_XREC_ROUNDTRIP
360
1024
  0
DICTIONARY
  5
1029
330
E95
100
AcDbDictionary
280
     1
281
     1
  3
ACAD_XREC_ROUNDTRIP
360
102A
  0
DICTIONARY
  5
103D
330
E9F
100
AcDbDictionary
280
     1
281
     1
  3
ACAD_XREC_ROUNDTRIP
360
103E
  0
DICTIONARY
  5
1037
330
E9C
100
AcDbDictionary
280
     1
281
     1
  3
ACAD_XREC_ROUNDTRIP
360
1038
  0
DICTIONARY
  5
104D
330
EA8
100
AcDbDictionary
280
     1
281
     1
  3
ACAD_XREC_ROUNDTRIP
360
104E
  0
DICTIONARY
  5
103F
330
EA0
100
AcDbDictionary
280
     1
281
     1
  3
ACAD_XREC_ROUNDTRIP
360
1040
  0
DICTIONARY
  5
102D
330
E97
100
AcDbDictionary
280
     1
281
     1
  3
ACAD_XREC_ROUNDTRIP
360
102E
  0
DICTIONARY
  5
104B
330
EA6
100
AcDbDictionary
280
     1
281
     1
  3
ACAD_XREC_ROUNDTRIP
360
104C
  0
DICTIONARY
  5
1049
330
EA5
100
AcDbDictionary
280
     1
281
     1
  3
ACAD_XREC_ROUNDTRIP
360
104A
  0
DICTIONARY
  5
1043
330
EA2
100
AcDbDictionary
280
     1
281
     1
  3
ACAD_XREC_ROUNDTRIP
360
1044
  0
DICTIONARY
  5
1045
330
EA3
100
AcDbDictionary
280
     1
281
     1
  3
ACAD_XREC_ROUNDTRIP
360
1046
  0
DICTIONARY
  5
1035
330
E9B
100
AcDbDictionary
280
     1
281
     1
  3
ACAD_XREC_ROUNDTRIP
360
1036
  0
DICTIONARY
  5
1027
330
E94
100
AcDbDictionary
280
     1
281
     1
  3
ACAD_XREC_ROUNDTRIP
360
1028
  0
DICTIONARY
  5
1047
330
EA4
100
AcDbDictionary
280
     1
281
     1
  3
ACAD_XREC_ROUNDTRIP
360
1048
  0
CELLSTYLEMAP
  5
101C
102
{ACAD_REACTORS
330
101B
102
}
330
101B
100
AcDbCellStyleMap
 90
        3
300
CELLSTYLE
  1
TABLEFORMAT_BEGIN
 90
        5
170
     1
 91
        0
 92
        0
 62
   257
 93
        1
300
CONTENTFORMAT
  1
CONTENTFORMAT_BEGIN
 90
        0
 91
        0
 92
        4
 93
        0
300

 40
0.0
140
1.0
 94
        5
 62
     0
340
11
144
6.0
309
CONTENTFORMAT_END
171
     0
 94
        6
 95
        1
302
GRIDFORMAT
  1
GRIDFORMAT_BEGIN
 90
        0
 91
        1
 62
     0
 92
       -2
340
14
 93
        0
 40
0.045
309
GRIDFORMAT_END
 95
        2
302
GRIDFORMAT
  1
GRIDFORMAT_BEGIN
 90
        0
 91
        1
 62
     0
 92
       -2
340
14
 93
        0
 40
0.045
309
GRIDFORMAT_END
 95
        4
302
GRIDFORMAT
  1
GRIDFORMAT_BEGIN
 90
        0
 91
        1
 62
     0
 92
       -2
340
14
 93
        0
 40
0.045
309
GRIDFORMAT_END
 95
        8
302
GRIDFORMAT
  1
GRIDFORMAT_BEGIN
 90
        0
 91
        1
 62
     0
 92
       -2
340
14
 93
        0
 40
0.045
309
GRIDFORMAT_END
 95
       16
302
GRIDFORMAT
  1
GRIDFORMAT_BEGIN
 90
        0
 91
        1
 62
     0
 92
       -2
340
14
 93
        0
 40
0.045
309
GRIDFORMAT_END
 95
       32
302
GRIDFORMAT
  1
GRIDFORMAT_BEGIN
 90
        0
 91
        1
 62
     0
 92
       -2
340
14
 93
        0
 40
0.045
309
GRIDFORMAT_END
309
TABLEFORMAT_END
  1
CELLSTYLE_BEGIN
 90
        1
 91
        1
300
_TITLE
309
CELLSTYLE_END
300
CELLSTYLE
  1
TABLEFORMAT_BEGIN
 90
        5
170
     1
 91
        0
 92
        0
 62
   257
 93
        1
300
CONTENTFORMAT
  1
CONTENTFORMAT_BEGIN
 90
        0
 91
        0
 92
        4
 93
        0
300

 40
0.0
140
1.0
 94
        5
 62
     0
340
11
144
4.5
309
CONTENTFORMAT_END
171
     0
 94
        6
 95
        1
302
GRIDFORMAT
  1
GRIDFORMAT_BEGIN
 90
        0
 91
        1
 62
     0
 92
       -2
340
14
 93
        0
 40
0.045
309
GRIDFORMAT_END
 95
        2
302
GRIDFORMAT
  1
GRIDFORMAT_BEGIN
 90
        0
 91
        1
 62
     0
 92
       -2
340
14
 93
        0
 40
0.045
309
GRIDFORMAT_END
 95
        4
302
GRIDFORMAT
  1
GRIDFORMAT_BEGIN
 90
        0
 91
        1
 62
     0
 92
       -2
340
14
 93
        0
 40
0.045
309
GRIDFORMAT_END
 95
        8
302
GRIDFORMAT
  1
GRIDFORMAT_BEGIN
 90
        0
 91
        1
 62
     0
 92
       -2
340
14
 93
        0
 40
0.045
309
GRIDFORMAT_END
 95
       16
302
GRIDFORMAT
  1
GRIDFORMAT_BEGIN
 90
        0
 91
        1
 62
     0
 92
       -2
340
14
 93
        0
 40
0.045
309
GRIDFORMAT_END
 95
       32
302
GRIDFORMAT
  1
GRIDFORMAT_BEGIN
 90
        0
 91
        1
 62
     0
 92
       -2
340
14
 93
        0
 40
0.045
309
GRIDFORMAT_END
309
TABLEFORMAT_END
  1
CELLSTYLE_BEGIN
 90
        2
 91
        1
300
_HEADER
309
CELLSTYLE_END
300
CELLSTYLE
  1
TABLEFORMAT_BEGIN
 90
        5
170
     1
 91
        0
 92
        0
 62
   257
 93
        1
300
CONTENTFORMAT
  1
CONTENTFORMAT_BEGIN
 90
        0
 91
        0
 92
        4
 93
        0
300

 40
0.0
140
1.0
 94
        2
 62
     0
340
11
144
4.5
309
CONTENTFORMAT_END
171
     0
 94
        6
 95
        1
302
GRIDFORMAT
  1
GRIDFORMAT_BEGIN
 90
        0
 91
        1
 62
     0
 92
       -2
340
14
 93
        0
 40
0.045
309
GRIDFORMAT_END
 95
        2
302
GRIDFORMAT
  1
GRIDFORMAT_BEGIN
 90
        0
 91
        1
 62
     0
 92
       -2
340
14
 93
        0
 40
0.045
309
GRIDFORMAT_END
 95
        4
302
GRIDFORMAT
  1
GRIDFORMAT_BEGIN
 90
        0
 91
        1
 62
     0
 92
       -2
340
14
 93
        0
 40
0.045
309
GRIDFORMAT_END
 95
        8
302
GRIDFORMAT
  1
GRIDFORMAT_BEGIN
 90
        0
 91
        1
 62
     0
 92
       -2
340
14
 93
        0
 40
0.045
309
GRIDFORMAT_END
 95
       16
302
GRIDFORMAT
  1
GRIDFORMAT_BEGIN
 90
        0
 91
        1
 62
     0
 92
       -2
340
14
 93
        0
 40
0.045
309
GRIDFORMAT_END
 95
       32
302
GRIDFORMAT
  1
GRIDFORMAT_BEGIN
 90
        0
 91
        1
 62
     0
 92
       -2
340
14
 93
        0
 40
0.045
309
GRIDFORMAT_END
309
TABLEFORMAT_END
  1
CELLSTYLE_BEGIN
 90
        3
 91
        2
300
_DATA
309
CELLSTYLE_END
  0
XRECORD
  5
1026
102
{ACAD_REACTORS
330
1025
102
}
330
1025
100
AcDbXrecord
280
     1
102
RTVSPost2010Prop28
280
     1
102
RTVSPost2010PropOp28
 70
     1
102
RTVSPost2010Prop29
280
     1
102
RTVSPost2010PropOp29
 70
     1
102
RTVSPost2010Prop30
280
     0
102
RTVSPost2010PropOp30
 70
     1
102
RTVSPost2010Prop31
280
     0
102
RTVSPost2010PropOp31
 70
     1
102
RTVSPost2010Prop32
280
     0
102
RTVSPost2010PropOp32
 70
     1
102
RTVSPost2010Prop33
280
     0
102
RTVSPost2010PropOp33
 70
     1
102
RTVSPost2010Prop34
280
     0
102
RTVSPost2010PropOp34
 70
     1
102
RTVSPost2010Prop35
280
     0
102
RTVSPost2010PropOp35
 70
     1
102
RTVSPost2010Prop36
280
     0
102
RTVSPost2010PropOp36
 70
     1
102
RTVSPost2010Prop37
 90
       50
102
RTVSPost2010PropOp37
 70
     1
102
RTVSPost2010Prop38
140
0.0
102
RTVSPost2010PropOp38
 70
     1
102
RTVSPost2010Prop39
140
1.0
102
RTVSPost2010PropOp39
 70
     1
102
RTVSPost2010Prop40
 90
        0
102
RTVSPost2010PropOp40
 70
     1
102
RTVSPost2010Prop41ColorIndex
 90
       18
102
RTVSPost2010Prop41ColorRGB
 90
        0
102
RTVSPost2010PropOp41
 70
     1
102
RTVSPost2010Prop42
 90
       50
102
RTVSPost2010PropOp42
 70
     1
102
RTVSPost2010Prop43
 90
        3
102
RTVSPost2010PropOp43
 70
     1
102
RTVSPost2010Prop44ColorIndex
 90
        5
102
RTVSPost2010Prop44ColorRGB
 90
      255
102
RTVSPost2010PropOp44
 70
     1
102
RTVSPost2010Prop45
280
     0
102
RTVSPost2010PropOp45
 70
     1
102
RTVSPost2010Prop46
 90
       50
102
RTVSPost2010PropOp46
 70
     1
102
RTVSPost2010Prop47
 90
       50
102
RTVSPost2010PropOp47
 70
     1
102
RTVSPost2010Prop48
 90
       50
102
RTVSPost2010PropOp48
 70
     1
102
RTVSPost2010Prop49
280
     0
102
RTVSPost2010PropOp49
 70
     1
102
RTVSPost2010Prop50
 90
       50
102
RTVSPost2010PropOp50
 70
     1
102
RTVSPost2010Prop51ColorIndex
 90
      256
102
RTVSPost2010Prop51ColorRGB
 90
-16777216
102
RTVSPost2010PropOp51
 70
     0
102
RTVSPost2010Prop52
140
1.0
102
RTVSPost2010PropOp52
 70
     0
102
RTVSPost2010Prop53
 90
        2
102
RTVSPost2010PropOp53
 70
     1
102
RTVSPost2010Prop54
  1
strokes_ogs.tif
102
RTVSPost2010PropOp54
 70
     1
102
RTVSPost2010Prop55
280
     0
102
RTVSPost2010PropOp55
 70
     1
102
RTVSPost2010Prop56
140
1.0
102
RTVSPost2010PropOp56
 70
     1
102
RTVSPost2010Prop57
140
1.0
102
RTVSPost2010PropOp57
 70
     1
  0
XRECORD
  5
102C
102
{ACAD_REACTORS
330
102B
102
}
330
102B
100
AcDbXrecord
280
     1
102
RTVSPost2010Prop28
280
     0
102
RTVSPost2010PropOp28
 70
     1
102
RTVSPost2010Prop29
280
     1
102
RTVSPost2010PropOp29
 70
     1
102
RTVSPost2010Prop30
280
     1
102
RTVSPost2010PropOp30
 70
     1
102
RTVSPost2010Prop31
280
     0
102
RTVSPost2010PropOp31
 70
     1
102
RTVSPost2010Prop32
280
     0
102
RTVSPost2010PropOp32
 70
     1
102
RTVSPost2010Prop33
280
     0
102
RTVSPost2010PropOp33
 70
     1
102
RTVSPost2010Prop34
280
     0
102
RTVSPost2010PropOp34
 70
     1
102
RTVSPost2010Prop35
280
     0
102
RTVSPost2010PropOp35
 70
     1
102
RTVSPost2010Prop36
280
     0
102
RTVSPost2010PropOp36
 70
     1
102
RTVSPost2010Prop37
 90
       50
102
RTVSPost2010PropOp37
 70
     1
102
RTVSPost2010Prop38
140
0.0
102
RTVSPost2010PropOp38
 70
     1
102
RTVSPost2010Prop39
140
1.0
102
RTVSPost2010PropOp39
 70
     1
102
RTVSPost2010Prop40
 90
        0
102
RTVSPost2010PropOp40
 70
     1
102
RTVSPost2010Prop41ColorIndex
 90
       18
102
RTVSPost2010Prop41ColorRGB
 90
        0
102
RTVSPost2010PropOp41
 70
     1
102
RTVSPost2010Prop42
 90
       50
102
RTVSPost2010PropOp42
 70
     1
102
RTVSPost2010Prop43
 90
        3
102
RTVSPost2010PropOp43
 70
     1
102
RTVSPost2010Prop44ColorIndex
 90
        5
102
RTVSPost2010Prop44ColorRGB
 90
      255
102
RTVSPost2010PropOp44
 70
     1
102
RTVSPost2010Prop45
280
     0
102
RTVSPost2010PropOp45
 70
     1
102
RTVSPost2010Prop46
 90
       50
102
RTVSPost2010PropOp46
 70
     1
102
RTVSPost2010Prop47
 90
       50
102
RTVSPost2010PropOp47
 70
     1
102
RTVSPost2010Prop48
 90
       50
102
RTVSPost2010PropOp48
 70
     1
102
RTVSPost2010Prop49
280
     0
102
RTVSPost2010PropOp49
 70
     1
102
RTVSPost2010Prop50
 90
       50
102
RTVSPost2010PropOp50
 70
     1
102
RTVSPost2010Prop51ColorIndex
 90
      256
102
RTVSPost2010Prop51ColorRGB
 90
-16777216
102
RTVSPost2010PropOp51
 70
     0
102
RTVSPost2010Prop52
140
1.0
102
RTVSPost2010PropOp52
 70
     0
102
RTVSPost2010Prop53
 90
        2
102
RTVSPost2010PropOp53
 70
     1
102
RTVSPost2010Prop54
  1
strokes_ogs.tif
102
RTVSPost2010PropOp54
 70
     1
102
RTVSPost2010Prop55
280
     0
102
RTVSPost2010PropOp55
 70
     1
102
RTVSPost2010Prop56
140
1.0
102
RTVSPost2010PropOp56
 70
     1
102
RTVSPost2010Prop57
140
1.0
102
RTVSPost2010PropOp57
 70
     1
  0
XRECORD
  5
1034
102
{ACAD_REACTORS
330
1033
102
}
330
1033
100
AcDbXrecord
280
     1
102
RTVSPost2010Prop28
280
     0
102
RTVSPost2010PropOp28
 70
     1
102
RTVSPost2010Prop29
280
     1
102
RTVSPost2010PropOp29
 70
     1
102
RTVSPost2010Prop30
280
     1
102
RTVSPost2010PropOp30
 70
     1
102
RTVSPost2010Prop31
280
     0
102
RTVSPost2010PropOp31
 70
     1
102
RTVSPost2010Prop32
280
     0
102
RTVSPost2010PropOp32
 70
     1
102
RTVSPost2010Prop33
280
     0
102
RTVSPost2010PropOp33
 70
     1
102
RTVSPost2010Prop34
280
     0
102
RTVSPost2010PropOp34
 70
     1
102
RTVSPost2010Prop35
280
     0
102
RTVSPost2010PropOp35
 70
     1
102
RTVSPost2010Prop36
280
     0
102
RTVSPost2010PropOp36
 70
     1
102
RTVSPost2010Prop37
 90
       50
102
RTVSPost2010PropOp37
 70
     1
102
RTVSPost2010Prop38
140
0.0
102
RTVSPost2010PropOp38
 70
     1
102
RTVSPost2010Prop39
140
1.0
102
RTVSPost2010PropOp39
 70
     1
102
RTVSPost2010Prop40
 90
        0
102
RTVSPost2010PropOp40
 70
     1
102
RTVSPost2010Prop41ColorIndex
 90
       18
102
RTVSPost2010Prop41ColorRGB
 90
        0
102
RTVSPost2010PropOp41
 70
     1
102
RTVSPost2010Prop42
 90
       50
102
RTVSPost2010PropOp42
 70
     1
102
RTVSPost2010Prop43
 90
        3
102
RTVSPost2010PropOp43
 70
     1
102
RTVSPost2010Prop44ColorIndex
 90
        5
102
RTVSPost2010Prop44ColorRGB
 90
      255
102
RTVSPost2010PropOp44
 70
     1
102
RTVSPost2010Prop45
280
     0
102
RTVSPost2010PropOp45
 70
     1
102
RTVSPost2010Prop46
 90
       50
102
RTVSPost2010PropOp46
 70
     1
102
RTVSPost2010Prop47
 90
       50
102
RTVSPost2010PropOp47
 70
     1
102
RTVSPost2010Prop48
 90
       50
102
RTVSPost2010PropOp48
 70
     1
102
RTVSPost2010Prop49
280
     0
102
RTVSPost2010PropOp49
 70
     1
102
RTVSPost2010Prop50
 90
       50
102
RTVSPost2010PropOp50
 70
     1
102
RTVSPost2010Prop51ColorIndex
 90
      256
102
RTVSPost2010Prop51ColorRGB
 90
-16777216
102
RTVSPost2010PropOp51
 70
     0
102
RTVSPost2010Prop52
140
1.0
102
RTVSPost2010PropOp52
 70
     0
102
RTVSPost2010Prop53
 90
        2
102
RTVSPost2010PropOp53
 70
     1
102
RTVSPost2010Prop54
  1
strokes_ogs.tif
102
RTVSPost2010PropOp54
 70
     1
102
RTVSPost2010Prop55
280
     0
102
RTVSPost2010PropOp55
 70
     1
102
RTVSPost2010Prop56
140
1.0
102
RTVSPost2010PropOp56
 70
     1
102
RTVSPost2010Prop57
140
1.0
102
RTVSPost2010PropOp57
 70
     1
  0
XRECORD
  5
103C
102
{ACAD_REACTORS
330
103B
102
}
330
103B
100
AcDbXrecord
280
     1
102
RTVSPost2010Prop28
280
     0
102
RTVSPost2010PropOp28
 70
     1
102
RTVSPost2010Prop29
280
     1
102
RTVSPost2010PropOp29
 70
     1
102
RTVSPost2010Prop30
280
     1
102
RTVSPost2010PropOp30
 70
     1
102
RTVSPost2010Prop31
280
     0
102
RTVSPost2010PropOp31
 70
     1
102
RTVSPost2010Prop32
280
     0
102
RTVSPost2010PropOp32
 70
     1
102
RTVSPost2010Prop33
280
     0
102
RTVSPost2010PropOp33
 70
     1
102
RTVSPost2010Prop34
280
     0
102
RTVSPost2010PropOp34
 70
     1
102
RTVSPost2010Prop35
280
     0
102
RTVSPost2010PropOp35
 70
     1
102
RTVSPost2010Prop36
280
     0
102
RTVSPost2010PropOp36
 70
     1
102
RTVSPost2010Prop37
 90
       50
102
RTVSPost2010PropOp37
 70
     1
102
RTVSPost2010Prop38
140
0.0
102
RTVSPost2010PropOp38
 70
     1
102
RTVSPost2010Prop39
140
1.0
102
RTVSPost2010PropOp39
 70
     1
102
RTVSPost2010Prop40
 90
        0
102
RTVSPost2010PropOp40
 70
     1
102
RTVSPost2010Prop41ColorIndex
 90
       18
102
RTVSPost2010Prop41ColorRGB
 90
        0
102
RTVSPost2010PropOp41
 70
     1
102
RTVSPost2010Prop42
 90
       50
102
RTVSPost2010PropOp42
 70
     1
102
RTVSPost2010Prop43
 90
        3
102
RTVSPost2010PropOp43
 70
     1
102
RTVSPost2010Prop44ColorIndex
 90
        5
102
RTVSPost2010Prop44ColorRGB
 90
      255
102
RTVSPost2010PropOp44
 70
     1
102
RTVSPost2010Prop45
280
     0
102
RTVSPost2010PropOp45
 70
     1
102
RTVSPost2010Prop46
 90
       50
102
RTVSPost2010PropOp46
 70
     1
102
RTVSPost2010Prop47
 90
       50
102
RTVSPost2010PropOp47
 70
     1
102
RTVSPost2010Prop48
 90
       50
102
RTVSPost2010PropOp48
 70
     1
102
RTVSPost2010Prop49
280
     0
102
RTVSPost2010PropOp49
 70
     1
102
RTVSPost2010Prop50
 90
       50
102
RTVSPost2010PropOp50
 70
     1
102
RTVSPost2010Prop51ColorIndex
 90
      256
102
RTVSPost2010Prop51ColorRGB
 90
-16777216
102
RTVSPost2010PropOp51
 70
     0
102
RTVSPost2010Prop52
140
1.0
102
RTVSPost2010PropOp52
 70
     0
102
RTVSPost2010Prop53
 90
        2
102
RTVSPost2010PropOp53
 70
     1
102
RTVSPost2010Prop54
  1
strokes_ogs.tif
102
RTVSPost2010PropOp54
 70
     1
102
RTVSPost2010Prop55
280
     0
102
RTVSPost2010PropOp55
 70
     1
102
RTVSPost2010Prop56
140
1.0
102
RTVSPost2010PropOp56
 70
     1
102
RTVSPost2010Prop57
140
1.0
102
RTVSPost2010PropOp57
 70
     1
  0
XRECORD
  5
1030
102
{ACAD_REACTORS
330
102F
102
}
330
102F
100
AcDbXrecord
280
     1
102
RTVSPost2010Prop28
280
     0
102
RTVSPost2010PropOp28
 70
     1
102
RTVSPost2010Prop29
280
     1
102
RTVSPost2010PropOp29
 70
     1
102
RTVSPost2010Prop30
280
     1
102
RTVSPost2010PropOp30
 70
     1
102
RTVSPost2010Prop31
280
     0
102
RTVSPost2010PropOp31
 70
     1
102
RTVSPost2010Prop32
280
     0
102
RTVSPost2010PropOp32
 70
     1
102
RTVSPost2010Prop33
280
     0
102
RTVSPost2010PropOp33
 70
     1
102
RTVSPost2010Prop34
280
     0
102
RTVSPost2010PropOp34
 70
     1
102
RTVSPost2010Prop35
280
     0
102
RTVSPost2010PropOp35
 70
     1
102
RTVSPost2010Prop36
280
     0
102
RTVSPost2010PropOp36
 70
     1
102
RTVSPost2010Prop37
 90
       50
102
RTVSPost2010PropOp37
 70
     1
102
RTVSPost2010Prop38
140
0.0
102
RTVSPost2010PropOp38
 70
     1
102
RTVSPost2010Prop39
140
1.0
102
RTVSPost2010PropOp39
 70
     1
102
RTVSPost2010Prop40
 90
        0
102
RTVSPost2010PropOp40
 70
     1
102
RTVSPost2010Prop41ColorIndex
 90
       18
102
RTVSPost2010Prop41ColorRGB
 90
        0
102
RTVSPost2010PropOp41
 70
     1
102
RTVSPost2010Prop42
 90
       50
102
RTVSPost2010PropOp42
 70
     1
102
RTVSPost2010Prop43
 90
        3
102
RTVSPost2010PropOp43
 70
     1
102
RTVSPost2010Prop44ColorIndex
 90
        5
102
RTVSPost2010Prop44ColorRGB
 90
      255
102
RTVSPost2010PropOp44
 70
     1
102
RTVSPost2010Prop45
280
     0
102
RTVSPost2010PropOp45
 70
     1
102
RTVSPost2010Prop46
 90
       50
102
RTVSPost2010PropOp46
 70
     1
102
RTVSPost2010Prop47
 90
       50
102
RTVSPost2010PropOp47
 70
     1
102
RTVSPost2010Prop48
 90
       50
102
RTVSPost2010PropOp48
 70
     1
102
RTVSPost2010Prop49
280
     0
102
RTVSPost2010PropOp49
 70
     1
102
RTVSPost2010Prop50
 90
       50
102
RTVSPost2010PropOp50
 70
     1
102
RTVSPost2010Prop51ColorIndex
 90
      256
102
RTVSPost2010Prop51ColorRGB
 90
-16777216
102
RTVSPost2010PropOp51
 70
     0
102
RTVSPost2010Prop52
140
1.0
102
RTVSPost2010PropOp52
 70
     0
102
RTVSPost2010Prop53
 90
        2
102
RTVSPost2010PropOp53
 70
     1
102
RTVSPost2010Prop54
  1
strokes_ogs.tif
102
RTVSPost2010PropOp54
 70
     1
102
RTVSPost2010Prop55
280
     0
102
RTVSPost2010PropOp55
 70
     1
102
RTVSPost2010Prop56
140
1.0
102
RTVSPost2010PropOp56
 70
     1
102
RTVSPost2010Prop57
140
1.0
102
RTVSPost2010PropOp57
 70
     1
  0
XRECORD
  5
1032
102
{ACAD_REACTORS
330
1031
102
}
330
1031
100
AcDbXrecord
280
     1
102
RTVSPost2010Prop28
280
     0
102
RTVSPost2010PropOp28
 70
     1
102
RTVSPost2010Prop29
280
     1
102
RTVSPost2010PropOp29
 70
     1
102
RTVSPost2010Prop30
280
     1
102
RTVSPost2010PropOp30
 70
     1
102
RTVSPost2010Prop31
280
     0
102
RTVSPost2010PropOp31
 70
     1
102
RTVSPost2010Prop32
280
     0
102
RTVSPost2010PropOp32
 70
     1
102
RTVSPost2010Prop33
280
     0
102
RTVSPost2010PropOp33
 70
     1
102
RTVSPost2010Prop34
280
     0
102
RTVSPost2010PropOp34
 70
     1
102
RTVSPost2010Prop35
280
     0
102
RTVSPost2010PropOp35
 70
     1
102
RTVSPost2010Prop36
280
     0
102
RTVSPost2010PropOp36
 70
     1
102
RTVSPost2010Prop37
 90
       50
102
RTVSPost2010PropOp37
 70
     1
102
RTVSPost2010Prop38
140
0.0
102
RTVSPost2010PropOp38
 70
     1
102
RTVSPost2010Prop39
140
1.0
102
RTVSPost2010PropOp39
 70
     1
102
RTVSPost2010Prop40
 90
        0
102
RTVSPost2010PropOp40
 70
     1
102
RTVSPost2010Prop41ColorIndex
 90
       18
102
RTVSPost2010Prop41ColorRGB
 90
        0
102
RTVSPost2010PropOp41
 70
     1
102
RTVSPost2010Prop42
 90
       50
102
RTVSPost2010PropOp42
 70
     1
102
RTVSPost2010Prop43
 90
        3
102
RTVSPost2010PropOp43
 70
     1
102
RTVSPost2010Prop44ColorIndex
 90
        5
102
RTVSPost2010Prop44ColorRGB
 90
      255
102
RTVSPost2010PropOp44
 70
     1
102
RTVSPost2010Prop45
280
     0
102
RTVSPost2010PropOp45
 70
     1
102
RTVSPost2010Prop46
 90
       50
102
RTVSPost2010PropOp46
 70
     1
102
RTVSPost2010Prop47
 90
       50
102
RTVSPost2010PropOp47
 70
     1
102
RTVSPost2010Prop48
 90
       50
102
RTVSPost2010PropOp48
 70
     1
102
RTVSPost2010Prop49
280
     0
102
RTVSPost2010PropOp49
 70
     1
102
RTVSPost2010Prop50
 90
       50
102
RTVSPost2010PropOp50
 70
     1
102
RTVSPost2010Prop51ColorIndex
 90
      256
102
RTVSPost2010Prop51ColorRGB
 90
-16777216
102
RTVSPost2010PropOp51
 70
     0
102
RTVSPost2010Prop52
140
1.0
102
RTVSPost2010PropOp52
 70
     0
102
RTVSPost2010Prop53
 90
        2
102
RTVSPost2010PropOp53
 70
     1
102
RTVSPost2010Prop54
  1
strokes_ogs.tif
102
RTVSPost2010PropOp54
 70
     1
102
RTVSPost2010Prop55
280
     0
102
RTVSPost2010PropOp55
 70
     1
102
RTVSPost2010Prop56
140
1.0
102
RTVSPost2010PropOp56
 70
     1
102
RTVSPost2010Prop57
140
1.0
102
RTVSPost2010PropOp57
 70
     1
  0
XRECORD
  5
1042
102
{ACAD_REACTORS
330
1041
102
}
330
1041
100
AcDbXrecord
280
     1
102
RTVSPost2010Prop28
280
     0
102
RTVSPost2010PropOp28
 70
     0
102
RTVSPost2010Prop29
280
     1
102
RTVSPost2010PropOp29
 70
     0
102
RTVSPost2010Prop30
280
     1
102
RTVSPost2010PropOp30
 70
     0
102
RTVSPost2010Prop31
280
     0
102
RTVSPost2010PropOp31
 70
     0
102
RTVSPost2010Prop32
280
     0
102
RTVSPost2010PropOp32
 70
     0
102
RTVSPost2010Prop33
280
     0
102
RTVSPost2010PropOp33
 70
     0
102
RTVSPost2010Prop34
280
     0
102
RTVSPost2010PropOp34
 70
     0
102
RTVSPost2010Prop35
280
     0
102
RTVSPost2010PropOp35
 70
     0
102
RTVSPost2010Prop36
280
     0
102
RTVSPost2010PropOp36
 70
     0
102
RTVSPost2010Prop37
 90
       50
102
RTVSPost2010PropOp37
 70
     0
102
RTVSPost2010Prop38
140
0.0
102
RTVSPost2010PropOp38
 70
     0
102
RTVSPost2010Prop39
140
1.0
102
RTVSPost2010PropOp39
 70
     0
102
RTVSPost2010Prop40
 90
        0
102
RTVSPost2010PropOp40
 70
     0
102
RTVSPost2010Prop41ColorIndex
 90
       18
102
RTVSPost2010Prop41ColorRGB
 90
        0
102
RTVSPost2010PropOp41
 70
     0
102
RTVSPost2010Prop42
 90
       50
102
RTVSPost2010PropOp42
 70
     0
102
RTVSPost2010Prop43
 90
        3
102
RTVSPost2010PropOp43
 70
     0
102
RTVSPost2010Prop44ColorIndex
 90
        5
102
RTVSPost2010Prop44ColorRGB
 90
      255
102
RTVSPost2010PropOp44
 70
     0
102
RTVSPost2010Prop45
280
     0
102
RTVSPost2010PropOp45
 70
     0
102
RTVSPost2010Prop46
 90
       50
102
RTVSPost2010PropOp46
 70
     0
102
RTVSPost2010Prop47
 90
       50
102
RTVSPost2010PropOp47
 70
     0
102
RTVSPost2010Prop48
 90
       50
102
RTVSPost2010PropOp48
 70
     0
102
RTVSPost2010Prop49
280
     0
102
RTVSPost2010PropOp49
 70
     0
102
RTVSPost2010Prop50
 90
       50
102
RTVSPost2010PropOp50
 70
     0
102
RTVSPost2010Prop51ColorIndex
 90
      256
102
RTVSPost2010Prop51ColorRGB
 90
-16777216
102
RTVSPost2010PropOp51
 70
     0
102
RTVSPost2010Prop52
140
1.0
102
RTVSPost2010PropOp52
 70
     0
102
RTVSPost2010Prop53
 90
        2
102
RTVSPost2010PropOp53
 70
     0
102
RTVSPost2010Prop54
  1
strokes_ogs.tif
102
RTVSPost2010PropOp54
 70
     0
102
RTVSPost2010Prop55
280
     0
102
RTVSPost2010PropOp55
 70
     0
102
RTVSPost2010Prop56
140
1.0
102
RTVSPost2010PropOp56
 70
     0
102
RTVSPost2010Prop57
140
1.0
102
RTVSPost2010PropOp57
 70
     0
  0
XRECORD
  5
103A
102
{ACAD_REACTORS
330
1039
102
}
330
1039
100
AcDbXrecord
280
     1
102
RTVSPost2010Prop28
280
     0
102
RTVSPost2010PropOp28
 70
     1
102
RTVSPost2010Prop29
280
     1
102
RTVSPost2010PropOp29
 70
     1
102
RTVSPost2010Prop30
280
     1
102
RTVSPost2010PropOp30
 70
     1
102
RTVSPost2010Prop31
280
     0
102
RTVSPost2010PropOp31
 70
     1
102
RTVSPost2010Prop32
280
     0
102
RTVSPost2010PropOp32
 70
     1
102
RTVSPost2010Prop33
280
     0
102
RTVSPost2010PropOp33
 70
     1
102
RTVSPost2010Prop34
280
     0
102
RTVSPost2010PropOp34
 70
     1
102
RTVSPost2010Prop35
280
     0
102
RTVSPost2010PropOp35
 70
     1
102
RTVSPost2010Prop36
280
     0
102
RTVSPost2010PropOp36
 70
     1
102
RTVSPost2010Prop37
 90
       50
102
RTVSPost2010PropOp37
 70
     1
102
RTVSPost2010Prop38
140
0.0
102
RTVSPost2010PropOp38
 70
     1
102
RTVSPost2010Prop39
140
1.0
102
RTVSPost2010PropOp39
 70
     1
102
RTVSPost2010Prop40
 90
        0
102
RTVSPost2010PropOp40
 70
     1
102
RTVSPost2010Prop41ColorIndex
 90
       18
102
RTVSPost2010Prop41ColorRGB
 90
        0
102
RTVSPost2010PropOp41
 70
     1
102
RTVSPost2010Prop42
 90
       50
102
RTVSPost2010PropOp42
 70
     1
102
RTVSPost2010Prop43
 90
        3
102
RTVSPost2010PropOp43
 70
     1
102
RTVSPost2010Prop44ColorIndex
 90
        5
102
RTVSPost2010Prop44ColorRGB
 90
      255
102
RTVSPost2010PropOp44
 70
     1
102
RTVSPost2010Prop45
280
     0
102
RTVSPost2010PropOp45
 70
     1
102
RTVSPost2010Prop46
 90
       50
102
RTVSPost2010PropOp46
 70
     1
102
RTVSPost2010Prop47
 90
       50
102
RTVSPost2010PropOp47
 70
     1
102
RTVSPost2010Prop48
 90
       50
102
RTVSPost2010PropOp48
 70
     1
102
RTVSPost2010Prop49
280
     0
102
RTVSPost2010PropOp49
 70
     1
102
RTVSPost2010Prop50
 90
       50
102
RTVSPost2010PropOp50
 70
     1
102
RTVSPost2010Prop51ColorIndex
 90
      256
102
RTVSPost2010Prop51ColorRGB
 90
-16777216
102
RTVSPost2010PropOp51
 70
     0
102
RTVSPost2010Prop52
140
1.0
102
RTVSPost2010PropOp52
 70
     0
102
RTVSPost2010Prop53
 90
        2
102
RTVSPost2010PropOp53
 70
     1
102
RTVSPost2010Prop54
  1
strokes_ogs.tif
102
RTVSPost2010PropOp54
 70
     1
102
RTVSPost2010Prop55
280
     0
102
RTVSPost2010PropOp55
 70
     1
102
RTVSPost2010Prop56
140
1.0
102
RTVSPost2010PropOp56
 70
     1
102
RTVSPost2010Prop57
140
1.0
102
RTVSPost2010PropOp57
 70
     1
  0
XRECORD
  5
101E
102
{ACAD_REACTORS
330
101D
102
}
330
101D
100
AcDbXrecord
280
     1
102
RTVSPost2010Prop28
280
     0
102
RTVSPost2010PropOp28
 70
     1
102
RTVSPost2010Prop29
280
     1
102
RTVSPost2010PropOp29
 70
     1
102
RTVSPost2010Prop30
280
     1
102
RTVSPost2010PropOp30
 70
     1
102
RTVSPost2010Prop31
280
     0
102
RTVSPost2010PropOp31
 70
     1
102
RTVSPost2010Prop32
280
     0
102
RTVSPost2010PropOp32
 70
     1
102
RTVSPost2010Prop33
280
     0
102
RTVSPost2010PropOp33
 70
     1
102
RTVSPost2010Prop34
280
     0
102
RTVSPost2010PropOp34
 70
     1
102
RTVSPost2010Prop35
280
     0
102
RTVSPost2010PropOp35
 70
     1
102
RTVSPost2010Prop36
280
     0
102
RTVSPost2010PropOp36
 70
     1
102
RTVSPost2010Prop37
 90
       50
102
RTVSPost2010PropOp37
 70
     1
102
RTVSPost2010Prop38
140
0.0
102
RTVSPost2010PropOp38
 70
     1
102
RTVSPost2010Prop39
140
1.0
102
RTVSPost2010PropOp39
 70
     1
102
RTVSPost2010Prop40
 90
        0
102
RTVSPost2010PropOp40
 70
     1
102
RTVSPost2010Prop41ColorIndex
 90
       18
102
RTVSPost2010Prop41ColorRGB
 90
        0
102
RTVSPost2010PropOp41
 70
     1
102
RTVSPost2010Prop42
 90
       50
102
RTVSPost2010PropOp42
 70
     1
102
RTVSPost2010Prop43
 90
        3
102
RTVSPost2010PropOp43
 70
     1
102
RTVSPost2010Prop44ColorIndex
 90
        5
102
RTVSPost2010Prop44ColorRGB
 90
      255
102
RTVSPost2010PropOp44
 70
     1
102
RTVSPost2010Prop45
280
     0
102
RTVSPost2010PropOp45
 70
     1
102
RTVSPost2010Prop46
 90
       50
102
RTVSPost2010PropOp46
 70
     1
102
RTVSPost2010Prop47
 90
       50
102
RTVSPost2010PropOp47
 70
     1
102
RTVSPost2010Prop48
 90
       50
102
RTVSPost2010PropOp48
 70
     1
102
RTVSPost2010Prop49
280
     0
102
RTVSPost2010PropOp49
 70
     1
102
RTVSPost2010Prop50
 90
       50
102
RTVSPost2010PropOp50
 70
     1
102
RTVSPost2010Prop51ColorIndex
 90
      256
102
RTVSPost2010Prop51ColorRGB
 90
-16777216
102
RTVSPost2010PropOp51
 70
     0
102
RTVSPost2010Prop52
140
1.0
102
RTVSPost2010PropOp52
 70
     0
102
RTVSPost2010Prop53
 90
        2
102
RTVSPost2010PropOp53
 70
     1
102
RTVSPost2010Prop54
  1
strokes_ogs.tif
102
RTVSPost2010PropOp54
 70
     1
102
RTVSPost2010Prop55
280
     0
102
RTVSPost2010PropOp55
 70
     1
102
RTVSPost2010Prop56
140
1.0
102
RTVSPost2010PropOp56
 70
     1
102
RTVSPost2010Prop57
140
1.0
102
RTVSPost2010PropOp57
 70
     1
  0
XRECORD
  5
1020
102
{ACAD_REACTORS
330
101F
102
}
330
101F
100
AcDbXrecord
280
     1
102
RTVSPost2010Prop28
280
     0
102
RTVSPost2010PropOp28
 70
     1
102
RTVSPost2010Prop29
280
     1
102
RTVSPost2010PropOp29
 70
     1
102
RTVSPost2010Prop30
280
     1
102
RTVSPost2010PropOp30
 70
     1
102
RTVSPost2010Prop31
280
     0
102
RTVSPost2010PropOp31
 70
     1
102
RTVSPost2010Prop32
280
     0
102
RTVSPost2010PropOp32
 70
     1
102
RTVSPost2010Prop33
280
     0
102
RTVSPost2010PropOp33
 70
     1
102
RTVSPost2010Prop34
280
     0
102
RTVSPost2010PropOp34
 70
     1
102
RTVSPost2010Prop35
280
     0
102
RTVSPost2010PropOp35
 70
     1
102
RTVSPost2010Prop36
280
     0
102
RTVSPost2010PropOp36
 70
     1
102
RTVSPost2010Prop37
 90
       50
102
RTVSPost2010PropOp37
 70
     1
102
RTVSPost2010Prop38
140
0.0
102
RTVSPost2010PropOp38
 70
     1
102
RTVSPost2010Prop39
140
1.0
102
RTVSPost2010PropOp39
 70
     1
102
RTVSPost2010Prop40
 90
        0
102
RTVSPost2010PropOp40
 70
     1
102
RTVSPost2010Prop41ColorIndex
 90
       18
102
RTVSPost2010Prop41ColorRGB
 90
        0
102
RTVSPost2010PropOp41
 70
     1
102
RTVSPost2010Prop42
 90
       50
102
RTVSPost2010PropOp42
 70
     1
102
RTVSPost2010Prop43
 90
        3
102
RTVSPost2010PropOp43
 70
     1
102
RTVSPost2010Prop44ColorIndex
 90
        5
102
RTVSPost2010Prop44ColorRGB
 90
      255
102
RTVSPost2010PropOp44
 70
     1
102
RTVSPost2010Prop45
280
     0
102
RTVSPost2010PropOp45
 70
     1
102
RTVSPost2010Prop46
 90
       50
102
RTVSPost2010PropOp46
 70
     1
102
RTVSPost2010Prop47
 90
       50
102
RTVSPost2010PropOp47
 70
     1
102
RTVSPost2010Prop48
 90
       50
102
RTVSPost2010PropOp48
 70
     1
102
RTVSPost2010Prop49
280
     0
102
RTVSPost2010PropOp49
 70
     1
102
RTVSPost2010Prop50
 90
       50
102
RTVSPost2010PropOp50
 70
     1
102
RTVSPost2010Prop51ColorIndex
 90
      256
102
RTVSPost2010Prop51ColorRGB
 90
-16777216
102
RTVSPost2010PropOp51
 70
     0
102
RTVSPost2010Prop52
140
1.0
102
RTVSPost2010PropOp52
 70
     0
102
RTVSPost2010Prop53
 90
        2
102
RTVSPost2010PropOp53
 70
     1
102
RTVSPost2010Prop54
  1
strokes_ogs.tif
102
RTVSPost2010PropOp54
 70
     1
102
RTVSPost2010Prop55
280
     0
102
RTVSPost2010PropOp55
 70
     1
102
RTVSPost2010Prop56
140
1.0
102
RTVSPost2010PropOp56
 70
     1
102
RTVSPost2010Prop57
140
1.0
102
RTVSPost2010PropOp57
 70
     1
  0
XRECORD
  5
1022
102
{ACAD_REACTORS
330
1021
102
}
330
1021
100
AcDbXrecord
280
     1
102
RTVSPost2010Prop28
280
     0
102
RTVSPost2010PropOp28
 70
     1
102
RTVSPost2010Prop29
280
     1
102
RTVSPost2010PropOp29
 70
     1
102
RTVSPost2010Prop30
280
     1
102
RTVSPost2010PropOp30
 70
     1
102
RTVSPost2010Prop31
280
     0
102
RTVSPost2010PropOp31
 70
     1
102
RTVSPost2010Prop32
280
     0
102
RTVSPost2010PropOp32
 70
     1
102
RTVSPost2010Prop33
280
     0
102
RTVSPost2010PropOp33
 70
     1
102
RTVSPost2010Prop34
280
     0
102
RTVSPost2010PropOp34
 70
     1
102
RTVSPost2010Prop35
280
     0
102
RTVSPost2010PropOp35
 70
     1
102
RTVSPost2010Prop36
280
     0
102
RTVSPost2010PropOp36
 70
     1
102
RTVSPost2010Prop37
 90
       50
102
RTVSPost2010PropOp37
 70
     1
102
RTVSPost2010Prop38
140
0.0
102
RTVSPost2010PropOp38
 70
     1
102
RTVSPost2010Prop39
140
1.0
102
RTVSPost2010PropOp39
 70
     1
102
RTVSPost2010Prop40
 90
        0
102
RTVSPost2010PropOp40
 70
     1
102
RTVSPost2010Prop41ColorIndex
 90
       18
102
RTVSPost2010Prop41ColorRGB
 90
        0
102
RTVSPost2010PropOp41
 70
     1
102
RTVSPost2010Prop42
 90
       50
102
RTVSPost2010PropOp42
 70
     1
102
RTVSPost2010Prop43
 90
        3
102
RTVSPost2010PropOp43
 70
     1
102
RTVSPost2010Prop44ColorIndex
 90
        5
102
RTVSPost2010Prop44ColorRGB
 90
      255
102
RTVSPost2010PropOp44
 70
     1
102
RTVSPost2010Prop45
280
     0
102
RTVSPost2010PropOp45
 70
     1
102
RTVSPost2010Prop46
 90
       50
102
RTVSPost2010PropOp46
 70
     1
102
RTVSPost2010Prop47
 90
       50
102
RTVSPost2010PropOp47
 70
     1
102
RTVSPost2010Prop48
 90
       50
102
RTVSPost2010PropOp48
 70
     1
102
RTVSPost2010Prop49
280
     0
102
RTVSPost2010PropOp49
 70
     1
102
RTVSPost2010Prop50
 90
       50
102
RTVSPost2010PropOp50
 70
     1
102
RTVSPost2010Prop51ColorIndex
 90
      256
102
RTVSPost2010Prop51ColorRGB
 90
-16777216
102
RTVSPost2010PropOp51
 70
     0
102
RTVSPost2010Prop52
140
1.0
102
RTVSPost2010PropOp52
 70
     0
102
RTVSPost2010Prop53
 90
        2
102
RTVSPost2010PropOp53
 70
     1
102
RTVSPost2010Prop54
  1
strokes_ogs.tif
102
RTVSPost2010PropOp54
 70
     1
102
RTVSPost2010Prop55
280
     0
102
RTVSPost2010PropOp55
 70
     1
102
RTVSPost2010Prop56
140
1.0
102
RTVSPost2010PropOp56
 70
     1
102
RTVSPost2010Prop57
140
1.0
102
RTVSPost2010PropOp57
 70
     1
  0
XRECORD
  5
1024
102
{ACAD_REACTORS
330
1023
102
}
330
1023
100
AcDbXrecord
280
     1
102
RTVSPost2010Prop28
280
     0
102
RTVSPost2010PropOp28
 70
     1
102
RTVSPost2010Prop29
280
     1
102
RTVSPost2010PropOp29
 70
     1
102
RTVSPost2010Prop30
280
     1
102
RTVSPost2010PropOp30
 70
     1
102
RTVSPost2010Prop31
280
     0
102
RTVSPost2010PropOp31
 70
     1
102
RTVSPost2010Prop32
280
     0
102
RTVSPost2010PropOp32
 70
     1
102
RTVSPost2010Prop33
280
     0
102
RTVSPost2010PropOp33
 70
     1
102
RTVSPost2010Prop34
280
     0
102
RTVSPost2010PropOp34
 70
     1
102
RTVSPost2010Prop35
280
     0
102
RTVSPost2010PropOp35
 70
     1
102
RTVSPost2010Prop36
280
     0
102
RTVSPost2010PropOp36
 70
     1
102
RTVSPost2010Prop37
 90
       50
102
RTVSPost2010PropOp37
 70
     1
102
RTVSPost2010Prop38
140
0.0
102
RTVSPost2010PropOp38
 70
     1
102
RTVSPost2010Prop39
140
1.0
102
RTVSPost2010PropOp39
 70
     1
102
RTVSPost2010Prop40
 90
        0
102
RTVSPost2010PropOp40
 70
     1
102
RTVSPost2010Prop41ColorIndex
 90
       18
102
RTVSPost2010Prop41ColorRGB
 90
        0
102
RTVSPost2010PropOp41
 70
     1
102
RTVSPost2010Prop42
 90
       50
102
RTVSPost2010PropOp42
 70
     1
102
RTVSPost2010Prop43
 90
        3
102
RTVSPost2010PropOp43
 70
     1
102
RTVSPost2010Prop44ColorIndex
 90
        5
102
RTVSPost2010Prop44ColorRGB
 90
      255
102
RTVSPost2010PropOp44
 70
     1
102
RTVSPost2010Prop45
280
     0
102
RTVSPost2010PropOp45
 70
     1
102
RTVSPost2010Prop46
 90
       50
102
RTVSPost2010PropOp46
 70
     1
102
RTVSPost2010Prop47
 90
       50
102
RTVSPost2010PropOp47
 70
     1
102
RTVSPost2010Prop48
 90
       50
102
RTVSPost2010PropOp48
 70
     1
102
RTVSPost2010Prop49
280
     0
102
RTVSPost2010PropOp49
 70
     1
102
RTVSPost2010Prop50
 90
       50
102
RTVSPost2010PropOp50
 70
     1
102
RTVSPost2010Prop51ColorIndex
 90
      256
102
RTVSPost2010Prop51ColorRGB
 90
-16777216
102
RTVSPost2010PropOp51
 70
     0
102
RTVSPost2010Prop52
140
1.0
102
RTVSPost2010PropOp52
 70
     0
102
RTVSPost2010Prop53
 90
        2
102
RTVSPost2010PropOp53
 70
     1
102
RTVSPost2010Prop54
  1
strokes_ogs.tif
102
RTVSPost2010PropOp54
 70
     1
102
RTVSPost2010Prop55
280
     0
102
RTVSPost2010PropOp55
 70
     1
102
RTVSPost2010Prop56
140
1.0
102
RTVSPost2010PropOp56
 70
     1
102
RTVSPost2010Prop57
140
1.0
102
RTVSPost2010PropOp57
 70
     1
  0
XRECORD
  5
102A
102
{ACAD_REACTORS
330
1029
102
}
330
1029
100
AcDbXrecord
280
     1
102
RTVSPost2010Prop28
280
     0
102
RTVSPost2010PropOp28
 70
     1
102
RTVSPost2010Prop29
280
     1
102
RTVSPost2010PropOp29
 70
     1
102
RTVSPost2010Prop30
280
     1
102
RTVSPost2010PropOp30
 70
     1
102
RTVSPost2010Prop31
280
     0
102
RTVSPost2010PropOp31
 70
     1
102
RTVSPost2010Prop32
280
     0
102
RTVSPost2010PropOp32
 70
     1
102
RTVSPost2010Prop33
280
     0
102
RTVSPost2010PropOp33
 70
     1
102
RTVSPost2010Prop34
280
     0
102
RTVSPost2010PropOp34
 70
     1
102
RTVSPost2010Prop35
280
     0
102
RTVSPost2010PropOp35
 70
     1
102
RTVSPost2010Prop36
280
     0
102
RTVSPost2010PropOp36
 70
     1
102
RTVSPost2010Prop37
 90
       50
102
RTVSPost2010PropOp37
 70
     1
102
RTVSPost2010Prop38
140
0.0
102
RTVSPost2010PropOp38
 70
     1
102
RTVSPost2010Prop39
140
1.0
102
RTVSPost2010PropOp39
 70
     1
102
RTVSPost2010Prop40
 90
        0
102
RTVSPost2010PropOp40
 70
     1
102
RTVSPost2010Prop41ColorIndex
 90
       18
102
RTVSPost2010Prop41ColorRGB
 90
        0
102
RTVSPost2010PropOp41
 70
     1
102
RTVSPost2010Prop42
 90
       50
102
RTVSPost2010PropOp42
 70
     1
102
RTVSPost2010Prop43
 90
        3
102
RTVSPost2010PropOp43
 70
     1
102
RTVSPost2010Prop44ColorIndex
 90
        5
102
RTVSPost2010Prop44ColorRGB
 90
      255
102
RTVSPost2010PropOp44
 70
     1
102
RTVSPost2010Prop45
280
     0
102
RTVSPost2010PropOp45
 70
     1
102
RTVSPost2010Prop46
 90
       50
102
RTVSPost2010PropOp46
 70
     1
102
RTVSPost2010Prop47
 90
       50
102
RTVSPost2010PropOp47
 70
     1
102
RTVSPost2010Prop48
 90
       50
102
RTVSPost2010PropOp48
 70
     1
102
RTVSPost2010Prop49
280
     0
102
RTVSPost2010PropOp49
 70
     1
102
RTVSPost2010Prop50
 90
       50
102
RTVSPost2010PropOp50
 70
     1
102
RTVSPost2010Prop51ColorIndex
 90
      256
102
RTVSPost2010Prop51ColorRGB
 90
-16777216
102
RTVSPost2010PropOp51
 70
     0
102
RTVSPost2010Prop52
140
1.0
102
RTVSPost2010PropOp52
 70
     0
102
RTVSPost2010Prop53
 90
        2
102
RTVSPost2010PropOp53
 70
     1
102
RTVSPost2010Prop54
  1
strokes_ogs.tif
102
RTVSPost2010PropOp54
 70
     1
102
RTVSPost2010Prop55
280
     0
102
RTVSPost2010PropOp55
 70
     1
102
RTVSPost2010Prop56
140
1.0
102
RTVSPost2010PropOp56
 70
     1
102
RTVSPost2010Prop57
140
1.0
102
RTVSPost2010PropOp57
 70
     1
  0
XRECORD
  5
103E
102
{ACAD_REACTORS
330
103D
102
}
330
103D
100
AcDbXrecord
280
     1
102
RTVSPost2010Prop28
280
     0
102
RTVSPost2010PropOp28
 70
     0
102
RTVSPost2010Prop29
280
     1
102
RTVSPost2010PropOp29
 70
     0
102
RTVSPost2010Prop30
280
     1
102
RTVSPost2010PropOp30
 70
     0
102
RTVSPost2010Prop31
280
     0
102
RTVSPost2010PropOp31
 70
     0
102
RTVSPost2010Prop32
280
     0
102
RTVSPost2010PropOp32
 70
     0
102
RTVSPost2010Prop33
280
     0
102
RTVSPost2010PropOp33
 70
     0
102
RTVSPost2010Prop34
280
     0
102
RTVSPost2010PropOp34
 70
     0
102
RTVSPost2010Prop35
280
     0
102
RTVSPost2010PropOp35
 70
     0
102
RTVSPost2010Prop36
280
     0
102
RTVSPost2010PropOp36
 70
     0
102
RTVSPost2010Prop37
 90
       50
102
RTVSPost2010PropOp37
 70
     0
102
RTVSPost2010Prop38
140
0.0
102
RTVSPost2010PropOp38
 70
     0
102
RTVSPost2010Prop39
140
1.0
102
RTVSPost2010PropOp39
 70
     0
102
RTVSPost2010Prop40
 90
        0
102
RTVSPost2010PropOp40
 70
     0
102
RTVSPost2010Prop41ColorIndex
 90
       18
102
RTVSPost2010Prop41ColorRGB
 90
        0
102
RTVSPost2010PropOp41
 70
     0
102
RTVSPost2010Prop42
 90
       50
102
RTVSPost2010PropOp42
 70
     0
102
RTVSPost2010Prop43
 90
        3
102
RTVSPost2010PropOp43
 70
     0
102
RTVSPost2010Prop44ColorIndex
 90
        5
102
RTVSPost2010Prop44ColorRGB
 90
      255
102
RTVSPost2010PropOp44
 70
     0
102
RTVSPost2010Prop45
280
     0
102
RTVSPost2010PropOp45
 70
     0
102
RTVSPost2010Prop46
 90
       50
102
RTVSPost2010PropOp46
 70
     0
102
RTVSPost2010Prop47
 90
       50
102
RTVSPost2010PropOp47
 70
     0
102
RTVSPost2010Prop48
 90
       50
102
RTVSPost2010PropOp48
 70
     0
102
RTVSPost2010Prop49
280
     0
102
RTVSPost2010PropOp49
 70
     0
102
RTVSPost2010Prop50
 90
       50
102
RTVSPost2010PropOp50
 70
     0
102
RTVSPost2010Prop51ColorIndex
 90
      256
102
RTVSPost2010Prop51ColorRGB
 90
-16777216
102
RTVSPost2010PropOp51
 70
     0
102
RTVSPost2010Prop52
140
1.0
102
RTVSPost2010PropOp52
 70
     0
102
RTVSPost2010Prop53
 90
        2
102
RTVSPost2010PropOp53
 70
     0
102
RTVSPost2010Prop54
  1
strokes_ogs.tif
102
RTVSPost2010PropOp54
 70
     0
102
RTVSPost2010Prop55
280
     0
102
RTVSPost2010PropOp55
 70
     0
102
RTVSPost2010Prop56
140
1.0
102
RTVSPost2010PropOp56
 70
     0
102
RTVSPost2010Prop57
140
1.0
102
RTVSPost2010PropOp57
 70
     0
  0
XRECORD
  5
1038
102
{ACAD_REACTORS
330
1037
102
}
330
1037
100
AcDbXrecord
280
     1
102
RTVSPost2010Prop28
280
     0
102
RTVSPost2010PropOp28
 70
     1
102
RTVSPost2010Prop29
280
     1
102
RTVSPost2010PropOp29
 70
     1
102
RTVSPost2010Prop30
280
     1
102
RTVSPost2010PropOp30
 70
     1
102
RTVSPost2010Prop31
280
     0
102
RTVSPost2010PropOp31
 70
     1
102
RTVSPost2010Prop32
280
     0
102
RTVSPost2010PropOp32
 70
     1
102
RTVSPost2010Prop33
280
     0
102
RTVSPost2010PropOp33
 70
     1
102
RTVSPost2010Prop34
280
     0
102
RTVSPost2010PropOp34
 70
     1
102
RTVSPost2010Prop35
280
     0
102
RTVSPost2010PropOp35
 70
     1
102
RTVSPost2010Prop36
280
     0
102
RTVSPost2010PropOp36
 70
     1
102
RTVSPost2010Prop37
 90
       50
102
RTVSPost2010PropOp37
 70
     1
102
RTVSPost2010Prop38
140
0.0
102
RTVSPost2010PropOp38
 70
     1
102
RTVSPost2010Prop39
140
1.0
102
RTVSPost2010PropOp39
 70
     1
102
RTVSPost2010Prop40
 90
        0
102
RTVSPost2010PropOp40
 70
     1
102
RTVSPost2010Prop41ColorIndex
 90
       18
102
RTVSPost2010Prop41ColorRGB
 90
        0
102
RTVSPost2010PropOp41
 70
     1
102
RTVSPost2010Prop42
 90
       50
102
RTVSPost2010PropOp42
 70
     1
102
RTVSPost2010Prop43
 90
        3
102
RTVSPost2010PropOp43
 70
     1
102
RTVSPost2010Prop44ColorIndex
 90
        5
102
RTVSPost2010Prop44ColorRGB
 90
      255
102
RTVSPost2010PropOp44
 70
     1
102
RTVSPost2010Prop45
280
     0
102
RTVSPost2010PropOp45
 70
     1
102
RTVSPost2010Prop46
 90
       50
102
RTVSPost2010PropOp46
 70
     1
102
RTVSPost2010Prop47
 90
       50
102
RTVSPost2010PropOp47
 70
     1
102
RTVSPost2010Prop48
 90
       50
102
RTVSPost2010PropOp48
 70
     1
102
RTVSPost2010Prop49
280
     0
102
RTVSPost2010PropOp49
 70
     1
102
RTVSPost2010Prop50
 90
       50
102
RTVSPost2010PropOp50
 70
     1
102
RTVSPost2010Prop51ColorIndex
 90
      256
102
RTVSPost2010Prop51ColorRGB
 90
-16777216
102
RTVSPost2010PropOp51
 70
     0
102
RTVSPost2010Prop52
140
1.0
102
RTVSPost2010PropOp52
 70
     0
102
RTVSPost2010Prop53
 90
        2
102
RTVSPost2010PropOp53
 70
     1
102
RTVSPost2010Prop54
  1
strokes_ogs.tif
102
RTVSPost2010PropOp54
 70
     1
102
RTVSPost2010Prop55
280
     0
102
RTVSPost2010PropOp55
 70
     1
102
RTVSPost2010Prop56
140
1.0
102
RTVSPost2010PropOp56
 70
     1
102
RTVSPost2010Prop57
140
1.0
102
RTVSPost2010PropOp57
 70
     1
  0
XRECORD
  5
104E
102
{ACAD_REACTORS
330
104D
102
}
330
104D
100
AcDbXrecord
280
     1
102
RTVSPost2010Prop28
280
     0
102
RTVSPost2010PropOp28
 70
     1
102
RTVSPost2010Prop29
280
     1
102
RTVSPost2010PropOp29
 70
     1
102
RTVSPost2010Prop30
280
     1
102
RTVSPost2010PropOp30
 70
     1
102
RTVSPost2010Prop31
280
     0
102
RTVSPost2010PropOp31
 70
     1
102
RTVSPost2010Prop32
280
     0
102
RTVSPost2010PropOp32
 70
     1
102
RTVSPost2010Prop33
280
     0
102
RTVSPost2010PropOp33
 70
     1
102
RTVSPost2010Prop34
280
     0
102
RTVSPost2010PropOp34
 70
     1
102
RTVSPost2010Prop35
280
     0
102
RTVSPost2010PropOp35
 70
     1
102
RTVSPost2010Prop36
280
     0
102
RTVSPost2010PropOp36
 70
     1
102
RTVSPost2010Prop37
 90
       50
102
RTVSPost2010PropOp37
 70
     1
102
RTVSPost2010Prop38
140
0.0
102
RTVSPost2010PropOp38
 70
     1
102
RTVSPost2010Prop39
140
1.0
102
RTVSPost2010PropOp39
 70
     1
102
RTVSPost2010Prop40
 90
        0
102
RTVSPost2010PropOp40
 70
     1
102
RTVSPost2010Prop41ColorIndex
 90
       18
102
RTVSPost2010Prop41ColorRGB
 90
        0
102
RTVSPost2010PropOp41
 70
     1
102
RTVSPost2010Prop42
 90
       50
102
RTVSPost2010PropOp42
 70
     1
102
RTVSPost2010Prop43
 90
        3
102
RTVSPost2010PropOp43
 70
     1
102
RTVSPost2010Prop44ColorIndex
 90
        5
102
RTVSPost2010Prop44ColorRGB
 90
      255
102
RTVSPost2010PropOp44
 70
     1
102
RTVSPost2010Prop45
280
     0
102
RTVSPost2010PropOp45
 70
     1
102
RTVSPost2010Prop46
 90
       50
102
RTVSPost2010PropOp46
 70
     1
102
RTVSPost2010Prop47
 90
       50
102
RTVSPost2010PropOp47
 70
     1
102
RTVSPost2010Prop48
 90
       50
102
RTVSPost2010PropOp48
 70
     1
102
RTVSPost2010Prop49
280
     0
102
RTVSPost2010PropOp49
 70
     1
102
RTVSPost2010Prop50
 90
       50
102
RTVSPost2010PropOp50
 70
     1
102
RTVSPost2010Prop51ColorIndex
 90
      256
102
RTVSPost2010Prop51ColorRGB
 90
-16777216
102
RTVSPost2010PropOp51
 70
     0
102
RTVSPost2010Prop52
140
1.0
102
RTVSPost2010PropOp52
 70
     0
102
RTVSPost2010Prop53
 90
        2
102
RTVSPost2010PropOp53
 70
     1
102
RTVSPost2010Prop54
  1
strokes_ogs.tif
102
RTVSPost2010PropOp54
 70
     1
102
RTVSPost2010Prop55
280
     0
102
RTVSPost2010PropOp55
 70
     1
102
RTVSPost2010Prop56
140
1.0
102
RTVSPost2010PropOp56
 70
     1
102
RTVSPost2010Prop57
140
1.0
102
RTVSPost2010PropOp57
 70
     1
  0
XRECORD
  5
1040
102
{ACAD_REACTORS
330
103F
102
}
330
103F
100
AcDbXrecord
280
     1
102
RTVSPost2010Prop28
280
     0
102
RTVSPost2010PropOp28
 70
     0
102
RTVSPost2010Prop29
280
     1
102
RTVSPost2010PropOp29
 70
     0
102
RTVSPost2010Prop30
280
     1
102
RTVSPost2010PropOp30
 70
     0
102
RTVSPost2010Prop31
280
     0
102
RTVSPost2010PropOp31
 70
     0
102
RTVSPost2010Prop32
280
     0
102
RTVSPost2010PropOp32
 70
     0
102
RTVSPost2010Prop33
280
     0
102
RTVSPost2010PropOp33
 70
     0
102
RTVSPost2010Prop34
280
     0
102
RTVSPost2010PropOp34
 70
     0
102
RTVSPost2010Prop35
280
     0
102
RTVSPost2010PropOp35
 70
     0
102
RTVSPost2010Prop36
280
     0
102
RTVSPost2010PropOp36
 70
     0
102
RTVSPost2010Prop37
 90
       50
102
RTVSPost2010PropOp37
 70
     0
102
RTVSPost2010Prop38
140
0.0
102
RTVSPost2010PropOp38
 70
     0
102
RTVSPost2010Prop39
140
1.0
102
RTVSPost2010PropOp39
 70
     0
102
RTVSPost2010Prop40
 90
        0
102
RTVSPost2010PropOp40
 70
     0
102
RTVSPost2010Prop41ColorIndex
 90
       18
102
RTVSPost2010Prop41ColorRGB
 90
        0
102
RTVSPost2010PropOp41
 70
     0
102
RTVSPost2010Prop42
 90
       50
102
RTVSPost2010PropOp42
 70
     0
102
RTVSPost2010Prop43
 90
        3
102
RTVSPost2010PropOp43
 70
     0
102
RTVSPost2010Prop44ColorIndex
 90
        5
102
RTVSPost2010Prop44ColorRGB
 90
      255
102
RTVSPost2010PropOp44
 70
     0
102
RTVSPost2010Prop45
280
     0
102
RTVSPost2010PropOp45
 70
     0
102
RTVSPost2010Prop46
 90
       50
102
RTVSPost2010PropOp46
 70
     0
102
RTVSPost2010Prop47
 90
       50
102
RTVSPost2010PropOp47
 70
     0
102
RTVSPost2010Prop48
 90
       50
102
RTVSPost2010PropOp48
 70
     0
102
RTVSPost2010Prop49
280
     0
102
RTVSPost2010PropOp49
 70
     0
102
RTVSPost2010Prop50
 90
       50
102
RTVSPost2010PropOp50
 70
     0
102
RTVSPost2010Prop51ColorIndex
 90
      256
102
RTVSPost2010Prop51ColorRGB
 90
-16777216
102
RTVSPost2010PropOp51
 70
     0
102
RTVSPost2010Prop52
140
1.0
102
RTVSPost2010PropOp52
 70
     0
102
RTVSPost2010Prop53
 90
        2
102
RTVSPost2010PropOp53
 70
     0
102
RTVSPost2010Prop54
  1
strokes_ogs.tif
102
RTVSPost2010PropOp54
 70
     0
102
RTVSPost2010Prop55
280
     0
102
RTVSPost2010PropOp55
 70
     0
102
RTVSPost2010Prop56
140
1.0
102
RTVSPost2010PropOp56
 70
     0
102
RTVSPost2010Prop57
140
1.0
102
RTVSPost2010PropOp57
 70
     0
  0
XRECORD
  5
102E
102
{ACAD_REACTORS
330
102D
102
}
330
102D
100
AcDbXrecord
280
     1
102
RTVSPost2010Prop28
280
     0
102
RTVSPost2010PropOp28
 70
     1
102
RTVSPost2010Prop29
280
     1
102
RTVSPost2010PropOp29
 70
     1
102
RTVSPost2010Prop30
280
     1
102
RTVSPost2010PropOp30
 70
     1
102
RTVSPost2010Prop31
280
     0
102
RTVSPost2010PropOp31
 70
     1
102
RTVSPost2010Prop32
280
     0
102
RTVSPost2010PropOp32
 70
     1
102
RTVSPost2010Prop33
280
     0
102
RTVSPost2010PropOp33
 70
     1
102
RTVSPost2010Prop34
280
     0
102
RTVSPost2010PropOp34
 70
     1
102
RTVSPost2010Prop35
280
     0
102
RTVSPost2010PropOp35
 70
     1
102
RTVSPost2010Prop36
280
     0
102
RTVSPost2010PropOp36
 70
     1
102
RTVSPost2010Prop37
 90
       50
102
RTVSPost2010PropOp37
 70
     1
102
RTVSPost2010Prop38
140
0.0
102
RTVSPost2010PropOp38
 70
     1
102
RTVSPost2010Prop39
140
1.0
102
RTVSPost2010PropOp39
 70
     1
102
RTVSPost2010Prop40
 90
        0
102
RTVSPost2010PropOp40
 70
     1
102
RTVSPost2010Prop41ColorIndex
 90
       18
102
RTVSPost2010Prop41ColorRGB
 90
        0
102
RTVSPost2010PropOp41
 70
     1
102
RTVSPost2010Prop42
 90
       50
102
RTVSPost2010PropOp42
 70
     1
102
RTVSPost2010Prop43
 90
        3
102
RTVSPost2010PropOp43
 70
     1
102
RTVSPost2010Prop44ColorIndex
 90
        5
102
RTVSPost2010Prop44ColorRGB
 90
      255
102
RTVSPost2010PropOp44
 70
     1
102
RTVSPost2010Prop45
280
     0
102
RTVSPost2010PropOp45
 70
     1
102
RTVSPost2010Prop46
 90
       50
102
RTVSPost2010PropOp46
 70
     1
102
RTVSPost2010Prop47
 90
       50
102
RTVSPost2010PropOp47
 70
     1
102
RTVSPost2010Prop48
 90
       50
102
RTVSPost2010PropOp48
 70
     1
102
RTVSPost2010Prop49
280
     0
102
RTVSPost2010PropOp49
 70
     1
102
RTVSPost2010Prop50
 90
       50
102
RTVSPost2010PropOp50
 70
     1
102
RTVSPost2010Prop51ColorIndex
 90
      256
102
RTVSPost2010Prop51ColorRGB
 90
-16777216
102
RTVSPost2010PropOp51
 70
     0
102
RTVSPost2010Prop52
140
1.0
102
RTVSPost2010PropOp52
 70
     0
102
RTVSPost2010Prop53
 90
        2
102
RTVSPost2010PropOp53
 70
     1
102
RTVSPost2010Prop54
  1
strokes_ogs.tif
102
RTVSPost2010PropOp54
 70
     1
102
RTVSPost2010Prop55
280
     0
102
RTVSPost2010PropOp55
 70
     1
102
RTVSPost2010Prop56
140
1.0
102
RTVSPost2010PropOp56
 70
     1
102
RTVSPost2010Prop57
140
1.0
102
RTVSPost2010PropOp57
 70
     1
  0
XRECORD
  5
104C
102
{ACAD_REACTORS
330
104B
102
}
330
104B
100
AcDbXrecord
280
     1
102
RTVSPost2010Prop28
280
     0
102
RTVSPost2010PropOp28
 70
     1
102
RTVSPost2010Prop29
280
     1
102
RTVSPost2010PropOp29
 70
     1
102
RTVSPost2010Prop30
280
     1
102
RTVSPost2010PropOp30
 70
     1
102
RTVSPost2010Prop31
280
     0
102
RTVSPost2010PropOp31
 70
     1
102
RTVSPost2010Prop32
280
     0
102
RTVSPost2010PropOp32
 70
     1
102
RTVSPost2010Prop33
280
     0
102
RTVSPost2010PropOp33
 70
     1
102
RTVSPost2010Prop34
280
     0
102
RTVSPost2010PropOp34
 70
     1
102
RTVSPost2010Prop35
280
     0
102
RTVSPost2010PropOp35
 70
     1
102
RTVSPost2010Prop36
280
     0
102
RTVSPost2010PropOp36
 70
     1
102
RTVSPost2010Prop37
 90
       50
102
RTVSPost2010PropOp37
 70
     1
102
RTVSPost2010Prop38
140
0.0
102
RTVSPost2010PropOp38
 70
     1
102
RTVSPost2010Prop39
140
1.0
102
RTVSPost2010PropOp39
 70
     1
102
RTVSPost2010Prop40
 90
        0
102
RTVSPost2010PropOp40
 70
     1
102
RTVSPost2010Prop41ColorIndex
 90
       18
102
RTVSPost2010Prop41ColorRGB
 90
        0
102
RTVSPost2010PropOp41
 70
     1
102
RTVSPost2010Prop42
 90
       50
102
RTVSPost2010PropOp42
 70
     1
102
RTVSPost2010Prop43
 90
        3
102
RTVSPost2010PropOp43
 70
     1
102
RTVSPost2010Prop44ColorIndex
 90
        5
102
RTVSPost2010Prop44ColorRGB
 90
      255
102
RTVSPost2010PropOp44
 70
     1
102
RTVSPost2010Prop45
280
     0
102
RTVSPost2010PropOp45
 70
     1
102
RTVSPost2010Prop46
 90
       50
102
RTVSPost2010PropOp46
 70
     1
102
RTVSPost2010Prop47
 90
       50
102
RTVSPost2010PropOp47
 70
     1
102
RTVSPost2010Prop48
 90
       50
102
RTVSPost2010PropOp48
 70
     1
102
RTVSPost2010Prop49
280
     0
102
RTVSPost2010PropOp49
 70
     1
102
RTVSPost2010Prop50
 90
       50
102
RTVSPost2010PropOp50
 70
     1
102
RTVSPost2010Prop51ColorIndex
 90
      256
102
RTVSPost2010Prop51ColorRGB
 90
-16777216
102
RTVSPost2010PropOp51
 70
     0
102
RTVSPost2010Prop52
140
1.0
102
RTVSPost2010PropOp52
 70
     0
102
RTVSPost2010Prop53
 90
        2
102
RTVSPost2010PropOp53
 70
     1
102
RTVSPost2010Prop54
  1
strokes_ogs.tif
102
RTVSPost2010PropOp54
 70
     1
102
RTVSPost2010Prop55
280
     0
102
RTVSPost2010PropOp55
 70
     1
102
RTVSPost2010Prop56
140
1.0
102
RTVSPost2010PropOp56
 70
     1
102
RTVSPost2010Prop57
140
1.0
102
RTVSPost2010PropOp57
 70
     1
  0
XRECORD
  5
104A
102
{ACAD_REACTORS
330
1049
102
}
330
1049
100
AcDbXrecord
280
     1
102
RTVSPost2010Prop28
280
     0
102
RTVSPost2010PropOp28
 70
     1
102
RTVSPost2010Prop29
280
     1
102
RTVSPost2010PropOp29
 70
     1
102
RTVSPost2010Prop30
280
     1
102
RTVSPost2010PropOp30
 70
     1
102
RTVSPost2010Prop31
280
     0
102
RTVSPost2010PropOp31
 70
     1
102
RTVSPost2010Prop32
280
     0
102
RTVSPost2010PropOp32
 70
     1
102
RTVSPost2010Prop33
280
     0
102
RTVSPost2010PropOp33
 70
     1
102
RTVSPost2010Prop34
280
     0
102
RTVSPost2010PropOp34
 70
     1
102
RTVSPost2010Prop35
280
     0
102
RTVSPost2010PropOp35
 70
     1
102
RTVSPost2010Prop36
280
     0
102
RTVSPost2010PropOp36
 70
     1
102
RTVSPost2010Prop37
 90
       50
102
RTVSPost2010PropOp37
 70
     1
102
RTVSPost2010Prop38
140
0.0
102
RTVSPost2010PropOp38
 70
     1
102
RTVSPost2010Prop39
140
1.0
102
RTVSPost2010PropOp39
 70
     1
102
RTVSPost2010Prop40
 90
        0
102
RTVSPost2010PropOp40
 70
     1
102
RTVSPost2010Prop41ColorIndex
 90
       18
102
RTVSPost2010Prop41ColorRGB
 90
        0
102
RTVSPost2010PropOp41
 70
     1
102
RTVSPost2010Prop42
 90
       50
102
RTVSPost2010PropOp42
 70
     1
102
RTVSPost2010Prop43
 90
        3
102
RTVSPost2010PropOp43
 70
     1
102
RTVSPost2010Prop44ColorIndex
 90
        5
102
RTVSPost2010Prop44ColorRGB
 90
      255
102
RTVSPost2010PropOp44
 70
     1
102
RTVSPost2010Prop45
280
     0
102
RTVSPost2010PropOp45
 70
     1
102
RTVSPost2010Prop46
 90
       50
102
RTVSPost2010PropOp46
 70
     1
102
RTVSPost2010Prop47
 90
       50
102
RTVSPost2010PropOp47
 70
     1
102
RTVSPost2010Prop48
 90
       50
102
RTVSPost2010PropOp48
 70
     1
102
RTVSPost2010Prop49
280
     0
102
RTVSPost2010PropOp49
 70
     1
102
RTVSPost2010Prop50
 90
       50
102
RTVSPost2010PropOp50
 70
     1
102
RTVSPost2010Prop51ColorIndex
 90
      256
102
RTVSPost2010Prop51ColorRGB
 90
-16777216
102
RTVSPost2010PropOp51
 70
     0
102
RTVSPost2010Prop52
140
1.0
102
RTVSPost2010PropOp52
 70
     0
102
RTVSPost2010Prop53
 90
        2
102
RTVSPost2010PropOp53
 70
     1
102
RTVSPost2010Prop54
  1
strokes_ogs.tif
102
RTVSPost2010PropOp54
 70
     1
102
RTVSPost2010Prop55
280
     0
102
RTVSPost2010PropOp55
 70
     1
102
RTVSPost2010Prop56
140
1.0
102
RTVSPost2010PropOp56
 70
     1
102
RTVSPost2010Prop57
140
1.0
102
RTVSPost2010PropOp57
 70
     1
  0
XRECORD
  5
1044
102
{ACAD_REACTORS
330
1043
102
}
330
1043
100
AcDbXrecord
280
     1
102
RTVSPost2010Prop28
280
     0
102
RTVSPost2010PropOp28
 70
     1
102
RTVSPost2010Prop29
280
     1
102
RTVSPost2010PropOp29
 70
     1
102
RTVSPost2010Prop30
280
     1
102
RTVSPost2010PropOp30
 70
     1
102
RTVSPost2010Prop31
280
     0
102
RTVSPost2010PropOp31
 70
     1
102
RTVSPost2010Prop32
280
     0
102
RTVSPost2010PropOp32
 70
     1
102
RTVSPost2010Prop33
280
     0
102
RTVSPost2010PropOp33
 70
     1
102
RTVSPost2010Prop34
280
     0
102
RTVSPost2010PropOp34
 70
     1
102
RTVSPost2010Prop35
280
     0
102
RTVSPost2010PropOp35
 70
     1
102
RTVSPost2010Prop36
280
     0
102
RTVSPost2010PropOp36
 70
     1
102
RTVSPost2010Prop37
 90
       50
102
RTVSPost2010PropOp37
 70
     1
102
RTVSPost2010Prop38
140
0.0
102
RTVSPost2010PropOp38
 70
     1
102
RTVSPost2010Prop39
140
1.0
102
RTVSPost2010PropOp39
 70
     1
102
RTVSPost2010Prop40
 90
        0
102
RTVSPost2010PropOp40
 70
     1
102
RTVSPost2010Prop41ColorIndex
 90
       18
102
RTVSPost2010Prop41ColorRGB
 90
        0
102
RTVSPost2010PropOp41
 70
     1
102
RTVSPost2010Prop42
 90
       50
102
RTVSPost2010PropOp42
 70
     1
102
RTVSPost2010Prop43
 90
        3
102
RTVSPost2010PropOp43
 70
     1
102
RTVSPost2010Prop44ColorIndex
 90
        5
102
RTVSPost2010Prop44ColorRGB
 90
      255
102
RTVSPost2010PropOp44
 70
     1
102
RTVSPost2010Prop45
280
     0
102
RTVSPost2010PropOp45
 70
     1
102
RTVSPost2010Prop46
 90
       50
102
RTVSPost2010PropOp46
 70
     1
102
RTVSPost2010Prop47
 90
       50
102
RTVSPost2010PropOp47
 70
     1
102
RTVSPost2010Prop48
 90
       50
102
RTVSPost2010PropOp48
 70
     1
102
RTVSPost2010Prop49
280
     0
102
RTVSPost2010PropOp49
 70
     1
102
RTVSPost2010Prop50
 90
       50
102
RTVSPost2010PropOp50
 70
     1
102
RTVSPost2010Prop51ColorIndex
 90
      256
102
RTVSPost2010Prop51ColorRGB
 90
-16777216
102
RTVSPost2010PropOp51
 70
     0
102
RTVSPost2010Prop52
140
1.0
102
RTVSPost2010PropOp52
 70
     0
102
RTVSPost2010Prop53
 90
        2
102
RTVSPost2010PropOp53
 70
     1
102
RTVSPost2010Prop54
  1
strokes_ogs.tif
102
RTVSPost2010PropOp54
 70
     1
102
RTVSPost2010Prop55
280
     0
102
RTVSPost2010PropOp55
 70
     1
102
RTVSPost2010Prop56
140
1.0
102
RTVSPost2010PropOp56
 70
     1
102
RTVSPost2010Prop57
140
1.0
102
RTVSPost2010PropOp57
 70
     1
  0
XRECORD
  5
1046
102
{ACAD_REACTORS
330
1045
102
}
330
1045
100
AcDbXrecord
280
     1
102
RTVSPost2010Prop28
280
     0
102
RTVSPost2010PropOp28
 70
     1
102
RTVSPost2010Prop29
280
     1
102
RTVSPost2010PropOp29
 70
     1
102
RTVSPost2010Prop30
280
     1
102
RTVSPost2010PropOp30
 70
     1
102
RTVSPost2010Prop31
280
     0
102
RTVSPost2010PropOp31
 70
     1
102
RTVSPost2010Prop32
280
     0
102
RTVSPost2010PropOp32
 70
     1
102
RTVSPost2010Prop33
280
     0
102
RTVSPost2010PropOp33
 70
     1
102
RTVSPost2010Prop34
280
     0
102
RTVSPost2010PropOp34
 70
     1
102
RTVSPost2010Prop35
280
     0
102
RTVSPost2010PropOp35
 70
     1
102
RTVSPost2010Prop36
280
     0
102
RTVSPost2010PropOp36
 70
     1
102
RTVSPost2010Prop37
 90
       50
102
RTVSPost2010PropOp37
 70
     1
102
RTVSPost2010Prop38
140
0.0
102
RTVSPost2010PropOp38
 70
     1
102
RTVSPost2010Prop39
140
1.0
102
RTVSPost2010PropOp39
 70
     1
102
RTVSPost2010Prop40
 90
        0
102
RTVSPost2010PropOp40
 70
     1
102
RTVSPost2010Prop41ColorIndex
 90
       18
102
RTVSPost2010Prop41ColorRGB
 90
        0
102
RTVSPost2010PropOp41
 70
     1
102
RTVSPost2010Prop42
 90
       50
102
RTVSPost2010PropOp42
 70
     1
102
RTVSPost2010Prop43
 90
        3
102
RTVSPost2010PropOp43
 70
     1
102
RTVSPost2010Prop44ColorIndex
 90
        5
102
RTVSPost2010Prop44ColorRGB
 90
      255
102
RTVSPost2010PropOp44
 70
     1
102
RTVSPost2010Prop45
280
     0
102
RTVSPost2010PropOp45
 70
     1
102
RTVSPost2010Prop46
 90
       50
102
RTVSPost2010PropOp46
 70
     1
102
RTVSPost2010Prop47
 90
       50
102
RTVSPost2010PropOp47
 70
     1
102
RTVSPost2010Prop48
 90
       50
102
RTVSPost2010PropOp48
 70
     1
102
RTVSPost2010Prop49
280
     0
102
RTVSPost2010PropOp49
 70
     1
102
RTVSPost2010Prop50
 90
       50
102
RTVSPost2010PropOp50
 70
     1
102
RTVSPost2010Prop51ColorIndex
 90
      256
102
RTVSPost2010Prop51ColorRGB
 90
-16777216
102
RTVSPost2010PropOp51
 70
     0
102
RTVSPost2010Prop52
140
1.0
102
RTVSPost2010PropOp52
 70
     0
102
RTVSPost2010Prop53
 90
        2
102
RTVSPost2010PropOp53
 70
     1
102
RTVSPost2010Prop54
  1
strokes_ogs.tif
102
RTVSPost2010PropOp54
 70
     1
102
RTVSPost2010Prop55
280
     0
102
RTVSPost2010PropOp55
 70
     1
102
RTVSPost2010Prop56
140
1.0
102
RTVSPost2010PropOp56
 70
     1
102
RTVSPost2010Prop57
140
1.0
102
RTVSPost2010PropOp57
 70
     1
  0
XRECORD
  5
1036
102
{ACAD_REACTORS
330
1035
102
}
330
1035
100
AcDbXrecord
280
     1
102
RTVSPost2010Prop28
280
     0
102
RTVSPost2010PropOp28
 70
     1
102
RTVSPost2010Prop29
280
     1
102
RTVSPost2010PropOp29
 70
     1
102
RTVSPost2010Prop30
280
     1
102
RTVSPost2010PropOp30
 70
     1
102
RTVSPost2010Prop31
280
     0
102
RTVSPost2010PropOp31
 70
     1
102
RTVSPost2010Prop32
280
     0
102
RTVSPost2010PropOp32
 70
     1
102
RTVSPost2010Prop33
280
     0
102
RTVSPost2010PropOp33
 70
     1
102
RTVSPost2010Prop34
280
     0
102
RTVSPost2010PropOp34
 70
     1
102
RTVSPost2010Prop35
280
     0
102
RTVSPost2010PropOp35
 70
     1
102
RTVSPost2010Prop36
280
     0
102
RTVSPost2010PropOp36
 70
     1
102
RTVSPost2010Prop37
 90
       50
102
RTVSPost2010PropOp37
 70
     1
102
RTVSPost2010Prop38
140
0.0
102
RTVSPost2010PropOp38
 70
     1
102
RTVSPost2010Prop39
140
1.0
102
RTVSPost2010PropOp39
 70
     1
102
RTVSPost2010Prop40
 90
        0
102
RTVSPost2010PropOp40
 70
     1
102
RTVSPost2010Prop41ColorIndex
 90
       18
102
RTVSPost2010Prop41ColorRGB
 90
        0
102
RTVSPost2010PropOp41
 70
     1
102
RTVSPost2010Prop42
 90
       50
102
RTVSPost2010PropOp42
 70
     1
102
RTVSPost2010Prop43
 90
        3
102
RTVSPost2010PropOp43
 70
     1
102
RTVSPost2010Prop44ColorIndex
 90
        5
102
RTVSPost2010Prop44ColorRGB
 90
      255
102
RTVSPost2010PropOp44
 70
     1
102
RTVSPost2010Prop45
280
     0
102
RTVSPost2010PropOp45
 70
     1
102
RTVSPost2010Prop46
 90
       50
102
RTVSPost2010PropOp46
 70
     1
102
RTVSPost2010Prop47
 90
       50
102
RTVSPost2010PropOp47
 70
     1
102
RTVSPost2010Prop48
 90
       50
102
RTVSPost2010PropOp48
 70
     1
102
RTVSPost2010Prop49
280
     0
102
RTVSPost2010PropOp49
 70
     1
102
RTVSPost2010Prop50
 90
       50
102
RTVSPost2010PropOp50
 70
     1
102
RTVSPost2010Prop51ColorIndex
 90
      256
102
RTVSPost2010Prop51ColorRGB
 90
-16777216
102
RTVSPost2010PropOp51
 70
     0
102
RTVSPost2010Prop52
140
1.0
102
RTVSPost2010PropOp52
 70
     0
102
RTVSPost2010Prop53
 90
        2
102
RTVSPost2010PropOp53
 70
     1
102
RTVSPost2010Prop54
  1
strokes_ogs.tif
102
RTVSPost2010PropOp54
 70
     1
102
RTVSPost2010Prop55
280
     0
102
RTVSPost2010PropOp55
 70
     1
102
RTVSPost2010Prop56
140
1.0
102
RTVSPost2010PropOp56
 70
     1
102
RTVSPost2010Prop57
140
1.0
102
RTVSPost2010PropOp57
 70
     1
  0
XRECORD
  5
1028
102
{ACAD_REACTORS
330
1027
102
}
330
1027
100
AcDbXrecord
280
     1
102
RTVSPost2010Prop28
280
     0
102
RTVSPost2010PropOp28
 70
     1
102
RTVSPost2010Prop29
280
     1
102
RTVSPost2010PropOp29
 70
     1
102
RTVSPost2010Prop30
280
     1
102
RTVSPost2010PropOp30
 70
     1
102
RTVSPost2010Prop31
280
     0
102
RTVSPost2010PropOp31
 70
     1
102
RTVSPost2010Prop32
280
     0
102
RTVSPost2010PropOp32
 70
     1
102
RTVSPost2010Prop33
280
     0
102
RTVSPost2010PropOp33
 70
     1
102
RTVSPost2010Prop34
280
     0
102
RTVSPost2010PropOp34
 70
     1
102
RTVSPost2010Prop35
280
     0
102
RTVSPost2010PropOp35
 70
     1
102
RTVSPost2010Prop36
280
     0
102
RTVSPost2010PropOp36
 70
     1
102
RTVSPost2010Prop37
 90
       50
102
RTVSPost2010PropOp37
 70
     1
102
RTVSPost2010Prop38
140
0.0
102
RTVSPost2010PropOp38
 70
     1
102
RTVSPost2010Prop39
140
1.0
102
RTVSPost2010PropOp39
 70
     1
102
RTVSPost2010Prop40
 90
        0
102
RTVSPost2010PropOp40
 70
     1
102
RTVSPost2010Prop41ColorIndex
 90
       18
102
RTVSPost2010Prop41ColorRGB
 90
        0
102
RTVSPost2010PropOp41
 70
     1
102
RTVSPost2010Prop42
 90
       50
102
RTVSPost2010PropOp42
 70
     1
102
RTVSPost2010Prop43
 90
        3
102
RTVSPost2010PropOp43
 70
     1
102
RTVSPost2010Prop44ColorIndex
 90
        5
102
RTVSPost2010Prop44ColorRGB
 90
      255
102
RTVSPost2010PropOp44
 70
     1
102
RTVSPost2010Prop45
280
     0
102
RTVSPost2010PropOp45
 70
     1
102
RTVSPost2010Prop46
 90
       50
102
RTVSPost2010PropOp46
 70
     1
102
RTVSPost2010Prop47
 90
       50
102
RTVSPost2010PropOp47
 70
     1
102
RTVSPost2010Prop48
 90
       50
102
RTVSPost2010PropOp48
 70
     1
102
RTVSPost2010Prop49
280
     0
102
RTVSPost2010PropOp49
 70
     1
102
RTVSPost2010Prop50
 90
       50
102
RTVSPost2010PropOp50
 70
     1
102
RTVSPost2010Prop51ColorIndex
 90
      256
102
RTVSPost2010Prop51ColorRGB
 90
-16777216
102
RTVSPost2010PropOp51
 70
     0
102
RTVSPost2010Prop52
140
1.0
102
RTVSPost2010PropOp52
 70
     0
102
RTVSPost2010Prop53
 90
        2
102
RTVSPost2010PropOp53
 70
     1
102
RTVSPost2010Prop54
  1
strokes_ogs.tif
102
RTVSPost2010PropOp54
 70
     1
102
RTVSPost2010Prop55
280
     0
102
RTVSPost2010PropOp55
 70
     1
102
RTVSPost2010Prop56
140
1.0
102
RTVSPost2010PropOp56
 70
     1
102
RTVSPost2010Prop57
140
1.0
102
RTVSPost2010PropOp57
 70
     1
  0
XRECORD
  5
1048
102
{ACAD_REACTORS
330
1047
102
}
330
1047
100
AcDbXrecord
280
     1
102
RTVSPost2010Prop28
280
     0
102
RTVSPost2010PropOp28
 70
     1
102
RTVSPost2010Prop29
280
     1
102
RTVSPost2010PropOp29
 70
     1
102
RTVSPost2010Prop30
280
     1
102
RTVSPost2010PropOp30
 70
     1
102
RTVSPost2010Prop31
280
     0
102
RTVSPost2010PropOp31
 70
     1
102
RTVSPost2010Prop32
280
     0
102
RTVSPost2010PropOp32
 70
     1
102
RTVSPost2010Prop33
280
     0
102
RTVSPost2010PropOp33
 70
     1
102
RTVSPost2010Prop34
280
     0
102
RTVSPost2010PropOp34
 70
     1
102
RTVSPost2010Prop35
280
     0
102
RTVSPost2010PropOp35
 70
     1
102
RTVSPost2010Prop36
280
     0
102
RTVSPost2010PropOp36
 70
     1
102
RTVSPost2010Prop37
 90
       50
102
RTVSPost2010PropOp37
 70
     1
102
RTVSPost2010Prop38
140
0.0
102
RTVSPost2010PropOp38
 70
     1
102
RTVSPost2010Prop39
140
1.0
102
RTVSPost2010PropOp39
 70
     1
102
RTVSPost2010Prop40
 90
        0
102
RTVSPost2010PropOp40
 70
     1
102
RTVSPost2010Prop41ColorIndex
 90
       18
102
RTVSPost2010Prop41ColorRGB
 90
        0
102
RTVSPost2010PropOp41
 70
     1
102
RTVSPost2010Prop42
 90
       50
102
RTVSPost2010PropOp42
 70
     1
102
RTVSPost2010Prop43
 90
        3
102
RTVSPost2010PropOp43
 70
     1
102
RTVSPost2010Prop44ColorIndex
 90
        5
102
RTVSPost2010Prop44ColorRGB
 90
      255
102
RTVSPost2010PropOp44
 70
     1
102
RTVSPost2010Prop45
280
     0
102
RTVSPost2010PropOp45
 70
     1
102
RTVSPost2010Prop46
 90
       50
102
RTVSPost2010PropOp46
 70
     1
102
RTVSPost2010Prop47
 90
       50
102
RTVSPost2010PropOp47
 70
     1
102
RTVSPost2010Prop48
 90
       50
102
RTVSPost2010PropOp48
 70
     1
102
RTVSPost2010Prop49
280
     0
102
RTVSPost2010PropOp49
 70
     1
102
RTVSPost2010Prop50
 90
       50
102
RTVSPost2010PropOp50
 70
     1
102
RTVSPost2010Prop51ColorIndex
 90
      256
102
RTVSPost2010Prop51ColorRGB
 90
-16777216
102
RTVSPost2010PropOp51
 70
     0
102
RTVSPost2010Prop52
140
1.0
102
RTVSPost2010PropOp52
 70
     0
102
RTVSPost2010Prop53
 90
        2
102
RTVSPost2010PropOp53
 70
     1
102
RTVSPost2010Prop54
  1
strokes_ogs.tif
102
RTVSPost2010PropOp54
 70
     1
102
RTVSPost2010Prop55
280
     0
102
RTVSPost2010PropOp55
 70
     1
102
RTVSPost2010Prop56
140
1.0
102
RTVSPost2010PropOp56
 70
     1
102
RTVSPost2010Prop57
140
1.0
102
RTVSPost2010PropOp57
 70
     1
  0
ENDSEC
  0
SECTION
  2
THUMBNAILIMAGE
 90
    17448
310
28000000800000008000000001000800000000000040000000000000000000000000000000000000FFFFFFFF0000FFFF00FFFFFF00FF00FFFFFF00FFFF0000FFFF00FFFF000000FF808080FFC0C0C0FF0000FFFF7F7FFFFF0000A5FF5252A5FF00007FFF3F3F7FFF00004CFF26264CFF000026FF131326FF003FFFFF7F9FFF
310
FF0029A5FF5267A5FF001F7FFF3F4F7FFF00134CFF262F4CFF000926FF131726FF007FFFFF7FBFFFFF0052A5FF527CA5FF003F7FFF3F5F7FFF00264CFF26394CFF001326FF131C26FF00BFFFFF7FDFFFFF007CA5FF5291A5FF005F7FFF3F6F7FFF00394CFF26424CFF001C26FF132126FF00FFFFFF7FFFFFFF00A5A5FF52A5
310
A5FF007F7FFF3F7F7FFF004C4CFF264C4CFF002626FF132626FF00FFBFFF7FFFDFFF00A57CFF52A591FF007F5FFF3F7F6FFF004C39FF264C42FF00261CFF132621FF00FF7FFF7FFFBFFF00A552FF52A57CFF007F3FFF3F7F5FFF004C26FF264C39FF002613FF13261CFF00FF3FFF7FFF9FFF00A529FF52A567FF007F1FFF3F
310
7F4FFF004C13FF264C2FFF002609FF132617FF00FF00FF7FFF7FFF00A500FF52A552FF007F00FF3F7F3FFF004C00FF264C26FF002600FF132613FF3FFF00FF9FFF7FFF29A500FF67A552FF1F7F00FF4F7F3FFF134C00FF2F4C26FF092600FF172613FF7FFF00FFBFFF7FFF52A500FF7CA552FF3F7F00FF5F7F3FFF264C00FF
310
394C26FF132600FF1C2613FFBFFF00FFDFFF7FFF7CA500FF91A552FF5F7F00FF6F7F3FFF394C00FF424C26FF1C2600FF212613FFFFFF00FFFFFF7FFFA5A500FFA5A552FF7F7F00FF7F7F3FFF4C4C00FF4C4C26FF262600FF262613FFFFBF00FFFFDF7FFFA57C00FFA59152FF7F5F00FF7F6F3FFF4C3900FF4C4226FF261C00
310
FF262113FFFF7F00FFFFBF7FFFA55200FFA57C52FF7F3F00FF7F5F3FFF4C2600FF4C3926FF261300FF261C13FFFF3F00FFFF9F7FFFA52900FFA56752FF7F1F00FF7F4F3FFF4C1300FF4C2F26FF260900FF261713FFFF0000FFFF7F7FFFA50000FFA55252FF7F0000FF7F3F3FFF4C0000FF4C2626FF260000FF261313FFFF00
310
3FFFFF7F9FFFA50029FFA55267FF7F001FFF7F3F4FFF4C0013FF4C262FFF260009FF261317FFFF007FFFFF7FBFFFA50052FFA5527CFF7F003FFF7F3F5FFF4C0026FF4C2639FF260013FF26131CFFFF00BFFFFF7FDFFFA5007CFFA55291FF7F005FFF7F3F6FFF4C0039FF4C2642FF26001CFF261321FFFF00FFFFFF7FFFFFA5
310
00A5FFA552A5FF7F007FFF7F3F7FFF4C004CFF4C264CFF260026FF261326FFBF00FFFFDF7FFFFF7C00A5FF9152A5FF5F007FFF6F3F7FFF39004CFF42264CFF1C0026FF211326FF7F00FFFFBF7FFFFF5200A5FF7C52A5FF3F007FFF5F3F7FFF26004CFF39264CFF130026FF1C1326FF3F00FFFF9F7FFFFF2900A5FF6752A5FF
310
1F007FFF4F3F7FFF13004CFF2F264CFF090026FF171326FF000000FF2D2D2DFF5B5B5BFF898989FFB7B7B7FFB3B3B3FF00000000000000000000000000000000000000000000000000000000000000000000000000000000000000000000000000000000000000000000000000000000000000000000000000000000000000
310
00000000000000000000000000000000000000000000000000000000000000000000000000000000000000000000000000000000000000000000000000000000000000000000000000000000000000000000000000000000000000000000000000000000000000000000000000000000000000000000000000000000000000
310
00000000000000000000000000000000000000000000000000000000000000000000000000000000000000000000000000000000000000000000000000000000070707070707070707070707070707070707070707070707070707070707070707070707070707070707070707070707070707070707070707070707070707
310
07070707070707070707070707070707070707070707070707070707070707070707070707070707070707070707070707070700000000000000000000000000000700000000000000000000000000000000000000000000000000000000000000000000000000000000000000000000000000000000000000000000000000
310
00000000000000000000000000000000000000000000000000000000000000000000000000000000000000000000000000000000000000000000000000000000000007000000000000000000000000000000000000000000000000000000000000000000000000000000000000000000000000000000000000000000000000
310
00000000000000000000000000000000000000000000000000000000000000000000000000000000000000000000000000000000000000000000000000000000000000070000000000000000000000000000000000000000000000000000000000000000000000000000000000000000000000000000000000000000000000
310
00000000000000000000000000000000000000000000000000000000000000000000000000000000000000000000000000000000000000000000000000000000000000000700000000000000000000000000000000000000000000000000000000000000000000000000000000000000000000000000000000000000000000
310
00000000000000000000000000000000000000000000000000000000000000000000000000000000000000000000000000000000000000000000000000000000000000000007000000000000000000000000000000000000000000000000000000000000000000000000000000000000000000000000000000000000000000
310
00000000000000000000000000000000000000000000000000000000000000000000000000000000000000000000000000000000000000000000000000000000000000000000070000000000000000000000000000000000000000000000000000000000000000000000000000000000000000000000000000000000000000
310
00000000000000000000000000000000000000000000000000000000000000000000000000000000000000000000000000000000000000000000000000000000000000000000000700000000000000000000000000000000000000000000000000000000000000000000000000000000000000000000000000000000000000
310
00000000000000000000000000000000000000000000000000000000000000000000000000000000000000000000000000000000000000000000000000000000000000000000000007000000000000000000000000000000000000000000000000000000000000000000000000000000000000000000000000000000000000
310
00000000000000000000000000000000000000000000000000000000000000000000000000000000000000000000000000000000000000000000000000000000000000000000000000070000000000000000000000000000000000000000000000000000000000000000000000000000000000000000000000000000000000
310
00000000000000000000000000000000000000000000000000000000000000000000000000000000000000000000000000000000000000000000000000000000000000000000000000000700000000000000000000000000000000000000000000000000000000000000000000000000000000000000000000000000000000
310
00000000000000000000000000000000000000000000000000000000000000000000000000000000000000000000000000000000000000000000000000000000000000000000000000000007000000000000000000000000000000000000000000000000000000000000000000000000000000000000000000000000000000
310
00000000000000000000000000000000000000000000000000000000000000000000000000000000000000000000000000000000000000000000000000000000000000000000000000000000070000000000000000000000000000000000000000000000000000000000000000000000000000000000000000000000000000
310
00000000000000000000000000000000000000000000000000000000000000000000000000000000000000000000000000000000000000000000000000000000000000000000000000000000000700000000000000000000000000000000000000000000000000000000000000000000000000000000000000000000000000
310
00000000000000000000000000000000000000000000000000000000000000000000000000000000000000000000000000000000000000000000000000000000000000000000000000000000000007000000000000000000000000000000000000000000000000000000000000000000000000000000000000000000000000
310
00000000000000000000000000000000000000000000000000000000000000000000000000000000000000000000000000000000000000000000000000000000000000000000000000000000000000070000000000000000000000000000000000000000000000000000000000000000000000000000000000000000000000
310
00000000000000000000000000000000000000000000000000000000000000000000000000000000000000000000000000000000000000000000000000000000000000000000000000000000000000000700000000000000000000000000000000000000000000000000000000000000000000000000000000000000000000
310
00000000000000000000000000000000000000000000000000000000000000000000000000000000000000000000000000000000000000000000000000000000000000000000000000000000000000000007000000000000000000000000000000000000000000000000000000000000000000000000000000000000000000
310
00000000000000000000000000000000000000000000000000000000000000000000000000000000000000000000000000000000000000000000000000000000000000000000000000000000000000000000070000000000000000000000000000000000000000000000000000000000000000000000000000000000000000
310
00000000000000000000000000000000000000000000000000000000000000000000000000000000000000000000000000000000000000000000000000000000000000000000000000000000000000000000000700000000000000000000000000000000000000000000000000000000000000000000000000000000000000
310
00000000000000000000000000000000000000000000000000000000000000000000000000000000000000000000000000000000000000000000000000000000000000000000000000000000000000000000000007000000000000000000000000000000000000000000000000000000000000000000000000000000000000
310
00000000000000000000000000000000000000000000000000000000000000000000000000000000000000000000000000000000000000000000000000000000000000000000000000000000000000000000000000070000000000000000000000000000000000000000000000000000000000000000000000000000000000
310
00000000000000000000000000000000000000000000000000000000000000000000000000000000000000000000000000000000000000000000000000000000000000000000000000000000000000000000000000000700000000000000000000000000000000000000000000000000000000000000000000000000000000
310
00000000000000000000000000000000000000000000000000000000000000000000000000000000000000000000000000000000000000000000000000000000000000000000000000000000000000000000000000000007000000000000000000000000000000000000000000000000000000000000000000000000000000
310
00000000000000000000000000000000000000000000000000000000000000000000000000000000000000000000000000000000000000000000000000000000000000000000000000000000000000000000000000000000070000000000000000000000000000000000000000000000000000000000000000000000000000
310
00000000000000000000000000000000000000000000000000000000000000000000000000000000000000000000000000000000000000000000000000000000000000000000000000000000000000000000000000000000000700000000000000000000000000000000000000000000000000000000000000000000000000
310
00000000000000000000000000000000000000000000000000000000000000000000000000000000000000000000000000000000000000000000000000000000000000000000000000000000000000000000000000000000000007000000000000000000000000000000000000000000000000000000000000000000000000
310
00000000000000000000000000000000000000000000000000000000000000000000000000000000000000000000000000000000000000000000000000000000000000000000000000000000000000000000000000000000000000070000000000000000000000000000000000000000000000000000000000000000000000
310
00000000000000000000000000000000000000000000000000000000000000000000000000000000000000000000000000000000000000000000000000000000000000000000000000000000000000000000000000000000000000000700000000000000000000000000000000000000000000000000000000000000000000
310
00000000000000000000000000000000000000000000000000000000000000000000000000000000000000000000000000000000000000000000000000000000000000000000000000000000000000000000000000000000000000000007000000000000000000000000000000000000000000000000000000000000000000
310
00000000000000000000000000000000000000000000000000000000000000000000000000000000000000000000000000000000000000000000000000000000000000000000000000000000000000000000000000000000000000000000070000000000000000000000000000000000000000000000000000000000000000
310
00000000000000000000000000000000000000000000000000000000000000000000000000000000000000000000000000000000000000000000000000000000000000000000000000000000000000000000000000000000000000000000000700000000000000000000000000000000000000000000000000000000000000
310
00000000000000000000000000000000000000000000000000000000000000000000000000000000000000000000000000000000000000000000000000000000000000000000000000000000000000000000000000000000000000000000000007000000000000000000000000000000000000000000000000000000000000
310
00000000000000000000000000000000000000000000000000000000000000000000000000000000000000000000000000000000000000000000000000000000000000000000000000000000000000000000000000000000000000000000000000070000000000000000000000000000000000000000000000000000000000
310
00000000000000000000000000000000000000000000000000000000000000000000000000000000000000000000000000000000000000000000000000000000000000000000000000000000000000000000000000000000000000000000000000000700000000000000000000000000000000000000000000000000000000
310
00000000000000000000000000000000000000000000000000000000000000000000000000000000000000000000000000000000000000000000000000000000000000000000000000000000000000000000000000000000000000000000000000000007000000000000000000000000000000000000000000000000000000
310
00000000000000000000000000000000000000000000000000000000000000000000000000000000000000000000000000000000000000000000000000000000000000000000000000000000000000000000000000000000000000000000000000000000070000000000000000000000000000000000000000000000000000
310
00000000000000000000000000000000000000000000000000000000000000000000000000000000000000000000000000000000000000000000000000000000000000000000000000000000000000000000000000000000000000000000000000000000000700000000000000000000000000000000000000000000000000
310
00000000000000000000000000000000000000000000000000000000000000000000000000000000000000000000000000000000000000000000000000000000000000000000000000000000000000000000000000000000000000000000000000000000000007000000000000000000000000000000000000000000000000
310
00000000000000000000000000000000000000000000000000000000000000000000000000000000000000000000000000000000000000000000000000000000000000000000000000000000000000000000000000000000000000000000000000000000000000070000000000000000000000000000000000000000000000
310
00000000000000000000000000000000000000000000000000000000000000000000000000000000000000000000000000000000000000000000000000000000000000000000000000000000000000000000000000000000000000000000000000000000000000000700000000000000000000000000000000000000000000
310
00000000000000000000000000000000000000000000000000000000000000000000000000000000000000000000000000000000000000000000000000000000000000000000000000000000000000000000000000000000000000000000000000000000000000000007000000000000000000000000000000000000000000
310
00000000000000000000000000000000000000000000000000000000000000000000000000000000000000000000000000000000000000000000000000000000000000000000000000000000000000000000000000000000000000000000000000000000000000000000070000000000000000000000000000000000000000
310
00000000000000000000000000000000000000000000000000000000000000000000000000000000000000000000000000000000000000000000000000000000000000000000000000000000000000000000000000000000000000000000000000000000000000000000000700000000000000000000000000000000000000
310
00000000000000000000000000000000000000000000000000000000000000000000000000000000000000000000000000000000000000000000000000000000000000000000000000000000000000000000000000000000000000000000000000000000000000000000000007000000000000000000000000000000000000
310
00000000000000000000000000000000000000000000000000000000000000000000000000000000000000000000000000000000000000000000000000000000000000000000000000000000000000000000000000000000000000000000000000000000000000000000000000070000000000000000000000000000000000
310
00000000000000000000000000000000000000000000000000000000000000000000000000000000000000000000000000000000000000000000000000000000000000000000000000000000000000000000000000000000000000000000000000000000000000000000000000000700000000000000000000000000000000
310
00000000000000000000000000000000000000000000000000000000000000000000000000000000000000000000000000000000000000000000000000000000000000000000000000000000000000000000000000000000000000000000000000000000000000000000000000000007000000000000000000000000000000
310
00000000000000000000000000000000000000000000000000000000000000000000000000000000000000000000000000000000000000000000000000000000000000000000000000000000000000000000000000000000000000000000000000000000000000000000000000000000070000000000000000000000000000
310
00000000000000000000000000000000000000000000000000000000000000000000000000000000000000000000000000000000000000000000000000000000000000000000000000000000000000000000000000000000000000000000000000000000000000000000000000000000000700000000000000000000000000
310
00000000000000000000000000000000000000000000000000000000000000000000000000000000000000000000000000000000000000000000000000000000000000000000000000000000000000000000000000000000000000000000000000000000000000000000000000000000000007000000000000000000000000
310
00000000000000000000000000000000000000000000000000000000000000000000000000000000000000000000000000000000000000000000000000000000000000000000000000000000000000000000000000000000000000000000000000000000000000000000000000000000000000070000000000000000000000
310
00000000000000000000000000000000000000000000000000000000000000000000000000000000000000000000000000000000000000000000000000000000000000000000000000000000000000000000000000000000000000000000000000000000000000000000000000000000000000000700000000000000000000
310
00000000000000000000000000000000000000000000000000000000000000000000000000000000000000000000000000000000000000000000000000000000000000000000000000000000000000000000000000000000000000000000000000000000000000000000000000000000000000000007000000000000000000
310
00000000000000000000000000000000000000000000000000000000000000000000000000000000000000000000000000000000000000000000000000000000000000000000000000000000000000000000000000000000000000000000000000000000000000000000000000000000000000000000070000000000000000
310
00000000000000000000000000000000000000000000000000000000000000000000000000000000000000000000000000000000000000000000000000000000000000000000000000000000000000000000000000000000000000000000000000000000000000000000000000000000000000000000000700000000000000
310
00000000000000000000000000000000000000000000000000000000000000000000000000000000000000000000000000000000000000000000000000000000000000000000000000000000000000000000000000000000000000000000000000000000000000000000000000000000000000000000000007000000000000
310
00000000000000000000000000000000000000000000000000000000000000000000000000000000000000000000000000000000000000000000000000000000000000000000000000000000000000000000000000000000000000000000000000000000000000000000000000000000000000000000000000070000000000
310
00000000000000000000000000000000000000000000000000000000000002020202020202020202020202020202020202020202020202020202020202020202020202020202020202020202020202020202020200000000000000000000000000000000000000000000000000000000000000000000000000000700000000
310
00000000000000000000000000000000000000000000000000000000000000020004048304040483040404040483838304830483048383040404040400040404040404040404040404830483838304040404040002000000000000000000000000000000000000000000000000000000000000000000000000000007000000
310
00000000000000000000000000000000000000000000000000000000000000000283040404040404040404040404040404040404040483040404040404000404040404040404040404040404040404040404040400020000000000000000000000000000000000000000000000000000000000000000000000000000070000
310
00000000000000000000000000000000000000000000000000000000000000000002025B5B515151653C6F65655B51515B5B5B656565653C476F5B655B470251475B5B653C6F65786565465B475B655B6565655B5B020200000000000000000000000000000000000000000000000000000000000000000000000000000700
310
00000000000000000000000000000000000000000000000000000000000000000000020004048304040404048300000000000000000000000000000000000000000000000000000000000000000000000000000000000002000000000000000000000000000000000000000000000000000000000000000000000000000007
310
00000000000000000000000000000000000000000000000000000000000000000000000200040404040404040400000000000000000000000000000000000000000000000000000000000000000000000000000000000000020000000000000000000000000000000000000000000000000000000000000000000000000000
310
07000000000000000000000000000000000000000000000000000000000000000000000002025151513C51474751020202020202020202020202020202023C02020202020202020202020202020202020202020202020202020200000000000000000000000000000000000000000000000000000000000000000000000000
310
00070000000000000000000000000000000000000000000000000000000000000000000000020083000483048304830400838304830083838304838304040404040004040404040400000000000000000000000000000000000002000000000000000000000000000000000000000000000000000000000000000000000000
310
00000700000000000000000000000000000000000000000000000000000000000000000000000200830404040404040404838304040404830404048383048304048300040404040483000000000000000000000000000000000000020000000000000000000000000000000000000000000000000000000000000000000000
310
0000000700000000000000000000000000000000000000000000000000000000000000000000000202023C3C02475B3C02510202473C470202023C3C02024702020202023C3C3C025B020202020202020202020202020202020202020200000000000000000000000000000000000000000000000000000000000000000000
310
00000000070000000000000000000000000000000000000000000000000000000000000000000000020000000000000000000000000000000000000000000000000000000000000000000000000000000000000000000000000000000002000000000000000000000000000000000000000000000000000000000000000000
310
00000000000700000000000000000000000000000000000000000000000000000000000000000000000200000000000000000000000000000000000000000000000000000000000000000000000000000000000000000000000000000000020000000000000000000000000000000000000000000000000000000000000000
310
00000000000007000000000000000000000000000000000000000000000000000000000000000000000002000000000000000000000000000000000000000000000000000000000000000000000000000000000000000000000000000000000200000000000000000000000000000000000000000000000000000000000000
310
00000000000000070000000000000000000000000000000000000000000000000000000000000000000000020000000000000000000000000000000000000000000000000000000000000000000000000000000000000000000000000000000002000000000000000000000000000000000000000000000000000000000000
310
00000000000000000700000000000000000000000000000000000000000000000000000000000000000000000200000000000000000000000000000000000000000000000000000000000000000000000000000000000000000000000000000000020000000000000000000000000000000000000000000000000000000000
310
00000000000000000007000000000000000000000000000000000000000000000000000000000000000000000002000000000000000000000000000000000000000000000000000000000000000000000000000000000000000000000000000000000200000000000000000000000000000000000000000000000000000000
310
00000000000000000000070000000000000000000000000000000000000000000000000000000000000000000000020000000000000000000000000000000000000000000000000000000000000000000000000000000000000000000000000000000002000000000000000000000000000000000000000000000000000000
310
00000000000000000000000700000000000000000000000000000000000000000000000000000000000000000000000200000000000000000000000000000000000000000000060606060606000000000000000000000000000000000000000000000000020000000000000000000000000000000000000000000000000000
310
00000000000000000000000007000000000000000000000000000000000000000000000000000000000000000000000002000000000000000000000000000000000000000000060606060606060600000000000000000000000000000000000000000000000200000000000000000000000000000000000000000000000000
310
00000000000000000000000000070000000000000000000000000000000000000000000000000000000000000000000000020000000000000000000000000000000000000000060606060600000606060000000000000000000000000000000000000000000002000000000000000000000000000000000000000000000000
310
00000000000000000000000000000700000000000000000000000000000000000000000000000000000000000000000000000200000000000000000000000000000000000000060606000006060600000606000000000000000000000000000000000000000000020000000000000000000000000000000000000000000000
310
00000000000000000000000000000007000000000000000000000000000000000000000000000000000000000000000000000002000000000000000000000000000000000000060606060600000000060600000600000000000000000000000000000000000000000200000000000000000000000000000000000000000000
310
00000000000000000000000000000000070000000000000000000000000000000000000000000000000000000000000000000000020000000000000000000000000000000000000600060006060600000000060606000000000000000000000000000000000000000002000000000000000000000000000000000000000000
310
00000000000000000000000000000000000700000000000000000000000000000000000000000000000000000000000000000000000200000000000000000000000000000000000006060600000000060600000000060600000000000000000000000000000000000000020000000000000000000000000000000000000000
310
00000000000000000000000000000000000007000000000000000000000000000000000000000000000000000000000000000000000002000000000000000000000000000000000006000606000000000000060600000006000000000000000000000000000000000000000200000000000000000000000000000000000000
310
00000000000000000000000000000000000000070000000000000000000000000000000000000000000000000000000000000000000000020000000000000000000000000000000000060006000606000000000000060600000600000000000000000000000000000000000002000000000000000000000000000000000000
310
00000000000000000000000000000000000000000700000000000000000000000000000000000000000000000000000000000000000000000200000000000000000000000000000000000600060000000606000000000000060606000000000000000000000000000000000000020000000000000000000000000000000000
310
00000000000000000000000000000000000000000007000000000000000000000000000000000000000000000000000000000000000000000002000000000000000000000000000000000006000600000000000600000000000006060000000000000000000000000000000000000200000000000000000000000000000000
310
00000000000000000000000000000000000000000000070000000000000000000000000000000000000000000000000000000000000000000000020000000000000000000000000000000006000606060000000000060600000000000600000000000000000000000000000000000002000000000000000000000000000000
310
00000000000000000000000000000000000000000000000700000000000000000000000000000000000000000000000000000000000000000000000200000000000000000000000000000000060006060600000000000000060600000000060000000000000000000000000000000000020000000000000000000000000000
310
00000000000000000000000000000000000000000000000007000000000000000000000000000000000000000000000000000000000000000000000002000000000000000000000000000000000600060000060600000000000000060600060000000000000000000000000000000000000200000000000000000000000000
310
00000000000000000000000000000000000000000000000000070000000000000000000000000000000000000000000000000000000000000000000000020000000000000000000000000000000006060006000000060600000000000000060600000000000000000000000000000000000002000000000000000000000000
310
00000000000000000000000000000000000000000000000000000700000000000000000000000000000000000000000000000000000000000000000000000200000000000000000000000000000000060606060600000000060600000000000606000000000000000000000000000000000000020000000000000000000000
310
00000000000000000000000000000000000000000000000000000007000000000000000000000000000000000000000000000000000000000000000000000002000000000000000000000000000000000600060606060600000000060600000000060000000000000000000000000000000000000200000000000000000000
310
00000000000000000000000000000000000000000000000000000000070000000000000000000000000000000000000000000000000000000000000000000000020000000000000000000000000000000006000006060606060606000000060600060600000000000000000000000000000000000002000000000000000000
310
00000000000000000000000000000000000000000000000000000000000700000000000000000000000000000000000000000000000000000000000000000000000200000000000000000000000000000000000606000606000606060606000000060600000000000000000000000000000000000000020000000000000000
310
00000000000000000000000000000000000000000000000000000000000007000000000000000000000000000000000000000000000000000000000000000000000002000000000000000000000000000000000006000606060606060606060606000006000000000000000000000000000000000000000200000000000000
310
00000000000000000000000000000000000000000000000000000000000000070000000000000000000000000000000000000000000000000000000000000000000000020000000000000000000000000000000000000606060606060606060606060006060000000000000000000000000000000000000002000000000000
310
00000000000000000000000000000000000000000000000000000000000000000700000000000000000000000000000000000000000000000000000000000000000000000200000000000000000000000000000000000000060606060606060606060006000000000000000000000000000000000000000000020000000000
310
00000000000000000000000000000000000000000000000000000000000000000007000000000000000000000000000000000000000000000000000000000000000000000002000000000000000000000000000000000000000006060606060606060606060000000000000000000000000000000000000000000200000000
310
00000000000000000000000000000000000000000000000000000000000000000000070000000000000000000000000000000000000000000000000000000000000000000000020000000000000000000000000000000000000000000606060606060606000000000000000000000000000000000000000000000002000000
310
00000000000000000000000000000000000000000000000000000000000000000000000700000000000000000000000000000000000000000000000000000000000000000000000200000000000000000000000000000000000000000000000000060000000000000000000000000000000000000000000000000000020000
310
00000000000000000000000000000000000000000000000000000000000000000000000007000000000000000000000000000000000000000000000000000000000000000000000002000000000000000000000000000000000000000000000000000600000000000000000000000000000000000000000000000000000200
310
00000000000000000000000000000000000000000000000000000000000000000000000000070000000000000000000000000000000000000000000000000000000000000000000000020000000000000000000000000000000000000000000000000006000000000000000000000000000000000000000000000000000002
310
00000000000000000000000000000000000000000000000000000000000000000000000000000700000000000000000000000000000000000000000000000000000000000000000000000200000000000000000000000000000000000000000000000000060000000000000000000000000000000000000000000000000000
310
02000000000000000000000000000000000000000000000000000000000000000000000000000007000000000000000000000000000000000000000000000000000000000000000000000002000000000000000000000000000000000000000000000000000600000000000000000000000000000000000000000000000000
310
00020000000000000000000000000000000000000000000000000000000000000000000000000000070000000000000000000000000000000000000000000000000000000000000000000000020000000000000000000000000000000000000000000000000006000000000000000000000000000000000000000000000000
310
00000200000000000000000000000000000000000000000000000000000000000000000000000000000700000000000000000000000000000000000000000000000000000000000000000000000200000000000000000000000000000000000000000000000000060000000000000000000000000000000000000000000000
310
00000002000000000000000000000000000000000000000000000000000000000000000000000000000007000000000000000000000000000000000000000000000000000000000000000000000002000000000000000000000000000000000000000000000000000600000000000000000000000000000000000000000000
310
00000000020000000000000000000000000000000000000000000000000000000000000000000000000000070000000000000000000000000000000000000000000000000000000000000000000000020000000000000000000000000000000000000000000000000006000000000000000000000000000000000000000000
310
00000000000200000000000000000000000000000000000000000000000000000000000000000000000000000700000000000000000000000000000000000000000000000000000000000000000000000200000000000000000000000000000000000000000000000000060000000000000000000000000000000000000000
310
00000000000002000000000000000000000000000000000000000000000000000000000000000000000000000007000000000000000000000000000000000000000000000000000000000000000000000002000000000000000000000000000000000000000000000000000600000000000000000000000000000000000000
310
00000000000000020000000000000000000000000000000000000000000000000000000000000000000000000000070000000000000000000000000000000000000000000000000000000000000000000000020000000000000000000000000000000000000000000000000606000000000000000000000000000000000000
310
00000000000000000200000000000000000000000000000000000000000000000000000000000000000000000000000700000000000000000000000000000000000000000000000000000000000000000000000200000000000000000000000000000000000000000000000006000600000000000000000000000000000000
310
00000000000000000002000000000000000000000000000000000000000000000000000000000000000000000000000007000000000000000000000000000000000000000000000000000000000000000000000002000000000000000000000000000000000000000000000006000006000000000000000000000000000000
310
00000000000000000000020000000000000000000000000000000000000000000000000000000000000000000000000000070000000000000000000000000000000000000000000000000000000000000000000000020000000000000000000000000000000000000000000000060606060000000000000000000000000000
310
00000000000000000000000200000000000000000000000000000000000000000000000000000000000000000000000000000700000000000000000000000000000000000000000000000000000000000000000000000200000000000000000000000000000000000000000000000000000000000000000000000000000000
310
00000000000000000000000002000000000000000000000000000000000000000000000000000000000000000000000000000007000000000000000000000000000000000000000000000000000000000000000000000002000000000000000000000000000000000000000000000000000000000000000000000000000000
310
00000000000000000000000000020000000000000000000000000000000000000000000000000000000000000000000000000000070000000000000000000000000000000000000000000000000000000000000000000000020000000000000000000000000000000000000000000000000000000000000000000000000000
310
00000000000000000000000000000200000000000000000000000000000000000000000000000000000000000000000000000000000700000000000000000000000000000000000000000000000000000000000000000000000200000000000000000000000000000000000000000000000000000000000000000000000000
310
00000000000000000000000000000002000000000000000000000000000000000000000000000000000000000000000000000000000007000000000000000000000000000000000000000000000000000000000000000000000002000000000000000000000000000000000000000000000000000000000000000000000000
310
00000000000000000000000000000000020000000000000000000000000000000000000000000000000000000000000000000000000000070000000000000000000000000000000000000000000000000000000000000000000000020000000000000000000000000000000000000000000000000000000000000000000000
310
00000000000000000000000000000000000200000000000000000000000000000000000000000000000000000000000000000000000000000700000000000000000000000000000000000000000000000000000000000000000000000200000000000000000000000000000000000000000000000000000000000000000000
310
00000000000000000000000000000000000002000000000000000000000000000000000000000000000000000000000000000000000000000007000000000000000000000000000000000000000000000000000000000000000000000002020202020202020202020202020202020202020202020202020202020202020202
310
02020202020202020202020202020202020202020000000000000000000000000000000000000000000000000000000000000000000000000000070000000000000000000000000000000000000000000000000000000000000000000000000000000000000000000000000000000000000000000000000000000000000000
310
00000000000000000000000000000000000000000000000000000000000000000000000000000000000000000000000000000000000000000000000700000000000000000000000000000000000000000000000000000000000000000000000000000000000000000000000000000000000000000000000000000000000000
310
00000000000000000000000000000000000000000000000000000000000000000000000000000000000000000000000000000000000000000000000007000000000000000000000000000000000000000000000000000000000000000000000000000000000000000000000000000000000000000000000000000000000000
310
00000000000000000000000000000000000000000000000000000000000000000000000000000000000000000000000000000000000000000000000000070000000000000000000000000000000000000000000000000000000000000000000000000000000000000000000000000000000000000000000000000000000000
310
00000000000000000000000000000000000000000000000000000000000000000000000000000000000000000000000000000000000000000000000000000700000000000000000000000000000000000000000000000000000000000000000000000000000000000000000000000000000000000000000000000000000000
310
00000000000000000000000000000000000000000000000000000000000000000000000000000000000000000000000000
  0
ENDSEC
  0
EOF
