  0
SECTION
  2
HEADER
  9
$ACADVER
  1
AC1021
  9
$ACADMAINTVER
 70
    25
  9
$DWGCODEPAGE
  3
ANSI_932
  9
$LASTSAVEDBY
  1
tabli
  9
$INSBASE
 10
0.0
 20
0.0
 30
0.0
  9
$EXTMIN
 10
102.0
 20
-12.0
 30
0.0
  9
$EXTMAX
 10
297.0
 20
270.0
 30
0.0
  9
$LIMMIN
 10
0.0
 20
0.0
  9
$LIMMAX
 10
420.0
 20
297.0
  9
$ORTHOMODE
 70
     0
  9
$REGENMODE
 70
     1
  9
$FILLMODE
 70
     1
  9
$QTEXTMODE
 70
     0
  9
$MIRRTEXT
 70
     1
  9
$LTSCALE
 40
1.0
  9
$ATTMODE
 70
     1
  9
$TEXTSIZE
 40
2.5
  9
$TRACEWID
 40
1.0
  9
$TEXTSTYLE
  7
Standard
  9
$CLAYER
  8
0
  9
$CELTYPE
  6
ByLayer
  9
$CECOLOR
 62
   256
  9
$CELTSCALE
 40
1.0
  9
$DISPSILH
 70
     0
  9
$DIMSCALE
 40
1.0
  9
$DIMASZ
 40
2.5
  9
$DIMEXO
 40
0.625
  9
$DIMDLI
 40
3.75
  9
$DIMRND
 40
0.0
  9
$DIMDLE
 40
0.0
  9
$DIMEXE
 40
1.25
  9
$DIMTP
 40
0.0
  9
$DIMTM
 40
0.0
  9
$DIMTXT
 40
2.5
  9
$DIMCEN
 40
2.5
  9
$DIMTSZ
 40
0.0
  9
$DIMTOL
 70
     0
  9
$DIMLIM
 70
     0
  9
$DIMTIH
 70
     0
  9
$DIMTOH
 70
     0
  9
$DIMSE1
 70
     0
  9
$DIMSE2
 70
     0
  9
$DIMTAD
 70
     1
  9
$DIMZIN
 70
     8
  9
$DIMBLK
  1

  9
$DIMASO
 70
     1
  9
$DIMSHO
 70
     1
  9
$DIMPOST
  1

  9
$DIMAPOST
  1

  9
$DIMALT
 70
     0
  9
$DIMALTD
 70
     3
  9
$DIMALTF
 40
0.03937007874
  9
$DIMLFAC
 40
1.0
  9
$DIMTOFL
 70
     1
  9
$DIMTVP
 40
0.0
  9
$DIMTIX
 70
     0
  9
$DIMSOXD
 70
     0
  9
$DIMSAH
 70
     0
  9
$DIMBLK1
  1

  9
$DIMBLK2
  1

  9
$DIMSTYLE
  2
ISO-25
  9
$DIMCLRD
 70
     0
  9
$DIMCLRE
 70
     0
  9
$DIMCLRT
 70
     0
  9
$DIMTFAC
 40
1.0
  9
$DIMGAP
 40
0.625
  9
$DIMJUST
 70
     0
  9
$DIMSD1
 70
     0
  9
$DIMSD2
 70
     0
  9
$DIMTOLJ
 70
     0
  9
$DIMTZIN
 70
     8
  9
$DIMALTZ
 70
     0
  9
$DIMALTTZ
 70
     0
  9
$DIMUPT
 70
     0
  9
$DIMDEC
 70
     2
  9
$DIMTDEC
 70
     2
  9
$DIMALTU
 70
     2
  9
$DIMALTTD
 70
     3
  9
$DIMTXSTY
  7
Standard
  9
$DIMAUNIT
 70
     0
  9
$DIMADEC
 70
     0
  9
$DIMALTRND
 40
0.0
  9
$DIMAZIN
 70
     0
  9
$DIMDSEP
 70
    44
  9
$DIMATFIT
 70
     3
  9
$DIMFRAC
 70
     0
  9
$DIMLDRBLK
  1

  9
$DIMLUNIT
 70
     2
  9
$DIMLWD
 70
    -2
  9
$DIMLWE
 70
    -2
  9
$DIMTMOVE
 70
     0
  9
$DIMFXL
 40
1.0
  9
$DIMFXLON
 70
     0
  9
$DIMJOGANG
 40
0.785398163397
  9
$DIMTFILL
 70
     0
  9
$DIMTFILLCLR
 70
     0
  9
$DIMARCSYM
 70
     0
  9
$DIMLTYPE
  6

  9
$DIMLTEX1
  6

  9
$DIMLTEX2
  6

  9
$LUNITS
 70
     2
  9
$LUPREC
 70
     4
  9
$SKETCHINC
 40
1.0
  9
$FILLETRAD
 40
10.0
  9
$AUNITS
 70
     0
  9
$AUPREC
 70
     0
  9
$MENU
  1
.
  9
$ELEVATION
 40
0.0
  9
$PELEVATION
 40
0.0
  9
$THICKNESS
 40
0.0
  9
$LIMCHECK
 70
     0
  9
$CHAMFERA
 40
10.0
  9
$CHAMFERB
 40
10.0
  9
$CHAMFERC
 40
20.0
  9
$CHAMFERD
 40
0.0
  9
$SKPOLY
 70
     0
  9
$TDCREATE
 40
2458282.473280648
  9
$TDUCREATE
 40
2458282.098280648
  9
$TDUPDATE
 40
2458915.568845174
  9
$TDUUPDATE
 40
2458915.193845174
  9
$TDINDWG
 40
0.0042799769
  9
$TDUSRTIMER
 40
0.0042799769
  9
$USRTIMER
 70
     1
  9
$ANGBASE
 50
0.0
  9
$ANGDIR
 70
     0
  9
$PDMODE
 70
     0
  9
$PDSIZE
 40
0.0
  9
$PLINEWID
 40
0.0
  9
$SPLFRAME
 70
     0
  9
$SPLINETYPE
 70
     6
  9
$SPLINESEGS
 70
     8
  9
$HANDSEED
  5
138E
  9
$SURFTAB1
 70
     6
  9
$SURFTAB2
 70
     6
  9
$SURFTYPE
 70
     6
  9
$SURFU
 70
     6
  9
$SURFV
 70
     6
  9
$UCSBASE
  2

  9
$UCSNAME
  2

  9
$UCSORG
 10
0.0
 20
0.0
 30
0.0
  9
$UCSXDIR
 10
1.0
 20
0.0
 30
0.0
  9
$UCSYDIR
 10
0.0
 20
1.0
 30
0.0
  9
$UCSORTHOREF
  2

  9
$UCSORTHOVIEW
 70
     0
  9
$UCSORGTOP
 10
0.0
 20
0.0
 30
0.0
  9
$UCSORGBOTTOM
 10
0.0
 20
0.0
 30
0.0
  9
$UCSORGLEFT
 10
0.0
 20
0.0
 30
0.0
  9
$UCSORGRIGHT
 10
0.0
 20
0.0
 30
0.0
  9
$UCSORGFRONT
 10
0.0
 20
0.0
 30
0.0
  9
$UCSORGBACK
 10
0.0
 20
0.0
 30
0.0
  9
$PUCSBASE
  2

  9
$PUCSNAME
  2

  9
$PUCSORG
 10
0.0
 20
0.0
 30
0.0
  9
$PUCSXDIR
 10
1.0
 20
0.0
 30
0.0
  9
$PUCSYDIR
 10
0.0
 20
1.0
 30
0.0
  9
$PUCSORTHOREF
  2

  9
$PUCSORTHOVIEW
 70
     0
  9
$PUCSORGTOP
 10
0.0
 20
0.0
 30
0.0
  9
$PUCSORGBOTTOM
 10
0.0
 20
0.0
 30
0.0
  9
$PUCSORGLEFT
 10
0.0
 20
0.0
 30
0.0
  9
$PUCSORGRIGHT
 10
0.0
 20
0.0
 30
0.0
  9
$PUCSORGFRONT
 10
0.0
 20
0.0
 30
0.0
  9
$PUCSORGBACK
 10
0.0
 20
0.0
 30
0.0
  9
$USERI1
 70
     0
  9
$USERI2
 70
     0
  9
$USERI3
 70
     0
  9
$USERI4
 70
     0
  9
$USERI5
 70
     0
  9
$USERR1
 40
0.0
  9
$USERR2
 40
0.0
  9
$USERR3
 40
0.0
  9
$USERR4
 40
0.0
  9
$USERR5
 40
0.0
  9
$WORLDVIEW
 70
     1
  9
$SHADEDGE
 70
     3
  9
$SHADEDIF
 70
    70
  9
$TILEMODE
 70
     1
  9
$MAXACTVP
 70
    48
  9
$PINSBASE
 10
0.0
 20
0.0
 30
0.0
  9
$PLIMCHECK
 70
     0
  9
$PEXTMIN
 10
40.5
 20
25.7
 30
0.0
  9
$PEXTMAX
 10
364.5
 20
231.3
 30
0.0
  9
$PLIMMIN
 10
-7.5
 20
-20.0
  9
$PLIMMAX
 10
412.5
 20
277.0
  9
$UNITMODE
 70
     0
  9
$VISRETAIN
 70
     1
  9
$PLINEGEN
 70
     0
  9
$PSLTSCALE
 70
     1
  9
$TREEDEPTH
 70
  3020
  9
$CMLSTYLE
  2
Standard
  9
$CMLJUST
 70
     0
  9
$CMLSCALE
 40
20.0
  9
$PROXYGRAPHICS
 70
     1
  9
$MEASUREMENT
 70
     1
  9
$CELWEIGHT
370
    -1
  9
$ENDCAPS
280
     0
  9
$JOINSTYLE
280
     0
  9
$LWDISPLAY
290
     0
  9
$INSUNITS
 70
     4
  9
$HYPERLINKBASE
  1

  9
$STYLESHEET
  1

  9
$XEDIT
290
     1
  9
$CEPSNTYPE
380
     0
  9
$PSTYLEMODE
290
     1
  9
$FINGERPRINTGUID
  2
{A2CCE796-6AC1-494C-A3DD-A556724BEE2C}
  9
$VERSIONGUID
  2
{B1DCADED-1393-43F9-849F-85D3B7CD1A10}
  9
$EXTNAMES
290
     1
  9
$PSVPSCALE
 40
0.0
  9
$OLESTARTUP
290
     0
  9
$SORTENTS
280
   127
  9
$INDEXCTL
280
     0
  9
$HIDETEXT
280
     1
  9
$XCLIPFRAME
290
     0
  9
$HALOGAP
280
     0
  9
$OBSCOLOR
 70
   257
  9
$OBSLTYPE
280
     0
  9
$INTERSECTIONDISPLAY
280
     0
  9
$INTERSECTIONCOLOR
 70
   257
  9
$DIMASSOC
280
     1
  9
$PROJECTNAME
  1

  9
$CAMERADISPLAY
290
     0
  9
$LENSLENGTH
 40
50.0
  9
$CAMERAHEIGHT
 40
0.0
  9
$STEPSPERSEC
 40
2.0
  9
$STEPSIZE
 40
6.0
  9
$3DDWFPREC
 40
2.0
  9
$PSOLWIDTH
 40
0.25
  9
$PSOLHEIGHT
 40
4.0
  9
$LOFTANG1
 40
1.570796326795
  9
$LOFTANG2
 40
1.570796326795
  9
$LOFTMAG1
 40
0.0
  9
$LOFTMAG2
 40
0.0
  9
$LOFTPARAM
 70
     7
  9
$LOFTNORMALS
280
     1
  9
$LATITUDE
 40
37.795
  9
$LONGITUDE
 40
-122.394
  9
$NORTHDIRECTION
 40
0.0
  9
$TIMEZONE
 70
 -8000
  9
$LIGHTGLYPHDISPLAY
280
     1
  9
$TILEMODELIGHTSYNCH
280
     1
  9
$SOLIDHIST
280
     1
  9
$SHOWHIST
280
     1
  9
$DWFFRAME
280
     2
  9
$DGNFRAME
280
     2
  9
$REALWORLDSCALE
290
     1
  9
$INTERFERECOLOR
 62
   256
  9
$CSHADOW
280
     0
  9
$SHADOWPLANELOCATION
 40
0.0
  0
ENDSEC
  0
SECTION
  2
CLASSES
  0
CLASS
  1
ACDBDICTIONARYWDFLT
  2
AcDbDictionaryWithDefault
  3
ObjectDBX Classes
 90
        0
 91
        3
280
     0
281
     0
  0
CLASS
  1
ACDBPLACEHOLDER
  2
AcDbPlaceHolder
  3
ObjectDBX Classes
 90
        0
 91
        1
280
     0
281
     0
  0
CLASS
  1
LAYOUT
  2
AcDbLayout
  3
ObjectDBX Classes
 90
        0
 91
        1
280
     0
281
     0
  0
CLASS
  1
LONG_TRANSACTION
  2
AcDbLongTransaction
  3
ObjectDBX Classes
 90
        0
 91
        1
280
     0
281
     0
  0
CLASS
  1
LWPOLYLINE
  2
AcDbPolyline
  3
ObjectDBX Classes
 90
        0
 91
        1
280
     0
281
     1
  0
CLASS
  1
HATCH
  2
AcDbHatch
  3
ObjectDBX Classes
 90
        0
 91
        1
280
     0
281
     1
  0
CLASS
  1
XRECORD
  2
AcDbXrecord
  3
ObjectDBX Classes
 90
        0
 91
        1
280
     0
281
     0
  0
CLASS
  1
LONG_TRANSACTION
  2
AcDbLongTransaction
  3
ObjectDBX Classes
 90
        0
 91
        1
280
     0
281
     0
  0
CLASS
  1
LWPOLYLINE
  2
AcDbPolyline
  3
ObjectDBX Classes
 90
        0
 91
        1
280
     0
281
     1
  0
CLASS
  1
HATCH
  2
AcDbHatch
  3
ObjectDBX Classes
 90
        0
 91
        1
280
     0
281
     1
  0
CLASS
  1
XRECORD
  2
AcDbXrecord
  3
ObjectDBX Classes
 90
        0
 91
        1
280
     0
281
     0
  0
CLASS
  1
LONG_TRANSACTION
  2
AcDbLongTransaction
  3
ObjectDBX Classes
 90
        0
 91
        1
280
     0
281
     0
  0
CLASS
  1
LWPOLYLINE
  2
AcDbPolyline
  3
ObjectDBX Classes
 90
        0
 91
        1
280
     0
281
     1
  0
CLASS
  1
HATCH
  2
AcDbHatch
  3
ObjectDBX Classes
 90
        0
 91
        1
280
     0
281
     1
  0
CLASS
  1
XRECORD
  2
AcDbXrecord
  3
ObjectDBX Classes
 90
        0
 91
        1
280
     0
281
     0
  0
CLASS
  1
LONG_TRANSACTION
  2
AcDbLongTransaction
  3
ObjectDBX Classes
 90
        0
 91
        1
280
     0
281
     0
  0
CLASS
  1
LWPOLYLINE
  2
AcDbPolyline
  3
ObjectDBX Classes
 90
        0
 91
        1
280
     0
281
     1
  0
CLASS
  1
HATCH
  2
AcDbHatch
  3
ObjectDBX Classes
 90
        0
 91
        1
280
     0
281
     1
  0
CLASS
  1
XRECORD
  2
AcDbXrecord
  3
ObjectDBX Classes
 90
        0
 91
        1
280
     0
281
     0
  0
CLASS
  1
LONG_TRANSACTION
  2
AcDbLongTransaction
  3
ObjectDBX Classes
 90
        0
 91
        1
280
     0
281
     0
  0
CLASS
  1
LWPOLYLINE
  2
AcDbPolyline
  3
ObjectDBX Classes
 90
        0
 91
        1
280
     0
281
     1
  0
CLASS
  1
HATCH
  2
AcDbHatch
  3
ObjectDBX Classes
 90
        0
 91
        1
280
     0
281
     1
  0
CLASS
  1
XRECORD
  2
AcDbXrecord
  3
ObjectDBX Classes
 90
        0
 91
        1
280
     0
281
     0
  0
CLASS
  1
LONG_TRANSACTION
  2
AcDbLongTransaction
  3
ObjectDBX Classes
 90
        0
 91
        1
280
     0
281
     0
  0
CLASS
  1
LWPOLYLINE
  2
AcDbPolyline
  3
ObjectDBX Classes
 90
        0
 91
        1
280
     0
281
     1
  0
CLASS
  1
HATCH
  2
AcDbHatch
  3
ObjectDBX Classes
 90
        0
 91
        1
280
     0
281
     1
  0
CLASS
  1
XRECORD
  2
AcDbXrecord
  3
ObjectDBX Classes
 90
        0
 91
        1
280
     0
281
     0
  0
CLASS
  1
LONG_TRANSACTION
  2
AcDbLongTransaction
  3
ObjectDBX Classes
 90
        0
 91
        1
280
     0
281
     0
  0
CLASS
  1
LWPOLYLINE
  2
AcDbPolyline
  3
ObjectDBX Classes
 90
        0
 91
        1
280
     0
281
     1
  0
CLASS
  1
HATCH
  2
AcDbHatch
  3
ObjectDBX Classes
 90
        0
 91
        1
280
     0
281
     1
  0
CLASS
  1
XRECORD
  2
AcDbXrecord
  3
ObjectDBX Classes
 90
        0
 91
        1
280
     0
281
     0
  0
CLASS
  1
LONG_TRANSACTION
  2
AcDbLongTransaction
  3
ObjectDBX Classes
 90
        0
 91
        1
280
     0
281
     0
  0
CLASS
  1
LWPOLYLINE
  2
AcDbPolyline
  3
ObjectDBX Classes
 90
        0
 91
        1
280
     0
281
     1
  0
CLASS
  1
HATCH
  2
AcDbHatch
  3
ObjectDBX Classes
 90
        0
 91
        1
280
     0
281
     1
  0
CLASS
  1
XRECORD
  2
AcDbXrecord
  3
ObjectDBX Classes
 90
        0
 91
        1
280
     0
281
     0
  0
CLASS
  1
LONG_TRANSACTION
  2
AcDbLongTransaction
  3
ObjectDBX Classes
 90
        0
 91
        1
280
     0
281
     0
  0
CLASS
  1
LWPOLYLINE
  2
AcDbPolyline
  3
ObjectDBX Classes
 90
        0
 91
        1
280
     0
281
     1
  0
CLASS
  1
HATCH
  2
AcDbHatch
  3
ObjectDBX Classes
 90
        0
 91
        1
280
     0
281
     1
  0
CLASS
  1
XRECORD
  2
AcDbXrecord
  3
ObjectDBX Classes
 90
        0
 91
        1
280
     0
281
     0
  0
CLASS
  1
LONG_TRANSACTION
  2
AcDbLongTransaction
  3
ObjectDBX Classes
 90
        0
 91
        1
280
     0
281
     0
  0
CLASS
  1
LWPOLYLINE
  2
AcDbPolyline
  3
ObjectDBX Classes
 90
        0
 91
        1
280
     0
281
     1
  0
CLASS
  1
HATCH
  2
AcDbHatch
  3
ObjectDBX Classes
 90
        0
 91
        1
280
     0
281
     1
  0
CLASS
  1
XRECORD
  2
AcDbXrecord
  3
ObjectDBX Classes
 90
        0
 91
        1
280
     0
281
     0
  0
CLASS
  1
LONG_TRANSACTION
  2
AcDbLongTransaction
  3
ObjectDBX Classes
 90
        0
 91
        1
280
     0
281
     0
  0
CLASS
  1
LWPOLYLINE
  2
AcDbPolyline
  3
ObjectDBX Classes
 90
        0
 91
        1
280
     0
281
     1
  0
CLASS
  1
HATCH
  2
AcDbHatch
  3
ObjectDBX Classes
 90
        0
 91
        1
280
     0
281
     1
  0
CLASS
  1
XRECORD
  2
AcDbXrecord
  3
ObjectDBX Classes
 90
        0
 91
        1
280
     0
281
     0
  0
CLASS
  1
LONG_TRANSACTION
  2
AcDbLongTransaction
  3
ObjectDBX Classes
 90
        0
 91
        1
280
     0
281
     0
  0
CLASS
  1
LWPOLYLINE
  2
AcDbPolyline
  3
ObjectDBX Classes
 90
        0
 91
        1
280
     0
281
     1
  0
CLASS
  1
HATCH
  2
AcDbHatch
  3
ObjectDBX Classes
 90
        0
 91
        1
280
     0
281
     1
  0
CLASS
  1
XRECORD
  2
AcDbXrecord
  3
ObjectDBX Classes
 90
        0
 91
        1
280
     0
281
     0
  0
CLASS
  1
LONG_TRANSACTION
  2
AcDbLongTransaction
  3
ObjectDBX Classes
 90
        0
 91
        1
280
     0
281
     0
  0
CLASS
  1
LWPOLYLINE
  2
AcDbPolyline
  3
ObjectDBX Classes
 90
        0
 91
        1
280
     0
281
     1
  0
CLASS
  1
HATCH
  2
AcDbHatch
  3
ObjectDBX Classes
 90
        0
 91
        1
280
     0
281
     1
  0
CLASS
  1
XRECORD
  2
AcDbXrecord
  3
ObjectDBX Classes
 90
        0
 91
        1
280
     0
281
     0
  0
CLASS
  1
DICTIONARYVAR
  2
AcDbDictionaryVar
  3
ObjectDBX Classes
 90
        0
 91
        3
280
     0
281
     0
  0
CLASS
  1
LONG_TRANSACTION
  2
AcDbLongTransaction
  3
ObjectDBX Classes
 90
        0
 91
        1
280
     0
281
     0
  0
CLASS
  1
LWPOLYLINE
  2
AcDbPolyline
  3
ObjectDBX Classes
 90
        0
 91
        1
280
     0
281
     1
  0
CLASS
  1
HATCH
  2
AcDbHatch
  3
ObjectDBX Classes
 90
        0
 91
        1
280
     0
281
     1
  0
CLASS
  1
XRECORD
  2
AcDbXrecord
  3
ObjectDBX Classes
 90
        0
 91
        1
280
     0
281
     0
  0
CLASS
  1
SCALE
  2
AcDbScale
  3
ObjectDBX Classes
 90
     1153
 91
        3
280
     0
281
     0
  0
CLASS
  1
MATERIAL
  2
AcDbMaterial
  3
ObjectDBX Classes
 90
     1153
 91
        3
280
     0
281
     0
  0
CLASS
  1
TABLESTYLE
  2
AcDbTableStyle
  3
ObjectDBX Classes
 90
     4095
 91
        3
280
     0
281
     0
  0
CLASS
  1
SUN
  2
AcDbSun
  3
SCENEOE
 90
     1153
 91
        3
280
     0
281
     0
  0
CLASS
  1
VISUALSTYLE
  2
AcDbVisualStyle
  3
ObjectDBX Classes
 90
     4095
 91
        3
280
     0
281
     0
  0
CLASS
  1
MLEADERSTYLE
  2
AcDbMLeaderStyle
  3
ACDB_MLEADERSTYLE_CLASS
 90
     4095
 91
        3
280
     0
281
     0
  0
CLASS
  1
SORTENTSTABLE
  2
AcDbSortentsTable
  3
ObjectDBX Classes
 90
        0
 91
        3
280
     0
281
     0
  0
CLASS
  1
CELLSTYLEMAP
  2
AcDbCellStyleMap
  3
ObjectDBX Classes
 90
     1152
 91
        3
280
     0
281
     0
  0
ENDSEC
  0
SECTION
  2
TABLES
  0
TABLE
  2
VPORT
  5
8
330
0
100
AcDbSymbolTable
 70
     1
  0
VPORT
  5
E61
330
8
100
AcDbSymbolTableRecord
100
AcDbViewportTableRecord
  2
*Active
 70
     0
 10
0.0
 20
0.0
 11
1.0
 21
1.0
 12
264.915230742993
 22
133.772583396009
 13
0.0
 23
0.0
 14
1.0
 24
1.0
 15
1.0
 25
1.0
 16
0.0
 26
0.0
 36
1.0
 17
0.0
 27
0.0
 37
0.0
 40
323.970945313088
 41
2.108991825613
 42
50.0
 43
0.0
 44
0.0
 50
0.0
 51
0.0
 71
    16
 72
   500
 73
     1
 74
     3
 75
     1
 76
     0
 77
     0
 78
     0
281
     0
 65
     1
110
0.0
120
0.0
130
0.0
111
1.0
121
0.0
131
0.0
112
0.0
122
1.0
132
0.0
 79
     0
146
0.0
348
E93
 60
     3
 61
     5
292
     1
282
     1
141
0.0
142
0.0
 63
   250
421
  3355443
361
E8A
  0
ENDTAB
  0
TABLE
  2
LTYPE
  5
5
330
0
100
AcDbSymbolTable
 70
     2
  0
LTYPE
  5
14
330
5
100
AcDbSymbolTableRecord
100
AcDbLinetypeTableRecord
  2
ByBlock
 70
     0
  3

 72
    65
 73
     0
 40
0.0
  0
LTYPE
  5
15
330
5
100
AcDbSymbolTableRecord
100
AcDbLinetypeTableRecord
  2
ByLayer
 70
     0
  3

 72
    65
 73
     0
 40
0.0
  0
LTYPE
  5
16
330
5
100
AcDbSymbolTableRecord
100
AcDbLinetypeTableRecord
  2
Continuous
 70
     0
  3
Solid line
 72
    65
 73
     0
 40
0.0
  0
LTYPE
  5
EB2
330
5
100
AcDbSymbolTableRecord
100
AcDbLinetypeTableRecord
  2
DASHED2
 70
     0
  3
Dashed (0.5x) _ _ _ _ _ _ _ _ _ _ _ _ _ _ _ _ _
 72
    65
 73
     2
 40
9.525
 49
6.35
 74
     0
 49
-3.175
 74
     0
  0
ENDTAB
  0
TABLE
  2
LAYER
  5
2
102
{ACAD_XDICTIONARY
360
1114
102
}
330
0
100
AcDbSymbolTable
 70
     7
  0
LAYER
  5
10
330
2
100
AcDbSymbolTableRecord
100
AcDbLayerTableRecord
  2
0
 70
     0
 62
     7
  6
Continuous
370
    -3
390
F
347
E86
  0
LAYER
  5
E89
330
2
100
AcDbSymbolTableRecord
100
AcDbLayerTableRecord
  2
Defpoints
 70
     0
 62
     7
  6
Continuous
290
     0
370
    -3
390
F
347
E86
  0
LAYER
  5
EAA
330
2
100
AcDbSymbolTableRecord
100
AcDbLayerTableRecord
  2
PARTS
 70
     0
 62
     3
  6
Continuous
370
    -3
390
F
347
E86
  0
LAYER
  5
EAE
330
2
100
AcDbSymbolTableRecord
100
AcDbLayerTableRecord
  2
text
 70
     0
 62
     4
  6
Continuous
370
    -3
390
F
347
E86
  0
LAYER
  5
EAF
330
2
100
AcDbSymbolTableRecord
100
AcDbLayerTableRecord
  2
shade
 70
     0
 62
     6
  6
Continuous
370
    -3
390
F
347
E86
  0
LAYER
  5
EB0
330
2
100
AcDbSymbolTableRecord
100
AcDbLayerTableRecord
  2
TOUGU
 70
     0
 62
     3
  6
Continuous
370
    -3
390
F
347
E86
  0
LAYER
  5
EB1
330
2
100
AcDbSymbolTableRecord
100
AcDbLayerTableRecord
  2
FLAME
 70
     0
 62
     2
  6
Continuous
370
    -3
390
F
347
E86
  0
ENDTAB
  0
TABLE
  2
STYLE
  5
3
330
0
100
AcDbSymbolTable
 70
     5
  0
STYLE
  5
11
330
3
100
AcDbSymbolTableRecord
100
AcDbTextStyleTableRecord
  2
Standard
 70
     0
 40
0.0
 41
1.0
 50
0.0
 71
     0
 42
2.5
  3
MS UI Gothic.ttf
  4

1001
ACAD
1000
MS UI Gothic
1071
    32818
  0
STYLE
  5
78
330
3
100
AcDbSymbolTableRecord
100
AcDbTextStyleTableRecord
  2
VERTICAL
 70
     0
 40
0.0
 41
1.0
 50
0.0
 71
     0
 42
2.5
  3
@MS UI Gothic.ttf
  4

1001
ACAD
1000
@MS UI Gothic
1071
    32818
  0
STYLE
  5
9D
330
3
100
AcDbSymbolTableRecord
100
AcDbTextStyleTableRecord
  2

 70
     1
 40
0.0
 41
1.0
 50
0.0
 71
     0
 42
2.5
  3
ltypeshp.shx
  4

  0
STYLE
  5
EB4
330
3
100
AcDbSymbolTableRecord
100
AcDbTextStyleTableRecord
  2
GOTHIC
 70
     0
 40
0.0
 41
1.0
 50
0.0
 71
     0
 42
2.5
  3

  4

1001
ACAD
1000
ＭＳ Ｐゴシック
1071
    32818
  0
STYLE
  5
EB9
330
3
100
AcDbSymbolTableRecord
100
AcDbTextStyleTableRecord
  2
新規スタイル1
 70
     0
 40
0.0
 41
1.0
 50
0.0
 71
     0
 42
2.5
  3

  4

1001
ACAD
1000
ＭＳ Ｐ明朝
1071
    32786
  0
ENDTAB
  0
TABLE
  2
VIEW
  5
6
330
0
100
AcDbSymbolTable
 70
     0
  0
ENDTAB
  0
TABLE
  2
UCS
  5
7
330
0
100
AcDbSymbolTable
 70
     0
  0
ENDTAB
  0
TABLE
  2
APPID
  5
9
330
0
100
AcDbSymbolTable
 70
     8
  0
APPID
  5
12
330
9
100
AcDbSymbolTableRecord
100
AcDbRegAppTableRecord
  2
ACAD
 70
     0
  0
APPID
  5
4BA
330
9
100
AcDbSymbolTableRecord
100
AcDbRegAppTableRecord
  2
ALFADenkiAttdef
 70
     0
  0
APPID
  5
58B
330
9
100
AcDbSymbolTableRecord
100
AcDbRegAppTableRecord
  2
ALFADenkiAddress
 70
     0
  0
APPID
  5
AB8
330
9
100
AcDbSymbolTableRecord
100
AcDbRegAppTableRecord
  2
ALFADenkiHistory_BackupText
 70
     0
  0
APPID
  5
EB5
330
9
100
AcDbSymbolTableRecord
100
AcDbRegAppTableRecord
  2
AcadAnnotative
 70
     0
  0
APPID
  5
EB6
330
9
100
AcDbSymbolTableRecord
100
AcDbRegAppTableRecord
  2
ACAD_PSEXT
 70
     0
  0
APPID
  5
EB7
330
9
100
AcDbSymbolTableRecord
100
AcDbRegAppTableRecord
  2
ACAD_NAV_VCDISPLAY
 70
     0
  0
APPID
  5
1358
330
9
100
AcDbSymbolTableRecord
100
AcDbRegAppTableRecord
  2
ACAD_MLEADERVER
 70
     0
  0
ENDTAB
  0
TABLE
  2
DIMSTYLE
  5
A
330
0
100
AcDbSymbolTable
 70
     3
100
AcDbDimStyleTable
  0
DIMSTYLE
105
27
330
A
100
AcDbSymbolTableRecord
100
AcDbDimStyleTableRecord
  2
ISO-25
 70
     0
 41
2.5
 42
0.625
 43
3.75
 44
1.25
 73
     0
 74
     0
 77
     1
 78
     8
140
2.5
141
2.5
143
0.03937007874
147
0.625
171
     3
172
     1
178
     0
271
     2
272
     2
274
     3
278
    44
283
     0
284
     8
340
11
  0
DIMSTYLE
105
6E
330
A
100
AcDbSymbolTableRecord
100
AcDbDimStyleTableRecord
  2
Standard
 70
     0
178
     0
340
11
  0
DIMSTYLE
105
EB3
330
A
100
AcDbSymbolTableRecord
100
AcDbDimStyleTableRecord
  2
SC10
 70
     0
 40
10.0
 41
2.5
 42
1.0
 43
2.5
 44
1.0
 73
     0
 74
     0
 77
     1
140
2.5
141
2.5
143
0.03937
147
1.0
173
     1
176
   256
177
   256
271
     0
178
     4
271
     0
272
     0
278
     0
340
EB4
1001
AcadAnnotative
1000
AnnotativeData
1002
{
1070
     1
1070
     0
1002
}
  0
ENDTAB
  0
TABLE
  2
BLOCK_RECORD
  5
1
330
0
100
AcDbSymbolTable
 70
     1
  0
BLOCK_RECORD
  5
1F
330
1
100
AcDbSymbolTableRecord
100
AcDbBlockTableRecord
  2
*Model_Space
340
22
 70
     0
280
     1
281
     0
  0
BLOCK_RECORD
  5
23
330
1
100
AcDbSymbolTableRecord
100
AcDbBlockTableRecord
  2
*Paper_Space
340
26
 70
     0
280
     1
281
     0
  0
BLOCK_RECORD
  5
1B
330
1
100
AcDbSymbolTableRecord
100
AcDbBlockTableRecord
  2
*Paper_Space0
340
1E
 70
     0
280
     1
281
     0
  0
ENDTAB
  0
ENDSEC
  0
SECTION
  2
BLOCKS
  0
BLOCK
  5
20
330
1F
100
AcDbEntity
  8
0
100
AcDbBlockBegin
  2
*Model_Space
 70
     2
 10
0.0
 20
0.0
 30
0.0
  3
*Model_Space
  1

  0
ENDBLK
  5
21
330
1F
100
AcDbEntity
  8
0
100
AcDbBlockEnd
  0
BLOCK
  5
24
330
23
100
AcDbEntity
 67
     1
  8
0
100
AcDbBlockBegin
  2
*Paper_Space
 70
     0
 10
0.0
 20
0.0
 30
0.0
  3
*Paper_Space
  1

  0
ENDBLK
  5
25
330
23
100
AcDbEntity
 67
     1
  8
0
100
AcDbBlockEnd
  0
BLOCK
  5
1C
330
1B
100
AcDbEntity
  8
0
100
AcDbBlockBegin
  2
*Paper_Space0
 70
     0
 10
0.0
 20
0.0
 30
0.0
  3
*Paper_Space0
  1

  0
VIEWPORT
  5
8C
330
1B
100
AcDbEntity
  8
0
100
AcDbViewport
 10
202.5
 20
128.5
 30
0.0
 40
556.786421052632
 41
314.226
 68
     1
 69
     1
 12
202.5
 22
128.5
 13
0.0
 23
0.0
 14
10.0
 24
10.0
 15
10.0
 25
10.0
 16
0.0
 26
0.0
 36
1.0
 17
0.0
 27
0.0
 37
0.0
 42
50.0
 43
0.0
 44
0.0
 45
314.226
 50
0.0
 51
0.0
 72
   100
 90
    32800
  1

281
     0
 71
     1
 74
     0
110
0.0
120
0.0
130
0.0
111
1.0
121
0.0
131
0.0
112
0.0
122
1.0
132
0.0
 79
     0
146
0.0
170
     0
 61
     5
348
E93
292
     1
282
     1
141
0.0
142
0.0
 63
   250
421
  3355443
  0
VIEWPORT
  5
8E
330
1B
100
AcDbEntity
  8
0
100
AcDbViewport
 10
202.5
 20
128.5
 30
0.0
 40
324.0
 41
205.6
 68
     2
 69
     2
 12
210.0
 22
148.5
 13
0.0
 23
0.0
 14
10.0
 24
10.0
 15
10.0
 25
10.0
 16
0.0
 26
0.0
 36
1.0
 17
0.0
 27
0.0
 37
0.0
 42
50.0
 43
0.0
 44
0.0
 45
302.335329341317
 50
0.0
 51
0.0
 72
   100
 90
    32864
  1

281
     0
 71
     1
 74
     0
110
0.0
120
0.0
130
0.0
111
1.0
121
0.0
131
0.0
112
0.0
122
1.0
132
0.0
 79
     0
146
0.0
170
     0
 61
     5
348
E93
292
     1
282
     1
141
0.0
142
0.0
 63
   250
421
  3355443
  0
ENDBLK
  5
1D
330
1B
100
AcDbEntity
  8
0
100
AcDbBlockEnd
  0
ENDSEC
  0
SECTION
  2
ENTITIES
  0
LINE
  5
1118
330
1F
100
AcDbEntity
  8
FLAME
100
AcDbLine
 10
244.5
 20
185.519243884228
 30
0.0
 11
244.5
 21
80.519243884228
 31
0.0
  0
LINE
  5
1119
330
1F
100
AcDbEntity
  8
FLAME
100
AcDbLine
 10
154.5
 20
80.519243884228
 30
0.0
 11
154.5
 21
185.519243884228
 31
0.0
  0
LINE
  5
111A
330
1F
100
AcDbEntity
  8
FLAME
100
AcDbLine
 10
244.5
 20
80.519243884228
 30
0.0
 11
154.5
 21
80.519243884228
 31
0.0
  0
LINE
  5
111B
330
1F
100
AcDbEntity
  8
FLAME
100
AcDbLine
 10
244.5
 20
85.519243884228
 30
0.0
 11
154.5
 21
85.519243884228
 31
0.0
  0
LINE
  5
111C
330
1F
100
AcDbEntity
  8
FLAME
100
AcDbLine
 10
244.5
 20
90.519243884228
 30
0.0
 11
154.5
 21
90.519243884228
 31
0.0
  0
LINE
  5
111D
330
1F
100
AcDbEntity
  8
FLAME
100
AcDbLine
 10
244.5
 20
95.519243884228
 30
0.0
 11
154.5
 21
95.519243884228
 31
0.0
  0
LINE
  5
111E
330
1F
100
AcDbEntity
  8
FLAME
100
AcDbLine
 10
244.5
 20
185.519243884228
 30
0.0
 11
154.5
 21
185.519243884228
 31
0.0
  0
LWPOLYLINE
  5
111F
330
1F
100
AcDbEntity
  8
Defpoints
370
     0
100
AcDbPolyline
 90
        4
 70
     1
 43
0.0
 10
102.0
 20
270.0
 10
297.0
 20
270.0
 10
297.0
 20
-12.0
 10
102.0
 20
-12.0
  0
TEXT
  5
1120
330
1F
100
AcDbEntity
  8
text
  6
Continuous
100
AcDbText
 10
157.948885885664
 20
86.658981217843
 30
0.0
 40
2.5
  1
KP132/KP132GO
  7
新規スタイル1
 11
157.948885885664
 21
87.908981217843
 31
0.0
100
AcDbText
 73
     2
  0
TEXT
  5
1121
330
1F
100
AcDbEntity
  8
text
  6
Continuous
100
AcDbText
 10
157.948885885664
 20
91.658981217843
 30
0.0
 40
2.5
  1
ペンダント　ラメラ 1
  7
新規スタイル1
 11
157.948885885664
 21
92.908981217843
 31
0.0
100
AcDbText
 73
     2
  0
LWPOLYLINE
  5
1122
330
1F
100
AcDbEntity
  8
shade
100
AcDbPolyline
 90
        4
 70
     0
 43
0.0
 10
197.94161875192
 20
165.280909961672
 10
195.061618751919
 20
165.280909961672
 42
0.217047275996
 10
197.685618751919
 20
159.520909961671
 10
197.94161875192
 20
159.520909961671
  0
LWPOLYLINE
  5
1123
330
1F
100
AcDbEntity
  8
shade
100
AcDbPolyline
 90
        2
 70
     0
 43
0.0
 10
197.749619093993
 20
159.520909961671
 10
197.749618781163
 20
137.648649890607
  0
LWPOLYLINE
  5
1124
330
1F
100
AcDbEntity
  8
shade
100
AcDbPolyline
 90
        4
 70
     0
 43
0.0
 10
197.94161875192
 20
137.648649890607
 10
194.741618751923
 20
137.648649890607
 10
194.741618751923
 20
137.571849890608
 10
197.94161875192
 20
137.571849890608
  0
LWPOLYLINE
  5
1125
330
1F
100
AcDbEntity
  8
PARTS
100
AcDbPolyline
 90
        4
 70
     0
 43
0.0
 10
197.94161875192
 20
116.375049890608
 10
194.741618751923
 20
116.375049890608
 10
194.741618751923
 20
116.451849890609
 10
197.94161875192
 20
116.451849890609
  0
SPLINE
  5
1126
330
1F
100
AcDbEntity
  8
shade
100
AcDbSpline
210
0.0
220
0.0
230
1.0
 70
    24
 71
     1
 72
     4
 73
     2
 74
     0
 42
0.000000001
 43
0.0000000001
 40
0.0
 40
0.0
 40
0.1121278676824712
 40
0.1121278676824712
 10
196.8252694229122
 20
117.6500431857967
 30
0.0000000000000001
 10
196.8284486421617
 20
117.6425082806891
 30
0.0000000000000001
  0
LINE
  5
1127
330
1F
100
AcDbEntity
  8
shade
100
AcDbLine
 10
197.669977292458
 20
137.571849890608
 30
0.0
 11
197.813009078811
 21
137.571849890608
 31
0.0
  0
ELLIPSE
  5
1128
330
1F
100
AcDbEntity
  8
shade
100
AcDbEllipse
 10
198.947045569766
 20
127.011849890609
 30
0.0
 11
0.0
 21
32.33162656308885
 31
0.0
210
0.0
220
0.0
230
-1.0
 40
0.057088810863
 41
4.71238898038469
 42
4.80165556593238
  0
ELLIPSE
  5
1129
330
1F
100
AcDbEntity
  8
shade
100
AcDbEllipse
 10
197.472534253589
 20
129.323604583084
 30
0.0
 11
0.0
 21
6.399999999999986
 31
0.0
210
0.0
220
0.0
230
-1.0
 40
0.057088810863
 41
4.801655565932384
 42
5.301606024571717
  0
ELLIPSE
  5
112A
330
1F
100
AcDbEntity
  8
shade
100
AcDbEllipse
 10
197.669977292458
 20
127.011849890609
 30
0.0
 11
0.0
 21
10.56
 31
0.0
210
0.0
220
0.0
230
-1.0
 40
0.057088810863
 41
5.301606024571704
 42
6.283185307179586
  0
LINE
  5
112B
330
1F
100
AcDbEntity
  8
shade
100
AcDbLine
 10
197.399221870972
 20
137.571849890608
 30
0.0
 11
197.669862676321
 21
137.571849890608
 31
0.0
  0
ELLIPSE
  5
112C
330
1F
100
AcDbEntity
  8
shade
100
AcDbEllipse
 10
199.949192894313
 20
127.011849890609
 30
0.0
 11
0.0
 21
32.33162656308885
 31
0.0
210
0.0
220
0.0
230
-1.0
 40
0.113991409891
 41
4.71238898038469
 42
4.80165556593238
  0
ELLIPSE
  5
112D
330
1F
100
AcDbEntity
  8
shade
100
AcDbEllipse
 10
197.004979811391
 20
129.323604583084
 30
0.0
 11
0.0
 21
6.399999999999986
 31
0.0
210
0.0
220
0.0
230
-1.0
 40
0.113991409891
 41
4.801655565932381
 42
5.301606024571704
  0
ELLIPSE
  5
112E
330
1F
100
AcDbEntity
  8
shade
100
AcDbEllipse
 10
197.399221870972
 20
127.011849890609
 30
0.0
 11
0.0
 21
10.56
 31
0.0
210
0.0
220
0.0
230
-1.0
 40
0.113991409891
 41
5.301606024571706
 42
6.283185307179586
  0
LINE
  5
112F
330
1F
100
AcDbEntity
  8
shade
100
AcDbLine
 10
197.130235635377
 20
137.571849890608
 30
0.0
 11
197.398855932272
 21
137.571849890608
 31
0.0
  0
ELLIPSE
  5
1130
330
1F
100
AcDbEntity
  8
shade
100
AcDbEllipse
 10
200.944791929283
 20
127.011849890609
 30
0.0
 11
0.0
 21
32.33162656308885
 31
0.0
210
0.0
220
0.0
230
-1.0
 40
0.170522192633
 41
4.71238898038469
 42
4.80165556593238
  0
ELLIPSE
  5
1131
330
1F
100
AcDbEntity
  8
shade
100
AcDbEllipse
 10
196.54048049073
 20
129.323604583084
 30
0.0
 11
0.0
 21
6.399999999999986
 31
0.0
210
0.0
220
0.0
230
-1.0
 40
0.170522192633
 41
4.801655565932383
 42
5.301606024571697
  0
ELLIPSE
  5
1132
330
1F
100
AcDbEntity
  8
shade
100
AcDbEllipse
 10
197.130235635377
 20
127.011849890609
 30
0.0
 11
0.0
 21
10.56
 31
0.0
210
0.0
220
0.0
230
-1.0
 40
0.170522192633
 41
5.301606024571693
 42
6.283185307179586
  0
LINE
  5
1133
330
1F
100
AcDbEntity
  8
shade
100
AcDbLine
 10
196.863895962855
 20
137.571849890608
 30
0.0
 11
197.129657265788
 21
137.571849890608
 31
0.0
  0
ELLIPSE
  5
1134
330
1F
100
AcDbEntity
  8
shade
100
AcDbEllipse
 10
201.930595237569
 20
127.011849890609
 30
0.0
 11
0.0
 21
32.33162656308887
 31
0.0
210
0.0
220
0.0
230
-1.0
 40
0.226496767426
 41
4.71238898038469
 42
4.80165556593238
  0
ELLIPSE
  5
1135
330
1F
100
AcDbEntity
  8
shade
100
AcDbEllipse
 10
196.080551391853
 20
129.323604583084
 30
0.0
 11
0.0
 21
6.399999999999992
 31
0.0
210
0.0
220
0.0
230
-1.0
 40
0.226496767426
 41
4.80165556593238
 42
5.301606024571697
  0
ELLIPSE
  5
1136
330
1F
100
AcDbEntity
  8
shade
100
AcDbEllipse
 10
196.863895962855
 20
127.011849890609
 30
0.0
 11
0.0
 21
10.56
 31
0.0
210
0.0
220
0.0
230
-1.0
 40
0.226496767426
 41
5.301606024571692
 42
6.283185307179586
  0
LINE
  5
1137
330
1F
100
AcDbEntity
  8
shade
100
AcDbLine
 10
196.60107159807
 20
137.571849890608
 30
0.0
 11
196.863148587723
 21
137.571849890608
 31
0.0
  0
ELLIPSE
  5
1138
330
1F
100
AcDbEntity
  8
shade
100
AcDbEllipse
 10
202.903387333678
 20
127.011849890609
 30
0.0
 11
0.0
 21
32.33162656308887
 31
0.0
210
0.0
220
0.0
230
-1.0
 40
0.281732556841
 41
4.71238898038469
 42
4.80165556593238
  0
ELLIPSE
  5
1139
330
1F
100
AcDbEntity
  8
shade
100
AcDbEllipse
 10
195.626692707876
 20
129.323604583084
 30
0.0
 11
0.0
 21
6.399999999999992
 31
0.0
210
0.0
220
0.0
230
-1.0
 40
0.281732556841
 41
4.80165556593238
 42
5.301606024571702
  0
ELLIPSE
  5
113A
330
1F
100
AcDbEntity
  8
shade
100
AcDbEllipse
 10
196.60107159807
 20
127.011849890609
 30
0.0
 11
0.0
 21
10.56
 31
0.0
210
0.0
220
0.0
230
-1.0
 40
0.281732556841
 41
5.301606024571699
 42
6.283185307179586
  0
LINE
  5
113B
330
1F
100
AcDbEntity
  8
shade
100
AcDbLine
 10
196.342619819461
 20
137.571849890608
 30
0.0
 11
196.600183653543
 21
137.571849890608
 31
0.0
  0
ELLIPSE
  5
113C
330
1F
100
AcDbEntity
  8
shade
100
AcDbEllipse
 10
203.859995171984
 20
127.011849890609
 30
0.0
 11
0.0
 21
32.33162656308885
 31
0.0
210
0.0
220
0.0
230
-1.0
 40
0.336049393215
 41
4.71238898038469
 42
4.80165556593238
  0
ELLIPSE
  5
113D
330
1F
100
AcDbEntity
  8
shade
100
AcDbEllipse
 10
195.180384831488
 20
129.323604583084
 30
0.0
 11
0.0
 21
6.399999999999986
 31
0.0
210
0.0
220
0.0
230
-1.0
 40
0.336049393215
 41
4.801655565932382
 42
5.301606024571701
  0
ELLIPSE
  5
113E
330
1F
100
AcDbEntity
  8
shade
100
AcDbEllipse
 10
196.342619819461
 20
127.011849890609
 30
0.0
 11
0.0
 21
10.56
 31
0.0
210
0.0
220
0.0
230
-1.0
 40
0.336049393215
 41
5.301606024571694
 42
6.283185307179586
  0
LINE
  5
113F
330
1F
100
AcDbEntity
  8
shade
100
AcDbLine
 10
196.089383643019
 20
137.571849890608
 30
0.0
 11
196.341610718908
 21
137.571849890608
 31
0.0
  0
ELLIPSE
  5
1140
330
1F
100
AcDbEntity
  8
shade
100
AcDbEllipse
 10
204.797298496556
 20
127.011849890609
 30
0.0
 11
0.0
 21
32.33162656308885
 31
0.0
210
0.0
220
0.0
230
-1.0
 40
0.389270106317
 41
4.71238898038469
 42
4.80165556593238
  0
ELLIPSE
  5
1141
330
1F
100
AcDbEntity
  8
shade
100
AcDbEllipse
 10
194.743083526228
 20
129.323604583084
 30
0.0
 11
0.0
 21
6.399999999999986
 31
0.0
210
0.0
220
0.0
230
-1.0
 40
0.389270106317
 41
4.801655565932381
 42
5.301606024571696
  0
ELLIPSE
  5
1142
330
1F
100
AcDbEntity
  8
shade
100
AcDbEllipse
 10
196.089383643019
 20
127.011849890609
 30
0.0
 11
0.0
 21
10.56
 31
0.0
210
0.0
220
0.0
230
-1.0
 40
0.389270106317
 41
5.301606024571699
 42
6.283185307179586
  0
LINE
  5
1143
330
1F
100
AcDbEntity
  8
shade
100
AcDbLine
 10
195.842189072508
 20
137.571849890608
 30
0.0
 11
196.088267573869
 21
137.571849890608
 31
0.0
  0
ELLIPSE
  5
1144
330
1F
100
AcDbEntity
  8
shade
100
AcDbEllipse
 10
205.712240018769
 20
127.011849890609
 30
0.0
 11
0.0
 21
32.33162656308885
 31
0.0
210
0.0
220
0.0
230
-1.0
 40
0.441221101243
 41
4.71238898038469
 42
4.80165556593238
  0
ELLIPSE
  5
1145
330
1F
100
AcDbEntity
  8
shade
100
AcDbEllipse
 10
194.316215178045
 20
129.323604583084
 30
0.0
 11
0.0
 21
6.399999999999986
 31
0.0
210
0.0
220
0.0
230
-1.0
 40
0.441221101243
 41
4.801655565932382
 42
5.301606024571704
  0
ELLIPSE
  5
1146
330
1F
100
AcDbEntity
  8
shade
100
AcDbEllipse
 10
195.842189072508
 20
127.011849890609
 30
0.0
 11
0.0
 21
10.56
 31
0.0
210
0.0
220
0.0
230
-1.0
 40
0.441221101243
 41
5.301606024571698
 42
6.283185307179586
  0
LINE
  5
1147
330
1F
100
AcDbEntity
  8
shade
100
AcDbLine
 10
195.601842405238
 20
137.571849890608
 30
0.0
 11
195.840977091568
 21
137.571849890608
 31
0.0
  0
ELLIPSE
  5
1148
330
1F
100
AcDbEntity
  8
shade
100
AcDbEllipse
 10
206.601835389556
 20
127.011849890609
 30
0.0
 11
0.0
 21
32.33162656308887
 31
0.0
210
0.0
220
0.0
230
-1.0
 40
0.491732924646
 41
4.71238898038469
 42
4.80165556593238
  0
ELLIPSE
  5
1149
330
1F
100
AcDbEntity
  8
shade
100
AcDbEllipse
 10
193.901172142771
 20
129.323604583084
 30
0.0
 11
0.0
 21
6.399999999999992
 31
0.0
210
0.0
220
0.0
230
-1.0
 40
0.491732924646
 41
4.801655565932381
 42
5.301606024571697
  0
ELLIPSE
  5
114A
330
1F
100
AcDbEntity
  8
shade
100
AcDbEllipse
 10
195.601842405238
 20
127.011849890609
 30
0.0
 11
0.0
 21
10.56
 31
0.0
210
0.0
220
0.0
230
-1.0
 40
0.491732924646
 41
5.3016060245717
 42
6.283185307179586
  0
LINE
  5
114B
330
1F
100
AcDbEntity
  8
shade
100
AcDbLine
 10
195.369127602084
 20
137.571849890608
 30
0.0
 11
195.60054350143
 21
137.571849890608
 31
0.0
  0
ELLIPSE
  5
114C
330
1F
100
AcDbEntity
  8
shade
100
AcDbEllipse
 10
207.463182933712
 20
127.011849890609
 30
0.0
 11
0.0
 21
32.33162656308885
 31
0.0
210
0.0
220
0.0
230
-1.0
 40
0.540640817456
 41
4.71238898038469
 42
4.80165556593238
  0
ELLIPSE
  5
114D
330
1F
100
AcDbEntity
  8
shade
100
AcDbEllipse
 10
193.499308204522
 20
129.323604583084
 30
0.0
 11
0.0
 21
6.399999999999986
 31
0.0
210
0.0
220
0.0
230
-1.0
 40
0.540640817456
 41
4.80165556593238
 42
5.301606024571699
  0
ELLIPSE
  5
114E
330
1F
100
AcDbEntity
  8
shade
100
AcDbEllipse
 10
195.369127602084
 20
127.011849890609
 30
0.0
 11
0.0
 21
10.56
 31
0.0
210
0.0
220
0.0
230
-1.0
 40
0.540640817456
 41
5.301606024571699
 42
6.283185307179586
  0
LINE
  5
114F
330
1F
100
AcDbEntity
  8
shade
100
AcDbLine
 10
195.144803730363
 20
137.571849890608
 30
0.0
 11
195.367749366538
 21
137.571849890608
 31
0.0
  0
ELLIPSE
  5
1150
330
1F
100
AcDbEntity
  8
shade
100
AcDbEllipse
 10
208.293473114587
 20
127.011849890609
 30
0.0
 11
0.0
 21
32.33162656308885
 31
0.0
210
0.0
220
0.0
230
-1.0
 40
0.587785252292
 41
4.71238898038469
 42
4.80165556593238
  0
ELLIPSE
  5
1151
330
1F
100
AcDbEntity
  8
shade
100
AcDbEllipse
 10
193.111934159937
 20
129.323604583084
 30
0.0
 11
0.0
 21
6.399999999999986
 31
0.0
210
0.0
220
0.0
230
-1.0
 40
0.587785252292
 41
4.80165556593238
 42
5.301606024571701
  0
ELLIPSE
  5
1152
330
1F
100
AcDbEntity
  8
shade
100
AcDbEllipse
 10
195.144803730363
 20
127.011849890609
 30
0.0
 11
0.0
 21
10.56
 31
0.0
210
0.0
220
0.0
230
-1.0
 40
0.587785252292
 41
5.301606024571697
 42
6.283185307179586
  0
LINE
  5
1153
330
1F
100
AcDbEntity
  8
shade
100
AcDbLine
 10
194.929602487919
 20
137.571849890608
 30
0.0
 11
195.143352777213
 21
137.571849890608
 31
0.0
  0
ELLIPSE
  5
1154
330
1F
100
AcDbEntity
  8
shade
100
AcDbEllipse
 10
209.089997698185
 20
127.011849890609
 30
0.0
 11
0.0
 21
32.33162656308885
 31
0.0
210
0.0
220
0.0
230
-1.0
 40
0.633012453809
 41
4.71238898038469
 42
4.80165556593238
  0
ELLIPSE
  5
1155
330
1F
100
AcDbEntity
  8
shade
100
AcDbEllipse
 10
192.740313542625
 20
129.323604583084
 30
0.0
 11
0.0
 21
6.399999999999986
 31
0.0
210
0.0
220
0.0
230
-1.0
 40
0.633012453809
 41
4.801655565932381
 42
5.301606024571698
  0
ELLIPSE
  5
1156
330
1F
100
AcDbEntity
  8
shade
100
AcDbEllipse
 10
194.929602487919
 20
127.011849890609
 30
0.0
 11
0.0
 21
10.56
 31
0.0
210
0.0
220
0.0
230
-1.0
 40
0.633012453809
 41
5.301606024571696
 42
6.283185307179586
  0
LINE
  5
1157
330
1F
100
AcDbEntity
  8
shade
100
AcDbLine
 10
194.724225816473
 20
137.571849890608
 30
0.0
 11
194.928084704679
 21
137.571849890608
 31
0.0
  0
ELLIPSE
  5
1158
330
1F
100
AcDbEntity
  8
shade
100
AcDbEllipse
 10
209.85015858688
 20
127.011849890609
 30
0.0
 11
0.0
 21
32.33162656308885
 31
0.0
210
0.0
220
0.0
230
-1.0
 40
0.676174900274
 41
4.71238898038469
 42
4.80165556593238
  0
ELLIPSE
  5
1159
330
1F
100
AcDbEntity
  8
shade
100
AcDbEllipse
 10
192.385658501804
 20
129.323604583084
 30
0.0
 11
0.0
 21
6.399999999999986
 31
0.0
210
0.0
220
0.0
230
-1.0
 40
0.676174900274
 41
4.801655565932381
 42
5.301606024571701
  0
ELLIPSE
  5
115A
330
1F
100
AcDbEntity
  8
shade
100
AcDbEllipse
 10
194.724225816473
 20
127.011849890609
 30
0.0
 11
0.0
 21
10.56
 31
0.0
210
0.0
220
0.0
230
-1.0
 40
0.676174900274
 41
5.301606024571697
 42
6.283185307179586
  0
LINE
  5
115B
330
1F
100
AcDbEntity
  8
shade
100
AcDbLine
 10
194.529343612041
 20
137.571849890608
 30
0.0
 11
194.722646565366
 21
137.571849890608
 31
0.0
  0
ELLIPSE
  5
115C
330
1F
100
AcDbEntity
  8
shade
100
AcDbEllipse
 10
210.571476293848
 20
127.011849890609
 30
0.0
 11
0.0
 21
32.33162656308885
 31
0.0
210
0.0
220
0.0
230
-1.0
 40
0.717131804759
 41
4.71238898038469
 42
4.80165556593238
  0
ELLIPSE
  5
115D
330
1F
100
AcDbEntity
  8
shade
100
AcDbEllipse
 10
192.049125848505
 20
129.323604583084
 30
0.0
 11
0.0
 21
6.399999999999986
 31
0.0
210
0.0
220
0.0
230
-1.0
 40
0.717131804759
 41
4.80165556593238
 42
5.301606024571697
  0
ELLIPSE
  5
115E
330
1F
100
AcDbEntity
  8
shade
100
AcDbEllipse
 10
194.529343612041
 20
127.011849890609
 30
0.0
 11
0.0
 21
10.56
 31
0.0
210
0.0
220
0.0
230
-1.0
 40
0.717131804759
 41
5.301606024571699
 42
6.283185307179586
  0
LINE
  5
115F
330
1F
100
AcDbEntity
  8
shade
100
AcDbLine
 10
194.345591539863
 20
137.571849890608
 30
0.0
 11
194.527707843557
 21
137.571849890608
 31
0.0
  0
ELLIPSE
  5
1160
330
1F
100
AcDbEntity
  8
shade
100
AcDbEllipse
 10
211.25159803066
 20
127.011849890609
 30
0.0
 11
0.0
 21
32.33162656308885
 31
0.0
210
0.0
220
0.0
230
-1.0
 40
0.755749574354
 41
4.71238898038469
 42
4.80165556593238
  0
ELLIPSE
  5
1161
330
1F
100
AcDbEntity
  8
shade
100
AcDbEllipse
 10
191.73181328228
 20
129.323604583084
 30
0.0
 11
0.0
 21
6.399999999999986
 31
0.0
210
0.0
220
0.0
230
-1.0
 40
0.755749574354
 41
4.80165556593238
 42
5.301606024571701
  0
ELLIPSE
  5
1162
330
1F
100
AcDbEntity
  8
shade
100
AcDbEllipse
 10
194.345591539863
 20
127.011849890609
 30
0.0
 11
0.0
 21
10.56
 31
0.0
210
0.0
220
0.0
230
-1.0
 40
0.755749574354
 41
5.301606024571697
 42
6.283185307179586
  0
LINE
  5
1163
330
1F
100
AcDbEntity
  8
shade
100
AcDbLine
 10
194.17356896101
 20
137.571849890608
 30
0.0
 11
194.343903882687
 21
137.571849890608
 31
0.0
  0
ELLIPSE
  5
1164
330
1F
100
AcDbEntity
  8
shade
100
AcDbEllipse
 10
211.888305381577
 20
127.011849890609
 30
0.0
 11
0.0
 21
32.33162656308885
 31
0.0
210
0.0
220
0.0
230
-1.0
 40
0.791902245922
 41
4.71238898038469
 42
4.80165556593238
  0
ELLIPSE
  5
1165
330
1F
100
AcDbEntity
  8
shade
100
AcDbEllipse
 10
191.434755810784
 20
129.323604583084
 30
0.0
 11
0.0
 21
6.399999999999986
 31
0.0
210
0.0
220
0.0
230
-1.0
 40
0.791902245922
 41
4.80165556593238
 42
5.3016060245717
  0
ELLIPSE
  5
1166
330
1F
100
AcDbEntity
  8
shade
100
AcDbEllipse
 10
194.17356896101
 20
127.011849890609
 30
0.0
 11
0.0
 21
10.56
 31
0.0
210
0.0
220
0.0
230
-1.0
 40
0.791902245922
 41
5.301606024571697
 42
6.283185307179586
  0
LINE
  5
1167
330
1F
100
AcDbEntity
  8
shade
100
AcDbLine
 10
194.013836977378
 20
137.571849890608
 30
0.0
 11
194.171833784538
 21
137.571849890608
 31
0.0
  0
ELLIPSE
  5
1168
330
1F
100
AcDbEntity
  8
shade
100
AcDbEllipse
 10
212.479521539553
 20
127.011849890609
 30
0.0
 11
0.0
 21
32.33162656308885
 31
0.0
210
0.0
220
0.0
230
-1.0
 40
0.825471896963
 41
4.71238898038469
 42
4.80165556593238
  0
ELLIPSE
  5
1169
330
1F
100
AcDbEntity
  8
shade
100
AcDbEllipse
 10
191.158922373732
 20
129.323604583084
 30
0.0
 11
0.0
 21
6.399999999999986
 31
0.0
210
0.0
220
0.0
230
-1.0
 40
0.825471896963
 41
4.80165556593238
 42
5.301606024571701
  0
ELLIPSE
  5
116A
330
1F
100
AcDbEntity
  8
shade
100
AcDbEllipse
 10
194.013836977378
 20
127.011849890609
 30
0.0
 11
0.0
 21
10.56
 31
0.0
210
0.0
220
0.0
230
-1.0
 40
0.825471896963
 41
5.301606024571697
 42
6.283185307179586
  0
LINE
  5
116B
330
1F
100
AcDbEntity
  8
shade
100
AcDbLine
 10
193.866916601499
 20
137.571849890608
 30
0.0
 11
194.012058474535
 21
137.571849890608
 31
0.0
  0
ELLIPSE
  5
116C
330
1F
100
AcDbEntity
  8
shade
100
AcDbEllipse
 10
213.023318080373
 20
127.011849890609
 30
0.0
 11
0.0
 21
32.33162656308885
 31
0.0
210
0.0
220
0.0
230
-1.0
 40
0.856349030252
 41
4.71238898038469
 42
4.80165556593238
  0
ELLIPSE
  5
116D
330
1F
100
AcDbEntity
  8
shade
100
AcDbEllipse
 10
190.905212682464
 20
129.323604583084
 30
0.0
 11
0.0
 21
6.399999999999986
 31
0.0
210
0.0
220
0.0
230
-1.0
 40
0.856349030252
 41
4.80165556593238
 42
5.301606024571698
  0
ELLIPSE
  5
116E
330
1F
100
AcDbEntity
  8
shade
100
AcDbEllipse
 10
193.866916601499
 20
127.011849890609
 30
0.0
 11
0.0
 21
10.56
 31
0.0
210
0.0
220
0.0
230
-1.0
 40
0.856349030252
 41
5.301606024571697
 42
6.283185307179586
  0
LINE
  5
116F
330
1F
100
AcDbEntity
  8
shade
100
AcDbLine
 10
193.733287057094
 20
137.571849890608
 30
0.0
 11
193.865098788348
 21
137.571849890608
 31
0.0
  0
ELLIPSE
  5
1170
330
1F
100
AcDbEntity
  8
shade
100
AcDbEllipse
 10
213.517921252755
 20
127.011849890609
 30
0.0
 11
0.0
 21
32.33162656308885
 31
0.0
210
0.0
220
0.0
230
-1.0
 40
0.884432930998
 41
4.71238898038469
 42
4.80165556593238
  0
ELLIPSE
  5
1171
330
1F
100
AcDbEntity
  8
shade
100
AcDbEllipse
 10
190.674454285265
 20
129.323604583084
 30
0.0
 11
0.0
 21
6.399999999999986
 31
0.0
210
0.0
220
0.0
230
-1.0
 40
0.884432930998
 41
4.801655565932381
 42
5.301606024571702
  0
ELLIPSE
  5
1172
330
1F
100
AcDbEntity
  8
shade
100
AcDbEllipse
 10
193.733287057094
 20
127.011849890609
 30
0.0
 11
0.0
 21
10.56
 31
0.0
210
0.0
220
0.0
230
-1.0
 40
0.884432930998
 41
5.301606024571697
 42
6.283185307179586
  0
LINE
  5
1173
330
1F
100
AcDbEntity
  8
shade
100
AcDbLine
 10
193.613384215969
 20
137.571849890608
 30
0.0
 11
193.731433830118
 21
137.571849890608
 31
0.0
  0
ELLIPSE
  5
1174
330
1F
100
AcDbEntity
  8
shade
100
AcDbEllipse
 10
213.961717763941
 20
127.011849890609
 30
0.0
 11
0.0
 21
32.33162656308885
 31
0.0
210
0.0
220
0.0
230
-1.0
 40
0.909631995355
 41
4.71238898038469
 42
4.80165556593238
  0
ELLIPSE
  5
1175
330
1F
100
AcDbEntity
  8
shade
100
AcDbEllipse
 10
190.467399868059
 20
129.323604583084
 30
0.0
 11
0.0
 21
6.399999999999986
 31
0.0
210
0.0
220
0.0
230
-1.0
 40
0.909631995355
 41
4.80165556593238
 42
5.301606024571699
  0
ELLIPSE
  5
1176
330
1F
100
AcDbEntity
  8
shade
100
AcDbEllipse
 10
193.613384215969
 20
127.011849890609
 30
0.0
 11
0.0
 21
10.56
 31
0.0
210
0.0
220
0.0
230
-1.0
 40
0.909631995355
 41
5.301606024571696
 42
6.283185307179586
  0
LINE
  5
1177
330
1F
100
AcDbEntity
  8
shade
100
AcDbLine
 10
193.507599176264
 20
137.571849890608
 30
0.0
 11
193.611499359784
 21
137.571849890608
 31
0.0
  0
ELLIPSE
  5
1178
330
1F
100
AcDbEntity
  8
shade
100
AcDbEllipse
 10
214.353260041968
 20
127.011849890609
 30
0.0
 11
0.0
 21
32.33162656308885
 31
0.0
210
0.0
220
0.0
230
-1.0
 40
0.931864029211
 41
4.71238898038469
 42
4.80165556593238
  0
ELLIPSE
  5
1179
330
1F
100
AcDbEntity
  8
shade
100
AcDbEllipse
 10
190.284724799316
 20
129.323604583084
 30
0.0
 11
0.0
 21
6.399999999999986
 31
0.0
210
0.0
220
0.0
230
-1.0
 40
0.931864029211
 41
4.80165556593238
 42
5.301606024571699
  0
ELLIPSE
  5
117A
330
1F
100
AcDbEntity
  8
shade
100
AcDbEllipse
 10
193.507599176264
 20
127.011849890609
 30
0.0
 11
0.0
 21
10.56
 31
0.0
210
0.0
220
0.0
230
-1.0
 40
0.931864029211
 41
5.301606024571697
 42
6.283185307179586
  0
LINE
  5
117B
330
1F
100
AcDbEntity
  8
shade
100
AcDbLine
 10
193.416276986794
 20
137.571849890608
 30
0.0
 11
193.505686400269
 21
137.571849890608
 31
0.0
  0
ELLIPSE
  5
117C
330
1F
100
AcDbEntity
  8
shade
100
AcDbEllipse
 10
214.691270957304
 20
127.011849890609
 30
0.0
 11
0.0
 21
32.33162656308887
 31
0.0
210
0.0
220
0.0
230
-1.0
 40
0.951056516295
 41
4.71238898038469
 42
4.80165556593238
  0
ELLIPSE
  5
117D
330
1F
100
AcDbEntity
  8
shade
100
AcDbEllipse
 10
190.127024927144
 20
129.323604583084
 30
0.0
 11
0.0
 21
6.399999999999992
 31
0.0
210
0.0
220
0.0
230
-1.0
 40
0.951056516295
 41
4.80165556593238
 42
5.3016060245717
  0
ELLIPSE
  5
117E
330
1F
100
AcDbEntity
  8
shade
100
AcDbEllipse
 10
193.416276986794
 20
127.011849890609
 30
0.0
 11
0.0
 21
10.56
 31
0.0
210
0.0
220
0.0
230
-1.0
 40
0.951056516295
 41
5.301606024571697
 42
6.283185307179586
  0
LINE
  5
117F
330
1F
100
AcDbEntity
  8
shade
100
AcDbLine
 10
193.339715521561
 20
137.571849890608
 30
0.0
 11
193.414339925243
 21
137.571849890608
 31
0.0
  0
ELLIPSE
  5
1180
330
1F
100
AcDbEntity
  8
shade
100
AcDbEllipse
 10
214.974647988598
 20
127.011849890609
 30
0.0
 11
0.0
 21
32.33162656308887
 31
0.0
210
0.0
220
0.0
230
-1.0
 40
0.967146854702
 41
4.71238898038469
 42
4.80165556593238
  0
ELLIPSE
  5
1181
330
1F
100
AcDbEntity
  8
shade
100
AcDbEllipse
 10
189.994814635753
 20
129.323604583084
 30
0.0
 11
0.0
 21
6.399999999999992
 31
0.0
210
0.0
220
0.0
230
-1.0
 40
0.967146854702
 41
4.80165556593238
 42
5.301606024571699
  0
ELLIPSE
  5
1182
330
1F
100
AcDbEntity
  8
shade
100
AcDbEllipse
 10
193.339715521561
 20
127.011849890609
 30
0.0
 11
0.0
 21
10.56000000000001
 31
0.0
210
0.0
220
0.0
230
-1.0
 40
0.967146854702
 41
5.301606024571698
 42
6.283185307179586
  0
LINE
  5
1183
330
1F
100
AcDbEntity
  8
shade
100
AcDbLine
 10
193.278164508152
 20
137.571849890608
 30
0.0
 11
193.337757751913
 21
137.571849890608
 31
0.0
  0
ELLIPSE
  5
1184
330
1F
100
AcDbEntity
  8
shade
100
AcDbEllipse
 10
215.202466818875
 20
127.011849890609
 30
0.0
 11
0.0
 21
32.33162656308885
 31
0.0
210
0.0
220
0.0
230
-1.0
 40
0.980082561092
 41
4.71238898038469
 42
4.80165556593238
  0
ELLIPSE
  5
1185
330
1F
100
AcDbEntity
  8
shade
100
AcDbEllipse
 10
189.888525167622
 20
129.323604583084
 30
0.0
 11
0.0
 21
6.399999999999992
 31
0.0
210
0.0
220
0.0
230
-1.0
 40
0.980082561092
 41
4.80165556593238
 42
5.301606024571699
  0
ELLIPSE
  5
1186
330
1F
100
AcDbEntity
  8
shade
100
AcDbEllipse
 10
193.278164508152
 20
127.011849890609
 30
0.0
 11
0.0
 21
10.56
 31
0.0
210
0.0
220
0.0
230
-1.0
 40
0.980082561092
 41
5.301606024571699
 42
6.283185307179586
  0
LINE
  5
1187
330
1F
100
AcDbEntity
  8
shade
100
AcDbLine
 10
193.231824713173
 20
137.571849890608
 30
0.0
 11
193.276189578293
 21
137.571849890608
 31
0.0
  0
ELLIPSE
  5
1188
330
1F
100
AcDbEntity
  8
shade
100
AcDbEllipse
 10
215.373984350466
 20
127.011849890609
 30
0.0
 11
0.0
 21
32.33162656308885
 31
0.0
210
0.0
220
0.0
230
-1.0
 40
0.989821441881
 41
4.71238898038469
 42
4.80165556593238
  0
ELLIPSE
  5
1189
330
1F
100
AcDbEntity
  8
shade
100
AcDbEllipse
 10
189.808503216911
 20
129.323604583084
 30
0.0
 11
0.0
 21
6.399999999999986
 31
0.0
210
0.0
220
0.0
230
-1.0
 40
0.989821441881
 41
4.801655565932381
 42
5.301606024571701
  0
ELLIPSE
  5
118A
330
1F
100
AcDbEntity
  8
shade
100
AcDbEllipse
 10
193.231824713173
 20
127.011849890609
 30
0.0
 11
0.0
 21
10.56
 31
0.0
210
0.0
220
0.0
230
-1.0
 40
0.989821441881
 41
5.301606024571697
 42
6.283185307179586
  0
LINE
  5
118B
330
1F
100
AcDbEntity
  8
shade
100
AcDbLine
 10
193.200847287408
 20
137.571849890608
 30
0.0
 11
193.229836119193
 21
137.571849890608
 31
0.0
  0
ELLIPSE
  5
118C
330
1F
100
AcDbEntity
  8
shade
100
AcDbEllipse
 10
215.488641128828
 20
127.011849890609
 30
0.0
 11
0.0
 21
32.33162656308887
 31
0.0
210
0.0
220
0.0
230
-1.0
 40
0.996331730863
 41
4.71238898038469
 42
4.80165556593238
  0
ELLIPSE
  5
118D
330
1F
100
AcDbEntity
  8
shade
100
AcDbEllipse
 10
189.755009798591
 20
129.323604583084
 30
0.0
 11
0.0
 21
6.399999999999992
 31
0.0
210
0.0
220
0.0
230
-1.0
 40
0.996331730863
 41
4.80165556593238
 42
5.301606024571698
  0
ELLIPSE
  5
118E
330
1F
100
AcDbEntity
  8
shade
100
AcDbEllipse
 10
193.200847287408
 20
127.011849890609
 30
0.0
 11
0.0
 21
10.56000000000001
 31
0.0
210
0.0
220
0.0
230
-1.0
 40
0.996331730863
 41
5.301606024571698
 42
6.283185307179586
  0
LINE
  5
118F
330
1F
100
AcDbEntity
  8
shade
100
AcDbLine
 10
193.185333272777
 20
137.571849890608
 30
0.0
 11
193.198848505926
 21
137.571849890608
 31
0.0
  0
ELLIPSE
  5
1190
330
1F
100
AcDbEntity
  8
shade
100
AcDbEllipse
 10
215.546063167389
 20
127.011849890609
 30
0.0
 11
0.0
 21
32.33162656308885
 31
0.0
210
0.0
220
0.0
230
-1.0
 40
0.999592192828
 41
4.71238898038469
 42
4.80165556593238
  0
ELLIPSE
  5
1191
330
1F
100
AcDbEntity
  8
shade
100
AcDbEllipse
 10
189.728219397068
 20
129.323604583084
 30
0.0
 11
0.0
 21
6.399999999999986
 31
0.0
210
0.0
220
0.0
230
-1.0
 40
0.999592192828
 41
4.80165556593238
 42
5.3016060245717
  0
ELLIPSE
  5
1192
330
1F
100
AcDbEntity
  8
shade
100
AcDbEllipse
 10
193.185333272777
 20
127.011849890609
 30
0.0
 11
0.0
 21
10.56
 31
0.0
210
0.0
220
0.0
230
-1.0
 40
0.999592192828
 41
5.301606024571697
 42
6.283185307179586
  0
ELLIPSE
  5
1193
330
1F
100
AcDbEntity
  8
shade
100
AcDbEllipse
 10
197.706980815197
 20
129.323604583084
 30
0.0
 11
0.0
 21
5.695999999999986
 31
0.0
210
0.0
220
0.0
230
1.0
 40
0.028556050857
 41
0.9815792826079035
 42
1.481529741247196
  0
ELLIPSE
  5
1194
330
1F
100
AcDbEntity
  8
shade
100
AcDbEllipse
 10
198.444537255735
 20
127.011849890609
 30
0.0
 11
0.0
 21
31.62762656308885
 31
0.0
210
0.0
220
0.0
230
1.0
 40
0.028556050857
 41
1.481529741247205
 42
1.570796326794897
  0
ELLIPSE
  5
1195
330
1F
100
AcDbEntity
  8
shade
100
AcDbEllipse
 10
197.805742610621
 20
127.011849890609
 30
0.0
 11
0.0
 21
9.856000000000002
 31
0.0
210
0.0
220
0.0
230
1.0
 40
0.028556050857
 41
0.1296820381237737
 42
0.9815792826078551
  0
ELLIPSE
  5
1196
330
1F
100
AcDbEntity
  8
shade
100
AcDbEllipse
 10
197.23847028298
 20
129.323604583084
 30
0.0
 11
0.0
 21
5.695999999999992
 31
0.0
210
0.0
220
0.0
230
1.0
 40
0.085575008542
 41
0.9815792826078977
 42
1.481529741247207
  0
ELLIPSE
  5
1197
330
1F
100
AcDbEntity
  8
shade
100
AcDbEllipse
 10
199.448733845496
 20
127.011849890609
 30
0.0
 11
0.0
 21
31.62762656308887
 31
0.0
210
0.0
220
0.0
230
1.0
 40
0.085575008542
 41
1.481529741247206
 42
1.570796326794897
  0
ELLIPSE
  5
1198
330
1F
100
AcDbEntity
  8
shade
100
AcDbEllipse
 10
197.534433528359
 20
127.011849890609
 30
0.0
 11
0.0
 21
9.856000000000002
 31
0.0
210
0.0
220
0.0
230
1.0
 40
0.085575008542
 41
0.1055218818997452
 42
0.9815792826079008
  0
ELLIPSE
  5
1199
330
1F
100
AcDbEntity
  8
shade
100
AcDbEllipse
 10
196.772253274914
 20
129.323604583084
 30
0.0
 11
0.0
 21
5.695999999999992
 31
0.0
210
0.0
220
0.0
230
1.0
 40
0.142314838336
 41
0.9815792826078955
 42
1.481529741247207
  0
ELLIPSE
  5
119A
330
1F
100
AcDbEntity
  8
shade
100
AcDbEllipse
 10
200.448014539081
 20
127.011849890609
 30
0.0
 11
0.0
 21
31.62762656308884
 31
0.0
210
0.0
220
0.0
230
1.0
 40
0.142314838336
 41
1.481529741247206
 42
1.570796326794897
  0
ELLIPSE
  5
119B
330
1F
100
AcDbEntity
  8
shade
100
AcDbEllipse
 10
197.264452599662
 20
127.011849890609
 30
0.0
 11
0.0
 21
9.856000000000002
 31
0.0
210
0.0
220
0.0
230
1.0
 40
0.142314838336
 41
0.293567701527414
 42
0.9815792826078811
  0
ELLIPSE
  5
119C
330
1F
100
AcDbEntity
  8
shade
100
AcDbEllipse
 10
196.309850493981
 20
129.323604583084
 30
0.0
 11
0.0
 21
5.695999999999986
 31
0.0
210
0.0
220
0.0
230
1.0
 40
0.198590466708
 41
0.981579282607898
 42
1.481529741247206
  0
ELLIPSE
  5
119D
330
1F
100
AcDbEntity
  8
shade
100
AcDbEllipse
 10
201.439119890569
 20
127.011849890609
 30
0.0
 11
0.0
 21
31.62762656308885
 31
0.0
210
0.0
220
0.0
230
1.0
 40
0.198590466708
 41
1.481529741247206
 42
1.570796326794897
  0
ELLIPSE
  5
119E
330
1F
100
AcDbEntity
  8
shade
100
AcDbEllipse
 10
196.996680446202
 20
127.011849890609
 30
0.0
 11
0.0
 21
9.856000000000002
 31
0.0
210
0.0
220
0.0
230
1.0
 40
0.198590466708
 41
0.4357351356124137
 42
0.9815792826078853
  0
ELLIPSE
  5
119F
330
1F
100
AcDbEntity
  8
shade
100
AcDbEllipse
 10
195.852770201942
 20
129.323604583084
 30
0.0
 11
0.0
 21
5.695999999999992
 31
0.0
210
0.0
220
0.0
230
1.0
 40
0.254218334255
 41
0.9815792826078886
 42
1.481529741247205
  0
ELLIPSE
  5
11A0
330
1F
100
AcDbEntity
  8
shade
100
AcDbEllipse
 10
202.41881712031
 20
127.011849890609
 30
0.0
 11
0.0
 21
31.62762656308885
 31
0.0
210
0.0
220
0.0
230
1.0
 40
0.254218334255
 41
1.481529741247206
 42
1.570796326794897
  0
ELLIPSE
  5
11A1
330
1F
100
AcDbEntity
  8
shade
100
AcDbEllipse
 10
196.731990485088
 20
127.011849890609
 30
0.0
 11
0.0
 21
9.856000000000002
 31
0.0
210
0.0
220
0.0
230
1.0
 40
0.254218334255
 41
0.5619538742074137
 42
0.9815792826078857
  0
ELLIPSE
  5
11A2
330
1F
100
AcDbEntity
  8
shade
100
AcDbEllipse
 10
195.402503299698
 20
129.323604583084
 30
0.0
 11
0.0
 21
5.695999999999986
 31
0.0
210
0.0
220
0.0
230
1.0
 40
0.309016994435
 41
0.9815792826078877
 42
1.481529741247205
  0
ELLIPSE
  5
11A3
330
1F
100
AcDbEntity
  8
shade
100
AcDbEllipse
 10
203.383910659566
 20
127.011849890609
 30
0.0
 11
0.0
 21
31.62762656308885
 31
0.0
210
0.0
220
0.0
230
1.0
 40
0.309016994435
 41
1.481529741247206
 42
1.570796326794897
  0
ELLIPSE
  5
11A4
330
1F
100
AcDbEntity
  8
shade
100
AcDbEllipse
 10
196.47124607996
 20
127.011849890609
 30
0.0
 11
0.0
 21
9.856000000000002
 31
0.0
210
0.0
220
0.0
230
1.0
 40
0.309016994435
 41
0.6834840190045115
 42
0.9815792826078866
  0
ELLIPSE
  5
11A5
330
1F
100
AcDbEntity
  8
shade
100
AcDbEllipse
 10
194.960518464297
 20
129.323604583084
 30
0.0
 11
0.0
 21
5.695999999999986
 31
0.0
210
0.0
220
0.0
230
1.0
 40
0.36280770541
 41
0.9815792826078868
 42
1.481529741247205
  0
ELLIPSE
  5
11A6
330
1F
100
AcDbEntity
  8
shade
100
AcDbEllipse
 10
204.331252573811
 20
127.011849890609
 30
0.0
 11
0.0
 21
31.62762656308884
 31
0.0
210
0.0
220
0.0
230
1.0
 40
0.36280770541
 41
1.481529741247206
 42
1.570796326794897
  0
ELLIPSE
  5
11A7
330
1F
100
AcDbEntity
  8
shade
100
AcDbEllipse
 10
196.215297724862
 20
127.011849890609
 30
0.0
 11
0.0
 21
9.856000000000002
 31
0.0
210
0.0
220
0.0
230
1.0
 40
0.36280770541
 41
0.807651404004911
 42
0.9815792826078897
  0
ELLIPSE
  5
11A8
330
1F
100
AcDbEntity
  8
shade
100
AcDbEllipse
 10
194.528257358405
 20
129.323604583084
 30
0.0
 11
0.0
 21
5.695999999999986
 31
0.0
210
0.0
220
0.0
230
1.0
 40
0.41541501306
 41
0.9815792826078835
 42
1.481529741247205
  0
ELLIPSE
  5
11A9
330
1F
100
AcDbEntity
  8
shade
100
AcDbEllipse
 10
205.257752830625
 20
127.011849890609
 30
0.0
 11
0.0
 21
31.62762656308884
 31
0.0
210
0.0
220
0.0
230
1.0
 40
0.41541501306
 41
1.481529741247205
 42
1.570796326794897
  0
ELLIPSE
  5
11AA
330
1F
100
AcDbEntity
  8
shade
100
AcDbEllipse
 10
195.964980270139
 20
127.011849890609
 30
0.0
 11
0.0
 21
9.856000000000002
 31
0.0
210
0.0
220
0.0
230
1.0
 40
0.41541501306
 41
0.942387445104143
 42
0.9815792826078864
  0
ELLIPSE
  5
11AB
330
1F
100
AcDbEntity
  8
shade
100
AcDbEllipse
 10
194.107129927903
 20
129.323604583084
 30
0.0
 11
0.0
 21
5.695999999999986
 31
0.0
210
0.0
220
0.0
230
1.0
 40
0.466667323282
 41
1.125848469511864
 42
1.481529741247205
  0
ELLIPSE
  5
11AC
330
1F
100
AcDbEntity
  8
shade
100
AcDbEllipse
 10
206.160389378754
 20
127.011849890609
 30
0.0
 11
0.0
 21
31.62762656308885
 31
0.0
210
0.0
220
0.0
230
1.0
 40
0.466667323282
 41
1.481529741247205
 42
1.570796326794897
  0
LWPOLYLINE
  5
11AD
330
1F
100
AcDbEntity
  8
shade
100
AcDbPolyline
 90
        2
 70
     0
 43
0.0
 10
197.813009078811
 20
137.571849890608
 10
197.850855797857
 20
137.157340403985
  0
LINE
  5
11AE
330
1F
100
AcDbEntity
  8
shade
100
AcDbLine
 10
197.94161875192
 20
137.571849890608
 30
0.0
 11
197.769346020359
 21
136.785089672696
 31
0.0
  0
LINE
  5
11AF
330
1F
100
AcDbEntity
  8
shade
100
AcDbLine
 10
197.94161875192
 20
137.571849890608
 30
0.0
 11
197.94161875192
 21
116.451849890609
 31
0.0
  0
LINE
  5
11B0
330
1F
100
AcDbEntity
  8
shade
100
AcDbLine
 10
197.669977292458
 20
116.451849890609
 30
0.0
 11
197.813009078811
 21
116.451849890609
 31
0.0
  0
ELLIPSE
  5
11B1
330
1F
100
AcDbEntity
  8
shade
100
AcDbEllipse
 10
198.947045569766
 20
127.011849890609
 30
0.0
 11
0.0
 21
-32.33162656308885
 31
0.0
210
0.0
220
0.0
230
1.0
 40
0.057088810863
 41
4.71238898038469
 42
4.80165556593238
  0
ELLIPSE
  5
11B2
330
1F
100
AcDbEntity
  8
shade
100
AcDbEllipse
 10
197.472534253589
 20
124.700095198134
 30
0.0
 11
0.0
 21
-6.399999999999982
 31
0.0
210
0.0
220
0.0
230
1.0
 40
0.057088810863
 41
4.801655565932384
 42
5.301606024571717
  0
ELLIPSE
  5
11B3
330
1F
100
AcDbEntity
  8
shade
100
AcDbEllipse
 10
197.669977292458
 20
127.011849890609
 30
0.0
 11
0.0
 21
-10.56
 31
0.0
210
0.0
220
0.0
230
1.0
 40
0.057088810863
 41
5.301606024571704
 42
6.283185307179586
  0
LINE
  5
11B4
330
1F
100
AcDbEntity
  8
shade
100
AcDbLine
 10
197.399221870972
 20
116.451849890609
 30
0.0
 11
197.669862676321
 21
116.451849890609
 31
0.0
  0
ELLIPSE
  5
11B5
330
1F
100
AcDbEntity
  8
shade
100
AcDbEllipse
 10
199.949192894313
 20
127.011849890609
 30
0.0
 11
0.0
 21
-32.33162656308883
 31
0.0
210
0.0
220
0.0
230
1.0
 40
0.113991409891
 41
4.71238898038469
 42
4.80165556593238
  0
ELLIPSE
  5
11B6
330
1F
100
AcDbEntity
  8
shade
100
AcDbEllipse
 10
197.004979811391
 20
124.700095198134
 30
0.0
 11
0.0
 21
-6.399999999999982
 31
0.0
210
0.0
220
0.0
230
1.0
 40
0.113991409891
 41
4.801655565932381
 42
5.301606024571704
  0
ELLIPSE
  5
11B7
330
1F
100
AcDbEntity
  8
shade
100
AcDbEllipse
 10
197.399221870972
 20
127.011849890609
 30
0.0
 11
0.0
 21
-10.56
 31
0.0
210
0.0
220
0.0
230
1.0
 40
0.113991409891
 41
5.301606024571706
 42
6.283185307179586
  0
LINE
  5
11B8
330
1F
100
AcDbEntity
  8
shade
100
AcDbLine
 10
197.130235635377
 20
116.451849890609
 30
0.0
 11
197.398855932272
 21
116.451849890609
 31
0.0
  0
ELLIPSE
  5
11B9
330
1F
100
AcDbEntity
  8
shade
100
AcDbEllipse
 10
200.944791929283
 20
127.011849890609
 30
0.0
 11
0.0
 21
-32.33162656308883
 31
0.0
210
0.0
220
0.0
230
1.0
 40
0.170522192633
 41
4.71238898038469
 42
4.80165556593238
  0
ELLIPSE
  5
11BA
330
1F
100
AcDbEntity
  8
shade
100
AcDbEllipse
 10
196.54048049073
 20
124.700095198134
 30
0.0
 11
0.0
 21
-6.399999999999982
 31
0.0
210
0.0
220
0.0
230
1.0
 40
0.170522192633
 41
4.801655565932383
 42
5.301606024571697
  0
ELLIPSE
  5
11BB
330
1F
100
AcDbEntity
  8
shade
100
AcDbEllipse
 10
197.130235635377
 20
127.011849890609
 30
0.0
 11
0.0
 21
-10.56
 31
0.0
210
0.0
220
0.0
230
1.0
 40
0.170522192633
 41
5.301606024571693
 42
6.283185307179586
  0
LINE
  5
11BC
330
1F
100
AcDbEntity
  8
shade
100
AcDbLine
 10
196.863895962855
 20
116.451849890609
 30
0.0
 11
197.129657265788
 21
116.451849890609
 31
0.0
  0
ELLIPSE
  5
11BD
330
1F
100
AcDbEntity
  8
shade
100
AcDbEllipse
 10
201.930595237569
 20
127.011849890609
 30
0.0
 11
0.0
 21
-32.33162656308885
 31
0.0
210
0.0
220
0.0
230
1.0
 40
0.226496767426
 41
4.71238898038469
 42
4.80165556593238
  0
ELLIPSE
  5
11BE
330
1F
100
AcDbEntity
  8
shade
100
AcDbEllipse
 10
196.080551391853
 20
124.700095198134
 30
0.0
 11
0.0
 21
-6.399999999999991
 31
0.0
210
0.0
220
0.0
230
1.0
 40
0.226496767426
 41
4.80165556593238
 42
5.301606024571697
  0
ELLIPSE
  5
11BF
330
1F
100
AcDbEntity
  8
shade
100
AcDbEllipse
 10
196.863895962855
 20
127.011849890609
 30
0.0
 11
0.0
 21
-10.56
 31
0.0
210
0.0
220
0.0
230
1.0
 40
0.226496767426
 41
5.301606024571692
 42
6.283185307179586
  0
LINE
  5
11C0
330
1F
100
AcDbEntity
  8
shade
100
AcDbLine
 10
196.60107159807
 20
116.451849890609
 30
0.0
 11
196.863148587723
 21
116.451849890609
 31
0.0
  0
ELLIPSE
  5
11C1
330
1F
100
AcDbEntity
  8
shade
100
AcDbEllipse
 10
202.903387333678
 20
127.011849890609
 30
0.0
 11
0.0
 21
-32.33162656308885
 31
0.0
210
0.0
220
0.0
230
1.0
 40
0.281732556841
 41
4.71238898038469
 42
4.80165556593238
  0
ELLIPSE
  5
11C2
330
1F
100
AcDbEntity
  8
shade
100
AcDbEllipse
 10
195.626692707876
 20
124.700095198134
 30
0.0
 11
0.0
 21
-6.399999999999991
 31
0.0
210
0.0
220
0.0
230
1.0
 40
0.281732556841
 41
4.80165556593238
 42
5.301606024571702
  0
ELLIPSE
  5
11C3
330
1F
100
AcDbEntity
  8
shade
100
AcDbEllipse
 10
196.60107159807
 20
127.011849890609
 30
0.0
 11
0.0
 21
-10.56
 31
0.0
210
0.0
220
0.0
230
1.0
 40
0.281732556841
 41
5.301606024571699
 42
6.283185307179586
  0
LINE
  5
11C4
330
1F
100
AcDbEntity
  8
shade
100
AcDbLine
 10
196.342619819461
 20
116.451849890609
 30
0.0
 11
196.600183653543
 21
116.451849890609
 31
0.0
  0
ELLIPSE
  5
11C5
330
1F
100
AcDbEntity
  8
shade
100
AcDbEllipse
 10
203.859995171984
 20
127.011849890609
 30
0.0
 11
0.0
 21
-32.33162656308883
 31
0.0
210
0.0
220
0.0
230
1.0
 40
0.336049393215
 41
4.71238898038469
 42
4.80165556593238
  0
ELLIPSE
  5
11C6
330
1F
100
AcDbEntity
  8
shade
100
AcDbEllipse
 10
195.180384831488
 20
124.700095198134
 30
0.0
 11
0.0
 21
-6.399999999999982
 31
0.0
210
0.0
220
0.0
230
1.0
 40
0.336049393215
 41
4.801655565932382
 42
5.301606024571701
  0
ELLIPSE
  5
11C7
330
1F
100
AcDbEntity
  8
shade
100
AcDbEllipse
 10
196.342619819461
 20
127.011849890609
 30
0.0
 11
0.0
 21
-10.56
 31
0.0
210
0.0
220
0.0
230
1.0
 40
0.336049393215
 41
5.301606024571694
 42
6.283185307179586
  0
LINE
  5
11C8
330
1F
100
AcDbEntity
  8
shade
100
AcDbLine
 10
196.089383643019
 20
116.451849890609
 30
0.0
 11
196.341610718908
 21
116.451849890609
 31
0.0
  0
ELLIPSE
  5
11C9
330
1F
100
AcDbEntity
  8
shade
100
AcDbEllipse
 10
204.797298496556
 20
127.011849890609
 30
0.0
 11
0.0
 21
-32.33162656308883
 31
0.0
210
0.0
220
0.0
230
1.0
 40
0.389270106317
 41
4.71238898038469
 42
4.80165556593238
  0
ELLIPSE
  5
11CA
330
1F
100
AcDbEntity
  8
shade
100
AcDbEllipse
 10
194.743083526228
 20
124.700095198134
 30
0.0
 11
0.0
 21
-6.399999999999982
 31
0.0
210
0.0
220
0.0
230
1.0
 40
0.389270106317
 41
4.801655565932381
 42
5.301606024571696
  0
ELLIPSE
  5
11CB
330
1F
100
AcDbEntity
  8
shade
100
AcDbEllipse
 10
196.089383643019
 20
127.011849890609
 30
0.0
 11
0.0
 21
-10.56
 31
0.0
210
0.0
220
0.0
230
1.0
 40
0.389270106317
 41
5.301606024571699
 42
6.283185307179586
  0
LINE
  5
11CC
330
1F
100
AcDbEntity
  8
shade
100
AcDbLine
 10
195.842189072508
 20
116.451849890609
 30
0.0
 11
196.088267573869
 21
116.451849890609
 31
0.0
  0
ELLIPSE
  5
11CD
330
1F
100
AcDbEntity
  8
shade
100
AcDbEllipse
 10
205.712240018769
 20
127.011849890609
 30
0.0
 11
0.0
 21
-32.33162656308885
 31
0.0
210
0.0
220
0.0
230
1.0
 40
0.441221101243
 41
4.71238898038469
 42
4.80165556593238
  0
ELLIPSE
  5
11CE
330
1F
100
AcDbEntity
  8
shade
100
AcDbEllipse
 10
194.316215178045
 20
124.700095198134
 30
0.0
 11
0.0
 21
-6.399999999999982
 31
0.0
210
0.0
220
0.0
230
1.0
 40
0.441221101243
 41
4.801655565932382
 42
5.301606024571704
  0
ELLIPSE
  5
11CF
330
1F
100
AcDbEntity
  8
shade
100
AcDbEllipse
 10
195.842189072508
 20
127.011849890609
 30
0.0
 11
0.0
 21
-10.56
 31
0.0
210
0.0
220
0.0
230
1.0
 40
0.441221101243
 41
5.301606024571698
 42
6.283185307179586
  0
LINE
  5
11D0
330
1F
100
AcDbEntity
  8
shade
100
AcDbLine
 10
195.601842405238
 20
116.451849890609
 30
0.0
 11
195.840977091568
 21
116.451849890609
 31
0.0
  0
ELLIPSE
  5
11D1
330
1F
100
AcDbEntity
  8
shade
100
AcDbEllipse
 10
206.601835389556
 20
127.011849890609
 30
0.0
 11
0.0
 21
-32.33162656308885
 31
0.0
210
0.0
220
0.0
230
1.0
 40
0.491732924646
 41
4.71238898038469
 42
4.80165556593238
  0
ELLIPSE
  5
11D2
330
1F
100
AcDbEntity
  8
shade
100
AcDbEllipse
 10
193.901172142771
 20
124.700095198134
 30
0.0
 11
0.0
 21
-6.399999999999991
 31
0.0
210
0.0
220
0.0
230
1.0
 40
0.491732924646
 41
4.801655565932381
 42
5.301606024571697
  0
ELLIPSE
  5
11D3
330
1F
100
AcDbEntity
  8
shade
100
AcDbEllipse
 10
195.601842405238
 20
127.011849890609
 30
0.0
 11
0.0
 21
-10.56
 31
0.0
210
0.0
220
0.0
230
1.0
 40
0.491732924646
 41
5.3016060245717
 42
6.283185307179586
  0
LINE
  5
11D4
330
1F
100
AcDbEntity
  8
shade
100
AcDbLine
 10
195.369127602084
 20
116.451849890609
 30
0.0
 11
195.60054350143
 21
116.451849890609
 31
0.0
  0
ELLIPSE
  5
11D5
330
1F
100
AcDbEntity
  8
shade
100
AcDbEllipse
 10
207.463182933712
 20
127.011849890609
 30
0.0
 11
0.0
 21
-32.33162656308885
 31
0.0
210
0.0
220
0.0
230
1.0
 40
0.540640817456
 41
4.71238898038469
 42
4.80165556593238
  0
ELLIPSE
  5
11D6
330
1F
100
AcDbEntity
  8
shade
100
AcDbEllipse
 10
193.499308204522
 20
124.700095198134
 30
0.0
 11
0.0
 21
-6.399999999999982
 31
0.0
210
0.0
220
0.0
230
1.0
 40
0.540640817456
 41
4.80165556593238
 42
5.301606024571699
  0
ELLIPSE
  5
11D7
330
1F
100
AcDbEntity
  8
shade
100
AcDbEllipse
 10
195.369127602084
 20
127.011849890609
 30
0.0
 11
0.0
 21
-10.56
 31
0.0
210
0.0
220
0.0
230
1.0
 40
0.540640817456
 41
5.301606024571699
 42
6.283185307179586
  0
LINE
  5
11D8
330
1F
100
AcDbEntity
  8
shade
100
AcDbLine
 10
195.144803730363
 20
116.451849890609
 30
0.0
 11
195.367749366538
 21
116.451849890609
 31
0.0
  0
ELLIPSE
  5
11D9
330
1F
100
AcDbEntity
  8
shade
100
AcDbEllipse
 10
208.293473114587
 20
127.011849890609
 30
0.0
 11
0.0
 21
-32.33162656308885
 31
0.0
210
0.0
220
0.0
230
1.0
 40
0.587785252292
 41
4.71238898038469
 42
4.80165556593238
  0
ELLIPSE
  5
11DA
330
1F
100
AcDbEntity
  8
shade
100
AcDbEllipse
 10
193.111934159937
 20
124.700095198134
 30
0.0
 11
0.0
 21
-6.399999999999982
 31
0.0
210
0.0
220
0.0
230
1.0
 40
0.587785252292
 41
4.80165556593238
 42
5.301606024571701
  0
ELLIPSE
  5
11DB
330
1F
100
AcDbEntity
  8
shade
100
AcDbEllipse
 10
195.144803730363
 20
127.011849890609
 30
0.0
 11
0.0
 21
-10.56
 31
0.0
210
0.0
220
0.0
230
1.0
 40
0.587785252292
 41
5.301606024571697
 42
6.283185307179586
  0
LINE
  5
11DC
330
1F
100
AcDbEntity
  8
shade
100
AcDbLine
 10
194.929602487919
 20
116.451849890609
 30
0.0
 11
195.143352777213
 21
116.451849890609
 31
0.0
  0
ELLIPSE
  5
11DD
330
1F
100
AcDbEntity
  8
shade
100
AcDbEllipse
 10
209.089997698185
 20
127.011849890609
 30
0.0
 11
0.0
 21
-32.33162656308885
 31
0.0
210
0.0
220
0.0
230
1.0
 40
0.633012453809
 41
4.71238898038469
 42
4.80165556593238
  0
ELLIPSE
  5
11DE
330
1F
100
AcDbEntity
  8
shade
100
AcDbEllipse
 10
192.740313542625
 20
124.700095198134
 30
0.0
 11
0.0
 21
-6.399999999999982
 31
0.0
210
0.0
220
0.0
230
1.0
 40
0.633012453809
 41
4.801655565932381
 42
5.301606024571698
  0
ELLIPSE
  5
11DF
330
1F
100
AcDbEntity
  8
shade
100
AcDbEllipse
 10
194.929602487919
 20
127.011849890609
 30
0.0
 11
0.0
 21
-10.56
 31
0.0
210
0.0
220
0.0
230
1.0
 40
0.633012453809
 41
5.301606024571696
 42
6.283185307179586
  0
LINE
  5
11E0
330
1F
100
AcDbEntity
  8
shade
100
AcDbLine
 10
194.724225816473
 20
116.451849890609
 30
0.0
 11
194.928084704679
 21
116.451849890609
 31
0.0
  0
ELLIPSE
  5
11E1
330
1F
100
AcDbEntity
  8
shade
100
AcDbEllipse
 10
209.85015858688
 20
127.011849890609
 30
0.0
 11
0.0
 21
-32.33162656308885
 31
0.0
210
0.0
220
0.0
230
1.0
 40
0.676174900274
 41
4.71238898038469
 42
4.80165556593238
  0
ELLIPSE
  5
11E2
330
1F
100
AcDbEntity
  8
shade
100
AcDbEllipse
 10
192.385658501804
 20
124.700095198134
 30
0.0
 11
0.0
 21
-6.399999999999982
 31
0.0
210
0.0
220
0.0
230
1.0
 40
0.676174900274
 41
4.801655565932381
 42
5.301606024571701
  0
ELLIPSE
  5
11E3
330
1F
100
AcDbEntity
  8
shade
100
AcDbEllipse
 10
194.724225816473
 20
127.011849890609
 30
0.0
 11
0.0
 21
-10.56
 31
0.0
210
0.0
220
0.0
230
1.0
 40
0.676174900274
 41
5.301606024571697
 42
6.283185307179586
  0
LINE
  5
11E4
330
1F
100
AcDbEntity
  8
shade
100
AcDbLine
 10
194.529343612041
 20
116.451849890609
 30
0.0
 11
194.722646565366
 21
116.451849890609
 31
0.0
  0
ELLIPSE
  5
11E5
330
1F
100
AcDbEntity
  8
shade
100
AcDbEllipse
 10
210.571476293848
 20
127.011849890609
 30
0.0
 11
0.0
 21
-32.33162656308883
 31
0.0
210
0.0
220
0.0
230
1.0
 40
0.717131804759
 41
4.71238898038469
 42
4.80165556593238
  0
ELLIPSE
  5
11E6
330
1F
100
AcDbEntity
  8
shade
100
AcDbEllipse
 10
192.049125848505
 20
124.700095198134
 30
0.0
 11
0.0
 21
-6.399999999999982
 31
0.0
210
0.0
220
0.0
230
1.0
 40
0.717131804759
 41
4.80165556593238
 42
5.301606024571697
  0
ELLIPSE
  5
11E7
330
1F
100
AcDbEntity
  8
shade
100
AcDbEllipse
 10
194.529343612041
 20
127.011849890609
 30
0.0
 11
0.0
 21
-10.56
 31
0.0
210
0.0
220
0.0
230
1.0
 40
0.717131804759
 41
5.301606024571699
 42
6.283185307179586
  0
LINE
  5
11E8
330
1F
100
AcDbEntity
  8
shade
100
AcDbLine
 10
194.345591539863
 20
116.451849890609
 30
0.0
 11
194.527707843557
 21
116.451849890609
 31
0.0
  0
ELLIPSE
  5
11E9
330
1F
100
AcDbEntity
  8
shade
100
AcDbEllipse
 10
211.25159803066
 20
127.011849890609
 30
0.0
 11
0.0
 21
-32.33162656308883
 31
0.0
210
0.0
220
0.0
230
1.0
 40
0.755749574354
 41
4.71238898038469
 42
4.80165556593238
  0
ELLIPSE
  5
11EA
330
1F
100
AcDbEntity
  8
shade
100
AcDbEllipse
 10
191.73181328228
 20
124.700095198134
 30
0.0
 11
0.0
 21
-6.399999999999982
 31
0.0
210
0.0
220
0.0
230
1.0
 40
0.755749574354
 41
4.80165556593238
 42
5.301606024571701
  0
ELLIPSE
  5
11EB
330
1F
100
AcDbEntity
  8
shade
100
AcDbEllipse
 10
194.345591539863
 20
127.011849890609
 30
0.0
 11
0.0
 21
-10.56
 31
0.0
210
0.0
220
0.0
230
1.0
 40
0.755749574354
 41
5.301606024571697
 42
6.283185307179586
  0
LINE
  5
11EC
330
1F
100
AcDbEntity
  8
shade
100
AcDbLine
 10
194.17356896101
 20
116.451849890609
 30
0.0
 11
194.343903882687
 21
116.451849890609
 31
0.0
  0
ELLIPSE
  5
11ED
330
1F
100
AcDbEntity
  8
shade
100
AcDbEllipse
 10
211.888305381577
 20
127.011849890609
 30
0.0
 11
0.0
 21
-32.33162656308885
 31
0.0
210
0.0
220
0.0
230
1.0
 40
0.791902245922
 41
4.71238898038469
 42
4.80165556593238
  0
ELLIPSE
  5
11EE
330
1F
100
AcDbEntity
  8
shade
100
AcDbEllipse
 10
191.434755810784
 20
124.700095198134
 30
0.0
 11
0.0
 21
-6.399999999999982
 31
0.0
210
0.0
220
0.0
230
1.0
 40
0.791902245922
 41
4.80165556593238
 42
5.3016060245717
  0
ELLIPSE
  5
11EF
330
1F
100
AcDbEntity
  8
shade
100
AcDbEllipse
 10
194.17356896101
 20
127.011849890609
 30
0.0
 11
0.0
 21
-10.56
 31
0.0
210
0.0
220
0.0
230
1.0
 40
0.791902245922
 41
5.301606024571697
 42
6.283185307179586
  0
LINE
  5
11F0
330
1F
100
AcDbEntity
  8
shade
100
AcDbLine
 10
194.013836977378
 20
116.451849890609
 30
0.0
 11
194.171833784538
 21
116.451849890609
 31
0.0
  0
ELLIPSE
  5
11F1
330
1F
100
AcDbEntity
  8
shade
100
AcDbEllipse
 10
212.479521539553
 20
127.011849890609
 30
0.0
 11
0.0
 21
-32.33162656308885
 31
0.0
210
0.0
220
0.0
230
1.0
 40
0.825471896963
 41
4.71238898038469
 42
4.80165556593238
  0
ELLIPSE
  5
11F2
330
1F
100
AcDbEntity
  8
shade
100
AcDbEllipse
 10
191.158922373732
 20
124.700095198134
 30
0.0
 11
0.0
 21
-6.399999999999982
 31
0.0
210
0.0
220
0.0
230
1.0
 40
0.825471896963
 41
4.80165556593238
 42
5.301606024571701
  0
ELLIPSE
  5
11F3
330
1F
100
AcDbEntity
  8
shade
100
AcDbEllipse
 10
194.013836977378
 20
127.011849890609
 30
0.0
 11
0.0
 21
-10.56
 31
0.0
210
0.0
220
0.0
230
1.0
 40
0.825471896963
 41
5.301606024571697
 42
6.283185307179586
  0
LINE
  5
11F4
330
1F
100
AcDbEntity
  8
shade
100
AcDbLine
 10
193.866916601499
 20
116.451849890609
 30
0.0
 11
194.012058474535
 21
116.451849890609
 31
0.0
  0
ELLIPSE
  5
11F5
330
1F
100
AcDbEntity
  8
shade
100
AcDbEllipse
 10
213.023318080373
 20
127.011849890609
 30
0.0
 11
0.0
 21
-32.33162656308883
 31
0.0
210
0.0
220
0.0
230
1.0
 40
0.856349030252
 41
4.71238898038469
 42
4.80165556593238
  0
ELLIPSE
  5
11F6
330
1F
100
AcDbEntity
  8
shade
100
AcDbEllipse
 10
190.905212682464
 20
124.700095198134
 30
0.0
 11
0.0
 21
-6.399999999999982
 31
0.0
210
0.0
220
0.0
230
1.0
 40
0.856349030252
 41
4.80165556593238
 42
5.301606024571698
  0
ELLIPSE
  5
11F7
330
1F
100
AcDbEntity
  8
shade
100
AcDbEllipse
 10
193.866916601499
 20
127.011849890609
 30
0.0
 11
0.0
 21
-10.56
 31
0.0
210
0.0
220
0.0
230
1.0
 40
0.856349030252
 41
5.301606024571697
 42
6.283185307179586
  0
LINE
  5
11F8
330
1F
100
AcDbEntity
  8
shade
100
AcDbLine
 10
193.733287057094
 20
116.451849890609
 30
0.0
 11
193.865098788348
 21
116.451849890609
 31
0.0
  0
ELLIPSE
  5
11F9
330
1F
100
AcDbEntity
  8
shade
100
AcDbEllipse
 10
213.517921252755
 20
127.011849890609
 30
0.0
 11
0.0
 21
-32.33162656308885
 31
0.0
210
0.0
220
0.0
230
1.0
 40
0.884432930998
 41
4.71238898038469
 42
4.80165556593238
  0
ELLIPSE
  5
11FA
330
1F
100
AcDbEntity
  8
shade
100
AcDbEllipse
 10
190.674454285265
 20
124.700095198134
 30
0.0
 11
0.0
 21
-6.399999999999982
 31
0.0
210
0.0
220
0.0
230
1.0
 40
0.884432930998
 41
4.801655565932381
 42
5.301606024571702
  0
ELLIPSE
  5
11FB
330
1F
100
AcDbEntity
  8
shade
100
AcDbEllipse
 10
193.733287057094
 20
127.011849890609
 30
0.0
 11
0.0
 21
-10.56
 31
0.0
210
0.0
220
0.0
230
1.0
 40
0.884432930998
 41
5.301606024571697
 42
6.283185307179586
  0
LINE
  5
11FC
330
1F
100
AcDbEntity
  8
shade
100
AcDbLine
 10
193.613384215969
 20
116.451849890609
 30
0.0
 11
193.731433830118
 21
116.451849890609
 31
0.0
  0
ELLIPSE
  5
11FD
330
1F
100
AcDbEntity
  8
shade
100
AcDbEllipse
 10
213.961717763941
 20
127.011849890609
 30
0.0
 11
0.0
 21
-32.33162656308885
 31
0.0
210
0.0
220
0.0
230
1.0
 40
0.909631995355
 41
4.71238898038469
 42
4.80165556593238
  0
ELLIPSE
  5
11FE
330
1F
100
AcDbEntity
  8
shade
100
AcDbEllipse
 10
190.467399868059
 20
124.700095198134
 30
0.0
 11
0.0
 21
-6.399999999999982
 31
0.0
210
0.0
220
0.0
230
1.0
 40
0.909631995355
 41
4.80165556593238
 42
5.301606024571699
  0
ELLIPSE
  5
11FF
330
1F
100
AcDbEntity
  8
shade
100
AcDbEllipse
 10
193.613384215969
 20
127.011849890609
 30
0.0
 11
0.0
 21
-10.56
 31
0.0
210
0.0
220
0.0
230
1.0
 40
0.909631995355
 41
5.301606024571696
 42
6.283185307179586
  0
LINE
  5
1200
330
1F
100
AcDbEntity
  8
shade
100
AcDbLine
 10
193.507599176264
 20
116.451849890609
 30
0.0
 11
193.611499359784
 21
116.451849890609
 31
0.0
  0
ELLIPSE
  5
1201
330
1F
100
AcDbEntity
  8
shade
100
AcDbEllipse
 10
214.353260041968
 20
127.011849890609
 30
0.0
 11
0.0
 21
-32.33162656308885
 31
0.0
210
0.0
220
0.0
230
1.0
 40
0.931864029211
 41
4.71238898038469
 42
4.80165556593238
  0
ELLIPSE
  5
1202
330
1F
100
AcDbEntity
  8
shade
100
AcDbEllipse
 10
190.284724799316
 20
124.700095198134
 30
0.0
 11
0.0
 21
-6.399999999999982
 31
0.0
210
0.0
220
0.0
230
1.0
 40
0.931864029211
 41
4.80165556593238
 42
5.301606024571699
  0
ELLIPSE
  5
1203
330
1F
100
AcDbEntity
  8
shade
100
AcDbEllipse
 10
193.507599176264
 20
127.011849890609
 30
0.0
 11
0.0
 21
-10.56
 31
0.0
210
0.0
220
0.0
230
1.0
 40
0.931864029211
 41
5.301606024571697
 42
6.283185307179586
  0
LINE
  5
1204
330
1F
100
AcDbEntity
  8
shade
100
AcDbLine
 10
193.416276986794
 20
116.451849890609
 30
0.0
 11
193.505686400269
 21
116.451849890609
 31
0.0
  0
ELLIPSE
  5
1205
330
1F
100
AcDbEntity
  8
shade
100
AcDbEllipse
 10
214.691270957304
 20
127.011849890609
 30
0.0
 11
0.0
 21
-32.33162656308885
 31
0.0
210
0.0
220
0.0
230
1.0
 40
0.951056516295
 41
4.71238898038469
 42
4.80165556593238
  0
ELLIPSE
  5
1206
330
1F
100
AcDbEntity
  8
shade
100
AcDbEllipse
 10
190.127024927144
 20
124.700095198134
 30
0.0
 11
0.0
 21
-6.399999999999991
 31
0.0
210
0.0
220
0.0
230
1.0
 40
0.951056516295
 41
4.80165556593238
 42
5.3016060245717
  0
ELLIPSE
  5
1207
330
1F
100
AcDbEntity
  8
shade
100
AcDbEllipse
 10
193.416276986794
 20
127.011849890609
 30
0.0
 11
0.0
 21
-10.56
 31
0.0
210
0.0
220
0.0
230
1.0
 40
0.951056516295
 41
5.301606024571697
 42
6.283185307179586
  0
LINE
  5
1208
330
1F
100
AcDbEntity
  8
shade
100
AcDbLine
 10
193.339715521561
 20
116.451849890609
 30
0.0
 11
193.414339925243
 21
116.451849890609
 31
0.0
  0
ELLIPSE
  5
1209
330
1F
100
AcDbEntity
  8
shade
100
AcDbEllipse
 10
214.974647988598
 20
127.011849890609
 30
0.0
 11
0.0
 21
-32.33162656308885
 31
0.0
210
0.0
220
0.0
230
1.0
 40
0.967146854702
 41
4.71238898038469
 42
4.80165556593238
  0
ELLIPSE
  5
120A
330
1F
100
AcDbEntity
  8
shade
100
AcDbEllipse
 10
189.994814635753
 20
124.700095198134
 30
0.0
 11
0.0
 21
-6.399999999999991
 31
0.0
210
0.0
220
0.0
230
1.0
 40
0.967146854702
 41
4.80165556593238
 42
5.301606024571699
  0
ELLIPSE
  5
120B
330
1F
100
AcDbEntity
  8
shade
100
AcDbEllipse
 10
193.339715521561
 20
127.011849890609
 30
0.0
 11
0.0
 21
-10.56
 31
0.0
210
0.0
220
0.0
230
1.0
 40
0.967146854702
 41
5.301606024571698
 42
6.283185307179586
  0
LINE
  5
120C
330
1F
100
AcDbEntity
  8
shade
100
AcDbLine
 10
193.278164508152
 20
116.451849890609
 30
0.0
 11
193.337757751913
 21
116.451849890609
 31
0.0
  0
ELLIPSE
  5
120D
330
1F
100
AcDbEntity
  8
shade
100
AcDbEllipse
 10
215.202466818875
 20
127.011849890609
 30
0.0
 11
0.0
 21
-32.33162656308885
 31
0.0
210
0.0
220
0.0
230
1.0
 40
0.980082561092
 41
4.71238898038469
 42
4.80165556593238
  0
ELLIPSE
  5
120E
330
1F
100
AcDbEntity
  8
shade
100
AcDbEllipse
 10
189.888525167622
 20
124.700095198134
 30
0.0
 11
0.0
 21
-6.399999999999991
 31
0.0
210
0.0
220
0.0
230
1.0
 40
0.980082561092
 41
4.80165556593238
 42
5.301606024571699
  0
ELLIPSE
  5
120F
330
1F
100
AcDbEntity
  8
shade
100
AcDbEllipse
 10
193.278164508152
 20
127.011849890609
 30
0.0
 11
0.0
 21
-10.56
 31
0.0
210
0.0
220
0.0
230
1.0
 40
0.980082561092
 41
5.301606024571699
 42
6.283185307179586
  0
LINE
  5
1210
330
1F
100
AcDbEntity
  8
shade
100
AcDbLine
 10
193.231824713173
 20
116.451849890609
 30
0.0
 11
193.276189578293
 21
116.451849890609
 31
0.0
  0
ELLIPSE
  5
1211
330
1F
100
AcDbEntity
  8
shade
100
AcDbEllipse
 10
215.373984350466
 20
127.011849890609
 30
0.0
 11
0.0
 21
-32.33162656308885
 31
0.0
210
0.0
220
0.0
230
1.0
 40
0.989821441881
 41
4.71238898038469
 42
4.80165556593238
  0
ELLIPSE
  5
1212
330
1F
100
AcDbEntity
  8
shade
100
AcDbEllipse
 10
189.808503216911
 20
124.700095198134
 30
0.0
 11
0.0
 21
-6.399999999999982
 31
0.0
210
0.0
220
0.0
230
1.0
 40
0.989821441881
 41
4.801655565932381
 42
5.301606024571701
  0
ELLIPSE
  5
1213
330
1F
100
AcDbEntity
  8
shade
100
AcDbEllipse
 10
193.231824713173
 20
127.011849890609
 30
0.0
 11
0.0
 21
-10.56
 31
0.0
210
0.0
220
0.0
230
1.0
 40
0.989821441881
 41
5.301606024571697
 42
6.283185307179586
  0
LINE
  5
1214
330
1F
100
AcDbEntity
  8
shade
100
AcDbLine
 10
193.200847287408
 20
116.451849890609
 30
0.0
 11
193.229836119193
 21
116.451849890609
 31
0.0
  0
ELLIPSE
  5
1215
330
1F
100
AcDbEntity
  8
shade
100
AcDbEllipse
 10
215.488641128828
 20
127.011849890609
 30
0.0
 11
0.0
 21
-32.33162656308885
 31
0.0
210
0.0
220
0.0
230
1.0
 40
0.996331730863
 41
4.71238898038469
 42
4.80165556593238
  0
ELLIPSE
  5
1216
330
1F
100
AcDbEntity
  8
shade
100
AcDbEllipse
 10
189.755009798591
 20
124.700095198134
 30
0.0
 11
0.0
 21
-6.399999999999991
 31
0.0
210
0.0
220
0.0
230
1.0
 40
0.996331730863
 41
4.80165556593238
 42
5.301606024571698
  0
ELLIPSE
  5
1217
330
1F
100
AcDbEntity
  8
shade
100
AcDbEllipse
 10
193.200847287408
 20
127.011849890609
 30
0.0
 11
0.0
 21
-10.56
 31
0.0
210
0.0
220
0.0
230
1.0
 40
0.996331730863
 41
5.301606024571698
 42
6.283185307179586
  0
LINE
  5
1218
330
1F
100
AcDbEntity
  8
shade
100
AcDbLine
 10
193.185333272777
 20
116.451849890609
 30
0.0
 11
193.198848505926
 21
116.451849890609
 31
0.0
  0
ELLIPSE
  5
1219
330
1F
100
AcDbEntity
  8
shade
100
AcDbEllipse
 10
215.546063167389
 20
127.011849890609
 30
0.0
 11
0.0
 21
-32.33162656308885
 31
0.0
210
0.0
220
0.0
230
1.0
 40
0.999592192828
 41
4.71238898038469
 42
4.80165556593238
  0
ELLIPSE
  5
121A
330
1F
100
AcDbEntity
  8
shade
100
AcDbEllipse
 10
189.728219397068
 20
124.700095198134
 30
0.0
 11
0.0
 21
-6.399999999999982
 31
0.0
210
0.0
220
0.0
230
1.0
 40
0.999592192828
 41
4.80165556593238
 42
5.3016060245717
  0
ELLIPSE
  5
121B
330
1F
100
AcDbEntity
  8
shade
100
AcDbEllipse
 10
193.185333272777
 20
127.011849890609
 30
0.0
 11
0.0
 21
-10.56
 31
0.0
210
0.0
220
0.0
230
1.0
 40
0.999592192828
 41
5.301606024571697
 42
6.283185307179586
  0
ELLIPSE
  5
121C
330
1F
100
AcDbEntity
  8
shade
100
AcDbEllipse
 10
197.706980815197
 20
124.700095198134
 30
0.0
 11
0.0
 21
-5.695999999999984
 31
0.0
210
0.0
220
0.0
230
-1.0
 40
0.028556050857
 41
0.9815792826079035
 42
1.481529741247196
  0
ELLIPSE
  5
121D
330
1F
100
AcDbEntity
  8
shade
100
AcDbEllipse
 10
198.444537255735
 20
127.011849890609
 30
0.0
 11
0.0
 21
-31.62762656308884
 31
0.0
210
0.0
220
0.0
230
-1.0
 40
0.028556050857
 41
1.481529741247205
 42
1.570796326794897
  0
ELLIPSE
  5
121E
330
1F
100
AcDbEntity
  8
shade
100
AcDbEllipse
 10
197.805742610621
 20
127.011849890609
 30
0.0
 11
0.0
 21
-9.855999999999996
 31
0.0
210
0.0
220
0.0
230
-1.0
 40
0.028556050857
 41
0.1296820381237737
 42
0.9815792826078551
  0
ELLIPSE
  5
121F
330
1F
100
AcDbEntity
  8
shade
100
AcDbEllipse
 10
197.23847028298
 20
124.700095198134
 30
0.0
 11
0.0
 21
-5.69599999999999
 31
0.0
210
0.0
220
0.0
230
-1.0
 40
0.085575008542
 41
0.9815792826078977
 42
1.481529741247207
  0
ELLIPSE
  5
1220
330
1F
100
AcDbEntity
  8
shade
100
AcDbEllipse
 10
199.448733845496
 20
127.011849890609
 30
0.0
 11
0.0
 21
-31.62762656308884
 31
0.0
210
0.0
220
0.0
230
-1.0
 40
0.085575008542
 41
1.481529741247206
 42
1.570796326794897
  0
ELLIPSE
  5
1221
330
1F
100
AcDbEntity
  8
shade
100
AcDbEllipse
 10
197.534433528359
 20
127.011849890609
 30
0.0
 11
0.0
 21
-9.855999999999996
 31
0.0
210
0.0
220
0.0
230
-1.0
 40
0.085575008542
 41
0.1055218818997452
 42
0.9815792826079008
  0
ELLIPSE
  5
1222
330
1F
100
AcDbEntity
  8
shade
100
AcDbEllipse
 10
196.772253274914
 20
124.700095198134
 30
0.0
 11
0.0
 21
-5.69599999999999
 31
0.0
210
0.0
220
0.0
230
-1.0
 40
0.142314838336
 41
0.9815792826078955
 42
1.481529741247207
  0
ELLIPSE
  5
1223
330
1F
100
AcDbEntity
  8
shade
100
AcDbEllipse
 10
200.448014539081
 20
127.011849890609
 30
0.0
 11
0.0
 21
-31.62762656308884
 31
0.0
210
0.0
220
0.0
230
-1.0
 40
0.142314838336
 41
1.481529741247206
 42
1.570796326794897
  0
ELLIPSE
  5
1224
330
1F
100
AcDbEntity
  8
shade
100
AcDbEllipse
 10
197.264452599662
 20
127.011849890609
 30
0.0
 11
0.0
 21
-9.855999999999996
 31
0.0
210
0.0
220
0.0
230
-1.0
 40
0.142314838336
 41
0.293567701527414
 42
0.9815792826078811
  0
ELLIPSE
  5
1225
330
1F
100
AcDbEntity
  8
shade
100
AcDbEllipse
 10
196.309850493981
 20
124.700095198134
 30
0.0
 11
0.0
 21
-5.695999999999984
 31
0.0
210
0.0
220
0.0
230
-1.0
 40
0.198590466708
 41
0.981579282607898
 42
1.481529741247206
  0
ELLIPSE
  5
1226
330
1F
100
AcDbEntity
  8
shade
100
AcDbEllipse
 10
201.439119890569
 20
127.011849890609
 30
0.0
 11
0.0
 21
-31.62762656308884
 31
0.0
210
0.0
220
0.0
230
-1.0
 40
0.198590466708
 41
1.481529741247206
 42
1.570796326794897
  0
ELLIPSE
  5
1227
330
1F
100
AcDbEntity
  8
shade
100
AcDbEllipse
 10
196.996680446202
 20
127.011849890609
 30
0.0
 11
0.0
 21
-9.855999999999996
 31
0.0
210
0.0
220
0.0
230
-1.0
 40
0.198590466708
 41
0.4357351356124137
 42
0.9815792826078853
  0
ELLIPSE
  5
1228
330
1F
100
AcDbEntity
  8
shade
100
AcDbEllipse
 10
195.852770201942
 20
124.700095198134
 30
0.0
 11
0.0
 21
-5.69599999999999
 31
0.0
210
0.0
220
0.0
230
-1.0
 40
0.254218334255
 41
0.9815792826078886
 42
1.481529741247205
  0
ELLIPSE
  5
1229
330
1F
100
AcDbEntity
  8
shade
100
AcDbEllipse
 10
202.41881712031
 20
127.011849890609
 30
0.0
 11
0.0
 21
-31.62762656308884
 31
0.0
210
0.0
220
0.0
230
-1.0
 40
0.254218334255
 41
1.481529741247206
 42
1.570796326794897
  0
ELLIPSE
  5
122A
330
1F
100
AcDbEntity
  8
shade
100
AcDbEllipse
 10
196.731990485088
 20
127.011849890609
 30
0.0
 11
0.0
 21
-9.855999999999996
 31
0.0
210
0.0
220
0.0
230
-1.0
 40
0.254218334255
 41
0.5619538742074137
 42
0.9815792826078857
  0
ELLIPSE
  5
122B
330
1F
100
AcDbEntity
  8
shade
100
AcDbEllipse
 10
195.402503299698
 20
124.700095198134
 30
0.0
 11
0.0
 21
-5.695999999999984
 31
0.0
210
0.0
220
0.0
230
-1.0
 40
0.309016994435
 41
0.9815792826078877
 42
1.481529741247205
  0
ELLIPSE
  5
122C
330
1F
100
AcDbEntity
  8
shade
100
AcDbEllipse
 10
203.383910659566
 20
127.011849890609
 30
0.0
 11
0.0
 21
-31.62762656308884
 31
0.0
210
0.0
220
0.0
230
-1.0
 40
0.309016994435
 41
1.481529741247206
 42
1.570796326794897
  0
ELLIPSE
  5
122D
330
1F
100
AcDbEntity
  8
shade
100
AcDbEllipse
 10
196.47124607996
 20
127.011849890609
 30
0.0
 11
0.0
 21
-9.855999999999996
 31
0.0
210
0.0
220
0.0
230
-1.0
 40
0.309016994435
 41
0.6834840190045115
 42
0.9815792826078866
  0
ELLIPSE
  5
122E
330
1F
100
AcDbEntity
  8
shade
100
AcDbEllipse
 10
194.960518464297
 20
124.700095198134
 30
0.0
 11
0.0
 21
-5.695999999999984
 31
0.0
210
0.0
220
0.0
230
-1.0
 40
0.36280770541
 41
0.9815792826078868
 42
1.481529741247205
  0
ELLIPSE
  5
122F
330
1F
100
AcDbEntity
  8
shade
100
AcDbEllipse
 10
204.331252573811
 20
127.011849890609
 30
0.0
 11
0.0
 21
-31.62762656308884
 31
0.0
210
0.0
220
0.0
230
-1.0
 40
0.36280770541
 41
1.481529741247206
 42
1.570796326794897
  0
ELLIPSE
  5
1230
330
1F
100
AcDbEntity
  8
shade
100
AcDbEllipse
 10
196.215297724862
 20
127.011849890609
 30
0.0
 11
0.0
 21
-9.855999999999996
 31
0.0
210
0.0
220
0.0
230
-1.0
 40
0.36280770541
 41
0.807651404004911
 42
0.9815792826078897
  0
ELLIPSE
  5
1231
330
1F
100
AcDbEntity
  8
shade
100
AcDbEllipse
 10
194.528257358405
 20
124.700095198134
 30
0.0
 11
0.0
 21
-5.695999999999984
 31
0.0
210
0.0
220
0.0
230
-1.0
 40
0.41541501306
 41
0.9815792826078835
 42
1.481529741247205
  0
ELLIPSE
  5
1232
330
1F
100
AcDbEntity
  8
shade
100
AcDbEllipse
 10
205.257752830625
 20
127.011849890609
 30
0.0
 11
0.0
 21
-31.62762656308884
 31
0.0
210
0.0
220
0.0
230
-1.0
 40
0.41541501306
 41
1.481529741247205
 42
1.570796326794897
  0
ELLIPSE
  5
1233
330
1F
100
AcDbEntity
  8
shade
100
AcDbEllipse
 10
195.964980270139
 20
127.011849890609
 30
0.0
 11
0.0
 21
-9.855999999999996
 31
0.0
210
0.0
220
0.0
230
-1.0
 40
0.41541501306
 41
0.942387445104143
 42
0.9815792826078864
  0
ELLIPSE
  5
1234
330
1F
100
AcDbEntity
  8
shade
100
AcDbEllipse
 10
194.107129927903
 20
124.700095198134
 30
0.0
 11
0.0
 21
-5.695999999999984
 31
0.0
210
0.0
220
0.0
230
-1.0
 40
0.466667323282
 41
1.125848469511864
 42
1.481529741247205
  0
ELLIPSE
  5
1235
330
1F
100
AcDbEntity
  8
shade
100
AcDbEllipse
 10
206.160389378754
 20
127.011849890609
 30
0.0
 11
0.0
 21
-31.62762656308884
 31
0.0
210
0.0
220
0.0
230
-1.0
 40
0.466667323282
 41
1.481529741247205
 42
1.570796326794897
  0
LWPOLYLINE
  5
1236
330
1F
100
AcDbEntity
  8
shade
100
AcDbPolyline
 90
        2
 70
     0
 43
0.0
 10
197.813009078811
 20
116.451849890609
 10
197.850855797857
 20
116.866359377233
  0
LINE
  5
1237
330
1F
100
AcDbEntity
  8
shade
100
AcDbLine
 10
197.94161875192
 20
116.451849890609
 30
0.0
 11
197.769346020359
 21
117.238610108519
 31
0.0
  0
LINE
  5
1238
330
1F
100
AcDbEntity
  8
TOUGU
  6
DASHED2
 62
     9
100
AcDbLine
 10
197.941617860415
 20
130.527634462109
 30
0.0
 11
197.941617860415
 21
132.774530331491
 31
0.0
  0
LWPOLYLINE
  5
1239
330
1F
100
AcDbEntity
  8
shade
100
AcDbPolyline
 90
        4
 70
     0
 43
0.0
 10
197.94161875192
 20
165.280909961672
 10
200.821618751921
 20
165.280909961672
 42
-0.217047275996
 10
198.197618751921
 20
159.520909961671
 10
197.94161875192
 20
159.520909961671
  0
LWPOLYLINE
  5
123A
330
1F
100
AcDbEntity
  8
shade
100
AcDbPolyline
 90
        2
 70
     0
 43
0.0
 10
198.133618409847
 20
159.520909961671
 10
198.133618722681
 20
137.648649890607
  0
LWPOLYLINE
  5
123B
330
1F
100
AcDbEntity
  8
shade
100
AcDbPolyline
 90
        4
 70
     0
 43
0.0
 10
197.94161875192
 20
137.648649890607
 10
201.141618751921
 20
137.648649890607
 10
201.141618751921
 20
137.571849890608
 10
197.94161875192
 20
137.571849890608
  0
LWPOLYLINE
  5
123C
330
1F
100
AcDbEntity
  8
PARTS
100
AcDbPolyline
 90
        4
 70
     0
 43
0.0
 10
197.94161875192
 20
116.375049890608
 10
201.141618751921
 20
116.375049890608
 10
201.141618751921
 20
116.451849890609
 10
197.94161875192
 20
116.451849890609
  0
SPLINE
  5
123D
330
1F
100
AcDbEntity
  8
shade
100
AcDbSpline
210
0.0
220
0.0
230
1.0
 70
    24
 71
     1
 72
     4
 73
     2
 74
     0
 42
0.000000001
 43
0.0000000001
 40
0.0
 40
0.0
 40
0.1121278676824712
 40
0.1121278676824712
 10
199.0579680809278
 20
117.6500431857967
 30
0.0000000000000001
 10
199.054788861682
 20
117.6425082806891
 30
0.0000000000000001
  0
LINE
  5
123E
330
1F
100
AcDbEntity
  8
shade
100
AcDbLine
 10
198.213260211382
 20
137.571849890608
 30
0.0
 11
198.070228425033
 21
137.571849890608
 31
0.0
  0
ELLIPSE
  5
123F
330
1F
100
AcDbEntity
  8
shade
100
AcDbEllipse
 10
196.936191934074
 20
127.011849890609
 30
0.0
 11
0.0
 21
32.33162656308885
 31
0.0
210
0.0
220
0.0
230
1.0
 40
0.057088810863
 41
4.71238898038469
 42
4.80165556593238
  0
ELLIPSE
  5
1240
330
1F
100
AcDbEntity
  8
shade
100
AcDbEllipse
 10
198.410703250251
 20
129.323604583084
 30
0.0
 11
0.0
 21
6.399999999999986
 31
0.0
210
0.0
220
0.0
230
1.0
 40
0.057088810863
 41
4.801655565932384
 42
5.301606024571717
  0
ELLIPSE
  5
1241
330
1F
100
AcDbEntity
  8
shade
100
AcDbEllipse
 10
198.213260211382
 20
127.011849890609
 30
0.0
 11
0.0
 21
10.56
 31
0.0
210
0.0
220
0.0
230
1.0
 40
0.057088810863
 41
5.301606024571704
 42
6.283185307179586
  0
LINE
  5
1242
330
1F
100
AcDbEntity
  8
shade
100
AcDbLine
 10
198.484015632868
 20
137.571849890608
 30
0.0
 11
198.213374827519
 21
137.571849890608
 31
0.0
  0
ELLIPSE
  5
1243
330
1F
100
AcDbEntity
  8
shade
100
AcDbEllipse
 10
195.934044609527
 20
127.011849890609
 30
0.0
 11
0.0
 21
32.33162656308885
 31
0.0
210
0.0
220
0.0
230
1.0
 40
0.113991409891
 41
4.71238898038469
 42
4.80165556593238
  0
ELLIPSE
  5
1244
330
1F
100
AcDbEntity
  8
shade
100
AcDbEllipse
 10
198.878257692453
 20
129.323604583084
 30
0.0
 11
0.0
 21
6.399999999999986
 31
0.0
210
0.0
220
0.0
230
1.0
 40
0.113991409891
 41
4.801655565932381
 42
5.301606024571704
  0
ELLIPSE
  5
1245
330
1F
100
AcDbEntity
  8
shade
100
AcDbEllipse
 10
198.484015632868
 20
127.011849890609
 30
0.0
 11
0.0
 21
10.56
 31
0.0
210
0.0
220
0.0
230
1.0
 40
0.113991409891
 41
5.301606024571706
 42
6.283185307179586
  0
LINE
  5
1246
330
1F
100
AcDbEntity
  8
shade
100
AcDbLine
 10
198.753001868463
 20
137.571849890608
 30
0.0
 11
198.484381571569
 21
137.571849890608
 31
0.0
  0
ELLIPSE
  5
1247
330
1F
100
AcDbEntity
  8
shade
100
AcDbEllipse
 10
194.938445574557
 20
127.011849890609
 30
0.0
 11
0.0
 21
32.33162656308885
 31
0.0
210
0.0
220
0.0
230
1.0
 40
0.170522192633
 41
4.71238898038469
 42
4.80165556593238
  0
ELLIPSE
  5
1248
330
1F
100
AcDbEntity
  8
shade
100
AcDbEllipse
 10
199.34275701311
 20
129.323604583084
 30
0.0
 11
0.0
 21
6.399999999999986
 31
0.0
210
0.0
220
0.0
230
1.0
 40
0.170522192633
 41
4.801655565932383
 42
5.301606024571697
  0
ELLIPSE
  5
1249
330
1F
100
AcDbEntity
  8
shade
100
AcDbEllipse
 10
198.753001868463
 20
127.011849890609
 30
0.0
 11
0.0
 21
10.56
 31
0.0
210
0.0
220
0.0
230
1.0
 40
0.170522192633
 41
5.301606024571693
 42
6.283185307179586
  0
LINE
  5
124A
330
1F
100
AcDbEntity
  8
shade
100
AcDbLine
 10
199.019341540985
 20
137.571849890608
 30
0.0
 11
198.753580238052
 21
137.571849890608
 31
0.0
  0
ELLIPSE
  5
124B
330
1F
100
AcDbEntity
  8
shade
100
AcDbEllipse
 10
193.952642266271
 20
127.011849890609
 30
0.0
 11
0.0
 21
32.33162656308887
 31
0.0
210
0.0
220
0.0
230
1.0
 40
0.226496767426
 41
4.71238898038469
 42
4.80165556593238
  0
ELLIPSE
  5
124C
330
1F
100
AcDbEntity
  8
shade
100
AcDbEllipse
 10
199.802686111987
 20
129.323604583084
 30
0.0
 11
0.0
 21
6.399999999999992
 31
0.0
210
0.0
220
0.0
230
1.0
 40
0.226496767426
 41
4.80165556593238
 42
5.301606024571697
  0
ELLIPSE
  5
124D
330
1F
100
AcDbEntity
  8
shade
100
AcDbEllipse
 10
199.019341540985
 20
127.011849890609
 30
0.0
 11
0.0
 21
10.56
 31
0.0
210
0.0
220
0.0
230
1.0
 40
0.226496767426
 41
5.301606024571692
 42
6.283185307179586
  0
LINE
  5
124E
330
1F
100
AcDbEntity
  8
shade
100
AcDbLine
 10
199.28216590577
 20
137.571849890608
 30
0.0
 11
199.020088916117
 21
137.571849890608
 31
0.0
  0
ELLIPSE
  5
124F
330
1F
100
AcDbEntity
  8
shade
100
AcDbEllipse
 10
192.979850170166
 20
127.011849890609
 30
0.0
 11
0.0
 21
32.33162656308887
 31
0.0
210
0.0
220
0.0
230
1.0
 40
0.281732556841
 41
4.71238898038469
 42
4.80165556593238
  0
ELLIPSE
  5
1250
330
1F
100
AcDbEntity
  8
shade
100
AcDbEllipse
 10
200.256544795964
 20
129.323604583084
 30
0.0
 11
0.0
 21
6.399999999999992
 31
0.0
210
0.0
220
0.0
230
1.0
 40
0.281732556841
 41
4.80165556593238
 42
5.301606024571702
  0
ELLIPSE
  5
1251
330
1F
100
AcDbEntity
  8
shade
100
AcDbEllipse
 10
199.28216590577
 20
127.011849890609
 30
0.0
 11
0.0
 21
10.56
 31
0.0
210
0.0
220
0.0
230
1.0
 40
0.281732556841
 41
5.301606024571699
 42
6.283185307179586
  0
LINE
  5
1252
330
1F
100
AcDbEntity
  8
shade
100
AcDbLine
 10
199.540617684379
 20
137.571849890608
 30
0.0
 11
199.283053850297
 21
137.571849890608
 31
0.0
  0
ELLIPSE
  5
1253
330
1F
100
AcDbEntity
  8
shade
100
AcDbEllipse
 10
192.023242331859
 20
127.011849890609
 30
0.0
 11
0.0
 21
32.33162656308885
 31
0.0
210
0.0
220
0.0
230
1.0
 40
0.336049393215
 41
4.71238898038469
 42
4.80165556593238
  0
ELLIPSE
  5
1254
330
1F
100
AcDbEntity
  8
shade
100
AcDbEllipse
 10
200.702852672352
 20
129.323604583084
 30
0.0
 11
0.0
 21
6.399999999999986
 31
0.0
210
0.0
220
0.0
230
1.0
 40
0.336049393215
 41
4.801655565932382
 42
5.301606024571701
  0
ELLIPSE
  5
1255
330
1F
100
AcDbEntity
  8
shade
100
AcDbEllipse
 10
199.540617684379
 20
127.011849890609
 30
0.0
 11
0.0
 21
10.56
 31
0.0
210
0.0
220
0.0
230
1.0
 40
0.336049393215
 41
5.301606024571694
 42
6.283185307179586
  0
LINE
  5
1256
330
1F
100
AcDbEntity
  8
shade
100
AcDbLine
 10
199.793853860825
 20
137.571849890608
 30
0.0
 11
199.541626784936
 21
137.571849890608
 31
0.0
  0
ELLIPSE
  5
1257
330
1F
100
AcDbEntity
  8
shade
100
AcDbEllipse
 10
191.085939007284
 20
127.011849890609
 30
0.0
 11
0.0
 21
32.33162656308885
 31
0.0
210
0.0
220
0.0
230
1.0
 40
0.389270106317
 41
4.71238898038469
 42
4.80165556593238
  0
ELLIPSE
  5
1258
330
1F
100
AcDbEntity
  8
shade
100
AcDbEllipse
 10
201.140153977616
 20
129.323604583084
 30
0.0
 11
0.0
 21
6.399999999999986
 31
0.0
210
0.0
220
0.0
230
1.0
 40
0.389270106317
 41
4.801655565932381
 42
5.301606024571696
  0
ELLIPSE
  5
1259
330
1F
100
AcDbEntity
  8
shade
100
AcDbEllipse
 10
199.793853860825
 20
127.011849890609
 30
0.0
 11
0.0
 21
10.56
 31
0.0
210
0.0
220
0.0
230
1.0
 40
0.389270106317
 41
5.301606024571699
 42
6.283185307179586
  0
LINE
  5
125A
330
1F
100
AcDbEntity
  8
shade
100
AcDbLine
 10
200.041048431336
 20
137.571849890608
 30
0.0
 11
199.794969929975
 21
137.571849890608
 31
0.0
  0
ELLIPSE
  5
125B
330
1F
100
AcDbEntity
  8
shade
100
AcDbEllipse
 10
190.170997485071
 20
127.011849890609
 30
0.0
 11
0.0
 21
32.33162656308885
 31
0.0
210
0.0
220
0.0
230
1.0
 40
0.441221101243
 41
4.71238898038469
 42
4.80165556593238
  0
ELLIPSE
  5
125C
330
1F
100
AcDbEntity
  8
shade
100
AcDbEllipse
 10
201.567022325798
 20
129.323604583084
 30
0.0
 11
0.0
 21
6.399999999999986
 31
0.0
210
0.0
220
0.0
230
1.0
 40
0.441221101243
 41
4.801655565932382
 42
5.301606024571704
  0
ELLIPSE
  5
125D
330
1F
100
AcDbEntity
  8
shade
100
AcDbEllipse
 10
200.041048431336
 20
127.011849890609
 30
0.0
 11
0.0
 21
10.56
 31
0.0
210
0.0
220
0.0
230
1.0
 40
0.441221101243
 41
5.301606024571698
 42
6.283185307179586
  0
LINE
  5
125E
330
1F
100
AcDbEntity
  8
shade
100
AcDbLine
 10
200.281395098602
 20
137.571849890608
 30
0.0
 11
200.042260412272
 21
137.571849890608
 31
0.0
  0
ELLIPSE
  5
125F
330
1F
100
AcDbEntity
  8
shade
100
AcDbEllipse
 10
189.281402114288
 20
127.011849890609
 30
0.0
 11
0.0
 21
32.33162656308887
 31
0.0
210
0.0
220
0.0
230
1.0
 40
0.491732924646
 41
4.71238898038469
 42
4.80165556593238
  0
ELLIPSE
  5
1260
330
1F
100
AcDbEntity
  8
shade
100
AcDbEllipse
 10
201.98206536107
 20
129.323604583084
 30
0.0
 11
0.0
 21
6.399999999999992
 31
0.0
210
0.0
220
0.0
230
1.0
 40
0.491732924646
 41
4.801655565932381
 42
5.301606024571697
  0
ELLIPSE
  5
1261
330
1F
100
AcDbEntity
  8
shade
100
AcDbEllipse
 10
200.281395098602
 20
127.011849890609
 30
0.0
 11
0.0
 21
10.56
 31
0.0
210
0.0
220
0.0
230
1.0
 40
0.491732924646
 41
5.3016060245717
 42
6.283185307179586
  0
LINE
  5
1262
330
1F
100
AcDbEntity
  8
shade
100
AcDbLine
 10
200.514109901756
 20
137.571849890608
 30
0.0
 11
200.282694002413
 21
137.571849890608
 31
0.0
  0
ELLIPSE
  5
1263
330
1F
100
AcDbEntity
  8
shade
100
AcDbEllipse
 10
188.420054570128
 20
127.011849890609
 30
0.0
 11
0.0
 21
32.33162656308885
 31
0.0
210
0.0
220
0.0
230
1.0
 40
0.540640817456
 41
4.71238898038469
 42
4.80165556593238
  0
ELLIPSE
  5
1264
330
1F
100
AcDbEntity
  8
shade
100
AcDbEllipse
 10
202.383929299318
 20
129.323604583084
 30
0.0
 11
0.0
 21
6.399999999999986
 31
0.0
210
0.0
220
0.0
230
1.0
 40
0.540640817456
 41
4.80165556593238
 42
5.301606024571699
  0
ELLIPSE
  5
1265
330
1F
100
AcDbEntity
  8
shade
100
AcDbEllipse
 10
200.514109901756
 20
127.011849890609
 30
0.0
 11
0.0
 21
10.56
 31
0.0
210
0.0
220
0.0
230
1.0
 40
0.540640817456
 41
5.301606024571699
 42
6.283185307179586
  0
LINE
  5
1266
330
1F
100
AcDbEntity
  8
shade
100
AcDbLine
 10
200.738433773477
 20
137.571849890608
 30
0.0
 11
200.515488137302
 21
137.571849890608
 31
0.0
  0
ELLIPSE
  5
1267
330
1F
100
AcDbEntity
  8
shade
100
AcDbEllipse
 10
187.589764389253
 20
127.011849890609
 30
0.0
 11
0.0
 21
32.33162656308885
 31
0.0
210
0.0
220
0.0
230
1.0
 40
0.587785252292
 41
4.71238898038469
 42
4.80165556593238
  0
ELLIPSE
  5
1268
330
1F
100
AcDbEntity
  8
shade
100
AcDbEllipse
 10
202.771303343903
 20
129.323604583084
 30
0.0
 11
0.0
 21
6.399999999999986
 31
0.0
210
0.0
220
0.0
230
1.0
 40
0.587785252292
 41
4.80165556593238
 42
5.301606024571701
  0
ELLIPSE
  5
1269
330
1F
100
AcDbEntity
  8
shade
100
AcDbEllipse
 10
200.738433773477
 20
127.011849890609
 30
0.0
 11
0.0
 21
10.56
 31
0.0
210
0.0
220
0.0
230
1.0
 40
0.587785252292
 41
5.301606024571697
 42
6.283185307179586
  0
LINE
  5
126A
330
1F
100
AcDbEntity
  8
shade
100
AcDbLine
 10
200.953635015921
 20
137.571849890608
 30
0.0
 11
200.739884726627
 21
137.571849890608
 31
0.0
  0
ELLIPSE
  5
126B
330
1F
100
AcDbEntity
  8
shade
100
AcDbEllipse
 10
186.793239805655
 20
127.011849890609
 30
0.0
 11
0.0
 21
32.33162656308885
 31
0.0
210
0.0
220
0.0
230
1.0
 40
0.633012453809
 41
4.71238898038469
 42
4.80165556593238
  0
ELLIPSE
  5
126C
330
1F
100
AcDbEntity
  8
shade
100
AcDbEllipse
 10
203.142923961215
 20
129.323604583084
 30
0.0
 11
0.0
 21
6.399999999999986
 31
0.0
210
0.0
220
0.0
230
1.0
 40
0.633012453809
 41
4.801655565932381
 42
5.301606024571698
  0
ELLIPSE
  5
126D
330
1F
100
AcDbEntity
  8
shade
100
AcDbEllipse
 10
200.953635015921
 20
127.011849890609
 30
0.0
 11
0.0
 21
10.56
 31
0.0
210
0.0
220
0.0
230
1.0
 40
0.633012453809
 41
5.301606024571696
 42
6.283185307179586
  0
LINE
  5
126E
330
1F
100
AcDbEntity
  8
shade
100
AcDbLine
 10
201.159011687367
 20
137.571849890608
 30
0.0
 11
200.955152799161
 21
137.571849890608
 31
0.0
  0
ELLIPSE
  5
126F
330
1F
100
AcDbEntity
  8
shade
100
AcDbEllipse
 10
186.03307891696
 20
127.011849890609
 30
0.0
 11
0.0
 21
32.33162656308885
 31
0.0
210
0.0
220
0.0
230
1.0
 40
0.676174900274
 41
4.71238898038469
 42
4.80165556593238
  0
ELLIPSE
  5
1270
330
1F
100
AcDbEntity
  8
shade
100
AcDbEllipse
 10
203.497579002036
 20
129.323604583084
 30
0.0
 11
0.0
 21
6.399999999999986
 31
0.0
210
0.0
220
0.0
230
1.0
 40
0.676174900274
 41
4.801655565932381
 42
5.301606024571701
  0
ELLIPSE
  5
1271
330
1F
100
AcDbEntity
  8
shade
100
AcDbEllipse
 10
201.159011687367
 20
127.011849890609
 30
0.0
 11
0.0
 21
10.56
 31
0.0
210
0.0
220
0.0
230
1.0
 40
0.676174900274
 41
5.301606024571697
 42
6.283185307179586
  0
LINE
  5
1272
330
1F
100
AcDbEntity
  8
shade
100
AcDbLine
 10
201.353893891803
 20
137.571849890608
 30
0.0
 11
201.160590938478
 21
137.571849890608
 31
0.0
  0
ELLIPSE
  5
1273
330
1F
100
AcDbEntity
  8
shade
100
AcDbEllipse
 10
185.311761209992
 20
127.011849890609
 30
0.0
 11
0.0
 21
32.33162656308885
 31
0.0
210
0.0
220
0.0
230
1.0
 40
0.717131804759
 41
4.71238898038469
 42
4.80165556593238
  0
ELLIPSE
  5
1274
330
1F
100
AcDbEntity
  8
shade
100
AcDbEllipse
 10
203.834111655338
 20
129.323604583084
 30
0.0
 11
0.0
 21
6.399999999999986
 31
0.0
210
0.0
220
0.0
230
1.0
 40
0.717131804759
 41
4.80165556593238
 42
5.301606024571697
  0
ELLIPSE
  5
1275
330
1F
100
AcDbEntity
  8
shade
100
AcDbEllipse
 10
201.353893891803
 20
127.011849890609
 30
0.0
 11
0.0
 21
10.56
 31
0.0
210
0.0
220
0.0
230
1.0
 40
0.717131804759
 41
5.301606024571699
 42
6.283185307179586
  0
LINE
  5
1276
330
1F
100
AcDbEntity
  8
shade
100
AcDbLine
 10
201.537645963977
 20
137.571849890608
 30
0.0
 11
201.355529660283
 21
137.571849890608
 31
0.0
  0
ELLIPSE
  5
1277
330
1F
100
AcDbEntity
  8
shade
100
AcDbEllipse
 10
184.63163947318
 20
127.011849890609
 30
0.0
 11
0.0
 21
32.33162656308885
 31
0.0
210
0.0
220
0.0
230
1.0
 40
0.755749574354
 41
4.71238898038469
 42
4.80165556593238
  0
ELLIPSE
  5
1278
330
1F
100
AcDbEntity
  8
shade
100
AcDbEllipse
 10
204.15142422156
 20
129.323604583084
 30
0.0
 11
0.0
 21
6.399999999999986
 31
0.0
210
0.0
220
0.0
230
1.0
 40
0.755749574354
 41
4.80165556593238
 42
5.301606024571701
  0
ELLIPSE
  5
1279
330
1F
100
AcDbEntity
  8
shade
100
AcDbEllipse
 10
201.537645963977
 20
127.011849890609
 30
0.0
 11
0.0
 21
10.56
 31
0.0
210
0.0
220
0.0
230
1.0
 40
0.755749574354
 41
5.301606024571697
 42
6.283185307179586
  0
LINE
  5
127A
330
1F
100
AcDbEntity
  8
shade
100
AcDbLine
 10
201.70966854283
 20
137.571849890608
 30
0.0
 11
201.539333621156
 21
137.571849890608
 31
0.0
  0
ELLIPSE
  5
127B
330
1F
100
AcDbEntity
  8
shade
100
AcDbEllipse
 10
183.994932122263
 20
127.011849890609
 30
0.0
 11
0.0
 21
32.33162656308885
 31
0.0
210
0.0
220
0.0
230
1.0
 40
0.791902245922
 41
4.71238898038469
 42
4.80165556593238
  0
ELLIPSE
  5
127C
330
1F
100
AcDbEntity
  8
shade
100
AcDbEllipse
 10
204.44848169306
 20
129.323604583084
 30
0.0
 11
0.0
 21
6.399999999999986
 31
0.0
210
0.0
220
0.0
230
1.0
 40
0.791902245922
 41
4.80165556593238
 42
5.3016060245717
  0
ELLIPSE
  5
127D
330
1F
100
AcDbEntity
  8
shade
100
AcDbEllipse
 10
201.70966854283
 20
127.011849890609
 30
0.0
 11
0.0
 21
10.56
 31
0.0
210
0.0
220
0.0
230
1.0
 40
0.791902245922
 41
5.301606024571697
 42
6.283185307179586
  0
LINE
  5
127E
330
1F
100
AcDbEntity
  8
shade
100
AcDbLine
 10
201.869400526462
 20
137.571849890608
 30
0.0
 11
201.711403719306
 21
137.571849890608
 31
0.0
  0
ELLIPSE
  5
127F
330
1F
100
AcDbEntity
  8
shade
100
AcDbEllipse
 10
183.403715964287
 20
127.011849890609
 30
0.0
 11
0.0
 21
32.33162656308885
 31
0.0
210
0.0
220
0.0
230
1.0
 40
0.825471896963
 41
4.71238898038469
 42
4.80165556593238
  0
ELLIPSE
  5
1280
330
1F
100
AcDbEntity
  8
shade
100
AcDbEllipse
 10
204.724315130112
 20
129.323604583084
 30
0.0
 11
0.0
 21
6.399999999999986
 31
0.0
210
0.0
220
0.0
230
1.0
 40
0.825471896963
 41
4.80165556593238
 42
5.301606024571701
  0
ELLIPSE
  5
1281
330
1F
100
AcDbEntity
  8
shade
100
AcDbEllipse
 10
201.869400526462
 20
127.011849890609
 30
0.0
 11
0.0
 21
10.56
 31
0.0
210
0.0
220
0.0
230
1.0
 40
0.825471896963
 41
5.301606024571697
 42
6.283185307179586
  0
LINE
  5
1282
330
1F
100
AcDbEntity
  8
shade
100
AcDbLine
 10
202.016320902345
 20
137.571849890608
 30
0.0
 11
201.871179029305
 21
137.571849890608
 31
0.0
  0
ELLIPSE
  5
1283
330
1F
100
AcDbEntity
  8
shade
100
AcDbEllipse
 10
182.859919423467
 20
127.011849890609
 30
0.0
 11
0.0
 21
32.33162656308885
 31
0.0
210
0.0
220
0.0
230
1.0
 40
0.856349030252
 41
4.71238898038469
 42
4.80165556593238
  0
ELLIPSE
  5
1284
330
1F
100
AcDbEntity
  8
shade
100
AcDbEllipse
 10
204.978024821376
 20
129.323604583084
 30
0.0
 11
0.0
 21
6.399999999999986
 31
0.0
210
0.0
220
0.0
230
1.0
 40
0.856349030252
 41
4.80165556593238
 42
5.301606024571698
  0
ELLIPSE
  5
1285
330
1F
100
AcDbEntity
  8
shade
100
AcDbEllipse
 10
202.016320902345
 20
127.011849890609
 30
0.0
 11
0.0
 21
10.56
 31
0.0
210
0.0
220
0.0
230
1.0
 40
0.856349030252
 41
5.301606024571697
 42
6.283185307179586
  0
LINE
  5
1286
330
1F
100
AcDbEntity
  8
shade
100
AcDbLine
 10
202.149950446747
 20
137.571849890608
 30
0.0
 11
202.018138715492
 21
137.571849890608
 31
0.0
  0
ELLIPSE
  5
1287
330
1F
100
AcDbEntity
  8
shade
100
AcDbEllipse
 10
182.365316251085
 20
127.011849890609
 30
0.0
 11
0.0
 21
32.33162656308885
 31
0.0
210
0.0
220
0.0
230
1.0
 40
0.884432930998
 41
4.71238898038469
 42
4.80165556593238
  0
ELLIPSE
  5
1288
330
1F
100
AcDbEntity
  8
shade
100
AcDbEllipse
 10
205.208783218575
 20
129.323604583084
 30
0.0
 11
0.0
 21
6.399999999999986
 31
0.0
210
0.0
220
0.0
230
1.0
 40
0.884432930998
 41
4.801655565932381
 42
5.301606024571702
  0
ELLIPSE
  5
1289
330
1F
100
AcDbEntity
  8
shade
100
AcDbEllipse
 10
202.149950446747
 20
127.011849890609
 30
0.0
 11
0.0
 21
10.56
 31
0.0
210
0.0
220
0.0
230
1.0
 40
0.884432930998
 41
5.301606024571697
 42
6.283185307179586
  0
LINE
  5
128A
330
1F
100
AcDbEntity
  8
shade
100
AcDbLine
 10
202.269853287875
 20
137.571849890608
 30
0.0
 11
202.151803673722
 21
137.571849890608
 31
0.0
  0
ELLIPSE
  5
128B
330
1F
100
AcDbEntity
  8
shade
100
AcDbEllipse
 10
181.921519739899
 20
127.011849890609
 30
0.0
 11
0.0
 21
32.33162656308885
 31
0.0
210
0.0
220
0.0
230
1.0
 40
0.909631995355
 41
4.71238898038469
 42
4.80165556593238
  0
ELLIPSE
  5
128C
330
1F
100
AcDbEntity
  8
shade
100
AcDbEllipse
 10
205.415837635785
 20
129.323604583084
 30
0.0
 11
0.0
 21
6.399999999999986
 31
0.0
210
0.0
220
0.0
230
1.0
 40
0.909631995355
 41
4.80165556593238
 42
5.301606024571699
  0
ELLIPSE
  5
128D
330
1F
100
AcDbEntity
  8
shade
100
AcDbEllipse
 10
202.269853287875
 20
127.011849890609
 30
0.0
 11
0.0
 21
10.56
 31
0.0
210
0.0
220
0.0
230
1.0
 40
0.909631995355
 41
5.301606024571696
 42
6.283185307179586
  0
LINE
  5
128E
330
1F
100
AcDbEntity
  8
shade
100
AcDbLine
 10
202.375638327576
 20
137.571849890608
 30
0.0
 11
202.271738144056
 21
137.571849890608
 31
0.0
  0
ELLIPSE
  5
128F
330
1F
100
AcDbEntity
  8
shade
100
AcDbEllipse
 10
181.529977461872
 20
127.011849890609
 30
0.0
 11
0.0
 21
32.33162656308885
 31
0.0
210
0.0
220
0.0
230
1.0
 40
0.931864029211
 41
4.71238898038469
 42
4.80165556593238
  0
ELLIPSE
  5
1290
330
1F
100
AcDbEntity
  8
shade
100
AcDbEllipse
 10
205.598512704524
 20
129.323604583084
 30
0.0
 11
0.0
 21
6.399999999999986
 31
0.0
210
0.0
220
0.0
230
1.0
 40
0.931864029211
 41
4.80165556593238
 42
5.301606024571699
  0
ELLIPSE
  5
1291
330
1F
100
AcDbEntity
  8
shade
100
AcDbEllipse
 10
202.375638327576
 20
127.011849890609
 30
0.0
 11
0.0
 21
10.56
 31
0.0
210
0.0
220
0.0
230
1.0
 40
0.931864029211
 41
5.301606024571697
 42
6.283185307179586
  0
LINE
  5
1292
330
1F
100
AcDbEntity
  8
shade
100
AcDbLine
 10
202.466960517046
 20
137.571849890608
 30
0.0
 11
202.377551103571
 21
137.571849890608
 31
0.0
  0
ELLIPSE
  5
1293
330
1F
100
AcDbEntity
  8
shade
100
AcDbEllipse
 10
181.191966546536
 20
127.011849890609
 30
0.0
 11
0.0
 21
32.33162656308887
 31
0.0
210
0.0
220
0.0
230
1.0
 40
0.951056516295
 41
4.71238898038469
 42
4.80165556593238
  0
ELLIPSE
  5
1294
330
1F
100
AcDbEntity
  8
shade
100
AcDbEllipse
 10
205.756212576696
 20
129.323604583084
 30
0.0
 11
0.0
 21
6.399999999999992
 31
0.0
210
0.0
220
0.0
230
1.0
 40
0.951056516295
 41
4.80165556593238
 42
5.3016060245717
  0
ELLIPSE
  5
1295
330
1F
100
AcDbEntity
  8
shade
100
AcDbEllipse
 10
202.466960517046
 20
127.011849890609
 30
0.0
 11
0.0
 21
10.56
 31
0.0
210
0.0
220
0.0
230
1.0
 40
0.951056516295
 41
5.301606024571697
 42
6.283185307179586
  0
LINE
  5
1296
330
1F
100
AcDbEntity
  8
shade
100
AcDbLine
 10
202.543521982279
 20
137.571849890608
 30
0.0
 11
202.468897578598
 21
137.571849890608
 31
0.0
  0
ELLIPSE
  5
1297
330
1F
100
AcDbEntity
  8
shade
100
AcDbEllipse
 10
180.908589515246
 20
127.011849890609
 30
0.0
 11
0.0
 21
32.33162656308887
 31
0.0
210
0.0
220
0.0
230
1.0
 40
0.967146854702
 41
4.71238898038469
 42
4.80165556593238
  0
ELLIPSE
  5
1298
330
1F
100
AcDbEntity
  8
shade
100
AcDbEllipse
 10
205.888422868091
 20
129.323604583084
 30
0.0
 11
0.0
 21
6.399999999999992
 31
0.0
210
0.0
220
0.0
230
1.0
 40
0.967146854702
 41
4.80165556593238
 42
5.301606024571699
  0
ELLIPSE
  5
1299
330
1F
100
AcDbEntity
  8
shade
100
AcDbEllipse
 10
202.543521982279
 20
127.011849890609
 30
0.0
 11
0.0
 21
10.56000000000001
 31
0.0
210
0.0
220
0.0
230
1.0
 40
0.967146854702
 41
5.301606024571698
 42
6.283185307179586
  0
LINE
  5
129A
330
1F
100
AcDbEntity
  8
shade
100
AcDbLine
 10
202.605072995691
 20
137.571849890608
 30
0.0
 11
202.545479751931
 21
137.571849890608
 31
0.0
  0
ELLIPSE
  5
129B
330
1F
100
AcDbEntity
  8
shade
100
AcDbEllipse
 10
180.680770684965
 20
127.011849890609
 30
0.0
 11
0.0
 21
32.33162656308885
 31
0.0
210
0.0
220
0.0
230
1.0
 40
0.980082561092
 41
4.71238898038469
 42
4.80165556593238
  0
ELLIPSE
  5
129C
330
1F
100
AcDbEntity
  8
shade
100
AcDbEllipse
 10
205.994712336218
 20
129.323604583084
 30
0.0
 11
0.0
 21
6.399999999999992
 31
0.0
210
0.0
220
0.0
230
1.0
 40
0.980082561092
 41
4.80165556593238
 42
5.301606024571699
  0
ELLIPSE
  5
129D
330
1F
100
AcDbEntity
  8
shade
100
AcDbEllipse
 10
202.605072995691
 20
127.011849890609
 30
0.0
 11
0.0
 21
10.56
 31
0.0
210
0.0
220
0.0
230
1.0
 40
0.980082561092
 41
5.301606024571699
 42
6.283185307179586
  0
LINE
  5
129E
330
1F
100
AcDbEntity
  8
shade
100
AcDbLine
 10
202.651412790667
 20
137.571849890608
 30
0.0
 11
202.60704792555
 21
137.571849890608
 31
0.0
  0
ELLIPSE
  5
129F
330
1F
100
AcDbEntity
  8
shade
100
AcDbEllipse
 10
180.509253153374
 20
127.011849890609
 30
0.0
 11
0.0
 21
32.33162656308885
 31
0.0
210
0.0
220
0.0
230
1.0
 40
0.989821441881
 41
4.71238898038469
 42
4.80165556593238
  0
ELLIPSE
  5
12A0
330
1F
100
AcDbEntity
  8
shade
100
AcDbEllipse
 10
206.074734286929
 20
129.323604583084
 30
0.0
 11
0.0
 21
6.399999999999986
 31
0.0
210
0.0
220
0.0
230
1.0
 40
0.989821441881
 41
4.801655565932381
 42
5.301606024571701
  0
ELLIPSE
  5
12A1
330
1F
100
AcDbEntity
  8
shade
100
AcDbEllipse
 10
202.651412790667
 20
127.011849890609
 30
0.0
 11
0.0
 21
10.56
 31
0.0
210
0.0
220
0.0
230
1.0
 40
0.989821441881
 41
5.301606024571697
 42
6.283185307179586
  0
LINE
  5
12A2
330
1F
100
AcDbEntity
  8
shade
100
AcDbLine
 10
202.682390216436
 20
137.571849890608
 30
0.0
 11
202.653401384647
 21
137.571849890608
 31
0.0
  0
ELLIPSE
  5
12A3
330
1F
100
AcDbEntity
  8
shade
100
AcDbEllipse
 10
180.394596375012
 20
127.011849890609
 30
0.0
 11
0.0
 21
32.33162656308887
 31
0.0
210
0.0
220
0.0
230
1.0
 40
0.996331730863
 41
4.71238898038469
 42
4.80165556593238
  0
ELLIPSE
  5
12A4
330
1F
100
AcDbEntity
  8
shade
100
AcDbEllipse
 10
206.128227705249
 20
129.323604583084
 30
0.0
 11
0.0
 21
6.399999999999992
 31
0.0
210
0.0
220
0.0
230
1.0
 40
0.996331730863
 41
4.80165556593238
 42
5.301606024571698
  0
ELLIPSE
  5
12A5
330
1F
100
AcDbEntity
  8
shade
100
AcDbEllipse
 10
202.682390216436
 20
127.011849890609
 30
0.0
 11
0.0
 21
10.56000000000001
 31
0.0
210
0.0
220
0.0
230
1.0
 40
0.996331730863
 41
5.301606024571698
 42
6.283185307179586
  0
LINE
  5
12A6
330
1F
100
AcDbEntity
  8
shade
100
AcDbLine
 10
202.697904231063
 20
137.571849890608
 30
0.0
 11
202.684388997914
 21
137.571849890608
 31
0.0
  0
ELLIPSE
  5
12A7
330
1F
100
AcDbEntity
  8
shade
100
AcDbEllipse
 10
180.337174336451
 20
127.011849890609
 30
0.0
 11
0.0
 21
32.33162656308885
 31
0.0
210
0.0
220
0.0
230
1.0
 40
0.999592192828
 41
4.71238898038469
 42
4.80165556593238
  0
ELLIPSE
  5
12A8
330
1F
100
AcDbEntity
  8
shade
100
AcDbEllipse
 10
206.155018106772
 20
129.323604583084
 30
0.0
 11
0.0
 21
6.399999999999986
 31
0.0
210
0.0
220
0.0
230
1.0
 40
0.999592192828
 41
4.80165556593238
 42
5.3016060245717
  0
ELLIPSE
  5
12A9
330
1F
100
AcDbEntity
  8
shade
100
AcDbEllipse
 10
202.697904231063
 20
127.011849890609
 30
0.0
 11
0.0
 21
10.56
 31
0.0
210
0.0
220
0.0
230
1.0
 40
0.999592192828
 41
5.301606024571697
 42
6.283185307179586
  0
ELLIPSE
  5
12AA
330
1F
100
AcDbEntity
  8
shade
100
AcDbEllipse
 10
198.176256688643
 20
129.323604583084
 30
0.0
 11
0.0
 21
5.695999999999986
 31
0.0
210
0.0
220
0.0
230
-1.0
 40
0.028556050857
 41
0.9815792826079035
 42
1.481529741247196
  0
ELLIPSE
  5
12AB
330
1F
100
AcDbEntity
  8
shade
100
AcDbEllipse
 10
197.438700248105
 20
127.011849890609
 30
0.0
 11
0.0
 21
31.62762656308885
 31
0.0
210
0.0
220
0.0
230
-1.0
 40
0.028556050857
 41
1.481529741247205
 42
1.570796326794897
  0
ELLIPSE
  5
12AC
330
1F
100
AcDbEntity
  8
shade
100
AcDbEllipse
 10
198.077494893219
 20
127.011849890609
 30
0.0
 11
0.0
 21
9.856000000000002
 31
0.0
210
0.0
220
0.0
230
-1.0
 40
0.028556050857
 41
0.1296820381237737
 42
0.9815792826078551
  0
ELLIPSE
  5
12AD
330
1F
100
AcDbEntity
  8
shade
100
AcDbEllipse
 10
198.64476722086
 20
129.323604583084
 30
0.0
 11
0.0
 21
5.695999999999992
 31
0.0
210
0.0
220
0.0
230
-1.0
 40
0.085575008542
 41
0.9815792826078977
 42
1.481529741247207
  0
ELLIPSE
  5
12AE
330
1F
100
AcDbEntity
  8
shade
100
AcDbEllipse
 10
196.434503658344
 20
127.011849890609
 30
0.0
 11
0.0
 21
31.62762656308887
 31
0.0
210
0.0
220
0.0
230
-1.0
 40
0.085575008542
 41
1.481529741247206
 42
1.570796326794897
  0
ELLIPSE
  5
12AF
330
1F
100
AcDbEntity
  8
shade
100
AcDbEllipse
 10
198.348803975481
 20
127.011849890609
 30
0.0
 11
0.0
 21
9.856000000000002
 31
0.0
210
0.0
220
0.0
230
-1.0
 40
0.085575008542
 41
0.1055218818997452
 42
0.9815792826079008
  0
ELLIPSE
  5
12B0
330
1F
100
AcDbEntity
  8
shade
100
AcDbEllipse
 10
199.110984228926
 20
129.323604583084
 30
0.0
 11
0.0
 21
5.695999999999992
 31
0.0
210
0.0
220
0.0
230
-1.0
 40
0.142314838336
 41
0.9815792826078955
 42
1.481529741247207
  0
ELLIPSE
  5
12B1
330
1F
100
AcDbEntity
  8
shade
100
AcDbEllipse
 10
195.435222964759
 20
127.011849890609
 30
0.0
 11
0.0
 21
31.62762656308884
 31
0.0
210
0.0
220
0.0
230
-1.0
 40
0.142314838336
 41
1.481529741247206
 42
1.570796326794897
  0
ELLIPSE
  5
12B2
330
1F
100
AcDbEntity
  8
shade
100
AcDbEllipse
 10
198.618784904178
 20
127.011849890609
 30
0.0
 11
0.0
 21
9.856000000000002
 31
0.0
210
0.0
220
0.0
230
-1.0
 40
0.142314838336
 41
0.293567701527414
 42
0.9815792826078811
  0
ELLIPSE
  5
12B3
330
1F
100
AcDbEntity
  8
shade
100
AcDbEllipse
 10
199.573387009859
 20
129.323604583084
 30
0.0
 11
0.0
 21
5.695999999999986
 31
0.0
210
0.0
220
0.0
230
-1.0
 40
0.198590466708
 41
0.981579282607898
 42
1.481529741247206
  0
ELLIPSE
  5
12B4
330
1F
100
AcDbEntity
  8
shade
100
AcDbEllipse
 10
194.444117613271
 20
127.011849890609
 30
0.0
 11
0.0
 21
31.62762656308885
 31
0.0
210
0.0
220
0.0
230
-1.0
 40
0.198590466708
 41
1.481529741247206
 42
1.570796326794897
  0
ELLIPSE
  5
12B5
330
1F
100
AcDbEntity
  8
shade
100
AcDbEllipse
 10
198.886557057638
 20
127.011849890609
 30
0.0
 11
0.0
 21
9.856000000000002
 31
0.0
210
0.0
220
0.0
230
-1.0
 40
0.198590466708
 41
0.4357351356124137
 42
0.9815792826078853
  0
ELLIPSE
  5
12B6
330
1F
100
AcDbEntity
  8
shade
100
AcDbEllipse
 10
200.030467301902
 20
129.323604583084
 30
0.0
 11
0.0
 21
5.695999999999992
 31
0.0
210
0.0
220
0.0
230
-1.0
 40
0.254218334255
 41
0.9815792826078886
 42
1.481529741247205
  0
ELLIPSE
  5
12B7
330
1F
100
AcDbEntity
  8
shade
100
AcDbEllipse
 10
193.464420383531
 20
127.011849890609
 30
0.0
 11
0.0
 21
31.62762656308885
 31
0.0
210
0.0
220
0.0
230
-1.0
 40
0.254218334255
 41
1.481529741247206
 42
1.570796326794897
  0
ELLIPSE
  5
12B8
330
1F
100
AcDbEntity
  8
shade
100
AcDbEllipse
 10
199.151247018752
 20
127.011849890609
 30
0.0
 11
0.0
 21
9.856000000000002
 31
0.0
210
0.0
220
0.0
230
-1.0
 40
0.254218334255
 41
0.5619538742074137
 42
0.9815792826078857
  0
ELLIPSE
  5
12B9
330
1F
100
AcDbEntity
  8
shade
100
AcDbEllipse
 10
200.480734204146
 20
129.323604583084
 30
0.0
 11
0.0
 21
5.695999999999986
 31
0.0
210
0.0
220
0.0
230
-1.0
 40
0.309016994435
 41
0.9815792826078877
 42
1.481529741247205
  0
ELLIPSE
  5
12BA
330
1F
100
AcDbEntity
  8
shade
100
AcDbEllipse
 10
192.499326844278
 20
127.011849890609
 30
0.0
 11
0.0
 21
31.62762656308885
 31
0.0
210
0.0
220
0.0
230
-1.0
 40
0.309016994435
 41
1.481529741247206
 42
1.570796326794897
  0
ELLIPSE
  5
12BB
330
1F
100
AcDbEntity
  8
shade
100
AcDbEllipse
 10
199.41199142388
 20
127.011849890609
 30
0.0
 11
0.0
 21
9.856000000000002
 31
0.0
210
0.0
220
0.0
230
-1.0
 40
0.309016994435
 41
0.6834840190045115
 42
0.9815792826078866
  0
ELLIPSE
  5
12BC
330
1F
100
AcDbEntity
  8
shade
100
AcDbEllipse
 10
200.922719039543
 20
129.323604583084
 30
0.0
 11
0.0
 21
5.695999999999986
 31
0.0
210
0.0
220
0.0
230
-1.0
 40
0.36280770541
 41
0.9815792826078868
 42
1.481529741247205
  0
ELLIPSE
  5
12BD
330
1F
100
AcDbEntity
  8
shade
100
AcDbEllipse
 10
191.551984930029
 20
127.011849890609
 30
0.0
 11
0.0
 21
31.62762656308884
 31
0.0
210
0.0
220
0.0
230
-1.0
 40
0.36280770541
 41
1.481529741247206
 42
1.570796326794897
  0
ELLIPSE
  5
12BE
330
1F
100
AcDbEntity
  8
shade
100
AcDbEllipse
 10
199.667939778978
 20
127.011849890609
 30
0.0
 11
0.0
 21
9.856000000000002
 31
0.0
210
0.0
220
0.0
230
-1.0
 40
0.36280770541
 41
0.807651404004911
 42
0.9815792826078897
  0
ELLIPSE
  5
12BF
330
1F
100
AcDbEntity
  8
shade
100
AcDbEllipse
 10
201.354980145436
 20
129.323604583084
 30
0.0
 11
0.0
 21
5.695999999999986
 31
0.0
210
0.0
220
0.0
230
-1.0
 40
0.41541501306
 41
0.9815792826078835
 42
1.481529741247205
  0
ELLIPSE
  5
12C0
330
1F
100
AcDbEntity
  8
shade
100
AcDbEllipse
 10
190.625484673215
 20
127.011849890609
 30
0.0
 11
0.0
 21
31.62762656308884
 31
0.0
210
0.0
220
0.0
230
-1.0
 40
0.41541501306
 41
1.481529741247205
 42
1.570796326794897
  0
ELLIPSE
  5
12C1
330
1F
100
AcDbEntity
  8
shade
100
AcDbEllipse
 10
199.918257233701
 20
127.011849890609
 30
0.0
 11
0.0
 21
9.856000000000002
 31
0.0
210
0.0
220
0.0
230
-1.0
 40
0.41541501306
 41
0.942387445104143
 42
0.9815792826078864
  0
ELLIPSE
  5
12C2
330
1F
100
AcDbEntity
  8
shade
100
AcDbEllipse
 10
201.776107575937
 20
129.323604583084
 30
0.0
 11
0.0
 21
5.695999999999986
 31
0.0
210
0.0
220
0.0
230
-1.0
 40
0.466667323282
 41
1.125848469511864
 42
1.481529741247205
  0
ELLIPSE
  5
12C3
330
1F
100
AcDbEntity
  8
shade
100
AcDbEllipse
 10
189.722848125086
 20
127.011849890609
 30
0.0
 11
0.0
 21
31.62762656308885
 31
0.0
210
0.0
220
0.0
230
-1.0
 40
0.466667323282
 41
1.481529741247205
 42
1.570796326794897
  0
LWPOLYLINE
  5
12C4
330
1F
100
AcDbEntity
  8
shade
100
AcDbPolyline
 90
        2
 70
     0
 43
0.0
 10
198.070228425033
 20
137.571849890608
 10
198.032381705987
 20
137.157340403985
  0
LINE
  5
12C5
330
1F
100
AcDbEntity
  8
shade
100
AcDbLine
 10
197.94161875192
 20
137.571849890608
 30
0.0
 11
198.113891483485
 21
136.785089672696
 31
0.0
  0
LINE
  5
12C6
330
1F
100
AcDbEntity
  8
shade
100
AcDbLine
 10
197.94161875192
 20
137.571849890608
 30
0.0
 11
197.94161875192
 21
116.451849890609
 31
0.0
  0
LINE
  5
12C7
330
1F
100
AcDbEntity
  8
shade
100
AcDbLine
 10
198.213260211382
 20
116.451849890609
 30
0.0
 11
198.070228425033
 21
116.451849890609
 31
0.0
  0
ELLIPSE
  5
12C8
330
1F
100
AcDbEntity
  8
shade
100
AcDbEllipse
 10
196.936191934074
 20
127.011849890609
 30
0.0
 11
0.0
 21
-32.33162656308885
 31
0.0
210
0.0
220
0.0
230
-1.0
 40
0.057088810863
 41
4.71238898038469
 42
4.80165556593238
  0
ELLIPSE
  5
12C9
330
1F
100
AcDbEntity
  8
shade
100
AcDbEllipse
 10
198.410703250251
 20
124.700095198134
 30
0.0
 11
0.0
 21
-6.399999999999982
 31
0.0
210
0.0
220
0.0
230
-1.0
 40
0.057088810863
 41
4.801655565932384
 42
5.301606024571717
  0
ELLIPSE
  5
12CA
330
1F
100
AcDbEntity
  8
shade
100
AcDbEllipse
 10
198.213260211382
 20
127.011849890609
 30
0.0
 11
0.0
 21
-10.56
 31
0.0
210
0.0
220
0.0
230
-1.0
 40
0.057088810863
 41
5.301606024571704
 42
6.283185307179586
  0
LINE
  5
12CB
330
1F
100
AcDbEntity
  8
shade
100
AcDbLine
 10
198.484015632868
 20
116.451849890609
 30
0.0
 11
198.213374827519
 21
116.451849890609
 31
0.0
  0
ELLIPSE
  5
12CC
330
1F
100
AcDbEntity
  8
shade
100
AcDbEllipse
 10
195.934044609527
 20
127.011849890609
 30
0.0
 11
0.0
 21
-32.33162656308883
 31
0.0
210
0.0
220
0.0
230
-1.0
 40
0.113991409891
 41
4.71238898038469
 42
4.80165556593238
  0
ELLIPSE
  5
12CD
330
1F
100
AcDbEntity
  8
shade
100
AcDbEllipse
 10
198.878257692453
 20
124.700095198134
 30
0.0
 11
0.0
 21
-6.399999999999982
 31
0.0
210
0.0
220
0.0
230
-1.0
 40
0.113991409891
 41
4.801655565932381
 42
5.301606024571704
  0
ELLIPSE
  5
12CE
330
1F
100
AcDbEntity
  8
shade
100
AcDbEllipse
 10
198.484015632868
 20
127.011849890609
 30
0.0
 11
0.0
 21
-10.56
 31
0.0
210
0.0
220
0.0
230
-1.0
 40
0.113991409891
 41
5.301606024571706
 42
6.283185307179586
  0
LINE
  5
12CF
330
1F
100
AcDbEntity
  8
shade
100
AcDbLine
 10
198.753001868463
 20
116.451849890609
 30
0.0
 11
198.484381571569
 21
116.451849890609
 31
0.0
  0
ELLIPSE
  5
12D0
330
1F
100
AcDbEntity
  8
shade
100
AcDbEllipse
 10
194.938445574557
 20
127.011849890609
 30
0.0
 11
0.0
 21
-32.33162656308883
 31
0.0
210
0.0
220
0.0
230
-1.0
 40
0.170522192633
 41
4.71238898038469
 42
4.80165556593238
  0
ELLIPSE
  5
12D1
330
1F
100
AcDbEntity
  8
shade
100
AcDbEllipse
 10
199.34275701311
 20
124.700095198134
 30
0.0
 11
0.0
 21
-6.399999999999982
 31
0.0
210
0.0
220
0.0
230
-1.0
 40
0.170522192633
 41
4.801655565932383
 42
5.301606024571697
  0
ELLIPSE
  5
12D2
330
1F
100
AcDbEntity
  8
shade
100
AcDbEllipse
 10
198.753001868463
 20
127.011849890609
 30
0.0
 11
0.0
 21
-10.56
 31
0.0
210
0.0
220
0.0
230
-1.0
 40
0.170522192633
 41
5.301606024571693
 42
6.283185307179586
  0
LINE
  5
12D3
330
1F
100
AcDbEntity
  8
shade
100
AcDbLine
 10
199.019341540985
 20
116.451849890609
 30
0.0
 11
198.753580238052
 21
116.451849890609
 31
0.0
  0
ELLIPSE
  5
12D4
330
1F
100
AcDbEntity
  8
shade
100
AcDbEllipse
 10
193.952642266271
 20
127.011849890609
 30
0.0
 11
0.0
 21
-32.33162656308885
 31
0.0
210
0.0
220
0.0
230
-1.0
 40
0.226496767426
 41
4.71238898038469
 42
4.80165556593238
  0
ELLIPSE
  5
12D5
330
1F
100
AcDbEntity
  8
shade
100
AcDbEllipse
 10
199.802686111987
 20
124.700095198134
 30
0.0
 11
0.0
 21
-6.399999999999991
 31
0.0
210
0.0
220
0.0
230
-1.0
 40
0.226496767426
 41
4.80165556593238
 42
5.301606024571697
  0
ELLIPSE
  5
12D6
330
1F
100
AcDbEntity
  8
shade
100
AcDbEllipse
 10
199.019341540985
 20
127.011849890609
 30
0.0
 11
0.0
 21
-10.56
 31
0.0
210
0.0
220
0.0
230
-1.0
 40
0.226496767426
 41
5.301606024571692
 42
6.283185307179586
  0
LINE
  5
12D7
330
1F
100
AcDbEntity
  8
shade
100
AcDbLine
 10
199.28216590577
 20
116.451849890609
 30
0.0
 11
199.020088916117
 21
116.451849890609
 31
0.0
  0
ELLIPSE
  5
12D8
330
1F
100
AcDbEntity
  8
shade
100
AcDbEllipse
 10
192.979850170166
 20
127.011849890609
 30
0.0
 11
0.0
 21
-32.33162656308885
 31
0.0
210
0.0
220
0.0
230
-1.0
 40
0.281732556841
 41
4.71238898038469
 42
4.80165556593238
  0
ELLIPSE
  5
12D9
330
1F
100
AcDbEntity
  8
shade
100
AcDbEllipse
 10
200.256544795964
 20
124.700095198134
 30
0.0
 11
0.0
 21
-6.399999999999991
 31
0.0
210
0.0
220
0.0
230
-1.0
 40
0.281732556841
 41
4.80165556593238
 42
5.301606024571702
  0
ELLIPSE
  5
12DA
330
1F
100
AcDbEntity
  8
shade
100
AcDbEllipse
 10
199.28216590577
 20
127.011849890609
 30
0.0
 11
0.0
 21
-10.56
 31
0.0
210
0.0
220
0.0
230
-1.0
 40
0.281732556841
 41
5.301606024571699
 42
6.283185307179586
  0
LINE
  5
12DB
330
1F
100
AcDbEntity
  8
shade
100
AcDbLine
 10
199.540617684379
 20
116.451849890609
 30
0.0
 11
199.283053850297
 21
116.451849890609
 31
0.0
  0
ELLIPSE
  5
12DC
330
1F
100
AcDbEntity
  8
shade
100
AcDbEllipse
 10
192.023242331859
 20
127.011849890609
 30
0.0
 11
0.0
 21
-32.33162656308883
 31
0.0
210
0.0
220
0.0
230
-1.0
 40
0.336049393215
 41
4.71238898038469
 42
4.80165556593238
  0
ELLIPSE
  5
12DD
330
1F
100
AcDbEntity
  8
shade
100
AcDbEllipse
 10
200.702852672352
 20
124.700095198134
 30
0.0
 11
0.0
 21
-6.399999999999982
 31
0.0
210
0.0
220
0.0
230
-1.0
 40
0.336049393215
 41
4.801655565932382
 42
5.301606024571701
  0
ELLIPSE
  5
12DE
330
1F
100
AcDbEntity
  8
shade
100
AcDbEllipse
 10
199.540617684379
 20
127.011849890609
 30
0.0
 11
0.0
 21
-10.56
 31
0.0
210
0.0
220
0.0
230
-1.0
 40
0.336049393215
 41
5.301606024571694
 42
6.283185307179586
  0
LINE
  5
12DF
330
1F
100
AcDbEntity
  8
shade
100
AcDbLine
 10
199.793853860825
 20
116.451849890609
 30
0.0
 11
199.541626784936
 21
116.451849890609
 31
0.0
  0
ELLIPSE
  5
12E0
330
1F
100
AcDbEntity
  8
shade
100
AcDbEllipse
 10
191.085939007284
 20
127.011849890609
 30
0.0
 11
0.0
 21
-32.33162656308883
 31
0.0
210
0.0
220
0.0
230
-1.0
 40
0.389270106317
 41
4.71238898038469
 42
4.80165556593238
  0
ELLIPSE
  5
12E1
330
1F
100
AcDbEntity
  8
shade
100
AcDbEllipse
 10
201.140153977616
 20
124.700095198134
 30
0.0
 11
0.0
 21
-6.399999999999982
 31
0.0
210
0.0
220
0.0
230
-1.0
 40
0.389270106317
 41
4.801655565932381
 42
5.301606024571696
  0
ELLIPSE
  5
12E2
330
1F
100
AcDbEntity
  8
shade
100
AcDbEllipse
 10
199.793853860825
 20
127.011849890609
 30
0.0
 11
0.0
 21
-10.56
 31
0.0
210
0.0
220
0.0
230
-1.0
 40
0.389270106317
 41
5.301606024571699
 42
6.283185307179586
  0
LINE
  5
12E3
330
1F
100
AcDbEntity
  8
shade
100
AcDbLine
 10
200.041048431336
 20
116.451849890609
 30
0.0
 11
199.794969929975
 21
116.451849890609
 31
0.0
  0
ELLIPSE
  5
12E4
330
1F
100
AcDbEntity
  8
shade
100
AcDbEllipse
 10
190.170997485071
 20
127.011849890609
 30
0.0
 11
0.0
 21
-32.33162656308885
 31
0.0
210
0.0
220
0.0
230
-1.0
 40
0.441221101243
 41
4.71238898038469
 42
4.80165556593238
  0
ELLIPSE
  5
12E5
330
1F
100
AcDbEntity
  8
shade
100
AcDbEllipse
 10
201.567022325798
 20
124.700095198134
 30
0.0
 11
0.0
 21
-6.399999999999982
 31
0.0
210
0.0
220
0.0
230
-1.0
 40
0.441221101243
 41
4.801655565932382
 42
5.301606024571704
  0
ELLIPSE
  5
12E6
330
1F
100
AcDbEntity
  8
shade
100
AcDbEllipse
 10
200.041048431336
 20
127.011849890609
 30
0.0
 11
0.0
 21
-10.56
 31
0.0
210
0.0
220
0.0
230
-1.0
 40
0.441221101243
 41
5.301606024571698
 42
6.283185307179586
  0
LINE
  5
12E7
330
1F
100
AcDbEntity
  8
shade
100
AcDbLine
 10
200.281395098602
 20
116.451849890609
 30
0.0
 11
200.042260412272
 21
116.451849890609
 31
0.0
  0
ELLIPSE
  5
12E8
330
1F
100
AcDbEntity
  8
shade
100
AcDbEllipse
 10
189.281402114288
 20
127.011849890609
 30
0.0
 11
0.0
 21
-32.33162656308885
 31
0.0
210
0.0
220
0.0
230
-1.0
 40
0.491732924646
 41
4.71238898038469
 42
4.80165556593238
  0
ELLIPSE
  5
12E9
330
1F
100
AcDbEntity
  8
shade
100
AcDbEllipse
 10
201.98206536107
 20
124.700095198134
 30
0.0
 11
0.0
 21
-6.399999999999991
 31
0.0
210
0.0
220
0.0
230
-1.0
 40
0.491732924646
 41
4.801655565932381
 42
5.301606024571697
  0
ELLIPSE
  5
12EA
330
1F
100
AcDbEntity
  8
shade
100
AcDbEllipse
 10
200.281395098602
 20
127.011849890609
 30
0.0
 11
0.0
 21
-10.56
 31
0.0
210
0.0
220
0.0
230
-1.0
 40
0.491732924646
 41
5.3016060245717
 42
6.283185307179586
  0
LINE
  5
12EB
330
1F
100
AcDbEntity
  8
shade
100
AcDbLine
 10
200.514109901756
 20
116.451849890609
 30
0.0
 11
200.282694002413
 21
116.451849890609
 31
0.0
  0
ELLIPSE
  5
12EC
330
1F
100
AcDbEntity
  8
shade
100
AcDbEllipse
 10
188.420054570128
 20
127.011849890609
 30
0.0
 11
0.0
 21
-32.33162656308885
 31
0.0
210
0.0
220
0.0
230
-1.0
 40
0.540640817456
 41
4.71238898038469
 42
4.80165556593238
  0
ELLIPSE
  5
12ED
330
1F
100
AcDbEntity
  8
shade
100
AcDbEllipse
 10
202.383929299318
 20
124.700095198134
 30
0.0
 11
0.0
 21
-6.399999999999982
 31
0.0
210
0.0
220
0.0
230
-1.0
 40
0.540640817456
 41
4.80165556593238
 42
5.301606024571699
  0
ELLIPSE
  5
12EE
330
1F
100
AcDbEntity
  8
shade
100
AcDbEllipse
 10
200.514109901756
 20
127.011849890609
 30
0.0
 11
0.0
 21
-10.56
 31
0.0
210
0.0
220
0.0
230
-1.0
 40
0.540640817456
 41
5.301606024571699
 42
6.283185307179586
  0
LINE
  5
12EF
330
1F
100
AcDbEntity
  8
shade
100
AcDbLine
 10
200.738433773477
 20
116.451849890609
 30
0.0
 11
200.515488137302
 21
116.451849890609
 31
0.0
  0
ELLIPSE
  5
12F0
330
1F
100
AcDbEntity
  8
shade
100
AcDbEllipse
 10
187.589764389253
 20
127.011849890609
 30
0.0
 11
0.0
 21
-32.33162656308885
 31
0.0
210
0.0
220
0.0
230
-1.0
 40
0.587785252292
 41
4.71238898038469
 42
4.80165556593238
  0
ELLIPSE
  5
12F1
330
1F
100
AcDbEntity
  8
shade
100
AcDbEllipse
 10
202.771303343903
 20
124.700095198134
 30
0.0
 11
0.0
 21
-6.399999999999982
 31
0.0
210
0.0
220
0.0
230
-1.0
 40
0.587785252292
 41
4.80165556593238
 42
5.301606024571701
  0
ELLIPSE
  5
12F2
330
1F
100
AcDbEntity
  8
shade
100
AcDbEllipse
 10
200.738433773477
 20
127.011849890609
 30
0.0
 11
0.0
 21
-10.56
 31
0.0
210
0.0
220
0.0
230
-1.0
 40
0.587785252292
 41
5.301606024571697
 42
6.283185307179586
  0
LINE
  5
12F3
330
1F
100
AcDbEntity
  8
shade
100
AcDbLine
 10
200.953635015921
 20
116.451849890609
 30
0.0
 11
200.739884726627
 21
116.451849890609
 31
0.0
  0
ELLIPSE
  5
12F4
330
1F
100
AcDbEntity
  8
shade
100
AcDbEllipse
 10
186.793239805655
 20
127.011849890609
 30
0.0
 11
0.0
 21
-32.33162656308885
 31
0.0
210
0.0
220
0.0
230
-1.0
 40
0.633012453809
 41
4.71238898038469
 42
4.80165556593238
  0
ELLIPSE
  5
12F5
330
1F
100
AcDbEntity
  8
shade
100
AcDbEllipse
 10
203.142923961215
 20
124.700095198134
 30
0.0
 11
0.0
 21
-6.399999999999982
 31
0.0
210
0.0
220
0.0
230
-1.0
 40
0.633012453809
 41
4.801655565932381
 42
5.301606024571698
  0
ELLIPSE
  5
12F6
330
1F
100
AcDbEntity
  8
shade
100
AcDbEllipse
 10
200.953635015921
 20
127.011849890609
 30
0.0
 11
0.0
 21
-10.56
 31
0.0
210
0.0
220
0.0
230
-1.0
 40
0.633012453809
 41
5.301606024571696
 42
6.283185307179586
  0
LINE
  5
12F7
330
1F
100
AcDbEntity
  8
shade
100
AcDbLine
 10
201.159011687367
 20
116.451849890609
 30
0.0
 11
200.955152799161
 21
116.451849890609
 31
0.0
  0
ELLIPSE
  5
12F8
330
1F
100
AcDbEntity
  8
shade
100
AcDbEllipse
 10
186.03307891696
 20
127.011849890609
 30
0.0
 11
0.0
 21
-32.33162656308885
 31
0.0
210
0.0
220
0.0
230
-1.0
 40
0.676174900274
 41
4.71238898038469
 42
4.80165556593238
  0
ELLIPSE
  5
12F9
330
1F
100
AcDbEntity
  8
shade
100
AcDbEllipse
 10
203.497579002036
 20
124.700095198134
 30
0.0
 11
0.0
 21
-6.399999999999982
 31
0.0
210
0.0
220
0.0
230
-1.0
 40
0.676174900274
 41
4.801655565932381
 42
5.301606024571701
  0
ELLIPSE
  5
12FA
330
1F
100
AcDbEntity
  8
shade
100
AcDbEllipse
 10
201.159011687367
 20
127.011849890609
 30
0.0
 11
0.0
 21
-10.56
 31
0.0
210
0.0
220
0.0
230
-1.0
 40
0.676174900274
 41
5.301606024571697
 42
6.283185307179586
  0
LINE
  5
12FB
330
1F
100
AcDbEntity
  8
shade
100
AcDbLine
 10
201.353893891803
 20
116.451849890609
 30
0.0
 11
201.160590938478
 21
116.451849890609
 31
0.0
  0
ELLIPSE
  5
12FC
330
1F
100
AcDbEntity
  8
shade
100
AcDbEllipse
 10
185.311761209992
 20
127.011849890609
 30
0.0
 11
0.0
 21
-32.33162656308883
 31
0.0
210
0.0
220
0.0
230
-1.0
 40
0.717131804759
 41
4.71238898038469
 42
4.80165556593238
  0
ELLIPSE
  5
12FD
330
1F
100
AcDbEntity
  8
shade
100
AcDbEllipse
 10
203.834111655338
 20
124.700095198134
 30
0.0
 11
0.0
 21
-6.399999999999982
 31
0.0
210
0.0
220
0.0
230
-1.0
 40
0.717131804759
 41
4.80165556593238
 42
5.301606024571697
  0
ELLIPSE
  5
12FE
330
1F
100
AcDbEntity
  8
shade
100
AcDbEllipse
 10
201.353893891803
 20
127.011849890609
 30
0.0
 11
0.0
 21
-10.56
 31
0.0
210
0.0
220
0.0
230
-1.0
 40
0.717131804759
 41
5.301606024571699
 42
6.283185307179586
  0
LINE
  5
12FF
330
1F
100
AcDbEntity
  8
shade
100
AcDbLine
 10
201.537645963977
 20
116.451849890609
 30
0.0
 11
201.355529660283
 21
116.451849890609
 31
0.0
  0
ELLIPSE
  5
1300
330
1F
100
AcDbEntity
  8
shade
100
AcDbEllipse
 10
184.63163947318
 20
127.011849890609
 30
0.0
 11
0.0
 21
-32.33162656308883
 31
0.0
210
0.0
220
0.0
230
-1.0
 40
0.755749574354
 41
4.71238898038469
 42
4.80165556593238
  0
ELLIPSE
  5
1301
330
1F
100
AcDbEntity
  8
shade
100
AcDbEllipse
 10
204.15142422156
 20
124.700095198134
 30
0.0
 11
0.0
 21
-6.399999999999982
 31
0.0
210
0.0
220
0.0
230
-1.0
 40
0.755749574354
 41
4.80165556593238
 42
5.301606024571701
  0
ELLIPSE
  5
1302
330
1F
100
AcDbEntity
  8
shade
100
AcDbEllipse
 10
201.537645963977
 20
127.011849890609
 30
0.0
 11
0.0
 21
-10.56
 31
0.0
210
0.0
220
0.0
230
-1.0
 40
0.755749574354
 41
5.301606024571697
 42
6.283185307179586
  0
LINE
  5
1303
330
1F
100
AcDbEntity
  8
shade
100
AcDbLine
 10
201.70966854283
 20
116.451849890609
 30
0.0
 11
201.539333621156
 21
116.451849890609
 31
0.0
  0
ELLIPSE
  5
1304
330
1F
100
AcDbEntity
  8
shade
100
AcDbEllipse
 10
183.994932122263
 20
127.011849890609
 30
0.0
 11
0.0
 21
-32.33162656308885
 31
0.0
210
0.0
220
0.0
230
-1.0
 40
0.791902245922
 41
4.71238898038469
 42
4.80165556593238
  0
ELLIPSE
  5
1305
330
1F
100
AcDbEntity
  8
shade
100
AcDbEllipse
 10
204.44848169306
 20
124.700095198134
 30
0.0
 11
0.0
 21
-6.399999999999982
 31
0.0
210
0.0
220
0.0
230
-1.0
 40
0.791902245922
 41
4.80165556593238
 42
5.3016060245717
  0
ELLIPSE
  5
1306
330
1F
100
AcDbEntity
  8
shade
100
AcDbEllipse
 10
201.70966854283
 20
127.011849890609
 30
0.0
 11
0.0
 21
-10.56
 31
0.0
210
0.0
220
0.0
230
-1.0
 40
0.791902245922
 41
5.301606024571697
 42
6.283185307179586
  0
LINE
  5
1307
330
1F
100
AcDbEntity
  8
shade
100
AcDbLine
 10
201.869400526462
 20
116.451849890609
 30
0.0
 11
201.711403719306
 21
116.451849890609
 31
0.0
  0
ELLIPSE
  5
1308
330
1F
100
AcDbEntity
  8
shade
100
AcDbEllipse
 10
183.403715964287
 20
127.011849890609
 30
0.0
 11
0.0
 21
-32.33162656308885
 31
0.0
210
0.0
220
0.0
230
-1.0
 40
0.825471896963
 41
4.71238898038469
 42
4.80165556593238
  0
ELLIPSE
  5
1309
330
1F
100
AcDbEntity
  8
shade
100
AcDbEllipse
 10
204.724315130112
 20
124.700095198134
 30
0.0
 11
0.0
 21
-6.399999999999982
 31
0.0
210
0.0
220
0.0
230
-1.0
 40
0.825471896963
 41
4.80165556593238
 42
5.301606024571701
  0
ELLIPSE
  5
130A
330
1F
100
AcDbEntity
  8
shade
100
AcDbEllipse
 10
201.869400526462
 20
127.011849890609
 30
0.0
 11
0.0
 21
-10.56
 31
0.0
210
0.0
220
0.0
230
-1.0
 40
0.825471896963
 41
5.301606024571697
 42
6.283185307179586
  0
LINE
  5
130B
330
1F
100
AcDbEntity
  8
shade
100
AcDbLine
 10
202.016320902345
 20
116.451849890609
 30
0.0
 11
201.871179029305
 21
116.451849890609
 31
0.0
  0
ELLIPSE
  5
130C
330
1F
100
AcDbEntity
  8
shade
100
AcDbEllipse
 10
182.859919423467
 20
127.011849890609
 30
0.0
 11
0.0
 21
-32.33162656308883
 31
0.0
210
0.0
220
0.0
230
-1.0
 40
0.856349030252
 41
4.71238898038469
 42
4.80165556593238
  0
ELLIPSE
  5
130D
330
1F
100
AcDbEntity
  8
shade
100
AcDbEllipse
 10
204.978024821376
 20
124.700095198134
 30
0.0
 11
0.0
 21
-6.399999999999982
 31
0.0
210
0.0
220
0.0
230
-1.0
 40
0.856349030252
 41
4.80165556593238
 42
5.301606024571698
  0
ELLIPSE
  5
130E
330
1F
100
AcDbEntity
  8
shade
100
AcDbEllipse
 10
202.016320902345
 20
127.011849890609
 30
0.0
 11
0.0
 21
-10.56
 31
0.0
210
0.0
220
0.0
230
-1.0
 40
0.856349030252
 41
5.301606024571697
 42
6.283185307179586
  0
LINE
  5
130F
330
1F
100
AcDbEntity
  8
shade
100
AcDbLine
 10
202.149950446747
 20
116.451849890609
 30
0.0
 11
202.018138715492
 21
116.451849890609
 31
0.0
  0
ELLIPSE
  5
1310
330
1F
100
AcDbEntity
  8
shade
100
AcDbEllipse
 10
182.365316251085
 20
127.011849890609
 30
0.0
 11
0.0
 21
-32.33162656308885
 31
0.0
210
0.0
220
0.0
230
-1.0
 40
0.884432930998
 41
4.71238898038469
 42
4.80165556593238
  0
ELLIPSE
  5
1311
330
1F
100
AcDbEntity
  8
shade
100
AcDbEllipse
 10
205.208783218575
 20
124.700095198134
 30
0.0
 11
0.0
 21
-6.399999999999982
 31
0.0
210
0.0
220
0.0
230
-1.0
 40
0.884432930998
 41
4.801655565932381
 42
5.301606024571702
  0
ELLIPSE
  5
1312
330
1F
100
AcDbEntity
  8
shade
100
AcDbEllipse
 10
202.149950446747
 20
127.011849890609
 30
0.0
 11
0.0
 21
-10.56
 31
0.0
210
0.0
220
0.0
230
-1.0
 40
0.884432930998
 41
5.301606024571697
 42
6.283185307179586
  0
LINE
  5
1313
330
1F
100
AcDbEntity
  8
shade
100
AcDbLine
 10
202.269853287875
 20
116.451849890609
 30
0.0
 11
202.151803673722
 21
116.451849890609
 31
0.0
  0
ELLIPSE
  5
1314
330
1F
100
AcDbEntity
  8
shade
100
AcDbEllipse
 10
181.921519739899
 20
127.011849890609
 30
0.0
 11
0.0
 21
-32.33162656308885
 31
0.0
210
0.0
220
0.0
230
-1.0
 40
0.909631995355
 41
4.71238898038469
 42
4.80165556593238
  0
ELLIPSE
  5
1315
330
1F
100
AcDbEntity
  8
shade
100
AcDbEllipse
 10
205.415837635785
 20
124.700095198134
 30
0.0
 11
0.0
 21
-6.399999999999982
 31
0.0
210
0.0
220
0.0
230
-1.0
 40
0.909631995355
 41
4.80165556593238
 42
5.301606024571699
  0
ELLIPSE
  5
1316
330
1F
100
AcDbEntity
  8
shade
100
AcDbEllipse
 10
202.269853287875
 20
127.011849890609
 30
0.0
 11
0.0
 21
-10.56
 31
0.0
210
0.0
220
0.0
230
-1.0
 40
0.909631995355
 41
5.301606024571696
 42
6.283185307179586
  0
LINE
  5
1317
330
1F
100
AcDbEntity
  8
shade
100
AcDbLine
 10
202.375638327576
 20
116.451849890609
 30
0.0
 11
202.271738144056
 21
116.451849890609
 31
0.0
  0
ELLIPSE
  5
1318
330
1F
100
AcDbEntity
  8
shade
100
AcDbEllipse
 10
181.529977461872
 20
127.011849890609
 30
0.0
 11
0.0
 21
-32.33162656308885
 31
0.0
210
0.0
220
0.0
230
-1.0
 40
0.931864029211
 41
4.71238898038469
 42
4.80165556593238
  0
ELLIPSE
  5
1319
330
1F
100
AcDbEntity
  8
shade
100
AcDbEllipse
 10
205.598512704524
 20
124.700095198134
 30
0.0
 11
0.0
 21
-6.399999999999982
 31
0.0
210
0.0
220
0.0
230
-1.0
 40
0.931864029211
 41
4.80165556593238
 42
5.301606024571699
  0
ELLIPSE
  5
131A
330
1F
100
AcDbEntity
  8
shade
100
AcDbEllipse
 10
202.375638327576
 20
127.011849890609
 30
0.0
 11
0.0
 21
-10.56
 31
0.0
210
0.0
220
0.0
230
-1.0
 40
0.931864029211
 41
5.301606024571697
 42
6.283185307179586
  0
LINE
  5
131B
330
1F
100
AcDbEntity
  8
shade
100
AcDbLine
 10
202.466960517046
 20
116.451849890609
 30
0.0
 11
202.377551103571
 21
116.451849890609
 31
0.0
  0
ELLIPSE
  5
131C
330
1F
100
AcDbEntity
  8
shade
100
AcDbEllipse
 10
181.191966546536
 20
127.011849890609
 30
0.0
 11
0.0
 21
-32.33162656308885
 31
0.0
210
0.0
220
0.0
230
-1.0
 40
0.951056516295
 41
4.71238898038469
 42
4.80165556593238
  0
ELLIPSE
  5
131D
330
1F
100
AcDbEntity
  8
shade
100
AcDbEllipse
 10
205.756212576696
 20
124.700095198134
 30
0.0
 11
0.0
 21
-6.399999999999991
 31
0.0
210
0.0
220
0.0
230
-1.0
 40
0.951056516295
 41
4.80165556593238
 42
5.3016060245717
  0
ELLIPSE
  5
131E
330
1F
100
AcDbEntity
  8
shade
100
AcDbEllipse
 10
202.466960517046
 20
127.011849890609
 30
0.0
 11
0.0
 21
-10.56
 31
0.0
210
0.0
220
0.0
230
-1.0
 40
0.951056516295
 41
5.301606024571697
 42
6.283185307179586
  0
LINE
  5
131F
330
1F
100
AcDbEntity
  8
shade
100
AcDbLine
 10
202.543521982279
 20
116.451849890609
 30
0.0
 11
202.468897578598
 21
116.451849890609
 31
0.0
  0
ELLIPSE
  5
1320
330
1F
100
AcDbEntity
  8
shade
100
AcDbEllipse
 10
180.908589515246
 20
127.011849890609
 30
0.0
 11
0.0
 21
-32.33162656308885
 31
0.0
210
0.0
220
0.0
230
-1.0
 40
0.967146854702
 41
4.71238898038469
 42
4.80165556593238
  0
ELLIPSE
  5
1321
330
1F
100
AcDbEntity
  8
shade
100
AcDbEllipse
 10
205.888422868091
 20
124.700095198134
 30
0.0
 11
0.0
 21
-6.399999999999991
 31
0.0
210
0.0
220
0.0
230
-1.0
 40
0.967146854702
 41
4.80165556593238
 42
5.301606024571699
  0
ELLIPSE
  5
1322
330
1F
100
AcDbEntity
  8
shade
100
AcDbEllipse
 10
202.543521982279
 20
127.011849890609
 30
0.0
 11
0.0
 21
-10.56
 31
0.0
210
0.0
220
0.0
230
-1.0
 40
0.967146854702
 41
5.301606024571698
 42
6.283185307179586
  0
LINE
  5
1323
330
1F
100
AcDbEntity
  8
shade
100
AcDbLine
 10
202.605072995691
 20
116.451849890609
 30
0.0
 11
202.545479751931
 21
116.451849890609
 31
0.0
  0
ELLIPSE
  5
1324
330
1F
100
AcDbEntity
  8
shade
100
AcDbEllipse
 10
180.680770684965
 20
127.011849890609
 30
0.0
 11
0.0
 21
-32.33162656308885
 31
0.0
210
0.0
220
0.0
230
-1.0
 40
0.980082561092
 41
4.71238898038469
 42
4.80165556593238
  0
ELLIPSE
  5
1325
330
1F
100
AcDbEntity
  8
shade
100
AcDbEllipse
 10
205.994712336218
 20
124.700095198134
 30
0.0
 11
0.0
 21
-6.399999999999991
 31
0.0
210
0.0
220
0.0
230
-1.0
 40
0.980082561092
 41
4.80165556593238
 42
5.301606024571699
  0
ELLIPSE
  5
1326
330
1F
100
AcDbEntity
  8
shade
100
AcDbEllipse
 10
202.605072995691
 20
127.011849890609
 30
0.0
 11
0.0
 21
-10.56
 31
0.0
210
0.0
220
0.0
230
-1.0
 40
0.980082561092
 41
5.301606024571699
 42
6.283185307179586
  0
LINE
  5
1327
330
1F
100
AcDbEntity
  8
shade
100
AcDbLine
 10
202.651412790667
 20
116.451849890609
 30
0.0
 11
202.60704792555
 21
116.451849890609
 31
0.0
  0
ELLIPSE
  5
1328
330
1F
100
AcDbEntity
  8
shade
100
AcDbEllipse
 10
180.509253153374
 20
127.011849890609
 30
0.0
 11
0.0
 21
-32.33162656308885
 31
0.0
210
0.0
220
0.0
230
-1.0
 40
0.989821441881
 41
4.71238898038469
 42
4.80165556593238
  0
ELLIPSE
  5
1329
330
1F
100
AcDbEntity
  8
shade
100
AcDbEllipse
 10
206.074734286929
 20
124.700095198134
 30
0.0
 11
0.0
 21
-6.399999999999982
 31
0.0
210
0.0
220
0.0
230
-1.0
 40
0.989821441881
 41
4.801655565932381
 42
5.301606024571701
  0
ELLIPSE
  5
132A
330
1F
100
AcDbEntity
  8
shade
100
AcDbEllipse
 10
202.651412790667
 20
127.011849890609
 30
0.0
 11
0.0
 21
-10.56
 31
0.0
210
0.0
220
0.0
230
-1.0
 40
0.989821441881
 41
5.301606024571697
 42
6.283185307179586
  0
LINE
  5
132B
330
1F
100
AcDbEntity
  8
shade
100
AcDbLine
 10
202.682390216436
 20
116.451849890609
 30
0.0
 11
202.653401384647
 21
116.451849890609
 31
0.0
  0
ELLIPSE
  5
132C
330
1F
100
AcDbEntity
  8
shade
100
AcDbEllipse
 10
180.394596375012
 20
127.011849890609
 30
0.0
 11
0.0
 21
-32.33162656308885
 31
0.0
210
0.0
220
0.0
230
-1.0
 40
0.996331730863
 41
4.71238898038469
 42
4.80165556593238
  0
ELLIPSE
  5
132D
330
1F
100
AcDbEntity
  8
shade
100
AcDbEllipse
 10
206.128227705249
 20
124.700095198134
 30
0.0
 11
0.0
 21
-6.399999999999991
 31
0.0
210
0.0
220
0.0
230
-1.0
 40
0.996331730863
 41
4.80165556593238
 42
5.301606024571698
  0
ELLIPSE
  5
132E
330
1F
100
AcDbEntity
  8
shade
100
AcDbEllipse
 10
202.682390216436
 20
127.011849890609
 30
0.0
 11
0.0
 21
-10.56
 31
0.0
210
0.0
220
0.0
230
-1.0
 40
0.996331730863
 41
5.301606024571698
 42
6.283185307179586
  0
LINE
  5
132F
330
1F
100
AcDbEntity
  8
shade
100
AcDbLine
 10
202.697904231063
 20
116.451849890609
 30
0.0
 11
202.684388997914
 21
116.451849890609
 31
0.0
  0
ELLIPSE
  5
1330
330
1F
100
AcDbEntity
  8
shade
100
AcDbEllipse
 10
180.337174336451
 20
127.011849890609
 30
0.0
 11
0.0
 21
-32.33162656308885
 31
0.0
210
0.0
220
0.0
230
-1.0
 40
0.999592192828
 41
4.71238898038469
 42
4.80165556593238
  0
ELLIPSE
  5
1331
330
1F
100
AcDbEntity
  8
shade
100
AcDbEllipse
 10
206.155018106772
 20
124.700095198134
 30
0.0
 11
0.0
 21
-6.399999999999982
 31
0.0
210
0.0
220
0.0
230
-1.0
 40
0.999592192828
 41
4.80165556593238
 42
5.3016060245717
  0
ELLIPSE
  5
1332
330
1F
100
AcDbEntity
  8
shade
100
AcDbEllipse
 10
202.697904231063
 20
127.011849890609
 30
0.0
 11
0.0
 21
-10.56
 31
0.0
210
0.0
220
0.0
230
-1.0
 40
0.999592192828
 41
5.301606024571697
 42
6.283185307179586
  0
ELLIPSE
  5
1333
330
1F
100
AcDbEntity
  8
shade
100
AcDbEllipse
 10
198.176256688643
 20
124.700095198134
 30
0.0
 11
0.0
 21
-5.695999999999984
 31
0.0
210
0.0
220
0.0
230
1.0
 40
0.028556050857
 41
0.9815792826079035
 42
1.481529741247196
  0
ELLIPSE
  5
1334
330
1F
100
AcDbEntity
  8
shade
100
AcDbEllipse
 10
197.438700248105
 20
127.011849890609
 30
0.0
 11
0.0
 21
-31.62762656308884
 31
0.0
210
0.0
220
0.0
230
1.0
 40
0.028556050857
 41
1.481529741247205
 42
1.570796326794897
  0
ELLIPSE
  5
1335
330
1F
100
AcDbEntity
  8
shade
100
AcDbEllipse
 10
198.077494893219
 20
127.011849890609
 30
0.0
 11
0.0
 21
-9.855999999999996
 31
0.0
210
0.0
220
0.0
230
1.0
 40
0.028556050857
 41
0.1296820381237737
 42
0.9815792826078551
  0
ELLIPSE
  5
1336
330
1F
100
AcDbEntity
  8
shade
100
AcDbEllipse
 10
198.64476722086
 20
124.700095198134
 30
0.0
 11
0.0
 21
-5.69599999999999
 31
0.0
210
0.0
220
0.0
230
1.0
 40
0.085575008542
 41
0.9815792826078977
 42
1.481529741247207
  0
ELLIPSE
  5
1337
330
1F
100
AcDbEntity
  8
shade
100
AcDbEllipse
 10
196.434503658344
 20
127.011849890609
 30
0.0
 11
0.0
 21
-31.62762656308884
 31
0.0
210
0.0
220
0.0
230
1.0
 40
0.085575008542
 41
1.481529741247206
 42
1.570796326794897
  0
ELLIPSE
  5
1338
330
1F
100
AcDbEntity
  8
shade
100
AcDbEllipse
 10
198.348803975481
 20
127.011849890609
 30
0.0
 11
0.0
 21
-9.855999999999996
 31
0.0
210
0.0
220
0.0
230
1.0
 40
0.085575008542
 41
0.1055218818997452
 42
0.9815792826079008
  0
ELLIPSE
  5
1339
330
1F
100
AcDbEntity
  8
shade
100
AcDbEllipse
 10
199.110984228926
 20
124.700095198134
 30
0.0
 11
0.0
 21
-5.69599999999999
 31
0.0
210
0.0
220
0.0
230
1.0
 40
0.142314838336
 41
0.9815792826078955
 42
1.481529741247207
  0
ELLIPSE
  5
133A
330
1F
100
AcDbEntity
  8
shade
100
AcDbEllipse
 10
195.435222964759
 20
127.011849890609
 30
0.0
 11
0.0
 21
-31.62762656308884
 31
0.0
210
0.0
220
0.0
230
1.0
 40
0.142314838336
 41
1.481529741247206
 42
1.570796326794897
  0
ELLIPSE
  5
133B
330
1F
100
AcDbEntity
  8
shade
100
AcDbEllipse
 10
198.618784904178
 20
127.011849890609
 30
0.0
 11
0.0
 21
-9.855999999999996
 31
0.0
210
0.0
220
0.0
230
1.0
 40
0.142314838336
 41
0.293567701527414
 42
0.9815792826078811
  0
ELLIPSE
  5
133C
330
1F
100
AcDbEntity
  8
shade
100
AcDbEllipse
 10
199.573387009859
 20
124.700095198134
 30
0.0
 11
0.0
 21
-5.695999999999984
 31
0.0
210
0.0
220
0.0
230
1.0
 40
0.198590466708
 41
0.981579282607898
 42
1.481529741247206
  0
ELLIPSE
  5
133D
330
1F
100
AcDbEntity
  8
shade
100
AcDbEllipse
 10
194.444117613271
 20
127.011849890609
 30
0.0
 11
0.0
 21
-31.62762656308884
 31
0.0
210
0.0
220
0.0
230
1.0
 40
0.198590466708
 41
1.481529741247206
 42
1.570796326794897
  0
ELLIPSE
  5
133E
330
1F
100
AcDbEntity
  8
shade
100
AcDbEllipse
 10
198.886557057638
 20
127.011849890609
 30
0.0
 11
0.0
 21
-9.855999999999996
 31
0.0
210
0.0
220
0.0
230
1.0
 40
0.198590466708
 41
0.4357351356124137
 42
0.9815792826078853
  0
ELLIPSE
  5
133F
330
1F
100
AcDbEntity
  8
shade
100
AcDbEllipse
 10
200.030467301902
 20
124.700095198134
 30
0.0
 11
0.0
 21
-5.69599999999999
 31
0.0
210
0.0
220
0.0
230
1.0
 40
0.254218334255
 41
0.9815792826078886
 42
1.481529741247205
  0
ELLIPSE
  5
1340
330
1F
100
AcDbEntity
  8
shade
100
AcDbEllipse
 10
193.464420383531
 20
127.011849890609
 30
0.0
 11
0.0
 21
-31.62762656308884
 31
0.0
210
0.0
220
0.0
230
1.0
 40
0.254218334255
 41
1.481529741247206
 42
1.570796326794897
  0
ELLIPSE
  5
1341
330
1F
100
AcDbEntity
  8
shade
100
AcDbEllipse
 10
199.151247018752
 20
127.011849890609
 30
0.0
 11
0.0
 21
-9.855999999999996
 31
0.0
210
0.0
220
0.0
230
1.0
 40
0.254218334255
 41
0.5619538742074137
 42
0.9815792826078857
  0
ELLIPSE
  5
1342
330
1F
100
AcDbEntity
  8
shade
100
AcDbEllipse
 10
200.480734204146
 20
124.700095198134
 30
0.0
 11
0.0
 21
-5.695999999999984
 31
0.0
210
0.0
220
0.0
230
1.0
 40
0.309016994435
 41
0.9815792826078877
 42
1.481529741247205
  0
ELLIPSE
  5
1343
330
1F
100
AcDbEntity
  8
shade
100
AcDbEllipse
 10
192.499326844278
 20
127.011849890609
 30
0.0
 11
0.0
 21
-31.62762656308884
 31
0.0
210
0.0
220
0.0
230
1.0
 40
0.309016994435
 41
1.481529741247206
 42
1.570796326794897
  0
ELLIPSE
  5
1344
330
1F
100
AcDbEntity
  8
shade
100
AcDbEllipse
 10
199.41199142388
 20
127.011849890609
 30
0.0
 11
0.0
 21
-9.855999999999996
 31
0.0
210
0.0
220
0.0
230
1.0
 40
0.309016994435
 41
0.6834840190045115
 42
0.9815792826078866
  0
ELLIPSE
  5
1345
330
1F
100
AcDbEntity
  8
shade
100
AcDbEllipse
 10
200.922719039543
 20
124.700095198134
 30
0.0
 11
0.0
 21
-5.695999999999984
 31
0.0
210
0.0
220
0.0
230
1.0
 40
0.36280770541
 41
0.9815792826078868
 42
1.481529741247205
  0
ELLIPSE
  5
1346
330
1F
100
AcDbEntity
  8
shade
100
AcDbEllipse
 10
191.551984930029
 20
127.011849890609
 30
0.0
 11
0.0
 21
-31.62762656308884
 31
0.0
210
0.0
220
0.0
230
1.0
 40
0.36280770541
 41
1.481529741247206
 42
1.570796326794897
  0
ELLIPSE
  5
1347
330
1F
100
AcDbEntity
  8
shade
100
AcDbEllipse
 10
199.667939778978
 20
127.011849890609
 30
0.0
 11
0.0
 21
-9.855999999999996
 31
0.0
210
0.0
220
0.0
230
1.0
 40
0.36280770541
 41
0.807651404004911
 42
0.9815792826078897
  0
ELLIPSE
  5
1348
330
1F
100
AcDbEntity
  8
shade
100
AcDbEllipse
 10
201.354980145436
 20
124.700095198134
 30
0.0
 11
0.0
 21
-5.695999999999984
 31
0.0
210
0.0
220
0.0
230
1.0
 40
0.41541501306
 41
0.9815792826078835
 42
1.481529741247205
  0
ELLIPSE
  5
1349
330
1F
100
AcDbEntity
  8
shade
100
AcDbEllipse
 10
190.625484673215
 20
127.011849890609
 30
0.0
 11
0.0
 21
-31.62762656308884
 31
0.0
210
0.0
220
0.0
230
1.0
 40
0.41541501306
 41
1.481529741247205
 42
1.570796326794897
  0
ELLIPSE
  5
134A
330
1F
100
AcDbEntity
  8
shade
100
AcDbEllipse
 10
199.918257233701
 20
127.011849890609
 30
0.0
 11
0.0
 21
-9.855999999999996
 31
0.0
210
0.0
220
0.0
230
1.0
 40
0.41541501306
 41
0.942387445104143
 42
0.9815792826078864
  0
ELLIPSE
  5
134B
330
1F
100
AcDbEntity
  8
shade
100
AcDbEllipse
 10
201.776107575937
 20
124.700095198134
 30
0.0
 11
0.0
 21
-5.695999999999984
 31
0.0
210
0.0
220
0.0
230
1.0
 40
0.466667323282
 41
1.125848469511864
 42
1.481529741247205
  0
ELLIPSE
  5
134C
330
1F
100
AcDbEntity
  8
shade
100
AcDbEllipse
 10
189.722848125086
 20
127.011849890609
 30
0.0
 11
0.0
 21
-31.62762656308884
 31
0.0
210
0.0
220
0.0
230
1.0
 40
0.466667323282
 41
1.481529741247205
 42
1.570796326794897
  0
LWPOLYLINE
  5
134D
330
1F
100
AcDbEntity
  8
shade
100
AcDbPolyline
 90
        2
 70
     0
 43
0.0
 10
198.070228425033
 20
116.451849890609
 10
198.032381705987
 20
116.866359377233
  0
LINE
  5
134E
330
1F
100
AcDbEntity
  8
shade
100
AcDbLine
 10
197.94161875192
 20
116.451849890609
 30
0.0
 11
198.113891483485
 21
117.238610108519
 31
0.0
  0
LINE
  5
134F
330
1F
100
AcDbEntity
  8
TOUGU
  6
DASHED2
 62
     9
100
AcDbLine
 10
197.941619643425
 20
130.527634462109
 30
0.0
 11
197.941619643425
 21
132.774530331491
 31
0.0
  0
TEXT
  5
1350
330
1F
100
AcDbEntity
  8
text
  6
Continuous
100
AcDbText
 10
158.137161959752
 20
81.655067361558
 30
0.0
 40
2.5
  1
E26 LED電球(60W形相当　電球色）全方向/広配光タイプ（別売）
 41
0.858463653518
  7
新規スタイル1
 72
     5
 11
241.848098973402
 21
81.655067361558
 31
0.0
100
AcDbText
  0
VIEWPORT
  5
92
330
23
100
AcDbEntity
 67
     1
  8
0
100
AcDbViewport
 10
202.5
 20
168.661532219742
 30
0.0
 40
556.786421052632
 41
394.549064439485
 68
     2
 69
     1
 12
202.5
 22
168.661532219742
 13
0.0
 23
0.0
 14
10.0
 24
10.0
 15
10.0
 25
10.0
 16
0.0
 26
0.0
 36
1.0
 17
0.0
 27
0.0
 37
0.0
 42
50.0
 43
0.0
 44
0.0
 45
394.549064439485
 50
0.0
 51
0.0
 72
   100
 90
    32800
  1

281
     0
 71
     1
 74
     0
110
0.0
120
0.0
130
0.0
111
1.0
121
0.0
131
0.0
112
0.0
122
1.0
132
0.0
 79
     0
146
0.0
170
     0
 61
     5
348
E93
292
     1
282
     1
141
0.0
142
0.0
 63
   250
421
  3355443
  0
VIEWPORT
  5
94
330
23
100
AcDbEntity
 67
     1
  8
0
100
AcDbViewport
 10
202.5
 20
128.5
 30
0.0
 40
324.0
 41
205.6
 68
     1
 69
     2
 12
210.0
 22
148.5
 13
0.0
 23
0.0
 14
10.0
 24
10.0
 15
10.0
 25
10.0
 16
0.0
 26
0.0
 36
1.0
 17
0.0
 27
0.0
 37
0.0
 42
50.0
 43
0.0
 44
0.0
 45
302.335329341317
 50
0.0
 51
0.0
 72
   100
 90
    32864
  1

281
     0
 71
     1
 74
     0
110
0.0
120
0.0
130
0.0
111
1.0
121
0.0
131
0.0
112
0.0
122
1.0
132
0.0
 79
     0
146
0.0
170
     0
 61
     5
348
E93
292
     1
282
     1
141
0.0
142
0.0
 63
   250
421
  3355443
  0
ENDSEC
  0
SECTION
  2
OBJECTS
  0
DICTIONARY
  5
C
330
0
100
AcDbDictionary
281
     1
  3
ACAD_COLOR
350
C8E
  3
ACAD_DETAILVIEWSTYLE
350
1354
  3
ACAD_GROUP
350
D
  3
ACAD_LAYOUT
350
1A
  3
ACAD_MATERIAL
350
C8D
  3
ACAD_MLEADERSTYLE
350
E8C
  3
ACAD_MLINESTYLE
350
17
  3
ACAD_PLOTSETTINGS
350
19
  3
ACAD_PLOTSTYLENAME
350
E
  3
ACAD_SCALELIST
350
E62
  3
ACAD_SECTIONVIEWSTYLE
350
1355
  3
ACAD_TABLESTYLE
350
E87
  3
ACAD_VISUALSTYLE
350
E8E
  3
ACDB_RECOMPOSE_DATA
350
138D
  3
AcDbVariableDictionary
350
4A4
  0
SUN
  5
E8A
330
E61
100
AcDbSun
 90
        1
290
     0
 63
     7
421
 16777215
 40
1.0
291
     1
 91
  2455461
 92
 54000000
292
     0
 70
     2
 71
   256
280
     1
  0
DICTIONARY
  5
1114
330
2
100
AcDbDictionary
280
     1
281
     1
  3
ACAD_LAYERSTATES
360
1115
  0
DICTIONARY
  5
C8E
102
{ACAD_REACTORS
330
C
102
}
330
C
100
AcDbDictionary
281
     1
  0
DICTIONARY
  5
1354
102
{ACAD_REACTORS
330
C
102
}
330
C
100
AcDbDictionary
281
     1
  0
DICTIONARY
  5
D
102
{ACAD_REACTORS
330
C
102
}
330
C
100
AcDbDictionary
281
     1
  0
DICTIONARY
  5
1A
102
{ACAD_REACTORS
330
C
102
}
330
C
100
AcDbDictionary
281
     1
  3
Model
350
22
  3
ﾚｲｱｳﾄ1
350
1E
  3
ﾚｲｱｳﾄ2
350
26
  0
DICTIONARY
  5
C8D
102
{ACAD_REACTORS
330
C
102
}
330
C
100
AcDbDictionary
281
     1
  3
ByBlock
350
E85
  3
ByLayer
350
E84
  3
Global
350
E86
  0
DICTIONARY
  5
E8C
102
{ACAD_REACTORS
330
C
102
}
330
C
100
AcDbDictionary
281
     1
  3
Standard
350
EA7
  0
DICTIONARY
  5
17
102
{ACAD_REACTORS
330
C
102
}
330
C
100
AcDbDictionary
281
     1
  3
Standard
350
18
  0
DICTIONARY
  5
19
102
{ACAD_REACTORS
330
C
102
}
330
C
100
AcDbDictionary
281
     1
  0
ACDBDICTIONARYWDFLT
  5
E
102
{ACAD_REACTORS
330
C
102
}
330
C
100
AcDbDictionary
281
     1
  3
Normal
350
F
100
AcDbDictionaryWithDefault
340
F
  0
DICTIONARY
  5
E62
102
{ACAD_REACTORS
330
C
102
}
330
C
100
AcDbDictionary
281
     1
  3
A0
350
E63
  3
A1
350
E64
  3
A2
350
E65
  3
A3
350
E66
  3
A4
350
E67
  3
A5
350
E68
  3
A6
350
E69
  3
A7
350
E6A
  3
A8
350
E6B
  3
A9
350
E6C
  3
B0
350
E6D
  3
B1
350
E6E
  3
B2
350
E6F
  3
B3
350
E70
  3
B4
350
E71
  3
B5
350
E72
  3
B6
350
E73
  3
B7
350
E74
  3
B8
350
E75
  3
B9
350
E76
  3
C0
350
E77
  3
C1
350
E78
  3
C2
350
E79
  3
C3
350
E7A
  3
C4
350
E7B
  3
C5
350
E7C
  3
C6
350
E7D
  3
C7
350
E7E
  3
C8
350
E7F
  3
C9
350
E80
  3
D0
350
E81
  3
D1
350
E82
  3
D2
350
E83
  0
DICTIONARY
  5
1355
102
{ACAD_REACTORS
330
C
102
}
330
C
100
AcDbDictionary
281
     1
  0
DICTIONARY
  5
E87
102
{ACAD_REACTORS
330
C
102
}
330
C
100
AcDbDictionary
281
     1
  3
Standard
350
E88
  0
DICTIONARY
  5
E8E
102
{ACAD_REACTORS
330
C
102
}
330
C
100
AcDbDictionary
281
     1
  3
2dWireframe
350
E93
  3
Basic
350
E96
  3
Brighten
350
E9A
  3
ColorChange
350
E9E
  3
Conceptual
350
E98
  3
Dim
350
E99
  3
EdgeColorOff
350
EA1
  3
Facepattern
350
E9D
  3
Flat
350
E8F
  3
FlatWithEdges
350
E90
  3
Gouraud
350
E91
  3
GouraudWithEdges
350
E92
  3
Hidden
350
E95
  3
JitterOff
350
E9F
  3
Linepattern
350
E9C
  3
Modeling
350
EA8
  3
OverhangOff
350
EA0
  3
Realistic
350
E97
  3
Shaded
350
EA6
  3
Shaded with edges
350
EA5
  3
Shades of Gray
350
EA2
  3
Sketchy
350
EA3
  3
Thicken
350
E9B
  3
Wireframe
350
E94
  3
X-Ray
350
EA4
  0
XRECORD
  5
138D
102
{ACAD_REACTORS
330
C
102
}
330
C
100
AcDbXrecord
280
     1
 90
        1
330
E88
  0
DICTIONARY
  5
4A4
102
{ACAD_REACTORS
330
C
102
}
330
C
100
AcDbDictionary
281
     1
  3
CANNOSCALE
350
E8B
  3
CMLEADERSTYLE
350
1352
  3
CTABLESTYLE
350
1351
  3
DIMASSOC
350
4A5
  3
PROJECTNAME
350
D6B
  3
XCLIPFRAME
350
1353
  0
DICTIONARY
  5
1115
102
{ACAD_REACTORS
330
1114
102
}
330
1114
100
AcDbDictionary
281
     1
  0
LAYOUT
  5
22
102
{ACAD_REACTORS
330
1A
102
}
330
1A
100
AcDbPlotSettings
  1

  2
Microsoft Print to PDF
  4
A4
  6

 40
0.0
 41
0.0
 42
0.0
 43
0.0
 44
210.0
 45
297.0
 46
0.0
 47
0.0
 48
102.0
 49
-12.0
140
297.0
141
270.0
142
1.0
143
1.0
 70
 11936
 72
     1
 73
     0
 74
     4
  7
SCDX.ctb
 75
     0
 76
     0
 77
     2
 78
   300
147
0.192096013646
148
-279.826013427869
149
-93.667430617288
100
AcDbLayout
  1
Model
 70
     1
 71
     0
 10
0.0
 20
0.0
 11
12.0
 21
9.0
 12
0.0
 22
0.0
 32
0.0
 14
102.0
 24
-12.0
 34
0.0
 15
297.0
 25
270.0
 35
0.0
146
0.0
 13
0.0
 23
0.0
 33
0.0
 16
1.0
 26
0.0
 36
0.0
 17
0.0
 27
1.0
 37
0.0
 76
     0
330
1F
331
E61
  0
LAYOUT
  5
1E
102
{ACAD_REACTORS
330
1A
102
}
330
1A
100
AcDbPlotSettings
  1

  2
none_device
  4
ISO_A3_(420.00_x_297.00_MM)
  6

 40
7.5
 41
20.0
 42
7.5
 43
20.0
 44
420.0
 45
297.0
 46
0.0
 47
0.0
 48
0.0
 49
0.0
140
0.0
141
0.0
142
1.0
143
1.0
 70
   688
 72
     1
 73
     0
 74
     5
  7
SCDX.ctb
 75
    16
 76
     0
 77
     2
 78
   300
147
1.0
148
0.0
149
0.0
100
AcDbLayout
  1
ﾚｲｱｳﾄ1
 70
     1
 71
     1
 10
-7.5
 20
-20.0
 11
412.5
 21
277.0
 12
0.0
 22
0.0
 32
0.0
 14
40.5
 24
25.7
 34
0.0
 15
364.5
 25
231.3
 35
0.0
146
0.0
 13
0.0
 23
0.0
 33
0.0
 16
1.0
 26
0.0
 36
0.0
 17
0.0
 27
1.0
 37
0.0
 76
     0
330
1B
331
8C
  0
LAYOUT
  5
26
102
{ACAD_REACTORS
330
1A
102
}
330
1A
100
AcDbPlotSettings
  1

  2
none_device
  4
ISO_A3_(420.00_x_297.00_MM)
  6

 40
7.5
 41
20.0
 42
7.5
 43
20.0
 44
420.0
 45
297.0
 46
0.0
 47
0.0
 48
0.0
 49
0.0
140
0.0
141
0.0
142
1.0
143
1.0
 70
   688
 72
     1
 73
     0
 74
     5
  7
SCDX.ctb
 75
    16
 76
     0
 77
     2
 78
   300
147
1.0
148
0.0
149
0.0
100
AcDbLayout
  1
ﾚｲｱｳﾄ2
 70
     1
 71
     2
 10
-7.5
 20
-20.0
 11
412.5
 21
277.0
 12
0.0
 22
0.0
 32
0.0
 14
40.5
 24
25.7
 34
0.0
 15
364.5
 25
231.3
 35
0.0
146
0.0
 13
0.0
 23
0.0
 33
0.0
 16
1.0
 26
0.0
 36
0.0
 17
0.0
 27
1.0
 37
0.0
 76
     0
330
23
331
94
  0
MATERIAL
  5
E85
102
{ACAD_REACTORS
330
C8D
102
}
330
C8D
100
AcDbMaterial
  1
ByBlock
 72
     1
 94
       63
  0
MATERIAL
  5
E84
102
{ACAD_REACTORS
330
C8D
102
}
330
C8D
100
AcDbMaterial
  1
ByLayer
 72
     1
 94
       63
  0
MATERIAL
  5
E86
102
{ACAD_REACTORS
330
C8D
102
}
330
C8D
100
AcDbMaterial
  1
Global
 72
     1
 94
       63
  0
MLEADERSTYLE
  5
EA7
102
{ACAD_REACTORS
330
E8C
102
}
102
{ACAD_XDICTIONARY
360
1359
102
}
330
E8C
100
AcDbMLeaderStyle
170
     2
171
     1
172
     0
 90
        2
 40
0.0
 41
0.0
173
     1
 91
-1056964608
340
14
 92
       -2
290
     1
 42
2.0
291
     1
 43
8.0
  3
Standard
341
0
 44
4.0
300

342
11
174
     1
178
     6
175
     1
176
     0
 93
-1056964608
 45
4.0
292
     0
297
     0
 46
4.0
343
0
 94
-1056964608
 47
1.0
 49
1.0
140
1.0
293
     1
141
0.0
294
     1
177
     0
142
1.0
295
     0
296
     0
143
3.75
1001
ACAD_MLEADERVER
1070
     2
  0
MLINESTYLE
  5
18
102
{ACAD_REACTORS
330
17
102
}
330
17
100
AcDbMlineStyle
  2
STANDARD
 70
     0
  3

 62
   256
 51
90.0
 52
90.0
 71
     2
 49
0.5
 62
   256
  6
BYLAYER
 49
-0.5
 62
   256
  6
BYLAYER
  0
ACDBPLACEHOLDER
  5
F
102
{ACAD_REACTORS
330
E
102
}
330
E
  0
SCALE
  5
E63
102
{ACAD_REACTORS
330
E62
102
}
330
E62
100
AcDbScale
 70
     0
300
1:1
140
1.0
141
1.0
290
     1
  0
SCALE
  5
E64
102
{ACAD_REACTORS
330
E62
102
}
330
E62
100
AcDbScale
 70
     0
300
1:2
140
1.0
141
2.0
290
     0
  0
SCALE
  5
E65
102
{ACAD_REACTORS
330
E62
102
}
330
E62
100
AcDbScale
 70
     0
300
1:4
140
1.0
141
4.0
290
     0
  0
SCALE
  5
E66
102
{ACAD_REACTORS
330
E62
102
}
330
E62
100
AcDbScale
 70
     0
300
1:5
140
1.0
141
5.0
290
     0
  0
SCALE
  5
E67
102
{ACAD_REACTORS
330
E62
102
}
330
E62
100
AcDbScale
 70
     0
300
1:8
140
1.0
141
8.0
290
     0
  0
SCALE
  5
E68
102
{ACAD_REACTORS
330
E62
102
}
330
E62
100
AcDbScale
 70
     0
300
1:10
140
1.0
141
10.0
290
     0
  0
SCALE
  5
E69
102
{ACAD_REACTORS
330
E62
102
}
330
E62
100
AcDbScale
 70
     0
300
1:16
140
1.0
141
16.0
290
     0
  0
SCALE
  5
E6A
102
{ACAD_REACTORS
330
E62
102
}
330
E62
100
AcDbScale
 70
     0
300
1:20
140
1.0
141
20.0
290
     0
  0
SCALE
  5
E6B
102
{ACAD_REACTORS
330
E62
102
}
330
E62
100
AcDbScale
 70
     0
300
1:30
140
1.0
141
30.0
290
     0
  0
SCALE
  5
E6C
102
{ACAD_REACTORS
330
E62
102
}
330
E62
100
AcDbScale
 70
     0
300
1:40
140
1.0
141
40.0
290
     0
  0
SCALE
  5
E6D
102
{ACAD_REACTORS
330
E62
102
}
330
E62
100
AcDbScale
 70
     0
300
1:50
140
1.0
141
50.0
290
     0
  0
SCALE
  5
E6E
102
{ACAD_REACTORS
330
E62
102
}
330
E62
100
AcDbScale
 70
     0
300
1:100
140
1.0
141
100.0
290
     0
  0
SCALE
  5
E6F
102
{ACAD_REACTORS
330
E62
102
}
330
E62
100
AcDbScale
 70
     0
300
2:1
140
2.0
141
1.0
290
     0
  0
SCALE
  5
E70
102
{ACAD_REACTORS
330
E62
102
}
330
E62
100
AcDbScale
 70
     0
300
4:1
140
4.0
141
1.0
290
     0
  0
SCALE
  5
E71
102
{ACAD_REACTORS
330
E62
102
}
330
E62
100
AcDbScale
 70
     0
300
8:1
140
8.0
141
1.0
290
     0
  0
SCALE
  5
E72
102
{ACAD_REACTORS
330
E62
102
}
330
E62
100
AcDbScale
 70
     0
300
10:1
140
10.0
141
1.0
290
     0
  0
SCALE
  5
E73
102
{ACAD_REACTORS
330
E62
102
}
330
E62
100
AcDbScale
 70
     0
300
100:1
140
100.0
141
1.0
290
     0
  0
SCALE
  5
E74
102
{ACAD_REACTORS
330
E62
102
}
330
E62
100
AcDbScale
 70
     0
300
1/128" = 1'-0"
140
0.0078125
141
12.0
290
     0
  0
SCALE
  5
E75
102
{ACAD_REACTORS
330
E62
102
}
330
E62
100
AcDbScale
 70
     0
300
1/64" = 1'-0"
140
0.015625
141
12.0
290
     0
  0
SCALE
  5
E76
102
{ACAD_REACTORS
330
E62
102
}
330
E62
100
AcDbScale
 70
     0
300
1/32" = 1'-0"
140
0.03125
141
12.0
290
     0
  0
SCALE
  5
E77
102
{ACAD_REACTORS
330
E62
102
}
330
E62
100
AcDbScale
 70
     0
300
1/16" = 1'-0"
140
0.0625
141
12.0
290
     0
  0
SCALE
  5
E78
102
{ACAD_REACTORS
330
E62
102
}
330
E62
100
AcDbScale
 70
     0
300
3/32" = 1'-0"
140
0.09375
141
12.0
290
     0
  0
SCALE
  5
E79
102
{ACAD_REACTORS
330
E62
102
}
330
E62
100
AcDbScale
 70
     0
300
1/8" = 1'-0"
140
0.125
141
12.0
290
     0
  0
SCALE
  5
E7A
102
{ACAD_REACTORS
330
E62
102
}
330
E62
100
AcDbScale
 70
     0
300
3/16" = 1'-0"
140
0.1875
141
12.0
290
     0
  0
SCALE
  5
E7B
102
{ACAD_REACTORS
330
E62
102
}
330
E62
100
AcDbScale
 70
     0
300
1/4" = 1'-0"
140
0.25
141
12.0
290
     0
  0
SCALE
  5
E7C
102
{ACAD_REACTORS
330
E62
102
}
330
E62
100
AcDbScale
 70
     0
300
3/8" = 1'-0"
140
0.375
141
12.0
290
     0
  0
SCALE
  5
E7D
102
{ACAD_REACTORS
330
E62
102
}
330
E62
100
AcDbScale
 70
     0
300
1/2" = 1'-0"
140
0.5
141
12.0
290
     0
  0
SCALE
  5
E7E
102
{ACAD_REACTORS
330
E62
102
}
330
E62
100
AcDbScale
 70
     0
300
3/4" = 1'-0"
140
0.75
141
12.0
290
     0
  0
SCALE
  5
E7F
102
{ACAD_REACTORS
330
E62
102
}
330
E62
100
AcDbScale
 70
     0
300
1" = 1'-0"
140
1.0
141
12.0
290
     0
  0
SCALE
  5
E80
102
{ACAD_REACTORS
330
E62
102
}
330
E62
100
AcDbScale
 70
     0
300
1-1/2" = 1'-0"
140
1.5
141
12.0
290
     0
  0
SCALE
  5
E81
102
{ACAD_REACTORS
330
E62
102
}
330
E62
100
AcDbScale
 70
     0
300
3" = 1'-0"
140
3.0
141
12.0
290
     0
  0
SCALE
  5
E82
102
{ACAD_REACTORS
330
E62
102
}
330
E62
100
AcDbScale
 70
     0
300
6" = 1'-0"
140
6.0
141
12.0
290
     0
  0
SCALE
  5
E83
102
{ACAD_REACTORS
330
E62
102
}
330
E62
100
AcDbScale
 70
     0
300
1'-0" = 1'-0"
140
12.0
141
12.0
290
     0
  0
TABLESTYLE
  5
E88
102
{ACAD_REACTORS
330
E87
102
}
102
{ACAD_XDICTIONARY
360
1356
102
}
330
E87
100
AcDbTableStyle
  3

 70
     0
 71
     0
 40
0.06
 41
0.06
280
     0
281
     0
  7
Standard
140
4.5
170
     2
 62
     0
 63
   257
283
     0
 90
        4
 91
        0
  1

274
    -2
284
     1
 64
     0
275
    -2
285
     1
 65
     0
276
    -2
286
     1
 66
     0
277
    -2
287
     1
 67
     0
278
    -2
288
     1
 68
     0
279
    -2
289
     1
 69
     0
  7
Standard
140
6.0
170
     5
 62
     0
 63
   257
283
     0
 90
        4
 91
        0
  1

274
    -2
284
     1
 64
     0
275
    -2
285
     1
 65
     0
276
    -2
286
     1
 66
     0
277
    -2
287
     1
 67
     0
278
    -2
288
     1
 68
     0
279
    -2
289
     1
 69
     0
  7
Standard
140
4.5
170
     5
 62
     0
 63
   257
283
     0
 90
        4
 91
        0
  1

274
    -2
284
     1
 64
     0
275
    -2
285
     1
 65
     0
276
    -2
286
     1
 66
     0
277
    -2
287
     1
 67
     0
278
    -2
288
     1
 68
     0
279
    -2
289
     1
 69
     0
  0
VISUALSTYLE
  5
E93
102
{ACAD_REACTORS
330
E8E
102
}
102
{ACAD_XDICTIONARY
360
1363
102
}
330
E8E
100
AcDbVisualStyle
  2
2dWireframe
 70
     4
 71
     0
 72
     2
 73
     0
 90
        0
 40
0.6
 41
30.0
 62
     5
 63
     7
421
 16777215
 74
     1
 91
        4
 64
     7
 65
   257
 75
     1
175
     1
 42
1.0
 92
        0
 66
   257
 43
1.0
 76
     1
 77
     6
 78
     2
 67
     7
 79
     5
170
     0
171
     0
290
     0
174
     0
 93
        1
 44
0.0
173
     0
291
     0
 45
0.0
  0
VISUALSTYLE
  5
E96
102
{ACAD_REACTORS
330
E8E
102
}
102
{ACAD_XDICTIONARY
360
1369
102
}
330
E8E
100
AcDbVisualStyle
  2
Basic
 70
     7
 71
     1
 72
     0
 73
     1
 90
        0
 40
0.6
 41
30.0
 62
     5
 63
     7
421
 16777215
 74
     0
 91
        4
 64
     7
 65
   257
 75
     1
175
     1
 42
1.0
 92
        8
 66
     7
 43
1.0
 76
     1
 77
     6
 78
     2
 67
     7
 79
     5
170
     0
171
     0
290
     0
174
     0
 93
        1
 44
0.0
173
     0
291
     1
 45
0.0
  0
VISUALSTYLE
  5
E9A
102
{ACAD_REACTORS
330
E8E
102
}
102
{ACAD_XDICTIONARY
360
1371
102
}
330
E8E
100
AcDbVisualStyle
  2
Brighten
 70
    12
 71
     2
 72
     2
 73
     0
 90
        0
 40
0.6
 41
30.0
 62
     5
 63
     7
421
 16777215
 74
     1
 91
        4
 64
     7
 65
   257
 75
     1
175
     1
 42
1.0
 92
        8
 66
     7
 43
1.0
 76
     1
 77
     6
 78
     2
 67
     7
 79
     5
170
     0
171
     0
290
     0
174
     0
 93
        1
 44
50.0
173
     0
291
     1
 45
0.0
  0
VISUALSTYLE
  5
E9E
102
{ACAD_REACTORS
330
E8E
102
}
102
{ACAD_XDICTIONARY
360
1379
102
}
330
E8E
100
AcDbVisualStyle
  2
ColorChange
 70
    16
 71
     2
 72
     2
 73
     3
 90
        0
 40
0.6
 41
30.0
 62
     5
 63
     8
421
  8421504
 74
     1
 91
        4
 64
     7
 65
   257
 75
     1
175
     1
 42
1.0
 92
        8
 66
     8
424
  8421504
 43
1.0
 76
     1
 77
     6
 78
     2
 67
     7
 79
     5
170
     0
171
     0
290
     0
174
     0
 93
        1
 44
0.0
173
     0
291
     1
 45
0.0
  0
VISUALSTYLE
  5
E98
102
{ACAD_REACTORS
330
E8E
102
}
102
{ACAD_XDICTIONARY
360
136D
102
}
330
E8E
100
AcDbVisualStyle
  2
Conceptual
 70
     9
 71
     3
 72
     2
 73
     0
 90
        0
 40
0.6
 41
30.0
 62
     5
 63
     7
421
 16777215
 74
     2
 91
        2
 64
     7
 65
   257
 75
     1
175
     1
 42
179.0
 92
        8
 66
     7
 43
1.0
 76
     1
 77
     6
 78
     2
 67
     7
 79
     3
170
     0
171
     0
290
     0
174
     0
 93
        1
 44
0.0
173
     0
291
     0
 45
0.0
  0
VISUALSTYLE
  5
E99
102
{ACAD_REACTORS
330
E8E
102
}
102
{ACAD_XDICTIONARY
360
136F
102
}
330
E8E
100
AcDbVisualStyle
  2
Dim
 70
    11
 71
     2
 72
     2
 73
     0
 90
        0
 40
0.6
 41
30.0
 62
     5
 63
     7
421
 16777215
 74
     1
 91
        4
 64
     7
 65
   257
 75
     1
175
     1
 42
1.0
 92
        8
 66
     7
 43
1.0
 76
     1
 77
     6
 78
     2
 67
     7
 79
     5
170
     0
171
     0
290
     0
174
     0
 93
        1
 44
-50.0
173
     0
291
     1
 45
0.0
  0
VISUALSTYLE
  5
EA1
102
{ACAD_REACTORS
330
E8E
102
}
102
{ACAD_XDICTIONARY
360
137F
102
}
330
E8E
100
AcDbVisualStyle
  2
EdgeColorOff
 70
    22
 71
     2
 72
     2
 73
     0
 90
        0
 40
0.6
 41
30.0
 62
     5
 63
     7
421
 16777215
 74
     1
 91
        4
 64
     7
 65
   257
 75
     1
175
     1
 42
1.0
 92
        8
 66
     7
 43
1.0
 76
     1
 77
     6
 78
     2
 67
     7
 79
     5
170
     0
171
     0
290
     0
174
     0
 93
        1
 44
0.0
173
     0
291
     1
 45
0.0
  0
VISUALSTYLE
  5
E9D
102
{ACAD_REACTORS
330
E8E
102
}
102
{ACAD_XDICTIONARY
360
1377
102
}
330
E8E
100
AcDbVisualStyle
  2
Facepattern
 70
    15
 71
     2
 72
     2
 73
     0
 90
        0
 40
0.6
 41
30.0
 62
     5
 63
     7
421
 16777215
 74
     1
 91
        4
 64
     7
 65
   257
 75
     1
175
     1
 42
1.0
 92
        8
 66
     7
 43
1.0
 76
     1
 77
     6
 78
     2
 67
     7
 79
     5
170
     0
171
     0
290
     0
174
     0
 93
        1
 44
0.0
173
     0
291
     1
 45
0.0
  0
VISUALSTYLE
  5
E8F
102
{ACAD_REACTORS
330
E8E
102
}
102
{ACAD_XDICTIONARY
360
135B
102
}
330
E8E
100
AcDbVisualStyle
  2
Flat
 70
     0
 71
     2
 72
     1
 73
     1
 90
        2
 40
0.6
 41
30.0
 62
     5
 63
     7
421
 16777215
 74
     0
 91
        0
 64
     7
 65
   257
 75
     1
175
     1
 42
1.0
 92
        8
 66
     7
 43
1.0
 76
     1
 77
     6
 78
     2
 67
     7
 79
     5
170
     0
171
     0
290
     0
174
     0
 93
       13
 44
0.0
173
     0
291
     1
 45
0.0
  0
VISUALSTYLE
  5
E90
102
{ACAD_REACTORS
330
E8E
102
}
102
{ACAD_XDICTIONARY
360
135D
102
}
330
E8E
100
AcDbVisualStyle
  2
FlatWithEdges
 70
     1
 71
     2
 72
     1
 73
     1
 90
        2
 40
0.6
 41
30.0
 62
     5
 63
     7
421
 16777215
 74
     1
 91
        0
 64
     7
 65
   257
 75
     1
175
     1
 42
1.0
 92
        0
 66
   257
 43
1.0
 76
     1
 77
     6
 78
     2
 67
     7
 79
     5
170
     0
171
     0
290
     0
174
     0
 93
       13
 44
0.0
173
     0
291
     1
 45
0.0
  0
VISUALSTYLE
  5
E91
102
{ACAD_REACTORS
330
E8E
102
}
102
{ACAD_XDICTIONARY
360
135F
102
}
330
E8E
100
AcDbVisualStyle
  2
Gouraud
 70
     2
 71
     2
 72
     2
 73
     1
 90
        2
 40
0.6
 41
30.0
 62
     5
 63
     7
421
 16777215
 74
     0
 91
        0
 64
     7
 65
   257
 75
     1
175
     1
 42
1.0
 92
        0
 66
     7
 43
1.0
 76
     1
 77
     6
 78
     2
 67
     7
 79
     5
170
     0
171
     0
290
     0
174
     0
 93
       13
 44
0.0
173
     0
291
     1
 45
0.0
  0
VISUALSTYLE
  5
E92
102
{ACAD_REACTORS
330
E8E
102
}
102
{ACAD_XDICTIONARY
360
1361
102
}
330
E8E
100
AcDbVisualStyle
  2
GouraudWithEdges
 70
     3
 71
     2
 72
     2
 73
     1
 90
        2
 40
0.6
 41
30.0
 62
     5
 63
     7
421
 16777215
 74
     1
 91
        0
 64
     7
 65
   257
 75
     1
175
     1
 42
1.0
 92
        0
 66
   257
 43
1.0
 76
     1
 77
     6
 78
     2
 67
     7
 79
     5
170
     0
171
     0
290
     0
174
     0
 93
       13
 44
0.0
173
     0
291
     1
 45
0.0
  0
VISUALSTYLE
  5
E95
102
{ACAD_REACTORS
330
E8E
102
}
102
{ACAD_XDICTIONARY
360
1367
102
}
330
E8E
100
AcDbVisualStyle
  2
Hidden
 70
     6
 71
     1
 72
     2
 73
     2
 90
        0
 40
0.6
 41
30.0
 62
     5
 63
     7
421
 16777215
 74
     2
 91
        2
 64
     7
 65
   257
 75
     2
175
     1
 42
40.0
 92
        0
 66
   257
 43
1.0
 76
     1
 77
     6
 78
     2
 67
     7
 79
     3
170
     0
171
     0
290
     0
174
     0
 93
        1
 44
0.0
173
     0
291
     0
 45
0.0
  0
VISUALSTYLE
  5
E9F
102
{ACAD_REACTORS
330
E8E
102
}
102
{ACAD_XDICTIONARY
360
137B
102
}
330
E8E
100
AcDbVisualStyle
  2
JitterOff
 70
    20
 71
     2
 72
     2
 73
     0
 90
        0
 40
0.6
 41
30.0
 62
     5
 63
     7
421
 16777215
 74
     1
 91
        4
 64
     7
 65
   257
 75
     1
175
     1
 42
1.0
 92
       10
 66
     7
 43
1.0
 76
     1
 77
     6
 78
     2
 67
     7
 79
     5
170
     0
171
     0
290
     0
174
     0
 93
        1
 44
0.0
173
     0
291
     1
 45
0.0
  0
VISUALSTYLE
  5
E9C
102
{ACAD_REACTORS
330
E8E
102
}
102
{ACAD_XDICTIONARY
360
1375
102
}
330
E8E
100
AcDbVisualStyle
  2
Linepattern
 70
    14
 71
     2
 72
     2
 73
     0
 90
        0
 40
0.6
 41
30.0
 62
     5
 63
     7
421
 16777215
 74
     1
 91
        4
 64
     7
 65
   257
 75
     7
175
     7
 42
1.0
 92
        8
 66
     7
 43
1.0
 76
     1
 77
     6
 78
     2
 67
     7
 79
     5
170
     0
171
     0
290
     0
174
     0
 93
        1
 44
0.0
173
     0
291
     1
 45
0.0
  0
VISUALSTYLE
  5
EA8
102
{ACAD_REACTORS
330
E8E
102
}
102
{ACAD_XDICTIONARY
360
138B
102
}
330
E8E
100
AcDbVisualStyle
  2
Modeling
 70
    10
 71
     2
 72
     3
 73
     0
 90
        2
 40
0.6
 41
30.0
 62
     5
 63
     7
421
 16777215
 74
     2
 91
        0
 64
     7
 65
   257
 75
     1
175
     1
 42
180.0
 92
        8
 66
     8
424
  7895160
 43
1.0
 76
     1
 77
     6
 78
     2
 67
     7
 79
     5
170
     0
171
     0
290
     0
174
     0
 93
       13
 44
0.0
173
     0
291
     0
 45
0.0
  0
VISUALSTYLE
  5
EA0
102
{ACAD_REACTORS
330
E8E
102
}
102
{ACAD_XDICTIONARY
360
137D
102
}
330
E8E
100
AcDbVisualStyle
  2
OverhangOff
 70
    21
 71
     2
 72
     2
 73
     0
 90
        0
 40
0.6
 41
30.0
 62
     5
 63
     7
421
 16777215
 74
     1
 91
        4
 64
     7
 65
   257
 75
     1
175
     1
 42
1.0
 92
        9
 66
     7
 43
1.0
 76
     1
 77
     6
 78
     2
 67
     7
 79
     5
170
     0
171
     0
290
     0
174
     0
 93
        1
 44
0.0
173
     0
291
     1
 45
0.0
  0
VISUALSTYLE
  5
E97
102
{ACAD_REACTORS
330
E8E
102
}
102
{ACAD_XDICTIONARY
360
136B
102
}
330
E8E
100
AcDbVisualStyle
  2
Realistic
 70
     8
 71
     2
 72
     3
 73
     0
 90
        2
 40
0.6
 41
30.0
 62
     5
 63
     7
421
 16777215
 74
     0
 91
        0
 64
     7
 65
   257
 75
     1
175
     1
 42
1.0
 92
        8
 66
   257
 43
1.0
 76
     1
 77
     6
 78
     2
 67
     7
 79
     3
170
     0
171
     0
290
     0
174
     0
 93
       13
 44
0.0
173
     0
291
     0
 45
0.0
  0
VISUALSTYLE
  5
EA6
102
{ACAD_REACTORS
330
E8E
102
}
102
{ACAD_XDICTIONARY
360
1389
102
}
330
E8E
100
AcDbVisualStyle
  2
Shaded
 70
    27
 71
     2
 72
     2
 73
     1
 90
        2
 40
0.6
 41
30.0
 62
     5
 63
     7
421
 16777215
 74
     0
 91
        4
 64
     7
 65
   257
 75
     1
175
     1
 42
1.0
 92
        8
 66
   257
 43
1.0
 76
     1
 77
     6
 78
     2
 67
     8
425
  7895160
 79
     3
170
     0
171
     0
290
     0
174
     0
 93
        5
 44
0.0
173
     0
291
     0
 45
0.0
  0
VISUALSTYLE
  5
EA5
102
{ACAD_REACTORS
330
E8E
102
}
102
{ACAD_XDICTIONARY
360
1387
102
}
330
E8E
100
AcDbVisualStyle
  2
Shaded with edges
 70
    26
 71
     2
 72
     2
 73
     1
 90
        2
 40
0.6
 41
30.0
 62
     5
 63
     7
421
 16777215
 74
     1
 91
       10
 64
     7
 65
   257
 75
     2
175
     1
 42
1.0
 92
        8
 66
   257
 43
1.0
 76
     1
 77
     6
 78
     2
 67
     7
 79
     3
170
     0
171
     0
290
     0
174
     0
 93
        5
 44
0.0
173
     0
291
     0
 45
0.0
  0
VISUALSTYLE
  5
EA2
102
{ACAD_REACTORS
330
E8E
102
}
102
{ACAD_XDICTIONARY
360
1381
102
}
330
E8E
100
AcDbVisualStyle
  2
Shades of Gray
 70
    23
 71
     2
 72
     2
 73
     3
 90
        0
 40
0.6
 41
30.0
 62
     5
 63
     7
421
 16777215
 74
     2
 91
        2
 64
     7
 65
     7
 75
     1
175
     1
 42
40.0
 92
        8
 66
     7
 43
1.0
 76
     1
 77
     6
 78
     2
 67
     7
 79
     3
170
     0
171
     0
290
     0
174
     0
 93
        1
 44
0.0
173
     0
291
     0
 45
0.0
  0
VISUALSTYLE
  5
EA3
102
{ACAD_REACTORS
330
E8E
102
}
102
{ACAD_XDICTIONARY
360
1383
102
}
330
E8E
100
AcDbVisualStyle
  2
Sketchy
 70
    24
 71
     1
 72
     2
 73
     2
 90
        0
 40
0.6
 41
30.0
 62
     5
 63
     7
421
 16777215
 74
     2
 91
        2
 64
     7
 65
     7
 75
     1
175
     1
 42
40.0
 92
       11
 66
     7
 43
1.0
 76
     1
 77
     6
 78
     2
 67
     7
 79
     6
170
     0
171
     0
290
     0
174
     0
 93
        1
 44
0.0
173
     0
291
     0
 45
0.0
  0
VISUALSTYLE
  5
E9B
102
{ACAD_REACTORS
330
E8E
102
}
102
{ACAD_XDICTIONARY
360
1373
102
}
330
E8E
100
AcDbVisualStyle
  2
Thicken
 70
    13
 71
     2
 72
     2
 73
     0
 90
        0
 40
0.6
 41
30.0
 62
     5
 63
     7
421
 16777215
 74
     1
 91
        4
 64
     7
 65
   257
 75
     1
175
     1
 42
1.0
 92
       12
 66
     7
 43
1.0
 76
     1
 77
     6
 78
     2
 67
     7
 79
     5
170
     0
171
     0
290
     0
174
     0
 93
        1
 44
0.0
173
     0
291
     1
 45
0.0
  0
VISUALSTYLE
  5
E94
102
{ACAD_REACTORS
330
E8E
102
}
102
{ACAD_XDICTIONARY
360
1365
102
}
330
E8E
100
AcDbVisualStyle
  2
Wireframe
 70
     5
 71
     0
 72
     2
 73
     0
 90
        0
 40
0.6
 41
30.0
 62
     5
 63
     7
421
 16777215
 74
     1
 91
        4
 64
     7
 65
   257
 75
     1
175
     1
 42
1.0
 92
        0
 66
   257
 43
1.0
 76
     1
 77
     6
 78
     2
 67
     7
 79
     3
170
     0
171
     0
290
     0
174
     0
 93
        1
 44
0.0
173
     0
291
     0
 45
0.0
  0
VISUALSTYLE
  5
EA4
102
{ACAD_REACTORS
330
E8E
102
}
102
{ACAD_XDICTIONARY
360
1385
102
}
330
E8E
100
AcDbVisualStyle
  2
X-Ray
 70
    25
 71
     2
 72
     2
 73
     1
 90
        1
 40
0.5
 41
30.0
 62
     5
 63
     7
421
 16777215
 74
     1
 91
        0
 64
     7
 65
   257
 75
     1
175
     1
 42
1.0
 92
        8
 66
     7
 43
1.0
 76
     1
 77
     6
 78
     2
 67
     7
 79
     3
170
     0
171
     0
290
     0
174
     0
 93
       13
 44
0.0
173
     0
291
     0
 45
0.0
  0
DICTIONARYVAR
  5
E8B
102
{ACAD_REACTORS
330
4A4
102
}
330
4A4
100
DictionaryVariables
280
     0
  1
1:1
  0
DICTIONARYVAR
  5
1352
102
{ACAD_REACTORS
330
4A4
102
}
330
4A4
100
DictionaryVariables
280
     0
  1
Standard
  0
DICTIONARYVAR
  5
1351
102
{ACAD_REACTORS
330
4A4
102
}
330
4A4
100
DictionaryVariables
280
     0
  1
Standard
  0
DICTIONARYVAR
  5
4A5
102
{ACAD_REACTORS
330
4A4
102
}
330
4A4
100
DictionaryVariables
280
     0
  1
1
  0
DICTIONARYVAR
  5
D6B
102
{ACAD_REACTORS
330
4A4
102
}
330
4A4
100
DictionaryVariables
280
     0
  1

  0
DICTIONARYVAR
  5
1353
102
{ACAD_REACTORS
330
4A4
102
}
330
4A4
100
DictionaryVariables
280
     0
  1
0
  0
DICTIONARY
  5
1359
330
EA7
100
AcDbDictionary
280
     1
281
     1
  3
ACAD_XREC_ROUNDTRIP
360
135A
  0
DICTIONARY
  5
1356
330
E88
100
AcDbDictionary
280
     1
281
     1
  3
ACAD_ROUNDTRIP_2008_TABLESTYLE_CELLSTYLEMAP
360
1357
  0
DICTIONARY
  5
1363
330
E93
100
AcDbDictionary
280
     1
281
     1
  3
ACAD_XREC_ROUNDTRIP
360
1364
  0
DICTIONARY
  5
1369
330
E96
100
AcDbDictionary
280
     1
281
     1
  3
ACAD_XREC_ROUNDTRIP
360
136A
  0
DICTIONARY
  5
1371
330
E9A
100
AcDbDictionary
280
     1
281
     1
  3
ACAD_XREC_ROUNDTRIP
360
1372
  0
DICTIONARY
  5
1379
330
E9E
100
AcDbDictionary
280
     1
281
     1
  3
ACAD_XREC_ROUNDTRIP
360
137A
  0
DICTIONARY
  5
136D
330
E98
100
AcDbDictionary
280
     1
281
     1
  3
ACAD_XREC_ROUNDTRIP
360
136E
  0
DICTIONARY
  5
136F
330
E99
100
AcDbDictionary
280
     1
281
     1
  3
ACAD_XREC_ROUNDTRIP
360
1370
  0
DICTIONARY
  5
137F
330
EA1
100
AcDbDictionary
280
     1
281
     1
  3
ACAD_XREC_ROUNDTRIP
360
1380
  0
DICTIONARY
  5
1377
330
E9D
100
AcDbDictionary
280
     1
281
     1
  3
ACAD_XREC_ROUNDTRIP
360
1378
  0
DICTIONARY
  5
135B
330
E8F
100
AcDbDictionary
280
     1
281
     1
  3
ACAD_XREC_ROUNDTRIP
360
135C
  0
DICTIONARY
  5
135D
330
E90
100
AcDbDictionary
280
     1
281
     1
  3
ACAD_XREC_ROUNDTRIP
360
135E
  0
DICTIONARY
  5
135F
330
E91
100
AcDbDictionary
280
     1
281
     1
  3
ACAD_XREC_ROUNDTRIP
360
1360
  0
DICTIONARY
  5
1361
330
E92
100
AcDbDictionary
280
     1
281
     1
  3
ACAD_XREC_ROUNDTRIP
360
1362
  0
DICTIONARY
  5
1367
330
E95
100
AcDbDictionary
280
     1
281
     1
  3
ACAD_XREC_ROUNDTRIP
360
1368
  0
DICTIONARY
  5
137B
330
E9F
100
AcDbDictionary
280
     1
281
     1
  3
ACAD_XREC_ROUNDTRIP
360
137C
  0
DICTIONARY
  5
1375
330
E9C
100
AcDbDictionary
280
     1
281
     1
  3
ACAD_XREC_ROUNDTRIP
360
1376
  0
DICTIONARY
  5
138B
330
EA8
100
AcDbDictionary
280
     1
281
     1
  3
ACAD_XREC_ROUNDTRIP
360
138C
  0
DICTIONARY
  5
137D
330
EA0
100
AcDbDictionary
280
     1
281
     1
  3
ACAD_XREC_ROUNDTRIP
360
137E
  0
DICTIONARY
  5
136B
330
E97
100
AcDbDictionary
280
     1
281
     1
  3
ACAD_XREC_ROUNDTRIP
360
136C
  0
DICTIONARY
  5
1389
330
EA6
100
AcDbDictionary
280
     1
281
     1
  3
ACAD_XREC_ROUNDTRIP
360
138A
  0
DICTIONARY
  5
1387
330
EA5
100
AcDbDictionary
280
     1
281
     1
  3
ACAD_XREC_ROUNDTRIP
360
1388
  0
DICTIONARY
  5
1381
330
EA2
100
AcDbDictionary
280
     1
281
     1
  3
ACAD_XREC_ROUNDTRIP
360
1382
  0
DICTIONARY
  5
1383
330
EA3
100
AcDbDictionary
280
     1
281
     1
  3
ACAD_XREC_ROUNDTRIP
360
1384
  0
DICTIONARY
  5
1373
330
E9B
100
AcDbDictionary
280
     1
281
     1
  3
ACAD_XREC_ROUNDTRIP
360
1374
  0
DICTIONARY
  5
1365
330
E94
100
AcDbDictionary
280
     1
281
     1
  3
ACAD_XREC_ROUNDTRIP
360
1366
  0
DICTIONARY
  5
1385
330
EA4
100
AcDbDictionary
280
     1
281
     1
  3
ACAD_XREC_ROUNDTRIP
360
1386
  0
XRECORD
  5
135A
102
{ACAD_REACTORS
330
1359
102
}
330
1359
100
AcDbXrecord
280
     1
102
ACAD_ROUNDTRIP_2010_MLEADER_STYLE
  0
CELLSTYLEMAP
  5
1357
102
{ACAD_REACTORS
330
1356
102
}
330
1356
100
AcDbCellStyleMap
 90
        3
300
CELLSTYLE
  1
TABLEFORMAT_BEGIN
 90
        5
170
     1
 91
        0
 92
        0
 62
   257
 93
        1
300
CONTENTFORMAT
  1
CONTENTFORMAT_BEGIN
 90
        0
 91
        0
 92
        4
 93
        0
300

 40
0.0
140
1.0
 94
        5
 62
     0
340
11
144
6.0
309
CONTENTFORMAT_END
171
     0
 94
        6
 95
        1
302
GRIDFORMAT
  1
GRIDFORMAT_BEGIN
 90
        0
 91
        1
 62
     0
 92
       -2
340
14
 93
        0
 40
0.045
309
GRIDFORMAT_END
 95
        2
302
GRIDFORMAT
  1
GRIDFORMAT_BEGIN
 90
        0
 91
        1
 62
     0
 92
       -2
340
14
 93
        0
 40
0.045
309
GRIDFORMAT_END
 95
        4
302
GRIDFORMAT
  1
GRIDFORMAT_BEGIN
 90
        0
 91
        1
 62
     0
 92
       -2
340
14
 93
        0
 40
0.045
309
GRIDFORMAT_END
 95
        8
302
GRIDFORMAT
  1
GRIDFORMAT_BEGIN
 90
        0
 91
        1
 62
     0
 92
       -2
340
14
 93
        0
 40
0.045
309
GRIDFORMAT_END
 95
       16
302
GRIDFORMAT
  1
GRIDFORMAT_BEGIN
 90
        0
 91
        1
 62
     0
 92
       -2
340
14
 93
        0
 40
0.045
309
GRIDFORMAT_END
 95
       32
302
GRIDFORMAT
  1
GRIDFORMAT_BEGIN
 90
        0
 91
        1
 62
     0
 92
       -2
340
14
 93
        0
 40
0.045
309
GRIDFORMAT_END
309
TABLEFORMAT_END
  1
CELLSTYLE_BEGIN
 90
        1
 91
        1
300
_TITLE
309
CELLSTYLE_END
300
CELLSTYLE
  1
TABLEFORMAT_BEGIN
 90
        5
170
     1
 91
        0
 92
        0
 62
   257
 93
        1
300
CONTENTFORMAT
  1
CONTENTFORMAT_BEGIN
 90
        0
 91
        0
 92
        4
 93
        0
300

 40
0.0
140
1.0
 94
        5
 62
     0
340
11
144
4.5
309
CONTENTFORMAT_END
171
     0
 94
        6
 95
        1
302
GRIDFORMAT
  1
GRIDFORMAT_BEGIN
 90
        0
 91
        1
 62
     0
 92
       -2
340
14
 93
        0
 40
0.045
309
GRIDFORMAT_END
 95
        2
302
GRIDFORMAT
  1
GRIDFORMAT_BEGIN
 90
        0
 91
        1
 62
     0
 92
       -2
340
14
 93
        0
 40
0.045
309
GRIDFORMAT_END
 95
        4
302
GRIDFORMAT
  1
GRIDFORMAT_BEGIN
 90
        0
 91
        1
 62
     0
 92
       -2
340
14
 93
        0
 40
0.045
309
GRIDFORMAT_END
 95
        8
302
GRIDFORMAT
  1
GRIDFORMAT_BEGIN
 90
        0
 91
        1
 62
     0
 92
       -2
340
14
 93
        0
 40
0.045
309
GRIDFORMAT_END
 95
       16
302
GRIDFORMAT
  1
GRIDFORMAT_BEGIN
 90
        0
 91
        1
 62
     0
 92
       -2
340
14
 93
        0
 40
0.045
309
GRIDFORMAT_END
 95
       32
302
GRIDFORMAT
  1
GRIDFORMAT_BEGIN
 90
        0
 91
        1
 62
     0
 92
       -2
340
14
 93
        0
 40
0.045
309
GRIDFORMAT_END
309
TABLEFORMAT_END
  1
CELLSTYLE_BEGIN
 90
        2
 91
        1
300
_HEADER
309
CELLSTYLE_END
300
CELLSTYLE
  1
TABLEFORMAT_BEGIN
 90
        5
170
     1
 91
        0
 92
        0
 62
   257
 93
        1
300
CONTENTFORMAT
  1
CONTENTFORMAT_BEGIN
 90
        0
 91
        0
 92
        4
 93
        0
300

 40
0.0
140
1.0
 94
        2
 62
     0
340
11
144
4.5
309
CONTENTFORMAT_END
171
     0
 94
        6
 95
        1
302
GRIDFORMAT
  1
GRIDFORMAT_BEGIN
 90
        0
 91
        1
 62
     0
 92
       -2
340
14
 93
        0
 40
0.045
309
GRIDFORMAT_END
 95
        2
302
GRIDFORMAT
  1
GRIDFORMAT_BEGIN
 90
        0
 91
        1
 62
     0
 92
       -2
340
14
 93
        0
 40
0.045
309
GRIDFORMAT_END
 95
        4
302
GRIDFORMAT
  1
GRIDFORMAT_BEGIN
 90
        0
 91
        1
 62
     0
 92
       -2
340
14
 93
        0
 40
0.045
309
GRIDFORMAT_END
 95
        8
302
GRIDFORMAT
  1
GRIDFORMAT_BEGIN
 90
        0
 91
        1
 62
     0
 92
       -2
340
14
 93
        0
 40
0.045
309
GRIDFORMAT_END
 95
       16
302
GRIDFORMAT
  1
GRIDFORMAT_BEGIN
 90
        0
 91
        1
 62
     0
 92
       -2
340
14
 93
        0
 40
0.045
309
GRIDFORMAT_END
 95
       32
302
GRIDFORMAT
  1
GRIDFORMAT_BEGIN
 90
        0
 91
        1
 62
     0
 92
       -2
340
14
 93
        0
 40
0.045
309
GRIDFORMAT_END
309
TABLEFORMAT_END
  1
CELLSTYLE_BEGIN
 90
        3
 91
        2
300
_DATA
309
CELLSTYLE_END
  0
XRECORD
  5
1364
102
{ACAD_REACTORS
330
1363
102
}
330
1363
100
AcDbXrecord
280
     1
102
RTVSPropertyOp0
 70
     1
102
RTVSPropertyOp1
 70
     1
102
RTVSPropertyOp2
 70
     1
102
RTVSPropertyOp3
 70
     1
102
RTVSPropertyOp4
 70
     1
102
RTVSPropertyOp5
 70
     1
102
RTVSPropertyOp6
 70
     1
102
RTVSPropertyOp7
 70
     1
102
RTVSPropertyOp8
 70
     1
102
RTVSPropertyOp9
 70
     1
102
RTVSPropertyOp10
 70
     1
102
RTVSPropertyOp11
 70
     1
102
RTVSPropertyOp12
 70
     1
102
RTVSPropertyOp13
 70
     1
102
RTVSPropertyOp14
 70
     1
102
RTVSPropertyOp15
 70
     1
102
RTVSPropertyOp16
 70
     1
102
RTVSPropertyOp17
 70
     1
102
RTVSPropertyOp18
 70
     1
102
RTVSPropertyOp19
 70
     1
102
RTVSPropertyOp20
 70
     1
102
RTVSPropertyOp21
 70
     1
102
RTVSPropertyOp22
 70
     1
102
RTVSPropertyOp23
 70
     1
102
RTVSPropertyOp24
 70
     1
102
RTVSPropertyOp25
 70
     1
102
RTVSPropertyOp26
 70
     1
102
RTVSPropertyOp27
 70
     1
102
RTVSPropertyOp28
 70
     1
102
RTVSPropertyOp29
 70
     1
102
RTVSPropertyOp30
 70
     1
102
RTVSPropertyOp31
 70
     1
102
RTVSPropertyOp32
 70
     1
102
RTVSPropertyOp33
 70
     1
102
RTVSPropertyOp34
 70
     1
102
RTVSPropertyOp35
 70
     1
102
RTVSPropertyOp36
 70
     1
102
RTVSPropertyOp37
 70
     1
102
RTVSPropertyOp38
 70
     1
102
RTVSPropertyOp39
 70
     1
102
RTVSPropertyOp40
 70
     1
102
RTVSPropertyOp41
 70
     1
102
RTVSPropertyOp42
 70
     1
102
RTVSPropertyOp43
 70
     1
102
RTVSPropertyOp44
 70
     1
102
RTVSPropertyOp45
 70
     1
102
RTVSPropertyOp46
 70
     1
102
RTVSPropertyOp47
 70
     1
102
RTVSPropertyOp48
 70
     1
102
RTVSPropertyOp49
 70
     1
102
RTVSPropertyOp50
 70
     1
102
RTVSPropertyOp51
 70
     0
102
RTVSPropertyOp52
 70
     0
102
RTVSPropertyOp53
 70
     1
102
RTVSPropertyOp54
 70
     1
102
RTVSPropertyOp55
 70
     1
102
RTVSPropertyOp56
 70
     1
102
RTVSPropertyOp57
 70
     1
102
RTVSPost2010Prop28
280
     1
102
RTVSPost2010PropOp28
 70
     1
102
RTVSPost2010Prop29
280
     1
102
RTVSPost2010PropOp29
 70
     1
102
RTVSPost2010Prop30
280
     0
102
RTVSPost2010PropOp30
 70
     1
102
RTVSPost2010Prop31
280
     0
102
RTVSPost2010PropOp31
 70
     1
102
RTVSPost2010Prop32
280
     0
102
RTVSPost2010PropOp32
 70
     1
102
RTVSPost2010Prop33
280
     0
102
RTVSPost2010PropOp33
 70
     1
102
RTVSPost2010Prop34
280
     0
102
RTVSPost2010PropOp34
 70
     1
102
RTVSPost2010Prop35
280
     0
102
RTVSPost2010PropOp35
 70
     1
102
RTVSPost2010Prop36
280
     0
102
RTVSPost2010PropOp36
 70
     1
102
RTVSPost2010Prop37
 90
       50
102
RTVSPost2010PropOp37
 70
     1
102
RTVSPost2010Prop38
140
0.0
102
RTVSPost2010PropOp38
 70
     1
102
RTVSPost2010Prop39
140
1.0
102
RTVSPost2010PropOp39
 70
     1
102
RTVSPost2010Prop40
 90
        0
102
RTVSPost2010PropOp40
 70
     1
102
RTVSPost2010Prop41ColorIndex
 90
       18
102
RTVSPost2010Prop41ColorRGB
 90
        0
102
RTVSPost2010PropOp41
 70
     1
102
RTVSPost2010Prop42
 90
       50
102
RTVSPost2010PropOp42
 70
     1
102
RTVSPost2010Prop43
 90
        3
102
RTVSPost2010PropOp43
 70
     1
102
RTVSPost2010Prop44ColorIndex
 90
        5
102
RTVSPost2010Prop44ColorRGB
 90
      255
102
RTVSPost2010PropOp44
 70
     1
102
RTVSPost2010Prop45
280
     0
102
RTVSPost2010PropOp45
 70
     1
102
RTVSPost2010Prop46
 90
       50
102
RTVSPost2010PropOp46
 70
     1
102
RTVSPost2010Prop47
 90
       50
102
RTVSPost2010PropOp47
 70
     1
102
RTVSPost2010Prop48
 90
       50
102
RTVSPost2010PropOp48
 70
     1
102
RTVSPost2010Prop49
280
     0
102
RTVSPost2010PropOp49
 70
     1
102
RTVSPost2010Prop50
 90
       50
102
RTVSPost2010PropOp50
 70
     1
102
RTVSPost2010Prop51ColorIndex
 90
      256
102
RTVSPost2010Prop51ColorRGB
 90
-16777216
102
RTVSPost2010PropOp51
 70
     0
102
RTVSPost2010Prop52
140
1.0
102
RTVSPost2010PropOp52
 70
     0
102
RTVSPost2010Prop53
 90
        2
102
RTVSPost2010PropOp53
 70
     1
102
RTVSPost2010Prop54
  1
strokes_ogs.tif
102
RTVSPost2010PropOp54
 70
     1
102
RTVSPost2010Prop55
280
     0
102
RTVSPost2010PropOp55
 70
     1
102
RTVSPost2010Prop56
140
1.0
102
RTVSPost2010PropOp56
 70
     1
102
RTVSPost2010Prop57
140
1.0
102
RTVSPost2010PropOp57
 70
     1
  0
XRECORD
  5
136A
102
{ACAD_REACTORS
330
1369
102
}
330
1369
100
AcDbXrecord
280
     1
102
RTVSPropertyOp0
 70
     1
102
RTVSPropertyOp1
 70
     1
102
RTVSPropertyOp2
 70
     1
102
RTVSPropertyOp3
 70
     1
102
RTVSPropertyOp4
 70
     1
102
RTVSPropertyOp5
 70
     1
102
RTVSPropertyOp6
 70
     1
102
RTVSPropertyOp7
 70
     1
102
RTVSPropertyOp8
 70
     1
102
RTVSPropertyOp9
 70
     1
102
RTVSPropertyOp10
 70
     1
102
RTVSPropertyOp11
 70
     1
102
RTVSPropertyOp12
 70
     1
102
RTVSPropertyOp13
 70
     1
102
RTVSPropertyOp14
 70
     1
102
RTVSPropertyOp15
 70
     1
102
RTVSPropertyOp16
 70
     1
102
RTVSPropertyOp17
 70
     1
102
RTVSPropertyOp18
 70
     1
102
RTVSPropertyOp19
 70
     1
102
RTVSPropertyOp20
 70
     1
102
RTVSPropertyOp21
 70
     1
102
RTVSPropertyOp22
 70
     1
102
RTVSPropertyOp23
 70
     1
102
RTVSPropertyOp24
 70
     1
102
RTVSPropertyOp25
 70
     1
102
RTVSPropertyOp26
 70
     1
102
RTVSPropertyOp27
 70
     1
102
RTVSPropertyOp28
 70
     1
102
RTVSPropertyOp29
 70
     1
102
RTVSPropertyOp30
 70
     1
102
RTVSPropertyOp31
 70
     1
102
RTVSPropertyOp32
 70
     1
102
RTVSPropertyOp33
 70
     1
102
RTVSPropertyOp34
 70
     1
102
RTVSPropertyOp35
 70
     1
102
RTVSPropertyOp36
 70
     1
102
RTVSPropertyOp37
 70
     1
102
RTVSPropertyOp38
 70
     1
102
RTVSPropertyOp39
 70
     1
102
RTVSPropertyOp40
 70
     1
102
RTVSPropertyOp41
 70
     1
102
RTVSPropertyOp42
 70
     1
102
RTVSPropertyOp43
 70
     1
102
RTVSPropertyOp44
 70
     1
102
RTVSPropertyOp45
 70
     1
102
RTVSPropertyOp46
 70
     1
102
RTVSPropertyOp47
 70
     1
102
RTVSPropertyOp48
 70
     1
102
RTVSPropertyOp49
 70
     1
102
RTVSPropertyOp50
 70
     1
102
RTVSPropertyOp51
 70
     0
102
RTVSPropertyOp52
 70
     0
102
RTVSPropertyOp53
 70
     1
102
RTVSPropertyOp54
 70
     1
102
RTVSPropertyOp55
 70
     1
102
RTVSPropertyOp56
 70
     1
102
RTVSPropertyOp57
 70
     1
102
RTVSPost2010Prop28
280
     0
102
RTVSPost2010PropOp28
 70
     1
102
RTVSPost2010Prop29
280
     1
102
RTVSPost2010PropOp29
 70
     1
102
RTVSPost2010Prop30
280
     1
102
RTVSPost2010PropOp30
 70
     1
102
RTVSPost2010Prop31
280
     0
102
RTVSPost2010PropOp31
 70
     1
102
RTVSPost2010Prop32
280
     0
102
RTVSPost2010PropOp32
 70
     1
102
RTVSPost2010Prop33
280
     0
102
RTVSPost2010PropOp33
 70
     1
102
RTVSPost2010Prop34
280
     0
102
RTVSPost2010PropOp34
 70
     1
102
RTVSPost2010Prop35
280
     0
102
RTVSPost2010PropOp35
 70
     1
102
RTVSPost2010Prop36
280
     0
102
RTVSPost2010PropOp36
 70
     1
102
RTVSPost2010Prop37
 90
       50
102
RTVSPost2010PropOp37
 70
     1
102
RTVSPost2010Prop38
140
0.0
102
RTVSPost2010PropOp38
 70
     1
102
RTVSPost2010Prop39
140
1.0
102
RTVSPost2010PropOp39
 70
     1
102
RTVSPost2010Prop40
 90
        0
102
RTVSPost2010PropOp40
 70
     1
102
RTVSPost2010Prop41ColorIndex
 90
       18
102
RTVSPost2010Prop41ColorRGB
 90
        0
102
RTVSPost2010PropOp41
 70
     1
102
RTVSPost2010Prop42
 90
       50
102
RTVSPost2010PropOp42
 70
     1
102
RTVSPost2010Prop43
 90
        3
102
RTVSPost2010PropOp43
 70
     1
102
RTVSPost2010Prop44ColorIndex
 90
        5
102
RTVSPost2010Prop44ColorRGB
 90
      255
102
RTVSPost2010PropOp44
 70
     1
102
RTVSPost2010Prop45
280
     0
102
RTVSPost2010PropOp45
 70
     1
102
RTVSPost2010Prop46
 90
       50
102
RTVSPost2010PropOp46
 70
     1
102
RTVSPost2010Prop47
 90
       50
102
RTVSPost2010PropOp47
 70
     1
102
RTVSPost2010Prop48
 90
       50
102
RTVSPost2010PropOp48
 70
     1
102
RTVSPost2010Prop49
280
     0
102
RTVSPost2010PropOp49
 70
     1
102
RTVSPost2010Prop50
 90
       50
102
RTVSPost2010PropOp50
 70
     1
102
RTVSPost2010Prop51ColorIndex
 90
      256
102
RTVSPost2010Prop51ColorRGB
 90
-16777216
102
RTVSPost2010PropOp51
 70
     0
102
RTVSPost2010Prop52
140
1.0
102
RTVSPost2010PropOp52
 70
     0
102
RTVSPost2010Prop53
 90
        2
102
RTVSPost2010PropOp53
 70
     1
102
RTVSPost2010Prop54
  1
strokes_ogs.tif
102
RTVSPost2010PropOp54
 70
     1
102
RTVSPost2010Prop55
280
     0
102
RTVSPost2010PropOp55
 70
     1
102
RTVSPost2010Prop56
140
1.0
102
RTVSPost2010PropOp56
 70
     1
102
RTVSPost2010Prop57
140
1.0
102
RTVSPost2010PropOp57
 70
     1
  0
XRECORD
  5
1372
102
{ACAD_REACTORS
330
1371
102
}
330
1371
100
AcDbXrecord
280
     1
102
RTVSPropertyOp0
 70
     1
102
RTVSPropertyOp1
 70
     1
102
RTVSPropertyOp2
 70
     1
102
RTVSPropertyOp3
 70
     1
102
RTVSPropertyOp4
 70
     1
102
RTVSPropertyOp5
 70
     1
102
RTVSPropertyOp6
 70
     1
102
RTVSPropertyOp7
 70
     1
102
RTVSPropertyOp8
 70
     1
102
RTVSPropertyOp9
 70
     1
102
RTVSPropertyOp10
 70
     1
102
RTVSPropertyOp11
 70
     1
102
RTVSPropertyOp12
 70
     1
102
RTVSPropertyOp13
 70
     1
102
RTVSPropertyOp14
 70
     1
102
RTVSPropertyOp15
 70
     1
102
RTVSPropertyOp16
 70
     1
102
RTVSPropertyOp17
 70
     1
102
RTVSPropertyOp18
 70
     1
102
RTVSPropertyOp19
 70
     1
102
RTVSPropertyOp20
 70
     1
102
RTVSPropertyOp21
 70
     1
102
RTVSPropertyOp22
 70
     1
102
RTVSPropertyOp23
 70
     1
102
RTVSPropertyOp24
 70
     1
102
RTVSPropertyOp25
 70
     1
102
RTVSPropertyOp26
 70
     1
102
RTVSPropertyOp27
 70
     1
102
RTVSPropertyOp28
 70
     1
102
RTVSPropertyOp29
 70
     1
102
RTVSPropertyOp30
 70
     1
102
RTVSPropertyOp31
 70
     1
102
RTVSPropertyOp32
 70
     1
102
RTVSPropertyOp33
 70
     1
102
RTVSPropertyOp34
 70
     1
102
RTVSPropertyOp35
 70
     1
102
RTVSPropertyOp36
 70
     1
102
RTVSPropertyOp37
 70
     1
102
RTVSPropertyOp38
 70
     1
102
RTVSPropertyOp39
 70
     1
102
RTVSPropertyOp40
 70
     1
102
RTVSPropertyOp41
 70
     1
102
RTVSPropertyOp42
 70
     1
102
RTVSPropertyOp43
 70
     1
102
RTVSPropertyOp44
 70
     1
102
RTVSPropertyOp45
 70
     1
102
RTVSPropertyOp46
 70
     1
102
RTVSPropertyOp47
 70
     1
102
RTVSPropertyOp48
 70
     1
102
RTVSPropertyOp49
 70
     1
102
RTVSPropertyOp50
 70
     1
102
RTVSPropertyOp51
 70
     0
102
RTVSPropertyOp52
 70
     0
102
RTVSPropertyOp53
 70
     1
102
RTVSPropertyOp54
 70
     1
102
RTVSPropertyOp55
 70
     1
102
RTVSPropertyOp56
 70
     1
102
RTVSPropertyOp57
 70
     1
102
RTVSPost2010Prop28
280
     0
102
RTVSPost2010PropOp28
 70
     1
102
RTVSPost2010Prop29
280
     1
102
RTVSPost2010PropOp29
 70
     1
102
RTVSPost2010Prop30
280
     1
102
RTVSPost2010PropOp30
 70
     1
102
RTVSPost2010Prop31
280
     0
102
RTVSPost2010PropOp31
 70
     1
102
RTVSPost2010Prop32
280
     0
102
RTVSPost2010PropOp32
 70
     1
102
RTVSPost2010Prop33
280
     0
102
RTVSPost2010PropOp33
 70
     1
102
RTVSPost2010Prop34
280
     0
102
RTVSPost2010PropOp34
 70
     1
102
RTVSPost2010Prop35
280
     0
102
RTVSPost2010PropOp35
 70
     1
102
RTVSPost2010Prop36
280
     0
102
RTVSPost2010PropOp36
 70
     1
102
RTVSPost2010Prop37
 90
       50
102
RTVSPost2010PropOp37
 70
     1
102
RTVSPost2010Prop38
140
0.0
102
RTVSPost2010PropOp38
 70
     1
102
RTVSPost2010Prop39
140
1.0
102
RTVSPost2010PropOp39
 70
     1
102
RTVSPost2010Prop40
 90
        0
102
RTVSPost2010PropOp40
 70
     1
102
RTVSPost2010Prop41ColorIndex
 90
       18
102
RTVSPost2010Prop41ColorRGB
 90
        0
102
RTVSPost2010PropOp41
 70
     1
102
RTVSPost2010Prop42
 90
       50
102
RTVSPost2010PropOp42
 70
     1
102
RTVSPost2010Prop43
 90
        3
102
RTVSPost2010PropOp43
 70
     1
102
RTVSPost2010Prop44ColorIndex
 90
        5
102
RTVSPost2010Prop44ColorRGB
 90
      255
102
RTVSPost2010PropOp44
 70
     1
102
RTVSPost2010Prop45
280
     0
102
RTVSPost2010PropOp45
 70
     1
102
RTVSPost2010Prop46
 90
       50
102
RTVSPost2010PropOp46
 70
     1
102
RTVSPost2010Prop47
 90
       50
102
RTVSPost2010PropOp47
 70
     1
102
RTVSPost2010Prop48
 90
       50
102
RTVSPost2010PropOp48
 70
     1
102
RTVSPost2010Prop49
280
     0
102
RTVSPost2010PropOp49
 70
     1
102
RTVSPost2010Prop50
 90
       50
102
RTVSPost2010PropOp50
 70
     1
102
RTVSPost2010Prop51ColorIndex
 90
      256
102
RTVSPost2010Prop51ColorRGB
 90
-16777216
102
RTVSPost2010PropOp51
 70
     0
102
RTVSPost2010Prop52
140
1.0
102
RTVSPost2010PropOp52
 70
     0
102
RTVSPost2010Prop53
 90
        2
102
RTVSPost2010PropOp53
 70
     1
102
RTVSPost2010Prop54
  1
strokes_ogs.tif
102
RTVSPost2010PropOp54
 70
     1
102
RTVSPost2010Prop55
280
     0
102
RTVSPost2010PropOp55
 70
     1
102
RTVSPost2010Prop56
140
1.0
102
RTVSPost2010PropOp56
 70
     1
102
RTVSPost2010Prop57
140
1.0
102
RTVSPost2010PropOp57
 70
     1
  0
XRECORD
  5
137A
102
{ACAD_REACTORS
330
1379
102
}
330
1379
100
AcDbXrecord
280
     1
102
RTVSPropertyOp0
 70
     1
102
RTVSPropertyOp1
 70
     1
102
RTVSPropertyOp2
 70
     1
102
RTVSPropertyOp3
 70
     1
102
RTVSPropertyOp4
 70
     1
102
RTVSPropertyOp5
 70
     1
102
RTVSPropertyOp6
 70
     1
102
RTVSPropertyOp7
 70
     1
102
RTVSPropertyOp8
 70
     1
102
RTVSPropertyOp9
 70
     1
102
RTVSPropertyOp10
 70
     1
102
RTVSPropertyOp11
 70
     1
102
RTVSPropertyOp12
 70
     1
102
RTVSPropertyOp13
 70
     1
102
RTVSPropertyOp14
 70
     1
102
RTVSPropertyOp15
 70
     1
102
RTVSPropertyOp16
 70
     1
102
RTVSPropertyOp17
 70
     1
102
RTVSPropertyOp18
 70
     1
102
RTVSPropertyOp19
 70
     1
102
RTVSPropertyOp20
 70
     1
102
RTVSPropertyOp21
 70
     1
102
RTVSPropertyOp22
 70
     1
102
RTVSPropertyOp23
 70
     1
102
RTVSPropertyOp24
 70
     1
102
RTVSPropertyOp25
 70
     1
102
RTVSPropertyOp26
 70
     1
102
RTVSPropertyOp27
 70
     1
102
RTVSPropertyOp28
 70
     1
102
RTVSPropertyOp29
 70
     1
102
RTVSPropertyOp30
 70
     1
102
RTVSPropertyOp31
 70
     1
102
RTVSPropertyOp32
 70
     1
102
RTVSPropertyOp33
 70
     1
102
RTVSPropertyOp34
 70
     1
102
RTVSPropertyOp35
 70
     1
102
RTVSPropertyOp36
 70
     1
102
RTVSPropertyOp37
 70
     1
102
RTVSPropertyOp38
 70
     1
102
RTVSPropertyOp39
 70
     1
102
RTVSPropertyOp40
 70
     1
102
RTVSPropertyOp41
 70
     1
102
RTVSPropertyOp42
 70
     1
102
RTVSPropertyOp43
 70
     1
102
RTVSPropertyOp44
 70
     1
102
RTVSPropertyOp45
 70
     1
102
RTVSPropertyOp46
 70
     1
102
RTVSPropertyOp47
 70
     1
102
RTVSPropertyOp48
 70
     1
102
RTVSPropertyOp49
 70
     1
102
RTVSPropertyOp50
 70
     1
102
RTVSPropertyOp51
 70
     0
102
RTVSPropertyOp52
 70
     0
102
RTVSPropertyOp53
 70
     1
102
RTVSPropertyOp54
 70
     1
102
RTVSPropertyOp55
 70
     1
102
RTVSPropertyOp56
 70
     1
102
RTVSPropertyOp57
 70
     1
102
RTVSPost2010Prop28
280
     0
102
RTVSPost2010PropOp28
 70
     1
102
RTVSPost2010Prop29
280
     1
102
RTVSPost2010PropOp29
 70
     1
102
RTVSPost2010Prop30
280
     1
102
RTVSPost2010PropOp30
 70
     1
102
RTVSPost2010Prop31
280
     0
102
RTVSPost2010PropOp31
 70
     1
102
RTVSPost2010Prop32
280
     0
102
RTVSPost2010PropOp32
 70
     1
102
RTVSPost2010Prop33
280
     0
102
RTVSPost2010PropOp33
 70
     1
102
RTVSPost2010Prop34
280
     0
102
RTVSPost2010PropOp34
 70
     1
102
RTVSPost2010Prop35
280
     0
102
RTVSPost2010PropOp35
 70
     1
102
RTVSPost2010Prop36
280
     0
102
RTVSPost2010PropOp36
 70
     1
102
RTVSPost2010Prop37
 90
       50
102
RTVSPost2010PropOp37
 70
     1
102
RTVSPost2010Prop38
140
0.0
102
RTVSPost2010PropOp38
 70
     1
102
RTVSPost2010Prop39
140
1.0
102
RTVSPost2010PropOp39
 70
     1
102
RTVSPost2010Prop40
 90
        0
102
RTVSPost2010PropOp40
 70
     1
102
RTVSPost2010Prop41ColorIndex
 90
       18
102
RTVSPost2010Prop41ColorRGB
 90
        0
102
RTVSPost2010PropOp41
 70
     1
102
RTVSPost2010Prop42
 90
       50
102
RTVSPost2010PropOp42
 70
     1
102
RTVSPost2010Prop43
 90
        3
102
RTVSPost2010PropOp43
 70
     1
102
RTVSPost2010Prop44ColorIndex
 90
        5
102
RTVSPost2010Prop44ColorRGB
 90
      255
102
RTVSPost2010PropOp44
 70
     1
102
RTVSPost2010Prop45
280
     0
102
RTVSPost2010PropOp45
 70
     1
102
RTVSPost2010Prop46
 90
       50
102
RTVSPost2010PropOp46
 70
     1
102
RTVSPost2010Prop47
 90
       50
102
RTVSPost2010PropOp47
 70
     1
102
RTVSPost2010Prop48
 90
       50
102
RTVSPost2010PropOp48
 70
     1
102
RTVSPost2010Prop49
280
     0
102
RTVSPost2010PropOp49
 70
     1
102
RTVSPost2010Prop50
 90
       50
102
RTVSPost2010PropOp50
 70
     1
102
RTVSPost2010Prop51ColorIndex
 90
      256
102
RTVSPost2010Prop51ColorRGB
 90
-16777216
102
RTVSPost2010PropOp51
 70
     0
102
RTVSPost2010Prop52
140
1.0
102
RTVSPost2010PropOp52
 70
     0
102
RTVSPost2010Prop53
 90
        2
102
RTVSPost2010PropOp53
 70
     1
102
RTVSPost2010Prop54
  1
strokes_ogs.tif
102
RTVSPost2010PropOp54
 70
     1
102
RTVSPost2010Prop55
280
     0
102
RTVSPost2010PropOp55
 70
     1
102
RTVSPost2010Prop56
140
1.0
102
RTVSPost2010PropOp56
 70
     1
102
RTVSPost2010Prop57
140
1.0
102
RTVSPost2010PropOp57
 70
     1
  0
XRECORD
  5
136E
102
{ACAD_REACTORS
330
136D
102
}
330
136D
100
AcDbXrecord
280
     1
102
RTVSPropertyOp0
 70
     1
102
RTVSPropertyOp1
 70
     1
102
RTVSPropertyOp2
 70
     1
102
RTVSPropertyOp3
 70
     1
102
RTVSPropertyOp4
 70
     1
102
RTVSPropertyOp5
 70
     1
102
RTVSPropertyOp6
 70
     1
102
RTVSPropertyOp7
 70
     1
102
RTVSPropertyOp8
 70
     1
102
RTVSPropertyOp9
 70
     1
102
RTVSPropertyOp10
 70
     1
102
RTVSPropertyOp11
 70
     1
102
RTVSPropertyOp12
 70
     1
102
RTVSPropertyOp13
 70
     1
102
RTVSPropertyOp14
 70
     1
102
RTVSPropertyOp15
 70
     1
102
RTVSPropertyOp16
 70
     1
102
RTVSPropertyOp17
 70
     1
102
RTVSPropertyOp18
 70
     1
102
RTVSPropertyOp19
 70
     1
102
RTVSPropertyOp20
 70
     1
102
RTVSPropertyOp21
 70
     1
102
RTVSPropertyOp22
 70
     1
102
RTVSPropertyOp23
 70
     1
102
RTVSPropertyOp24
 70
     1
102
RTVSPropertyOp25
 70
     1
102
RTVSPropertyOp26
 70
     1
102
RTVSPropertyOp27
 70
     1
102
RTVSPropertyOp28
 70
     1
102
RTVSPropertyOp29
 70
     1
102
RTVSPropertyOp30
 70
     1
102
RTVSPropertyOp31
 70
     1
102
RTVSPropertyOp32
 70
     1
102
RTVSPropertyOp33
 70
     1
102
RTVSPropertyOp34
 70
     1
102
RTVSPropertyOp35
 70
     1
102
RTVSPropertyOp36
 70
     1
102
RTVSPropertyOp37
 70
     1
102
RTVSPropertyOp38
 70
     1
102
RTVSPropertyOp39
 70
     1
102
RTVSPropertyOp40
 70
     1
102
RTVSPropertyOp41
 70
     1
102
RTVSPropertyOp42
 70
     1
102
RTVSPropertyOp43
 70
     1
102
RTVSPropertyOp44
 70
     1
102
RTVSPropertyOp45
 70
     1
102
RTVSPropertyOp46
 70
     1
102
RTVSPropertyOp47
 70
     1
102
RTVSPropertyOp48
 70
     1
102
RTVSPropertyOp49
 70
     1
102
RTVSPropertyOp50
 70
     1
102
RTVSPropertyOp51
 70
     0
102
RTVSPropertyOp52
 70
     0
102
RTVSPropertyOp53
 70
     1
102
RTVSPropertyOp54
 70
     1
102
RTVSPropertyOp55
 70
     1
102
RTVSPropertyOp56
 70
     1
102
RTVSPropertyOp57
 70
     1
102
RTVSPost2010Prop28
280
     0
102
RTVSPost2010PropOp28
 70
     1
102
RTVSPost2010Prop29
280
     1
102
RTVSPost2010PropOp29
 70
     1
102
RTVSPost2010Prop30
280
     1
102
RTVSPost2010PropOp30
 70
     1
102
RTVSPost2010Prop31
280
     0
102
RTVSPost2010PropOp31
 70
     1
102
RTVSPost2010Prop32
280
     0
102
RTVSPost2010PropOp32
 70
     1
102
RTVSPost2010Prop33
280
     0
102
RTVSPost2010PropOp33
 70
     1
102
RTVSPost2010Prop34
280
     0
102
RTVSPost2010PropOp34
 70
     1
102
RTVSPost2010Prop35
280
     0
102
RTVSPost2010PropOp35
 70
     1
102
RTVSPost2010Prop36
280
     0
102
RTVSPost2010PropOp36
 70
     1
102
RTVSPost2010Prop37
 90
       50
102
RTVSPost2010PropOp37
 70
     1
102
RTVSPost2010Prop38
140
0.0
102
RTVSPost2010PropOp38
 70
     1
102
RTVSPost2010Prop39
140
1.0
102
RTVSPost2010PropOp39
 70
     1
102
RTVSPost2010Prop40
 90
        0
102
RTVSPost2010PropOp40
 70
     1
102
RTVSPost2010Prop41ColorIndex
 90
       18
102
RTVSPost2010Prop41ColorRGB
 90
        0
102
RTVSPost2010PropOp41
 70
     1
102
RTVSPost2010Prop42
 90
       50
102
RTVSPost2010PropOp42
 70
     1
102
RTVSPost2010Prop43
 90
        3
102
RTVSPost2010PropOp43
 70
     1
102
RTVSPost2010Prop44ColorIndex
 90
        5
102
RTVSPost2010Prop44ColorRGB
 90
      255
102
RTVSPost2010PropOp44
 70
     1
102
RTVSPost2010Prop45
280
     0
102
RTVSPost2010PropOp45
 70
     1
102
RTVSPost2010Prop46
 90
       50
102
RTVSPost2010PropOp46
 70
     1
102
RTVSPost2010Prop47
 90
       50
102
RTVSPost2010PropOp47
 70
     1
102
RTVSPost2010Prop48
 90
       50
102
RTVSPost2010PropOp48
 70
     1
102
RTVSPost2010Prop49
280
     0
102
RTVSPost2010PropOp49
 70
     1
102
RTVSPost2010Prop50
 90
       50
102
RTVSPost2010PropOp50
 70
     1
102
RTVSPost2010Prop51ColorIndex
 90
      256
102
RTVSPost2010Prop51ColorRGB
 90
-16777216
102
RTVSPost2010PropOp51
 70
     0
102
RTVSPost2010Prop52
140
1.0
102
RTVSPost2010PropOp52
 70
     0
102
RTVSPost2010Prop53
 90
        2
102
RTVSPost2010PropOp53
 70
     1
102
RTVSPost2010Prop54
  1
strokes_ogs.tif
102
RTVSPost2010PropOp54
 70
     1
102
RTVSPost2010Prop55
280
     0
102
RTVSPost2010PropOp55
 70
     1
102
RTVSPost2010Prop56
140
1.0
102
RTVSPost2010PropOp56
 70
     1
102
RTVSPost2010Prop57
140
1.0
102
RTVSPost2010PropOp57
 70
     1
  0
XRECORD
  5
1370
102
{ACAD_REACTORS
330
136F
102
}
330
136F
100
AcDbXrecord
280
     1
102
RTVSPropertyOp0
 70
     1
102
RTVSPropertyOp1
 70
     1
102
RTVSPropertyOp2
 70
     1
102
RTVSPropertyOp3
 70
     1
102
RTVSPropertyOp4
 70
     1
102
RTVSPropertyOp5
 70
     1
102
RTVSPropertyOp6
 70
     1
102
RTVSPropertyOp7
 70
     1
102
RTVSPropertyOp8
 70
     1
102
RTVSPropertyOp9
 70
     1
102
RTVSPropertyOp10
 70
     1
102
RTVSPropertyOp11
 70
     1
102
RTVSPropertyOp12
 70
     1
102
RTVSPropertyOp13
 70
     1
102
RTVSPropertyOp14
 70
     1
102
RTVSPropertyOp15
 70
     1
102
RTVSPropertyOp16
 70
     1
102
RTVSPropertyOp17
 70
     1
102
RTVSPropertyOp18
 70
     1
102
RTVSPropertyOp19
 70
     1
102
RTVSPropertyOp20
 70
     1
102
RTVSPropertyOp21
 70
     1
102
RTVSPropertyOp22
 70
     1
102
RTVSPropertyOp23
 70
     1
102
RTVSPropertyOp24
 70
     1
102
RTVSPropertyOp25
 70
     1
102
RTVSPropertyOp26
 70
     1
102
RTVSPropertyOp27
 70
     1
102
RTVSPropertyOp28
 70
     1
102
RTVSPropertyOp29
 70
     1
102
RTVSPropertyOp30
 70
     1
102
RTVSPropertyOp31
 70
     1
102
RTVSPropertyOp32
 70
     1
102
RTVSPropertyOp33
 70
     1
102
RTVSPropertyOp34
 70
     1
102
RTVSPropertyOp35
 70
     1
102
RTVSPropertyOp36
 70
     1
102
RTVSPropertyOp37
 70
     1
102
RTVSPropertyOp38
 70
     1
102
RTVSPropertyOp39
 70
     1
102
RTVSPropertyOp40
 70
     1
102
RTVSPropertyOp41
 70
     1
102
RTVSPropertyOp42
 70
     1
102
RTVSPropertyOp43
 70
     1
102
RTVSPropertyOp44
 70
     1
102
RTVSPropertyOp45
 70
     1
102
RTVSPropertyOp46
 70
     1
102
RTVSPropertyOp47
 70
     1
102
RTVSPropertyOp48
 70
     1
102
RTVSPropertyOp49
 70
     1
102
RTVSPropertyOp50
 70
     1
102
RTVSPropertyOp51
 70
     0
102
RTVSPropertyOp52
 70
     0
102
RTVSPropertyOp53
 70
     1
102
RTVSPropertyOp54
 70
     1
102
RTVSPropertyOp55
 70
     1
102
RTVSPropertyOp56
 70
     1
102
RTVSPropertyOp57
 70
     1
102
RTVSPost2010Prop28
280
     0
102
RTVSPost2010PropOp28
 70
     1
102
RTVSPost2010Prop29
280
     1
102
RTVSPost2010PropOp29
 70
     1
102
RTVSPost2010Prop30
280
     1
102
RTVSPost2010PropOp30
 70
     1
102
RTVSPost2010Prop31
280
     0
102
RTVSPost2010PropOp31
 70
     1
102
RTVSPost2010Prop32
280
     0
102
RTVSPost2010PropOp32
 70
     1
102
RTVSPost2010Prop33
280
     0
102
RTVSPost2010PropOp33
 70
     1
102
RTVSPost2010Prop34
280
     0
102
RTVSPost2010PropOp34
 70
     1
102
RTVSPost2010Prop35
280
     0
102
RTVSPost2010PropOp35
 70
     1
102
RTVSPost2010Prop36
280
     0
102
RTVSPost2010PropOp36
 70
     1
102
RTVSPost2010Prop37
 90
       50
102
RTVSPost2010PropOp37
 70
     1
102
RTVSPost2010Prop38
140
0.0
102
RTVSPost2010PropOp38
 70
     1
102
RTVSPost2010Prop39
140
1.0
102
RTVSPost2010PropOp39
 70
     1
102
RTVSPost2010Prop40
 90
        0
102
RTVSPost2010PropOp40
 70
     1
102
RTVSPost2010Prop41ColorIndex
 90
       18
102
RTVSPost2010Prop41ColorRGB
 90
        0
102
RTVSPost2010PropOp41
 70
     1
102
RTVSPost2010Prop42
 90
       50
102
RTVSPost2010PropOp42
 70
     1
102
RTVSPost2010Prop43
 90
        3
102
RTVSPost2010PropOp43
 70
     1
102
RTVSPost2010Prop44ColorIndex
 90
        5
102
RTVSPost2010Prop44ColorRGB
 90
      255
102
RTVSPost2010PropOp44
 70
     1
102
RTVSPost2010Prop45
280
     0
102
RTVSPost2010PropOp45
 70
     1
102
RTVSPost2010Prop46
 90
       50
102
RTVSPost2010PropOp46
 70
     1
102
RTVSPost2010Prop47
 90
       50
102
RTVSPost2010PropOp47
 70
     1
102
RTVSPost2010Prop48
 90
       50
102
RTVSPost2010PropOp48
 70
     1
102
RTVSPost2010Prop49
280
     0
102
RTVSPost2010PropOp49
 70
     1
102
RTVSPost2010Prop50
 90
       50
102
RTVSPost2010PropOp50
 70
     1
102
RTVSPost2010Prop51ColorIndex
 90
      256
102
RTVSPost2010Prop51ColorRGB
 90
-16777216
102
RTVSPost2010PropOp51
 70
     0
102
RTVSPost2010Prop52
140
1.0
102
RTVSPost2010PropOp52
 70
     0
102
RTVSPost2010Prop53
 90
        2
102
RTVSPost2010PropOp53
 70
     1
102
RTVSPost2010Prop54
  1
strokes_ogs.tif
102
RTVSPost2010PropOp54
 70
     1
102
RTVSPost2010Prop55
280
     0
102
RTVSPost2010PropOp55
 70
     1
102
RTVSPost2010Prop56
140
1.0
102
RTVSPost2010PropOp56
 70
     1
102
RTVSPost2010Prop57
140
1.0
102
RTVSPost2010PropOp57
 70
     1
  0
XRECORD
  5
1380
102
{ACAD_REACTORS
330
137F
102
}
330
137F
100
AcDbXrecord
280
     1
102
RTVSPropertyOp0
 70
     0
102
RTVSPropertyOp1
 70
     0
102
RTVSPropertyOp2
 70
     0
102
RTVSPropertyOp3
 70
     0
102
RTVSPropertyOp4
 70
     0
102
RTVSPropertyOp5
 70
     0
102
RTVSPropertyOp6
 70
     0
102
RTVSPropertyOp7
 70
     0
102
RTVSPropertyOp8
 70
     0
102
RTVSPropertyOp9
 70
     0
102
RTVSPropertyOp10
 70
     0
102
RTVSPropertyOp11
 70
     0
102
RTVSPropertyOp12
 70
     0
102
RTVSPropertyOp13
 70
     0
102
RTVSPropertyOp14
 70
     2
102
RTVSPropertyOp15
 70
     0
102
RTVSPropertyOp16
 70
     0
102
RTVSPropertyOp17
 70
     0
102
RTVSPropertyOp18
 70
     0
102
RTVSPropertyOp19
 70
     0
102
RTVSPropertyOp20
 70
     0
102
RTVSPropertyOp21
 70
     0
102
RTVSPropertyOp22
 70
     0
102
RTVSPropertyOp23
 70
     0
102
RTVSPropertyOp24
 70
     0
102
RTVSPropertyOp25
 70
     0
102
RTVSPropertyOp26
 70
     0
102
RTVSPropertyOp27
 70
     0
102
RTVSPropertyOp28
 70
     0
102
RTVSPropertyOp29
 70
     0
102
RTVSPropertyOp30
 70
     0
102
RTVSPropertyOp31
 70
     0
102
RTVSPropertyOp32
 70
     0
102
RTVSPropertyOp33
 70
     0
102
RTVSPropertyOp34
 70
     0
102
RTVSPropertyOp35
 70
     0
102
RTVSPropertyOp36
 70
     0
102
RTVSPropertyOp37
 70
     0
102
RTVSPropertyOp38
 70
     0
102
RTVSPropertyOp39
 70
     0
102
RTVSPropertyOp40
 70
     0
102
RTVSPropertyOp41
 70
     0
102
RTVSPropertyOp42
 70
     0
102
RTVSPropertyOp43
 70
     0
102
RTVSPropertyOp44
 70
     0
102
RTVSPropertyOp45
 70
     0
102
RTVSPropertyOp46
 70
     0
102
RTVSPropertyOp47
 70
     0
102
RTVSPropertyOp48
 70
     0
102
RTVSPropertyOp49
 70
     0
102
RTVSPropertyOp50
 70
     0
102
RTVSPropertyOp51
 70
     0
102
RTVSPropertyOp52
 70
     0
102
RTVSPropertyOp53
 70
     0
102
RTVSPropertyOp54
 70
     0
102
RTVSPropertyOp55
 70
     0
102
RTVSPropertyOp56
 70
     0
102
RTVSPropertyOp57
 70
     0
102
RTVSPost2010Prop28
280
     0
102
RTVSPost2010PropOp28
 70
     0
102
RTVSPost2010Prop29
280
     1
102
RTVSPost2010PropOp29
 70
     0
102
RTVSPost2010Prop30
280
     1
102
RTVSPost2010PropOp30
 70
     0
102
RTVSPost2010Prop31
280
     0
102
RTVSPost2010PropOp31
 70
     0
102
RTVSPost2010Prop32
280
     0
102
RTVSPost2010PropOp32
 70
     0
102
RTVSPost2010Prop33
280
     0
102
RTVSPost2010PropOp33
 70
     0
102
RTVSPost2010Prop34
280
     0
102
RTVSPost2010PropOp34
 70
     0
102
RTVSPost2010Prop35
280
     0
102
RTVSPost2010PropOp35
 70
     0
102
RTVSPost2010Prop36
280
     0
102
RTVSPost2010PropOp36
 70
     0
102
RTVSPost2010Prop37
 90
       50
102
RTVSPost2010PropOp37
 70
     0
102
RTVSPost2010Prop38
140
0.0
102
RTVSPost2010PropOp38
 70
     0
102
RTVSPost2010Prop39
140
1.0
102
RTVSPost2010PropOp39
 70
     0
102
RTVSPost2010Prop40
 90
        0
102
RTVSPost2010PropOp40
 70
     0
102
RTVSPost2010Prop41ColorIndex
 90
       18
102
RTVSPost2010Prop41ColorRGB
 90
        0
102
RTVSPost2010PropOp41
 70
     0
102
RTVSPost2010Prop42
 90
       50
102
RTVSPost2010PropOp42
 70
     0
102
RTVSPost2010Prop43
 90
        3
102
RTVSPost2010PropOp43
 70
     0
102
RTVSPost2010Prop44ColorIndex
 90
        5
102
RTVSPost2010Prop44ColorRGB
 90
      255
102
RTVSPost2010PropOp44
 70
     0
102
RTVSPost2010Prop45
280
     0
102
RTVSPost2010PropOp45
 70
     0
102
RTVSPost2010Prop46
 90
       50
102
RTVSPost2010PropOp46
 70
     0
102
RTVSPost2010Prop47
 90
       50
102
RTVSPost2010PropOp47
 70
     0
102
RTVSPost2010Prop48
 90
       50
102
RTVSPost2010PropOp48
 70
     0
102
RTVSPost2010Prop49
280
     0
102
RTVSPost2010PropOp49
 70
     0
102
RTVSPost2010Prop50
 90
       50
102
RTVSPost2010PropOp50
 70
     0
102
RTVSPost2010Prop51ColorIndex
 90
      256
102
RTVSPost2010Prop51ColorRGB
 90
-16777216
102
RTVSPost2010PropOp51
 70
     0
102
RTVSPost2010Prop52
140
1.0
102
RTVSPost2010PropOp52
 70
     0
102
RTVSPost2010Prop53
 90
        2
102
RTVSPost2010PropOp53
 70
     0
102
RTVSPost2010Prop54
  1
strokes_ogs.tif
102
RTVSPost2010PropOp54
 70
     0
102
RTVSPost2010Prop55
280
     0
102
RTVSPost2010PropOp55
 70
     0
102
RTVSPost2010Prop56
140
1.0
102
RTVSPost2010PropOp56
 70
     0
102
RTVSPost2010Prop57
140
1.0
102
RTVSPost2010PropOp57
 70
     0
  0
XRECORD
  5
1378
102
{ACAD_REACTORS
330
1377
102
}
330
1377
100
AcDbXrecord
280
     1
102
RTVSPropertyOp0
 70
     1
102
RTVSPropertyOp1
 70
     1
102
RTVSPropertyOp2
 70
     1
102
RTVSPropertyOp3
 70
     1
102
RTVSPropertyOp4
 70
     1
102
RTVSPropertyOp5
 70
     1
102
RTVSPropertyOp6
 70
     1
102
RTVSPropertyOp7
 70
     1
102
RTVSPropertyOp8
 70
     1
102
RTVSPropertyOp9
 70
     1
102
RTVSPropertyOp10
 70
     1
102
RTVSPropertyOp11
 70
     1
102
RTVSPropertyOp12
 70
     1
102
RTVSPropertyOp13
 70
     1
102
RTVSPropertyOp14
 70
     1
102
RTVSPropertyOp15
 70
     1
102
RTVSPropertyOp16
 70
     1
102
RTVSPropertyOp17
 70
     1
102
RTVSPropertyOp18
 70
     1
102
RTVSPropertyOp19
 70
     1
102
RTVSPropertyOp20
 70
     1
102
RTVSPropertyOp21
 70
     1
102
RTVSPropertyOp22
 70
     1
102
RTVSPropertyOp23
 70
     1
102
RTVSPropertyOp24
 70
     1
102
RTVSPropertyOp25
 70
     1
102
RTVSPropertyOp26
 70
     1
102
RTVSPropertyOp27
 70
     1
102
RTVSPropertyOp28
 70
     1
102
RTVSPropertyOp29
 70
     1
102
RTVSPropertyOp30
 70
     1
102
RTVSPropertyOp31
 70
     1
102
RTVSPropertyOp32
 70
     1
102
RTVSPropertyOp33
 70
     1
102
RTVSPropertyOp34
 70
     1
102
RTVSPropertyOp35
 70
     1
102
RTVSPropertyOp36
 70
     1
102
RTVSPropertyOp37
 70
     1
102
RTVSPropertyOp38
 70
     1
102
RTVSPropertyOp39
 70
     1
102
RTVSPropertyOp40
 70
     1
102
RTVSPropertyOp41
 70
     1
102
RTVSPropertyOp42
 70
     1
102
RTVSPropertyOp43
 70
     1
102
RTVSPropertyOp44
 70
     1
102
RTVSPropertyOp45
 70
     1
102
RTVSPropertyOp46
 70
     1
102
RTVSPropertyOp47
 70
     1
102
RTVSPropertyOp48
 70
     1
102
RTVSPropertyOp49
 70
     1
102
RTVSPropertyOp50
 70
     1
102
RTVSPropertyOp51
 70
     0
102
RTVSPropertyOp52
 70
     0
102
RTVSPropertyOp53
 70
     1
102
RTVSPropertyOp54
 70
     1
102
RTVSPropertyOp55
 70
     1
102
RTVSPropertyOp56
 70
     1
102
RTVSPropertyOp57
 70
     1
102
RTVSPost2010Prop28
280
     0
102
RTVSPost2010PropOp28
 70
     1
102
RTVSPost2010Prop29
280
     1
102
RTVSPost2010PropOp29
 70
     1
102
RTVSPost2010Prop30
280
     1
102
RTVSPost2010PropOp30
 70
     1
102
RTVSPost2010Prop31
280
     0
102
RTVSPost2010PropOp31
 70
     1
102
RTVSPost2010Prop32
280
     0
102
RTVSPost2010PropOp32
 70
     1
102
RTVSPost2010Prop33
280
     0
102
RTVSPost2010PropOp33
 70
     1
102
RTVSPost2010Prop34
280
     0
102
RTVSPost2010PropOp34
 70
     1
102
RTVSPost2010Prop35
280
     0
102
RTVSPost2010PropOp35
 70
     1
102
RTVSPost2010Prop36
280
     0
102
RTVSPost2010PropOp36
 70
     1
102
RTVSPost2010Prop37
 90
       50
102
RTVSPost2010PropOp37
 70
     1
102
RTVSPost2010Prop38
140
0.0
102
RTVSPost2010PropOp38
 70
     1
102
RTVSPost2010Prop39
140
1.0
102
RTVSPost2010PropOp39
 70
     1
102
RTVSPost2010Prop40
 90
        0
102
RTVSPost2010PropOp40
 70
     1
102
RTVSPost2010Prop41ColorIndex
 90
       18
102
RTVSPost2010Prop41ColorRGB
 90
        0
102
RTVSPost2010PropOp41
 70
     1
102
RTVSPost2010Prop42
 90
       50
102
RTVSPost2010PropOp42
 70
     1
102
RTVSPost2010Prop43
 90
        3
102
RTVSPost2010PropOp43
 70
     1
102
RTVSPost2010Prop44ColorIndex
 90
        5
102
RTVSPost2010Prop44ColorRGB
 90
      255
102
RTVSPost2010PropOp44
 70
     1
102
RTVSPost2010Prop45
280
     0
102
RTVSPost2010PropOp45
 70
     1
102
RTVSPost2010Prop46
 90
       50
102
RTVSPost2010PropOp46
 70
     1
102
RTVSPost2010Prop47
 90
       50
102
RTVSPost2010PropOp47
 70
     1
102
RTVSPost2010Prop48
 90
       50
102
RTVSPost2010PropOp48
 70
     1
102
RTVSPost2010Prop49
280
     0
102
RTVSPost2010PropOp49
 70
     1
102
RTVSPost2010Prop50
 90
       50
102
RTVSPost2010PropOp50
 70
     1
102
RTVSPost2010Prop51ColorIndex
 90
      256
102
RTVSPost2010Prop51ColorRGB
 90
-16777216
102
RTVSPost2010PropOp51
 70
     0
102
RTVSPost2010Prop52
140
1.0
102
RTVSPost2010PropOp52
 70
     0
102
RTVSPost2010Prop53
 90
        2
102
RTVSPost2010PropOp53
 70
     1
102
RTVSPost2010Prop54
  1
strokes_ogs.tif
102
RTVSPost2010PropOp54
 70
     1
102
RTVSPost2010Prop55
280
     0
102
RTVSPost2010PropOp55
 70
     1
102
RTVSPost2010Prop56
140
1.0
102
RTVSPost2010PropOp56
 70
     1
102
RTVSPost2010Prop57
140
1.0
102
RTVSPost2010PropOp57
 70
     1
  0
XRECORD
  5
135C
102
{ACAD_REACTORS
330
135B
102
}
330
135B
100
AcDbXrecord
280
     1
102
RTVSPropertyOp0
 70
     1
102
RTVSPropertyOp1
 70
     1
102
RTVSPropertyOp2
 70
     1
102
RTVSPropertyOp3
 70
     1
102
RTVSPropertyOp4
 70
     1
102
RTVSPropertyOp5
 70
     1
102
RTVSPropertyOp6
 70
     1
102
RTVSPropertyOp7
 70
     1
102
RTVSPropertyOp8
 70
     1
102
RTVSPropertyOp9
 70
     1
102
RTVSPropertyOp10
 70
     1
102
RTVSPropertyOp11
 70
     1
102
RTVSPropertyOp12
 70
     1
102
RTVSPropertyOp13
 70
     1
102
RTVSPropertyOp14
 70
     1
102
RTVSPropertyOp15
 70
     1
102
RTVSPropertyOp16
 70
     1
102
RTVSPropertyOp17
 70
     1
102
RTVSPropertyOp18
 70
     1
102
RTVSPropertyOp19
 70
     1
102
RTVSPropertyOp20
 70
     1
102
RTVSPropertyOp21
 70
     1
102
RTVSPropertyOp22
 70
     1
102
RTVSPropertyOp23
 70
     1
102
RTVSPropertyOp24
 70
     1
102
RTVSPropertyOp25
 70
     1
102
RTVSPropertyOp26
 70
     1
102
RTVSPropertyOp27
 70
     1
102
RTVSPropertyOp28
 70
     1
102
RTVSPropertyOp29
 70
     1
102
RTVSPropertyOp30
 70
     1
102
RTVSPropertyOp31
 70
     1
102
RTVSPropertyOp32
 70
     1
102
RTVSPropertyOp33
 70
     1
102
RTVSPropertyOp34
 70
     1
102
RTVSPropertyOp35
 70
     1
102
RTVSPropertyOp36
 70
     1
102
RTVSPropertyOp37
 70
     1
102
RTVSPropertyOp38
 70
     1
102
RTVSPropertyOp39
 70
     1
102
RTVSPropertyOp40
 70
     1
102
RTVSPropertyOp41
 70
     1
102
RTVSPropertyOp42
 70
     1
102
RTVSPropertyOp43
 70
     1
102
RTVSPropertyOp44
 70
     1
102
RTVSPropertyOp45
 70
     1
102
RTVSPropertyOp46
 70
     1
102
RTVSPropertyOp47
 70
     1
102
RTVSPropertyOp48
 70
     1
102
RTVSPropertyOp49
 70
     1
102
RTVSPropertyOp50
 70
     1
102
RTVSPropertyOp51
 70
     0
102
RTVSPropertyOp52
 70
     0
102
RTVSPropertyOp53
 70
     1
102
RTVSPropertyOp54
 70
     1
102
RTVSPropertyOp55
 70
     1
102
RTVSPropertyOp56
 70
     1
102
RTVSPropertyOp57
 70
     1
102
RTVSPost2010Prop28
280
     0
102
RTVSPost2010PropOp28
 70
     1
102
RTVSPost2010Prop29
280
     1
102
RTVSPost2010PropOp29
 70
     1
102
RTVSPost2010Prop30
280
     1
102
RTVSPost2010PropOp30
 70
     1
102
RTVSPost2010Prop31
280
     0
102
RTVSPost2010PropOp31
 70
     1
102
RTVSPost2010Prop32
280
     0
102
RTVSPost2010PropOp32
 70
     1
102
RTVSPost2010Prop33
280
     0
102
RTVSPost2010PropOp33
 70
     1
102
RTVSPost2010Prop34
280
     0
102
RTVSPost2010PropOp34
 70
     1
102
RTVSPost2010Prop35
280
     0
102
RTVSPost2010PropOp35
 70
     1
102
RTVSPost2010Prop36
280
     0
102
RTVSPost2010PropOp36
 70
     1
102
RTVSPost2010Prop37
 90
       50
102
RTVSPost2010PropOp37
 70
     1
102
RTVSPost2010Prop38
140
0.0
102
RTVSPost2010PropOp38
 70
     1
102
RTVSPost2010Prop39
140
1.0
102
RTVSPost2010PropOp39
 70
     1
102
RTVSPost2010Prop40
 90
        0
102
RTVSPost2010PropOp40
 70
     1
102
RTVSPost2010Prop41ColorIndex
 90
       18
102
RTVSPost2010Prop41ColorRGB
 90
        0
102
RTVSPost2010PropOp41
 70
     1
102
RTVSPost2010Prop42
 90
       50
102
RTVSPost2010PropOp42
 70
     1
102
RTVSPost2010Prop43
 90
        3
102
RTVSPost2010PropOp43
 70
     1
102
RTVSPost2010Prop44ColorIndex
 90
        5
102
RTVSPost2010Prop44ColorRGB
 90
      255
102
RTVSPost2010PropOp44
 70
     1
102
RTVSPost2010Prop45
280
     0
102
RTVSPost2010PropOp45
 70
     1
102
RTVSPost2010Prop46
 90
       50
102
RTVSPost2010PropOp46
 70
     1
102
RTVSPost2010Prop47
 90
       50
102
RTVSPost2010PropOp47
 70
     1
102
RTVSPost2010Prop48
 90
       50
102
RTVSPost2010PropOp48
 70
     1
102
RTVSPost2010Prop49
280
     0
102
RTVSPost2010PropOp49
 70
     1
102
RTVSPost2010Prop50
 90
       50
102
RTVSPost2010PropOp50
 70
     1
102
RTVSPost2010Prop51ColorIndex
 90
      256
102
RTVSPost2010Prop51ColorRGB
 90
-16777216
102
RTVSPost2010PropOp51
 70
     0
102
RTVSPost2010Prop52
140
1.0
102
RTVSPost2010PropOp52
 70
     0
102
RTVSPost2010Prop53
 90
        2
102
RTVSPost2010PropOp53
 70
     1
102
RTVSPost2010Prop54
  1
strokes_ogs.tif
102
RTVSPost2010PropOp54
 70
     1
102
RTVSPost2010Prop55
280
     0
102
RTVSPost2010PropOp55
 70
     1
102
RTVSPost2010Prop56
140
1.0
102
RTVSPost2010PropOp56
 70
     1
102
RTVSPost2010Prop57
140
1.0
102
RTVSPost2010PropOp57
 70
     1
  0
XRECORD
  5
135E
102
{ACAD_REACTORS
330
135D
102
}
330
135D
100
AcDbXrecord
280
     1
102
RTVSPropertyOp0
 70
     1
102
RTVSPropertyOp1
 70
     1
102
RTVSPropertyOp2
 70
     1
102
RTVSPropertyOp3
 70
     1
102
RTVSPropertyOp4
 70
     1
102
RTVSPropertyOp5
 70
     1
102
RTVSPropertyOp6
 70
     1
102
RTVSPropertyOp7
 70
     1
102
RTVSPropertyOp8
 70
     1
102
RTVSPropertyOp9
 70
     1
102
RTVSPropertyOp10
 70
     1
102
RTVSPropertyOp11
 70
     1
102
RTVSPropertyOp12
 70
     1
102
RTVSPropertyOp13
 70
     1
102
RTVSPropertyOp14
 70
     1
102
RTVSPropertyOp15
 70
     1
102
RTVSPropertyOp16
 70
     1
102
RTVSPropertyOp17
 70
     1
102
RTVSPropertyOp18
 70
     1
102
RTVSPropertyOp19
 70
     1
102
RTVSPropertyOp20
 70
     1
102
RTVSPropertyOp21
 70
     1
102
RTVSPropertyOp22
 70
     1
102
RTVSPropertyOp23
 70
     1
102
RTVSPropertyOp24
 70
     1
102
RTVSPropertyOp25
 70
     1
102
RTVSPropertyOp26
 70
     1
102
RTVSPropertyOp27
 70
     1
102
RTVSPropertyOp28
 70
     1
102
RTVSPropertyOp29
 70
     1
102
RTVSPropertyOp30
 70
     1
102
RTVSPropertyOp31
 70
     1
102
RTVSPropertyOp32
 70
     1
102
RTVSPropertyOp33
 70
     1
102
RTVSPropertyOp34
 70
     1
102
RTVSPropertyOp35
 70
     1
102
RTVSPropertyOp36
 70
     1
102
RTVSPropertyOp37
 70
     1
102
RTVSPropertyOp38
 70
     1
102
RTVSPropertyOp39
 70
     1
102
RTVSPropertyOp40
 70
     1
102
RTVSPropertyOp41
 70
     1
102
RTVSPropertyOp42
 70
     1
102
RTVSPropertyOp43
 70
     1
102
RTVSPropertyOp44
 70
     1
102
RTVSPropertyOp45
 70
     1
102
RTVSPropertyOp46
 70
     1
102
RTVSPropertyOp47
 70
     1
102
RTVSPropertyOp48
 70
     1
102
RTVSPropertyOp49
 70
     1
102
RTVSPropertyOp50
 70
     1
102
RTVSPropertyOp51
 70
     0
102
RTVSPropertyOp52
 70
     0
102
RTVSPropertyOp53
 70
     1
102
RTVSPropertyOp54
 70
     1
102
RTVSPropertyOp55
 70
     1
102
RTVSPropertyOp56
 70
     1
102
RTVSPropertyOp57
 70
     1
102
RTVSPost2010Prop28
280
     0
102
RTVSPost2010PropOp28
 70
     1
102
RTVSPost2010Prop29
280
     1
102
RTVSPost2010PropOp29
 70
     1
102
RTVSPost2010Prop30
280
     1
102
RTVSPost2010PropOp30
 70
     1
102
RTVSPost2010Prop31
280
     0
102
RTVSPost2010PropOp31
 70
     1
102
RTVSPost2010Prop32
280
     0
102
RTVSPost2010PropOp32
 70
     1
102
RTVSPost2010Prop33
280
     0
102
RTVSPost2010PropOp33
 70
     1
102
RTVSPost2010Prop34
280
     0
102
RTVSPost2010PropOp34
 70
     1
102
RTVSPost2010Prop35
280
     0
102
RTVSPost2010PropOp35
 70
     1
102
RTVSPost2010Prop36
280
     0
102
RTVSPost2010PropOp36
 70
     1
102
RTVSPost2010Prop37
 90
       50
102
RTVSPost2010PropOp37
 70
     1
102
RTVSPost2010Prop38
140
0.0
102
RTVSPost2010PropOp38
 70
     1
102
RTVSPost2010Prop39
140
1.0
102
RTVSPost2010PropOp39
 70
     1
102
RTVSPost2010Prop40
 90
        0
102
RTVSPost2010PropOp40
 70
     1
102
RTVSPost2010Prop41ColorIndex
 90
       18
102
RTVSPost2010Prop41ColorRGB
 90
        0
102
RTVSPost2010PropOp41
 70
     1
102
RTVSPost2010Prop42
 90
       50
102
RTVSPost2010PropOp42
 70
     1
102
RTVSPost2010Prop43
 90
        3
102
RTVSPost2010PropOp43
 70
     1
102
RTVSPost2010Prop44ColorIndex
 90
        5
102
RTVSPost2010Prop44ColorRGB
 90
      255
102
RTVSPost2010PropOp44
 70
     1
102
RTVSPost2010Prop45
280
     0
102
RTVSPost2010PropOp45
 70
     1
102
RTVSPost2010Prop46
 90
       50
102
RTVSPost2010PropOp46
 70
     1
102
RTVSPost2010Prop47
 90
       50
102
RTVSPost2010PropOp47
 70
     1
102
RTVSPost2010Prop48
 90
       50
102
RTVSPost2010PropOp48
 70
     1
102
RTVSPost2010Prop49
280
     0
102
RTVSPost2010PropOp49
 70
     1
102
RTVSPost2010Prop50
 90
       50
102
RTVSPost2010PropOp50
 70
     1
102
RTVSPost2010Prop51ColorIndex
 90
      256
102
RTVSPost2010Prop51ColorRGB
 90
-16777216
102
RTVSPost2010PropOp51
 70
     0
102
RTVSPost2010Prop52
140
1.0
102
RTVSPost2010PropOp52
 70
     0
102
RTVSPost2010Prop53
 90
        2
102
RTVSPost2010PropOp53
 70
     1
102
RTVSPost2010Prop54
  1
strokes_ogs.tif
102
RTVSPost2010PropOp54
 70
     1
102
RTVSPost2010Prop55
280
     0
102
RTVSPost2010PropOp55
 70
     1
102
RTVSPost2010Prop56
140
1.0
102
RTVSPost2010PropOp56
 70
     1
102
RTVSPost2010Prop57
140
1.0
102
RTVSPost2010PropOp57
 70
     1
  0
XRECORD
  5
1360
102
{ACAD_REACTORS
330
135F
102
}
330
135F
100
AcDbXrecord
280
     1
102
RTVSPropertyOp0
 70
     1
102
RTVSPropertyOp1
 70
     1
102
RTVSPropertyOp2
 70
     1
102
RTVSPropertyOp3
 70
     1
102
RTVSPropertyOp4
 70
     1
102
RTVSPropertyOp5
 70
     1
102
RTVSPropertyOp6
 70
     1
102
RTVSPropertyOp7
 70
     1
102
RTVSPropertyOp8
 70
     1
102
RTVSPropertyOp9
 70
     1
102
RTVSPropertyOp10
 70
     1
102
RTVSPropertyOp11
 70
     1
102
RTVSPropertyOp12
 70
     1
102
RTVSPropertyOp13
 70
     1
102
RTVSPropertyOp14
 70
     1
102
RTVSPropertyOp15
 70
     1
102
RTVSPropertyOp16
 70
     1
102
RTVSPropertyOp17
 70
     1
102
RTVSPropertyOp18
 70
     1
102
RTVSPropertyOp19
 70
     1
102
RTVSPropertyOp20
 70
     1
102
RTVSPropertyOp21
 70
     1
102
RTVSPropertyOp22
 70
     1
102
RTVSPropertyOp23
 70
     1
102
RTVSPropertyOp24
 70
     1
102
RTVSPropertyOp25
 70
     1
102
RTVSPropertyOp26
 70
     1
102
RTVSPropertyOp27
 70
     1
102
RTVSPropertyOp28
 70
     1
102
RTVSPropertyOp29
 70
     1
102
RTVSPropertyOp30
 70
     1
102
RTVSPropertyOp31
 70
     1
102
RTVSPropertyOp32
 70
     1
102
RTVSPropertyOp33
 70
     1
102
RTVSPropertyOp34
 70
     1
102
RTVSPropertyOp35
 70
     1
102
RTVSPropertyOp36
 70
     1
102
RTVSPropertyOp37
 70
     1
102
RTVSPropertyOp38
 70
     1
102
RTVSPropertyOp39
 70
     1
102
RTVSPropertyOp40
 70
     1
102
RTVSPropertyOp41
 70
     1
102
RTVSPropertyOp42
 70
     1
102
RTVSPropertyOp43
 70
     1
102
RTVSPropertyOp44
 70
     1
102
RTVSPropertyOp45
 70
     1
102
RTVSPropertyOp46
 70
     1
102
RTVSPropertyOp47
 70
     1
102
RTVSPropertyOp48
 70
     1
102
RTVSPropertyOp49
 70
     1
102
RTVSPropertyOp50
 70
     1
102
RTVSPropertyOp51
 70
     0
102
RTVSPropertyOp52
 70
     0
102
RTVSPropertyOp53
 70
     1
102
RTVSPropertyOp54
 70
     1
102
RTVSPropertyOp55
 70
     1
102
RTVSPropertyOp56
 70
     1
102
RTVSPropertyOp57
 70
     1
102
RTVSPost2010Prop28
280
     0
102
RTVSPost2010PropOp28
 70
     1
102
RTVSPost2010Prop29
280
     1
102
RTVSPost2010PropOp29
 70
     1
102
RTVSPost2010Prop30
280
     1
102
RTVSPost2010PropOp30
 70
     1
102
RTVSPost2010Prop31
280
     0
102
RTVSPost2010PropOp31
 70
     1
102
RTVSPost2010Prop32
280
     0
102
RTVSPost2010PropOp32
 70
     1
102
RTVSPost2010Prop33
280
     0
102
RTVSPost2010PropOp33
 70
     1
102
RTVSPost2010Prop34
280
     0
102
RTVSPost2010PropOp34
 70
     1
102
RTVSPost2010Prop35
280
     0
102
RTVSPost2010PropOp35
 70
     1
102
RTVSPost2010Prop36
280
     0
102
RTVSPost2010PropOp36
 70
     1
102
RTVSPost2010Prop37
 90
       50
102
RTVSPost2010PropOp37
 70
     1
102
RTVSPost2010Prop38
140
0.0
102
RTVSPost2010PropOp38
 70
     1
102
RTVSPost2010Prop39
140
1.0
102
RTVSPost2010PropOp39
 70
     1
102
RTVSPost2010Prop40
 90
        0
102
RTVSPost2010PropOp40
 70
     1
102
RTVSPost2010Prop41ColorIndex
 90
       18
102
RTVSPost2010Prop41ColorRGB
 90
        0
102
RTVSPost2010PropOp41
 70
     1
102
RTVSPost2010Prop42
 90
       50
102
RTVSPost2010PropOp42
 70
     1
102
RTVSPost2010Prop43
 90
        3
102
RTVSPost2010PropOp43
 70
     1
102
RTVSPost2010Prop44ColorIndex
 90
        5
102
RTVSPost2010Prop44ColorRGB
 90
      255
102
RTVSPost2010PropOp44
 70
     1
102
RTVSPost2010Prop45
280
     0
102
RTVSPost2010PropOp45
 70
     1
102
RTVSPost2010Prop46
 90
       50
102
RTVSPost2010PropOp46
 70
     1
102
RTVSPost2010Prop47
 90
       50
102
RTVSPost2010PropOp47
 70
     1
102
RTVSPost2010Prop48
 90
       50
102
RTVSPost2010PropOp48
 70
     1
102
RTVSPost2010Prop49
280
     0
102
RTVSPost2010PropOp49
 70
     1
102
RTVSPost2010Prop50
 90
       50
102
RTVSPost2010PropOp50
 70
     1
102
RTVSPost2010Prop51ColorIndex
 90
      256
102
RTVSPost2010Prop51ColorRGB
 90
-16777216
102
RTVSPost2010PropOp51
 70
     0
102
RTVSPost2010Prop52
140
1.0
102
RTVSPost2010PropOp52
 70
     0
102
RTVSPost2010Prop53
 90
        2
102
RTVSPost2010PropOp53
 70
     1
102
RTVSPost2010Prop54
  1
strokes_ogs.tif
102
RTVSPost2010PropOp54
 70
     1
102
RTVSPost2010Prop55
280
     0
102
RTVSPost2010PropOp55
 70
     1
102
RTVSPost2010Prop56
140
1.0
102
RTVSPost2010PropOp56
 70
     1
102
RTVSPost2010Prop57
140
1.0
102
RTVSPost2010PropOp57
 70
     1
  0
XRECORD
  5
1362
102
{ACAD_REACTORS
330
1361
102
}
330
1361
100
AcDbXrecord
280
     1
102
RTVSPropertyOp0
 70
     1
102
RTVSPropertyOp1
 70
     1
102
RTVSPropertyOp2
 70
     1
102
RTVSPropertyOp3
 70
     1
102
RTVSPropertyOp4
 70
     1
102
RTVSPropertyOp5
 70
     1
102
RTVSPropertyOp6
 70
     1
102
RTVSPropertyOp7
 70
     1
102
RTVSPropertyOp8
 70
     1
102
RTVSPropertyOp9
 70
     1
102
RTVSPropertyOp10
 70
     1
102
RTVSPropertyOp11
 70
     1
102
RTVSPropertyOp12
 70
     1
102
RTVSPropertyOp13
 70
     1
102
RTVSPropertyOp14
 70
     1
102
RTVSPropertyOp15
 70
     1
102
RTVSPropertyOp16
 70
     1
102
RTVSPropertyOp17
 70
     1
102
RTVSPropertyOp18
 70
     1
102
RTVSPropertyOp19
 70
     1
102
RTVSPropertyOp20
 70
     1
102
RTVSPropertyOp21
 70
     1
102
RTVSPropertyOp22
 70
     1
102
RTVSPropertyOp23
 70
     1
102
RTVSPropertyOp24
 70
     1
102
RTVSPropertyOp25
 70
     1
102
RTVSPropertyOp26
 70
     1
102
RTVSPropertyOp27
 70
     1
102
RTVSPropertyOp28
 70
     1
102
RTVSPropertyOp29
 70
     1
102
RTVSPropertyOp30
 70
     1
102
RTVSPropertyOp31
 70
     1
102
RTVSPropertyOp32
 70
     1
102
RTVSPropertyOp33
 70
     1
102
RTVSPropertyOp34
 70
     1
102
RTVSPropertyOp35
 70
     1
102
RTVSPropertyOp36
 70
     1
102
RTVSPropertyOp37
 70
     1
102
RTVSPropertyOp38
 70
     1
102
RTVSPropertyOp39
 70
     1
102
RTVSPropertyOp40
 70
     1
102
RTVSPropertyOp41
 70
     1
102
RTVSPropertyOp42
 70
     1
102
RTVSPropertyOp43
 70
     1
102
RTVSPropertyOp44
 70
     1
102
RTVSPropertyOp45
 70
     1
102
RTVSPropertyOp46
 70
     1
102
RTVSPropertyOp47
 70
     1
102
RTVSPropertyOp48
 70
     1
102
RTVSPropertyOp49
 70
     1
102
RTVSPropertyOp50
 70
     1
102
RTVSPropertyOp51
 70
     0
102
RTVSPropertyOp52
 70
     0
102
RTVSPropertyOp53
 70
     1
102
RTVSPropertyOp54
 70
     1
102
RTVSPropertyOp55
 70
     1
102
RTVSPropertyOp56
 70
     1
102
RTVSPropertyOp57
 70
     1
102
RTVSPost2010Prop28
280
     0
102
RTVSPost2010PropOp28
 70
     1
102
RTVSPost2010Prop29
280
     1
102
RTVSPost2010PropOp29
 70
     1
102
RTVSPost2010Prop30
280
     1
102
RTVSPost2010PropOp30
 70
     1
102
RTVSPost2010Prop31
280
     0
102
RTVSPost2010PropOp31
 70
     1
102
RTVSPost2010Prop32
280
     0
102
RTVSPost2010PropOp32
 70
     1
102
RTVSPost2010Prop33
280
     0
102
RTVSPost2010PropOp33
 70
     1
102
RTVSPost2010Prop34
280
     0
102
RTVSPost2010PropOp34
 70
     1
102
RTVSPost2010Prop35
280
     0
102
RTVSPost2010PropOp35
 70
     1
102
RTVSPost2010Prop36
280
     0
102
RTVSPost2010PropOp36
 70
     1
102
RTVSPost2010Prop37
 90
       50
102
RTVSPost2010PropOp37
 70
     1
102
RTVSPost2010Prop38
140
0.0
102
RTVSPost2010PropOp38
 70
     1
102
RTVSPost2010Prop39
140
1.0
102
RTVSPost2010PropOp39
 70
     1
102
RTVSPost2010Prop40
 90
        0
102
RTVSPost2010PropOp40
 70
     1
102
RTVSPost2010Prop41ColorIndex
 90
       18
102
RTVSPost2010Prop41ColorRGB
 90
        0
102
RTVSPost2010PropOp41
 70
     1
102
RTVSPost2010Prop42
 90
       50
102
RTVSPost2010PropOp42
 70
     1
102
RTVSPost2010Prop43
 90
        3
102
RTVSPost2010PropOp43
 70
     1
102
RTVSPost2010Prop44ColorIndex
 90
        5
102
RTVSPost2010Prop44ColorRGB
 90
      255
102
RTVSPost2010PropOp44
 70
     1
102
RTVSPost2010Prop45
280
     0
102
RTVSPost2010PropOp45
 70
     1
102
RTVSPost2010Prop46
 90
       50
102
RTVSPost2010PropOp46
 70
     1
102
RTVSPost2010Prop47
 90
       50
102
RTVSPost2010PropOp47
 70
     1
102
RTVSPost2010Prop48
 90
       50
102
RTVSPost2010PropOp48
 70
     1
102
RTVSPost2010Prop49
280
     0
102
RTVSPost2010PropOp49
 70
     1
102
RTVSPost2010Prop50
 90
       50
102
RTVSPost2010PropOp50
 70
     1
102
RTVSPost2010Prop51ColorIndex
 90
      256
102
RTVSPost2010Prop51ColorRGB
 90
-16777216
102
RTVSPost2010PropOp51
 70
     0
102
RTVSPost2010Prop52
140
1.0
102
RTVSPost2010PropOp52
 70
     0
102
RTVSPost2010Prop53
 90
        2
102
RTVSPost2010PropOp53
 70
     1
102
RTVSPost2010Prop54
  1
strokes_ogs.tif
102
RTVSPost2010PropOp54
 70
     1
102
RTVSPost2010Prop55
280
     0
102
RTVSPost2010PropOp55
 70
     1
102
RTVSPost2010Prop56
140
1.0
102
RTVSPost2010PropOp56
 70
     1
102
RTVSPost2010Prop57
140
1.0
102
RTVSPost2010PropOp57
 70
     1
  0
XRECORD
  5
1368
102
{ACAD_REACTORS
330
1367
102
}
330
1367
100
AcDbXrecord
280
     1
102
RTVSPropertyOp0
 70
     1
102
RTVSPropertyOp1
 70
     1
102
RTVSPropertyOp2
 70
     1
102
RTVSPropertyOp3
 70
     1
102
RTVSPropertyOp4
 70
     1
102
RTVSPropertyOp5
 70
     1
102
RTVSPropertyOp6
 70
     1
102
RTVSPropertyOp7
 70
     1
102
RTVSPropertyOp8
 70
     1
102
RTVSPropertyOp9
 70
     1
102
RTVSPropertyOp10
 70
     1
102
RTVSPropertyOp11
 70
     1
102
RTVSPropertyOp12
 70
     1
102
RTVSPropertyOp13
 70
     1
102
RTVSPropertyOp14
 70
     1
102
RTVSPropertyOp15
 70
     1
102
RTVSPropertyOp16
 70
     1
102
RTVSPropertyOp17
 70
     1
102
RTVSPropertyOp18
 70
     1
102
RTVSPropertyOp19
 70
     1
102
RTVSPropertyOp20
 70
     1
102
RTVSPropertyOp21
 70
     1
102
RTVSPropertyOp22
 70
     1
102
RTVSPropertyOp23
 70
     1
102
RTVSPropertyOp24
 70
     1
102
RTVSPropertyOp25
 70
     1
102
RTVSPropertyOp26
 70
     1
102
RTVSPropertyOp27
 70
     1
102
RTVSPropertyOp28
 70
     1
102
RTVSPropertyOp29
 70
     1
102
RTVSPropertyOp30
 70
     1
102
RTVSPropertyOp31
 70
     1
102
RTVSPropertyOp32
 70
     1
102
RTVSPropertyOp33
 70
     1
102
RTVSPropertyOp34
 70
     1
102
RTVSPropertyOp35
 70
     1
102
RTVSPropertyOp36
 70
     1
102
RTVSPropertyOp37
 70
     1
102
RTVSPropertyOp38
 70
     1
102
RTVSPropertyOp39
 70
     1
102
RTVSPropertyOp40
 70
     1
102
RTVSPropertyOp41
 70
     1
102
RTVSPropertyOp42
 70
     1
102
RTVSPropertyOp43
 70
     1
102
RTVSPropertyOp44
 70
     1
102
RTVSPropertyOp45
 70
     1
102
RTVSPropertyOp46
 70
     1
102
RTVSPropertyOp47
 70
     1
102
RTVSPropertyOp48
 70
     1
102
RTVSPropertyOp49
 70
     1
102
RTVSPropertyOp50
 70
     1
102
RTVSPropertyOp51
 70
     0
102
RTVSPropertyOp52
 70
     0
102
RTVSPropertyOp53
 70
     1
102
RTVSPropertyOp54
 70
     1
102
RTVSPropertyOp55
 70
     1
102
RTVSPropertyOp56
 70
     1
102
RTVSPropertyOp57
 70
     1
102
RTVSPost2010Prop28
280
     0
102
RTVSPost2010PropOp28
 70
     1
102
RTVSPost2010Prop29
280
     1
102
RTVSPost2010PropOp29
 70
     1
102
RTVSPost2010Prop30
280
     1
102
RTVSPost2010PropOp30
 70
     1
102
RTVSPost2010Prop31
280
     0
102
RTVSPost2010PropOp31
 70
     1
102
RTVSPost2010Prop32
280
     0
102
RTVSPost2010PropOp32
 70
     1
102
RTVSPost2010Prop33
280
     0
102
RTVSPost2010PropOp33
 70
     1
102
RTVSPost2010Prop34
280
     0
102
RTVSPost2010PropOp34
 70
     1
102
RTVSPost2010Prop35
280
     0
102
RTVSPost2010PropOp35
 70
     1
102
RTVSPost2010Prop36
280
     0
102
RTVSPost2010PropOp36
 70
     1
102
RTVSPost2010Prop37
 90
       50
102
RTVSPost2010PropOp37
 70
     1
102
RTVSPost2010Prop38
140
0.0
102
RTVSPost2010PropOp38
 70
     1
102
RTVSPost2010Prop39
140
1.0
102
RTVSPost2010PropOp39
 70
     1
102
RTVSPost2010Prop40
 90
        0
102
RTVSPost2010PropOp40
 70
     1
102
RTVSPost2010Prop41ColorIndex
 90
       18
102
RTVSPost2010Prop41ColorRGB
 90
        0
102
RTVSPost2010PropOp41
 70
     1
102
RTVSPost2010Prop42
 90
       50
102
RTVSPost2010PropOp42
 70
     1
102
RTVSPost2010Prop43
 90
        3
102
RTVSPost2010PropOp43
 70
     1
102
RTVSPost2010Prop44ColorIndex
 90
        5
102
RTVSPost2010Prop44ColorRGB
 90
      255
102
RTVSPost2010PropOp44
 70
     1
102
RTVSPost2010Prop45
280
     0
102
RTVSPost2010PropOp45
 70
     1
102
RTVSPost2010Prop46
 90
       50
102
RTVSPost2010PropOp46
 70
     1
102
RTVSPost2010Prop47
 90
       50
102
RTVSPost2010PropOp47
 70
     1
102
RTVSPost2010Prop48
 90
       50
102
RTVSPost2010PropOp48
 70
     1
102
RTVSPost2010Prop49
280
     0
102
RTVSPost2010PropOp49
 70
     1
102
RTVSPost2010Prop50
 90
       50
102
RTVSPost2010PropOp50
 70
     1
102
RTVSPost2010Prop51ColorIndex
 90
      256
102
RTVSPost2010Prop51ColorRGB
 90
-16777216
102
RTVSPost2010PropOp51
 70
     0
102
RTVSPost2010Prop52
140
1.0
102
RTVSPost2010PropOp52
 70
     0
102
RTVSPost2010Prop53
 90
        2
102
RTVSPost2010PropOp53
 70
     1
102
RTVSPost2010Prop54
  1
strokes_ogs.tif
102
RTVSPost2010PropOp54
 70
     1
102
RTVSPost2010Prop55
280
     0
102
RTVSPost2010PropOp55
 70
     1
102
RTVSPost2010Prop56
140
1.0
102
RTVSPost2010PropOp56
 70
     1
102
RTVSPost2010Prop57
140
1.0
102
RTVSPost2010PropOp57
 70
     1
  0
XRECORD
  5
137C
102
{ACAD_REACTORS
330
137B
102
}
330
137B
100
AcDbXrecord
280
     1
102
RTVSPropertyOp0
 70
     0
102
RTVSPropertyOp1
 70
     0
102
RTVSPropertyOp2
 70
     0
102
RTVSPropertyOp3
 70
     0
102
RTVSPropertyOp4
 70
     0
102
RTVSPropertyOp5
 70
     0
102
RTVSPropertyOp6
 70
     0
102
RTVSPropertyOp7
 70
     0
102
RTVSPropertyOp8
 70
     0
102
RTVSPropertyOp9
 70
     0
102
RTVSPropertyOp10
 70
     0
102
RTVSPropertyOp11
 70
     0
102
RTVSPropertyOp12
 70
     0
102
RTVSPropertyOp13
 70
     0
102
RTVSPropertyOp14
 70
     2
102
RTVSPropertyOp15
 70
     0
102
RTVSPropertyOp16
 70
     0
102
RTVSPropertyOp17
 70
     0
102
RTVSPropertyOp18
 70
     0
102
RTVSPropertyOp19
 70
     0
102
RTVSPropertyOp20
 70
     0
102
RTVSPropertyOp21
 70
     0
102
RTVSPropertyOp22
 70
     0
102
RTVSPropertyOp23
 70
     0
102
RTVSPropertyOp24
 70
     0
102
RTVSPropertyOp25
 70
     0
102
RTVSPropertyOp26
 70
     0
102
RTVSPropertyOp27
 70
     0
102
RTVSPropertyOp28
 70
     0
102
RTVSPropertyOp29
 70
     0
102
RTVSPropertyOp30
 70
     0
102
RTVSPropertyOp31
 70
     0
102
RTVSPropertyOp32
 70
     0
102
RTVSPropertyOp33
 70
     0
102
RTVSPropertyOp34
 70
     0
102
RTVSPropertyOp35
 70
     0
102
RTVSPropertyOp36
 70
     0
102
RTVSPropertyOp37
 70
     0
102
RTVSPropertyOp38
 70
     0
102
RTVSPropertyOp39
 70
     0
102
RTVSPropertyOp40
 70
     0
102
RTVSPropertyOp41
 70
     0
102
RTVSPropertyOp42
 70
     0
102
RTVSPropertyOp43
 70
     0
102
RTVSPropertyOp44
 70
     0
102
RTVSPropertyOp45
 70
     0
102
RTVSPropertyOp46
 70
     0
102
RTVSPropertyOp47
 70
     0
102
RTVSPropertyOp48
 70
     0
102
RTVSPropertyOp49
 70
     0
102
RTVSPropertyOp50
 70
     0
102
RTVSPropertyOp51
 70
     0
102
RTVSPropertyOp52
 70
     0
102
RTVSPropertyOp53
 70
     0
102
RTVSPropertyOp54
 70
     0
102
RTVSPropertyOp55
 70
     0
102
RTVSPropertyOp56
 70
     0
102
RTVSPropertyOp57
 70
     0
102
RTVSPost2010Prop28
280
     0
102
RTVSPost2010PropOp28
 70
     0
102
RTVSPost2010Prop29
280
     1
102
RTVSPost2010PropOp29
 70
     0
102
RTVSPost2010Prop30
280
     1
102
RTVSPost2010PropOp30
 70
     0
102
RTVSPost2010Prop31
280
     0
102
RTVSPost2010PropOp31
 70
     0
102
RTVSPost2010Prop32
280
     0
102
RTVSPost2010PropOp32
 70
     0
102
RTVSPost2010Prop33
280
     0
102
RTVSPost2010PropOp33
 70
     0
102
RTVSPost2010Prop34
280
     0
102
RTVSPost2010PropOp34
 70
     0
102
RTVSPost2010Prop35
280
     0
102
RTVSPost2010PropOp35
 70
     0
102
RTVSPost2010Prop36
280
     0
102
RTVSPost2010PropOp36
 70
     0
102
RTVSPost2010Prop37
 90
       50
102
RTVSPost2010PropOp37
 70
     0
102
RTVSPost2010Prop38
140
0.0
102
RTVSPost2010PropOp38
 70
     0
102
RTVSPost2010Prop39
140
1.0
102
RTVSPost2010PropOp39
 70
     0
102
RTVSPost2010Prop40
 90
        0
102
RTVSPost2010PropOp40
 70
     0
102
RTVSPost2010Prop41ColorIndex
 90
       18
102
RTVSPost2010Prop41ColorRGB
 90
        0
102
RTVSPost2010PropOp41
 70
     0
102
RTVSPost2010Prop42
 90
       50
102
RTVSPost2010PropOp42
 70
     0
102
RTVSPost2010Prop43
 90
        3
102
RTVSPost2010PropOp43
 70
     0
102
RTVSPost2010Prop44ColorIndex
 90
        5
102
RTVSPost2010Prop44ColorRGB
 90
      255
102
RTVSPost2010PropOp44
 70
     0
102
RTVSPost2010Prop45
280
     0
102
RTVSPost2010PropOp45
 70
     0
102
RTVSPost2010Prop46
 90
       50
102
RTVSPost2010PropOp46
 70
     0
102
RTVSPost2010Prop47
 90
       50
102
RTVSPost2010PropOp47
 70
     0
102
RTVSPost2010Prop48
 90
       50
102
RTVSPost2010PropOp48
 70
     0
102
RTVSPost2010Prop49
280
     0
102
RTVSPost2010PropOp49
 70
     0
102
RTVSPost2010Prop50
 90
       50
102
RTVSPost2010PropOp50
 70
     0
102
RTVSPost2010Prop51ColorIndex
 90
      256
102
RTVSPost2010Prop51ColorRGB
 90
-16777216
102
RTVSPost2010PropOp51
 70
     0
102
RTVSPost2010Prop52
140
1.0
102
RTVSPost2010PropOp52
 70
     0
102
RTVSPost2010Prop53
 90
        2
102
RTVSPost2010PropOp53
 70
     0
102
RTVSPost2010Prop54
  1
strokes_ogs.tif
102
RTVSPost2010PropOp54
 70
     0
102
RTVSPost2010Prop55
280
     0
102
RTVSPost2010PropOp55
 70
     0
102
RTVSPost2010Prop56
140
1.0
102
RTVSPost2010PropOp56
 70
     0
102
RTVSPost2010Prop57
140
1.0
102
RTVSPost2010PropOp57
 70
     0
  0
XRECORD
  5
1376
102
{ACAD_REACTORS
330
1375
102
}
330
1375
100
AcDbXrecord
280
     1
102
RTVSPropertyOp0
 70
     1
102
RTVSPropertyOp1
 70
     1
102
RTVSPropertyOp2
 70
     1
102
RTVSPropertyOp3
 70
     1
102
RTVSPropertyOp4
 70
     1
102
RTVSPropertyOp5
 70
     1
102
RTVSPropertyOp6
 70
     1
102
RTVSPropertyOp7
 70
     1
102
RTVSPropertyOp8
 70
     1
102
RTVSPropertyOp9
 70
     1
102
RTVSPropertyOp10
 70
     1
102
RTVSPropertyOp11
 70
     1
102
RTVSPropertyOp12
 70
     1
102
RTVSPropertyOp13
 70
     1
102
RTVSPropertyOp14
 70
     1
102
RTVSPropertyOp15
 70
     1
102
RTVSPropertyOp16
 70
     1
102
RTVSPropertyOp17
 70
     1
102
RTVSPropertyOp18
 70
     1
102
RTVSPropertyOp19
 70
     1
102
RTVSPropertyOp20
 70
     1
102
RTVSPropertyOp21
 70
     1
102
RTVSPropertyOp22
 70
     1
102
RTVSPropertyOp23
 70
     1
102
RTVSPropertyOp24
 70
     1
102
RTVSPropertyOp25
 70
     1
102
RTVSPropertyOp26
 70
     1
102
RTVSPropertyOp27
 70
     1
102
RTVSPropertyOp28
 70
     1
102
RTVSPropertyOp29
 70
     1
102
RTVSPropertyOp30
 70
     1
102
RTVSPropertyOp31
 70
     1
102
RTVSPropertyOp32
 70
     1
102
RTVSPropertyOp33
 70
     1
102
RTVSPropertyOp34
 70
     1
102
RTVSPropertyOp35
 70
     1
102
RTVSPropertyOp36
 70
     1
102
RTVSPropertyOp37
 70
     1
102
RTVSPropertyOp38
 70
     1
102
RTVSPropertyOp39
 70
     1
102
RTVSPropertyOp40
 70
     1
102
RTVSPropertyOp41
 70
     1
102
RTVSPropertyOp42
 70
     1
102
RTVSPropertyOp43
 70
     1
102
RTVSPropertyOp44
 70
     1
102
RTVSPropertyOp45
 70
     1
102
RTVSPropertyOp46
 70
     1
102
RTVSPropertyOp47
 70
     1
102
RTVSPropertyOp48
 70
     1
102
RTVSPropertyOp49
 70
     1
102
RTVSPropertyOp50
 70
     1
102
RTVSPropertyOp51
 70
     0
102
RTVSPropertyOp52
 70
     0
102
RTVSPropertyOp53
 70
     1
102
RTVSPropertyOp54
 70
     1
102
RTVSPropertyOp55
 70
     1
102
RTVSPropertyOp56
 70
     1
102
RTVSPropertyOp57
 70
     1
102
RTVSPost2010Prop28
280
     0
102
RTVSPost2010PropOp28
 70
     1
102
RTVSPost2010Prop29
280
     1
102
RTVSPost2010PropOp29
 70
     1
102
RTVSPost2010Prop30
280
     1
102
RTVSPost2010PropOp30
 70
     1
102
RTVSPost2010Prop31
280
     0
102
RTVSPost2010PropOp31
 70
     1
102
RTVSPost2010Prop32
280
     0
102
RTVSPost2010PropOp32
 70
     1
102
RTVSPost2010Prop33
280
     0
102
RTVSPost2010PropOp33
 70
     1
102
RTVSPost2010Prop34
280
     0
102
RTVSPost2010PropOp34
 70
     1
102
RTVSPost2010Prop35
280
     0
102
RTVSPost2010PropOp35
 70
     1
102
RTVSPost2010Prop36
280
     0
102
RTVSPost2010PropOp36
 70
     1
102
RTVSPost2010Prop37
 90
       50
102
RTVSPost2010PropOp37
 70
     1
102
RTVSPost2010Prop38
140
0.0
102
RTVSPost2010PropOp38
 70
     1
102
RTVSPost2010Prop39
140
1.0
102
RTVSPost2010PropOp39
 70
     1
102
RTVSPost2010Prop40
 90
        0
102
RTVSPost2010PropOp40
 70
     1
102
RTVSPost2010Prop41ColorIndex
 90
       18
102
RTVSPost2010Prop41ColorRGB
 90
        0
102
RTVSPost2010PropOp41
 70
     1
102
RTVSPost2010Prop42
 90
       50
102
RTVSPost2010PropOp42
 70
     1
102
RTVSPost2010Prop43
 90
        3
102
RTVSPost2010PropOp43
 70
     1
102
RTVSPost2010Prop44ColorIndex
 90
        5
102
RTVSPost2010Prop44ColorRGB
 90
      255
102
RTVSPost2010PropOp44
 70
     1
102
RTVSPost2010Prop45
280
     0
102
RTVSPost2010PropOp45
 70
     1
102
RTVSPost2010Prop46
 90
       50
102
RTVSPost2010PropOp46
 70
     1
102
RTVSPost2010Prop47
 90
       50
102
RTVSPost2010PropOp47
 70
     1
102
RTVSPost2010Prop48
 90
       50
102
RTVSPost2010PropOp48
 70
     1
102
RTVSPost2010Prop49
280
     0
102
RTVSPost2010PropOp49
 70
     1
102
RTVSPost2010Prop50
 90
       50
102
RTVSPost2010PropOp50
 70
     1
102
RTVSPost2010Prop51ColorIndex
 90
      256
102
RTVSPost2010Prop51ColorRGB
 90
-16777216
102
RTVSPost2010PropOp51
 70
     0
102
RTVSPost2010Prop52
140
1.0
102
RTVSPost2010PropOp52
 70
     0
102
RTVSPost2010Prop53
 90
        2
102
RTVSPost2010PropOp53
 70
     1
102
RTVSPost2010Prop54
  1
strokes_ogs.tif
102
RTVSPost2010PropOp54
 70
     1
102
RTVSPost2010Prop55
280
     0
102
RTVSPost2010PropOp55
 70
     1
102
RTVSPost2010Prop56
140
1.0
102
RTVSPost2010PropOp56
 70
     1
102
RTVSPost2010Prop57
140
1.0
102
RTVSPost2010PropOp57
 70
     1
  0
XRECORD
  5
138C
102
{ACAD_REACTORS
330
138B
102
}
330
138B
100
AcDbXrecord
280
     1
102
RTVSPropertyOp0
 70
     1
102
RTVSPropertyOp1
 70
     1
102
RTVSPropertyOp2
 70
     1
102
RTVSPropertyOp3
 70
     1
102
RTVSPropertyOp4
 70
     1
102
RTVSPropertyOp5
 70
     1
102
RTVSPropertyOp6
 70
     1
102
RTVSPropertyOp7
 70
     1
102
RTVSPropertyOp8
 70
     1
102
RTVSPropertyOp9
 70
     1
102
RTVSPropertyOp10
 70
     1
102
RTVSPropertyOp11
 70
     1
102
RTVSPropertyOp12
 70
     1
102
RTVSPropertyOp13
 70
     1
102
RTVSPropertyOp14
 70
     1
102
RTVSPropertyOp15
 70
     1
102
RTVSPropertyOp16
 70
     1
102
RTVSPropertyOp17
 70
     1
102
RTVSPropertyOp18
 70
     1
102
RTVSPropertyOp19
 70
     1
102
RTVSPropertyOp20
 70
     1
102
RTVSPropertyOp21
 70
     1
102
RTVSPropertyOp22
 70
     1
102
RTVSPropertyOp23
 70
     1
102
RTVSPropertyOp24
 70
     1
102
RTVSPropertyOp25
 70
     1
102
RTVSPropertyOp26
 70
     1
102
RTVSPropertyOp27
 70
     1
102
RTVSPropertyOp28
 70
     1
102
RTVSPropertyOp29
 70
     1
102
RTVSPropertyOp30
 70
     1
102
RTVSPropertyOp31
 70
     1
102
RTVSPropertyOp32
 70
     1
102
RTVSPropertyOp33
 70
     1
102
RTVSPropertyOp34
 70
     1
102
RTVSPropertyOp35
 70
     1
102
RTVSPropertyOp36
 70
     1
102
RTVSPropertyOp37
 70
     1
102
RTVSPropertyOp38
 70
     1
102
RTVSPropertyOp39
 70
     1
102
RTVSPropertyOp40
 70
     1
102
RTVSPropertyOp41
 70
     1
102
RTVSPropertyOp42
 70
     1
102
RTVSPropertyOp43
 70
     1
102
RTVSPropertyOp44
 70
     1
102
RTVSPropertyOp45
 70
     1
102
RTVSPropertyOp46
 70
     1
102
RTVSPropertyOp47
 70
     1
102
RTVSPropertyOp48
 70
     1
102
RTVSPropertyOp49
 70
     1
102
RTVSPropertyOp50
 70
     1
102
RTVSPropertyOp51
 70
     0
102
RTVSPropertyOp52
 70
     0
102
RTVSPropertyOp53
 70
     1
102
RTVSPropertyOp54
 70
     1
102
RTVSPropertyOp55
 70
     1
102
RTVSPropertyOp56
 70
     1
102
RTVSPropertyOp57
 70
     1
102
RTVSPost2010Prop28
280
     0
102
RTVSPost2010PropOp28
 70
     1
102
RTVSPost2010Prop29
280
     1
102
RTVSPost2010PropOp29
 70
     1
102
RTVSPost2010Prop30
280
     1
102
RTVSPost2010PropOp30
 70
     1
102
RTVSPost2010Prop31
280
     0
102
RTVSPost2010PropOp31
 70
     1
102
RTVSPost2010Prop32
280
     0
102
RTVSPost2010PropOp32
 70
     1
102
RTVSPost2010Prop33
280
     0
102
RTVSPost2010PropOp33
 70
     1
102
RTVSPost2010Prop34
280
     0
102
RTVSPost2010PropOp34
 70
     1
102
RTVSPost2010Prop35
280
     0
102
RTVSPost2010PropOp35
 70
     1
102
RTVSPost2010Prop36
280
     0
102
RTVSPost2010PropOp36
 70
     1
102
RTVSPost2010Prop37
 90
       50
102
RTVSPost2010PropOp37
 70
     1
102
RTVSPost2010Prop38
140
0.0
102
RTVSPost2010PropOp38
 70
     1
102
RTVSPost2010Prop39
140
1.0
102
RTVSPost2010PropOp39
 70
     1
102
RTVSPost2010Prop40
 90
        0
102
RTVSPost2010PropOp40
 70
     1
102
RTVSPost2010Prop41ColorIndex
 90
       18
102
RTVSPost2010Prop41ColorRGB
 90
        0
102
RTVSPost2010PropOp41
 70
     1
102
RTVSPost2010Prop42
 90
       50
102
RTVSPost2010PropOp42
 70
     1
102
RTVSPost2010Prop43
 90
        3
102
RTVSPost2010PropOp43
 70
     1
102
RTVSPost2010Prop44ColorIndex
 90
        5
102
RTVSPost2010Prop44ColorRGB
 90
      255
102
RTVSPost2010PropOp44
 70
     1
102
RTVSPost2010Prop45
280
     0
102
RTVSPost2010PropOp45
 70
     1
102
RTVSPost2010Prop46
 90
       50
102
RTVSPost2010PropOp46
 70
     1
102
RTVSPost2010Prop47
 90
       50
102
RTVSPost2010PropOp47
 70
     1
102
RTVSPost2010Prop48
 90
       50
102
RTVSPost2010PropOp48
 70
     1
102
RTVSPost2010Prop49
280
     0
102
RTVSPost2010PropOp49
 70
     1
102
RTVSPost2010Prop50
 90
       50
102
RTVSPost2010PropOp50
 70
     1
102
RTVSPost2010Prop51ColorIndex
 90
      256
102
RTVSPost2010Prop51ColorRGB
 90
-16777216
102
RTVSPost2010PropOp51
 70
     0
102
RTVSPost2010Prop52
140
1.0
102
RTVSPost2010PropOp52
 70
     0
102
RTVSPost2010Prop53
 90
        2
102
RTVSPost2010PropOp53
 70
     1
102
RTVSPost2010Prop54
  1
strokes_ogs.tif
102
RTVSPost2010PropOp54
 70
     1
102
RTVSPost2010Prop55
280
     0
102
RTVSPost2010PropOp55
 70
     1
102
RTVSPost2010Prop56
140
1.0
102
RTVSPost2010PropOp56
 70
     1
102
RTVSPost2010Prop57
140
1.0
102
RTVSPost2010PropOp57
 70
     1
  0
XRECORD
  5
137E
102
{ACAD_REACTORS
330
137D
102
}
330
137D
100
AcDbXrecord
280
     1
102
RTVSPropertyOp0
 70
     0
102
RTVSPropertyOp1
 70
     0
102
RTVSPropertyOp2
 70
     0
102
RTVSPropertyOp3
 70
     0
102
RTVSPropertyOp4
 70
     0
102
RTVSPropertyOp5
 70
     0
102
RTVSPropertyOp6
 70
     0
102
RTVSPropertyOp7
 70
     0
102
RTVSPropertyOp8
 70
     0
102
RTVSPropertyOp9
 70
     0
102
RTVSPropertyOp10
 70
     0
102
RTVSPropertyOp11
 70
     0
102
RTVSPropertyOp12
 70
     0
102
RTVSPropertyOp13
 70
     0
102
RTVSPropertyOp14
 70
     2
102
RTVSPropertyOp15
 70
     0
102
RTVSPropertyOp16
 70
     0
102
RTVSPropertyOp17
 70
     0
102
RTVSPropertyOp18
 70
     0
102
RTVSPropertyOp19
 70
     0
102
RTVSPropertyOp20
 70
     0
102
RTVSPropertyOp21
 70
     0
102
RTVSPropertyOp22
 70
     0
102
RTVSPropertyOp23
 70
     0
102
RTVSPropertyOp24
 70
     0
102
RTVSPropertyOp25
 70
     0
102
RTVSPropertyOp26
 70
     0
102
RTVSPropertyOp27
 70
     0
102
RTVSPropertyOp28
 70
     0
102
RTVSPropertyOp29
 70
     0
102
RTVSPropertyOp30
 70
     0
102
RTVSPropertyOp31
 70
     0
102
RTVSPropertyOp32
 70
     0
102
RTVSPropertyOp33
 70
     0
102
RTVSPropertyOp34
 70
     0
102
RTVSPropertyOp35
 70
     0
102
RTVSPropertyOp36
 70
     0
102
RTVSPropertyOp37
 70
     0
102
RTVSPropertyOp38
 70
     0
102
RTVSPropertyOp39
 70
     0
102
RTVSPropertyOp40
 70
     0
102
RTVSPropertyOp41
 70
     0
102
RTVSPropertyOp42
 70
     0
102
RTVSPropertyOp43
 70
     0
102
RTVSPropertyOp44
 70
     0
102
RTVSPropertyOp45
 70
     0
102
RTVSPropertyOp46
 70
     0
102
RTVSPropertyOp47
 70
     0
102
RTVSPropertyOp48
 70
     0
102
RTVSPropertyOp49
 70
     0
102
RTVSPropertyOp50
 70
     0
102
RTVSPropertyOp51
 70
     0
102
RTVSPropertyOp52
 70
     0
102
RTVSPropertyOp53
 70
     0
102
RTVSPropertyOp54
 70
     0
102
RTVSPropertyOp55
 70
     0
102
RTVSPropertyOp56
 70
     0
102
RTVSPropertyOp57
 70
     0
102
RTVSPost2010Prop28
280
     0
102
RTVSPost2010PropOp28
 70
     0
102
RTVSPost2010Prop29
280
     1
102
RTVSPost2010PropOp29
 70
     0
102
RTVSPost2010Prop30
280
     1
102
RTVSPost2010PropOp30
 70
     0
102
RTVSPost2010Prop31
280
     0
102
RTVSPost2010PropOp31
 70
     0
102
RTVSPost2010Prop32
280
     0
102
RTVSPost2010PropOp32
 70
     0
102
RTVSPost2010Prop33
280
     0
102
RTVSPost2010PropOp33
 70
     0
102
RTVSPost2010Prop34
280
     0
102
RTVSPost2010PropOp34
 70
     0
102
RTVSPost2010Prop35
280
     0
102
RTVSPost2010PropOp35
 70
     0
102
RTVSPost2010Prop36
280
     0
102
RTVSPost2010PropOp36
 70
     0
102
RTVSPost2010Prop37
 90
       50
102
RTVSPost2010PropOp37
 70
     0
102
RTVSPost2010Prop38
140
0.0
102
RTVSPost2010PropOp38
 70
     0
102
RTVSPost2010Prop39
140
1.0
102
RTVSPost2010PropOp39
 70
     0
102
RTVSPost2010Prop40
 90
        0
102
RTVSPost2010PropOp40
 70
     0
102
RTVSPost2010Prop41ColorIndex
 90
       18
102
RTVSPost2010Prop41ColorRGB
 90
        0
102
RTVSPost2010PropOp41
 70
     0
102
RTVSPost2010Prop42
 90
       50
102
RTVSPost2010PropOp42
 70
     0
102
RTVSPost2010Prop43
 90
        3
102
RTVSPost2010PropOp43
 70
     0
102
RTVSPost2010Prop44ColorIndex
 90
        5
102
RTVSPost2010Prop44ColorRGB
 90
      255
102
RTVSPost2010PropOp44
 70
     0
102
RTVSPost2010Prop45
280
     0
102
RTVSPost2010PropOp45
 70
     0
102
RTVSPost2010Prop46
 90
       50
102
RTVSPost2010PropOp46
 70
     0
102
RTVSPost2010Prop47
 90
       50
102
RTVSPost2010PropOp47
 70
     0
102
RTVSPost2010Prop48
 90
       50
102
RTVSPost2010PropOp48
 70
     0
102
RTVSPost2010Prop49
280
     0
102
RTVSPost2010PropOp49
 70
     0
102
RTVSPost2010Prop50
 90
       50
102
RTVSPost2010PropOp50
 70
     0
102
RTVSPost2010Prop51ColorIndex
 90
      256
102
RTVSPost2010Prop51ColorRGB
 90
-16777216
102
RTVSPost2010PropOp51
 70
     0
102
RTVSPost2010Prop52
140
1.0
102
RTVSPost2010PropOp52
 70
     0
102
RTVSPost2010Prop53
 90
        2
102
RTVSPost2010PropOp53
 70
     0
102
RTVSPost2010Prop54
  1
strokes_ogs.tif
102
RTVSPost2010PropOp54
 70
     0
102
RTVSPost2010Prop55
280
     0
102
RTVSPost2010PropOp55
 70
     0
102
RTVSPost2010Prop56
140
1.0
102
RTVSPost2010PropOp56
 70
     0
102
RTVSPost2010Prop57
140
1.0
102
RTVSPost2010PropOp57
 70
     0
  0
XRECORD
  5
136C
102
{ACAD_REACTORS
330
136B
102
}
330
136B
100
AcDbXrecord
280
     1
102
RTVSPropertyOp0
 70
     1
102
RTVSPropertyOp1
 70
     1
102
RTVSPropertyOp2
 70
     1
102
RTVSPropertyOp3
 70
     1
102
RTVSPropertyOp4
 70
     1
102
RTVSPropertyOp5
 70
     1
102
RTVSPropertyOp6
 70
     1
102
RTVSPropertyOp7
 70
     1
102
RTVSPropertyOp8
 70
     1
102
RTVSPropertyOp9
 70
     1
102
RTVSPropertyOp10
 70
     1
102
RTVSPropertyOp11
 70
     1
102
RTVSPropertyOp12
 70
     1
102
RTVSPropertyOp13
 70
     1
102
RTVSPropertyOp14
 70
     1
102
RTVSPropertyOp15
 70
     1
102
RTVSPropertyOp16
 70
     1
102
RTVSPropertyOp17
 70
     1
102
RTVSPropertyOp18
 70
     1
102
RTVSPropertyOp19
 70
     1
102
RTVSPropertyOp20
 70
     1
102
RTVSPropertyOp21
 70
     1
102
RTVSPropertyOp22
 70
     1
102
RTVSPropertyOp23
 70
     1
102
RTVSPropertyOp24
 70
     1
102
RTVSPropertyOp25
 70
     1
102
RTVSPropertyOp26
 70
     1
102
RTVSPropertyOp27
 70
     1
102
RTVSPropertyOp28
 70
     1
102
RTVSPropertyOp29
 70
     1
102
RTVSPropertyOp30
 70
     1
102
RTVSPropertyOp31
 70
     1
102
RTVSPropertyOp32
 70
     1
102
RTVSPropertyOp33
 70
     1
102
RTVSPropertyOp34
 70
     1
102
RTVSPropertyOp35
 70
     1
102
RTVSPropertyOp36
 70
     1
102
RTVSPropertyOp37
 70
     1
102
RTVSPropertyOp38
 70
     1
102
RTVSPropertyOp39
 70
     1
102
RTVSPropertyOp40
 70
     1
102
RTVSPropertyOp41
 70
     1
102
RTVSPropertyOp42
 70
     1
102
RTVSPropertyOp43
 70
     1
102
RTVSPropertyOp44
 70
     1
102
RTVSPropertyOp45
 70
     1
102
RTVSPropertyOp46
 70
     1
102
RTVSPropertyOp47
 70
     1
102
RTVSPropertyOp48
 70
     1
102
RTVSPropertyOp49
 70
     1
102
RTVSPropertyOp50
 70
     1
102
RTVSPropertyOp51
 70
     0
102
RTVSPropertyOp52
 70
     0
102
RTVSPropertyOp53
 70
     1
102
RTVSPropertyOp54
 70
     1
102
RTVSPropertyOp55
 70
     1
102
RTVSPropertyOp56
 70
     1
102
RTVSPropertyOp57
 70
     1
102
RTVSPost2010Prop28
280
     0
102
RTVSPost2010PropOp28
 70
     1
102
RTVSPost2010Prop29
280
     1
102
RTVSPost2010PropOp29
 70
     1
102
RTVSPost2010Prop30
280
     1
102
RTVSPost2010PropOp30
 70
     1
102
RTVSPost2010Prop31
280
     0
102
RTVSPost2010PropOp31
 70
     1
102
RTVSPost2010Prop32
280
     0
102
RTVSPost2010PropOp32
 70
     1
102
RTVSPost2010Prop33
280
     0
102
RTVSPost2010PropOp33
 70
     1
102
RTVSPost2010Prop34
280
     0
102
RTVSPost2010PropOp34
 70
     1
102
RTVSPost2010Prop35
280
     0
102
RTVSPost2010PropOp35
 70
     1
102
RTVSPost2010Prop36
280
     0
102
RTVSPost2010PropOp36
 70
     1
102
RTVSPost2010Prop37
 90
       50
102
RTVSPost2010PropOp37
 70
     1
102
RTVSPost2010Prop38
140
0.0
102
RTVSPost2010PropOp38
 70
     1
102
RTVSPost2010Prop39
140
1.0
102
RTVSPost2010PropOp39
 70
     1
102
RTVSPost2010Prop40
 90
        0
102
RTVSPost2010PropOp40
 70
     1
102
RTVSPost2010Prop41ColorIndex
 90
       18
102
RTVSPost2010Prop41ColorRGB
 90
        0
102
RTVSPost2010PropOp41
 70
     1
102
RTVSPost2010Prop42
 90
       50
102
RTVSPost2010PropOp42
 70
     1
102
RTVSPost2010Prop43
 90
        3
102
RTVSPost2010PropOp43
 70
     1
102
RTVSPost2010Prop44ColorIndex
 90
        5
102
RTVSPost2010Prop44ColorRGB
 90
      255
102
RTVSPost2010PropOp44
 70
     1
102
RTVSPost2010Prop45
280
     0
102
RTVSPost2010PropOp45
 70
     1
102
RTVSPost2010Prop46
 90
       50
102
RTVSPost2010PropOp46
 70
     1
102
RTVSPost2010Prop47
 90
       50
102
RTVSPost2010PropOp47
 70
     1
102
RTVSPost2010Prop48
 90
       50
102
RTVSPost2010PropOp48
 70
     1
102
RTVSPost2010Prop49
280
     0
102
RTVSPost2010PropOp49
 70
     1
102
RTVSPost2010Prop50
 90
       50
102
RTVSPost2010PropOp50
 70
     1
102
RTVSPost2010Prop51ColorIndex
 90
      256
102
RTVSPost2010Prop51ColorRGB
 90
-16777216
102
RTVSPost2010PropOp51
 70
     0
102
RTVSPost2010Prop52
140
1.0
102
RTVSPost2010PropOp52
 70
     0
102
RTVSPost2010Prop53
 90
        2
102
RTVSPost2010PropOp53
 70
     1
102
RTVSPost2010Prop54
  1
strokes_ogs.tif
102
RTVSPost2010PropOp54
 70
     1
102
RTVSPost2010Prop55
280
     0
102
RTVSPost2010PropOp55
 70
     1
102
RTVSPost2010Prop56
140
1.0
102
RTVSPost2010PropOp56
 70
     1
102
RTVSPost2010Prop57
140
1.0
102
RTVSPost2010PropOp57
 70
     1
  0
XRECORD
  5
138A
102
{ACAD_REACTORS
330
1389
102
}
330
1389
100
AcDbXrecord
280
     1
102
RTVSPropertyOp0
 70
     1
102
RTVSPropertyOp1
 70
     1
102
RTVSPropertyOp2
 70
     1
102
RTVSPropertyOp3
 70
     1
102
RTVSPropertyOp4
 70
     1
102
RTVSPropertyOp5
 70
     1
102
RTVSPropertyOp6
 70
     1
102
RTVSPropertyOp7
 70
     1
102
RTVSPropertyOp8
 70
     1
102
RTVSPropertyOp9
 70
     1
102
RTVSPropertyOp10
 70
     1
102
RTVSPropertyOp11
 70
     1
102
RTVSPropertyOp12
 70
     1
102
RTVSPropertyOp13
 70
     1
102
RTVSPropertyOp14
 70
     1
102
RTVSPropertyOp15
 70
     1
102
RTVSPropertyOp16
 70
     1
102
RTVSPropertyOp17
 70
     1
102
RTVSPropertyOp18
 70
     1
102
RTVSPropertyOp19
 70
     1
102
RTVSPropertyOp20
 70
     1
102
RTVSPropertyOp21
 70
     1
102
RTVSPropertyOp22
 70
     1
102
RTVSPropertyOp23
 70
     1
102
RTVSPropertyOp24
 70
     1
102
RTVSPropertyOp25
 70
     1
102
RTVSPropertyOp26
 70
     1
102
RTVSPropertyOp27
 70
     1
102
RTVSPropertyOp28
 70
     1
102
RTVSPropertyOp29
 70
     1
102
RTVSPropertyOp30
 70
     1
102
RTVSPropertyOp31
 70
     1
102
RTVSPropertyOp32
 70
     1
102
RTVSPropertyOp33
 70
     1
102
RTVSPropertyOp34
 70
     1
102
RTVSPropertyOp35
 70
     1
102
RTVSPropertyOp36
 70
     1
102
RTVSPropertyOp37
 70
     1
102
RTVSPropertyOp38
 70
     1
102
RTVSPropertyOp39
 70
     1
102
RTVSPropertyOp40
 70
     1
102
RTVSPropertyOp41
 70
     1
102
RTVSPropertyOp42
 70
     1
102
RTVSPropertyOp43
 70
     1
102
RTVSPropertyOp44
 70
     1
102
RTVSPropertyOp45
 70
     1
102
RTVSPropertyOp46
 70
     1
102
RTVSPropertyOp47
 70
     1
102
RTVSPropertyOp48
 70
     1
102
RTVSPropertyOp49
 70
     1
102
RTVSPropertyOp50
 70
     1
102
RTVSPropertyOp51
 70
     0
102
RTVSPropertyOp52
 70
     0
102
RTVSPropertyOp53
 70
     1
102
RTVSPropertyOp54
 70
     1
102
RTVSPropertyOp55
 70
     1
102
RTVSPropertyOp56
 70
     1
102
RTVSPropertyOp57
 70
     1
102
RTVSPost2010Prop28
280
     0
102
RTVSPost2010PropOp28
 70
     1
102
RTVSPost2010Prop29
280
     1
102
RTVSPost2010PropOp29
 70
     1
102
RTVSPost2010Prop30
280
     1
102
RTVSPost2010PropOp30
 70
     1
102
RTVSPost2010Prop31
280
     0
102
RTVSPost2010PropOp31
 70
     1
102
RTVSPost2010Prop32
280
     0
102
RTVSPost2010PropOp32
 70
     1
102
RTVSPost2010Prop33
280
     0
102
RTVSPost2010PropOp33
 70
     1
102
RTVSPost2010Prop34
280
     0
102
RTVSPost2010PropOp34
 70
     1
102
RTVSPost2010Prop35
280
     0
102
RTVSPost2010PropOp35
 70
     1
102
RTVSPost2010Prop36
280
     0
102
RTVSPost2010PropOp36
 70
     1
102
RTVSPost2010Prop37
 90
       50
102
RTVSPost2010PropOp37
 70
     1
102
RTVSPost2010Prop38
140
0.0
102
RTVSPost2010PropOp38
 70
     1
102
RTVSPost2010Prop39
140
1.0
102
RTVSPost2010PropOp39
 70
     1
102
RTVSPost2010Prop40
 90
        0
102
RTVSPost2010PropOp40
 70
     1
102
RTVSPost2010Prop41ColorIndex
 90
       18
102
RTVSPost2010Prop41ColorRGB
 90
        0
102
RTVSPost2010PropOp41
 70
     1
102
RTVSPost2010Prop42
 90
       50
102
RTVSPost2010PropOp42
 70
     1
102
RTVSPost2010Prop43
 90
        3
102
RTVSPost2010PropOp43
 70
     1
102
RTVSPost2010Prop44ColorIndex
 90
        5
102
RTVSPost2010Prop44ColorRGB
 90
      255
102
RTVSPost2010PropOp44
 70
     1
102
RTVSPost2010Prop45
280
     0
102
RTVSPost2010PropOp45
 70
     1
102
RTVSPost2010Prop46
 90
       50
102
RTVSPost2010PropOp46
 70
     1
102
RTVSPost2010Prop47
 90
       50
102
RTVSPost2010PropOp47
 70
     1
102
RTVSPost2010Prop48
 90
       50
102
RTVSPost2010PropOp48
 70
     1
102
RTVSPost2010Prop49
280
     0
102
RTVSPost2010PropOp49
 70
     1
102
RTVSPost2010Prop50
 90
       50
102
RTVSPost2010PropOp50
 70
     1
102
RTVSPost2010Prop51ColorIndex
 90
      256
102
RTVSPost2010Prop51ColorRGB
 90
-16777216
102
RTVSPost2010PropOp51
 70
     0
102
RTVSPost2010Prop52
140
1.0
102
RTVSPost2010PropOp52
 70
     0
102
RTVSPost2010Prop53
 90
        2
102
RTVSPost2010PropOp53
 70
     1
102
RTVSPost2010Prop54
  1
strokes_ogs.tif
102
RTVSPost2010PropOp54
 70
     1
102
RTVSPost2010Prop55
280
     0
102
RTVSPost2010PropOp55
 70
     1
102
RTVSPost2010Prop56
140
1.0
102
RTVSPost2010PropOp56
 70
     1
102
RTVSPost2010Prop57
140
1.0
102
RTVSPost2010PropOp57
 70
     1
  0
XRECORD
  5
1388
102
{ACAD_REACTORS
330
1387
102
}
330
1387
100
AcDbXrecord
280
     1
102
RTVSPropertyOp0
 70
     1
102
RTVSPropertyOp1
 70
     1
102
RTVSPropertyOp2
 70
     1
102
RTVSPropertyOp3
 70
     1
102
RTVSPropertyOp4
 70
     1
102
RTVSPropertyOp5
 70
     1
102
RTVSPropertyOp6
 70
     1
102
RTVSPropertyOp7
 70
     1
102
RTVSPropertyOp8
 70
     1
102
RTVSPropertyOp9
 70
     1
102
RTVSPropertyOp10
 70
     1
102
RTVSPropertyOp11
 70
     1
102
RTVSPropertyOp12
 70
     1
102
RTVSPropertyOp13
 70
     1
102
RTVSPropertyOp14
 70
     1
102
RTVSPropertyOp15
 70
     1
102
RTVSPropertyOp16
 70
     1
102
RTVSPropertyOp17
 70
     1
102
RTVSPropertyOp18
 70
     1
102
RTVSPropertyOp19
 70
     1
102
RTVSPropertyOp20
 70
     1
102
RTVSPropertyOp21
 70
     1
102
RTVSPropertyOp22
 70
     1
102
RTVSPropertyOp23
 70
     1
102
RTVSPropertyOp24
 70
     1
102
RTVSPropertyOp25
 70
     1
102
RTVSPropertyOp26
 70
     1
102
RTVSPropertyOp27
 70
     1
102
RTVSPropertyOp28
 70
     1
102
RTVSPropertyOp29
 70
     1
102
RTVSPropertyOp30
 70
     1
102
RTVSPropertyOp31
 70
     1
102
RTVSPropertyOp32
 70
     1
102
RTVSPropertyOp33
 70
     1
102
RTVSPropertyOp34
 70
     1
102
RTVSPropertyOp35
 70
     1
102
RTVSPropertyOp36
 70
     1
102
RTVSPropertyOp37
 70
     1
102
RTVSPropertyOp38
 70
     1
102
RTVSPropertyOp39
 70
     1
102
RTVSPropertyOp40
 70
     1
102
RTVSPropertyOp41
 70
     1
102
RTVSPropertyOp42
 70
     1
102
RTVSPropertyOp43
 70
     1
102
RTVSPropertyOp44
 70
     1
102
RTVSPropertyOp45
 70
     1
102
RTVSPropertyOp46
 70
     1
102
RTVSPropertyOp47
 70
     1
102
RTVSPropertyOp48
 70
     1
102
RTVSPropertyOp49
 70
     1
102
RTVSPropertyOp50
 70
     1
102
RTVSPropertyOp51
 70
     0
102
RTVSPropertyOp52
 70
     0
102
RTVSPropertyOp53
 70
     1
102
RTVSPropertyOp54
 70
     1
102
RTVSPropertyOp55
 70
     1
102
RTVSPropertyOp56
 70
     1
102
RTVSPropertyOp57
 70
     1
102
RTVSPost2010Prop28
280
     0
102
RTVSPost2010PropOp28
 70
     1
102
RTVSPost2010Prop29
280
     1
102
RTVSPost2010PropOp29
 70
     1
102
RTVSPost2010Prop30
280
     1
102
RTVSPost2010PropOp30
 70
     1
102
RTVSPost2010Prop31
280
     0
102
RTVSPost2010PropOp31
 70
     1
102
RTVSPost2010Prop32
280
     0
102
RTVSPost2010PropOp32
 70
     1
102
RTVSPost2010Prop33
280
     0
102
RTVSPost2010PropOp33
 70
     1
102
RTVSPost2010Prop34
280
     0
102
RTVSPost2010PropOp34
 70
     1
102
RTVSPost2010Prop35
280
     0
102
RTVSPost2010PropOp35
 70
     1
102
RTVSPost2010Prop36
280
     0
102
RTVSPost2010PropOp36
 70
     1
102
RTVSPost2010Prop37
 90
       50
102
RTVSPost2010PropOp37
 70
     1
102
RTVSPost2010Prop38
140
0.0
102
RTVSPost2010PropOp38
 70
     1
102
RTVSPost2010Prop39
140
1.0
102
RTVSPost2010PropOp39
 70
     1
102
RTVSPost2010Prop40
 90
        0
102
RTVSPost2010PropOp40
 70
     1
102
RTVSPost2010Prop41ColorIndex
 90
       18
102
RTVSPost2010Prop41ColorRGB
 90
        0
102
RTVSPost2010PropOp41
 70
     1
102
RTVSPost2010Prop42
 90
       50
102
RTVSPost2010PropOp42
 70
     1
102
RTVSPost2010Prop43
 90
        3
102
RTVSPost2010PropOp43
 70
     1
102
RTVSPost2010Prop44ColorIndex
 90
        5
102
RTVSPost2010Prop44ColorRGB
 90
      255
102
RTVSPost2010PropOp44
 70
     1
102
RTVSPost2010Prop45
280
     0
102
RTVSPost2010PropOp45
 70
     1
102
RTVSPost2010Prop46
 90
       50
102
RTVSPost2010PropOp46
 70
     1
102
RTVSPost2010Prop47
 90
       50
102
RTVSPost2010PropOp47
 70
     1
102
RTVSPost2010Prop48
 90
       50
102
RTVSPost2010PropOp48
 70
     1
102
RTVSPost2010Prop49
280
     0
102
RTVSPost2010PropOp49
 70
     1
102
RTVSPost2010Prop50
 90
       50
102
RTVSPost2010PropOp50
 70
     1
102
RTVSPost2010Prop51ColorIndex
 90
      256
102
RTVSPost2010Prop51ColorRGB
 90
-16777216
102
RTVSPost2010PropOp51
 70
     0
102
RTVSPost2010Prop52
140
1.0
102
RTVSPost2010PropOp52
 70
     0
102
RTVSPost2010Prop53
 90
        2
102
RTVSPost2010PropOp53
 70
     1
102
RTVSPost2010Prop54
  1
strokes_ogs.tif
102
RTVSPost2010PropOp54
 70
     1
102
RTVSPost2010Prop55
280
     0
102
RTVSPost2010PropOp55
 70
     1
102
RTVSPost2010Prop56
140
1.0
102
RTVSPost2010PropOp56
 70
     1
102
RTVSPost2010Prop57
140
1.0
102
RTVSPost2010PropOp57
 70
     1
  0
XRECORD
  5
1382
102
{ACAD_REACTORS
330
1381
102
}
330
1381
100
AcDbXrecord
280
     1
102
RTVSPropertyOp0
 70
     1
102
RTVSPropertyOp1
 70
     1
102
RTVSPropertyOp2
 70
     1
102
RTVSPropertyOp3
 70
     1
102
RTVSPropertyOp4
 70
     1
102
RTVSPropertyOp5
 70
     1
102
RTVSPropertyOp6
 70
     1
102
RTVSPropertyOp7
 70
     1
102
RTVSPropertyOp8
 70
     1
102
RTVSPropertyOp9
 70
     1
102
RTVSPropertyOp10
 70
     1
102
RTVSPropertyOp11
 70
     1
102
RTVSPropertyOp12
 70
     1
102
RTVSPropertyOp13
 70
     1
102
RTVSPropertyOp14
 70
     1
102
RTVSPropertyOp15
 70
     1
102
RTVSPropertyOp16
 70
     1
102
RTVSPropertyOp17
 70
     1
102
RTVSPropertyOp18
 70
     1
102
RTVSPropertyOp19
 70
     1
102
RTVSPropertyOp20
 70
     1
102
RTVSPropertyOp21
 70
     1
102
RTVSPropertyOp22
 70
     1
102
RTVSPropertyOp23
 70
     1
102
RTVSPropertyOp24
 70
     1
102
RTVSPropertyOp25
 70
     1
102
RTVSPropertyOp26
 70
     1
102
RTVSPropertyOp27
 70
     1
102
RTVSPropertyOp28
 70
     1
102
RTVSPropertyOp29
 70
     1
102
RTVSPropertyOp30
 70
     1
102
RTVSPropertyOp31
 70
     1
102
RTVSPropertyOp32
 70
     1
102
RTVSPropertyOp33
 70
     1
102
RTVSPropertyOp34
 70
     1
102
RTVSPropertyOp35
 70
     1
102
RTVSPropertyOp36
 70
     1
102
RTVSPropertyOp37
 70
     1
102
RTVSPropertyOp38
 70
     1
102
RTVSPropertyOp39
 70
     1
102
RTVSPropertyOp40
 70
     1
102
RTVSPropertyOp41
 70
     1
102
RTVSPropertyOp42
 70
     1
102
RTVSPropertyOp43
 70
     1
102
RTVSPropertyOp44
 70
     1
102
RTVSPropertyOp45
 70
     1
102
RTVSPropertyOp46
 70
     1
102
RTVSPropertyOp47
 70
     1
102
RTVSPropertyOp48
 70
     1
102
RTVSPropertyOp49
 70
     1
102
RTVSPropertyOp50
 70
     1
102
RTVSPropertyOp51
 70
     0
102
RTVSPropertyOp52
 70
     0
102
RTVSPropertyOp53
 70
     1
102
RTVSPropertyOp54
 70
     1
102
RTVSPropertyOp55
 70
     1
102
RTVSPropertyOp56
 70
     1
102
RTVSPropertyOp57
 70
     1
102
RTVSPost2010Prop28
280
     0
102
RTVSPost2010PropOp28
 70
     1
102
RTVSPost2010Prop29
280
     1
102
RTVSPost2010PropOp29
 70
     1
102
RTVSPost2010Prop30
280
     1
102
RTVSPost2010PropOp30
 70
     1
102
RTVSPost2010Prop31
280
     0
102
RTVSPost2010PropOp31
 70
     1
102
RTVSPost2010Prop32
280
     0
102
RTVSPost2010PropOp32
 70
     1
102
RTVSPost2010Prop33
280
     0
102
RTVSPost2010PropOp33
 70
     1
102
RTVSPost2010Prop34
280
     0
102
RTVSPost2010PropOp34
 70
     1
102
RTVSPost2010Prop35
280
     0
102
RTVSPost2010PropOp35
 70
     1
102
RTVSPost2010Prop36
280
     0
102
RTVSPost2010PropOp36
 70
     1
102
RTVSPost2010Prop37
 90
       50
102
RTVSPost2010PropOp37
 70
     1
102
RTVSPost2010Prop38
140
0.0
102
RTVSPost2010PropOp38
 70
     1
102
RTVSPost2010Prop39
140
1.0
102
RTVSPost2010PropOp39
 70
     1
102
RTVSPost2010Prop40
 90
        0
102
RTVSPost2010PropOp40
 70
     1
102
RTVSPost2010Prop41ColorIndex
 90
       18
102
RTVSPost2010Prop41ColorRGB
 90
        0
102
RTVSPost2010PropOp41
 70
     1
102
RTVSPost2010Prop42
 90
       50
102
RTVSPost2010PropOp42
 70
     1
102
RTVSPost2010Prop43
 90
        3
102
RTVSPost2010PropOp43
 70
     1
102
RTVSPost2010Prop44ColorIndex
 90
        5
102
RTVSPost2010Prop44ColorRGB
 90
      255
102
RTVSPost2010PropOp44
 70
     1
102
RTVSPost2010Prop45
280
     0
102
RTVSPost2010PropOp45
 70
     1
102
RTVSPost2010Prop46
 90
       50
102
RTVSPost2010PropOp46
 70
     1
102
RTVSPost2010Prop47
 90
       50
102
RTVSPost2010PropOp47
 70
     1
102
RTVSPost2010Prop48
 90
       50
102
RTVSPost2010PropOp48
 70
     1
102
RTVSPost2010Prop49
280
     0
102
RTVSPost2010PropOp49
 70
     1
102
RTVSPost2010Prop50
 90
       50
102
RTVSPost2010PropOp50
 70
     1
102
RTVSPost2010Prop51ColorIndex
 90
      256
102
RTVSPost2010Prop51ColorRGB
 90
-16777216
102
RTVSPost2010PropOp51
 70
     0
102
RTVSPost2010Prop52
140
1.0
102
RTVSPost2010PropOp52
 70
     0
102
RTVSPost2010Prop53
 90
        2
102
RTVSPost2010PropOp53
 70
     1
102
RTVSPost2010Prop54
  1
strokes_ogs.tif
102
RTVSPost2010PropOp54
 70
     1
102
RTVSPost2010Prop55
280
     0
102
RTVSPost2010PropOp55
 70
     1
102
RTVSPost2010Prop56
140
1.0
102
RTVSPost2010PropOp56
 70
     1
102
RTVSPost2010Prop57
140
1.0
102
RTVSPost2010PropOp57
 70
     1
  0
XRECORD
  5
1384
102
{ACAD_REACTORS
330
1383
102
}
330
1383
100
AcDbXrecord
280
     1
102
RTVSPropertyOp0
 70
     1
102
RTVSPropertyOp1
 70
     1
102
RTVSPropertyOp2
 70
     1
102
RTVSPropertyOp3
 70
     1
102
RTVSPropertyOp4
 70
     1
102
RTVSPropertyOp5
 70
     1
102
RTVSPropertyOp6
 70
     1
102
RTVSPropertyOp7
 70
     1
102
RTVSPropertyOp8
 70
     1
102
RTVSPropertyOp9
 70
     1
102
RTVSPropertyOp10
 70
     1
102
RTVSPropertyOp11
 70
     1
102
RTVSPropertyOp12
 70
     1
102
RTVSPropertyOp13
 70
     1
102
RTVSPropertyOp14
 70
     1
102
RTVSPropertyOp15
 70
     1
102
RTVSPropertyOp16
 70
     1
102
RTVSPropertyOp17
 70
     1
102
RTVSPropertyOp18
 70
     1
102
RTVSPropertyOp19
 70
     1
102
RTVSPropertyOp20
 70
     1
102
RTVSPropertyOp21
 70
     1
102
RTVSPropertyOp22
 70
     1
102
RTVSPropertyOp23
 70
     1
102
RTVSPropertyOp24
 70
     1
102
RTVSPropertyOp25
 70
     1
102
RTVSPropertyOp26
 70
     1
102
RTVSPropertyOp27
 70
     1
102
RTVSPropertyOp28
 70
     1
102
RTVSPropertyOp29
 70
     1
102
RTVSPropertyOp30
 70
     1
102
RTVSPropertyOp31
 70
     1
102
RTVSPropertyOp32
 70
     1
102
RTVSPropertyOp33
 70
     1
102
RTVSPropertyOp34
 70
     1
102
RTVSPropertyOp35
 70
     1
102
RTVSPropertyOp36
 70
     1
102
RTVSPropertyOp37
 70
     1
102
RTVSPropertyOp38
 70
     1
102
RTVSPropertyOp39
 70
     1
102
RTVSPropertyOp40
 70
     1
102
RTVSPropertyOp41
 70
     1
102
RTVSPropertyOp42
 70
     1
102
RTVSPropertyOp43
 70
     1
102
RTVSPropertyOp44
 70
     1
102
RTVSPropertyOp45
 70
     1
102
RTVSPropertyOp46
 70
     1
102
RTVSPropertyOp47
 70
     1
102
RTVSPropertyOp48
 70
     1
102
RTVSPropertyOp49
 70
     1
102
RTVSPropertyOp50
 70
     1
102
RTVSPropertyOp51
 70
     0
102
RTVSPropertyOp52
 70
     0
102
RTVSPropertyOp53
 70
     1
102
RTVSPropertyOp54
 70
     1
102
RTVSPropertyOp55
 70
     1
102
RTVSPropertyOp56
 70
     1
102
RTVSPropertyOp57
 70
     1
102
RTVSPost2010Prop28
280
     0
102
RTVSPost2010PropOp28
 70
     1
102
RTVSPost2010Prop29
280
     1
102
RTVSPost2010PropOp29
 70
     1
102
RTVSPost2010Prop30
280
     1
102
RTVSPost2010PropOp30
 70
     1
102
RTVSPost2010Prop31
280
     0
102
RTVSPost2010PropOp31
 70
     1
102
RTVSPost2010Prop32
280
     0
102
RTVSPost2010PropOp32
 70
     1
102
RTVSPost2010Prop33
280
     0
102
RTVSPost2010PropOp33
 70
     1
102
RTVSPost2010Prop34
280
     0
102
RTVSPost2010PropOp34
 70
     1
102
RTVSPost2010Prop35
280
     0
102
RTVSPost2010PropOp35
 70
     1
102
RTVSPost2010Prop36
280
     0
102
RTVSPost2010PropOp36
 70
     1
102
RTVSPost2010Prop37
 90
       50
102
RTVSPost2010PropOp37
 70
     1
102
RTVSPost2010Prop38
140
0.0
102
RTVSPost2010PropOp38
 70
     1
102
RTVSPost2010Prop39
140
1.0
102
RTVSPost2010PropOp39
 70
     1
102
RTVSPost2010Prop40
 90
        0
102
RTVSPost2010PropOp40
 70
     1
102
RTVSPost2010Prop41ColorIndex
 90
       18
102
RTVSPost2010Prop41ColorRGB
 90
        0
102
RTVSPost2010PropOp41
 70
     1
102
RTVSPost2010Prop42
 90
       50
102
RTVSPost2010PropOp42
 70
     1
102
RTVSPost2010Prop43
 90
        3
102
RTVSPost2010PropOp43
 70
     1
102
RTVSPost2010Prop44ColorIndex
 90
        5
102
RTVSPost2010Prop44ColorRGB
 90
      255
102
RTVSPost2010PropOp44
 70
     1
102
RTVSPost2010Prop45
280
     0
102
RTVSPost2010PropOp45
 70
     1
102
RTVSPost2010Prop46
 90
       50
102
RTVSPost2010PropOp46
 70
     1
102
RTVSPost2010Prop47
 90
       50
102
RTVSPost2010PropOp47
 70
     1
102
RTVSPost2010Prop48
 90
       50
102
RTVSPost2010PropOp48
 70
     1
102
RTVSPost2010Prop49
280
     0
102
RTVSPost2010PropOp49
 70
     1
102
RTVSPost2010Prop50
 90
       50
102
RTVSPost2010PropOp50
 70
     1
102
RTVSPost2010Prop51ColorIndex
 90
      256
102
RTVSPost2010Prop51ColorRGB
 90
-16777216
102
RTVSPost2010PropOp51
 70
     0
102
RTVSPost2010Prop52
140
1.0
102
RTVSPost2010PropOp52
 70
     0
102
RTVSPost2010Prop53
 90
        2
102
RTVSPost2010PropOp53
 70
     1
102
RTVSPost2010Prop54
  1
strokes_ogs.tif
102
RTVSPost2010PropOp54
 70
     1
102
RTVSPost2010Prop55
280
     0
102
RTVSPost2010PropOp55
 70
     1
102
RTVSPost2010Prop56
140
1.0
102
RTVSPost2010PropOp56
 70
     1
102
RTVSPost2010Prop57
140
1.0
102
RTVSPost2010PropOp57
 70
     1
  0
XRECORD
  5
1374
102
{ACAD_REACTORS
330
1373
102
}
330
1373
100
AcDbXrecord
280
     1
102
RTVSPropertyOp0
 70
     1
102
RTVSPropertyOp1
 70
     1
102
RTVSPropertyOp2
 70
     1
102
RTVSPropertyOp3
 70
     1
102
RTVSPropertyOp4
 70
     1
102
RTVSPropertyOp5
 70
     1
102
RTVSPropertyOp6
 70
     1
102
RTVSPropertyOp7
 70
     1
102
RTVSPropertyOp8
 70
     1
102
RTVSPropertyOp9
 70
     1
102
RTVSPropertyOp10
 70
     1
102
RTVSPropertyOp11
 70
     1
102
RTVSPropertyOp12
 70
     1
102
RTVSPropertyOp13
 70
     1
102
RTVSPropertyOp14
 70
     1
102
RTVSPropertyOp15
 70
     1
102
RTVSPropertyOp16
 70
     1
102
RTVSPropertyOp17
 70
     1
102
RTVSPropertyOp18
 70
     1
102
RTVSPropertyOp19
 70
     1
102
RTVSPropertyOp20
 70
     1
102
RTVSPropertyOp21
 70
     1
102
RTVSPropertyOp22
 70
     1
102
RTVSPropertyOp23
 70
     1
102
RTVSPropertyOp24
 70
     1
102
RTVSPropertyOp25
 70
     1
102
RTVSPropertyOp26
 70
     1
102
RTVSPropertyOp27
 70
     1
102
RTVSPropertyOp28
 70
     1
102
RTVSPropertyOp29
 70
     1
102
RTVSPropertyOp30
 70
     1
102
RTVSPropertyOp31
 70
     1
102
RTVSPropertyOp32
 70
     1
102
RTVSPropertyOp33
 70
     1
102
RTVSPropertyOp34
 70
     1
102
RTVSPropertyOp35
 70
     1
102
RTVSPropertyOp36
 70
     1
102
RTVSPropertyOp37
 70
     1
102
RTVSPropertyOp38
 70
     1
102
RTVSPropertyOp39
 70
     1
102
RTVSPropertyOp40
 70
     1
102
RTVSPropertyOp41
 70
     1
102
RTVSPropertyOp42
 70
     1
102
RTVSPropertyOp43
 70
     1
102
RTVSPropertyOp44
 70
     1
102
RTVSPropertyOp45
 70
     1
102
RTVSPropertyOp46
 70
     1
102
RTVSPropertyOp47
 70
     1
102
RTVSPropertyOp48
 70
     1
102
RTVSPropertyOp49
 70
     1
102
RTVSPropertyOp50
 70
     1
102
RTVSPropertyOp51
 70
     0
102
RTVSPropertyOp52
 70
     0
102
RTVSPropertyOp53
 70
     1
102
RTVSPropertyOp54
 70
     1
102
RTVSPropertyOp55
 70
     1
102
RTVSPropertyOp56
 70
     1
102
RTVSPropertyOp57
 70
     1
102
RTVSPost2010Prop28
280
     0
102
RTVSPost2010PropOp28
 70
     1
102
RTVSPost2010Prop29
280
     1
102
RTVSPost2010PropOp29
 70
     1
102
RTVSPost2010Prop30
280
     1
102
RTVSPost2010PropOp30
 70
     1
102
RTVSPost2010Prop31
280
     0
102
RTVSPost2010PropOp31
 70
     1
102
RTVSPost2010Prop32
280
     0
102
RTVSPost2010PropOp32
 70
     1
102
RTVSPost2010Prop33
280
     0
102
RTVSPost2010PropOp33
 70
     1
102
RTVSPost2010Prop34
280
     0
102
RTVSPost2010PropOp34
 70
     1
102
RTVSPost2010Prop35
280
     0
102
RTVSPost2010PropOp35
 70
     1
102
RTVSPost2010Prop36
280
     0
102
RTVSPost2010PropOp36
 70
     1
102
RTVSPost2010Prop37
 90
       50
102
RTVSPost2010PropOp37
 70
     1
102
RTVSPost2010Prop38
140
0.0
102
RTVSPost2010PropOp38
 70
     1
102
RTVSPost2010Prop39
140
1.0
102
RTVSPost2010PropOp39
 70
     1
102
RTVSPost2010Prop40
 90
        0
102
RTVSPost2010PropOp40
 70
     1
102
RTVSPost2010Prop41ColorIndex
 90
       18
102
RTVSPost2010Prop41ColorRGB
 90
        0
102
RTVSPost2010PropOp41
 70
     1
102
RTVSPost2010Prop42
 90
       50
102
RTVSPost2010PropOp42
 70
     1
102
RTVSPost2010Prop43
 90
        3
102
RTVSPost2010PropOp43
 70
     1
102
RTVSPost2010Prop44ColorIndex
 90
        5
102
RTVSPost2010Prop44ColorRGB
 90
      255
102
RTVSPost2010PropOp44
 70
     1
102
RTVSPost2010Prop45
280
     0
102
RTVSPost2010PropOp45
 70
     1
102
RTVSPost2010Prop46
 90
       50
102
RTVSPost2010PropOp46
 70
     1
102
RTVSPost2010Prop47
 90
       50
102
RTVSPost2010PropOp47
 70
     1
102
RTVSPost2010Prop48
 90
       50
102
RTVSPost2010PropOp48
 70
     1
102
RTVSPost2010Prop49
280
     0
102
RTVSPost2010PropOp49
 70
     1
102
RTVSPost2010Prop50
 90
       50
102
RTVSPost2010PropOp50
 70
     1
102
RTVSPost2010Prop51ColorIndex
 90
      256
102
RTVSPost2010Prop51ColorRGB
 90
-16777216
102
RTVSPost2010PropOp51
 70
     0
102
RTVSPost2010Prop52
140
1.0
102
RTVSPost2010PropOp52
 70
     0
102
RTVSPost2010Prop53
 90
        2
102
RTVSPost2010PropOp53
 70
     1
102
RTVSPost2010Prop54
  1
strokes_ogs.tif
102
RTVSPost2010PropOp54
 70
     1
102
RTVSPost2010Prop55
280
     0
102
RTVSPost2010PropOp55
 70
     1
102
RTVSPost2010Prop56
140
1.0
102
RTVSPost2010PropOp56
 70
     1
102
RTVSPost2010Prop57
140
1.0
102
RTVSPost2010PropOp57
 70
     1
  0
XRECORD
  5
1366
102
{ACAD_REACTORS
330
1365
102
}
330
1365
100
AcDbXrecord
280
     1
102
RTVSPropertyOp0
 70
     1
102
RTVSPropertyOp1
 70
     1
102
RTVSPropertyOp2
 70
     1
102
RTVSPropertyOp3
 70
     1
102
RTVSPropertyOp4
 70
     1
102
RTVSPropertyOp5
 70
     1
102
RTVSPropertyOp6
 70
     1
102
RTVSPropertyOp7
 70
     1
102
RTVSPropertyOp8
 70
     1
102
RTVSPropertyOp9
 70
     1
102
RTVSPropertyOp10
 70
     1
102
RTVSPropertyOp11
 70
     1
102
RTVSPropertyOp12
 70
     1
102
RTVSPropertyOp13
 70
     1
102
RTVSPropertyOp14
 70
     1
102
RTVSPropertyOp15
 70
     1
102
RTVSPropertyOp16
 70
     1
102
RTVSPropertyOp17
 70
     1
102
RTVSPropertyOp18
 70
     1
102
RTVSPropertyOp19
 70
     1
102
RTVSPropertyOp20
 70
     1
102
RTVSPropertyOp21
 70
     1
102
RTVSPropertyOp22
 70
     1
102
RTVSPropertyOp23
 70
     1
102
RTVSPropertyOp24
 70
     1
102
RTVSPropertyOp25
 70
     1
102
RTVSPropertyOp26
 70
     1
102
RTVSPropertyOp27
 70
     1
102
RTVSPropertyOp28
 70
     1
102
RTVSPropertyOp29
 70
     1
102
RTVSPropertyOp30
 70
     1
102
RTVSPropertyOp31
 70
     1
102
RTVSPropertyOp32
 70
     1
102
RTVSPropertyOp33
 70
     1
102
RTVSPropertyOp34
 70
     1
102
RTVSPropertyOp35
 70
     1
102
RTVSPropertyOp36
 70
     1
102
RTVSPropertyOp37
 70
     1
102
RTVSPropertyOp38
 70
     1
102
RTVSPropertyOp39
 70
     1
102
RTVSPropertyOp40
 70
     1
102
RTVSPropertyOp41
 70
     1
102
RTVSPropertyOp42
 70
     1
102
RTVSPropertyOp43
 70
     1
102
RTVSPropertyOp44
 70
     1
102
RTVSPropertyOp45
 70
     1
102
RTVSPropertyOp46
 70
     1
102
RTVSPropertyOp47
 70
     1
102
RTVSPropertyOp48
 70
     1
102
RTVSPropertyOp49
 70
     1
102
RTVSPropertyOp50
 70
     1
102
RTVSPropertyOp51
 70
     0
102
RTVSPropertyOp52
 70
     0
102
RTVSPropertyOp53
 70
     1
102
RTVSPropertyOp54
 70
     1
102
RTVSPropertyOp55
 70
     1
102
RTVSPropertyOp56
 70
     1
102
RTVSPropertyOp57
 70
     1
102
RTVSPost2010Prop28
280
     0
102
RTVSPost2010PropOp28
 70
     1
102
RTVSPost2010Prop29
280
     1
102
RTVSPost2010PropOp29
 70
     1
102
RTVSPost2010Prop30
280
     1
102
RTVSPost2010PropOp30
 70
     1
102
RTVSPost2010Prop31
280
     0
102
RTVSPost2010PropOp31
 70
     1
102
RTVSPost2010Prop32
280
     0
102
RTVSPost2010PropOp32
 70
     1
102
RTVSPost2010Prop33
280
     0
102
RTVSPost2010PropOp33
 70
     1
102
RTVSPost2010Prop34
280
     0
102
RTVSPost2010PropOp34
 70
     1
102
RTVSPost2010Prop35
280
     0
102
RTVSPost2010PropOp35
 70
     1
102
RTVSPost2010Prop36
280
     0
102
RTVSPost2010PropOp36
 70
     1
102
RTVSPost2010Prop37
 90
       50
102
RTVSPost2010PropOp37
 70
     1
102
RTVSPost2010Prop38
140
0.0
102
RTVSPost2010PropOp38
 70
     1
102
RTVSPost2010Prop39
140
1.0
102
RTVSPost2010PropOp39
 70
     1
102
RTVSPost2010Prop40
 90
        0
102
RTVSPost2010PropOp40
 70
     1
102
RTVSPost2010Prop41ColorIndex
 90
       18
102
RTVSPost2010Prop41ColorRGB
 90
        0
102
RTVSPost2010PropOp41
 70
     1
102
RTVSPost2010Prop42
 90
       50
102
RTVSPost2010PropOp42
 70
     1
102
RTVSPost2010Prop43
 90
        3
102
RTVSPost2010PropOp43
 70
     1
102
RTVSPost2010Prop44ColorIndex
 90
        5
102
RTVSPost2010Prop44ColorRGB
 90
      255
102
RTVSPost2010PropOp44
 70
     1
102
RTVSPost2010Prop45
280
     0
102
RTVSPost2010PropOp45
 70
     1
102
RTVSPost2010Prop46
 90
       50
102
RTVSPost2010PropOp46
 70
     1
102
RTVSPost2010Prop47
 90
       50
102
RTVSPost2010PropOp47
 70
     1
102
RTVSPost2010Prop48
 90
       50
102
RTVSPost2010PropOp48
 70
     1
102
RTVSPost2010Prop49
280
     0
102
RTVSPost2010PropOp49
 70
     1
102
RTVSPost2010Prop50
 90
       50
102
RTVSPost2010PropOp50
 70
     1
102
RTVSPost2010Prop51ColorIndex
 90
      256
102
RTVSPost2010Prop51ColorRGB
 90
-16777216
102
RTVSPost2010PropOp51
 70
     0
102
RTVSPost2010Prop52
140
1.0
102
RTVSPost2010PropOp52
 70
     0
102
RTVSPost2010Prop53
 90
        2
102
RTVSPost2010PropOp53
 70
     1
102
RTVSPost2010Prop54
  1
strokes_ogs.tif
102
RTVSPost2010PropOp54
 70
     1
102
RTVSPost2010Prop55
280
     0
102
RTVSPost2010PropOp55
 70
     1
102
RTVSPost2010Prop56
140
1.0
102
RTVSPost2010PropOp56
 70
     1
102
RTVSPost2010Prop57
140
1.0
102
RTVSPost2010PropOp57
 70
     1
  0
XRECORD
  5
1386
102
{ACAD_REACTORS
330
1385
102
}
330
1385
100
AcDbXrecord
280
     1
102
RTVSPropertyOp0
 70
     1
102
RTVSPropertyOp1
 70
     1
102
RTVSPropertyOp2
 70
     1
102
RTVSPropertyOp3
 70
     1
102
RTVSPropertyOp4
 70
     1
102
RTVSPropertyOp5
 70
     1
102
RTVSPropertyOp6
 70
     1
102
RTVSPropertyOp7
 70
     1
102
RTVSPropertyOp8
 70
     1
102
RTVSPropertyOp9
 70
     1
102
RTVSPropertyOp10
 70
     1
102
RTVSPropertyOp11
 70
     1
102
RTVSPropertyOp12
 70
     1
102
RTVSPropertyOp13
 70
     1
102
RTVSPropertyOp14
 70
     1
102
RTVSPropertyOp15
 70
     1
102
RTVSPropertyOp16
 70
     1
102
RTVSPropertyOp17
 70
     1
102
RTVSPropertyOp18
 70
     1
102
RTVSPropertyOp19
 70
     1
102
RTVSPropertyOp20
 70
     1
102
RTVSPropertyOp21
 70
     1
102
RTVSPropertyOp22
 70
     1
102
RTVSPropertyOp23
 70
     1
102
RTVSPropertyOp24
 70
     1
102
RTVSPropertyOp25
 70
     1
102
RTVSPropertyOp26
 70
     1
102
RTVSPropertyOp27
 70
     1
102
RTVSPropertyOp28
 70
     1
102
RTVSPropertyOp29
 70
     1
102
RTVSPropertyOp30
 70
     1
102
RTVSPropertyOp31
 70
     1
102
RTVSPropertyOp32
 70
     1
102
RTVSPropertyOp33
 70
     1
102
RTVSPropertyOp34
 70
     1
102
RTVSPropertyOp35
 70
     1
102
RTVSPropertyOp36
 70
     1
102
RTVSPropertyOp37
 70
     1
102
RTVSPropertyOp38
 70
     1
102
RTVSPropertyOp39
 70
     1
102
RTVSPropertyOp40
 70
     1
102
RTVSPropertyOp41
 70
     1
102
RTVSPropertyOp42
 70
     1
102
RTVSPropertyOp43
 70
     1
102
RTVSPropertyOp44
 70
     1
102
RTVSPropertyOp45
 70
     1
102
RTVSPropertyOp46
 70
     1
102
RTVSPropertyOp47
 70
     1
102
RTVSPropertyOp48
 70
     1
102
RTVSPropertyOp49
 70
     1
102
RTVSPropertyOp50
 70
     1
102
RTVSPropertyOp51
 70
     0
102
RTVSPropertyOp52
 70
     0
102
RTVSPropertyOp53
 70
     1
102
RTVSPropertyOp54
 70
     1
102
RTVSPropertyOp55
 70
     1
102
RTVSPropertyOp56
 70
     1
102
RTVSPropertyOp57
 70
     1
102
RTVSPost2010Prop28
280
     0
102
RTVSPost2010PropOp28
 70
     1
102
RTVSPost2010Prop29
280
     1
102
RTVSPost2010PropOp29
 70
     1
102
RTVSPost2010Prop30
280
     1
102
RTVSPost2010PropOp30
 70
     1
102
RTVSPost2010Prop31
280
     0
102
RTVSPost2010PropOp31
 70
     1
102
RTVSPost2010Prop32
280
     0
102
RTVSPost2010PropOp32
 70
     1
102
RTVSPost2010Prop33
280
     0
102
RTVSPost2010PropOp33
 70
     1
102
RTVSPost2010Prop34
280
     0
102
RTVSPost2010PropOp34
 70
     1
102
RTVSPost2010Prop35
280
     0
102
RTVSPost2010PropOp35
 70
     1
102
RTVSPost2010Prop36
280
     0
102
RTVSPost2010PropOp36
 70
     1
102
RTVSPost2010Prop37
 90
       50
102
RTVSPost2010PropOp37
 70
     1
102
RTVSPost2010Prop38
140
0.0
102
RTVSPost2010PropOp38
 70
     1
102
RTVSPost2010Prop39
140
1.0
102
RTVSPost2010PropOp39
 70
     1
102
RTVSPost2010Prop40
 90
        0
102
RTVSPost2010PropOp40
 70
     1
102
RTVSPost2010Prop41ColorIndex
 90
       18
102
RTVSPost2010Prop41ColorRGB
 90
        0
102
RTVSPost2010PropOp41
 70
     1
102
RTVSPost2010Prop42
 90
       50
102
RTVSPost2010PropOp42
 70
     1
102
RTVSPost2010Prop43
 90
        3
102
RTVSPost2010PropOp43
 70
     1
102
RTVSPost2010Prop44ColorIndex
 90
        5
102
RTVSPost2010Prop44ColorRGB
 90
      255
102
RTVSPost2010PropOp44
 70
     1
102
RTVSPost2010Prop45
280
     0
102
RTVSPost2010PropOp45
 70
     1
102
RTVSPost2010Prop46
 90
       50
102
RTVSPost2010PropOp46
 70
     1
102
RTVSPost2010Prop47
 90
       50
102
RTVSPost2010PropOp47
 70
     1
102
RTVSPost2010Prop48
 90
       50
102
RTVSPost2010PropOp48
 70
     1
102
RTVSPost2010Prop49
280
     0
102
RTVSPost2010PropOp49
 70
     1
102
RTVSPost2010Prop50
 90
       50
102
RTVSPost2010PropOp50
 70
     1
102
RTVSPost2010Prop51ColorIndex
 90
      256
102
RTVSPost2010Prop51ColorRGB
 90
-16777216
102
RTVSPost2010PropOp51
 70
     0
102
RTVSPost2010Prop52
140
1.0
102
RTVSPost2010PropOp52
 70
     0
102
RTVSPost2010Prop53
 90
        2
102
RTVSPost2010PropOp53
 70
     1
102
RTVSPost2010Prop54
  1
strokes_ogs.tif
102
RTVSPost2010PropOp54
 70
     1
102
RTVSPost2010Prop55
280
     0
102
RTVSPost2010PropOp55
 70
     1
102
RTVSPost2010Prop56
140
1.0
102
RTVSPost2010PropOp56
 70
     1
102
RTVSPost2010Prop57
140
1.0
102
RTVSPost2010PropOp57
 70
     1
  0
ENDSEC
  0
SECTION
  2
THUMBNAILIMAGE
 90
    23464
310
28000000800000003D0000000100180000000000805B000000000000000000000000000000000000000000000000000000000000000000000000000000000000000000000000000000000000000000000000000000000000000000000000000000000000000000000000000000000000000000000000000000000000000000
310
00000000000000000000000000000000000000000000000000000000000000000000000000000000000000000000000000000000000000000000000000000000000000000000000000000000000000000000000000000000000000000000000000000000000000000000000000000000000000000000000000000000000000
310
00000000000000000000000000000000000000000000000000000000000000000000000000000000000000000000000000000000000000000000000000000000000000000000000000000000000000000000000000000000000000000000000000000000000000000000000000000000000000000000000000000000000000
310
00000000000000000000000000000000000000000000000000000000000000000000000000000000000000000000000000000000000000000000000000000000000000000000000000000000000000000000000000000000000000000000000000000000000000000000000000000000000000000000000000000000000000
310
00000000000000000000000000000000000000000000000000000000000000000000000000000000000000000000000000000000000000000000000000000000000000000000000000000000000000000000000000000000000000000000000000000000000000000000000000000000000000000000000000000000000000
310
00000000000000000000000000000000000000000000000000000000000000000000000000000000000000000000000000000000000000000000000000000000000000000000000000000000000000000000000000000000000000000000000000000000000000000000000000000000000000000000000000000000000000
310
00000000000000000000000000000000000000000000000000000000000000000000000000000000000000000000000000000000000000000000000000000000000000000000000000000000000000000000000000000000000000000000000000000000000000000000000000000000000000000000000000000000000000
310
000000000000000000000000000000000000FFFFFFFFFFFFFFFFFFFFFFFFFFFFFFFFFFFFFFFFFFFFFFFFFFFFFFFFFFFFFFFFFFFFFFFFFFFFFFFFFFFFFFFFFFFFFFFFFFFFFFFFFFFFFFFFFFFFFFFFFFFFFFFFFFFFFFFFFFFFFFFFFFFFFFFFFFFFFFFFFFFFFFFFFFFFFFFFFFFFFFFFFFFFFFFFFFFFFFFFFFFFFFFFFFFFFFFFFF
310
FFFFFFFFFF0000000000000000000000000000000000000000000000000000000000000000000000000000000000000000000000000000000000000000000000000000000000000000000000000000000000000000000000000000000000000000000000000000000000000000000000000000000000000000000000000000
310
00000000000000000000000000000000000000000000000000000000000000000000000000000000000000000000000000000000000000000000000000000000000000000000000000000000000000000000000000000000000000000000000000000000000000000000000000000000000000000000000000000000000000
310
000000000000000000000000000000000000000000FFFFFF00000000000000000000000000000000000000000000000000000000000000000000000000000000000000000000000000000000000000000000000000000000000000000000000000000000000000000000000000000000000000000000000000000000000000
310
0000000000FFFFFF0000000000000000000000000000000000000000000000000000000000000000000000000000000000000000000000000000000000000000000000000000000000000000000000000000000000000000000000000000000000000000000000000000000000000000000000000000000000000000000000
310
00000000000000000000000000000000000000000000000000000000000000000000000000000000000000000000000000000000000000000000000000000000000000000000000000000000000000000000000000000000000000000000000000000000000000000000000000000000000000000000000000000000000000
310
000000000000000000000000000000000000000000000000FFFFFF00000000000000000000000000000000000000000000000000000000000000000000000000000000000000000000000000000000000000000000000000000000000000000000000000000000000000000000000000000000000000000000000000000000
310
0000000000000000FFFFFF0000000000000000000000000000000000000000000000000000000000000000000000000000000000000000000000000000000000000000000000000000000000000000000000000000000000000000000000000000000000000000000000000000000000000000000000000000000000000000
310
00000000000000000000000000000000000000000000000000000000000000000000000000000000000000000000000000000000000000000000000000000000000000000000000000000000000000000000000000000000000000000000000000000000000000000000000000000000000000000000000000000000000000
310
000000000000000000000000000000000000000000000000000000FFFFFF00000000000000000000000000000000000000000000000000000000000000000000000000000000000000000000000000000000000000000000000000000000000000000000000000000000000000000000000000000000000000000000000000
310
0000000000000000000000FFFFFF0000000000000000000000000000000000000000000000000000000000000000000000000000000000000000000000000000000000000000000000000000000000000000000000000000000000000000000000000000000000000000000000000000000000000000000000000000000000
310
00000000000000000000000000000000000000000000000000000000000000000000000000000000000000000000000000000000000000000000000000000000000000000000000000000000000000000000000000000000000000000000000000000000000000000000000000000000000000000000000000000000000000
310
000000000000000000000000000000000000000000000000000000000000FFFFFF00000000000000000000000000000000000000000000000000000000000000000000000000000000000000000000000000000000000000000000000000000000000000000000000000000000000000000000000000000000000000000000
310
0000000000000000000000000000FFFFFF0000000000000000000000000000000000000000000000000000000000000000000000000000000000000000000000000000000000000000000000000000000000000000000000000000000000000000000000000000000000000000000000000000000000000000000000000000
310
00000000000000000000000000000000000000000000000000000000000000000000000000000000000000000000000000000000000000000000000000000000000000000000000000000000000000000000000000000000000000000000000000000000000000000000000000000000000000000000000000000000000000
310
000000000000000000000000000000000000000000000000000000000000000000FFFFFF00000000000000000000000000000000000000000000000000000000000000000000000000000000000000000000000000000000000000000000000000000000000000000000000000000000000000000000000000000000000000
310
0000000000000000000000000000000000FFFFFF0000000000000000000000000000000000000000000000000000000000000000000000000000000000000000000000000000000000000000000000000000000000000000000000000000000000000000000000000000000000000000000000000000000000000000000000
310
00000000000000000000000000000000000000000000000000000000000000000000000000000000000000000000000000000000000000000000000000000000000000000000000000000000000000000000000000000000000000000000000000000000000000000000000000000000000000000000000000000000000000
310
000000000000000000000000000000000000000000000000000000000000000000000000FFFFFF00000000000000000000000000000000000000000000000000000000000000000000000000000000000000000000000000000000000000000000000000000000000000000000000000000000000000000000000000000000
310
0000000000000000000000000000000000000000FFFFFF0000000000000000000000000000000000000000000000000000000000000000000000000000000000000000000000000000000000000000000000000000000000000000000000000000000000000000000000000000000000000000000000000000000000000000
310
00000000000000000000000000000000000000000000000000000000000000000000000000000000000000000000000000000000000000000000000000000000000000000000000000000000000000000000000000000000000000000000000000000000000000000000000000000000000000000000000000000000000000
310
000000000000000000000000000000000000000000000000000000000000000000000000000000FFFFFF00000000000000000000000000000000000000000000000000000000000000000000000000000000000000000000000000000000000000000000000000000000000000000000000000000000000000000000000000
310
0000000000000000000000000000000000000000000000FFFFFF0000000000000000000000000000000000000000000000000000000000000000000000000000000000000000000000000000000000000000000000000000000000000000000000000000000000000000000000000000000000000000000000000000000000
310
00000000000000000000000000000000000000000000000000000000000000000000000000000000000000000000000000000000000000000000000000000000000000000000000000000000000000000000000000000000000000000000000000000000000000000000000000000000000000000000000000000000000000
310
000000000000000000000000000000000000000000000000000000000000000000000000000000000000FFFFFF00000000000000000000000000000000000000000000000000000000000000000000000000000000000000000000000000000000000000000000000000000000000000000000000000000000000000000000
310
0000000000000000000000000000000000000000000000000000FFFFFF0000000000000000000000000000000000000000000000000000000000000000000000000000000000000000000000000000000000000000000000000000000000000000000000000000000000000000000000000000000000000000000000000000
310
00000000000000000000000000000000000000000000000000000000000000000000000000000000000000000000000000000000000000000000000000000000000000000000000000000000000000000000000000000000000000000000000000000000000000000000000000000000000000000000000000000000000000
310
000000000000000000000000000000000000000000000000000000000000000000000000000000000000000000FFFFFF00000000000000000000000000000000000000000000000000000000000000000000000000000000000000000000000000000000000000000000000000000000000000000000000000000000000000
310
0000000000000000000000000000000000000000000000000000000000FFFFFF0000000000000000000000000000000000000000000000000000000000000000000000000000000000000000000000000000000000000000000000000000000000000000000000000000000000000000000000000000000000000000000000
310
00000000000000000000000000000000000000000000000000000000000000000000000000000000000000000000000000000000000000000000000000000000000000000000000000000000000000000000000000000000000000000000000000000000000000000000000000000000000000000000000000000000000000
310
000000000000000000000000000000000000000000000000000000000000000000000000000000000000000000000000FFFFFF00000000000000000000000000000000000000000000000000000000000000000000000000000000000000000000000000000000000000000000000000000000000000000000000000000000
310
0000000000000000000000000000000000000000000000000000000000000000FFFFFF0000000000000000000000000000000000000000000000000000000000000000000000000000000000000000000000000000000000000000000000000000000000000000000000000000000000000000000000000000000000000000
310
00000000000000000000000000000000000000000000000000000000000000000000000000000000000000000000000000000000000000000000000000000000000000000000000000000000000000000000000000000000000000000000000000000000000000000000000000000000000000000000000000000000000000
310
000000000000000000000000000000000000000000000000000000000000000000000000000000000000000000000000000000FFFFFF00000000000000000000000000000000000000000000000000000000000000000000000000000000000000000000000000000000000000000000000000000000000000000000000000
310
0000000000000000000000000000000000000000000000000000000000000000000000FFFFFF0000000000000000000000000000000000000000000000000000000000000000000000000000000000000000000000000000000000000000000000000000000000000000000000000000000000000000000000000000000000
310
00000000000000000000000000000000000000000000000000000000000000000000000000000000000000000000000000000000000000000000000000000000000000000000000000000000000000000000000000000000000000000000000000000000000000000000000000000000000000000000000000000000000000
310
000000000000000000000000000000000000000000000000000000000000000000000000000000000000000000000000000000000000FFFFFF00000000000000000000000000000000000000000000000000000000000000000000000000000000000000000000000000000000000000000000000000000000000000000000
310
0000000000000000000000000000000000000000000000000000000000000000000000000000FFFFFF0000000000000000000000000000000000000000000000000000000000000000000000000000000000000000000000000000000000000000000000000000000000000000000000000000000000000000000000000000
310
00000000000000000000000000000000000000000000000000000000000000000000000000000000000000000000000000000000000000000000000000000000000000000000000000000000000000000000000000000000000000000000000000000000000000000000000000000000000000000000000000000000000000
310
000000000000000000000000000000000000000000000000000000000000000000000000000000000000000000000000000000000000000000FFFFFF00000000000000000000000000000000000000000000000000000000000000000000000000000000000000000000000000000000000000000000000000000000000000
310
0000000000000000000000000000000000000000000000000000000000000000000000000000000000FFFFFF0000000000000000000000000000000000000000000000000000000000000000000000000000000000000000000000000000000000000000000000000000000000000000000000000000000000000000000000
310
00000000000000000000000000000000000000000000000000000000000000000000000000000000000000000000000000000000000000000000000000000000000000000000000000000000000000000000000000000000000000000000000000000000000000000000000000000000000000000000000000000000000000
310
000000000000000000000000000000000000000000000000000000000000000000000000000000000000000000000000000000000000000000000000FFFFFF00000000000000000000000000000000000000000000000000000000000000000000000000000000000000000000000000000000000000000000000000000000
310
0000000000000000000000000000000000000000000000000000000000000000000000000000000000000000FFFFFF0000000000000000000000000000000000000000000000000000000000000000000000000000000000000000000000000000000000000000000000000000000000000000000000000000000000000000
310
00000000000000000000000000000000000000000000000000000000000000000000000000000000000000000000000000000000000000000000000000000000000000000000000000000000000000000000000000000000000000000000000000000000000000000000000000000000000000000000000000000000000000
310
000000000000000000000000000000000000000000000000000000000000000000000000000000000000000000000000000000000000000000000000000000FFFFFF00000000000000000000000000000000000000000000000000000000000000000000000000000000000000000000000000000000000000000000000000
310
0000000000000000000000000000000000000000000000000000000000000000000000000000000000000000000000FFFFFF0000000000000000000000000000000000000000000000000000000000000000000000000000000000000000000000000000000000000000000000000000000000000000000000000000000000
310
00000000000000000000000000000000000000000000000000000000000000000000000000000000000000000000000000000000000000000000000000000000000000000000000000000000000000000000000000000000000000000000000000000000000000000000000000000000000000000000000000000000000000
310
000000000000000000000000000000000000000000000000000000000000000000000000000000000000000000000000000000000000000000000000000000000000FFFFFF00000000000000000000000000000000000000000000000000000000000000000000000000000000000000000000000000000000000000000000
310
0000000000000000000000000000000000000000000000000000000000000000000000000000000000000000000000000000FFFFFF0000000000000000000000000000000000000000000000000000000000000000000000000000000000000000000000000000000000000000000000000000000000000000000000000000
310
00000000000000000000000000000000000000000000000000000000000000000000000000000000000000000000000000000000000000000000000000000000000000000000000000000000000000000000000000000000000000000000000000000000000000000000000000000000000000000000000000000000000000
310
000000000000000000000000000000000000000000000000000000000000000000000000000000000000000000000000000000000000000000000000000000000000000000FFFFFF00000000000000000000000000000000000000000000000000000000000000000000000000000000000000000000000000000000000000
310
0000000000000000000000000000000000000000000000000000000000000000000000000000000000000000000000000000000000FFFFFF0000000000000000000000000000000000000000000000000000000000000000000000000000000000000000000000000000000000000000000000000000000000000000000000
310
00000000000000000000000000000000000000000000000000000000000000000000000000000000000000000000000000000000000000000000000000000000000000000000000000000000000000000000000000000000000000000000000000000000000000000000000000000000000000000000000000000000000000
310
000000000000000000000000000000000000000000000000000000000000000000000000000000000000000000000000000000000000000000000000000000000000000000000000FFFFFF00000000000000000000000000000000000000000000000000000000FFFFFFFF00FFFF00FFFF00FFFF00FFFF00FFFF00FFFF00FF
310
FF00FFFF00FFFF00FFFF00FFFF00FFFF00FFFF00FFFF00FFFF00FFFF00000000000000000000000000000000000000000000000000000000FFFFFF0000000000000000000000000000000000000000000000000000000000000000000000000000000000000000000000000000000000000000000000000000000000000000
310
00000000000000000000000000000000000000000000000000000000000000000000000000000000000000000000000000000000000000000000000000000000000000000000000000000000000000000000000000000000000000000000000000000000000000000000000000000000000000000000000000000000000000
310
000000000000000000000000000000000000000000000000000000000000000000000000000000000000000000000000000000000000000000000000000000000000000000000000000000FFFFFF00000000000000000000000000000000000000000000000000000000FFFFFFFF00FFFF00FFFF00FFFF00FFFF00FFFF0000
310
FFFF00FFFF00FFFF00FFFF00FFFF00FFFF00FFFF00FFFF00FFFF00FFFF00FFFF000000000000000000000000000000000000000000000000000000FFFFFF0000000000000000000000000000000000000000000000000000000000000000000000000000000000000000000000000000000000000000000000000000000000
310
00000000000000000000000000000000000000000000000000000000000000000000000000000000000000000000000000000000000000000000000000000000000000000000000000000000000000000000000000000000000000000000000000000000000000000000000000000000000000000000000000000000000000
310
000000000000000000000000000000000000000000000000000000000000000000000000000000000000000000000000000000000000000000000000000000000000000000000000000000000000FFFFFF00000000000000000000000000000000000000000000000000000000FFFFFFFF00FFFF00FFFF00FFFF00FFFF00FF
310
FF0000FFFF00FFFF00FFFF00FFFF00FFFF00FFFF00FFFF00FFFF00FFFF00FFFF00FFFF000000000000000000000000000000000000000000000000000000FFFFFF0000000000000000000000000000000000000000000000000000000000000000000000000000000000000000000000000000000000000000000000000000
310
00000000000000000000000000000000000000000000000000000000000000000000000000000000000000000000000000000000000000000000000000000000000000000000000000000000000000000000000000000000000000000000000000000000000000000000000000000000000000000000000000000000000000
310
000000000000000000000000000000000000000000000000000000000000000000000000000000000000000000000000000000000000000000000000000000000000000000000000000000000000000000FFFFFF00000000000000000000000000000000000000000000000000000000FFFF00000000000000000000000000
310
000000000000000000000000000000000000000000000000000000000000000000000000FFFF000000000000000000000000000000000000000000000000000000FFFFFF0000000000000000000000000000000000000000000000000000000000000000000000000000000000000000000000000000000000000000000000
310
00000000000000000000000000000000000000000000000000000000000000000000000000000000000000000000000000000000000000000000000000000000000000000000000000000000000000000000000000000000000000000000000000000000000000000000000000000000000000000000000000000000000000
310
000000000000000000000000000000000000000000000000000000000000000000000000000000000000000000000000000000000000000000000000000000000000000000000000000000000000000000000000FFFFFF00000000000000000000000000000000000000000000000000000000FFFF00000000000000000000
310
000000000000000000000000000000000000000000000000000000000000000000000000000000FFFF000000000000000000000000000000000000000000000000000000FFFFFF0000000000000000000000000000000000000000000000000000000000000000000000000000000000000000000000000000000000000000
310
00000000000000000000000000000000000000000000000000000000000000000000000000000000000000000000000000000000000000000000000000000000000000000000000000000000000000000000000000000000000000000000000000000000000000000000000000000000000000000000000000000000000000
310
000000000000000000000000000000000000000000000000000000000000000000000000000000000000000000000000000000000000000000000000000000000000000000000000000000000000000000000000000000FFFFFF00000000000000000000000000000000000000000000000000000000FFFF00000000000000
310
000000000000000000000000000000000000000000000000000000000000000000000000000000000000FFFF000000000000000000000000000000000000000000000000000000FFFFFF0000000000000000000000000000000000000000000000000000000000000000000000000000000000000000000000000000000000
310
00000000000000000000000000000000000000000000000000000000000000000000000000000000000000000000000000000000000000000000000000000000000000000000000000000000000000000000000000000000000000000000000000000000000000000000000000000000000000000000000000000000000000
310
000000000000000000000000000000000000000000000000000000000000000000000000000000000000000000000000000000000000000000000000000000000000000000000000000000000000000000000000000000000000FFFFFF00000000000000000000000000000000000000000000000000000000FFFF00000000
310
0000000000000000000000000000FF00FFFF00FFFF00FFFF00FF00000000000000000000000000000000000000FFFF000000000000000000000000000000000000000000000000000000FFFFFF0000000000000000000000000000000000000000000000000000000000000000000000000000000000000000000000000000
310
00000000000000000000000000000000000000000000000000000000000000000000000000000000000000000000000000000000000000000000000000000000000000000000000000000000000000000000000000000000000000000000000000000000000000000000000000000000000000000000000000000000000000
310
000000000000000000000000000000000000000000000000000000000000000000000000000000000000000000000000000000000000000000000000000000000000000000000000000000000000000000000000000000000000000000FFFFFF00000000000000000000000000000000000000000000000000000000FFFF00
310
0000000000000000000000000000FF00FFFF00FFFF00FFFF00FFFF00FFFF00FF00000000000000000000000000000000FFFF000000000000000000000000000000000000000000000000000000FFFFFF0000000000000000000000000000000000000000000000000000000000000000000000000000000000000000000000
310
00000000000000000000000000000000000000000000000000000000000000000000000000000000000000000000000000000000000000000000000000000000000000000000000000000000000000000000000000000000000000000000000000000000000000000000000000000000000000000000000000000000000000
310
000000000000000000000000000000000000000000000000000000000000000000000000000000000000000000000000000000000000000000000000000000000000000000000000000000000000000000000000000000000000000000000000FFFFFF00000000000000000000000000000000000000000000000000000000
310
FFFF000000000000000000000000000000FF00FFFF00FFFF00FFFF00FFFF00FFFF00FF00000000000000000000000000000000FFFF000000000000000000000000000000000000000000000000000000FFFFFF0000000000000000000000000000000000000000000000000000000000000000000000000000000000000000
310
00000000000000000000000000000000000000000000000000000000000000000000000000000000000000000000000000000000000000000000000000000000000000000000000000000000000000000000000000000000000000000000000000000000000000000000000000000000000000000000000000000000000000
310
000000000000000000000000000000000000000000000000000000000000000000000000000000000000000000000000000000000000000000000000000000000000000000000000000000000000000000000000000000000000000000000000000000FFFFFF00000000000000000000000000000000000000000000000000
310
000000FFFF000000000000000000000000000000FF00FFFF00FFC0C0C0FF00FFFF00FFFF00FF00000000000000000000000000000000FFFF000000000000000000000000000000000000000000000000000000FFFFFF0000000000000000000000000000000000000000000000000000000000000000000000000000000000
310
00000000000000000000000000000000000000000000000000000000000000000000000000000000000000000000000000000000000000000000000000000000000000000000000000000000000000000000000000000000000000000000000000000000000000000000000000000000000000000000000000000000000000
310
000000000000000000000000000000000000000000000000000000000000000000000000000000000000000000000000000000000000000000000000000000000000000000000000000000000000000000000000000000000000000000000000000000000000FFFFFF00000000000000000000000000000000000000000000
310
000000000000FFFF000000000000000000000000000000000000FF00FFFF00FFFF00FFFF00FF00000000000000000000000000000000000000FFFF000000000000000000000000000000000000000000000000000000FFFFFF0000000000000000000000000000000000000000000000000000000000000000000000000000
310
00000000000000000000000000000000000000000000000000000000000000000000000000000000000000000000000000000000000000000000000000000000000000000000000000000000000000000000000000000000000000000000000000000000000000000000000000000000000000000000000000000000000000
310
000000000000000000000000000000000000000000000000000000000000000000000000000000000000000000000000000000000000000000000000000000000000000000000000000000000000000000000000000000000000000000000000000000000000000000FFFFFF00000000000000000000000000000000000000
310
000000000000000000FFFF000000000000000000000000000000000000000000FF00FF00000000000000000000000000000000000000000000000000FFFF000000000000000000000000000000000000000000000000000000FFFFFF0000000000000000000000000000000000000000000000000000000000000000000000
310
00000000000000000000000000000000000000000000000000000000000000000000000000000000000000000000000000000000000000000000000000000000000000000000000000000000000000000000000000000000000000000000000000000000000000000000000000000000000000000000000000000000000000
310
000000000000000000000000000000000000000000000000000000000000000000000000000000000000000000000000000000000000000000000000000000000000000000000000000000000000000000000000000000000000000000000000000000000000000000000000FFFFFF00000000000000000000000000000000
310
000000000000000000000000FFFF000000000000000000000000000000000000000000FF00FF00000000000000000000000000000000000000000000000000FFFF000000000000000000000000000000000000000000000000000000FFFFFF0000000000000000000000000000000000000000000000000000000000000000
310
00000000000000000000000000000000000000000000000000000000000000000000000000000000000000000000000000000000000000000000000000000000000000000000000000000000000000000000000000000000000000000000000000000000000000000000000000000000000000000000000000000000000000
310
000000000000000000000000000000000000000000000000000000000000000000000000000000000000000000000000000000000000000000000000000000000000000000000000000000000000000000000000000000000000000000000000000000000000000000000000000000FFFFFF00000000000000000000000000
310
000000000000000000000000000000FFFF000000000000000000000000000000000000000000FF00FF00000000000000000000000000000000000000000000000000FFFF000000000000000000000000000000000000000000000000000000FFFFFF0000000000000000000000000000000000000000000000000000000000
310
00000000000000000000000000000000000000000000000000000000000000000000000000000000000000000000000000000000000000000000000000000000000000000000000000000000000000000000000000000000000000000000000000000000000000000000000000000000000000000000000000000000000000
310
000000000000000000000000000000000000000000000000000000000000000000000000000000000000000000000000000000000000000000000000000000000000000000000000000000000000000000000000000000000000000000000000000000000000000000000000000000000000FFFFFF00000000000000000000
310
000000000000000000000000000000000000FFFF000000000000000000000000000000000000000000FF00FFFF00FF00000000000000000000000000000000000000000000FFFF000000000000000000000000000000000000000000000000000000FFFFFF0000000000000000000000000000000000000000000000000000
310
00000000000000000000000000000000000000000000000000000000000000000000000000000000000000000000000000000000000000000000000000000000000000000000000000000000000000000000000000000000000000000000000000000000000000000000000000000000000000000000000000000000000000
310
000000000000000000000000000000000000000000000000000000000000000000000000000000000000000000000000000000000000000000000000000000000000000000000000000000000000000000000000000000000000000000000000000000000000000000000000000000000000000000FFFFFF00000000000000
310
000000000000000000000000000000000000000000FFFF000000000000000000000000000000000000000000FF00FFFF00FF00000000000000000000000000000000000000000000FFFF000000000000000000000000000000000000000000000000000000FFFFFF0000000000000000000000000000000000000000000000
310
00000000000000000000000000000000000000000000000000000000000000000000000000000000000000000000000000000000000000000000000000000000000000000000000000000000000000000000000000000000000000000000000000000000000000000000000000000000000000000000000000000000000000
310
000000000000000000000000000000000000000000000000000000000000000000000000000000000000000000000000000000000000000000000000000000000000000000000000000000000000000000000000000000000000000000000000000000000000000000000000000000000000000000000000FFFFFF00000000
310
000000000000000000000000000000000000000000000000FFFF00000000000000000000000000000000000000000000000000000000000000000000000000000000000000000000000000FFFF000000000000000000000000000000000000000000000000000000FFFFFF0000000000000000000000000000000000000000
310
00000000000000000000000000000000000000000000000000000000000000000000000000000000000000000000000000000000000000000000000000000000000000000000000000000000000000000000000000000000000000000000000000000000000000000000000000000000000000000000000000000000000000
310
000000000000000000000000000000000000000000000000000000000000000000000000000000000000000000000000000000000000000000000000000000000000000000000000000000000000000000000000000000000000000000000000000000000000000000000000000000000000000000000000000000FFFFFF00
310
000000000000000000000000000000000000000000000000000000FFFF00000000000000000000000000000000000000000000000000000000000000000000000000000000000000000000000000FFFF000000000000000000000000000000000000000000000000000000FFFFFF0000000000000000000000000000000000
310
00000000000000000000000000000000000000000000000000000000000000000000000000000000000000000000000000000000000000000000000000000000000000000000000000000000000000000000000000000000000000000000000000000000000000000000000000000000000000000000000000000000000000
310
000000000000000000000000000000000000000000000000000000000000000000000000000000000000000000000000000000000000000000000000000000000000000000000000000000000000000000000000000000000000000000000000000000000000000000000000000000000000000000000000000000000000FF
310
FFFF00000000000000000000000000000000000000000000000000000000FFFF00000000000000000000000000000000000000000000000000000000000000000000000000000000000000000000000000FFFF000000000000000000000000000000000000000000000000000000FFFFFF0000000000000000000000000000
310
00000000000000000000000000000000000000000000000000000000000000000000000000000000000000000000000000000000000000000000000000000000000000000000000000000000000000000000000000000000000000000000000000000000000000000000000000000000000000000000000000000000000000
310
00000000000000000000000000000000000000000000000000000000000000000000000000000000000000000000000000000000000000000000000000000000000000000000000000000000000000000000000000000000000000000000000000000000000000000000000000000000000000000000000000000000000000
310
0000FFFFFF00000000000000000000000000000000000000000000000000000000FFFF00FFFF00FFFF00FFFF00FFFF00FFFF00FFFF00FFFF00FFFF00FFFF00FFFF00FFFF00FFFF00FFFF00FFFF00FFFF00FFFF00FFFF000000000000000000000000000000000000000000000000000000FFFFFF0000000000000000000000
310
00000000000000000000000000000000000000000000000000000000000000000000000000000000000000000000000000000000000000000000000000000000000000000000000000000000000000000000000000000000000000000000000000000000000000000000000000000000000000000000000000000000000000
310
00000000000000000000000000000000000000000000000000000000000000000000000000000000000000000000000000000000000000000000000000000000000000000000000000000000000000000000000000000000000000000000000000000000000000000000000000000000000000000000000000000000000000
310
0000000000FFFFFF000000000000000000000000000000000000000000000000000000000000000000000000000000000000000000000000000000000000000000000000000000000000000000000000000000000000000000000000000000000000000000000000000000000000000000000000FFFFFF0000000000000000
310
00000000000000000000000000000000000000000000000000000000000000000000000000000000000000000000000000000000000000000000000000000000000000000000000000000000000000000000000000000000000000000000000000000000000000000000000000000000000000000000000000000000000000
310
00000000000000000000000000000000000000000000000000000000000000000000000000000000000000000000000000000000000000000000000000000000000000000000000000000000000000000000000000000000000000000000000000000000000000000000000000000000000000000000000000000000000000
310
0000000000000000FFFFFF000000000000000000000000000000000000000000000000000000000000000000000000000000000000000000000000000000000000000000000000000000000000000000000000000000000000000000000000000000000000000000000000000000000000000000000000FFFFFF0000000000
310
00000000000000000000000000000000000000000000000000000000000000000000000000000000000000000000000000000000000000000000000000000000000000000000000000000000000000000000000000000000000000000000000000000000000000000000000000000000000000000000000000000000000000
310
00000000000000000000000000000000000000000000000000000000000000000000000000000000000000000000000000000000000000000000000000000000000000000000000000000000000000000000000000000000000000000000000000000000000000000000000000000000000000000000000000000000000000
310
0000000000000000000000FFFFFF000000000000000000000000000000000000000000000000000000000000000000000000000000000000000000000000000000000000000000000000000000000000000000000000000000000000000000000000000000000000000000000000000000000000000000000000FFFFFF0000
310
00000000000000000000000000000000000000000000000000000000000000000000000000000000000000000000000000000000000000000000000000000000000000000000000000000000000000000000000000000000000000000000000000000000000000000000000000000000000000000000000000000000000000
310
00000000000000000000000000000000000000000000000000000000000000000000000000000000000000000000000000000000000000000000000000000000000000000000000000000000000000000000000000000000000000000000000000000000000000000000000000000000000000000000000000000000000000
310
0000000000000000000000000000FFFFFF000000000000000000000000000000000000000000000000000000000000000000000000000000000000000000000000000000000000000000000000000000000000000000000000000000000000000000000000000000000000000000000000000000000000000000000000FFFF
310
FF000000000000000000000000000000000000000000000000000000000000000000000000000000000000000000000000000000000000000000000000000000000000000000000000000000000000000000000000000000000000000000000000000000000000000000000000000000000000000000000000000000000000
310
00000000000000000000000000000000000000000000000000000000000000000000000000000000000000000000000000000000000000000000000000000000000000000000000000000000000000000000000000000000000000000000000000000000000000000000000000000000000000000000000000000000000000
310
0000000000000000000000000000000000FFFFFF0000000000000000000000000000000000000000000000000000000000000000000000000000000000000000000000000000000000000000000000000000000000000000000000000000000000000000000000000000000000000000000000000000000000000000000000
310
00FFFFFF000000000000000000000000000000000000000000000000000000000000000000000000000000000000000000000000000000000000000000000000000000000000000000000000000000000000000000000000000000000000000000000000000000000000000000000000000000000000000000000000000000
310
00000000000000000000000000000000000000000000000000000000000000000000000000000000000000000000000000000000000000000000000000000000000000000000000000000000000000000000000000000000000000000000000000000000000000000000000000000000000000000000000000000000000000
310
0000000000000000000000000000000000000000FFFFFF0000000000000000000000000000000000000000000000000000000000000000000000000000000000000000000000000000000000000000000000000000000000000000000000000000000000000000000000000000000000000000000000000000000000000000
310
00000000FFFFFF000000000000000000000000000000000000000000000000000000000000000000000000000000000000000000000000000000000000000000000000000000000000000000000000000000000000000000000000000000000000000000000000000000000000000000000000000000000000000000000000
310
00000000000000000000000000000000000000000000000000000000000000000000000000000000000000000000000000000000000000000000000000000000000000000000000000000000000000000000000000000000000000000000000000000000000000000000000000000000000000000000000000000000000000
310
0000000000000000000000000000000000000000000000FFFFFF0000000000000000000000000000000000000000000000000000000000000000000000000000000000000000000000000000000000000000000000000000000000000000000000000000000000000000000000000000000000000000000000000000000000
310
00000000000000FFFFFF000000000000000000000000000000000000000000000000000000000000000000000000000000000000000000000000000000000000000000000000000000000000000000000000000000000000000000000000000000000000000000000000000000000000000000000000000000000000000000
310
00000000000000000000000000000000000000000000000000000000000000000000000000000000000000000000000000000000000000000000000000000000000000000000000000000000000000000000000000000000000000000000000000000000000000000000000000000000000000000000000000000000000000
310
0000000000000000000000000000000000000000000000000000FFFFFF0000000000000000000000000000000000000000000000000000000000000000000000000000000000000000000000000000000000000000000000000000000000000000000000000000000000000000000000000000000000000000000000000000
310
00000000000000000000FFFFFF000000000000000000000000000000000000000000000000000000000000000000000000000000000000000000000000000000000000000000000000000000000000000000000000000000000000000000000000000000000000000000000000000000000000000000000000000000000000
310
00000000000000000000000000000000000000000000000000000000000000000000000000000000000000000000000000000000000000000000000000000000000000000000000000000000000000000000000000000000000000000000000000000000000000000000000000000000000000000000000000000000000000
310
0000000000000000000000000000000000000000000000000000000000FFFFFF0000000000000000000000000000000000000000000000000000000000000000000000000000000000000000000000000000000000000000000000000000000000000000000000000000000000000000000000000000000000000000000000
310
00000000000000000000000000FFFFFF000000000000000000000000000000000000000000000000000000000000000000000000000000000000000000000000000000000000000000000000000000000000000000000000000000000000000000000000000000000000000000000000000000000000000000000000000000
310
00000000000000000000000000000000000000000000000000000000000000000000000000000000000000000000000000000000000000000000000000000000000000000000000000000000000000000000000000000000000000000000000000000000000000000000000000000000000000000000000000000000000000
310
0000000000000000000000000000000000000000000000000000000000000000FFFFFF0000000000000000000000000000000000000000000000000000000000000000000000000000000000000000000000000000000000000000000000000000000000000000000000000000000000000000000000000000000000000000
310
00000000000000000000000000000000FFFFFF000000000000000000000000000000000000000000000000000000000000000000000000000000000000000000000000000000000000000000000000000000000000000000000000000000000000000000000000000000000000000000000000000000000000000000000000
310
00000000000000000000000000000000000000000000000000000000000000000000000000000000000000000000000000000000000000000000000000000000000000000000000000000000000000000000000000000000000000000000000000000000000000000000000000000000000000000000000000000000000000
310
0000000000000000000000000000000000000000000000000000000000000000000000FFFFFF0000000000000000000000000000000000000000000000000000000000000000000000000000000000000000000000000000000000000000000000000000000000000000000000000000000000000000000000000000000000
310
00000000000000000000000000000000000000FFFFFF000000000000000000000000000000000000000000000000000000000000000000000000000000000000000000000000000000000000000000000000000000000000000000000000000000000000000000000000000000000000000000000000000000000000000000
310
00000000000000000000000000000000000000000000000000000000000000000000000000000000000000000000000000000000000000000000000000000000000000000000000000000000000000000000000000000000000000000000000000000000000000000000000000000000000000000000000000000000000000
310
0000000000000000000000000000000000000000000000000000000000000000000000000000FFFFFF0000000000000000000000000000000000000000000000000000000000000000000000000000000000000000000000000000000000000000000000000000000000000000000000000000000000000000000000000000
310
00000000000000000000000000000000000000000000FFFFFF000000000000000000000000000000000000000000000000000000000000000000000000000000000000000000000000000000000000000000000000000000000000000000000000000000000000000000000000000000000000000000000000000000000000
310
00000000000000000000000000000000000000000000000000000000000000000000000000000000000000000000000000000000000000000000000000000000000000000000000000000000000000000000000000000000000000000000000000000000000000000000000000000000000000000000000000000000000000
310
0000000000000000000000000000000000000000000000000000000000000000000000000000000000FFFFFF0000000000000000000000000000000000000000000000000000000000000000000000000000000000000000000000000000000000000000000000000000000000000000000000000000000000000000000000
310
00000000000000000000000000000000000000000000000000FFFFFF000000000000000000000000000000000000000000000000000000000000000000000000000000000000000000000000000000000000000000000000000000000000000000000000000000000000000000000000000000000000000000000000000000
310
00000000000000000000000000000000000000000000000000000000000000000000000000000000000000000000000000000000000000000000000000000000000000000000000000000000000000000000000000000000000000000000000000000000000000000000000000000000000000000000000000000000000000
310
0000000000000000000000000000000000000000000000000000000000000000000000000000000000000000FFFFFF0000000000000000000000000000000000000000000000000000000000000000000000000000000000000000000000000000000000000000000000000000000000000000000000000000000000000000
310
00000000000000000000000000000000000000000000000000000000FFFFFF000000000000000000000000000000000000000000000000000000000000000000000000000000000000000000000000000000000000000000000000000000000000000000000000000000000000000000000000000000000000000000000000
310
00000000000000000000000000000000000000000000000000000000000000000000000000000000000000000000000000000000000000000000000000000000000000000000000000000000000000000000000000000000000000000000000000000000000000000000000000000000000000000000000000000000000000
310
0000000000000000000000000000000000000000000000000000000000000000000000000000000000000000000000FFFFFF0000000000000000000000000000000000000000000000000000000000000000000000000000000000000000000000000000000000000000000000000000000000000000000000000000000000
310
00000000000000000000000000000000000000000000000000000000000000FFFFFF000000000000000000000000000000000000000000000000000000000000000000000000000000000000000000000000000000000000000000000000000000000000000000000000000000000000000000000000000000000000000000
310
00000000000000000000000000000000000000000000000000000000000000000000000000000000000000000000000000000000000000000000000000000000000000000000000000000000000000000000000000000000000000000000000000000000000000000000000000000000000000000000000000000000000000
310
0000000000000000000000000000000000000000000000000000000000000000000000000000000000000000000000000000FFFFFFFFFFFFFFFFFFFFFFFFFFFFFFFFFFFFFFFFFFFFFFFFFFFFFFFFFFFFFFFFFFFFFFFFFFFFFFFFFFFFFFFFFFFFFFFFFFFFFFFFFFFFFFFFFFFFFFFFFFFFFFFFFFFFFFFFFFFFFFFFFFFFFFFFFF
310
FFFFFFFFFFFFFFFFFFFFFFFFFFFFFFFFFFFFFFFFFFFFFFFFFFFFFFFFFFFFFFFFFFFFFFFFFF000000000000000000000000000000000000000000000000000000000000000000000000000000000000000000000000000000000000000000000000000000000000000000000000000000000000000000000000000000000000
310
00000000000000000000000000000000000000000000000000000000000000000000000000000000000000000000000000000000000000000000000000000000000000000000000000000000000000000000000000000000000000000000000000000000000000000000000000000000000000000000000000000000000000
310
00000000000000000000000000000000000000000000000000000000000000000000000000000000000000000000000000000000000000000000000000000000000000000000000000000000000000000000000000000000000000000000000000000000000000000000000000000000000000000000000000000000000000
310
00000000000000000000000000000000000000000000000000000000000000000000000000000000000000000000000000000000000000000000000000000000000000000000000000000000000000000000000000000000000000000000000000000000000000000000000000000000000000000000000000000000000000
310
00000000000000000000000000000000000000000000000000000000000000000000000000000000000000000000000000000000000000000000000000000000000000000000000000000000000000000000000000000000000000000000000000000000000000000000000000000000000000000000000000000000000000
310
00000000000000000000000000000000000000000000000000000000000000000000000000000000000000000000000000000000000000000000000000000000000000000000000000000000000000000000000000000000000000000000000000000000000000000000000000000000000000000000000000000000000000
310
00000000000000000000000000000000000000000000000000000000000000000000000000000000000000000000000000000000000000000000000000000000000000000000000000000000000000000000000000000000000000000000000000000000000000000000000000000000000000000000000000000000000000
310
00000000000000000000000000000000000000000000000000000000000000000000000000000000000000000000000000000000000000000000000000000000000000000000000000000000000000000000000000000000000000000000000000000000000000000000000000000000000000000000000000000000000000
310
00000000000000000000000000000000000000000000000000000000000000000000000000000000000000000000000000000000000000000000000000000000000000000000000000000000000000000000000000000000000000000000000000000000000000000000000000000000000000000000000000000000000000
310
00000000000000000000000000000000000000000000000000000000000000000000000000000000000000000000000000000000000000000000000000000000000000000000000000000000000000000000000000000000000000000000000000000000000000000000000000000000000000000000000000000000000000
310
00000000000000000000000000000000000000000000000000000000000000000000000000000000000000000000000000000000000000000000000000000000000000000000000000000000000000000000000000000000000000000000000000000000000000000000000000000000000000000000000000000000000000
310
00000000000000000000000000000000000000000000000000000000000000000000000000000000000000000000000000000000000000000000000000000000000000000000000000000000000000000000000000000000000000000000000000000000000000000000000000000000000000000000000000000000000000
310
00000000000000000000000000000000000000000000000000000000000000000000000000000000000000000000000000000000000000000000000000000000000000000000000000000000000000000000000000000000000000000000000000000000000000000000000000000000000000000000000000000000000000
310
00000000000000000000000000000000000000000000000000000000000000000000000000000000000000000000000000000000000000000000000000000000000000000000000000000000000000000000000000000000000000000000000000000000000000000000000000000000000000000000000000000000000000
310
00000000000000000000000000000000000000000000000000000000000000000000000000000000000000000000000000000000000000000000000000000000000000000000000000000000000000000000000000000000000000000000000000000000000000000000000000000000000000000000000000000000000000
310
00000000000000000000000000000000000000000000000000000000000000000000000000000000000000000000000000000000000000000000000000000000000000000000000000000000000000000000000000000000000000000000000000000000000000000000000000000000000000000000000000000000000000
310
000000000000000000000000000000000000000000000000000000000000000000000000000000000000000000000000000000000000000000000000000000000000000000000000000000000000000000000000000000000000000000000000
  0
ENDSEC
  0
EOF
