  0
SECTION
  2
HEADER
  9
$ACADVER
  1
AC1032
  9
$ACADMAINTVER
 90
      228
  9
$DWGCODEPAGE
  3
ANSI_932
  9
$REQUIREDVERSIONS
160
                 0
  9
$INSBASE
 10
0.0
 20
0.0
 30
0.0
  9
$EXTMIN
 10
1.000000000000000E+20
 20
1.000000000000000E+20
 30
1.000000000000000E+20
  9
$EXTMAX
 10
-1.000000000000000E+20
 20
-1.000000000000000E+20
 30
-1.000000000000000E+20
  9
$LIMMIN
 10
0.0
 20
0.0
  9
$LIMMAX
 10
12.0
 20
9.0
  9
$ORTHOMODE
 70
     0
  9
$REGENMODE
 70
     1
  9
$FILLMODE
 70
     1
  9
$QTEXTMODE
 70
     0
  9
$MIRRTEXT
 70
     0
  9
$LTSCALE
 40
1.0
  9
$ATTMODE
 70
     1
  9
$TEXTSIZE
 40
0.2
  9
$TRACEWID
 40
0.05
  9
$TEXTSTYLE
  7
Standard
  9
$CLAYER
  8
0
  9
$CELTYPE
  6
ByLayer
  9
$CECOLOR
 62
   256
  9
$CELTSCALE
 40
1.0
  9
$DISPSILH
 70
     0
  9
$DIMSCALE
 40
1.0
  9
$DIMASZ
 40
0.18
  9
$DIMEXO
 40
0.0625
  9
$DIMDLI
 40
0.38
  9
$DIMRND
 40
0.0
  9
$DIMDLE
 40
0.0
  9
$DIMEXE
 40
0.18
  9
$DIMTP
 40
0.0
  9
$DIMTM
 40
0.0
  9
$DIMTXT
 40
0.18
  9
$DIMCEN
 40
0.09
  9
$DIMTSZ
 40
0.0
  9
$DIMTOL
 70
     0
  9
$DIMLIM
 70
     0
  9
$DIMTIH
 70
     1
  9
$DIMTOH
 70
     1
  9
$DIMSE1
 70
     0
  9
$DIMSE2
 70
     0
  9
$DIMTAD
 70
     0
  9
$DIMZIN
 70
     0
  9
$DIMBLK
  1

  9
$DIMASO
 70
     1
  9
$DIMSHO
 70
     1
  9
$DIMPOST
  1

  9
$DIMAPOST
  1

  9
$DIMALT
 70
     0
  9
$DIMALTD
 70
     2
  9
$DIMALTF
 40
25.4
  9
$DIMLFAC
 40
1.0
  9
$DIMTOFL
 70
     0
  9
$DIMTVP
 40
0.0
  9
$DIMTIX
 70
     0
  9
$DIMSOXD
 70
     0
  9
$DIMSAH
 70
     0
  9
$DIMBLK1
  1

  9
$DIMBLK2
  1

  9
$DIMSTYLE
  2
Standard
  9
$DIMCLRD
 70
     0
  9
$DIMCLRE
 70
     0
  9
$DIMCLRT
 70
     0
  9
$DIMTFAC
 40
1.0
  9
$DIMGAP
 40
0.09
  9
$DIMJUST
 70
     0
  9
$DIMSD1
 70
     0
  9
$DIMSD2
 70
     0
  9
$DIMTOLJ
 70
     1
  9
$DIMTZIN
 70
     0
  9
$DIMALTZ
 70
     0
  9
$DIMALTTZ
 70
     0
  9
$DIMUPT
 70
     0
  9
$DIMDEC
 70
     4
  9
$DIMTDEC
 70
     4
  9
$DIMALTU
 70
     2
  9
$DIMALTTD
 70
     2
  9
$DIMTXSTY
  7
Standard
  9
$DIMAUNIT
 70
     0
  9
$DIMADEC
 70
     0
  9
$DIMALTRND
 40
0.0
  9
$DIMAZIN
 70
     0
  9
$DIMDSEP
 70
    46
  9
$DIMATFIT
 70
     3
  9
$DIMFRAC
 70
     0
  9
$DIMLDRBLK
  1

  9
$DIMLUNIT
 70
     2
  9
$DIMLWD
 70
    -2
  9
$DIMLWE
 70
    -2
  9
$DIMTMOVE
 70
     0
  9
$DIMFXL
 40
1.0
  9
$DIMFXLON
 70
     0
  9
$DIMJOGANG
 40
0.7853981633974483
  9
$DIMTFILL
 70
     0
  9
$DIMTFILLCLR
 70
     0
  9
$DIMARCSYM
 70
     0
  9
$DIMLTYPE
  6

  9
$DIMLTEX1
  6

  9
$DIMLTEX2
  6

  9
$DIMTXTDIRECTION
 70
     0
  9
$LUNITS
 70
     2
  9
$LUPREC
 70
     4
  9
$SKETCHINC
 40
0.1
  9
$FILLETRAD
 40
0.0
  9
$AUNITS
 70
     0
  9
$AUPREC
 70
     0
  9
$MENU
  1
.
  9
$ELEVATION
 40
0.0
  9
$PELEVATION
 40
0.0
  9
$THICKNESS
 40
0.0
  9
$LIMCHECK
 70
     0
  9
$CHAMFERA
 40
0.0
  9
$CHAMFERB
 40
0.0
  9
$CHAMFERC
 40
0.0
  9
$CHAMFERD
 40
0.0
  9
$SKPOLY
 70
     0
  9
$TDCREATE
 40
2460061.740266204
  9
$TDUCREATE
 40
2460061.365266204
  9
$TDUPDATE
 40
2460061.740266204
  9
$TDUUPDATE
 40
2460061.365266204
  9
$TDINDWG
 40
0.0000000000
  9
$TDUSRTIMER
 40
0.0000000000
  9
$USRTIMER
 70
     1
  9
$ANGBASE
 50
0.0
  9
$ANGDIR
 70
     0
  9
$PDMODE
 70
     0
  9
$PDSIZE
 40
0.0
  9
$PLINEWID
 40
0.0
  9
$SPLFRAME
 70
     0
  9
$SPLINETYPE
 70
     6
  9
$SPLINESEGS
 70
     8
  9
$HANDSEED
  5
2C2
  9
$SURFTAB1
 70
     6
  9
$SURFTAB2
 70
     6
  9
$SURFTYPE
 70
     6
  9
$SURFU
 70
     6
  9
$SURFV
 70
     6
  9
$UCSBASE
  2

  9
$UCSNAME
  2

  9
$UCSORG
 10
0.0
 20
0.0
 30
0.0
  9
$UCSXDIR
 10
1.0
 20
0.0
 30
0.0
  9
$UCSYDIR
 10
0.0
 20
1.0
 30
0.0
  9
$UCSORTHOREF
  2

  9
$UCSORTHOVIEW
 70
     0
  9
$UCSORGTOP
 10
0.0
 20
0.0
 30
0.0
  9
$UCSORGBOTTOM
 10
0.0
 20
0.0
 30
0.0
  9
$UCSORGLEFT
 10
0.0
 20
0.0
 30
0.0
  9
$UCSORGRIGHT
 10
0.0
 20
0.0
 30
0.0
  9
$UCSORGFRONT
 10
0.0
 20
0.0
 30
0.0
  9
$UCSORGBACK
 10
0.0
 20
0.0
 30
0.0
  9
$PUCSBASE
  2

  9
$PUCSNAME
  2

  9
$PUCSORG
 10
0.0
 20
0.0
 30
0.0
  9
$PUCSXDIR
 10
1.0
 20
0.0
 30
0.0
  9
$PUCSYDIR
 10
0.0
 20
1.0
 30
0.0
  9
$PUCSORTHOREF
  2

  9
$PUCSORTHOVIEW
 70
     0
  9
$PUCSORGTOP
 10
0.0
 20
0.0
 30
0.0
  9
$PUCSORGBOTTOM
 10
0.0
 20
0.0
 30
0.0
  9
$PUCSORGLEFT
 10
0.0
 20
0.0
 30
0.0
  9
$PUCSORGRIGHT
 10
0.0
 20
0.0
 30
0.0
  9
$PUCSORGFRONT
 10
0.0
 20
0.0
 30
0.0
  9
$PUCSORGBACK
 10
0.0
 20
0.0
 30
0.0
  9
$USERI1
 70
     0
  9
$USERI2
 70
     0
  9
$USERI3
 70
     0
  9
$USERI4
 70
     0
  9
$USERI5
 70
     0
  9
$USERR1
 40
0.0
  9
$USERR2
 40
0.0
  9
$USERR3
 40
0.0
  9
$USERR4
 40
0.0
  9
$USERR5
 40
0.0
  9
$WORLDVIEW
 70
     1
  9
$SHADEDGE
 70
     3
  9
$SHADEDIF
 70
    70
  9
$TILEMODE
 70
     1
  9
$MAXACTVP
 70
    64
  9
$PINSBASE
 10
0.0
 20
0.0
 30
0.0
  9
$PLIMCHECK
 70
     0
  9
$PEXTMIN
 10
1.000000000000000E+20
 20
1.000000000000000E+20
 30
1.000000000000000E+20
  9
$PEXTMAX
 10
-1.000000000000000E+20
 20
-1.000000000000000E+20
 30
-1.000000000000000E+20
  9
$PLIMMIN
 10
0.0
 20
0.0
  9
$PLIMMAX
 10
12.0
 20
9.0
  9
$UNITMODE
 70
     0
  9
$VISRETAIN
 70
     1
  9
$PLINEGEN
 70
     0
  9
$PSLTSCALE
 70
     1
  9
$TREEDEPTH
 70
  3020
  9
$CMLSTYLE
  2
Standard
  9
$CMLJUST
 70
     0
  9
$CMLSCALE
 40
1.0
  9
$PROXYGRAPHICS
 70
     1
  9
$MEASUREMENT
 70
     0
  9
$CELWEIGHT
370
    -1
  9
$ENDCAPS
280
     0
  9
$JOINSTYLE
280
     0
  9
$LWDISPLAY
290
     1
  9
$INSUNITS
 70
     4
  9
$HYPERLINKBASE
  1

  9
$STYLESHEET
  1

  9
$XEDIT
290
     1
  9
$CEPSNTYPE
380
     0
  9
$PSTYLEMODE
290
     1
  9
$FINGERPRINTGUID
  2
{97E53099-35A1-764E-AEC6-3098FCBBEDAB}
  9
$VERSIONGUID
  2
{7784B360-894D-974C-8042-187A73F5467E}
  9
$EXTNAMES
290
     1
  9
$PSVPSCALE
 40
0.0
  9
$OLESTARTUP
290
     0
  9
$SORTENTS
280
   127
  9
$INDEXCTL
280
     0
  9
$HIDETEXT
280
     1
  9
$XCLIPFRAME
280
     2
  9
$HALOGAP
280
     0
  9
$OBSCOLOR
 70
   257
  9
$OBSLTYPE
280
     0
  9
$INTERSECTIONDISPLAY
280
     0
  9
$INTERSECTIONCOLOR
 70
   257
  9
$DIMASSOC
280
     2
  9
$PROJECTNAME
  1

  9
$CAMERADISPLAY
290
     0
  9
$LENSLENGTH
 40
50.0
  9
$CAMERAHEIGHT
 40
0.0
  9
$STEPSPERSEC
 40
2.0
  9
$STEPSIZE
 40
6.0
  9
$3DDWFPREC
 40
2.0
  9
$PSOLWIDTH
 40
0.25
  9
$PSOLHEIGHT
 40
4.0
  9
$LOFTANG1
 40
1.570796326794896
  9
$LOFTANG2
 40
1.570796326794896
  9
$LOFTMAG1
 40
0.0
  9
$LOFTMAG2
 40
0.0
  9
$LOFTPARAM
 70
     7
  9
$LOFTNORMALS
280
     1
  9
$LATITUDE
 40
37.795
  9
$LONGITUDE
 40
-122.394
  9
$NORTHDIRECTION
 40
0.0
  9
$TIMEZONE
 70
 -8000
  9
$LIGHTGLYPHDISPLAY
280
     1
  9
$TILEMODELIGHTSYNCH
280
     1
  9
$CMATERIAL
347
11
  9
$SOLIDHIST
280
     0
  9
$SHOWHIST
280
     1
  9
$DWFFRAME
280
     2
  9
$DGNFRAME
280
     0
  9
$REALWORLDSCALE
290
     1
  9
$INTERFERECOLOR
 62
     1
  9
$INTERFEREOBJVS
345
33
  9
$INTERFEREVPVS
346
30
  9
$CSHADOW
280
     0
  9
$SHADOWPLANELOCATION
 40
0.0
  0
ENDSEC
  0
SECTION
  2
CLASSES
  0
CLASS
  1
ACDBDICTIONARYWDFLT
  2
AcDbDictionaryWithDefault
  3
ObjectDBX Classes
 90
        0
 91
        1
280
     0
281
     0
  0
CLASS
  1
MATERIAL
  2
AcDbMaterial
  3
ObjectDBX Classes
 90
     1153
 91
        3
280
     0
281
     0
  0
CLASS
  1
VISUALSTYLE
  2
AcDbVisualStyle
  3
ObjectDBX Classes
 90
     4095
 91
       24
280
     0
281
     0
  0
CLASS
  1
SCALE
  2
AcDbScale
  3
ObjectDBX Classes
 90
     1153
 91
       17
280
     0
281
     0
  0
CLASS
  1
TABLESTYLE
  2
AcDbTableStyle
  3
ObjectDBX Classes
 90
     4095
 91
        1
280
     0
281
     0
  0
CLASS
  1
MLEADERSTYLE
  2
AcDbMLeaderStyle
  3
ACDB_MLEADERSTYLE_CLASS
 90
     4095
 91
        1
280
     0
281
     0
  0
CLASS
  1
ACDBSECTIONVIEWSTYLE
  2
AcDbSectionViewStyle
  3
ObjectDBX Classes
 90
     1025
 91
        1
280
     0
281
     0
  0
CLASS
  1
ACDBDETAILVIEWSTYLE
  2
AcDbDetailViewStyle
  3
ObjectDBX Classes
 90
     1025
 91
        1
280
     0
281
     0
  0
CLASS
  1
DICTIONARYVAR
  2
AcDbDictionaryVar
  3
ObjectDBX Classes
 90
        0
 91
        5
280
     0
281
     0
  0
CLASS
  1
CELLSTYLEMAP
  2
AcDbCellStyleMap
  3
ObjectDBX Classes
 90
     1152
 91
        1
280
     0
281
     0
  0
ENDSEC
  0
SECTION
  2
TABLES
  0
TABLE
  2
VPORT
  5
8
330
0
100
AcDbSymbolTable
 70
     1
  0
VPORT
  5
57
330
8
100
AcDbSymbolTableRecord
100
AcDbViewportTableRecord
  2
*Active
 70
     0
 10
0.0
 20
0.0
 11
1.0
 21
1.0
 12
0.0
 22
0.0
 13
0.0
 23
0.0
 14
1.0
 24
1.0
 15
0.0
 25
0.0
 16
0.0
 26
0.0
 36
1.0
 17
338.666666582
 27
190.499999952375
 37
0.0
 40
388.619999902845
 41
1.777777777777777
 42
50.0
 43
0.0
 44
0.0
 50
0.0
 51
0.0
 71
     0
 72
   100
 73
     1
 74
     1
 75
     0
 76
     0
 77
     0
 78
     0
281
     0
 65
     1
110
0.0
120
0.0
130
0.0
111
1.0
121
0.0
131
0.0
112
0.0
122
1.0
132
0.0
 79
     0
146
0.0
 60
     3
 61
     5
292
     1
282
     1
141
0.0
142
0.0
 63
   250
421
  3355443
  0
ENDTAB
  0
TABLE
  2
LTYPE
  5
5
330
0
100
AcDbSymbolTable
 70
     3
  0
LTYPE
  5
5B
330
5
100
AcDbSymbolTableRecord
100
AcDbLinetypeTableRecord
  2
ByBlock
 70
     0
  3

 72
    65
 73
     0
 40
0.0
  0
LTYPE
  5
5C
330
5
100
AcDbSymbolTableRecord
100
AcDbLinetypeTableRecord
  2
ByLayer
 70
     0
  3

 72
    65
 73
     0
 40
0.0
  0
LTYPE
  5
5D
330
5
100
AcDbSymbolTableRecord
100
AcDbLinetypeTableRecord
  2
Continuous
 70
     0
  3
Solid line
 72
    65
 73
     0
 40
0.0
  0
LTYPE
  5
2B6
330
5
100
AcDbSymbolTableRecord
100
AcDbLinetypeTableRecord
  2
AI-Linetype-0
 70
     0
  3
Adobe Illustrator Linetype No. 0
 72
    65
 73
     2
 40
12.86888301845535
 49
8.579255345636898
 74
     0
 49
-4.289627672818449
 74
     0
  0
LTYPE
  5
2B8
330
5
100
AcDbSymbolTableRecord
100
AcDbLinetypeTableRecord
  2
AI-Linetype-1
 70
     0
  3
Adobe Illustrator Linetype No. 1
 72
    65
 73
     2
 40
12.86888301845535
 49
8.579255345636898
 74
     0
 49
-4.289627672818449
 74
     0
  0
ENDTAB
  0
TABLE
  2
LAYER
  5
2
330
0
100
AcDbSymbolTable
 70
     7
  0
LAYER
  5
54
330
2
100
AcDbSymbolTableRecord
100
AcDbLayerTableRecord
  2
0
 70
     0
 62
     7
  6
Continuous
370
    -3
390
F
347
21
348
0
  0
LAYER
  5
78
330
2
100
AcDbSymbolTableRecord
100
AcDbLayerTableRecord
  2
FLAME
 70
     0
 62
     7
  6
Continuous
370
     0
390
F
347
21
348
0
  0
LAYER
  5
80
330
2
100
AcDbSymbolTableRecord
100
AcDbLayerTableRecord
  2
Defpoints
 70
     0
 62
     7
  6
Continuous
290
     0
370
     0
390
F
347
21
348
0
  0
LAYER
  5
82
330
2
100
AcDbSymbolTableRecord
100
AcDbLayerTableRecord
  2
text
 70
     0
 62
     7
  6
Continuous
370
     0
390
F
347
21
348
0
  0
LAYER
  5
86
330
2
100
AcDbSymbolTableRecord
100
AcDbLayerTableRecord
  2
shade
 70
     0
 62
     7
  6
Continuous
370
     0
390
F
347
21
348
0
  0
LAYER
  5
2B1
330
2
100
AcDbSymbolTableRecord
100
AcDbLayerTableRecord
  2
PARTS
 70
     0
 62
     7
  6
Continuous
370
     0
390
F
347
21
348
0
  0
LAYER
  5
2B4
330
2
100
AcDbSymbolTableRecord
100
AcDbLayerTableRecord
  2
TOUGU
 70
     0
 62
     7
  6
Continuous
370
     0
390
F
347
21
348
0
  0
ENDTAB
  0
TABLE
  2
STYLE
  5
3
330
0
100
AcDbSymbolTable
 70
     2
  0
STYLE
  5
55
330
3
100
AcDbSymbolTableRecord
100
AcDbTextStyleTableRecord
  2
Standard
 70
     0
 40
0.0
 41
1.0
 50
0.0
 71
     0
 42
0.2
  3
txt
  4

  0
STYLE
  5
5A
330
3
100
AcDbSymbolTableRecord
100
AcDbTextStyleTableRecord
  2
Annotative
 70
     0
 40
0.0
 41
1.0
 50
0.0
 71
     0
 42
0.2
  3
txt
  4

1001
AcadAnnotative
1000
AnnotativeData
1002
{
1070
     1
1070
     1
1002
}
  0
ENDTAB
  0
TABLE
  2
VIEW
  5
6
330
0
100
AcDbSymbolTable
 70
     0
  0
ENDTAB
  0
TABLE
  2
UCS
  5
7
330
0
100
AcDbSymbolTable
 70
     0
  0
ENDTAB
  0
TABLE
  2
APPID
  5
9
330
0
100
AcDbSymbolTable
 70
     2
  0
APPID
  5
56
330
9
100
AcDbSymbolTableRecord
100
AcDbRegAppTableRecord
  2
ACAD
 70
     0
  0
APPID
  5
5E
330
9
100
AcDbSymbolTableRecord
100
AcDbRegAppTableRecord
  2
AcadAnnotative
 70
     0
  0
ENDTAB
  0
TABLE
  2
DIMSTYLE
  5
A
330
0
100
AcDbSymbolTable
 70
     2
100
AcDbDimStyleTable
 71
     0
  0
DIMSTYLE
105
58
330
A
100
AcDbSymbolTableRecord
100
AcDbDimStyleTableRecord
  2
Standard
 70
     0
340
55
  0
DIMSTYLE
105
59
330
A
100
AcDbSymbolTableRecord
100
AcDbDimStyleTableRecord
  2
Annotative
 70
     0
340
55
1001
AcadAnnotative
1000
AnnotativeData
1002
{
1070
     1
1070
     1
1002
}
  0
ENDTAB
  0
TABLE
  2
BLOCK_RECORD
  5
1
330
0
100
AcDbSymbolTable
 70
     1
  0
BLOCK_RECORD
  5
70
330
1
100
AcDbSymbolTableRecord
100
AcDbBlockTableRecord
  2
*Model_Space
340
73
 70
     0
280
     1
281
     0
  0
BLOCK_RECORD
  5
6C
330
1
100
AcDbSymbolTableRecord
100
AcDbBlockTableRecord
  2
*Paper_Space
340
6F
 70
     0
280
     1
281
     0
  0
BLOCK_RECORD
  5
74
330
1
100
AcDbSymbolTableRecord
100
AcDbBlockTableRecord
  2
*Paper_Space0
340
77
 70
     0
280
     1
281
     0
  0
ENDTAB
  0
ENDSEC
  0
SECTION
  2
BLOCKS
  0
BLOCK
  5
71
330
70
100
AcDbEntity
  8
0
100
AcDbBlockBegin
  2
*Model_Space
 70
     0
 10
0.0
 20
0.0
 30
0.0
  3
*Model_Space
  1

  0
ENDBLK
  5
72
330
70
100
AcDbEntity
  8
0
100
AcDbBlockEnd
  0
BLOCK
  5
6D
330
6C
100
AcDbEntity
 67
     1
  8
0
100
AcDbBlockBegin
  2
*Paper_Space
 70
     0
 10
0.0
 20
0.0
 30
0.0
  3
*Paper_Space
  1

  0
ENDBLK
  5
6E
330
6C
100
AcDbEntity
 67
     1
  8
0
100
AcDbBlockEnd
  0
BLOCK
  5
75
330
74
100
AcDbEntity
 67
     1
  8
0
100
AcDbBlockBegin
  2
*Paper_Space0
 70
     0
 10
0.0
 20
0.0
 30
0.0
  3
*Paper_Space0
  1

  0
ENDBLK
  5
76
330
74
100
AcDbEntity
 67
     1
  8
0
100
AcDbBlockEnd
  0
ENDSEC
  0
SECTION
  2
ENTITIES
  0
LINE
  5
79
330
70
100
AcDbEntity
  8
FLAME
 62
     2
420
 16776960
370
    25
100
AcDbLine
 10
399.464538907226
 20
266.8611060321884
 30
0.0
 11
399.464538907226
 21
124.9994039399944
 31
0.0
  0
LINE
  5
7A
330
70
100
AcDbEntity
  8
FLAME
 62
     2
420
 16776960
370
    25
100
AcDbLine
 10
277.868794256774
 20
124.9994039399944
 30
0.0
 11
277.868794256774
 21
266.8611060321884
 31
0.0
  0
LINE
  5
7B
330
70
100
AcDbEntity
  8
FLAME
 62
     2
420
 16776960
370
    25
100
AcDbLine
 10
399.464538907226
 20
124.9994039399944
 30
0.0
 11
277.868794256774
 21
124.9994039399944
 31
0.0
  0
LINE
  5
7C
330
70
100
AcDbEntity
  8
FLAME
 62
     2
420
 16776960
370
    25
100
AcDbLine
 10
399.464538907226
 20
131.754723087242
 30
0.0
 11
277.868794256774
 21
131.754723087242
 31
0.0
  0
LINE
  5
7D
330
70
100
AcDbEntity
  8
FLAME
 62
     2
420
 16776960
370
    25
100
AcDbLine
 10
399.464538907226
 20
138.5100422344889
 30
0.0
 11
277.868794256774
 21
138.5100422344889
 31
0.0
  0
LINE
  5
7E
330
70
100
AcDbEntity
  8
FLAME
 62
     2
420
 16776960
370
    25
100
AcDbLine
 10
399.464538907226
 20
145.2653613817364
 30
0.0
 11
277.868794256774
 21
145.2653613817364
 31
0.0
  0
LINE
  5
7F
330
70
100
AcDbEntity
  8
FLAME
 62
     2
420
 16776960
370
    25
100
AcDbLine
 10
399.464538907226
 20
266.8611060321884
 30
0.0
 11
277.868794256774
 21
266.8611060321884
 31
0.0
  0
LWPOLYLINE
  5
81
330
70
100
AcDbEntity
  8
Defpoints
 62
    18
420
        0
370
     0
100
AcDbPolyline
 90
        4
 70
     1
 43
0.0
 10
206.937943210677
 20
380.9999999047501
 10
470.395389953323
 20
380.9999999047501
 10
470.395389953323
 20
0.0
 10
206.9379432106767
 20
0.0
  0
MTEXT
  5
83
330
70
100
AcDbEntity
  8
text
100
AcDbMText
 10
282.5284696084586
 20
133.2945769930435
 30
0.0
 40
0.2
 41
0.0
 46
0.0
 71
     7
 72
     1
  1
\C4;\c16776960;\FMS PMincho|b0|i0|c128;\H3.377660;\W1.000000;KP132/KP132GO/KP132BK
 73
     1
 44
1.0
  0
MTEXT
  5
84
330
70
100
AcDbEntity
  8
text
100
AcDbMText
 10
282.5284696084586
 20
140.0499032412191
 30
0.0
 40
0.2
 41
0.0
 46
0.0
 71
     7
 72
     1
  1
\C4;\c16776960;\FMS PMincho|b0|i0|c128;\H3.377660;\W1.000000;ペンダント　ラメラ 1
 73
     1
 44
1.0
  0
MTEXT
  5
85
330
70
100
AcDbEntity
  8
text
100
AcDbMText
 10
282.7828253145039
 20
126.5339754424062
 30
0.0
 40
0.2
 41
0.0
 46
0.0
 71
     7
 72
     1
  1
\C4;\c16776960;\FMS PMincho|b0|i0|c128;\H3.377660;\W0.858326;E26 LED電球(100W相当　電球色全方向/広配光タイプ)
 73
     1
 44
1.0
  0
SPLINE
  5
87
330
70
100
AcDbEntity
  8
shade
 62
     6
420
 16711935
370
    25
100
AcDbSpline
210
0.0
220
0.0
230
1.0
 70
     8
 71
     3
 72
    14
 73
    10
 74
     0
 42
0.0000000001
 43
0.0000000001
 40
0.0
 40
0.0
 40
0.0
 40
0.0
 40
1.0
 40
1.0
 40
1.0
 40
2.0
 40
2.0
 40
2.0
 40
3.0
 40
3.0
 40
3.0
 40
3.0
 10
336.561194045227
 20
239.517825101103
 30
0.0
 10
336.561194045227
 20
239.517825101103
 30
0.0
 10
332.670130216411
 20
239.517825101103
 30
0.0
 10
332.670130216411
 20
239.517825101103
 30
0.0
 10
332.6701302164113
 20
236.5330038778091
 30
0.0
 10
333.9632022254973
 20
233.6945531261563
 30
0.0
 10
336.2153217048863
 20
231.7356974434728
 30
0.0
 10
336.2153217048863
 20
231.7356974434728
 30
0.0
 10
336.561194045227
 20
231.7356974434728
 30
0.0
 10
336.561194045227
 20
231.7356974434728
 30
0.0
  0
LINE
  5
88
330
70
100
AcDbEntity
  8
shade
 62
     6
420
 16711935
370
    25
100
AcDbLine
 10
336.3017902521352
 20
231.7356974434728
 30
0.0
 11
336.3017898294817
 21
202.1848779931463
 31
0.0
  0
LWPOLYLINE
  5
89
330
70
100
AcDbEntity
  8
shade
 62
     6
420
 16711935
370
    25
100
AcDbPolyline
 90
        4
 70
     0
 43
0.0
 10
336.561194045227
 20
202.1848779931463
 10
332.2377897909926
 20
202.1848779931463
 10
332.2377897909926
 20
202.0811162910457
 10
336.561194045227
 20
202.0811162910457
  0
SPLINE
  5
8A
330
70
100
AcDbEntity
  8
shade
 62
     6
420
 16711935
370
    25
100
AcDbSpline
210
0.0
220
0.0
230
1.0
 70
    24
 71
     3
 72
     8
 73
     4
 74
     0
 42
0.0000000001
 43
0.0000000001
 40
0.0
 40
0.0
 40
0.0
 40
0.0
 40
1.0
 40
1.0
 40
1.0
 40
1.0
 10
335.052934845774
 20
175.1654838348913
 30
0.0
 10
335.0543666218189
 20
175.1620904556418
 30
0.0
 10
335.0557983978634
 20
175.1586970763922
 30
0.0
 10
335.057230173908
 20
175.155303697142
 30
0.0
  0
LINE
  5
8B
330
70
100
AcDbEntity
  8
shade
 62
     6
420
 16711935
370
    25
100
AcDbLine
 10
336.1941890947688
 20
202.0811162910457
 30
0.0
 11
336.3874341677721
 21
202.0811162910457
 31
0.0
  0
SPLINE
  5
8C
330
70
100
AcDbEntity
  8
shade
 62
     6
420
 16711935
370
    25
100
AcDbSpline
210
0.0
220
0.0
230
1.0
 70
     8
 71
     3
 72
     8
 73
     4
 74
     0
 42
0.0000000001
 43
0.0000000001
 40
0.0
 40
0.0
 40
0.0
 40
0.0
 40
1.0
 40
1.0
 40
1.0
 40
1.0
 10
335.4258312095507
 20
187.8138822520609
 30
0.0
 10
335.4258312095507
 20
189.1138817835575
 30
0.0
 10
335.4291442376449
 20
190.4132333355643
 30
0.0
 10
335.4357604004249
 20
191.7080567673119
 30
0.0
  0
SPLINE
  5
8D
330
70
100
AcDbEntity
  8
shade
 62
     6
420
 16711935
370
    25
100
AcDbSpline
210
0.0
220
0.0
230
1.0
 70
     8
 71
     3
 72
     8
 73
     4
 74
     0
 42
0.0000000001
 43
0.0000000001
 40
0.0
 40
0.0
 40
0.0
 40
0.0
 40
1.0
 40
1.0
 40
1.0
 40
1.0
 10
335.4357604004345
 20
191.7080567673119
 30
0.0
 10
335.4431325531925
 20
193.1508320513124
 30
0.0
 10
335.4710790089009
 20
194.5380468418431
 30
0.0
 10
335.5170337955101
 20
195.7423306266437
 30
0.0
  0
SPLINE
  5
8E
330
70
100
AcDbEntity
  8
shade
 62
     6
420
 16711935
370
    25
100
AcDbSpline
210
0.0
220
0.0
230
1.0
 70
     8
 71
     3
 72
     8
 73
     4
 74
     0
 42
0.0000000001
 43
0.0000000001
 40
0.0
 40
0.0
 40
0.0
 40
0.0
 40
1.0
 40
1.0
 40
1.0
 40
1.0
 10
335.5170337955091
 20
195.7423306266437
 30
0.0
 10
335.6681759016026
 20
199.7031364751905
 30
0.0
 10
335.9222090428215
 20
202.0811162910473
 30
0.0
 10
336.1941890947688
 20
202.0811162910473
 30
0.0
  0
LINE
  5
8F
330
70
100
AcDbEntity
  8
shade
 62
     6
420
 16711935
370
    25
100
AcDbLine
 10
335.8283812381719
 20
202.0811162910457
 30
0.0
 11
336.194034241052
 21
202.0811162910457
 31
0.0
  0
SPLINE
  5
90
330
70
100
AcDbEntity
  8
shade
 62
     6
420
 16711935
370
    25
100
AcDbSpline
210
0.0
220
0.0
230
1.0
 70
     8
 71
     3
 72
     8
 73
     4
 74
     0
 42
0.0000000001
 43
0.0000000001
 40
0.0
 40
0.0
 40
0.0
 40
0.0
 40
1.0
 40
1.0
 40
1.0
 40
1.0
 10
334.294171691458
 20
187.8138822520609
 30
0.0
 10
334.294171691458
 20
189.1138817835575
 30
0.0
 10
334.3007869412371
 20
190.4132333355643
 30
0.0
 10
334.3139976862491
 20
191.7080567673119
 30
0.0
  0
SPLINE
  5
91
330
70
100
AcDbEntity
  8
shade
 62
     6
420
 16711935
370
    25
100
AcDbSpline
210
0.0
220
0.0
230
1.0
 70
     8
 71
     3
 72
     8
 73
     4
 74
     0
 42
0.0000000001
 43
0.0000000001
 40
0.0
 40
0.0
 40
0.0
 40
0.0
 40
1.0
 40
1.0
 40
1.0
 40
1.0
 10
334.3139976862667
 20
191.7080567673119
 30
0.0
 10
334.3287179453534
 20
193.1508320513124
 30
0.0
 10
334.3845197012405
 20
194.5380468418431
 30
0.0
 10
334.4762793794959
 20
195.7423306266437
 30
0.0
  0
SPLINE
  5
92
330
70
100
AcDbEntity
  8
shade
 62
     6
420
 16711935
370
    25
100
AcDbSpline
210
0.0
220
0.0
230
1.0
 70
     8
 71
     3
 72
     8
 73
     4
 74
     0
 42
0.0000000001
 43
0.0000000001
 40
0.0
 40
0.0
 40
0.0
 40
0.0
 40
1.0
 40
1.0
 40
1.0
 40
1.0
 10
334.4762793794901
 20
195.7423306266437
 30
0.0
 10
334.7780705975424
 20
199.7031364751905
 30
0.0
 10
335.2853082766744
 20
202.0811162910473
 30
0.0
 10
335.8283812381719
 20
202.0811162910473
 30
0.0
  0
LINE
  5
93
330
70
100
AcDbEntity
  8
shade
 62
     6
420
 16711935
370
    25
100
AcDbLine
 10
335.4649636646394
 20
202.0811162910457
 30
0.0
 11
335.8278868316306
 21
202.0811162910457
 31
0.0
  0
SPLINE
  5
94
330
70
100
AcDbEntity
  8
shade
 62
     6
420
 16711935
370
    25
100
AcDbSpline
210
0.0
220
0.0
230
1.0
 70
     8
 71
     3
 72
     8
 73
     4
 74
     0
 42
0.0000000001
 43
0.0000000001
 40
0.0
 40
0.0
 40
0.0
 40
0.0
 40
1.0
 40
1.0
 40
1.0
 40
1.0
 10
333.1699067290861
 20
187.8138822520609
 30
0.0
 10
333.1699067290861
 20
189.1138817835575
 30
0.0
 10
333.1798026229805
 20
190.4132333355643
 30
0.0
 10
333.1995648595202
 20
191.7080567673119
 30
0.0
  0
SPLINE
  5
95
330
70
100
AcDbEntity
  8
shade
 62
     6
420
 16711935
370
    25
100
AcDbSpline
210
0.0
220
0.0
230
1.0
 70
     8
 71
     3
 72
     8
 73
     4
 74
     0
 42
0.0000000001
 43
0.0000000001
 40
0.0
 40
0.0
 40
0.0
 40
0.0
 40
1.0
 40
1.0
 40
1.0
 40
1.0
 10
333.1995648595341
 20
191.7080567673119
 30
0.0
 10
333.2215852105232
 20
193.1508320513124
 30
0.0
 10
333.3050602528597
 20
194.5380468418431
 30
0.0
 10
333.4423255217636
 20
195.7423306266437
 30
0.0
  0
SPLINE
  5
96
330
70
100
AcDbEntity
  8
shade
 62
     6
420
 16711935
370
    25
100
AcDbSpline
210
0.0
220
0.0
230
1.0
 70
     8
 71
     3
 72
     8
 73
     4
 74
     0
 42
0.0000000001
 43
0.0000000001
 40
0.0
 40
0.0
 40
0.0
 40
0.0
 40
1.0
 40
1.0
 40
1.0
 40
1.0
 10
333.4423255217656
 20
195.7423306266434
 30
0.0
 10
333.8937814715503
 20
199.7031364751902
 30
0.0
 10
334.6525691847153
 20
202.0811162910473
 30
0.0
 10
335.4649636646394
 20
202.0811162910473
 30
0.0
  0
LINE
  5
97
330
70
100
AcDbEntity
  8
shade
 62
     6
420
 16711935
370
    25
100
AcDbLine
 10
335.1051217667476
 20
202.0811162910457
 30
0.0
 11
335.464182250408
 21
202.0811162910457
 31
0.0
  0
SPLINE
  5
98
330
70
100
AcDbEntity
  8
shade
 62
     6
420
 16711935
370
    25
100
AcDbSpline
210
0.0
220
0.0
230
1.0
 70
     8
 71
     3
 72
     8
 73
     4
 74
     0
 42
0.0000000001
 43
0.0000000001
 40
0.0
 40
0.0
 40
0.0
 40
0.0
 40
1.0
 40
1.0
 40
1.0
 40
1.0
 10
332.056703441061
 20
187.8138822520609
 30
0.0
 10
332.056703441061
 20
189.1138817835575
 30
0.0
 10
332.0698477007219
 20
190.4132333355643
 30
0.0
 10
332.0960969684813
 20
191.7080567673119
 30
0.0
  0
SPLINE
  5
99
330
70
100
AcDbEntity
  8
shade
 62
     6
420
 16711935
370
    25
100
AcDbSpline
210
0.0
220
0.0
230
1.0
 70
     8
 71
     3
 72
     8
 73
     4
 74
     0
 42
0.0000000001
 43
0.0000000001
 40
0.0
 40
0.0
 40
0.0
 40
0.0
 40
1.0
 40
1.0
 40
1.0
 40
1.0
 10
332.096096968491
 20
191.7080567673119
 30
0.0
 10
332.1253455855751
 20
193.1508320513124
 30
0.0
 10
332.2362216361229
 20
194.5380468418431
 30
0.0
 10
332.4185447648993
 20
195.7423306266437
 30
0.0
  0
SPLINE
  5
9A
330
70
100
AcDbEntity
  8
shade
 62
     6
420
 16711935
370
    25
100
AcDbSpline
210
0.0
220
0.0
230
1.0
 70
     8
 71
     3
 72
     8
 73
     4
 74
     0
 42
0.0000000001
 43
0.0000000001
 40
0.0
 40
0.0
 40
0.0
 40
0.0
 40
1.0
 40
1.0
 40
1.0
 40
1.0
 10
332.4185447648939
 20
195.7423306266434
 30
0.0
 10
333.018192890939
 20
199.7031364751902
 30
0.0
 10
334.0260556303327
 20
202.0811162910473
 30
0.0
 10
335.1051217667476
 20
202.0811162910473
 30
0.0
  0
LINE
  5
9B
330
70
100
AcDbEntity
  8
shade
 62
     6
420
 16711935
370
    25
100
AcDbLine
 10
334.7500292739888
 20
202.0811162910457
 30
0.0
 11
335.1041120152399
 21
202.0811162910457
 31
0.0
  0
SPLINE
  5
9C
330
70
100
AcDbEntity
  8
shade
 62
     6
420
 16711935
370
    25
100
AcDbSpline
210
0.0
220
0.0
230
1.0
 70
     8
 71
     3
 72
     8
 73
     4
 74
     0
 42
0.0000000001
 43
0.0000000001
 40
0.0
 40
0.0
 40
0.0
 40
0.0
 40
1.0
 40
1.0
 40
1.0
 40
1.0
 10
330.958192865143
 20
187.8138822520609
 30
0.0
 10
330.958192865143
 20
189.1138817835575
 30
0.0
 10
330.9745426167269
 20
190.4132333355643
 30
0.0
 10
331.0071932960507
 20
191.7080567673119
 30
0.0
  0
SPLINE
  5
9D
330
70
100
AcDbEntity
  8
shade
 62
     6
420
 16711935
370
    25
100
AcDbSpline
210
0.0
220
0.0
230
1.0
 70
     8
 71
     3
 72
     8
 73
     4
 74
     0
 42
0.0000000001
 43
0.0000000001
 40
0.0
 40
0.0
 40
0.0
 40
0.0
 40
1.0
 40
1.0
 40
1.0
 40
1.0
 10
331.0071932960341
 20
191.7080567673119
 30
0.0
 10
331.0435747763032
 20
193.1508320513124
 30
0.0
 10
331.1814901804316
 20
194.5380468418431
 30
0.0
 10
331.4082764689298
 20
195.7423306266437
 30
0.0
  0
SPLINE
  5
9E
330
70
100
AcDbEntity
  8
shade
 62
     6
420
 16711935
370
    25
100
AcDbSpline
210
0.0
220
0.0
230
1.0
 70
     8
 71
     3
 72
     8
 73
     4
 74
     0
 42
0.0000000001
 43
0.0000000001
 40
0.0
 40
0.0
 40
0.0
 40
0.0
 40
1.0
 40
1.0
 40
1.0
 40
1.0
 10
331.4082764689301
 20
195.7423306266434
 30
0.0
 10
332.1541608436856
 20
199.7031364751902
 30
0.0
 10
333.4078111705356
 20
202.0811162910473
 30
0.0
 10
334.7500292739888
 20
202.0811162910473
 30
0.0
  0
LINE
  5
9F
330
70
100
AcDbEntity
  8
shade
 62
     6
420
 16711935
370
    25
100
AcDbLine
 10
334.4008444242531
 20
202.0811162910457
 30
0.0
 11
334.7488296042558
 21
202.0811162910457
 31
0.0
  0
SPLINE
  5
A0
330
70
100
AcDbEntity
  8
shade
 62
     6
420
 16711935
370
    25
100
AcDbSpline
210
0.0
220
0.0
230
1.0
 70
     8
 71
     3
 72
     8
 73
     4
 74
     0
 42
0.0000000001
 43
0.0000000001
 40
0.0
 40
0.0
 40
0.0
 40
0.0
 40
1.0
 40
1.0
 40
1.0
 40
1.0
 10
329.877958114443
 20
187.8138822520609
 30
0.0
 10
329.877958114443
 20
189.1138817835575
 30
0.0
 10
329.8974600284591
 20
190.4132333355643
 30
0.0
 10
329.9364056196177
 20
191.7080567673119
 30
0.0
  0
SPLINE
  5
A1
330
70
100
AcDbEntity
  8
shade
 62
     6
420
 16711935
370
    25
100
AcDbSpline
210
0.0
220
0.0
230
1.0
 70
     8
 71
     3
 72
     8
 73
     4
 74
     0
 42
0.0000000001
 43
0.0000000001
 40
0.0
 40
0.0
 40
0.0
 40
0.0
 40
1.0
 40
1.0
 40
1.0
 40
1.0
 10
329.9364056195985
 20
191.7080567673119
 30
0.0
 10
329.9798012942265
 20
193.1508320513124
 30
0.0
 10
330.144306200553
 20
194.5380468418431
 30
0.0
 10
330.4148159190386
 20
195.7423306266437
 30
0.0
  0
SPLINE
  5
A2
330
70
100
AcDbEntity
  8
shade
 62
     6
420
 16711935
370
    25
100
AcDbSpline
210
0.0
220
0.0
230
1.0
 70
     8
 71
     3
 72
     8
 73
     4
 74
     0
 42
0.0000000001
 43
0.0000000001
 40
0.0
 40
0.0
 40
0.0
 40
0.0
 40
1.0
 40
1.0
 40
1.0
 40
1.0
 10
330.4148159190412
 20
195.7423306266434
 30
0.0
 10
331.3045036227119
 20
199.7031364751902
 30
0.0
 10
332.7998523902294
 20
202.0811162910473
 30
0.0
 10
334.4008444242531
 20
202.0811162910473
 30
0.0
  0
LINE
  5
A3
330
70
100
AcDbEntity
  8
shade
 62
     6
420
 16711935
370
    25
100
AcDbLine
 10
334.0587061859543
 20
202.0811162910457
 30
0.0
 11
334.3994810649957
 21
202.0811162910457
 31
0.0
  0
SPLINE
  5
A4
330
70
100
AcDbEntity
  8
shade
 62
     6
420
 16711935
370
    25
100
AcDbSpline
210
0.0
220
0.0
230
1.0
 70
     8
 71
     3
 72
     8
 73
     4
 74
     0
 42
0.0000000001
 43
0.0000000001
 40
0.0
 40
0.0
 40
0.0
 40
0.0
 40
1.0
 40
1.0
 40
1.0
 40
1.0
 10
328.8195226902222
 20
187.8138822520609
 30
0.0
 10
328.8195226902222
 20
189.1138817835575
 30
0.0
 10
328.8421131554802
 20
190.4132333355643
 30
0.0
 10
328.8872266260505
 20
191.7080567673119
 30
0.0
  0
SPLINE
  5
A5
330
70
100
AcDbEntity
  8
shade
 62
     6
420
 16711935
370
    25
100
AcDbSpline
210
0.0
220
0.0
230
1.0
 70
     8
 71
     3
 72
     8
 73
     4
 74
     0
 42
0.0000000001
 43
0.0000000001
 40
0.0
 40
0.0
 40
0.0
 40
0.0
 40
1.0
 40
1.0
 40
1.0
 40
1.0
 10
328.8872266260408
 20
191.7080567673119
 30
0.0
 10
328.9374949473563
 20
193.1508320513124
 30
0.0
 10
329.1280527750696
 20
194.5380468418431
 30
0.0
 10
329.4414035770672
 20
195.7423306266437
 30
0.0
  0
SPLINE
  5
A6
330
70
100
AcDbEntity
  8
shade
 62
     6
420
 16711935
370
    25
100
AcDbSpline
210
0.0
220
0.0
230
1.0
 70
     8
 71
     3
 72
     8
 73
     4
 74
     0
 42
0.0000000001
 43
0.0000000001
 40
0.0
 40
0.0
 40
0.0
 40
0.0
 40
1.0
 40
1.0
 40
1.0
 40
1.0
 10
329.4414035770675
 20
195.7423306266434
 30
0.0
 10
330.4719926332875
 20
199.7031364751902
 30
0.0
 10
332.2041623246046
 20
202.0811162910473
 30
0.0
 10
334.0587061859543
 20
202.0811162910473
 30
0.0
  0
LINE
  5
A7
330
70
100
AcDbEntity
  8
shade
 62
     6
420
 16711935
370
    25
100
AcDbLine
 10
333.7247305429006
 20
202.0811162910457
 30
0.0
 11
334.0571983052946
 21
202.0811162910457
 31
0.0
  0
SPLINE
  5
A8
330
70
100
AcDbEntity
  8
shade
 62
     6
420
 16711935
370
    25
100
AcDbSpline
210
0.0
220
0.0
230
1.0
 70
     8
 71
     3
 72
     8
 73
     4
 74
     0
 42
0.0000000001
 43
0.0000000001
 40
0.0
 40
0.0
 40
0.0
 40
0.0
 40
1.0
 40
1.0
 40
1.0
 40
1.0
 10
327.786338988831
 20
187.8138822520609
 30
0.0
 10
327.786338988831
 20
189.1138817835575
 30
0.0
 10
327.8119443199289
 20
190.4132333355643
 30
0.0
 10
327.8630785191464
 20
191.7080567673119
 30
0.0
  0
SPLINE
  5
A9
330
70
100
AcDbEntity
  8
shade
 62
     6
420
 16711935
370
    25
100
AcDbSpline
210
0.0
220
0.0
230
1.0
 70
     8
 71
     3
 72
     8
 73
     4
 74
     0
 42
0.0000000001
 43
0.0000000001
 40
0.0
 40
0.0
 40
0.0
 40
0.0
 40
1.0
 40
1.0
 40
1.0
 40
1.0
 10
327.8630785191429
 20
191.7080567673119
 30
0.0
 10
327.9200555223308
 20
193.1508320513124
 30
0.0
 10
328.1360447114049
 20
194.5380468418431
 30
0.0
 10
328.491214511729
 20
195.7423306266437
 30
0.0
  0
SPLINE
  5
AA
330
70
100
AcDbEntity
  8
shade
 62
     6
420
 16711935
370
    25
100
AcDbSpline
210
0.0
220
0.0
230
1.0
 70
     8
 71
     3
 72
     8
 73
     4
 74
     0
 42
0.0000000001
 43
0.0000000001
 40
0.0
 40
0.0
 40
0.0
 40
0.0
 40
1.0
 40
1.0
 40
1.0
 40
1.0
 10
328.491214511731
 20
195.7423306266434
 30
0.0
 10
329.6593433532096
 20
199.7031364751902
 30
0.0
 10
331.6226839908291
 20
202.0811162910473
 30
0.0
 10
333.7247305429006
 20
202.0811162910473
 30
0.0
  0
LINE
  5
AB
330
70
100
AcDbEntity
  8
shade
 62
     6
420
 16711935
370
    25
100
AcDbLine
 10
333.4000068542231
 20
202.0811162910457
 30
0.0
 11
333.7230930792907
 21
202.0811162910457
 31
0.0
  0
SPLINE
  5
AC
330
70
100
AcDbEntity
  8
shade
 62
     6
420
 16711935
370
    25
100
AcDbSpline
210
0.0
220
0.0
230
1.0
 70
     8
 71
     3
 72
     8
 73
     4
 74
     0
 42
0.0000000001
 43
0.0000000001
 40
0.0
 40
0.0
 40
0.0
 40
0.0
 40
1.0
 40
1.0
 40
1.0
 40
1.0
 10
326.781777040748
 20
187.8138822520609
 30
0.0
 10
326.781777040748
 20
189.1138817835575
 30
0.0
 10
326.8103137184174
 20
190.4132333355643
 30
0.0
 10
326.8673018571529
 20
191.7080567673119
 30
0.0
  0
SPLINE
  5
AD
330
70
100
AcDbEntity
  8
shade
 62
     6
420
 16711935
370
    25
100
AcDbSpline
210
0.0
220
0.0
230
1.0
 70
     8
 71
     3
 72
     8
 73
     4
 74
     0
 42
0.0000000001
 43
0.0000000001
 40
0.0
 40
0.0
 40
0.0
 40
0.0
 40
1.0
 40
1.0
 40
1.0
 40
1.0
 10
326.8673018571635
 20
191.7080567673119
 30
0.0
 10
326.9308016950819
 20
193.1508320513124
 30
0.0
 10
327.1715177336759
 20
194.5380468418431
 30
0.0
 10
327.5673480422613
 20
195.7423306266437
 30
0.0
  0
SPLINE
  5
AE
330
70
100
AcDbEntity
  8
shade
 62
     6
420
 16711935
370
    25
100
AcDbSpline
210
0.0
220
0.0
230
1.0
 70
     8
 71
     3
 72
     8
 73
     4
 74
     0
 42
0.0000000001
 43
0.0000000001
 40
0.0
 40
0.0
 40
0.0
 40
0.0
 40
1.0
 40
1.0
 40
1.0
 40
1.0
 10
327.5673480422609
 20
195.7423306266434
 30
0.0
 10
328.8692064755168
 20
199.7031364751902
 30
0.0
 10
331.0573140503659
 20
202.0811162910473
 30
0.0
 10
333.4000068542231
 20
202.0811162910473
 30
0.0
  0
LINE
  5
AF
330
70
100
AcDbEntity
  8
shade
 62
     6
420
 16711935
370
    25
100
AcDbLine
 10
333.0855943011044
 20
202.0811162910457
 30
0.0
 11
333.3982519522704
 21
202.0811162910457
 31
0.0
  0
SPLINE
  5
B0
330
70
100
AcDbEntity
  8
shade
 62
     6
420
 16711935
370
    25
100
AcDbSpline
210
0.0
220
0.0
230
1.0
 70
     8
 71
     3
 72
     8
 73
     4
 74
     0
 42
0.0000000001
 43
0.0000000001
 40
0.0
 40
0.0
 40
0.0
 40
0.0
 40
1.0
 40
1.0
 40
1.0
 40
1.0
 10
325.8091135182795
 20
187.8138822520609
 30
0.0
 10
325.8091135182795
 20
189.1138817835575
 30
0.0
 10
325.8404884618097
 20
190.4132333355643
 30
0.0
 10
325.9031446565998
 20
191.7080567673119
 30
0.0
  0
SPLINE
  5
B1
330
70
100
AcDbEntity
  8
shade
 62
     6
420
 16711935
370
    25
100
AcDbSpline
210
0.0
220
0.0
230
1.0
 70
     8
 71
     3
 72
     8
 73
     4
 74
     0
 42
0.0000000001
 43
0.0000000001
 40
0.0
 40
0.0
 40
0.0
 40
0.0
 40
1.0
 40
1.0
 40
1.0
 40
1.0
 10
325.9031446566123
 20
191.7080567673119
 30
0.0
 10
325.9729602059883
 20
193.1508320513124
 30
0.0
 10
326.2376179284172
 20
194.5380468418431
 30
0.0
 10
326.6728176290708
 20
195.7423306266437
 30
0.0
  0
SPLINE
  5
B2
330
70
100
AcDbEntity
  8
shade
 62
     6
420
 16711935
370
    25
100
AcDbSpline
210
0.0
220
0.0
230
1.0
 70
     8
 71
     3
 72
     8
 73
     4
 74
     0
 42
0.0000000001
 43
0.0000000001
 40
0.0
 40
0.0
 40
0.0
 40
0.0
 40
1.0
 40
1.0
 40
1.0
 40
1.0
 10
326.6728176290695
 20
195.7423306266434
 30
0.0
 10
328.1041592624863
 20
199.7031364751902
 30
0.0
 10
330.5098966224559
 20
202.0811162910473
 30
0.0
 10
333.0855943011044
 20
202.0811162910473
 30
0.0
  0
LINE
  5
B3
330
70
100
AcDbEntity
  8
shade
 62
     6
420
 16711935
370
    25
100
AcDbLine
 10
332.7825184319403
 20
202.0811162910457
 30
0.0
 11
333.0837322169099
 21
202.0811162910457
 31
0.0
  0
SPLINE
  5
B4
330
70
100
AcDbEntity
  8
shade
 62
     6
420
 16711935
370
    25
100
AcDbSpline
210
0.0
220
0.0
230
1.0
 70
     8
 71
     3
 72
     8
 73
     4
 74
     0
 42
0.0000000001
 43
0.0000000001
 40
0.0
 40
0.0
 40
0.0
 40
0.0
 40
1.0
 40
1.0
 40
1.0
 40
1.0
 10
324.8715210476856
 20
187.8138822520609
 30
0.0
 10
324.8715210476856
 20
189.1138817835575
 30
0.0
 10
324.9056319185324
 20
190.4132333355643
 30
0.0
 10
324.9737517978925
 20
191.7080567673119
 30
0.0
  0
SPLINE
  5
B5
330
70
100
AcDbEntity
  8
shade
 62
     6
420
 16711935
370
    25
100
AcDbSpline
210
0.0
220
0.0
230
1.0
 70
     8
 71
     3
 72
     8
 73
     4
 74
     0
 42
0.0000000001
 43
0.0000000001
 40
0.0
 40
0.0
 40
0.0
 40
0.0
 40
1.0
 40
1.0
 40
1.0
 40
1.0
 10
324.9737517978777
 20
191.7080567673119
 30
0.0
 10
325.0496553349008
 20
193.1508320513124
 30
0.0
 10
325.3373914826836
 20
194.5380468418431
 30
0.0
 10
325.8105410444382
 20
195.7423306266437
 30
0.0
  0
SPLINE
  5
B6
330
70
100
AcDbEntity
  8
shade
 62
     6
420
 16711935
370
    25
100
AcDbSpline
210
0.0
220
0.0
230
1.0
 70
     8
 71
     3
 72
     8
 73
     4
 74
     0
 42
0.0000000001
 43
0.0000000001
 40
0.0
 40
0.0
 40
0.0
 40
0.0
 40
1.0
 40
1.0
 40
1.0
 40
1.0
 10
325.8105410444372
 20
195.7423306266434
 30
0.0
 10
327.3666971391114
 20
199.7031364751902
 30
0.0
 10
329.9822172689677
 20
202.0811162910473
 30
0.0
 10
332.7825184319403
 20
202.0811162910473
 30
0.0
  0
LINE
  5
B7
330
70
100
AcDbEntity
  8
shade
 62
     6
420
 16711935
370
    25
100
AcDbLine
 10
332.4917678172216
 20
202.0811162910457
 30
0.0
 11
332.7805581016209
 21
202.0811162910457
 31
0.0
  0
SPLINE
  5
B8
330
70
100
AcDbEntity
  8
shade
 62
     6
420
 16711935
370
    25
100
AcDbSpline
210
0.0
220
0.0
230
1.0
 70
     8
 71
     3
 72
     8
 73
     4
 74
     0
 42
0.0000000001
 43
0.0000000001
 40
0.0
 40
0.0
 40
0.0
 40
0.0
 40
1.0
 40
1.0
 40
1.0
 40
1.0
 10
323.9720578606172
 20
187.8138822520609
 30
0.0
 10
323.9720578606172
 20
189.1138817835575
 30
0.0
 10
324.0087933962096
 20
190.4132333355643
 30
0.0
 10
324.0821547672523
 20
191.7080567673119
 30
0.0
  0
SPLINE
  5
B9
330
70
100
AcDbEntity
  8
shade
 62
     6
420
 16711935
370
    25
100
AcDbSpline
210
0.0
220
0.0
230
1.0
 70
     8
 71
     3
 72
     8
 73
     4
 74
     0
 42
0.0000000001
 43
0.0000000001
 40
0.0
 40
0.0
 40
0.0
 40
0.0
 40
1.0
 40
1.0
 40
1.0
 40
1.0
 10
324.0821547672585
 20
191.7080567673119
 30
0.0
 10
324.1638987103673
 20
193.1508320513124
 30
0.0
 10
324.4737747479978
 20
194.5380468418431
 30
0.0
 10
324.9833308553295
 20
195.7423306266437
 30
0.0
  0
SPLINE
  5
BA
330
70
100
AcDbEntity
  8
shade
 62
     6
420
 16711935
370
    25
100
AcDbSpline
210
0.0
220
0.0
230
1.0
 70
     8
 71
     3
 72
     8
 73
     4
 74
     0
 42
0.0000000001
 43
0.0000000001
 40
0.0
 40
0.0
 40
0.0
 40
0.0
 40
1.0
 40
1.0
 40
1.0
 40
1.0
 10
324.9833308553298
 20
195.7423306266434
 30
0.0
 10
326.6592255535352
 20
199.7031364751902
 30
0.0
 10
329.4759971702629
 20
202.0811162910473
 30
0.0
 10
332.4917678172216
 20
202.0811162910473
 30
0.0
  0
LINE
  5
BB
330
70
100
AcDbEntity
  8
shade
 62
     6
420
 16711935
370
    25
100
AcDbLine
 10
332.2142908250183
 20
202.0811162910457
 30
0.0
 11
332.489717195185
 21
202.0811162910457
 31
0.0
  0
SPLINE
  5
BC
330
70
100
AcDbEntity
  8
shade
 62
     6
420
 16711935
370
    25
100
AcDbSpline
210
0.0
220
0.0
230
1.0
 70
     8
 71
     3
 72
     8
 73
     4
 74
     0
 42
0.0000000001
 43
0.0000000001
 40
0.0
 40
0.0
 40
0.0
 40
0.0
 40
1.0
 40
1.0
 40
1.0
 40
1.0
 10
323.1136578191402
 20
187.8138822520609
 30
0.0
 10
323.1136578191402
 20
189.1138817835575
 30
0.0
 10
323.1528981957965
 20
190.4132333355643
 30
0.0
 10
323.231261768978
 20
191.7080567673119
 30
0.0
  0
SPLINE
  5
BD
330
70
100
AcDbEntity
  8
shade
 62
     6
420
 16711935
370
    25
100
AcDbSpline
210
0.0
220
0.0
230
1.0
 70
     8
 71
     3
 72
     8
 73
     4
 74
     0
 42
0.0000000001
 43
0.0000000001
 40
0.0
 40
0.0
 40
0.0
 40
0.0
 40
1.0
 40
1.0
 40
1.0
 40
1.0
 10
323.2312617689755
 20
191.7080567673119
 30
0.0
 10
323.3185794864188
 20
193.1508320513124
 30
0.0
 10
323.6495846626695
 20
194.5380468418431
 30
0.0
 10
324.1938852494679
 20
195.7423306266437
 30
0.0
  0
SPLINE
  5
BE
330
70
100
AcDbEntity
  8
shade
 62
     6
420
 16711935
370
    25
100
AcDbSpline
210
0.0
220
0.0
230
1.0
 70
     8
 71
     3
 72
     8
 73
     4
 74
     0
 42
0.0000000001
 43
0.0000000001
 40
0.0
 40
0.0
 40
0.0
 40
0.0
 40
1.0
 40
1.0
 40
1.0
 40
1.0
 10
324.1938852494708
 20
195.7423306266434
 30
0.0
 10
325.9840521310385
 20
199.7031364751902
 30
0.0
 10
328.9928875110926
 20
202.0811162910473
 30
0.0
 10
332.2142908250183
 20
202.0811162910473
 30
0.0
  0
LINE
  5
BF
330
70
100
AcDbEntity
  8
shade
 62
     6
420
 16711935
370
    25
100
AcDbLine
 10
331.9509925276066
 20
202.0811162910457
 30
0.0
 11
332.2121571559697
 21
202.0811162910457
 31
0.0
  0
SPLINE
  5
C0
330
70
100
AcDbEntity
  8
shade
 62
     6
420
 16711935
370
    25
100
AcDbSpline
210
0.0
220
0.0
230
1.0
 70
     8
 71
     3
 72
     8
 73
     4
 74
     0
 42
0.0000000001
 43
0.0000000001
 40
0.0
 40
0.0
 40
0.0
 40
0.0
 40
1.0
 40
1.0
 40
1.0
 40
1.0
 10
322.2991208457196
 20
187.8138822520609
 30
0.0
 10
322.2991208457196
 20
189.1138817835575
 30
0.0
 10
322.3407380694874
 20
190.4132333355643
 30
0.0
 10
322.42384823912
 20
191.7080567673119
 30
0.0
  0
SPLINE
  5
C1
330
70
100
AcDbEntity
  8
shade
 62
     6
420
 16711935
370
    25
100
AcDbSpline
210
0.0
220
0.0
230
1.0
 70
     8
 71
     3
 72
     8
 73
     4
 74
     0
 42
0.0000000001
 43
0.0000000001
 40
0.0
 40
0.0
 40
0.0
 40
0.0
 40
1.0
 40
1.0
 40
1.0
 40
1.0
 10
322.4238482391261
 20
191.7080567673119
 30
0.0
 10
322.5164549186585
 20
193.1508320513124
 30
0.0
 10
322.8675095634449
 20
194.5380468418431
 30
0.0
 10
323.4447792343303
 20
195.7423306266437
 30
0.0
  0
SPLINE
  5
C2
330
70
100
AcDbEntity
  8
shade
 62
     6
420
 16711935
370
    25
100
AcDbSpline
210
0.0
220
0.0
230
1.0
 70
     8
 71
     3
 72
     8
 73
     4
 74
     0
 42
0.0000000001
 43
0.0000000001
 40
0.0
 40
0.0
 40
0.0
 40
0.0
 40
1.0
 40
1.0
 40
1.0
 40
1.0
 10
323.4447792343287
 20
195.7423306266434
 30
0.0
 10
325.3433791469819
 20
199.7031364751902
 30
0.0
 10
328.534464094747
 20
202.0811162910473
 30
0.0
 10
331.9509925276066
 20
202.0811162910473
 30
0.0
  0
LINE
  5
C3
330
70
100
AcDbEntity
  8
shade
 62
     6
420
 16711935
370
    25
100
AcDbLine
 10
331.7027317493006
 20
202.0811162910457
 30
0.0
 11
331.9487824999745
 21
202.0811162910457
 31
0.0
  0
SPLINE
  5
C4
330
70
100
AcDbEntity
  8
shade
 62
     6
420
 16711935
370
    25
100
AcDbSpline
210
0.0
220
0.0
230
1.0
 70
     8
 71
     3
 72
     8
 73
     4
 74
     0
 42
0.0000000001
 43
0.0000000001
 40
0.0
 40
0.0
 40
0.0
 40
0.0
 40
1.0
 40
1.0
 40
1.0
 40
1.0
 10
321.5311037906884
 20
187.8138822520609
 30
0.0
 10
321.5311037906884
 20
189.1138817835575
 30
0.0
 10
321.5749621148341
 20
190.4132333355643
 30
0.0
 10
321.6625477928191
 20
191.7080567673119
 30
0.0
  0
SPLINE
  5
C5
330
70
100
AcDbEntity
  8
shade
 62
     6
420
 16711935
370
    25
100
AcDbSpline
210
0.0
220
0.0
230
1.0
 70
     8
 71
     3
 72
     8
 73
     4
 74
     0
 42
0.0000000001
 43
0.0000000001
 40
0.0
 40
0.0
 40
0.0
 40
0.0
 40
1.0
 40
1.0
 40
1.0
 40
1.0
 10
321.6625477928076
 20
191.7080567673119
 30
0.0
 10
321.7601413706892
 20
193.1508320513124
 30
0.0
 10
322.1301004167275
 20
194.5380468418431
 30
0.0
 10
322.7384562380198
 20
195.7423306266437
 30
0.0
  0
SPLINE
  5
C6
330
70
100
AcDbEntity
  8
shade
 62
     6
420
 16711935
370
    25
100
AcDbSpline
210
0.0
220
0.0
230
1.0
 70
     8
 71
     3
 72
     8
 73
     4
 74
     0
 42
0.0000000001
 43
0.0000000001
 40
0.0
 40
0.0
 40
0.0
 40
0.0
 40
1.0
 40
1.0
 40
1.0
 40
1.0
 10
322.7384562380234
 20
195.7423306266434
 30
0.0
 10
324.7392963434742
 20
199.7031364751902
 30
0.0
 10
328.1022222031235
 20
202.0811162910473
 30
0.0
 10
331.7027317493006
 20
202.0811162910473
 30
0.0
  0
LINE
  5
C7
330
70
100
AcDbEntity
  8
shade
 62
     6
420
 16711935
370
    25
100
AcDbLine
 10
331.4703182651638
 20
202.0811162910457
 30
0.0
 11
331.7004516167338
 21
202.0811162910457
 31
0.0
  0
SPLINE
  5
C8
330
70
100
AcDbEntity
  8
shade
 62
     6
420
 16711935
370
    25
100
AcDbSpline
210
0.0
220
0.0
230
1.0
 70
     8
 71
     3
 72
     8
 73
     4
 74
     0
 42
0.0000000001
 43
0.0000000001
 40
0.0
 40
0.0
 40
0.0
 40
0.0
 40
1.0
 40
1.0
 40
1.0
 40
1.0
 10
320.8121117660204
 20
187.8138822520609
 30
0.0
 10
320.8121117660208
 20
189.1138817835575
 30
0.0
 10
320.8580681338071
 20
190.4132333355643
 30
0.0
 10
320.9498436338675
 20
191.7080567673119
 30
0.0
  0
SPLINE
  5
C9
330
70
100
AcDbEntity
  8
shade
 62
     6
420
 16711935
370
    25
100
AcDbSpline
210
0.0
220
0.0
230
1.0
 70
     8
 71
     3
 72
     8
 73
     4
 74
     0
 42
0.0000000001
 43
0.0000000001
 40
0.0
 40
0.0
 40
0.0
 40
0.0
 40
1.0
 40
1.0
 40
1.0
 40
1.0
 10
320.9498436338572
 20
191.7080567673119
 30
0.0
 10
321.0521057801217
 20
193.1508320513124
 30
0.0
 10
321.4397624979004
 20
194.5380468418431
 30
0.0
 10
322.0772201393594
 20
195.7423306266437
 30
0.0
  0
SPLINE
  5
CA
330
70
100
AcDbEntity
  8
shade
 62
     6
420
 16711935
370
    25
100
AcDbSpline
210
0.0
220
0.0
230
1.0
 70
     8
 71
     3
 72
     8
 73
     4
 74
     0
 42
0.0000000001
 43
0.0000000001
 40
0.0
 40
0.0
 40
0.0
 40
0.0
 40
1.0
 40
1.0
 40
1.0
 40
1.0
 10
322.0772201393569
 20
195.7423306266434
 30
0.0
 10
324.1737741130612
 20
199.7031364751902
 30
0.0
 10
327.6975717194335
 20
202.0811162910473
 30
0.0
 10
331.4703182651638
 20
202.0811162910473
 30
0.0
  0
LINE
  5
CB
330
70
100
AcDbEntity
  8
shade
 62
     6
420
 16711935
370
    25
100
AcDbLine
 10
331.2545101596722
 20
202.0811162910457
 30
0.0
 11
331.4679739309947
 21
202.0811162910457
 31
0.0
  0
SPLINE
  5
CC
330
70
100
AcDbEntity
  8
shade
 62
     6
420
 16711935
370
    25
100
AcDbSpline
210
0.0
220
0.0
230
1.0
 70
     8
 71
     3
 72
     8
 73
     4
 74
     0
 42
0.0000000001
 43
0.0000000001
 40
0.0
 40
0.0
 40
0.0
 40
0.0
 40
1.0
 40
1.0
 40
1.0
 40
1.0
 10
320.1444899742351
 20
187.8138822520609
 30
0.0
 10
320.1444899742351
 20
189.1138817835575
 30
0.0
 10
320.1923944855428
 20
190.4132333355643
 30
0.0
 10
320.2880604550734
 20
191.7080567673119
 30
0.0
  0
SPLINE
  5
CD
330
70
100
AcDbEntity
  8
shade
 62
     6
420
 16711935
370
    25
100
AcDbSpline
210
0.0
220
0.0
230
1.0
 70
     8
 71
     3
 72
     8
 73
     4
 74
     0
 42
0.0000000001
 43
0.0000000001
 40
0.0
 40
0.0
 40
0.0
 40
0.0
 40
1.0
 40
1.0
 40
1.0
 40
1.0
 10
320.2880604550847
 20
191.7080567673119
 30
0.0
 10
320.3946576118665
 20
193.1508320513124
 30
0.0
 10
320.7987475457479
 20
194.5380468418431
 30
0.0
 10
321.4632277530444
 20
195.7423306266437
 30
0.0
  0
SPLINE
  5
CE
330
70
100
AcDbEntity
  8
shade
 62
     6
420
 16711935
370
    25
100
AcDbSpline
210
0.0
220
0.0
230
1.0
 70
     8
 71
     3
 72
     8
 73
     4
 74
     0
 42
0.0000000001
 43
0.0000000001
 40
0.0
 40
0.0
 40
0.0
 40
0.0
 40
1.0
 40
1.0
 40
1.0
 40
1.0
 10
321.463227753039
 20
195.7423306266434
 30
0.0
 10
323.6486570717099
 20
199.7031364751902
 30
0.0
 10
327.3218325294446
 20
202.0811162910473
 30
0.0
 10
331.2545101596722
 20
202.0811162910473
 30
0.0
  0
LINE
  5
CF
330
70
100
AcDbEntity
  8
shade
 62
     6
420
 16711935
370
    25
100
AcDbLine
 10
331.056011354013
 20
202.0811162910457
 30
0.0
 11
331.2521072888103
 21
202.0811162910457
 31
0.0
  0
SPLINE
  5
D0
330
70
100
AcDbEntity
  8
shade
 62
     6
420
 16711935
370
    25
100
AcDbSpline
210
0.0
220
0.0
230
1.0
 70
     8
 71
     3
 72
     8
 73
     4
 74
     0
 42
0.0000000001
 43
0.0000000001
 40
0.0
 40
0.0
 40
0.0
 40
0.0
 40
1.0
 40
1.0
 40
1.0
 40
1.0
 10
319.5304160588953
 20
187.8138822520609
 30
0.0
 10
319.5304160588953
 20
189.1138817835575
 30
0.0
 10
319.5801124591651
 20
190.4132333355643
 30
0.0
 10
319.6793568556576
 20
191.7080567673119
 30
0.0
  0
SPLINE
  5
D1
330
70
100
AcDbEntity
  8
shade
 62
     6
420
 16711935
370
    25
100
AcDbSpline
210
0.0
220
0.0
230
1.0
 70
     8
 71
     3
 72
     8
 73
     4
 74
     0
 42
0.0000000001
 43
0.0000000001
 40
0.0
 40
0.0
 40
0.0
 40
0.0
 40
1.0
 40
1.0
 40
1.0
 40
1.0
 10
319.679356855674
 20
191.7080567673119
 30
0.0
 10
319.7899413252043
 20
193.1508320513124
 30
0.0
 10
320.2091464178152
 20
194.5380468418431
 30
0.0
 10
320.8984817946262
 20
195.7423306266437
 30
0.0
  0
SPLINE
  5
D2
330
70
100
AcDbEntity
  8
shade
 62
     6
420
 16711935
370
    25
100
AcDbSpline
210
0.0
220
0.0
230
1.0
 70
     8
 71
     3
 72
     8
 73
     4
 74
     0
 42
0.0000000001
 43
0.0000000001
 40
0.0
 40
0.0
 40
0.0
 40
0.0
 40
1.0
 40
1.0
 40
1.0
 40
1.0
 10
320.8984817946275
 20
195.7423306266434
 30
0.0
 10
323.1656580420726
 20
199.7031364751902
 30
0.0
 10
326.9762302163032
 20
202.0811162910473
 30
0.0
 10
331.056011354013
 20
202.0811162910473
 30
0.0
  0
LINE
  5
D3
330
70
100
AcDbEntity
  8
shade
 62
     6
420
 16711935
370
    25
100
AcDbLine
 10
330.8754693100218
 20
202.0811162910457
 30
0.0
 11
331.0535553724161
 21
202.0811162910457
 31
0.0
  0
SPLINE
  5
D4
330
70
100
AcDbEntity
  8
shade
 62
     6
420
 16711935
370
    25
100
AcDbSpline
210
0.0
220
0.0
230
1.0
 70
     8
 71
     3
 72
     8
 73
     4
 74
     0
 42
0.0000000001
 43
0.0000000001
 40
0.0
 40
0.0
 40
0.0
 40
0.0
 40
1.0
 40
1.0
 40
1.0
 40
1.0
 10
318.9718930014871
 20
187.8138822520609
 30
0.0
 10
318.9718930014871
 20
189.1138817835575
 30
0.0
 10
319.0232191913907
 20
190.4132333355643
 30
0.0
 10
319.125718300252
 20
191.7080567673119
 30
0.0
  0
SPLINE
  5
D5
330
70
100
AcDbEntity
  8
shade
 62
     6
420
 16711935
370
    25
100
AcDbSpline
210
0.0
220
0.0
230
1.0
 70
     8
 71
     3
 72
     8
 73
     4
 74
     0
 42
0.0000000001
 43
0.0000000001
 40
0.0
 40
0.0
 40
0.0
 40
0.0
 40
1.0
 40
1.0
 40
1.0
 40
1.0
 10
319.1257183002559
 20
191.7080567673119
 30
0.0
 10
319.23992937898
 20
193.1508320513124
 30
0.0
 10
319.6728822704408
 20
194.5380468418431
 30
0.0
 10
320.384824348047
 20
195.7423306266437
 30
0.0
  0
SPLINE
  5
D6
330
70
100
AcDbEntity
  8
shade
 62
     6
420
 16711935
370
    25
100
AcDbSpline
210
0.0
220
0.0
230
1.0
 70
     8
 71
     3
 72
     8
 73
     4
 74
     0
 42
0.0000000001
 43
0.0000000001
 40
0.0
 40
0.0
 40
0.0
 40
0.0
 40
1.0
 40
1.0
 40
1.0
 40
1.0
 10
320.3848243480454
 20
195.7423306266434
 30
0.0
 10
322.7263524665826
 20
199.7031364751902
 30
0.0
 10
326.6618920629107
 20
202.0811162910473
 30
0.0
 10
330.8754693100218
 20
202.0811162910473
 30
0.0
  0
LINE
  5
D7
330
70
100
AcDbEntity
  8
shade
 62
     6
420
 16711935
370
    25
100
AcDbLine
 10
330.7134729183295
 20
202.0811162910457
 30
0.0
 11
330.8729654820865
 21
202.0811162910457
 31
0.0
  0
SPLINE
  5
D8
330
70
100
AcDbEntity
  8
shade
 62
     6
420
 16711935
370
    25
100
AcDbSpline
210
0.0
220
0.0
230
1.0
 70
     8
 71
     3
 72
     8
 73
     4
 74
     0
 42
0.0000000001
 43
0.0000000001
 40
0.0
 40
0.0
 40
0.0
 40
0.0
 40
1.0
 40
1.0
 40
1.0
 40
1.0
 10
318.4707425880734
 20
187.8138822520609
 30
0.0
 10
318.4707425880734
 20
189.1138817835575
 30
0.0
 10
318.523531152248
 20
190.4132333355643
 30
0.0
 10
318.6289506426898
 20
191.7080567673119
 30
0.0
  0
SPLINE
  5
D9
330
70
100
AcDbEntity
  8
shade
 62
     6
420
 16711935
370
    25
100
AcDbSpline
210
0.0
220
0.0
230
1.0
 70
     8
 71
     3
 72
     8
 73
     4
 74
     0
 42
0.0000000001
 43
0.0000000001
 40
0.0
 40
0.0
 40
0.0
 40
0.0
 40
1.0
 40
1.0
 40
1.0
 40
1.0
 10
318.6289506427093
 20
191.7080567673119
 30
0.0
 10
318.7464157978275
 20
193.1508320513124
 30
0.0
 10
319.1917042857968
 20
194.5380468418431
 30
0.0
 10
319.9239308571201
 20
195.7423306266437
 30
0.0
  0
SPLINE
  5
DA
330
70
100
AcDbEntity
  8
shade
 62
     6
420
 16711935
370
    25
100
AcDbSpline
210
0.0
220
0.0
230
1.0
 70
     8
 71
     3
 72
     8
 73
     4
 74
     0
 42
0.0000000001
 43
0.0000000001
 40
0.0
 40
0.0
 40
0.0
 40
0.0
 40
1.0
 40
1.0
 40
1.0
 40
1.0
 10
319.9239308571182
 20
195.7423306266434
 30
0.0
 10
322.3321732687175
 20
199.7031364751902
 30
0.0
 10
326.3798433749939
 20
202.0811162910473
 30
0.0
 10
330.7134729183295
 20
202.0811162910473
 30
0.0
  0
LINE
  5
DB
330
70
100
AcDbEntity
  8
shade
 62
     6
420
 16711935
370
    25
100
AcDbLine
 10
330.5705505774871
 20
202.0811162910457
 30
0.0
 11
330.7109263573142
 21
202.0811162910457
 31
0.0
  0
SPLINE
  5
DC
330
70
100
AcDbEntity
  8
shade
 62
     6
420
 16711935
370
    25
100
AcDbSpline
210
0.0
220
0.0
230
1.0
 70
     8
 71
     3
 72
     8
 73
     4
 74
     0
 42
0.0000000001
 43
0.0000000001
 40
0.0
 40
0.0
 40
0.0
 40
0.0
 40
1.0
 40
1.0
 40
1.0
 40
1.0
 10
318.0285994672309
 20
187.8138822520609
 30
0.0
 10
318.0285994672309
 20
189.1138817835575
 30
0.0
 10
318.0826782203524
 20
190.4132333355643
 30
0.0
 10
318.1906742359079
 20
191.7080567673119
 30
0.0
  0
SPLINE
  5
DD
330
70
100
AcDbEntity
  8
shade
 62
     6
420
 16711935
370
    25
100
AcDbSpline
210
0.0
220
0.0
230
1.0
 70
     8
 71
     3
 72
     8
 73
     4
 74
     0
 42
0.0000000001
 43
0.0000000001
 40
0.0
 40
0.0
 40
0.0
 40
0.0
 40
1.0
 40
1.0
 40
1.0
 40
1.0
 10
318.1906742358909
 20
191.7080567673119
 30
0.0
 10
318.311010320483
 20
193.1508320513124
 30
0.0
 10
318.7671819664661
 20
194.5380468418431
 30
0.0
 10
319.5173046606249
 20
195.7423306266437
 30
0.0
  0
SPLINE
  5
DE
330
70
100
AcDbEntity
  8
shade
 62
     6
420
 16711935
370
    25
100
AcDbSpline
210
0.0
220
0.0
230
1.0
 70
     8
 71
     3
 72
     8
 73
     4
 74
     0
 42
0.0000000001
 43
0.0000000001
 40
0.0
 40
0.0
 40
0.0
 40
0.0
 40
1.0
 40
1.0
 40
1.0
 40
1.0
 10
319.5173046606281
 20
195.7423306266434
 30
0.0
 10
321.9844061790992
 20
199.7031364751902
 30
0.0
 10
326.1310041367483
 20
202.0811162910473
 30
0.0
 10
330.5705505774871
 20
202.0811162910473
 30
0.0
  0
LINE
  5
DF
330
70
100
AcDbEntity
  8
shade
 62
     6
420
 16711935
370
    25
100
AcDbLine
 10
330.4471684704682
 20
202.0811162910457
 30
0.0
 11
330.5679662950264
 21
202.0811162910457
 31
0.0
  0
SPLINE
  5
E0
330
70
100
AcDbEntity
  8
shade
 62
     6
420
 16711935
370
    25
100
AcDbSpline
210
0.0
220
0.0
230
1.0
 70
     8
 71
     3
 72
     8
 73
     4
 74
     0
 42
0.0000000001
 43
0.0000000001
 40
0.0
 40
0.0
 40
0.0
 40
0.0
 40
1.0
 40
1.0
 40
1.0
 40
1.0
 10
317.6469058178065
 20
187.8138822520609
 30
0.0
 10
317.6469058178065
 20
189.1138817835575
 30
0.0
 10
317.7020983662223
 20
190.4132333355643
 30
0.0
 10
317.8123186463367
 20
191.7080567673119
 30
0.0
  0
SPLINE
  5
E1
330
70
100
AcDbEntity
  8
shade
 62
     6
420
 16711935
370
    25
100
AcDbSpline
210
0.0
220
0.0
230
1.0
 70
     8
 71
     3
 72
     8
 73
     4
 74
     0
 42
0.0000000001
 43
0.0000000001
 40
0.0
 40
0.0
 40
0.0
 40
0.0
 40
1.0
 40
1.0
 40
1.0
 40
1.0
 10
317.8123186463265
 20
191.7080567673119
 30
0.0
 10
317.9351331490959
 20
193.1508320513124
 30
0.0
 10
318.4007000160013
 20
194.5380468418431
 30
0.0
 10
319.1662720886828
 20
195.7423306266437
 30
0.0
  0
SPLINE
  5
E2
330
70
100
AcDbEntity
  8
shade
 62
     6
420
 16711935
370
    25
100
AcDbSpline
210
0.0
220
0.0
230
1.0
 70
     8
 71
     3
 72
     8
 73
     4
 74
     0
 42
0.0000000001
 43
0.0000000001
 40
0.0
 40
0.0
 40
0.0
 40
0.0
 40
1.0
 40
1.0
 40
1.0
 40
1.0
 10
319.1662720886854
 20
195.7423306266434
 30
0.0
 10
321.6841855416701
 20
199.7031364751902
 30
0.0
 10
325.9161860100399
 20
202.0811162910473
 30
0.0
 10
330.4471684704682
 20
202.0811162910473
 30
0.0
  0
LINE
  5
E3
330
70
100
AcDbEntity
  8
shade
 62
     6
420
 16711935
370
    25
100
AcDbLine
 10
330.3437290440622
 20
202.0811162910457
 30
0.0
 11
330.4445513766711
 21
202.0811162910457
 31
0.0
  0
SPLINE
  5
E4
330
70
100
AcDbEntity
  8
shade
 62
     6
420
 16711935
370
    25
100
AcDbSpline
210
0.0
220
0.0
230
1.0
 70
     8
 71
     3
 72
     8
 73
     4
 74
     0
 42
0.0000000001
 43
0.0000000001
 40
0.0
 40
0.0
 40
0.0
 40
0.0
 40
1.0
 40
1.0
 40
1.0
 40
1.0
 10
317.3269066452049
 20
187.8138822520609
 30
0.0
 10
317.3269066452049
 20
189.1138817835575
 30
0.0
 10
317.3830329622942
 20
190.4132333355643
 30
0.0
 10
317.4951179913228
 20
191.7080567673119
 30
0.0
  0
SPLINE
  5
E5
330
70
100
AcDbEntity
  8
shade
 62
     6
420
 16711935
370
    25
100
AcDbSpline
210
0.0
220
0.0
230
1.0
 70
     8
 71
     3
 72
     8
 73
     4
 74
     0
 42
0.0000000001
 43
0.0000000001
 40
0.0
 40
0.0
 40
0.0
 40
0.0
 40
1.0
 40
1.0
 40
1.0
 40
1.0
 10
317.4951179913251
 20
191.7080567673119
 30
0.0
 10
317.620010316892
 20
193.1508320513124
 30
0.0
 10
318.0934538223682
 20
194.5380468418431
 30
0.0
 10
318.8719781365973
 20
195.7423306266437
 30
0.0
  0
SPLINE
  5
E6
330
70
100
AcDbEntity
  8
shade
 62
     6
420
 16711935
370
    25
100
AcDbSpline
210
0.0
220
0.0
230
1.0
 70
     8
 71
     3
 72
     8
 73
     4
 74
     0
 42
0.0000000001
 43
0.0000000001
 40
0.0
 40
0.0
 40
0.0
 40
0.0
 40
1.0
 40
1.0
 40
1.0
 40
1.0
 10
318.8719781365945
 20
195.7423306266434
 30
0.0
 10
321.4324906137631
 20
199.7031364751902
 30
0.0
 10
325.736089686956
 20
202.0811162910473
 30
0.0
 10
330.3437290440622
 20
202.0811162910473
 30
0.0
  0
LINE
  5
E7
330
70
100
AcDbEntity
  8
shade
 62
     6
420
 16711935
370
    25
100
AcDbLine
 10
330.2605696961793
 20
202.0811162910457
 30
0.0
 11
330.3410839723044
 21
202.0811162910457
 31
0.0
  0
SPLINE
  5
E8
330
70
100
AcDbEntity
  8
shade
 62
     6
420
 16711935
370
    25
100
AcDbSpline
210
0.0
220
0.0
230
1.0
 70
     8
 71
     3
 72
     8
 73
     4
 74
     0
 42
0.0000000001
 43
0.0000000001
 40
0.0
 40
0.0
 40
0.0
 40
0.0
 40
1.0
 40
1.0
 40
1.0
 40
1.0
 10
317.0696457202386
 20
187.8138822520609
 30
0.0
 10
317.0696457202386
 20
189.1138817835575
 30
0.0
 10
317.1265227336207
 20
190.4132333355643
 30
0.0
 10
317.2401069134966
 20
191.7080567673119
 30
0.0
  0
SPLINE
  5
E9
330
70
100
AcDbEntity
  8
shade
 62
     6
420
 16711935
370
    25
100
AcDbSpline
210
0.0
220
0.0
230
1.0
 70
     8
 71
     3
 72
     8
 73
     4
 74
     0
 42
0.0000000001
 43
0.0000000001
 40
0.0
 40
0.0
 40
0.0
 40
0.0
 40
1.0
 40
1.0
 40
1.0
 40
1.0
 10
317.2401069134825
 20
191.7080567673119
 30
0.0
 10
317.3666696890393
 20
193.1508320513124
 30
0.0
 10
317.8464455587778
 20
194.5380468418431
 30
0.0
 10
318.6353827300588
 20
195.7423306266437
 30
0.0
  0
SPLINE
  5
EA
330
70
100
AcDbEntity
  8
shade
 62
     6
420
 16711935
370
    25
100
AcDbSpline
210
0.0
220
0.0
230
1.0
 70
     8
 71
     3
 72
     8
 73
     4
 74
     0
 42
0.0000000001
 43
0.0000000001
 40
0.0
 40
0.0
 40
0.0
 40
0.0
 40
1.0
 40
1.0
 40
1.0
 40
1.0
 10
318.6353827300646
 20
195.7423306266434
 30
0.0
 10
321.2301423719237
 20
199.7031364751902
 30
0.0
 10
325.5913026042728
 20
202.0811162910473
 30
0.0
 10
330.2605696961793
 20
202.0811162910473
 30
0.0
  0
LINE
  5
EB
330
70
100
AcDbEntity
  8
shade
 62
     6
420
 16711935
370
    25
100
AcDbLine
 10
330.197961675319
 20
202.0811162910457
 30
0.0
 11
330.2579014398809
 21
202.0811162910457
 31
0.0
  0
SPLINE
  5
EC
330
70
100
AcDbEntity
  8
shade
 62
     6
420
 16711935
370
    25
100
AcDbSpline
210
0.0
220
0.0
230
1.0
 70
     8
 71
     3
 72
     8
 73
     4
 74
     0
 42
0.0000000001
 43
0.0000000001
 40
0.0
 40
0.0
 40
0.0
 40
0.0
 40
1.0
 40
1.0
 40
1.0
 40
1.0
 10
316.8759621745091
 20
187.8138822520609
 30
0.0
 10
316.8759621745091
 20
189.1138817835575
 30
0.0
 10
316.933404363189
 20
190.4132333355643
 30
0.0
 10
317.0481172059253
 20
191.7080567673119
 30
0.0
  0
SPLINE
  5
ED
330
70
100
AcDbEntity
  8
shade
 62
     6
420
 16711935
370
    25
100
AcDbSpline
210
0.0
220
0.0
230
1.0
 70
     8
 71
     3
 72
     8
 73
     4
 74
     0
 42
0.0000000001
 43
0.0000000001
 40
0.0
 40
0.0
 40
0.0
 40
0.0
 40
1.0
 40
1.0
 40
1.0
 40
1.0
 10
317.0481172059262
 20
191.7080567673119
 30
0.0
 10
317.1759376100059
 20
193.1508320513124
 30
0.0
 10
317.6604809148426
 20
194.5380468418431
 30
0.0
 10
318.4572575941062
 20
195.7423306266437
 30
0.0
  0
SPLINE
  5
EE
330
70
100
AcDbEntity
  8
shade
 62
     6
420
 16711935
370
    25
100
AcDbSpline
210
0.0
220
0.0
230
1.0
 70
     8
 71
     3
 72
     8
 73
     4
 74
     0
 42
0.0000000001
 43
0.0000000001
 40
0.0
 40
0.0
 40
0.0
 40
0.0
 40
1.0
 40
1.0
 40
1.0
 40
1.0
 10
318.4572575941088
 20
195.7423306266434
 30
0.0
 10
321.0778008340354
 20
199.7031364751902
 30
0.0
 10
325.4822970273441
 20
202.0811162910473
 30
0.0
 10
330.197961675319
 20
202.0811162910473
 30
0.0
  0
LINE
  5
EF
330
70
100
AcDbEntity
  8
shade
 62
     6
420
 16711935
370
    25
100
AcDbLine
 10
330.1561091958384
 20
202.0811162910457
 30
0.0
 11
330.1952749579211
 21
202.0811162910457
 31
0.0
  0
SPLINE
  5
F0
330
70
100
AcDbEntity
  8
shade
 62
     6
420
 16711935
370
    25
100
AcDbSpline
210
0.0
220
0.0
230
1.0
 70
     8
 71
     3
 72
     8
 73
     4
 74
     0
 42
0.0000000001
 43
0.0000000001
 40
0.0
 40
0.0
 40
0.0
 40
0.0
 40
1.0
 40
1.0
 40
1.0
 40
1.0
 10
316.746487763527
 20
187.8138822520609
 30
0.0
 10
316.746487763527
 20
189.1138817835575
 30
0.0
 10
316.8043077630242
 20
190.4132333355643
 30
0.0
 10
316.9197750991717
 20
191.7080567673119
 30
0.0
  0
SPLINE
  5
F1
330
70
100
AcDbEntity
  8
shade
 62
     6
420
 16711935
370
    25
100
AcDbSpline
210
0.0
220
0.0
230
1.0
 70
     8
 71
     3
 72
     8
 73
     4
 74
     0
 42
0.0000000001
 43
0.0000000001
 40
0.0
 40
0.0
 40
0.0
 40
0.0
 40
1.0
 40
1.0
 40
1.0
 40
1.0
 10
316.9197750991877
 20
191.7080567673119
 30
0.0
 10
317.0484362081997
 20
193.1508320513124
 30
0.0
 10
317.5361664685873
 20
194.5380468418431
 30
0.0
 10
318.3381837359174
 20
195.7423306266437
 30
0.0
  0
SPLINE
  5
F2
330
70
100
AcDbEntity
  8
shade
 62
     6
420
 16711935
370
    25
100
AcDbSpline
210
0.0
220
0.0
230
1.0
 70
     8
 71
     3
 72
     8
 73
     4
 74
     0
 42
0.0000000001
 43
0.0000000001
 40
0.0
 40
0.0
 40
0.0
 40
0.0
 40
1.0
 40
1.0
 40
1.0
 40
1.0
 10
318.3381837359162
 20
195.7423306266434
 30
0.0
 10
320.9759629065467
 20
199.7031364751902
 30
0.0
 10
325.4094285097161
 20
202.0811162910473
 30
0.0
 10
330.1561091958384
 20
202.0811162910473
 30
0.0
  0
LINE
  5
F3
330
70
100
AcDbEntity
  8
shade
 62
     6
420
 16711935
370
    25
100
AcDbLine
 10
330.1351487718209
 20
202.0811162910457
 30
0.0
 11
330.1534087144753
 21
202.0811162910457
 31
0.0
  0
SPLINE
  5
F4
330
70
100
AcDbEntity
  8
shade
 62
     6
420
 16711935
370
    25
100
AcDbSpline
210
0.0
220
0.0
230
1.0
 70
     8
 71
     3
 72
     8
 73
     4
 74
     0
 42
0.0000000001
 43
0.0000000001
 40
0.0
 40
0.0
 40
0.0
 40
0.0
 40
1.0
 40
1.0
 40
1.0
 40
1.0
 10
316.6816448059417
 20
187.8138822520609
 30
0.0
 10
316.6816448059417
 20
189.1138817835575
 30
0.0
 10
316.7396540194358
 20
190.4132333355643
 30
0.0
 10
316.855499218544
 20
191.7080567673119
 30
0.0
  0
SPLINE
  5
F5
330
70
100
AcDbEntity
  8
shade
 62
     6
420
 16711935
370
    25
100
AcDbSpline
210
0.0
220
0.0
230
1.0
 70
     8
 71
     3
 72
     8
 73
     4
 74
     0
 42
0.0000000001
 43
0.0000000001
 40
0.0
 40
0.0
 40
0.0
 40
0.0
 40
1.0
 40
1.0
 40
1.0
 40
1.0
 10
316.8554992185392
 20
191.7080567673119
 30
0.0
 10
316.9845813666884
 20
193.1508320513124
 30
0.0
 10
317.4739077078934
 20
194.5380468418431
 30
0.0
 10
318.2785495496641
 20
195.7423306266437
 30
0.0
  0
SPLINE
  5
F6
330
70
100
AcDbEntity
  8
shade
 62
     6
420
 16711935
370
    25
100
AcDbSpline
210
0.0
220
0.0
230
1.0
 70
     8
 71
     3
 72
     8
 73
     4
 74
     0
 42
0.0000000001
 43
0.0000000001
 40
0.0
 40
0.0
 40
0.0
 40
0.0
 40
1.0
 40
1.0
 40
1.0
 40
1.0
 10
318.2785495496631
 20
195.7423306266434
 30
0.0
 10
320.9249607636095
 20
199.7031364751902
 30
0.0
 10
325.3729347333442
 20
202.0811162910473
 30
0.0
 10
330.1351487718209
 20
202.0811162910473
 30
0.0
  0
SPLINE
  5
F7
330
70
100
AcDbEntity
  8
shade
 62
     6
420
 16711935
370
    25
100
AcDbSpline
210
0.0
220
0.0
230
1.0
 70
     8
 71
     3
 72
     8
 73
     4
 74
     0
 42
0.0000000001
 43
0.0000000001
 40
0.0
 40
0.0
 40
0.0
 40
0.0
 40
1.0
 40
1.0
 40
1.0
 40
1.0
 10
336.0614819763993
 20
195.2137674016713
 30
0.0
 10
336.0410237533029
 20
194.1419548331988
 30
0.0
 10
336.0285825068555
 20
192.9073336696265
 30
0.0
 10
336.0253005604698
 20
191.6232636668664
 30
0.0
  0
SPLINE
  5
F8
330
70
100
AcDbEntity
  8
shade
 62
     6
420
 16711935
370
    25
100
AcDbSpline
210
0.0
220
0.0
230
1.0
 70
     8
 71
     3
 72
     8
 73
     4
 74
     0
 42
0.0000000001
 43
0.0000000001
 40
0.0
 40
0.0
 40
0.0
 40
0.0
 40
1.0
 40
1.0
 40
1.0
 40
1.0
 10
336.0253005604814
 20
191.6232636668661
 30
0.0
 10
336.0220631901677
 20
190.3566341675884
 30
0.0
 10
336.0204420845273
 20
189.0855751449051
 30
0.0
 10
336.0204420845273
 20
187.8138822520609
 30
0.0
  0
SPLINE
  5
F9
330
70
100
AcDbEntity
  8
shade
 62
     6
420
 16711935
370
    25
100
AcDbSpline
210
0.0
220
0.0
230
1.0
 70
     8
 71
     3
 72
     8
 73
     4
 74
     0
 42
0.0000000001
 43
0.0000000001
 40
0.0
 40
0.0
 40
0.0
 40
0.0
 40
1.0
 40
1.0
 40
1.0
 40
1.0
 10
336.3284425888128
 20
201.0181530181761
 30
0.0
 10
336.2197211549832
 20
200.5216281288548
 30
0.0
 10
336.122411211942
 20
198.4058686966623
 30
0.0
 10
336.0614819764025
 20
195.2137674016716
 30
0.0
  0
SPLINE
  5
FA
330
70
100
AcDbEntity
  8
shade
 62
     6
420
 16711935
370
    25
100
AcDbSpline
210
0.0
220
0.0
230
1.0
 70
     8
 71
     3
 72
     8
 73
     4
 74
     0
 42
0.0000000001
 43
0.0000000001
 40
0.0
 40
0.0
 40
0.0
 40
0.0
 40
1.0
 40
1.0
 40
1.0
 40
1.0
 10
335.0636877978739
 20
195.2137674016713
 30
0.0
 10
335.002379859147
 20
194.1419548331988
 30
0.0
 10
334.9650967006204
 20
192.9073336696265
 30
0.0
 10
334.9552615665038
 20
191.6232636668664
 30
0.0
  0
SPLINE
  5
FB
330
70
100
AcDbEntity
  8
shade
 62
     6
420
 16711935
370
    25
100
AcDbSpline
210
0.0
220
0.0
230
1.0
 70
     8
 71
     3
 72
     8
 73
     4
 74
     0
 42
0.0000000001
 43
0.0000000001
 40
0.0
 40
0.0
 40
0.0
 40
0.0
 40
1.0
 40
1.0
 40
1.0
 40
1.0
 10
334.9552615665071
 20
191.6232636668661
 30
0.0
 10
334.9455600152097
 20
190.3566341675884
 30
0.0
 10
334.9407019860056
 20
189.0855751449051
 30
0.0
 10
334.9407019860056
 20
187.8138822520609
 30
0.0
  0
SPLINE
  5
FC
330
70
100
AcDbEntity
  8
shade
 62
     6
420
 16711935
370
    25
100
AcDbSpline
210
0.0
220
0.0
230
1.0
 70
     8
 71
     3
 72
     8
 73
     4
 74
     0
 42
0.0000000001
 43
0.0000000001
 40
0.0
 40
0.0
 40
0.0
 40
0.0
 40
1.0
 40
1.0
 40
1.0
 40
1.0
 10
335.8910391179741
 20
201.0558996991726
 30
0.0
 10
335.5547326853657
 20
200.6396567505878
 30
0.0
 10
335.2516220749827
 20
198.4993177632514
 30
0.0
 10
335.0636877978742
 20
195.2137674016713
 30
0.0
  0
SPLINE
  5
FD
330
70
100
AcDbEntity
  8
shade
 62
     6
420
 16711935
370
    25
100
AcDbSpline
210
0.0
220
0.0
230
1.0
 70
     8
 71
     3
 72
     8
 73
     4
 74
     0
 42
0.0000000001
 43
0.0000000001
 40
0.0
 40
0.0
 40
0.0
 40
0.0
 40
1.0
 40
1.0
 40
1.0
 40
1.0
 10
334.0707781734628
 20
195.2137674016713
 30
0.0
 10
333.9688204928588
 20
194.1419548331988
 30
0.0
 10
333.9068170321662
 20
192.9073336696265
 30
0.0
 10
333.8904607904828
 20
191.6232636668664
 30
0.0
  0
SPLINE
  5
FE
330
70
100
AcDbEntity
  8
shade
 62
     6
420
 16711935
370
    25
100
AcDbSpline
210
0.0
220
0.0
230
1.0
 70
     8
 71
     3
 72
     8
 73
     4
 74
     0
 42
0.0000000001
 43
0.0000000001
 40
0.0
 40
0.0
 40
0.0
 40
0.0
 40
1.0
 40
1.0
 40
1.0
 40
1.0
 10
333.8904607904883
 20
191.6232636668661
 30
0.0
 10
333.8743267026512
 20
190.3566341675884
 30
0.0
 10
333.8662475957648
 20
189.0855751449051
 30
0.0
 10
333.8662475957648
 20
187.8138822520609
 30
0.0
  0
SPLINE
  5
FF
330
70
100
AcDbEntity
  8
shade
 62
     6
420
 16711935
370
    25
100
AcDbSpline
210
0.0
220
0.0
230
1.0
 70
     8
 71
     3
 72
     8
 73
     4
 74
     0
 42
0.0000000001
 43
0.0000000001
 40
0.0
 40
0.0
 40
0.0
 40
0.0
 40
1.0
 40
1.0
 40
1.0
 40
1.0
 10
335.0979227200177
 20
200.5602731025909
 30
0.0
 10
334.6777531565605
 20
199.6677572696229
 30
0.0
 10
334.3147065567558
 20
197.7780225462366
 30
0.0
 10
334.0707781734663
 20
195.2137674016713
 30
0.0
  0
SPLINE
  5
100
330
70
100
AcDbEntity
  8
shade
 62
     6
420
 16711935
370
    25
100
AcDbSpline
210
0.0
220
0.0
230
1.0
 70
     8
 71
     3
 72
     8
 73
     4
 74
     0
 42
0.0000000001
 43
0.0000000001
 40
0.0
 40
0.0
 40
0.0
 40
0.0
 40
1.0
 40
1.0
 40
1.0
 40
1.0
 10
333.0859917679888
 20
195.2137674016713
 30
0.0
 10
332.9437169102691
 20
194.1419548331988
 30
0.0
 10
332.8571953898123
 20
192.9073336696265
 30
0.0
 10
332.8343713912222
 20
191.6232636668664
 30
0.0
  0
SPLINE
  5
101
330
70
100
AcDbEntity
  8
shade
 62
     6
420
 16711935
370
    25
100
AcDbSpline
210
0.0
220
0.0
230
1.0
 70
     8
 71
     3
 72
     8
 73
     4
 74
     0
 42
0.0000000001
 43
0.0000000001
 40
0.0
 40
0.0
 40
0.0
 40
0.0
 40
1.0
 40
1.0
 40
1.0
 40
1.0
 10
332.8343713912215
 20
191.6232636668661
 30
0.0
 10
332.8118573928855
 20
190.3566341675884
 30
0.0
 10
332.8005835606838
 20
189.0855751449051
 30
0.0
 10
332.8005835606838
 20
187.8138822520609
 30
0.0
  0
SPLINE
  5
102
330
70
100
AcDbEntity
  8
shade
 62
     6
420
 16711935
370
    25
100
AcDbSpline
210
0.0
220
0.0
230
1.0
 70
     8
 71
     3
 72
     8
 73
     4
 74
     0
 42
0.0000000001
 43
0.0000000001
 40
0.0
 40
0.0
 40
0.0
 40
0.0
 40
1.0
 40
1.0
 40
1.0
 40
1.0
 10
334.1683616945366
 20
199.8857124095111
 30
0.0
 10
333.729440607842
 20
198.8566940093074
 30
0.0
 10
333.3550450589092
 20
197.2406518661418
 30
0.0
 10
333.0859917679898
 20
195.2137674016713
 30
0.0
  0
SPLINE
  5
103
330
70
100
AcDbEntity
  8
shade
 62
     6
420
 16711935
370
    25
100
AcDbSpline
210
0.0
220
0.0
230
1.0
 70
     8
 71
     3
 72
     8
 73
     4
 74
     0
 42
0.0000000001
 43
0.0000000001
 40
0.0
 40
0.0
 40
0.0
 40
0.0
 40
1.0
 40
1.0
 40
1.0
 40
1.0
 10
332.1125407500193
 20
195.2137674016716
 30
0.0
 10
331.9304127861983
 20
194.1419548331988
 30
0.0
 10
331.8196554211928
 20
192.9073336696265
 30
0.0
 10
331.7904381128355
 20
191.6232636668664
 30
0.0
  0
SPLINE
  5
104
330
70
100
AcDbEntity
  8
shade
 62
     6
420
 16711935
370
    25
100
AcDbSpline
210
0.0
220
0.0
230
1.0
 70
     8
 71
     3
 72
     8
 73
     4
 74
     0
 42
0.0000000001
 43
0.0000000001
 40
0.0
 40
0.0
 40
0.0
 40
0.0
 40
1.0
 40
1.0
 40
1.0
 40
1.0
 10
331.7904381128316
 20
191.6232636668661
 30
0.0
 10
331.7616176399798
 20
190.3566341675884
 30
0.0
 10
331.747185855361
 20
189.0855751449051
 30
0.0
 10
331.747185855361
 20
187.8138822520609
 30
0.0
  0
SPLINE
  5
105
330
70
100
AcDbEntity
  8
shade
 62
     6
420
 16711935
370
    25
100
AcDbSpline
210
0.0
220
0.0
230
1.0
 70
     8
 71
     3
 72
     8
 73
     4
 74
     0
 42
0.0000000001
 43
0.0000000001
 40
0.0
 40
0.0
 40
0.0
 40
0.0
 40
1.0
 40
1.0
 40
1.0
 40
1.0
 10
333.1231407481386
 20
199.0821615089483
 30
0.0
 10
332.7209775899842
 20
198.0860414311758
 30
0.0
 10
332.376641515881
 20
196.76798518493
 30
0.0
 10
332.1125407500139
 20
195.2137674016713
 30
0.0
  0
SPLINE
  5
106
330
70
100
AcDbEntity
  8
shade
 62
     6
420
 16711935
370
    25
100
AcDbSpline
210
0.0
220
0.0
230
1.0
 70
     8
 71
     3
 72
     8
 73
     4
 74
     0
 42
0.0000000001
 43
0.0000000001
 40
0.0
 40
0.0
 40
0.0
 40
0.0
 40
1.0
 40
1.0
 40
1.0
 40
1.0
 10
331.1536003144353
 20
195.2137674016716
 30
0.0
 10
330.9322133080755
 20
194.1419548331988
 30
0.0
 10
330.797581366025
 20
192.9073336696265
 30
0.0
 10
330.7620660486879
 20
191.6232636668664
 30
0.0
  0
SPLINE
  5
107
330
70
100
AcDbEntity
  8
shade
 62
     6
420
 16711935
370
    25
100
AcDbSpline
210
0.0
220
0.0
230
1.0
 70
     8
 71
     3
 72
     8
 73
     4
 74
     0
 42
0.0000000001
 43
0.0000000001
 40
0.0
 40
0.0
 40
0.0
 40
0.0
 40
1.0
 40
1.0
 40
1.0
 40
1.0
 10
330.7620660486987
 20
191.6232636668661
 30
0.0
 10
330.727033107723
 20
190.3566341675884
 30
0.0
 10
330.7094904441683
 20
189.0855751449051
 30
0.0
 10
330.7094904441683
 20
187.8138822520609
 30
0.0
  0
SPLINE
  5
108
330
70
100
AcDbEntity
  8
shade
 62
     6
420
 16711935
370
    25
100
AcDbSpline
210
0.0
220
0.0
230
1.0
 70
     8
 71
     3
 72
     8
 73
     4
 74
     0
 42
0.0000000001
 43
0.0000000001
 40
0.0
 40
0.0
 40
0.0
 40
0.0
 40
1.0
 40
1.0
 40
1.0
 40
1.0
 10
331.9760765877979
 20
198.1388720609286
 30
0.0
 10
331.6584543837805
 20
197.3017523007236
 30
0.0
 10
331.3812390699405
 20
196.3158468923937
 30
0.0
 10
331.1536003144353
 20
195.2137674016713
 30
0.0
  0
SPLINE
  5
109
330
70
100
AcDbEntity
  8
shade
 62
     6
420
 16711935
370
    25
100
AcDbSpline
210
0.0
220
0.0
230
1.0
 70
     8
 71
     3
 72
     8
 73
     4
 74
     0
 42
0.0000000001
 43
0.0000000001
 40
0.0
 40
0.0
 40
0.0
 40
0.0
 40
1.0
 40
1.0
 40
1.0
 40
1.0
 10
330.2122983256129
 20
195.2137674016716
 30
0.0
 10
329.9523743951117
 20
194.1419548331988
 30
0.0
 10
329.7943070174278
 20
192.9073336696265
 30
0.0
 10
329.7526095346936
 20
191.6232636668664
 30
0.0
  0
SPLINE
  5
10A
330
70
100
AcDbEntity
  8
shade
 62
     6
420
 16711935
370
    25
100
AcDbSpline
210
0.0
220
0.0
230
1.0
 70
     8
 71
     3
 72
     8
 73
     4
 74
     0
 42
0.0000000001
 43
0.0000000001
 40
0.0
 40
0.0
 40
0.0
 40
0.0
 40
1.0
 40
1.0
 40
1.0
 40
1.0
 10
329.7526095346863
 20
191.6232636668661
 30
0.0
 10
329.7114783957584
 20
190.3566341675884
 30
0.0
 10
329.6908820737901
 20
189.0855751449051
 30
0.0
 10
329.6908820737901
 20
187.8138822520609
 30
0.0
  0
SPLINE
  5
10B
330
70
100
AcDbEntity
  8
shade
 62
     6
420
 16711935
370
    25
100
AcDbSpline
210
0.0
220
0.0
230
1.0
 70
     8
 71
     3
 72
     8
 73
     4
 74
     0
 42
0.0000000001
 43
0.0000000001
 40
0.0
 40
0.0
 40
0.0
 40
0.0
 40
1.0
 40
1.0
 40
1.0
 40
1.0
 10
330.7374967089312
 20
197.0179281534663
 30
0.0
 10
330.5437755546004
 20
196.4596690039175
 30
0.0
 10
330.3680466028815
 20
195.8560051547665
 30
0.0
 10
330.2122983256071
 20
195.2137674016713
 30
0.0
  0
SPLINE
  5
10C
330
70
100
AcDbEntity
  8
shade
 62
     6
420
 16711935
370
    25
100
AcDbSpline
210
0.0
220
0.0
230
1.0
 70
     8
 71
     3
 72
     8
 73
     4
 74
     0
 42
0.0000000001
 43
0.0000000001
 40
0.0
 40
0.0
 40
0.0
 40
0.0
 40
1.0
 40
1.0
 40
1.0
 40
1.0
 10
329.2917051149965
 20
195.2137674016716
 30
0.0
 10
328.9940920781905
 20
194.1419548331988
 30
0.0
 10
328.8131048478041
 20
192.9073336696265
 30
0.0
 10
328.7653612081947
 20
191.6232636668664
 30
0.0
  0
SPLINE
  5
10D
330
70
100
AcDbEntity
  8
shade
 62
     6
420
 16711935
370
    25
100
AcDbSpline
210
0.0
220
0.0
230
1.0
 70
     8
 71
     3
 72
     8
 73
     4
 74
     0
 42
0.0000000001
 43
0.0000000001
 40
0.0
 40
0.0
 40
0.0
 40
0.0
 40
1.0
 40
1.0
 40
1.0
 40
1.0
 10
328.7653612081775
 20
191.6232636668661
 30
0.0
 10
328.7182660325233
 20
190.3566341675884
 30
0.0
 10
328.6946832330627
 20
189.0855751449051
 30
0.0
 10
328.6946832330627
 20
187.8138822520609
 30
0.0
  0
SPLINE
  5
10E
330
70
100
AcDbEntity
  8
shade
 62
     6
420
 16711935
370
    25
100
AcDbSpline
210
0.0
220
0.0
230
1.0
 70
     8
 71
     3
 72
     8
 73
     4
 74
     0
 42
0.0000000001
 43
0.0000000001
 40
0.0
 40
0.0
 40
0.0
 40
0.0
 40
1.0
 40
1.0
 40
1.0
 40
1.0
 10
329.4156824223617
 20
195.6418540074909
 30
0.0
 10
329.3731989793163
 20
195.5011216496272
 30
0.0
 10
329.3318652751378
 20
195.3583987150553
 30
0.0
 10
329.2917051149946
 20
195.2137674016713
 30
0.0
  0
SPLINE
  5
10F
330
70
100
AcDbEntity
  8
shade
 62
     6
420
 16711935
370
    25
100
AcDbSpline
210
0.0
220
0.0
230
1.0
 70
     8
 71
     3
 72
     8
 73
     4
 74
     0
 42
0.0000000001
 43
0.0000000001
 40
0.0
 40
0.0
 40
0.0
 40
0.0
 40
1.0
 40
1.0
 40
1.0
 40
1.0
 10
328.1389170027432
 20
194.2495055093078
 30
0.0
 10
327.9551688823787
 20
193.4237649873694
 30
0.0
 10
327.8415997725273
 20
192.5344342534209
 30
0.0
 10
327.8035412680305
 20
191.6232636668664
 30
0.0
  0
SPLINE
  5
110
330
70
100
AcDbEntity
  8
shade
 62
     6
420
 16711935
370
    25
100
AcDbSpline
210
0.0
220
0.0
230
1.0
 70
     8
 71
     3
 72
     8
 73
     4
 74
     0
 42
0.0000000001
 43
0.0000000001
 40
0.0
 40
0.0
 40
0.0
 40
0.0
 40
1.0
 40
1.0
 40
1.0
 40
1.0
 10
327.8035412680227
 20
191.6232636668661
 30
0.0
 10
327.7506356703169
 20
190.3566341675884
 30
0.0
 10
327.7241433155539
 20
189.0855751449051
 30
0.0
 10
327.7241433155539
 20
187.8138822520609
 30
0.0
  0
LINE
  5
111
330
70
100
AcDbEntity
  8
shade
 62
     6
420
 16711935
370
    25
100
AcDbLine
 10
336.3874341677721
 20
202.0811162910457
 30
0.0
 11
336.4385675009382
 21
201.5210875167058
 31
0.0
  0
LINE
  5
112
330
70
100
AcDbEntity
  8
shade
 62
     6
420
 16711935
370
    25
100
AcDbLine
 10
336.561194045227
 20
202.0811162910457
 30
0.0
 11
336.3284425888144
 21
201.0181530181752
 31
0.0
  0
LINE
  5
113
330
70
100
AcDbEntity
  8
shade
 62
     6
420
 16711935
370
    25
100
AcDbLine
 10
336.561194045227
 20
202.0811162910457
 30
0.0
 11
336.561194045227
 21
173.5466482130745
 31
0.0
  0
LINE
  5
114
330
70
100
AcDbEntity
  8
shade
 62
     6
420
 16711935
370
    25
100
AcDbLine
 10
336.1941890947688
 20
173.5466482130745
 30
0.0
 11
336.3874341677721
 21
173.5466482130745
 31
0.0
  0
SPLINE
  5
115
330
70
100
AcDbEntity
  8
shade
 62
     6
420
 16711935
370
    25
100
AcDbSpline
210
0.0
220
0.0
230
1.0
 70
     8
 71
     3
 72
     8
 73
     4
 74
     0
 42
0.0000000001
 43
0.0000000001
 40
0.0
 40
0.0
 40
0.0
 40
0.0
 40
1.0
 40
1.0
 40
1.0
 40
1.0
 10
335.4258312095507
 20
187.8138822520609
 30
0.0
 10
335.4258312095507
 20
186.5138827205637
 30
0.0
 10
335.4291442376449
 20
185.2145311685569
 30
0.0
 10
335.4357604004249
 20
183.91970773681
 30
0.0
  0
SPLINE
  5
116
330
70
100
AcDbEntity
  8
shade
 62
     6
420
 16711935
370
    25
100
AcDbSpline
210
0.0
220
0.0
230
1.0
 70
     8
 71
     3
 72
     8
 73
     4
 74
     0
 42
0.0000000001
 43
0.0000000001
 40
0.0
 40
0.0
 40
0.0
 40
0.0
 40
1.0
 40
1.0
 40
1.0
 40
1.0
 10
335.4357604004345
 20
183.9197077368093
 30
0.0
 10
335.4431325531925
 20
182.4769324528094
 30
0.0
 10
335.4710790089009
 20
181.0897176622788
 30
0.0
 10
335.5170337955101
 20
179.8854338774781
 30
0.0
  0
SPLINE
  5
117
330
70
100
AcDbEntity
  8
shade
 62
     6
420
 16711935
370
    25
100
AcDbSpline
210
0.0
220
0.0
230
1.0
 70
     8
 71
     3
 72
     8
 73
     4
 74
     0
 42
0.0000000001
 43
0.0000000001
 40
0.0
 40
0.0
 40
0.0
 40
0.0
 40
1.0
 40
1.0
 40
1.0
 40
1.0
 10
335.5170337955091
 20
179.8854338774781
 30
0.0
 10
335.6681759016026
 20
175.924628028931
 30
0.0
 10
335.9222090428215
 20
173.5466482130745
 30
0.0
 10
336.1941890947688
 20
173.5466482130745
 30
0.0
  0
LINE
  5
118
330
70
100
AcDbEntity
  8
shade
 62
     6
420
 16711935
370
    25
100
AcDbLine
 10
335.8283812381719
 20
173.5466482130745
 30
0.0
 11
336.194034241052
 21
173.5466482130745
 31
0.0
  0
SPLINE
  5
119
330
70
100
AcDbEntity
  8
shade
 62
     6
420
 16711935
370
    25
100
AcDbSpline
210
0.0
220
0.0
230
1.0
 70
     8
 71
     3
 72
     8
 73
     4
 74
     0
 42
0.0000000001
 43
0.0000000001
 40
0.0
 40
0.0
 40
0.0
 40
0.0
 40
1.0
 40
1.0
 40
1.0
 40
1.0
 10
334.294171691458
 20
187.8138822520609
 30
0.0
 10
334.294171691458
 20
186.5138827205637
 30
0.0
 10
334.3007869412371
 20
185.2145311685569
 30
0.0
 10
334.3139976862491
 20
183.91970773681
 30
0.0
  0
SPLINE
  5
11A
330
70
100
AcDbEntity
  8
shade
 62
     6
420
 16711935
370
    25
100
AcDbSpline
210
0.0
220
0.0
230
1.0
 70
     8
 71
     3
 72
     8
 73
     4
 74
     0
 42
0.0000000001
 43
0.0000000001
 40
0.0
 40
0.0
 40
0.0
 40
0.0
 40
1.0
 40
1.0
 40
1.0
 40
1.0
 10
334.3139976862667
 20
183.9197077368093
 30
0.0
 10
334.3287179453534
 20
182.4769324528094
 30
0.0
 10
334.3845197012405
 20
181.0897176622788
 30
0.0
 10
334.4762793794959
 20
179.8854338774781
 30
0.0
  0
SPLINE
  5
11B
330
70
100
AcDbEntity
  8
shade
 62
     6
420
 16711935
370
    25
100
AcDbSpline
210
0.0
220
0.0
230
1.0
 70
     8
 71
     3
 72
     8
 73
     4
 74
     0
 42
0.0000000001
 43
0.0000000001
 40
0.0
 40
0.0
 40
0.0
 40
0.0
 40
1.0
 40
1.0
 40
1.0
 40
1.0
 10
334.4762793794901
 20
179.8854338774781
 30
0.0
 10
334.7780705975424
 20
175.924628028931
 30
0.0
 10
335.2853082766744
 20
173.5466482130745
 30
0.0
 10
335.8283812381719
 20
173.5466482130745
 30
0.0
  0
LINE
  5
11C
330
70
100
AcDbEntity
  8
shade
 62
     6
420
 16711935
370
    25
100
AcDbLine
 10
335.4649636646394
 20
173.5466482130745
 30
0.0
 11
335.8278868316306
 21
173.5466482130745
 31
0.0
  0
SPLINE
  5
11D
330
70
100
AcDbEntity
  8
shade
 62
     6
420
 16711935
370
    25
100
AcDbSpline
210
0.0
220
0.0
230
1.0
 70
     8
 71
     3
 72
     8
 73
     4
 74
     0
 42
0.0000000001
 43
0.0000000001
 40
0.0
 40
0.0
 40
0.0
 40
0.0
 40
1.0
 40
1.0
 40
1.0
 40
1.0
 10
333.1699067290861
 20
187.8138822520609
 30
0.0
 10
333.1699067290861
 20
186.5138827205637
 30
0.0
 10
333.1798026229805
 20
185.2145311685569
 30
0.0
 10
333.1995648595202
 20
183.91970773681
 30
0.0
  0
SPLINE
  5
11E
330
70
100
AcDbEntity
  8
shade
 62
     6
420
 16711935
370
    25
100
AcDbSpline
210
0.0
220
0.0
230
1.0
 70
     8
 71
     3
 72
     8
 73
     4
 74
     0
 42
0.0000000001
 43
0.0000000001
 40
0.0
 40
0.0
 40
0.0
 40
0.0
 40
1.0
 40
1.0
 40
1.0
 40
1.0
 10
333.1995648595341
 20
183.9197077368093
 30
0.0
 10
333.2215852105232
 20
182.4769324528094
 30
0.0
 10
333.3050602528597
 20
181.0897176622788
 30
0.0
 10
333.4423255217636
 20
179.8854338774781
 30
0.0
  0
SPLINE
  5
11F
330
70
100
AcDbEntity
  8
shade
 62
     6
420
 16711935
370
    25
100
AcDbSpline
210
0.0
220
0.0
230
1.0
 70
     8
 71
     3
 72
     8
 73
     4
 74
     0
 42
0.0000000001
 43
0.0000000001
 40
0.0
 40
0.0
 40
0.0
 40
0.0
 40
1.0
 40
1.0
 40
1.0
 40
1.0
 10
333.4423255217656
 20
179.8854338774781
 30
0.0
 10
333.8937814715503
 20
175.9246280289316
 30
0.0
 10
334.6525691847153
 20
173.5466482130745
 30
0.0
 10
335.4649636646394
 20
173.5466482130745
 30
0.0
  0
LINE
  5
120
330
70
100
AcDbEntity
  8
shade
 62
     6
420
 16711935
370
    25
100
AcDbLine
 10
335.1051217667476
 20
173.5466482130745
 30
0.0
 11
335.464182250408
 21
173.5466482130745
 31
0.0
  0
SPLINE
  5
121
330
70
100
AcDbEntity
  8
shade
 62
     6
420
 16711935
370
    25
100
AcDbSpline
210
0.0
220
0.0
230
1.0
 70
     8
 71
     3
 72
     8
 73
     4
 74
     0
 42
0.0000000001
 43
0.0000000001
 40
0.0
 40
0.0
 40
0.0
 40
0.0
 40
1.0
 40
1.0
 40
1.0
 40
1.0
 10
332.056703441061
 20
187.8138822520609
 30
0.0
 10
332.056703441061
 20
186.5138827205637
 30
0.0
 10
332.0698477007219
 20
185.2145311685569
 30
0.0
 10
332.0960969684813
 20
183.91970773681
 30
0.0
  0
SPLINE
  5
122
330
70
100
AcDbEntity
  8
shade
 62
     6
420
 16711935
370
    25
100
AcDbSpline
210
0.0
220
0.0
230
1.0
 70
     8
 71
     3
 72
     8
 73
     4
 74
     0
 42
0.0000000001
 43
0.0000000001
 40
0.0
 40
0.0
 40
0.0
 40
0.0
 40
1.0
 40
1.0
 40
1.0
 40
1.0
 10
332.096096968491
 20
183.9197077368093
 30
0.0
 10
332.1253455855751
 20
182.4769324528094
 30
0.0
 10
332.2362216361229
 20
181.0897176622788
 30
0.0
 10
332.4185447648993
 20
179.8854338774781
 30
0.0
  0
SPLINE
  5
123
330
70
100
AcDbEntity
  8
shade
 62
     6
420
 16711935
370
    25
100
AcDbSpline
210
0.0
220
0.0
230
1.0
 70
     8
 71
     3
 72
     8
 73
     4
 74
     0
 42
0.0000000001
 43
0.0000000001
 40
0.0
 40
0.0
 40
0.0
 40
0.0
 40
1.0
 40
1.0
 40
1.0
 40
1.0
 10
332.4185447648939
 20
179.8854338774781
 30
0.0
 10
333.018192890939
 20
175.9246280289316
 30
0.0
 10
334.0260556303327
 20
173.5466482130745
 30
0.0
 10
335.1051217667476
 20
173.5466482130745
 30
0.0
  0
LINE
  5
124
330
70
100
AcDbEntity
  8
shade
 62
     6
420
 16711935
370
    25
100
AcDbLine
 10
334.7500292739888
 20
173.5466482130745
 30
0.0
 11
335.1041120152399
 21
173.5466482130745
 31
0.0
  0
SPLINE
  5
125
330
70
100
AcDbEntity
  8
shade
 62
     6
420
 16711935
370
    25
100
AcDbSpline
210
0.0
220
0.0
230
1.0
 70
     8
 71
     3
 72
     8
 73
     4
 74
     0
 42
0.0000000001
 43
0.0000000001
 40
0.0
 40
0.0
 40
0.0
 40
0.0
 40
1.0
 40
1.0
 40
1.0
 40
1.0
 10
330.958192865143
 20
187.8138822520609
 30
0.0
 10
330.958192865143
 20
186.5138827205637
 30
0.0
 10
330.9745426167269
 20
185.2145311685569
 30
0.0
 10
331.0071932960507
 20
183.91970773681
 30
0.0
  0
SPLINE
  5
126
330
70
100
AcDbEntity
  8
shade
 62
     6
420
 16711935
370
    25
100
AcDbSpline
210
0.0
220
0.0
230
1.0
 70
     8
 71
     3
 72
     8
 73
     4
 74
     0
 42
0.0000000001
 43
0.0000000001
 40
0.0
 40
0.0
 40
0.0
 40
0.0
 40
1.0
 40
1.0
 40
1.0
 40
1.0
 10
331.0071932960341
 20
183.9197077368093
 30
0.0
 10
331.0435747763032
 20
182.4769324528094
 30
0.0
 10
331.1814901804316
 20
181.0897176622788
 30
0.0
 10
331.4082764689298
 20
179.8854338774781
 30
0.0
  0
SPLINE
  5
127
330
70
100
AcDbEntity
  8
shade
 62
     6
420
 16711935
370
    25
100
AcDbSpline
210
0.0
220
0.0
230
1.0
 70
     8
 71
     3
 72
     8
 73
     4
 74
     0
 42
0.0000000001
 43
0.0000000001
 40
0.0
 40
0.0
 40
0.0
 40
0.0
 40
1.0
 40
1.0
 40
1.0
 40
1.0
 10
331.4082764689301
 20
179.8854338774781
 30
0.0
 10
332.1541608436856
 20
175.924628028931
 30
0.0
 10
333.4078111705356
 20
173.5466482130745
 30
0.0
 10
334.7500292739888
 20
173.5466482130745
 30
0.0
  0
LINE
  5
128
330
70
100
AcDbEntity
  8
shade
 62
     6
420
 16711935
370
    25
100
AcDbLine
 10
334.4008444242531
 20
173.5466482130745
 30
0.0
 11
334.7488296042558
 21
173.5466482130745
 31
0.0
  0
SPLINE
  5
129
330
70
100
AcDbEntity
  8
shade
 62
     6
420
 16711935
370
    25
100
AcDbSpline
210
0.0
220
0.0
230
1.0
 70
     8
 71
     3
 72
     8
 73
     4
 74
     0
 42
0.0000000001
 43
0.0000000001
 40
0.0
 40
0.0
 40
0.0
 40
0.0
 40
1.0
 40
1.0
 40
1.0
 40
1.0
 10
329.877958114443
 20
187.8138822520609
 30
0.0
 10
329.877958114443
 20
186.5138827205637
 30
0.0
 10
329.8974600284591
 20
185.2145311685569
 30
0.0
 10
329.9364056196177
 20
183.91970773681
 30
0.0
  0
SPLINE
  5
12A
330
70
100
AcDbEntity
  8
shade
 62
     6
420
 16711935
370
    25
100
AcDbSpline
210
0.0
220
0.0
230
1.0
 70
     8
 71
     3
 72
     8
 73
     4
 74
     0
 42
0.0000000001
 43
0.0000000001
 40
0.0
 40
0.0
 40
0.0
 40
0.0
 40
1.0
 40
1.0
 40
1.0
 40
1.0
 10
329.9364056195985
 20
183.9197077368093
 30
0.0
 10
329.9798012942265
 20
182.4769324528094
 30
0.0
 10
330.144306200553
 20
181.0897176622788
 30
0.0
 10
330.4148159190386
 20
179.8854338774781
 30
0.0
  0
SPLINE
  5
12B
330
70
100
AcDbEntity
  8
shade
 62
     6
420
 16711935
370
    25
100
AcDbSpline
210
0.0
220
0.0
230
1.0
 70
     8
 71
     3
 72
     8
 73
     4
 74
     0
 42
0.0000000001
 43
0.0000000001
 40
0.0
 40
0.0
 40
0.0
 40
0.0
 40
1.0
 40
1.0
 40
1.0
 40
1.0
 10
330.4148159190412
 20
179.8854338774781
 30
0.0
 10
331.3045036227119
 20
175.9246280289316
 30
0.0
 10
332.7998523902294
 20
173.5466482130745
 30
0.0
 10
334.4008444242531
 20
173.5466482130745
 30
0.0
  0
LINE
  5
12C
330
70
100
AcDbEntity
  8
shade
 62
     6
420
 16711935
370
    25
100
AcDbLine
 10
334.0587061859543
 20
173.5466482130745
 30
0.0
 11
334.3994810649957
 21
173.5466482130745
 31
0.0
  0
SPLINE
  5
12D
330
70
100
AcDbEntity
  8
shade
 62
     6
420
 16711935
370
    25
100
AcDbSpline
210
0.0
220
0.0
230
1.0
 70
     8
 71
     3
 72
     8
 73
     4
 74
     0
 42
0.0000000001
 43
0.0000000001
 40
0.0
 40
0.0
 40
0.0
 40
0.0
 40
1.0
 40
1.0
 40
1.0
 40
1.0
 10
328.8195226902222
 20
187.8138822520609
 30
0.0
 10
328.8195226902226
 20
186.5138827205637
 30
0.0
 10
328.8421131554802
 20
185.2145311685569
 30
0.0
 10
328.8872266260505
 20
183.91970773681
 30
0.0
  0
SPLINE
  5
12E
330
70
100
AcDbEntity
  8
shade
 62
     6
420
 16711935
370
    25
100
AcDbSpline
210
0.0
220
0.0
230
1.0
 70
     8
 71
     3
 72
     8
 73
     4
 74
     0
 42
0.0000000001
 43
0.0000000001
 40
0.0
 40
0.0
 40
0.0
 40
0.0
 40
1.0
 40
1.0
 40
1.0
 40
1.0
 10
328.8872266260408
 20
183.9197077368093
 30
0.0
 10
328.9374949473563
 20
182.4769324528094
 30
0.0
 10
329.1280527750696
 20
181.0897176622788
 30
0.0
 10
329.4414035770672
 20
179.8854338774781
 30
0.0
  0
SPLINE
  5
12F
330
70
100
AcDbEntity
  8
shade
 62
     6
420
 16711935
370
    25
100
AcDbSpline
210
0.0
220
0.0
230
1.0
 70
     8
 71
     3
 72
     8
 73
     4
 74
     0
 42
0.0000000001
 43
0.0000000001
 40
0.0
 40
0.0
 40
0.0
 40
0.0
 40
1.0
 40
1.0
 40
1.0
 40
1.0
 10
329.4414035770675
 20
179.8854338774781
 30
0.0
 10
330.4719926332875
 20
175.924628028931
 30
0.0
 10
332.2041623246046
 20
173.5466482130745
 30
0.0
 10
334.0587061859543
 20
173.5466482130745
 30
0.0
  0
LINE
  5
130
330
70
100
AcDbEntity
  8
shade
 62
     6
420
 16711935
370
    25
100
AcDbLine
 10
333.7247305429006
 20
173.5466482130745
 30
0.0
 11
334.0571983052946
 21
173.5466482130745
 31
0.0
  0
SPLINE
  5
131
330
70
100
AcDbEntity
  8
shade
 62
     6
420
 16711935
370
    25
100
AcDbSpline
210
0.0
220
0.0
230
1.0
 70
     8
 71
     3
 72
     8
 73
     4
 74
     0
 42
0.0000000001
 43
0.0000000001
 40
0.0
 40
0.0
 40
0.0
 40
0.0
 40
1.0
 40
1.0
 40
1.0
 40
1.0
 10
327.786338988831
 20
187.8138822520609
 30
0.0
 10
327.786338988831
 20
186.5138827205637
 30
0.0
 10
327.8119443199289
 20
185.2145311685569
 30
0.0
 10
327.8630785191464
 20
183.91970773681
 30
0.0
  0
SPLINE
  5
132
330
70
100
AcDbEntity
  8
shade
 62
     6
420
 16711935
370
    25
100
AcDbSpline
210
0.0
220
0.0
230
1.0
 70
     8
 71
     3
 72
     8
 73
     4
 74
     0
 42
0.0000000001
 43
0.0000000001
 40
0.0
 40
0.0
 40
0.0
 40
0.0
 40
1.0
 40
1.0
 40
1.0
 40
1.0
 10
327.8630785191429
 20
183.9197077368093
 30
0.0
 10
327.9200555223308
 20
182.4769324528094
 30
0.0
 10
328.1360447114049
 20
181.0897176622788
 30
0.0
 10
328.491214511729
 20
179.8854338774781
 30
0.0
  0
SPLINE
  5
133
330
70
100
AcDbEntity
  8
shade
 62
     6
420
 16711935
370
    25
100
AcDbSpline
210
0.0
220
0.0
230
1.0
 70
     8
 71
     3
 72
     8
 73
     4
 74
     0
 42
0.0000000001
 43
0.0000000001
 40
0.0
 40
0.0
 40
0.0
 40
0.0
 40
1.0
 40
1.0
 40
1.0
 40
1.0
 10
328.491214511731
 20
179.8854338774781
 30
0.0
 10
329.6593433532096
 20
175.924628028931
 30
0.0
 10
331.6226839908291
 20
173.5466482130745
 30
0.0
 10
333.7247305429006
 20
173.5466482130745
 30
0.0
  0
LINE
  5
134
330
70
100
AcDbEntity
  8
shade
 62
     6
420
 16711935
370
    25
100
AcDbLine
 10
333.4000068542231
 20
173.5466482130745
 30
0.0
 11
333.7230930792907
 21
173.5466482130745
 31
0.0
  0
SPLINE
  5
135
330
70
100
AcDbEntity
  8
shade
 62
     6
420
 16711935
370
    25
100
AcDbSpline
210
0.0
220
0.0
230
1.0
 70
     8
 71
     3
 72
     8
 73
     4
 74
     0
 42
0.0000000001
 43
0.0000000001
 40
0.0
 40
0.0
 40
0.0
 40
0.0
 40
1.0
 40
1.0
 40
1.0
 40
1.0
 10
326.781777040748
 20
187.8138822520609
 30
0.0
 10
326.781777040748
 20
186.5138827205637
 30
0.0
 10
326.8103137184178
 20
185.2145311685569
 30
0.0
 10
326.8673018571529
 20
183.91970773681
 30
0.0
  0
SPLINE
  5
136
330
70
100
AcDbEntity
  8
shade
 62
     6
420
 16711935
370
    25
100
AcDbSpline
210
0.0
220
0.0
230
1.0
 70
     8
 71
     3
 72
     8
 73
     4
 74
     0
 42
0.0000000001
 43
0.0000000001
 40
0.0
 40
0.0
 40
0.0
 40
0.0
 40
1.0
 40
1.0
 40
1.0
 40
1.0
 10
326.8673018571635
 20
183.9197077368093
 30
0.0
 10
326.9308016950819
 20
182.4769324528094
 30
0.0
 10
327.1715177336759
 20
181.0897176622788
 30
0.0
 10
327.5673480422613
 20
179.8854338774781
 30
0.0
  0
SPLINE
  5
137
330
70
100
AcDbEntity
  8
shade
 62
     6
420
 16711935
370
    25
100
AcDbSpline
210
0.0
220
0.0
230
1.0
 70
     8
 71
     3
 72
     8
 73
     4
 74
     0
 42
0.0000000001
 43
0.0000000001
 40
0.0
 40
0.0
 40
0.0
 40
0.0
 40
1.0
 40
1.0
 40
1.0
 40
1.0
 10
327.5673480422609
 20
179.8854338774781
 30
0.0
 10
328.8692064755168
 20
175.924628028931
 30
0.0
 10
331.0573140503659
 20
173.5466482130745
 30
0.0
 10
333.4000068542231
 20
173.5466482130745
 30
0.0
  0
LINE
  5
138
330
70
100
AcDbEntity
  8
shade
 62
     6
420
 16711935
370
    25
100
AcDbLine
 10
333.0855943011044
 20
173.5466482130745
 30
0.0
 11
333.3982519522704
 21
173.5466482130745
 31
0.0
  0
SPLINE
  5
139
330
70
100
AcDbEntity
  8
shade
 62
     6
420
 16711935
370
    25
100
AcDbSpline
210
0.0
220
0.0
230
1.0
 70
     8
 71
     3
 72
     8
 73
     4
 74
     0
 42
0.0000000001
 43
0.0000000001
 40
0.0
 40
0.0
 40
0.0
 40
0.0
 40
1.0
 40
1.0
 40
1.0
 40
1.0
 10
325.8091135182795
 20
187.8138822520609
 30
0.0
 10
325.8091135182795
 20
186.5138827205637
 30
0.0
 10
325.8404884618097
 20
185.2145311685569
 30
0.0
 10
325.9031446565998
 20
183.91970773681
 30
0.0
  0
SPLINE
  5
13A
330
70
100
AcDbEntity
  8
shade
 62
     6
420
 16711935
370
    25
100
AcDbSpline
210
0.0
220
0.0
230
1.0
 70
     8
 71
     3
 72
     8
 73
     4
 74
     0
 42
0.0000000001
 43
0.0000000001
 40
0.0
 40
0.0
 40
0.0
 40
0.0
 40
1.0
 40
1.0
 40
1.0
 40
1.0
 10
325.9031446566123
 20
183.9197077368093
 30
0.0
 10
325.9729602059883
 20
182.4769324528094
 30
0.0
 10
326.2376179284172
 20
181.0897176622788
 30
0.0
 10
326.6728176290708
 20
179.8854338774781
 30
0.0
  0
SPLINE
  5
13B
330
70
100
AcDbEntity
  8
shade
 62
     6
420
 16711935
370
    25
100
AcDbSpline
210
0.0
220
0.0
230
1.0
 70
     8
 71
     3
 72
     8
 73
     4
 74
     0
 42
0.0000000001
 43
0.0000000001
 40
0.0
 40
0.0
 40
0.0
 40
0.0
 40
1.0
 40
1.0
 40
1.0
 40
1.0
 10
326.6728176290695
 20
179.8854338774781
 30
0.0
 10
328.1041592624863
 20
175.924628028931
 30
0.0
 10
330.5098966224559
 20
173.5466482130745
 30
0.0
 10
333.0855943011044
 20
173.5466482130745
 30
0.0
  0
LINE
  5
13C
330
70
100
AcDbEntity
  8
shade
 62
     6
420
 16711935
370
    25
100
AcDbLine
 10
332.7825184319403
 20
173.5466482130745
 30
0.0
 11
333.0837322169099
 21
173.5466482130745
 31
0.0
  0
SPLINE
  5
13D
330
70
100
AcDbEntity
  8
shade
 62
     6
420
 16711935
370
    25
100
AcDbSpline
210
0.0
220
0.0
230
1.0
 70
     8
 71
     3
 72
     8
 73
     4
 74
     0
 42
0.0000000001
 43
0.0000000001
 40
0.0
 40
0.0
 40
0.0
 40
0.0
 40
1.0
 40
1.0
 40
1.0
 40
1.0
 10
324.8715210476856
 20
187.8138822520609
 30
0.0
 10
324.8715210476856
 20
186.5138827205637
 30
0.0
 10
324.9056319185324
 20
185.2145311685569
 30
0.0
 10
324.9737517978925
 20
183.91970773681
 30
0.0
  0
SPLINE
  5
13E
330
70
100
AcDbEntity
  8
shade
 62
     6
420
 16711935
370
    25
100
AcDbSpline
210
0.0
220
0.0
230
1.0
 70
     8
 71
     3
 72
     8
 73
     4
 74
     0
 42
0.0000000001
 43
0.0000000001
 40
0.0
 40
0.0
 40
0.0
 40
0.0
 40
1.0
 40
1.0
 40
1.0
 40
1.0
 10
324.9737517978777
 20
183.9197077368093
 30
0.0
 10
325.0496553349008
 20
182.4769324528094
 30
0.0
 10
325.3373914826836
 20
181.0897176622788
 30
0.0
 10
325.8105410444382
 20
179.8854338774781
 30
0.0
  0
SPLINE
  5
13F
330
70
100
AcDbEntity
  8
shade
 62
     6
420
 16711935
370
    25
100
AcDbSpline
210
0.0
220
0.0
230
1.0
 70
     8
 71
     3
 72
     8
 73
     4
 74
     0
 42
0.0000000001
 43
0.0000000001
 40
0.0
 40
0.0
 40
0.0
 40
0.0
 40
1.0
 40
1.0
 40
1.0
 40
1.0
 10
325.8105410444372
 20
179.8854338774781
 30
0.0
 10
327.3666971391114
 20
175.924628028931
 30
0.0
 10
329.9822172689677
 20
173.5466482130745
 30
0.0
 10
332.7825184319403
 20
173.5466482130745
 30
0.0
  0
LINE
  5
140
330
70
100
AcDbEntity
  8
shade
 62
     6
420
 16711935
370
    25
100
AcDbLine
 10
332.4917678172216
 20
173.5466482130745
 30
0.0
 11
332.7805581016209
 21
173.5466482130745
 31
0.0
  0
SPLINE
  5
141
330
70
100
AcDbEntity
  8
shade
 62
     6
420
 16711935
370
    25
100
AcDbSpline
210
0.0
220
0.0
230
1.0
 70
     8
 71
     3
 72
     8
 73
     4
 74
     0
 42
0.0000000001
 43
0.0000000001
 40
0.0
 40
0.0
 40
0.0
 40
0.0
 40
1.0
 40
1.0
 40
1.0
 40
1.0
 10
323.9720578606172
 20
187.8138822520609
 30
0.0
 10
323.9720578606172
 20
186.5138827205637
 30
0.0
 10
324.0087933962096
 20
185.2145311685569
 30
0.0
 10
324.0821547672523
 20
183.91970773681
 30
0.0
  0
SPLINE
  5
142
330
70
100
AcDbEntity
  8
shade
 62
     6
420
 16711935
370
    25
100
AcDbSpline
210
0.0
220
0.0
230
1.0
 70
     8
 71
     3
 72
     8
 73
     4
 74
     0
 42
0.0000000001
 43
0.0000000001
 40
0.0
 40
0.0
 40
0.0
 40
0.0
 40
1.0
 40
1.0
 40
1.0
 40
1.0
 10
324.0821547672585
 20
183.9197077368093
 30
0.0
 10
324.1638987103677
 20
182.4769324528094
 30
0.0
 10
324.4737747479978
 20
181.0897176622788
 30
0.0
 10
324.9833308553295
 20
179.8854338774781
 30
0.0
  0
SPLINE
  5
143
330
70
100
AcDbEntity
  8
shade
 62
     6
420
 16711935
370
    25
100
AcDbSpline
210
0.0
220
0.0
230
1.0
 70
     8
 71
     3
 72
     8
 73
     4
 74
     0
 42
0.0000000001
 43
0.0000000001
 40
0.0
 40
0.0
 40
0.0
 40
0.0
 40
1.0
 40
1.0
 40
1.0
 40
1.0
 10
324.9833308553298
 20
179.8854338774781
 30
0.0
 10
326.6592255535352
 20
175.924628028931
 30
0.0
 10
329.4759971702629
 20
173.5466482130745
 30
0.0
 10
332.4917678172216
 20
173.5466482130745
 30
0.0
  0
LINE
  5
144
330
70
100
AcDbEntity
  8
shade
 62
     6
420
 16711935
370
    25
100
AcDbLine
 10
332.2142908250183
 20
173.5466482130745
 30
0.0
 11
332.489717195185
 21
173.5466482130745
 31
0.0
  0
SPLINE
  5
145
330
70
100
AcDbEntity
  8
shade
 62
     6
420
 16711935
370
    25
100
AcDbSpline
210
0.0
220
0.0
230
1.0
 70
     8
 71
     3
 72
     8
 73
     4
 74
     0
 42
0.0000000001
 43
0.0000000001
 40
0.0
 40
0.0
 40
0.0
 40
0.0
 40
1.0
 40
1.0
 40
1.0
 40
1.0
 10
323.1136578191402
 20
187.8138822520609
 30
0.0
 10
323.1136578191402
 20
186.5138827205637
 30
0.0
 10
323.1528981957965
 20
185.2145311685569
 30
0.0
 10
323.231261768978
 20
183.91970773681
 30
0.0
  0
SPLINE
  5
146
330
70
100
AcDbEntity
  8
shade
 62
     6
420
 16711935
370
    25
100
AcDbSpline
210
0.0
220
0.0
230
1.0
 70
     8
 71
     3
 72
     8
 73
     4
 74
     0
 42
0.0000000001
 43
0.0000000001
 40
0.0
 40
0.0
 40
0.0
 40
0.0
 40
1.0
 40
1.0
 40
1.0
 40
1.0
 10
323.2312617689755
 20
183.9197077368093
 30
0.0
 10
323.3185794864188
 20
182.4769324528094
 30
0.0
 10
323.6495846626695
 20
181.0897176622788
 30
0.0
 10
324.1938852494679
 20
179.8854338774781
 30
0.0
  0
SPLINE
  5
147
330
70
100
AcDbEntity
  8
shade
 62
     6
420
 16711935
370
    25
100
AcDbSpline
210
0.0
220
0.0
230
1.0
 70
     8
 71
     3
 72
     8
 73
     4
 74
     0
 42
0.0000000001
 43
0.0000000001
 40
0.0
 40
0.0
 40
0.0
 40
0.0
 40
1.0
 40
1.0
 40
1.0
 40
1.0
 10
324.1938852494708
 20
179.8854338774781
 30
0.0
 10
325.9840521310385
 20
175.924628028931
 30
0.0
 10
328.9928875110923
 20
173.5466482130745
 30
0.0
 10
332.2142908250183
 20
173.5466482130745
 30
0.0
  0
LINE
  5
148
330
70
100
AcDbEntity
  8
shade
 62
     6
420
 16711935
370
    25
100
AcDbLine
 10
331.9509925276066
 20
173.5466482130745
 30
0.0
 11
332.2121571559697
 21
173.5466482130745
 31
0.0
  0
SPLINE
  5
149
330
70
100
AcDbEntity
  8
shade
 62
     6
420
 16711935
370
    25
100
AcDbSpline
210
0.0
220
0.0
230
1.0
 70
     8
 71
     3
 72
     8
 73
     4
 74
     0
 42
0.0000000001
 43
0.0000000001
 40
0.0
 40
0.0
 40
0.0
 40
0.0
 40
1.0
 40
1.0
 40
1.0
 40
1.0
 10
322.2991208457196
 20
187.8138822520609
 30
0.0
 10
322.2991208457196
 20
186.5138827205637
 30
0.0
 10
322.3407380694874
 20
185.2145311685569
 30
0.0
 10
322.42384823912
 20
183.91970773681
 30
0.0
  0
SPLINE
  5
14A
330
70
100
AcDbEntity
  8
shade
 62
     6
420
 16711935
370
    25
100
AcDbSpline
210
0.0
220
0.0
230
1.0
 70
     8
 71
     3
 72
     8
 73
     4
 74
     0
 42
0.0000000001
 43
0.0000000001
 40
0.0
 40
0.0
 40
0.0
 40
0.0
 40
1.0
 40
1.0
 40
1.0
 40
1.0
 10
322.4238482391261
 20
183.9197077368093
 30
0.0
 10
322.5164549186585
 20
182.4769324528094
 30
0.0
 10
322.8675095634449
 20
181.0897176622788
 30
0.0
 10
323.4447792343303
 20
179.8854338774781
 30
0.0
  0
SPLINE
  5
14B
330
70
100
AcDbEntity
  8
shade
 62
     6
420
 16711935
370
    25
100
AcDbSpline
210
0.0
220
0.0
230
1.0
 70
     8
 71
     3
 72
     8
 73
     4
 74
     0
 42
0.0000000001
 43
0.0000000001
 40
0.0
 40
0.0
 40
0.0
 40
0.0
 40
1.0
 40
1.0
 40
1.0
 40
1.0
 10
323.4447792343287
 20
179.8854338774781
 30
0.0
 10
325.3433791469819
 20
175.924628028931
 30
0.0
 10
328.534464094747
 20
173.5466482130745
 30
0.0
 10
331.9509925276066
 20
173.5466482130745
 30
0.0
  0
LINE
  5
14C
330
70
100
AcDbEntity
  8
shade
 62
     6
420
 16711935
370
    25
100
AcDbLine
 10
331.7027317493006
 20
173.5466482130745
 30
0.0
 11
331.9487824999745
 21
173.5466482130745
 31
0.0
  0
SPLINE
  5
14D
330
70
100
AcDbEntity
  8
shade
 62
     6
420
 16711935
370
    25
100
AcDbSpline
210
0.0
220
0.0
230
1.0
 70
     8
 71
     3
 72
     8
 73
     4
 74
     0
 42
0.0000000001
 43
0.0000000001
 40
0.0
 40
0.0
 40
0.0
 40
0.0
 40
1.0
 40
1.0
 40
1.0
 40
1.0
 10
321.5311037906884
 20
187.8138822520609
 30
0.0
 10
321.5311037906884
 20
186.5138827205637
 30
0.0
 10
321.5749621148341
 20
185.2145311685569
 30
0.0
 10
321.6625477928191
 20
183.91970773681
 30
0.0
  0
SPLINE
  5
14E
330
70
100
AcDbEntity
  8
shade
 62
     6
420
 16711935
370
    25
100
AcDbSpline
210
0.0
220
0.0
230
1.0
 70
     8
 71
     3
 72
     8
 73
     4
 74
     0
 42
0.0000000001
 43
0.0000000001
 40
0.0
 40
0.0
 40
0.0
 40
0.0
 40
1.0
 40
1.0
 40
1.0
 40
1.0
 10
321.6625477928076
 20
183.9197077368093
 30
0.0
 10
321.7601413706892
 20
182.4769324528094
 30
0.0
 10
322.1301004167275
 20
181.0897176622788
 30
0.0
 10
322.7384562380198
 20
179.8854338774781
 30
0.0
  0
SPLINE
  5
14F
330
70
100
AcDbEntity
  8
shade
 62
     6
420
 16711935
370
    25
100
AcDbSpline
210
0.0
220
0.0
230
1.0
 70
     8
 71
     3
 72
     8
 73
     4
 74
     0
 42
0.0000000001
 43
0.0000000001
 40
0.0
 40
0.0
 40
0.0
 40
0.0
 40
1.0
 40
1.0
 40
1.0
 40
1.0
 10
322.7384562380234
 20
179.8854338774781
 30
0.0
 10
324.7392963434742
 20
175.924628028931
 30
0.0
 10
328.1022222031235
 20
173.5466482130745
 30
0.0
 10
331.7027317493006
 20
173.5466482130745
 30
0.0
  0
LINE
  5
150
330
70
100
AcDbEntity
  8
shade
 62
     6
420
 16711935
370
    25
100
AcDbLine
 10
331.4703182651638
 20
173.5466482130745
 30
0.0
 11
331.7004516167338
 21
173.5466482130745
 31
0.0
  0
SPLINE
  5
151
330
70
100
AcDbEntity
  8
shade
 62
     6
420
 16711935
370
    25
100
AcDbSpline
210
0.0
220
0.0
230
1.0
 70
     8
 71
     3
 72
     8
 73
     4
 74
     0
 42
0.0000000001
 43
0.0000000001
 40
0.0
 40
0.0
 40
0.0
 40
0.0
 40
1.0
 40
1.0
 40
1.0
 40
1.0
 10
320.8121117660204
 20
187.8138822520609
 30
0.0
 10
320.8121117660208
 20
186.5138827205637
 30
0.0
 10
320.8580681338071
 20
185.2145311685569
 30
0.0
 10
320.9498436338675
 20
183.91970773681
 30
0.0
  0
SPLINE
  5
152
330
70
100
AcDbEntity
  8
shade
 62
     6
420
 16711935
370
    25
100
AcDbSpline
210
0.0
220
0.0
230
1.0
 70
     8
 71
     3
 72
     8
 73
     4
 74
     0
 42
0.0000000001
 43
0.0000000001
 40
0.0
 40
0.0
 40
0.0
 40
0.0
 40
1.0
 40
1.0
 40
1.0
 40
1.0
 10
320.9498436338572
 20
183.9197077368093
 30
0.0
 10
321.0521057801217
 20
182.4769324528094
 30
0.0
 10
321.4397624979004
 20
181.0897176622788
 30
0.0
 10
322.0772201393594
 20
179.8854338774781
 30
0.0
  0
SPLINE
  5
153
330
70
100
AcDbEntity
  8
shade
 62
     6
420
 16711935
370
    25
100
AcDbSpline
210
0.0
220
0.0
230
1.0
 70
     8
 71
     3
 72
     8
 73
     4
 74
     0
 42
0.0000000001
 43
0.0000000001
 40
0.0
 40
0.0
 40
0.0
 40
0.0
 40
1.0
 40
1.0
 40
1.0
 40
1.0
 10
322.0772201393569
 20
179.8854338774781
 30
0.0
 10
324.1737741130612
 20
175.924628028931
 30
0.0
 10
327.6975717194335
 20
173.5466482130745
 30
0.0
 10
331.4703182651638
 20
173.5466482130745
 30
0.0
  0
LINE
  5
154
330
70
100
AcDbEntity
  8
shade
 62
     6
420
 16711935
370
    25
100
AcDbLine
 10
331.2545101596722
 20
173.5466482130745
 30
0.0
 11
331.4679739309947
 21
173.5466482130745
 31
0.0
  0
SPLINE
  5
155
330
70
100
AcDbEntity
  8
shade
 62
     6
420
 16711935
370
    25
100
AcDbSpline
210
0.0
220
0.0
230
1.0
 70
     8
 71
     3
 72
     8
 73
     4
 74
     0
 42
0.0000000001
 43
0.0000000001
 40
0.0
 40
0.0
 40
0.0
 40
0.0
 40
1.0
 40
1.0
 40
1.0
 40
1.0
 10
320.1444899742351
 20
187.8138822520609
 30
0.0
 10
320.1444899742351
 20
186.5138827205637
 30
0.0
 10
320.1923944855428
 20
185.2145311685569
 30
0.0
 10
320.2880604550734
 20
183.91970773681
 30
0.0
  0
SPLINE
  5
156
330
70
100
AcDbEntity
  8
shade
 62
     6
420
 16711935
370
    25
100
AcDbSpline
210
0.0
220
0.0
230
1.0
 70
     8
 71
     3
 72
     8
 73
     4
 74
     0
 42
0.0000000001
 43
0.0000000001
 40
0.0
 40
0.0
 40
0.0
 40
0.0
 40
1.0
 40
1.0
 40
1.0
 40
1.0
 10
320.2880604550847
 20
183.9197077368093
 30
0.0
 10
320.3946576118665
 20
182.4769324528094
 30
0.0
 10
320.7987475457479
 20
181.0897176622788
 30
0.0
 10
321.4632277530444
 20
179.8854338774781
 30
0.0
  0
SPLINE
  5
157
330
70
100
AcDbEntity
  8
shade
 62
     6
420
 16711935
370
    25
100
AcDbSpline
210
0.0
220
0.0
230
1.0
 70
     8
 71
     3
 72
     8
 73
     4
 74
     0
 42
0.0000000001
 43
0.0000000001
 40
0.0
 40
0.0
 40
0.0
 40
0.0
 40
1.0
 40
1.0
 40
1.0
 40
1.0
 10
321.463227753039
 20
179.8854338774781
 30
0.0
 10
323.6486570717099
 20
175.924628028931
 30
0.0
 10
327.3218325294442
 20
173.5466482130745
 30
0.0
 10
331.2545101596722
 20
173.5466482130745
 30
0.0
  0
LINE
  5
158
330
70
100
AcDbEntity
  8
shade
 62
     6
420
 16711935
370
    25
100
AcDbLine
 10
331.056011354013
 20
173.5466482130745
 30
0.0
 11
331.2521072888103
 21
173.5466482130745
 31
0.0
  0
SPLINE
  5
159
330
70
100
AcDbEntity
  8
shade
 62
     6
420
 16711935
370
    25
100
AcDbSpline
210
0.0
220
0.0
230
1.0
 70
     8
 71
     3
 72
     8
 73
     4
 74
     0
 42
0.0000000001
 43
0.0000000001
 40
0.0
 40
0.0
 40
0.0
 40
0.0
 40
1.0
 40
1.0
 40
1.0
 40
1.0
 10
319.5304160588953
 20
187.8138822520609
 30
0.0
 10
319.5304160588953
 20
186.5138827205637
 30
0.0
 10
319.5801124591651
 20
185.2145311685569
 30
0.0
 10
319.679356855658
 20
183.91970773681
 30
0.0
  0
SPLINE
  5
15A
330
70
100
AcDbEntity
  8
shade
 62
     6
420
 16711935
370
    25
100
AcDbSpline
210
0.0
220
0.0
230
1.0
 70
     8
 71
     3
 72
     8
 73
     4
 74
     0
 42
0.0000000001
 43
0.0000000001
 40
0.0
 40
0.0
 40
0.0
 40
0.0
 40
1.0
 40
1.0
 40
1.0
 40
1.0
 10
319.679356855674
 20
183.9197077368093
 30
0.0
 10
319.7899413252043
 20
182.4769324528094
 30
0.0
 10
320.2091464178152
 20
181.0897176622788
 30
0.0
 10
320.8984817946262
 20
179.8854338774781
 30
0.0
  0
SPLINE
  5
15B
330
70
100
AcDbEntity
  8
shade
 62
     6
420
 16711935
370
    25
100
AcDbSpline
210
0.0
220
0.0
230
1.0
 70
     8
 71
     3
 72
     8
 73
     4
 74
     0
 42
0.0000000001
 43
0.0000000001
 40
0.0
 40
0.0
 40
0.0
 40
0.0
 40
1.0
 40
1.0
 40
1.0
 40
1.0
 10
320.8984817946275
 20
179.8854338774781
 30
0.0
 10
323.1656580420726
 20
175.924628028931
 30
0.0
 10
326.9762302163028
 20
173.5466482130745
 30
0.0
 10
331.056011354013
 20
173.5466482130745
 30
0.0
  0
LINE
  5
15C
330
70
100
AcDbEntity
  8
shade
 62
     6
420
 16711935
370
    25
100
AcDbLine
 10
330.8754693100218
 20
173.5466482130745
 30
0.0
 11
331.0535553724161
 21
173.5466482130745
 31
0.0
  0
SPLINE
  5
15D
330
70
100
AcDbEntity
  8
shade
 62
     6
420
 16711935
370
    25
100
AcDbSpline
210
0.0
220
0.0
230
1.0
 70
     8
 71
     3
 72
     8
 73
     4
 74
     0
 42
0.0000000001
 43
0.0000000001
 40
0.0
 40
0.0
 40
0.0
 40
0.0
 40
1.0
 40
1.0
 40
1.0
 40
1.0
 10
318.9718930014871
 20
187.8138822520609
 30
0.0
 10
318.9718930014871
 20
186.5138827205637
 30
0.0
 10
319.0232191913907
 20
185.2145311685569
 30
0.0
 10
319.125718300252
 20
183.91970773681
 30
0.0
  0
SPLINE
  5
15E
330
70
100
AcDbEntity
  8
shade
 62
     6
420
 16711935
370
    25
100
AcDbSpline
210
0.0
220
0.0
230
1.0
 70
     8
 71
     3
 72
     8
 73
     4
 74
     0
 42
0.0000000001
 43
0.0000000001
 40
0.0
 40
0.0
 40
0.0
 40
0.0
 40
1.0
 40
1.0
 40
1.0
 40
1.0
 10
319.1257183002559
 20
183.9197077368093
 30
0.0
 10
319.23992937898
 20
182.4769324528094
 30
0.0
 10
319.6728822704408
 20
181.0897176622788
 30
0.0
 10
320.384824348047
 20
179.8854338774781
 30
0.0
  0
SPLINE
  5
15F
330
70
100
AcDbEntity
  8
shade
 62
     6
420
 16711935
370
    25
100
AcDbSpline
210
0.0
220
0.0
230
1.0
 70
     8
 71
     3
 72
     8
 73
     4
 74
     0
 42
0.0000000001
 43
0.0000000001
 40
0.0
 40
0.0
 40
0.0
 40
0.0
 40
1.0
 40
1.0
 40
1.0
 40
1.0
 10
320.3848243480454
 20
179.8854338774781
 30
0.0
 10
322.7263524665826
 20
175.924628028931
 30
0.0
 10
326.6618920629107
 20
173.5466482130745
 30
0.0
 10
330.8754693100218
 20
173.5466482130745
 30
0.0
  0
LINE
  5
160
330
70
100
AcDbEntity
  8
shade
 62
     6
420
 16711935
370
    25
100
AcDbLine
 10
330.7134729183295
 20
173.5466482130745
 30
0.0
 11
330.8729654820865
 21
173.5466482130745
 31
0.0
  0
SPLINE
  5
161
330
70
100
AcDbEntity
  8
shade
 62
     6
420
 16711935
370
    25
100
AcDbSpline
210
0.0
220
0.0
230
1.0
 70
     8
 71
     3
 72
     8
 73
     4
 74
     0
 42
0.0000000001
 43
0.0000000001
 40
0.0
 40
0.0
 40
0.0
 40
0.0
 40
1.0
 40
1.0
 40
1.0
 40
1.0
 10
318.4707425880734
 20
187.8138822520609
 30
0.0
 10
318.4707425880734
 20
186.5138827205637
 30
0.0
 10
318.523531152248
 20
185.2145311685569
 30
0.0
 10
318.6289506426898
 20
183.91970773681
 30
0.0
  0
SPLINE
  5
162
330
70
100
AcDbEntity
  8
shade
 62
     6
420
 16711935
370
    25
100
AcDbSpline
210
0.0
220
0.0
230
1.0
 70
     8
 71
     3
 72
     8
 73
     4
 74
     0
 42
0.0000000001
 43
0.0000000001
 40
0.0
 40
0.0
 40
0.0
 40
0.0
 40
1.0
 40
1.0
 40
1.0
 40
1.0
 10
318.6289506427093
 20
183.9197077368093
 30
0.0
 10
318.7464157978275
 20
182.4769324528094
 30
0.0
 10
319.1917042857968
 20
181.0897176622788
 30
0.0
 10
319.9239308571201
 20
179.8854338774781
 30
0.0
  0
SPLINE
  5
163
330
70
100
AcDbEntity
  8
shade
 62
     6
420
 16711935
370
    25
100
AcDbSpline
210
0.0
220
0.0
230
1.0
 70
     8
 71
     3
 72
     8
 73
     4
 74
     0
 42
0.0000000001
 43
0.0000000001
 40
0.0
 40
0.0
 40
0.0
 40
0.0
 40
1.0
 40
1.0
 40
1.0
 40
1.0
 10
319.9239308571182
 20
179.8854338774781
 30
0.0
 10
322.3321732687175
 20
175.924628028931
 30
0.0
 10
326.3798433749939
 20
173.5466482130745
 30
0.0
 10
330.7134729183295
 20
173.5466482130745
 30
0.0
  0
LINE
  5
164
330
70
100
AcDbEntity
  8
shade
 62
     6
420
 16711935
370
    25
100
AcDbLine
 10
330.5705505774871
 20
173.5466482130745
 30
0.0
 11
330.7109263573142
 21
173.5466482130745
 31
0.0
  0
SPLINE
  5
165
330
70
100
AcDbEntity
  8
shade
 62
     6
420
 16711935
370
    25
100
AcDbSpline
210
0.0
220
0.0
230
1.0
 70
     8
 71
     3
 72
     8
 73
     4
 74
     0
 42
0.0000000001
 43
0.0000000001
 40
0.0
 40
0.0
 40
0.0
 40
0.0
 40
1.0
 40
1.0
 40
1.0
 40
1.0
 10
318.0285994672309
 20
187.8138822520609
 30
0.0
 10
318.0285994672309
 20
186.5138827205637
 30
0.0
 10
318.0826782203524
 20
185.2145311685569
 30
0.0
 10
318.1906742359079
 20
183.91970773681
 30
0.0
  0
SPLINE
  5
166
330
70
100
AcDbEntity
  8
shade
 62
     6
420
 16711935
370
    25
100
AcDbSpline
210
0.0
220
0.0
230
1.0
 70
     8
 71
     3
 72
     8
 73
     4
 74
     0
 42
0.0000000001
 43
0.0000000001
 40
0.0
 40
0.0
 40
0.0
 40
0.0
 40
1.0
 40
1.0
 40
1.0
 40
1.0
 10
318.1906742358909
 20
183.9197077368093
 30
0.0
 10
318.311010320483
 20
182.4769324528094
 30
0.0
 10
318.7671819664661
 20
181.0897176622788
 30
0.0
 10
319.5173046606249
 20
179.8854338774781
 30
0.0
  0
SPLINE
  5
167
330
70
100
AcDbEntity
  8
shade
 62
     6
420
 16711935
370
    25
100
AcDbSpline
210
0.0
220
0.0
230
1.0
 70
     8
 71
     3
 72
     8
 73
     4
 74
     0
 42
0.0000000001
 43
0.0000000001
 40
0.0
 40
0.0
 40
0.0
 40
0.0
 40
1.0
 40
1.0
 40
1.0
 40
1.0
 10
319.5173046606281
 20
179.8854338774781
 30
0.0
 10
321.9844061790992
 20
175.924628028931
 30
0.0
 10
326.1310041367483
 20
173.5466482130745
 30
0.0
 10
330.5705505774871
 20
173.5466482130745
 30
0.0
  0
LINE
  5
168
330
70
100
AcDbEntity
  8
shade
 62
     6
420
 16711935
370
    25
100
AcDbLine
 10
330.4471684704682
 20
173.5466482130745
 30
0.0
 11
330.5679662950264
 21
173.5466482130745
 31
0.0
  0
SPLINE
  5
169
330
70
100
AcDbEntity
  8
shade
 62
     6
420
 16711935
370
    25
100
AcDbSpline
210
0.0
220
0.0
230
1.0
 70
     8
 71
     3
 72
     8
 73
     4
 74
     0
 42
0.0000000001
 43
0.0000000001
 40
0.0
 40
0.0
 40
0.0
 40
0.0
 40
1.0
 40
1.0
 40
1.0
 40
1.0
 10
317.6469058178065
 20
187.8138822520609
 30
0.0
 10
317.6469058178065
 20
186.5138827205637
 30
0.0
 10
317.7020983662223
 20
185.2145311685569
 30
0.0
 10
317.8123186463367
 20
183.91970773681
 30
0.0
  0
SPLINE
  5
16A
330
70
100
AcDbEntity
  8
shade
 62
     6
420
 16711935
370
    25
100
AcDbSpline
210
0.0
220
0.0
230
1.0
 70
     8
 71
     3
 72
     8
 73
     4
 74
     0
 42
0.0000000001
 43
0.0000000001
 40
0.0
 40
0.0
 40
0.0
 40
0.0
 40
1.0
 40
1.0
 40
1.0
 40
1.0
 10
317.8123186463265
 20
183.9197077368093
 30
0.0
 10
317.9351331490959
 20
182.4769324528094
 30
0.0
 10
318.4007000160013
 20
181.0897176622788
 30
0.0
 10
319.1662720886828
 20
179.8854338774781
 30
0.0
  0
SPLINE
  5
16B
330
70
100
AcDbEntity
  8
shade
 62
     6
420
 16711935
370
    25
100
AcDbSpline
210
0.0
220
0.0
230
1.0
 70
     8
 71
     3
 72
     8
 73
     4
 74
     0
 42
0.0000000001
 43
0.0000000001
 40
0.0
 40
0.0
 40
0.0
 40
0.0
 40
1.0
 40
1.0
 40
1.0
 40
1.0
 10
319.1662720886854
 20
179.8854338774781
 30
0.0
 10
321.6841855416701
 20
175.924628028931
 30
0.0
 10
325.9161860100399
 20
173.5466482130745
 30
0.0
 10
330.4471684704682
 20
173.5466482130745
 30
0.0
  0
LINE
  5
16C
330
70
100
AcDbEntity
  8
shade
 62
     6
420
 16711935
370
    25
100
AcDbLine
 10
330.3437290440622
 20
173.5466482130745
 30
0.0
 11
330.4445513766711
 21
173.5466482130745
 31
0.0
  0
SPLINE
  5
16D
330
70
100
AcDbEntity
  8
shade
 62
     6
420
 16711935
370
    25
100
AcDbSpline
210
0.0
220
0.0
230
1.0
 70
     8
 71
     3
 72
     8
 73
     4
 74
     0
 42
0.0000000001
 43
0.0000000001
 40
0.0
 40
0.0
 40
0.0
 40
0.0
 40
1.0
 40
1.0
 40
1.0
 40
1.0
 10
317.3269066452049
 20
187.8138822520609
 30
0.0
 10
317.3269066452049
 20
186.5138827205637
 30
0.0
 10
317.3830329622942
 20
185.2145311685569
 30
0.0
 10
317.4951179913231
 20
183.91970773681
 30
0.0
  0
SPLINE
  5
16E
330
70
100
AcDbEntity
  8
shade
 62
     6
420
 16711935
370
    25
100
AcDbSpline
210
0.0
220
0.0
230
1.0
 70
     8
 71
     3
 72
     8
 73
     4
 74
     0
 42
0.0000000001
 43
0.0000000001
 40
0.0
 40
0.0
 40
0.0
 40
0.0
 40
1.0
 40
1.0
 40
1.0
 40
1.0
 10
317.4951179913251
 20
183.9197077368093
 30
0.0
 10
317.620010316892
 20
182.4769324528094
 30
0.0
 10
318.0934538223682
 20
181.0897176622788
 30
0.0
 10
318.8719781365973
 20
179.8854338774781
 30
0.0
  0
SPLINE
  5
16F
330
70
100
AcDbEntity
  8
shade
 62
     6
420
 16711935
370
    25
100
AcDbSpline
210
0.0
220
0.0
230
1.0
 70
     8
 71
     3
 72
     8
 73
     4
 74
     0
 42
0.0000000001
 43
0.0000000001
 40
0.0
 40
0.0
 40
0.0
 40
0.0
 40
1.0
 40
1.0
 40
1.0
 40
1.0
 10
318.8719781365945
 20
179.8854338774781
 30
0.0
 10
321.4324906137631
 20
175.924628028931
 30
0.0
 10
325.736089686956
 20
173.5466482130745
 30
0.0
 10
330.3437290440622
 20
173.5466482130745
 30
0.0
  0
LINE
  5
170
330
70
100
AcDbEntity
  8
shade
 62
     6
420
 16711935
370
    25
100
AcDbLine
 10
330.2605696961793
 20
173.5466482130745
 30
0.0
 11
330.3410839723044
 21
173.5466482130745
 31
0.0
  0
SPLINE
  5
171
330
70
100
AcDbEntity
  8
shade
 62
     6
420
 16711935
370
    25
100
AcDbSpline
210
0.0
220
0.0
230
1.0
 70
     8
 71
     3
 72
     8
 73
     4
 74
     0
 42
0.0000000001
 43
0.0000000001
 40
0.0
 40
0.0
 40
0.0
 40
0.0
 40
1.0
 40
1.0
 40
1.0
 40
1.0
 10
317.0696457202386
 20
187.8138822520609
 30
0.0
 10
317.0696457202386
 20
186.5138827205637
 30
0.0
 10
317.1265227336207
 20
185.2145311685569
 30
0.0
 10
317.2401069134966
 20
183.91970773681
 30
0.0
  0
SPLINE
  5
172
330
70
100
AcDbEntity
  8
shade
 62
     6
420
 16711935
370
    25
100
AcDbSpline
210
0.0
220
0.0
230
1.0
 70
     8
 71
     3
 72
     8
 73
     4
 74
     0
 42
0.0000000001
 43
0.0000000001
 40
0.0
 40
0.0
 40
0.0
 40
0.0
 40
1.0
 40
1.0
 40
1.0
 40
1.0
 10
317.2401069134825
 20
183.9197077368093
 30
0.0
 10
317.3666696890393
 20
182.4769324528094
 30
0.0
 10
317.8464455587778
 20
181.0897176622788
 30
0.0
 10
318.6353827300588
 20
179.8854338774781
 30
0.0
  0
SPLINE
  5
173
330
70
100
AcDbEntity
  8
shade
 62
     6
420
 16711935
370
    25
100
AcDbSpline
210
0.0
220
0.0
230
1.0
 70
     8
 71
     3
 72
     8
 73
     4
 74
     0
 42
0.0000000001
 43
0.0000000001
 40
0.0
 40
0.0
 40
0.0
 40
0.0
 40
1.0
 40
1.0
 40
1.0
 40
1.0
 10
318.6353827300646
 20
179.8854338774781
 30
0.0
 10
321.2301423719234
 20
175.924628028931
 30
0.0
 10
325.5913026042728
 20
173.5466482130745
 30
0.0
 10
330.2605696961793
 20
173.5466482130745
 30
0.0
  0
LINE
  5
174
330
70
100
AcDbEntity
  8
shade
 62
     6
420
 16711935
370
    25
100
AcDbLine
 10
330.197961675319
 20
173.5466482130745
 30
0.0
 11
330.2579014398809
 21
173.5466482130745
 31
0.0
  0
SPLINE
  5
175
330
70
100
AcDbEntity
  8
shade
 62
     6
420
 16711935
370
    25
100
AcDbSpline
210
0.0
220
0.0
230
1.0
 70
     8
 71
     3
 72
     8
 73
     4
 74
     0
 42
0.0000000001
 43
0.0000000001
 40
0.0
 40
0.0
 40
0.0
 40
0.0
 40
1.0
 40
1.0
 40
1.0
 40
1.0
 10
316.8759621745091
 20
187.8138822520609
 30
0.0
 10
316.8759621745091
 20
186.5138827205637
 30
0.0
 10
316.933404363189
 20
185.2145311685569
 30
0.0
 10
317.0481172059253
 20
183.91970773681
 30
0.0
  0
SPLINE
  5
176
330
70
100
AcDbEntity
  8
shade
 62
     6
420
 16711935
370
    25
100
AcDbSpline
210
0.0
220
0.0
230
1.0
 70
     8
 71
     3
 72
     8
 73
     4
 74
     0
 42
0.0000000001
 43
0.0000000001
 40
0.0
 40
0.0
 40
0.0
 40
0.0
 40
1.0
 40
1.0
 40
1.0
 40
1.0
 10
317.0481172059262
 20
183.9197077368093
 30
0.0
 10
317.1759376100059
 20
182.4769324528094
 30
0.0
 10
317.6604809148426
 20
181.0897176622788
 30
0.0
 10
318.4572575941062
 20
179.8854338774781
 30
0.0
  0
SPLINE
  5
177
330
70
100
AcDbEntity
  8
shade
 62
     6
420
 16711935
370
    25
100
AcDbSpline
210
0.0
220
0.0
230
1.0
 70
     8
 71
     3
 72
     8
 73
     4
 74
     0
 42
0.0000000001
 43
0.0000000001
 40
0.0
 40
0.0
 40
0.0
 40
0.0
 40
1.0
 40
1.0
 40
1.0
 40
1.0
 10
318.4572575941088
 20
179.8854338774781
 30
0.0
 10
321.0778008340354
 20
175.924628028931
 30
0.0
 10
325.4822970273438
 20
173.5466482130745
 30
0.0
 10
330.197961675319
 20
173.5466482130745
 30
0.0
  0
LINE
  5
178
330
70
100
AcDbEntity
  8
shade
 62
     6
420
 16711935
370
    25
100
AcDbLine
 10
330.1561091958384
 20
173.5466482130745
 30
0.0
 11
330.1952749579211
 21
173.5466482130745
 31
0.0
  0
SPLINE
  5
179
330
70
100
AcDbEntity
  8
shade
 62
     6
420
 16711935
370
    25
100
AcDbSpline
210
0.0
220
0.0
230
1.0
 70
     8
 71
     3
 72
     8
 73
     4
 74
     0
 42
0.0000000001
 43
0.0000000001
 40
0.0
 40
0.0
 40
0.0
 40
0.0
 40
1.0
 40
1.0
 40
1.0
 40
1.0
 10
316.746487763527
 20
187.8138822520609
 30
0.0
 10
316.746487763527
 20
186.5138827205637
 30
0.0
 10
316.8043077630242
 20
185.2145311685569
 30
0.0
 10
316.919775099172
 20
183.91970773681
 30
0.0
  0
SPLINE
  5
17A
330
70
100
AcDbEntity
  8
shade
 62
     6
420
 16711935
370
    25
100
AcDbSpline
210
0.0
220
0.0
230
1.0
 70
     8
 71
     3
 72
     8
 73
     4
 74
     0
 42
0.0000000001
 43
0.0000000001
 40
0.0
 40
0.0
 40
0.0
 40
0.0
 40
1.0
 40
1.0
 40
1.0
 40
1.0
 10
316.9197750991877
 20
183.9197077368093
 30
0.0
 10
317.0484362081997
 20
182.4769324528094
 30
0.0
 10
317.5361664685873
 20
181.0897176622788
 30
0.0
 10
318.3381837359174
 20
179.8854338774781
 30
0.0
  0
SPLINE
  5
17B
330
70
100
AcDbEntity
  8
shade
 62
     6
420
 16711935
370
    25
100
AcDbSpline
210
0.0
220
0.0
230
1.0
 70
     8
 71
     3
 72
     8
 73
     4
 74
     0
 42
0.0000000001
 43
0.0000000001
 40
0.0
 40
0.0
 40
0.0
 40
0.0
 40
1.0
 40
1.0
 40
1.0
 40
1.0
 10
318.3381837359162
 20
179.8854338774781
 30
0.0
 10
320.9759629065467
 20
175.924628028931
 30
0.0
 10
325.4094285097161
 20
173.5466482130745
 30
0.0
 10
330.1561091958384
 20
173.5466482130745
 30
0.0
  0
LINE
  5
17C
330
70
100
AcDbEntity
  8
shade
 62
     6
420
 16711935
370
    25
100
AcDbLine
 10
330.1351487718209
 20
173.5466482130745
 30
0.0
 11
330.1534087144753
 21
173.5466482130745
 31
0.0
  0
SPLINE
  5
17D
330
70
100
AcDbEntity
  8
shade
 62
     6
420
 16711935
370
    25
100
AcDbSpline
210
0.0
220
0.0
230
1.0
 70
     8
 71
     3
 72
     8
 73
     4
 74
     0
 42
0.0000000001
 43
0.0000000001
 40
0.0
 40
0.0
 40
0.0
 40
0.0
 40
1.0
 40
1.0
 40
1.0
 40
1.0
 10
316.6816448059417
 20
187.8138822520609
 30
0.0
 10
316.6816448059417
 20
186.5138827205637
 30
0.0
 10
316.7396540194358
 20
185.2145311685569
 30
0.0
 10
316.855499218544
 20
183.91970773681
 30
0.0
  0
SPLINE
  5
17E
330
70
100
AcDbEntity
  8
shade
 62
     6
420
 16711935
370
    25
100
AcDbSpline
210
0.0
220
0.0
230
1.0
 70
     8
 71
     3
 72
     8
 73
     4
 74
     0
 42
0.0000000001
 43
0.0000000001
 40
0.0
 40
0.0
 40
0.0
 40
0.0
 40
1.0
 40
1.0
 40
1.0
 40
1.0
 10
316.8554992185392
 20
183.9197077368093
 30
0.0
 10
316.9845813666884
 20
182.4769324528094
 30
0.0
 10
317.4739077078934
 20
181.0897176622788
 30
0.0
 10
318.2785495496641
 20
179.8854338774781
 30
0.0
  0
SPLINE
  5
17F
330
70
100
AcDbEntity
  8
shade
 62
     6
420
 16711935
370
    25
100
AcDbSpline
210
0.0
220
0.0
230
1.0
 70
     8
 71
     3
 72
     8
 73
     4
 74
     0
 42
0.0000000001
 43
0.0000000001
 40
0.0
 40
0.0
 40
0.0
 40
0.0
 40
1.0
 40
1.0
 40
1.0
 40
1.0
 10
318.2785495496631
 20
179.8854338774781
 30
0.0
 10
320.9249607636095
 20
175.924628028931
 30
0.0
 10
325.3729347333442
 20
173.5466482130745
 30
0.0
 10
330.1351487718209
 20
173.5466482130745
 30
0.0
  0
SPLINE
  5
180
330
70
100
AcDbEntity
  8
shade
 62
     6
420
 16711935
370
    25
100
AcDbSpline
210
0.0
220
0.0
230
1.0
 70
     8
 71
     3
 72
     8
 73
     4
 74
     0
 42
0.0000000001
 43
0.0000000001
 40
0.0
 40
0.0
 40
0.0
 40
0.0
 40
1.0
 40
1.0
 40
1.0
 40
1.0
 10
336.0614819763993
 20
180.4139971024506
 30
0.0
 10
336.0410237533029
 20
181.4858096709227
 30
0.0
 10
336.0285825068555
 20
182.7204308344953
 30
0.0
 10
336.0253005604698
 20
184.0045008372554
 30
0.0
  0
SPLINE
  5
181
330
70
100
AcDbEntity
  8
shade
 62
     6
420
 16711935
370
    25
100
AcDbSpline
210
0.0
220
0.0
230
1.0
 70
     8
 71
     3
 72
     8
 73
     4
 74
     0
 42
0.0000000001
 43
0.0000000001
 40
0.0
 40
0.0
 40
0.0
 40
0.0
 40
1.0
 40
1.0
 40
1.0
 40
1.0
 10
336.0253005604814
 20
184.0045008372554
 30
0.0
 10
336.0220631901677
 20
185.2711303365335
 30
0.0
 10
336.0204420845273
 20
186.5421893592167
 30
0.0
 10
336.0204420845273
 20
187.8138822520609
 30
0.0
  0
SPLINE
  5
182
330
70
100
AcDbEntity
  8
shade
 62
     6
420
 16711935
370
    25
100
AcDbSpline
210
0.0
220
0.0
230
1.0
 70
     8
 71
     3
 72
     8
 73
     4
 74
     0
 42
0.0000000001
 43
0.0000000001
 40
0.0
 40
0.0
 40
0.0
 40
0.0
 40
1.0
 40
1.0
 40
1.0
 40
1.0
 10
336.3284425888128
 20
174.6096114859454
 30
0.0
 10
336.2197211549832
 20
175.106136375267
 30
0.0
 10
336.122411211942
 20
177.2218958074592
 30
0.0
 10
336.0614819764025
 20
180.4139971024499
 30
0.0
  0
SPLINE
  5
183
330
70
100
AcDbEntity
  8
shade
 62
     6
420
 16711935
370
    25
100
AcDbSpline
210
0.0
220
0.0
230
1.0
 70
     8
 71
     3
 72
     8
 73
     4
 74
     0
 42
0.0000000001
 43
0.0000000001
 40
0.0
 40
0.0
 40
0.0
 40
0.0
 40
1.0
 40
1.0
 40
1.0
 40
1.0
 10
335.0636877978739
 20
180.4139971024506
 30
0.0
 10
335.002379859147
 20
181.4858096709227
 30
0.0
 10
334.9650967006204
 20
182.7204308344953
 30
0.0
 10
334.9552615665038
 20
184.0045008372554
 30
0.0
  0
SPLINE
  5
184
330
70
100
AcDbEntity
  8
shade
 62
     6
420
 16711935
370
    25
100
AcDbSpline
210
0.0
220
0.0
230
1.0
 70
     8
 71
     3
 72
     8
 73
     4
 74
     0
 42
0.0000000001
 43
0.0000000001
 40
0.0
 40
0.0
 40
0.0
 40
0.0
 40
1.0
 40
1.0
 40
1.0
 40
1.0
 10
334.9552615665071
 20
184.0045008372554
 30
0.0
 10
334.9455600152097
 20
185.2711303365335
 30
0.0
 10
334.9407019860056
 20
186.5421893592167
 30
0.0
 10
334.9407019860056
 20
187.8138822520609
 30
0.0
  0
SPLINE
  5
185
330
70
100
AcDbEntity
  8
shade
 62
     6
420
 16711935
370
    25
100
AcDbSpline
210
0.0
220
0.0
230
1.0
 70
     8
 71
     3
 72
     8
 73
     4
 74
     0
 42
0.0000000001
 43
0.0000000001
 40
0.0
 40
0.0
 40
0.0
 40
0.0
 40
1.0
 40
1.0
 40
1.0
 40
1.0
 10
335.8910391179741
 20
174.5718648049493
 30
0.0
 10
335.5547326853657
 20
174.9881077535337
 30
0.0
 10
335.2516220749827
 20
177.1284467408705
 30
0.0
 10
335.0636877978742
 20
180.4139971024506
 30
0.0
  0
SPLINE
  5
186
330
70
100
AcDbEntity
  8
shade
 62
     6
420
 16711935
370
    25
100
AcDbSpline
210
0.0
220
0.0
230
1.0
 70
     8
 71
     3
 72
     8
 73
     4
 74
     0
 42
0.0000000001
 43
0.0000000001
 40
0.0
 40
0.0
 40
0.0
 40
0.0
 40
1.0
 40
1.0
 40
1.0
 40
1.0
 10
334.0707781734628
 20
180.4139971024506
 30
0.0
 10
333.9688204928588
 20
181.4858096709227
 30
0.0
 10
333.9068170321662
 20
182.7204308344953
 30
0.0
 10
333.8904607904828
 20
184.0045008372554
 30
0.0
  0
SPLINE
  5
187
330
70
100
AcDbEntity
  8
shade
 62
     6
420
 16711935
370
    25
100
AcDbSpline
210
0.0
220
0.0
230
1.0
 70
     8
 71
     3
 72
     8
 73
     4
 74
     0
 42
0.0000000001
 43
0.0000000001
 40
0.0
 40
0.0
 40
0.0
 40
0.0
 40
1.0
 40
1.0
 40
1.0
 40
1.0
 10
333.8904607904883
 20
184.0045008372554
 30
0.0
 10
333.8743267026512
 20
185.2711303365335
 30
0.0
 10
333.8662475957648
 20
186.5421893592167
 30
0.0
 10
333.8662475957648
 20
187.8138822520609
 30
0.0
  0
SPLINE
  5
188
330
70
100
AcDbEntity
  8
shade
 62
     6
420
 16711935
370
    25
100
AcDbSpline
210
0.0
220
0.0
230
1.0
 70
     8
 71
     3
 72
     8
 73
     4
 74
     0
 42
0.0000000001
 43
0.0000000001
 40
0.0
 40
0.0
 40
0.0
 40
0.0
 40
1.0
 40
1.0
 40
1.0
 40
1.0
 10
335.0979227200177
 20
175.0674914015309
 30
0.0
 10
334.6777531565605
 20
175.9600072344986
 30
0.0
 10
334.3147065567558
 20
177.8497419578852
 30
0.0
 10
334.0707781734663
 20
180.4139971024506
 30
0.0
  0
SPLINE
  5
189
330
70
100
AcDbEntity
  8
shade
 62
     6
420
 16711935
370
    25
100
AcDbSpline
210
0.0
220
0.0
230
1.0
 70
     8
 71
     3
 72
     8
 73
     4
 74
     0
 42
0.0000000001
 43
0.0000000001
 40
0.0
 40
0.0
 40
0.0
 40
0.0
 40
1.0
 40
1.0
 40
1.0
 40
1.0
 10
333.0859917679888
 20
180.4139971024506
 30
0.0
 10
332.9437169102691
 20
181.4858096709227
 30
0.0
 10
332.8571953898123
 20
182.7204308344953
 30
0.0
 10
332.8343713912222
 20
184.0045008372554
 30
0.0
  0
SPLINE
  5
18A
330
70
100
AcDbEntity
  8
shade
 62
     6
420
 16711935
370
    25
100
AcDbSpline
210
0.0
220
0.0
230
1.0
 70
     8
 71
     3
 72
     8
 73
     4
 74
     0
 42
0.0000000001
 43
0.0000000001
 40
0.0
 40
0.0
 40
0.0
 40
0.0
 40
1.0
 40
1.0
 40
1.0
 40
1.0
 10
332.8343713912215
 20
184.0045008372554
 30
0.0
 10
332.8118573928855
 20
185.2711303365335
 30
0.0
 10
332.8005835606838
 20
186.5421893592167
 30
0.0
 10
332.8005835606838
 20
187.8138822520609
 30
0.0
  0
SPLINE
  5
18B
330
70
100
AcDbEntity
  8
shade
 62
     6
420
 16711935
370
    25
100
AcDbSpline
210
0.0
220
0.0
230
1.0
 70
     8
 71
     3
 72
     8
 73
     4
 74
     0
 42
0.0000000001
 43
0.0000000001
 40
0.0
 40
0.0
 40
0.0
 40
0.0
 40
1.0
 40
1.0
 40
1.0
 40
1.0
 10
334.1683616945366
 20
175.7420520946107
 30
0.0
 10
333.729440607842
 20
176.7710704948145
 30
0.0
 10
333.3550450589092
 20
178.3871126379797
 30
0.0
 10
333.0859917679898
 20
180.4139971024506
 30
0.0
  0
SPLINE
  5
18C
330
70
100
AcDbEntity
  8
shade
 62
     6
420
 16711935
370
    25
100
AcDbSpline
210
0.0
220
0.0
230
1.0
 70
     8
 71
     3
 72
     8
 73
     4
 74
     0
 42
0.0000000001
 43
0.0000000001
 40
0.0
 40
0.0
 40
0.0
 40
0.0
 40
1.0
 40
1.0
 40
1.0
 40
1.0
 10
332.1125407500193
 20
180.4139971024499
 30
0.0
 10
331.9304127861983
 20
181.4858096709227
 30
0.0
 10
331.8196554211928
 20
182.7204308344953
 30
0.0
 10
331.7904381128355
 20
184.0045008372554
 30
0.0
  0
SPLINE
  5
18D
330
70
100
AcDbEntity
  8
shade
 62
     6
420
 16711935
370
    25
100
AcDbSpline
210
0.0
220
0.0
230
1.0
 70
     8
 71
     3
 72
     8
 73
     4
 74
     0
 42
0.0000000001
 43
0.0000000001
 40
0.0
 40
0.0
 40
0.0
 40
0.0
 40
1.0
 40
1.0
 40
1.0
 40
1.0
 10
331.7904381128316
 20
184.0045008372554
 30
0.0
 10
331.7616176399798
 20
185.2711303365335
 30
0.0
 10
331.747185855361
 20
186.5421893592167
 30
0.0
 10
331.747185855361
 20
187.8138822520609
 30
0.0
  0
SPLINE
  5
18E
330
70
100
AcDbEntity
  8
shade
 62
     6
420
 16711935
370
    25
100
AcDbSpline
210
0.0
220
0.0
230
1.0
 70
     8
 71
     3
 72
     8
 73
     4
 74
     0
 42
0.0000000001
 43
0.0000000001
 40
0.0
 40
0.0
 40
0.0
 40
0.0
 40
1.0
 40
1.0
 40
1.0
 40
1.0
 10
333.1231407481386
 20
176.5456029951732
 30
0.0
 10
332.7209775899842
 20
177.541723072946
 30
0.0
 10
332.376641515881
 20
178.8597793191915
 30
0.0
 10
332.1125407500139
 20
180.4139971024506
 30
0.0
  0
SPLINE
  5
18F
330
70
100
AcDbEntity
  8
shade
 62
     6
420
 16711935
370
    25
100
AcDbSpline
210
0.0
220
0.0
230
1.0
 70
     8
 71
     3
 72
     8
 73
     4
 74
     0
 42
0.0000000001
 43
0.0000000001
 40
0.0
 40
0.0
 40
0.0
 40
0.0
 40
1.0
 40
1.0
 40
1.0
 40
1.0
 10
331.1536003144353
 20
180.4139971024499
 30
0.0
 10
330.9322133080755
 20
181.4858096709227
 30
0.0
 10
330.797581366025
 20
182.7204308344953
 30
0.0
 10
330.7620660486879
 20
184.0045008372554
 30
0.0
  0
SPLINE
  5
190
330
70
100
AcDbEntity
  8
shade
 62
     6
420
 16711935
370
    25
100
AcDbSpline
210
0.0
220
0.0
230
1.0
 70
     8
 71
     3
 72
     8
 73
     4
 74
     0
 42
0.0000000001
 43
0.0000000001
 40
0.0
 40
0.0
 40
0.0
 40
0.0
 40
1.0
 40
1.0
 40
1.0
 40
1.0
 10
330.7620660486987
 20
184.0045008372554
 30
0.0
 10
330.727033107723
 20
185.2711303365335
 30
0.0
 10
330.7094904441683
 20
186.5421893592167
 30
0.0
 10
330.7094904441683
 20
187.8138822520609
 30
0.0
  0
SPLINE
  5
191
330
70
100
AcDbEntity
  8
shade
 62
     6
420
 16711935
370
    25
100
AcDbSpline
210
0.0
220
0.0
230
1.0
 70
     8
 71
     3
 72
     8
 73
     4
 74
     0
 42
0.0000000001
 43
0.0000000001
 40
0.0
 40
0.0
 40
0.0
 40
0.0
 40
1.0
 40
1.0
 40
1.0
 40
1.0
 10
331.9760765877979
 20
177.4888924431932
 30
0.0
 10
331.6584543837805
 20
178.3260122033979
 30
0.0
 10
331.3812390699405
 20
179.3119176117281
 30
0.0
 10
331.1536003144353
 20
180.4139971024506
 30
0.0
  0
SPLINE
  5
192
330
70
100
AcDbEntity
  8
shade
 62
     6
420
 16711935
370
    25
100
AcDbSpline
210
0.0
220
0.0
230
1.0
 70
     8
 71
     3
 72
     8
 73
     4
 74
     0
 42
0.0000000001
 43
0.0000000001
 40
0.0
 40
0.0
 40
0.0
 40
0.0
 40
1.0
 40
1.0
 40
1.0
 40
1.0
 10
330.2122983256129
 20
180.4139971024499
 30
0.0
 10
329.9523743951117
 20
181.4858096709227
 30
0.0
 10
329.7943070174278
 20
182.7204308344946
 30
0.0
 10
329.7526095346936
 20
184.0045008372554
 30
0.0
  0
SPLINE
  5
193
330
70
100
AcDbEntity
  8
shade
 62
     6
420
 16711935
370
    25
100
AcDbSpline
210
0.0
220
0.0
230
1.0
 70
     8
 71
     3
 72
     8
 73
     4
 74
     0
 42
0.0000000001
 43
0.0000000001
 40
0.0
 40
0.0
 40
0.0
 40
0.0
 40
1.0
 40
1.0
 40
1.0
 40
1.0
 10
329.7526095346863
 20
184.0045008372554
 30
0.0
 10
329.7114783957584
 20
185.2711303365335
 30
0.0
 10
329.6908820737901
 20
186.5421893592167
 30
0.0
 10
329.6908820737901
 20
187.8138822520609
 30
0.0
  0
SPLINE
  5
194
330
70
100
AcDbEntity
  8
shade
 62
     6
420
 16711935
370
    25
100
AcDbSpline
210
0.0
220
0.0
230
1.0
 70
     8
 71
     3
 72
     8
 73
     4
 74
     0
 42
0.0000000001
 43
0.0000000001
 40
0.0
 40
0.0
 40
0.0
 40
0.0
 40
1.0
 40
1.0
 40
1.0
 40
1.0
 10
330.7374967089312
 20
178.6098363506555
 30
0.0
 10
330.5437755546004
 20
179.168095500204
 30
0.0
 10
330.3680466028815
 20
179.771759349355
 30
0.0
 10
330.2122983256075
 20
180.4139971024506
 30
0.0
  0
SPLINE
  5
195
330
70
100
AcDbEntity
  8
shade
 62
     6
420
 16711935
370
    25
100
AcDbSpline
210
0.0
220
0.0
230
1.0
 70
     8
 71
     3
 72
     8
 73
     4
 74
     0
 42
0.0000000001
 43
0.0000000001
 40
0.0
 40
0.0
 40
0.0
 40
0.0
 40
1.0
 40
1.0
 40
1.0
 40
1.0
 10
329.2917051149965
 20
180.4139971024499
 30
0.0
 10
328.9940920781905
 20
181.4858096709227
 30
0.0
 10
328.8131048478041
 20
182.7204308344946
 30
0.0
 10
328.7653612081951
 20
184.0045008372554
 30
0.0
  0
SPLINE
  5
196
330
70
100
AcDbEntity
  8
shade
 62
     6
420
 16711935
370
    25
100
AcDbSpline
210
0.0
220
0.0
230
1.0
 70
     8
 71
     3
 72
     8
 73
     4
 74
     0
 42
0.0000000001
 43
0.0000000001
 40
0.0
 40
0.0
 40
0.0
 40
0.0
 40
1.0
 40
1.0
 40
1.0
 40
1.0
 10
328.7653612081775
 20
184.0045008372554
 30
0.0
 10
328.7182660325233
 20
185.2711303365335
 30
0.0
 10
328.6946832330627
 20
186.5421893592167
 30
0.0
 10
328.6946832330627
 20
187.8138822520609
 30
0.0
  0
SPLINE
  5
197
330
70
100
AcDbEntity
  8
shade
 62
     6
420
 16711935
370
    25
100
AcDbSpline
210
0.0
220
0.0
230
1.0
 70
     8
 71
     3
 72
     8
 73
     4
 74
     0
 42
0.0000000001
 43
0.0000000001
 40
0.0
 40
0.0
 40
0.0
 40
0.0
 40
1.0
 40
1.0
 40
1.0
 40
1.0
 10
329.4156824223617
 20
179.9859104966306
 30
0.0
 10
329.3731989793163
 20
180.1266428544943
 30
0.0
 10
329.3318652751378
 20
180.2693657890662
 30
0.0
 10
329.2917051149946
 20
180.4139971024506
 30
0.0
  0
SPLINE
  5
198
330
70
100
AcDbEntity
  8
shade
 62
     6
420
 16711935
370
    25
100
AcDbSpline
210
0.0
220
0.0
230
1.0
 70
     8
 71
     3
 72
     8
 73
     4
 74
     0
 42
0.0000000001
 43
0.0000000001
 40
0.0
 40
0.0
 40
0.0
 40
0.0
 40
1.0
 40
1.0
 40
1.0
 40
1.0
 10
328.1389170027432
 20
181.3782589948137
 30
0.0
 10
327.9551688823787
 20
182.2039995167521
 30
0.0
 10
327.8415997725273
 20
183.0933302507009
 30
0.0
 10
327.8035412680305
 20
184.0045008372554
 30
0.0
  0
SPLINE
  5
199
330
70
100
AcDbEntity
  8
shade
 62
     6
420
 16711935
370
    25
100
AcDbSpline
210
0.0
220
0.0
230
1.0
 70
     8
 71
     3
 72
     8
 73
     4
 74
     0
 42
0.0000000001
 43
0.0000000001
 40
0.0
 40
0.0
 40
0.0
 40
0.0
 40
1.0
 40
1.0
 40
1.0
 40
1.0
 10
327.8035412680227
 20
184.0045008372554
 30
0.0
 10
327.7506356703169
 20
185.2711303365335
 30
0.0
 10
327.7241433155539
 20
186.5421893592167
 30
0.0
 10
327.7241433155539
 20
187.8138822520609
 30
0.0
  0
LINE
  5
19A
330
70
100
AcDbEntity
  8
shade
 62
     6
420
 16711935
370
    25
100
AcDbLine
 10
336.3874341677721
 20
173.5466482130745
 30
0.0
 11
336.4385675009382
 21
174.1066769874157
 31
0.0
  0
LINE
  5
19B
330
70
100
AcDbEntity
  8
shade
 62
     6
420
 16711935
370
    25
100
AcDbLine
 10
336.561194045227
 20
173.5466482130745
 30
0.0
 11
336.3284425888144
 21
174.6096114859422
 31
0.0
  0
SPLINE
  5
19C
330
70
100
AcDbEntity
  8
shade
 62
     6
420
 16711935
370
    25
100
AcDbSpline
210
0.0
220
0.0
230
1.0
 70
     8
 71
     3
 72
    14
 73
    10
 74
     0
 42
0.0000000001
 43
0.0000000001
 40
0.0
 40
0.0
 40
0.0
 40
0.0
 40
1.0
 40
1.0
 40
1.0
 40
2.0
 40
2.0
 40
2.0
 40
3.0
 40
3.0
 40
3.0
 40
3.0
 10
336.561194045227
 20
239.517825101103
 30
0.0
 10
336.561194045227
 20
239.517825101103
 30
0.0
 10
340.4522578740424
 20
239.517825101103
 30
0.0
 10
340.4522578740424
 20
239.517825101103
 30
0.0
 10
340.4522578740424
 20
236.5330038778091
 30
0.0
 10
339.1591858649567
 20
233.6945531261563
 30
0.0
 10
336.9070663855671
 20
231.7356974434728
 30
0.0
 10
336.9070663855671
 20
231.7356974434728
 30
0.0
 10
336.561194045227
 20
231.7356974434728
 30
0.0
 10
336.561194045227
 20
231.7356974434728
 30
0.0
  0
LINE
  5
19D
330
70
100
AcDbEntity
  8
shade
 62
     6
420
 16711935
370
    25
100
AcDbLine
 10
336.8205978383189
 20
231.7356974434728
 30
0.0
 11
336.8205982609774
 21
202.1848779931463
 31
0.0
  0
LWPOLYLINE
  5
19E
330
70
100
AcDbEntity
  8
shade
 62
     6
420
 16711935
370
    25
100
AcDbPolyline
 90
        4
 70
     0
 43
0.0
 10
336.561194045227
 20
202.1848779931463
 10
340.8845982994662
 20
202.1848779931463
 10
340.8845982994662
 20
202.0811162910457
 10
336.561194045227
 20
202.0811162910457
  0
SPLINE
  5
19F
330
70
100
AcDbEntity
  8
shade
 62
     6
420
 16711935
370
    25
100
AcDbSpline
210
0.0
220
0.0
230
1.0
 70
    24
 71
     3
 72
     8
 73
     4
 74
     0
 42
0.0000000001
 43
0.0000000001
 40
0.0
 40
0.0
 40
0.0
 40
0.0
 40
1.0
 40
1.0
 40
1.0
 40
1.0
 10
338.0694532446796
 20
175.1654838348913
 30
0.0
 10
338.0680214686367
 20
175.1620904556418
 30
0.0
 10
338.0665896925937
 20
175.1586970763922
 30
0.0
 10
338.0651579165508
 20
175.155303697142
 30
0.0
  0
LINE
  5
1A0
330
70
100
AcDbEntity
  8
shade
 62
     6
420
 16711935
370
    25
100
AcDbLine
 10
336.9281989956848
 20
202.0811162910457
 30
0.0
 11
336.734953922687
 21
202.0811162910457
 31
0.0
  0
SPLINE
  5
1A1
330
70
100
AcDbEntity
  8
shade
 62
     6
420
 16711935
370
    25
100
AcDbSpline
210
0.0
220
0.0
230
1.0
 70
     8
 71
     3
 72
     8
 73
     4
 74
     0
 42
0.0000000001
 43
0.0000000001
 40
0.0
 40
0.0
 40
0.0
 40
0.0
 40
1.0
 40
1.0
 40
1.0
 40
1.0
 10
337.6965568809029
 20
187.8138822520609
 30
0.0
 10
337.6965568809029
 20
189.1138817835575
 30
0.0
 10
337.6932438528087
 20
190.4132333355643
 30
0.0
 10
337.6866276900289
 20
191.7080567673119
 30
0.0
  0
SPLINE
  5
1A2
330
70
100
AcDbEntity
  8
shade
 62
     6
420
 16711935
370
    25
100
AcDbSpline
210
0.0
220
0.0
230
1.0
 70
     8
 71
     3
 72
     8
 73
     4
 74
     0
 42
0.0000000001
 43
0.0000000001
 40
0.0
 40
0.0
 40
0.0
 40
0.0
 40
1.0
 40
1.0
 40
1.0
 40
1.0
 10
337.6866276900192
 20
191.7080567673119
 30
0.0
 10
337.6792555372611
 20
193.1508320513124
 30
0.0
 10
337.6513090815528
 20
194.5380468418431
 30
0.0
 10
337.6053542949437
 20
195.7423306266437
 30
0.0
  0
SPLINE
  5
1A3
330
70
100
AcDbEntity
  8
shade
 62
     6
420
 16711935
370
    25
100
AcDbSpline
210
0.0
220
0.0
230
1.0
 70
     8
 71
     3
 72
     8
 73
     4
 74
     0
 42
0.0000000001
 43
0.0000000001
 40
0.0
 40
0.0
 40
0.0
 40
0.0
 40
1.0
 40
1.0
 40
1.0
 40
1.0
 10
337.6053542949446
 20
195.7423306266437
 30
0.0
 10
337.454212188851
 20
199.7031364751905
 30
0.0
 10
337.2001790476322
 20
202.0811162910473
 30
0.0
 10
336.9281989956848
 20
202.0811162910473
 30
0.0
  0
LINE
  5
1A4
330
70
100
AcDbEntity
  8
shade
 62
     6
420
 16711935
370
    25
100
AcDbLine
 10
337.2940068522818
 20
202.0811162910457
 30
0.0
 11
336.9283538494017
 21
202.0811162910457
 31
0.0
  0
SPLINE
  5
1A5
330
70
100
AcDbEntity
  8
shade
 62
     6
420
 16711935
370
    25
100
AcDbSpline
210
0.0
220
0.0
230
1.0
 70
     8
 71
     3
 72
     8
 73
     4
 74
     0
 42
0.0000000001
 43
0.0000000001
 40
0.0
 40
0.0
 40
0.0
 40
0.0
 40
1.0
 40
1.0
 40
1.0
 40
1.0
 10
338.8282163989957
 20
187.8138822520609
 30
0.0
 10
338.8282163989957
 20
189.1138817835575
 30
0.0
 10
338.8216011492168
 20
190.4132333355643
 30
0.0
 10
338.8083904042049
 20
191.7080567673119
 30
0.0
  0
SPLINE
  5
1A6
330
70
100
AcDbEntity
  8
shade
 62
     6
420
 16711935
370
    25
100
AcDbSpline
210
0.0
220
0.0
230
1.0
 70
     8
 71
     3
 72
     8
 73
     4
 74
     0
 42
0.0000000001
 43
0.0000000001
 40
0.0
 40
0.0
 40
0.0
 40
0.0
 40
1.0
 40
1.0
 40
1.0
 40
1.0
 10
338.808390404192
 20
191.7080567673119
 30
0.0
 10
338.7936701451057
 20
193.1508320513124
 30
0.0
 10
338.7378683892186
 20
194.5380468418431
 30
0.0
 10
338.6461087109629
 20
195.7423306266437
 30
0.0
  0
SPLINE
  5
1A7
330
70
100
AcDbEntity
  8
shade
 62
     6
420
 16711935
370
    25
100
AcDbSpline
210
0.0
220
0.0
230
1.0
 70
     8
 71
     3
 72
     8
 73
     4
 74
     0
 42
0.0000000001
 43
0.0000000001
 40
0.0
 40
0.0
 40
0.0
 40
0.0
 40
1.0
 40
1.0
 40
1.0
 40
1.0
 10
338.6461087109635
 20
195.7423306266437
 30
0.0
 10
338.3443174929112
 20
199.7031364751905
 30
0.0
 10
337.8370798137793
 20
202.0811162910473
 30
0.0
 10
337.2940068522818
 20
202.0811162910473
 30
0.0
  0
LINE
  5
1A8
330
70
100
AcDbEntity
  8
shade
 62
     6
420
 16711935
370
    25
100
AcDbLine
 10
337.6574244258139
 20
202.0811162910457
 30
0.0
 11
337.2945012588246
 21
202.0811162910457
 31
0.0
  0
SPLINE
  5
1A9
330
70
100
AcDbEntity
  8
shade
 62
     6
420
 16711935
370
    25
100
AcDbSpline
210
0.0
220
0.0
230
1.0
 70
     8
 71
     3
 72
     8
 73
     4
 74
     0
 42
0.0000000001
 43
0.0000000001
 40
0.0
 40
0.0
 40
0.0
 40
0.0
 40
1.0
 40
1.0
 40
1.0
 40
1.0
 10
339.9524813613675
 20
187.8138822520609
 30
0.0
 10
339.9524813613675
 20
189.1138817835575
 30
0.0
 10
339.9425854674728
 20
190.4132333355643
 30
0.0
 10
339.9228232309334
 20
191.7080567673119
 30
0.0
  0
SPLINE
  5
1AA
330
70
100
AcDbEntity
  8
shade
 62
     6
420
 16711935
370
    25
100
AcDbSpline
210
0.0
220
0.0
230
1.0
 70
     8
 71
     3
 72
     8
 73
     4
 74
     0
 42
0.0000000001
 43
0.0000000001
 40
0.0
 40
0.0
 40
0.0
 40
0.0
 40
1.0
 40
1.0
 40
1.0
 40
1.0
 10
339.9228232309193
 20
191.7080567673119
 30
0.0
 10
339.90080287993
 20
193.1508320513124
 30
0.0
 10
339.817327837594
 20
194.5380468418431
 30
0.0
 10
339.6800625686897
 20
195.7423306266437
 30
0.0
  0
SPLINE
  5
1AB
330
70
100
AcDbEntity
  8
shade
 62
     6
420
 16711935
370
    25
100
AcDbSpline
210
0.0
220
0.0
230
1.0
 70
     8
 71
     3
 72
     8
 73
     4
 74
     0
 42
0.0000000001
 43
0.0000000001
 40
0.0
 40
0.0
 40
0.0
 40
0.0
 40
1.0
 40
1.0
 40
1.0
 40
1.0
 10
339.6800625686884
 20
195.7423306266434
 30
0.0
 10
339.228606618903
 20
199.7031364751902
 30
0.0
 10
338.469818905738
 20
202.0811162910473
 30
0.0
 10
337.6574244258139
 20
202.0811162910473
 30
0.0
  0
LINE
  5
1AC
330
70
100
AcDbEntity
  8
shade
 62
     6
420
 16711935
370
    25
100
AcDbLine
 10
338.0172663237061
 20
202.0811162910457
 30
0.0
 11
337.658205840046
 21
202.0811162910457
 31
0.0
  0
SPLINE
  5
1AD
330
70
100
AcDbEntity
  8
shade
 62
     6
420
 16711935
370
    25
100
AcDbSpline
210
0.0
220
0.0
230
1.0
 70
     8
 71
     3
 72
     8
 73
     4
 74
     0
 42
0.0000000001
 43
0.0000000001
 40
0.0
 40
0.0
 40
0.0
 40
0.0
 40
1.0
 40
1.0
 40
1.0
 40
1.0
 10
341.0656846493923
 20
187.8138822520609
 30
0.0
 10
341.0656846493923
 20
189.1138817835575
 30
0.0
 10
341.0525403897321
 20
190.4132333355643
 30
0.0
 10
341.0262911219721
 20
191.7080567673119
 30
0.0
  0
SPLINE
  5
1AE
330
70
100
AcDbEntity
  8
shade
 62
     6
420
 16711935
370
    25
100
AcDbSpline
210
0.0
220
0.0
230
1.0
 70
     8
 71
     3
 72
     8
 73
     4
 74
     0
 42
0.0000000001
 43
0.0000000001
 40
0.0
 40
0.0
 40
0.0
 40
0.0
 40
1.0
 40
1.0
 40
1.0
 40
1.0
 10
341.0262911219624
 20
191.7080567673119
 30
0.0
 10
340.9970425048789
 20
193.1508320513124
 30
0.0
 10
340.8861664543307
 20
194.5380468418431
 30
0.0
 10
340.7038433255544
 20
195.7423306266437
 30
0.0
  0
SPLINE
  5
1AF
330
70
100
AcDbEntity
  8
shade
 62
     6
420
 16711935
370
    25
100
AcDbSpline
210
0.0
220
0.0
230
1.0
 70
     8
 71
     3
 72
     8
 73
     4
 74
     0
 42
0.0000000001
 43
0.0000000001
 40
0.0
 40
0.0
 40
0.0
 40
0.0
 40
1.0
 40
1.0
 40
1.0
 40
1.0
 10
340.7038433255595
 20
195.7423306266434
 30
0.0
 10
340.1041951995144
 20
199.7031364751902
 30
0.0
 10
339.096332460121
 20
202.0811162910473
 30
0.0
 10
338.0172663237061
 20
202.0811162910473
 30
0.0
  0
LINE
  5
1B0
330
70
100
AcDbEntity
  8
shade
 62
     6
420
 16711935
370
    25
100
AcDbLine
 10
338.3723588164648
 20
202.0811162910457
 30
0.0
 11
338.0182760752137
 21
202.0811162910457
 31
0.0
  0
SPLINE
  5
1B1
330
70
100
AcDbEntity
  8
shade
 62
     6
420
 16711935
370
    25
100
AcDbSpline
210
0.0
220
0.0
230
1.0
 70
     8
 71
     3
 72
     8
 73
     4
 74
     0
 42
0.0000000001
 43
0.0000000001
 40
0.0
 40
0.0
 40
0.0
 40
0.0
 40
1.0
 40
1.0
 40
1.0
 40
1.0
 10
342.1641952253161
 20
187.8138822520609
 30
0.0
 10
342.1641952253161
 20
189.1138817835575
 30
0.0
 10
342.1478454737322
 20
190.4132333355643
 30
0.0
 10
342.1151947944084
 20
191.7080567673119
 30
0.0
  0
SPLINE
  5
1B2
330
70
100
AcDbEntity
  8
shade
 62
     6
420
 16711935
370
    25
100
AcDbSpline
210
0.0
220
0.0
230
1.0
 70
     8
 71
     3
 72
     8
 73
     4
 74
     0
 42
0.0000000001
 43
0.0000000001
 40
0.0
 40
0.0
 40
0.0
 40
0.0
 40
1.0
 40
1.0
 40
1.0
 40
1.0
 10
342.1151947944192
 20
191.7080567673119
 30
0.0
 10
342.0788133141501
 20
193.1508320513124
 30
0.0
 10
341.9408979100221
 20
194.5380468418431
 30
0.0
 10
341.7141116215238
 20
195.7423306266437
 30
0.0
  0
SPLINE
  5
1B3
330
70
100
AcDbEntity
  8
shade
 62
     6
420
 16711935
370
    25
100
AcDbSpline
210
0.0
220
0.0
230
1.0
 70
     8
 71
     3
 72
     8
 73
     4
 74
     0
 42
0.0000000001
 43
0.0000000001
 40
0.0
 40
0.0
 40
0.0
 40
0.0
 40
1.0
 40
1.0
 40
1.0
 40
1.0
 10
341.7141116215238
 20
195.7423306266434
 30
0.0
 10
340.9682272467683
 20
199.7031364751902
 30
0.0
 10
339.7145769199178
 20
202.0811162910473
 30
0.0
 10
338.3723588164652
 20
202.0811162910473
 30
0.0
  0
LINE
  5
1B4
330
70
100
AcDbEntity
  8
shade
 62
     6
420
 16711935
370
    25
100
AcDbLine
 10
338.7215436662003
 20
202.0811162910457
 30
0.0
 11
338.3735584861982
 21
202.0811162910457
 31
0.0
  0
SPLINE
  5
1B5
330
70
100
AcDbEntity
  8
shade
 62
     6
420
 16711935
370
    25
100
AcDbSpline
210
0.0
220
0.0
230
1.0
 70
     8
 71
     3
 72
     8
 73
     4
 74
     0
 42
0.0000000001
 43
0.0000000001
 40
0.0
 40
0.0
 40
0.0
 40
0.0
 40
1.0
 40
1.0
 40
1.0
 40
1.0
 10
343.2444299760148
 20
187.8138822520609
 30
0.0
 10
343.2444299760148
 20
189.1138817835575
 30
0.0
 10
343.2249280619987
 20
190.4132333355643
 30
0.0
 10
343.1859824708398
 20
191.7080567673119
 30
0.0
  0
SPLINE
  5
1B6
330
70
100
AcDbEntity
  8
shade
 62
     6
420
 16711935
370
    25
100
AcDbSpline
210
0.0
220
0.0
230
1.0
 70
     8
 71
     3
 72
     8
 73
     4
 74
     0
 42
0.0000000001
 43
0.0000000001
 40
0.0
 40
0.0
 40
0.0
 40
0.0
 40
1.0
 40
1.0
 40
1.0
 40
1.0
 10
343.1859824708552
 20
191.7080567673119
 30
0.0
 10
343.1425867962275
 20
193.1508320513124
 30
0.0
 10
342.9780818899009
 20
194.5380468418431
 30
0.0
 10
342.7075721714148
 20
195.7423306266437
 30
0.0
  0
SPLINE
  5
1B7
330
70
100
AcDbEntity
  8
shade
 62
     6
420
 16711935
370
    25
100
AcDbSpline
210
0.0
220
0.0
230
1.0
 70
     8
 71
     3
 72
     8
 73
     4
 74
     0
 42
0.0000000001
 43
0.0000000001
 40
0.0
 40
0.0
 40
0.0
 40
0.0
 40
1.0
 40
1.0
 40
1.0
 40
1.0
 10
342.7075721714122
 20
195.7423306266434
 30
0.0
 10
341.8178844677417
 20
199.7031364751902
 30
0.0
 10
340.3225357002246
 20
202.0811162910473
 30
0.0
 10
338.7215436662003
 20
202.0811162910473
 30
0.0
  0
LINE
  5
1B8
330
70
100
AcDbEntity
  8
shade
 62
     6
420
 16711935
370
    25
100
AcDbLine
 10
339.0636819045046
 20
202.0811162910457
 30
0.0
 11
338.7229070254634
 21
202.0811162910457
 31
0.0
  0
SPLINE
  5
1B9
330
70
100
AcDbEntity
  8
shade
 62
     6
420
 16711935
370
    25
100
AcDbSpline
210
0.0
220
0.0
230
1.0
 70
     8
 71
     3
 72
     8
 73
     4
 74
     0
 42
0.0000000001
 43
0.0000000001
 40
0.0
 40
0.0
 40
0.0
 40
0.0
 40
1.0
 40
1.0
 40
1.0
 40
1.0
 10
344.3028654002314
 20
187.8138822520609
 30
0.0
 10
344.3028654002314
 20
189.1138817835575
 30
0.0
 10
344.2802749349731
 20
190.4132333355643
 30
0.0
 10
344.2351614644035
 20
191.7080567673119
 30
0.0
  0
SPLINE
  5
1BA
330
70
100
AcDbEntity
  8
shade
 62
     6
420
 16711935
370
    25
100
AcDbSpline
210
0.0
220
0.0
230
1.0
 70
     8
 71
     3
 72
     8
 73
     4
 74
     0
 42
0.0000000001
 43
0.0000000001
 40
0.0
 40
0.0
 40
0.0
 40
0.0
 40
1.0
 40
1.0
 40
1.0
 40
1.0
 10
344.2351614644183
 20
191.7080567673119
 30
0.0
 10
344.1848931431028
 20
193.1508320513124
 30
0.0
 10
343.9943353153895
 20
194.5380468418431
 30
0.0
 10
343.6809845133919
 20
195.7423306266437
 30
0.0
  0
SPLINE
  5
1BB
330
70
100
AcDbEntity
  8
shade
 62
     6
420
 16711935
370
    25
100
AcDbSpline
210
0.0
220
0.0
230
1.0
 70
     8
 71
     3
 72
     8
 73
     4
 74
     0
 42
0.0000000001
 43
0.0000000001
 40
0.0
 40
0.0
 40
0.0
 40
0.0
 40
1.0
 40
1.0
 40
1.0
 40
1.0
 10
343.6809845133912
 20
195.7423306266434
 30
0.0
 10
342.6503954571713
 20
199.7031364751902
 30
0.0
 10
340.9182257658545
 20
202.0811162910473
 30
0.0
 10
339.0636819045046
 20
202.0811162910473
 30
0.0
  0
LINE
  5
1BC
330
70
100
AcDbEntity
  8
shade
 62
     6
420
 16711935
370
    25
100
AcDbLine
 10
339.3976575475586
 20
202.0811162910457
 30
0.0
 11
339.0651897851649
 21
202.0811162910457
 31
0.0
  0
SPLINE
  5
1BD
330
70
100
AcDbEntity
  8
shade
 62
     6
420
 16711935
370
    25
100
AcDbSpline
210
0.0
220
0.0
230
1.0
 70
     8
 71
     3
 72
     8
 73
     4
 74
     0
 42
0.0000000001
 43
0.0000000001
 40
0.0
 40
0.0
 40
0.0
 40
0.0
 40
1.0
 40
1.0
 40
1.0
 40
1.0
 10
345.3360491016222
 20
187.8138822520609
 30
0.0
 10
345.3360491016222
 20
189.1138817835575
 30
0.0
 10
345.3104437705248
 20
190.4132333355643
 30
0.0
 10
345.2593095713073
 20
191.7080567673119
 30
0.0
  0
SPLINE
  5
1BE
330
70
100
AcDbEntity
  8
shade
 62
     6
420
 16711935
370
    25
100
AcDbSpline
210
0.0
220
0.0
230
1.0
 70
     8
 71
     3
 72
     8
 73
     4
 74
     0
 42
0.0000000001
 43
0.0000000001
 40
0.0
 40
0.0
 40
0.0
 40
0.0
 40
1.0
 40
1.0
 40
1.0
 40
1.0
 10
345.2593095713149
 20
191.7080567673119
 30
0.0
 10
345.202332568127
 20
193.1508320513124
 30
0.0
 10
344.9863433790529
 20
194.5380468418431
 30
0.0
 10
344.6311735787288
 20
195.7423306266437
 30
0.0
  0
SPLINE
  5
1BF
330
70
100
AcDbEntity
  8
shade
 62
     6
420
 16711935
370
    25
100
AcDbSpline
210
0.0
220
0.0
230
1.0
 70
     8
 71
     3
 72
     8
 73
     4
 74
     0
 42
0.0000000001
 43
0.0000000001
 40
0.0
 40
0.0
 40
0.0
 40
0.0
 40
1.0
 40
1.0
 40
1.0
 40
1.0
 10
344.6311735787282
 20
195.7423306266434
 30
0.0
 10
343.4630447372492
 20
199.7031364751902
 30
0.0
 10
341.4997040996301
 20
202.0811162910473
 30
0.0
 10
339.3976575475586
 20
202.0811162910473
 30
0.0
  0
LINE
  5
1C0
330
70
100
AcDbEntity
  8
shade
 62
     6
420
 16711935
370
    25
100
AcDbLine
 10
339.7223812362302
 20
202.0811162910457
 30
0.0
 11
339.3992950111634
 21
202.0811162910457
 31
0.0
  0
SPLINE
  5
1C1
330
70
100
AcDbEntity
  8
shade
 62
     6
420
 16711935
370
    25
100
AcDbSpline
210
0.0
220
0.0
230
1.0
 70
     8
 71
     3
 72
     8
 73
     4
 74
     0
 42
0.0000000001
 43
0.0000000001
 40
0.0
 40
0.0
 40
0.0
 40
0.0
 40
1.0
 40
1.0
 40
1.0
 40
1.0
 10
346.3406110497111
 20
187.8138822520609
 30
0.0
 10
346.3406110497111
 20
189.1138817835575
 30
0.0
 10
346.3120743720414
 20
190.4132333355643
 30
0.0
 10
346.2550862333062
 20
191.7080567673119
 30
0.0
  0
SPLINE
  5
1C2
330
70
100
AcDbEntity
  8
shade
 62
     6
420
 16711935
370
    25
100
AcDbSpline
210
0.0
220
0.0
230
1.0
 70
     8
 71
     3
 72
     8
 73
     4
 74
     0
 42
0.0000000001
 43
0.0000000001
 40
0.0
 40
0.0
 40
0.0
 40
0.0
 40
1.0
 40
1.0
 40
1.0
 40
1.0
 10
346.2550862332914
 20
191.7080567673119
 30
0.0
 10
346.1915863953728
 20
193.1508320513124
 30
0.0
 10
345.950870356779
 20
194.5380468418431
 30
0.0
 10
345.5550400481937
 20
195.7423306266437
 30
0.0
  0
SPLINE
  5
1C3
330
70
100
AcDbEntity
  8
shade
 62
     6
420
 16711935
370
    25
100
AcDbSpline
210
0.0
220
0.0
230
1.0
 70
     8
 71
     3
 72
     8
 73
     4
 74
     0
 42
0.0000000001
 43
0.0000000001
 40
0.0
 40
0.0
 40
0.0
 40
0.0
 40
1.0
 40
1.0
 40
1.0
 40
1.0
 10
345.5550400481931
 20
195.7423306266434
 30
0.0
 10
344.2531816149372
 20
199.7031364751902
 30
0.0
 10
342.0650740400881
 20
202.0811162910473
 30
0.0
 10
339.7223812362302
 20
202.0811162910473
 30
0.0
  0
LINE
  5
1C4
330
70
100
AcDbEntity
  8
shade
 62
     6
420
 16711935
370
    25
100
AcDbLine
 10
340.036793789349
 20
202.0811162910457
 30
0.0
 11
339.7241361381875
 21
202.0811162910457
 31
0.0
  0
SPLINE
  5
1C5
330
70
100
AcDbEntity
  8
shade
 62
     6
420
 16711935
370
    25
100
AcDbSpline
210
0.0
220
0.0
230
1.0
 70
     8
 71
     3
 72
     8
 73
     4
 74
     0
 42
0.0000000001
 43
0.0000000001
 40
0.0
 40
0.0
 40
0.0
 40
0.0
 40
1.0
 40
1.0
 40
1.0
 40
1.0
 10
347.3132745721739
 20
187.8138822520609
 30
0.0
 10
347.3132745721739
 20
189.1138817835575
 30
0.0
 10
347.2818996286439
 20
190.4132333355643
 30
0.0
 10
347.2192434338539
 20
191.7080567673119
 30
0.0
  0
SPLINE
  5
1C6
330
70
100
AcDbEntity
  8
shade
 62
     6
420
 16711935
370
    25
100
AcDbSpline
210
0.0
220
0.0
230
1.0
 70
     8
 71
     3
 72
     8
 73
     4
 74
     0
 42
0.0000000001
 43
0.0000000001
 40
0.0
 40
0.0
 40
0.0
 40
0.0
 40
1.0
 40
1.0
 40
1.0
 40
1.0
 10
347.2192434338417
 20
191.7080567673119
 30
0.0
 10
347.1494278844653
 20
193.1508320513124
 30
0.0
 10
346.8847701620362
 20
194.5380468418431
 30
0.0
 10
346.4495704613832
 20
195.7423306266437
 30
0.0
  0
SPLINE
  5
1C7
330
70
100
AcDbEntity
  8
shade
 62
     6
420
 16711935
370
    25
100
AcDbSpline
210
0.0
220
0.0
230
1.0
 70
     8
 71
     3
 72
     8
 73
     4
 74
     0
 42
0.0000000001
 43
0.0000000001
 40
0.0
 40
0.0
 40
0.0
 40
0.0
 40
1.0
 40
1.0
 40
1.0
 40
1.0
 10
346.4495704613838
 20
195.7423306266434
 30
0.0
 10
345.0182288279677
 20
199.7031364751902
 30
0.0
 10
342.612491467998
 20
202.0811162910473
 30
0.0
 10
340.036793789349
 20
202.0811162910473
 30
0.0
  0
LINE
  5
1C8
330
70
100
AcDbEntity
  8
shade
 62
     6
420
 16711935
370
    25
100
AcDbLine
 10
340.3398696585136
 20
202.0811162910457
 30
0.0
 11
340.0386558735441
 21
202.0811162910457
 31
0.0
  0
SPLINE
  5
1C9
330
70
100
AcDbEntity
  8
shade
 62
     6
420
 16711935
370
    25
100
AcDbSpline
210
0.0
220
0.0
230
1.0
 70
     8
 71
     3
 72
     8
 73
     4
 74
     0
 42
0.0000000001
 43
0.0000000001
 40
0.0
 40
0.0
 40
0.0
 40
0.0
 40
1.0
 40
1.0
 40
1.0
 40
1.0
 10
348.2508670427677
 20
187.8138822520609
 30
0.0
 10
348.2508670427677
 20
189.1138817835575
 30
0.0
 10
348.2167561719216
 20
190.4132333355643
 30
0.0
 10
348.1486362925612
 20
191.7080567673119
 30
0.0
  0
SPLINE
  5
1CA
330
70
100
AcDbEntity
  8
shade
 62
     6
420
 16711935
370
    25
100
AcDbSpline
210
0.0
220
0.0
230
1.0
 70
     8
 71
     3
 72
     8
 73
     4
 74
     0
 42
0.0000000001
 43
0.0000000001
 40
0.0
 40
0.0
 40
0.0
 40
0.0
 40
1.0
 40
1.0
 40
1.0
 40
1.0
 10
348.1486362925759
 20
191.7080567673119
 30
0.0
 10
348.0727327555528
 20
193.1508320513124
 30
0.0
 10
347.7849966077697
 20
194.5380468418431
 30
0.0
 10
347.3118470460152
 20
195.7423306266437
 30
0.0
  0
SPLINE
  5
1CB
330
70
100
AcDbEntity
  8
shade
 62
     6
420
 16711935
370
    25
100
AcDbSpline
210
0.0
220
0.0
230
1.0
 70
     8
 71
     3
 72
     8
 73
     4
 74
     0
 42
0.0000000001
 43
0.0000000001
 40
0.0
 40
0.0
 40
0.0
 40
0.0
 40
1.0
 40
1.0
 40
1.0
 40
1.0
 10
347.3118470460164
 20
195.7423306266434
 30
0.0
 10
345.7556909513419
 20
199.7031364751902
 30
0.0
 10
343.1401708214859
 20
202.0811162910473
 30
0.0
 10
340.3398696585136
 20
202.0811162910473
 30
0.0
  0
LINE
  5
1CC
330
70
100
AcDbEntity
  8
shade
 62
     6
420
 16711935
370
    25
100
AcDbLine
 10
340.630620273232
 20
202.0811162910457
 30
0.0
 11
340.3418299888325
 21
202.0811162910457
 31
0.0
  0
SPLINE
  5
1CD
330
70
100
AcDbEntity
  8
shade
 62
     6
420
 16711935
370
    25
100
AcDbSpline
210
0.0
220
0.0
230
1.0
 70
     8
 71
     3
 72
     8
 73
     4
 74
     0
 42
0.0000000001
 43
0.0000000001
 40
0.0
 40
0.0
 40
0.0
 40
0.0
 40
1.0
 40
1.0
 40
1.0
 40
1.0
 10
349.1503302298365
 20
187.8138822520609
 30
0.0
 10
349.1503302298365
 20
189.1138817835575
 30
0.0
 10
349.1135946942444
 20
190.4132333355643
 30
0.0
 10
349.0402333232013
 20
191.7080567673119
 30
0.0
  0
SPLINE
  5
1CE
330
70
100
AcDbEntity
  8
shade
 62
     6
420
 16711935
370
    25
100
AcDbSpline
210
0.0
220
0.0
230
1.0
 70
     8
 71
     3
 72
     8
 73
     4
 74
     0
 42
0.0000000001
 43
0.0000000001
 40
0.0
 40
0.0
 40
0.0
 40
0.0
 40
1.0
 40
1.0
 40
1.0
 40
1.0
 10
349.0402333231955
 20
191.7080567673119
 30
0.0
 10
348.9584893800863
 20
193.1508320513124
 30
0.0
 10
348.6486133424559
 20
194.5380468418431
 30
0.0
 10
348.1390572351242
 20
195.7423306266437
 30
0.0
  0
SPLINE
  5
1CF
330
70
100
AcDbEntity
  8
shade
 62
     6
420
 16711935
370
    25
100
AcDbSpline
210
0.0
220
0.0
230
1.0
 70
     8
 71
     3
 72
     8
 73
     4
 74
     0
 42
0.0000000001
 43
0.0000000001
 40
0.0
 40
0.0
 40
0.0
 40
0.0
 40
1.0
 40
1.0
 40
1.0
 40
1.0
 10
348.1390572351235
 20
195.7423306266434
 30
0.0
 10
346.4631625369181
 20
199.7031364751902
 30
0.0
 10
343.6463909201908
 20
202.0811162910473
 30
0.0
 10
340.630620273232
 20
202.0811162910473
 30
0.0
  0
LINE
  5
1D0
330
70
100
AcDbEntity
  8
shade
 62
     6
420
 16711935
370
    25
100
AcDbLine
 10
340.9080972654357
 20
202.0811162910457
 30
0.0
 11
340.6326708952684
 21
202.0811162910457
 31
0.0
  0
SPLINE
  5
1D1
330
70
100
AcDbEntity
  8
shade
 62
     6
420
 16711935
370
    25
100
AcDbSpline
210
0.0
220
0.0
230
1.0
 70
     8
 71
     3
 72
     8
 73
     4
 74
     0
 42
0.0000000001
 43
0.0000000001
 40
0.0
 40
0.0
 40
0.0
 40
0.0
 40
1.0
 40
1.0
 40
1.0
 40
1.0
 10
350.0087302713134
 20
187.8138822520609
 30
0.0
 10
350.0087302713134
 20
189.1138817835575
 30
0.0
 10
349.9694898946569
 20
190.4132333355643
 30
0.0
 10
349.8911263214753
 20
191.7080567673119
 30
0.0
  0
SPLINE
  5
1D2
330
70
100
AcDbEntity
  8
shade
 62
     6
420
 16711935
370
    25
100
AcDbSpline
210
0.0
220
0.0
230
1.0
 70
     8
 71
     3
 72
     8
 73
     4
 74
     0
 42
0.0000000001
 43
0.0000000001
 40
0.0
 40
0.0
 40
0.0
 40
0.0
 40
1.0
 40
1.0
 40
1.0
 40
1.0
 10
349.8911263214785
 20
191.7080567673119
 30
0.0
 10
349.8038086040349
 20
193.1508320513124
 30
0.0
 10
349.4728034277842
 20
194.5380468418431
 30
0.0
 10
348.9285028409858
 20
195.7423306266437
 30
0.0
  0
SPLINE
  5
1D3
330
70
100
AcDbEntity
  8
shade
 62
     6
420
 16711935
370
    25
100
AcDbSpline
210
0.0
220
0.0
230
1.0
 70
     8
 71
     3
 72
     8
 73
     4
 74
     0
 42
0.0000000001
 43
0.0000000001
 40
0.0
 40
0.0
 40
0.0
 40
0.0
 40
1.0
 40
1.0
 40
1.0
 40
1.0
 10
348.9285028409832
 20
195.7423306266434
 30
0.0
 10
347.1383359594155
 20
199.7031364751902
 30
0.0
 10
344.1295005793614
 20
202.0811162910473
 30
0.0
 10
340.9080972654357
 20
202.0811162910473
 30
0.0
  0
LINE
  5
1D4
330
70
100
AcDbEntity
  8
shade
 62
     6
420
 16711935
370
    25
100
AcDbLine
 10
341.1713955628522
 20
202.0811162910457
 30
0.0
 11
340.9102309344894
 21
202.0811162910457
 31
0.0
  0
SPLINE
  5
1D5
330
70
100
AcDbEntity
  8
shade
 62
     6
420
 16711935
370
    25
100
AcDbSpline
210
0.0
220
0.0
230
1.0
 70
     8
 71
     3
 72
     8
 73
     4
 74
     0
 42
0.0000000001
 43
0.0000000001
 40
0.0
 40
0.0
 40
0.0
 40
0.0
 40
1.0
 40
1.0
 40
1.0
 40
1.0
 10
350.8232672447343
 20
187.8138822520609
 30
0.0
 10
350.8232672447343
 20
189.1138817835575
 30
0.0
 10
350.7816500209659
 20
190.4132333355643
 30
0.0
 10
350.6985398513334
 20
191.7080567673119
 30
0.0
  0
SPLINE
  5
1D6
330
70
100
AcDbEntity
  8
shade
 62
     6
420
 16711935
370
    25
100
AcDbSpline
210
0.0
220
0.0
230
1.0
 70
     8
 71
     3
 72
     8
 73
     4
 74
     0
 42
0.0000000001
 43
0.0000000001
 40
0.0
 40
0.0
 40
0.0
 40
0.0
 40
1.0
 40
1.0
 40
1.0
 40
1.0
 10
350.6985398513314
 20
191.7080567673119
 30
0.0
 10
350.6059331717993
 20
193.1508320513124
 30
0.0
 10
350.2548785270126
 20
194.5380468418431
 30
0.0
 10
349.6776088561272
 20
195.7423306266437
 30
0.0
  0
SPLINE
  5
1D7
330
70
100
AcDbEntity
  8
shade
 62
     6
420
 16711935
370
    25
100
AcDbSpline
210
0.0
220
0.0
230
1.0
 70
     8
 71
     3
 72
     8
 73
     4
 74
     0
 42
0.0000000001
 43
0.0000000001
 40
0.0
 40
0.0
 40
0.0
 40
0.0
 40
1.0
 40
1.0
 40
1.0
 40
1.0
 10
349.6776088561304
 20
195.7423306266434
 30
0.0
 10
347.7790089434772
 20
199.7031364751902
 30
0.0
 10
344.5879239957121
 20
202.0811162910473
 30
0.0
 10
341.1713955628522
 20
202.0811162910473
 30
0.0
  0
LINE
  5
1D8
330
70
100
AcDbEntity
  8
shade
 62
     6
420
 16711935
370
    25
100
AcDbLine
 10
341.4196563411531
 20
202.0811162910457
 30
0.0
 11
341.1736055904788
 21
202.0811162910457
 31
0.0
  0
SPLINE
  5
1D9
330
70
100
AcDbEntity
  8
shade
 62
     6
420
 16711935
370
    25
100
AcDbSpline
210
0.0
220
0.0
230
1.0
 70
     8
 71
     3
 72
     8
 73
     4
 74
     0
 42
0.0000000001
 43
0.0000000001
 40
0.0
 40
0.0
 40
0.0
 40
0.0
 40
1.0
 40
1.0
 40
1.0
 40
1.0
 10
351.5912842997657
 20
187.8138822520609
 30
0.0
 10
351.5912842997657
 20
189.1138817835575
 30
0.0
 10
351.5474259756193
 20
190.4132333355643
 30
0.0
 10
351.4598402976345
 20
191.7080567673119
 30
0.0
  0
SPLINE
  5
1DA
330
70
100
AcDbEntity
  8
shade
 62
     6
420
 16711935
370
    25
100
AcDbSpline
210
0.0
220
0.0
230
1.0
 70
     8
 71
     3
 72
     8
 73
     4
 74
     0
 42
0.0000000001
 43
0.0000000001
 40
0.0
 40
0.0
 40
0.0
 40
0.0
 40
1.0
 40
1.0
 40
1.0
 40
1.0
 10
351.459840297646
 20
191.7080567673119
 30
0.0
 10
351.3622467197647
 20
193.1508320513124
 30
0.0
 10
350.9922876737265
 20
194.5380468418431
 30
0.0
 10
350.3839318524338
 20
195.7423306266437
 30
0.0
  0
SPLINE
  5
1DB
330
70
100
AcDbEntity
  8
shade
 62
     6
420
 16711935
370
    25
100
AcDbSpline
210
0.0
220
0.0
230
1.0
 70
     8
 71
     3
 72
     8
 73
     4
 74
     0
 42
0.0000000001
 43
0.0000000001
 40
0.0
 40
0.0
 40
0.0
 40
0.0
 40
1.0
 40
1.0
 40
1.0
 40
1.0
 10
350.3839318524299
 20
195.7423306266434
 30
0.0
 10
348.3830917469791
 20
199.7031364751902
 30
0.0
 10
345.0201658873301
 20
202.0811162910473
 30
0.0
 10
341.4196563411531
 20
202.0811162910473
 30
0.0
  0
LINE
  5
1DC
330
70
100
AcDbEntity
  8
shade
 62
     6
420
 16711935
370
    25
100
AcDbLine
 10
341.6520698252901
 20
202.0811162910457
 30
0.0
 11
341.4219364737241
 21
202.0811162910457
 31
0.0
  0
SPLINE
  5
1DD
330
70
100
AcDbEntity
  8
shade
 62
     6
420
 16711935
370
    25
100
AcDbSpline
210
0.0
220
0.0
230
1.0
 70
     8
 71
     3
 72
     8
 73
     4
 74
     0
 42
0.0000000001
 43
0.0000000001
 40
0.0
 40
0.0
 40
0.0
 40
0.0
 40
1.0
 40
1.0
 40
1.0
 40
1.0
 10
352.3102763244329
 20
187.8138822520609
 30
0.0
 10
352.3102763244329
 20
189.1138817835575
 30
0.0
 10
352.2643199566463
 20
190.4132333355643
 30
0.0
 10
352.1725444565859
 20
191.7080567673119
 30
0.0
  0
SPLINE
  5
1DE
330
70
100
AcDbEntity
  8
shade
 62
     6
420
 16711935
370
    25
100
AcDbSpline
210
0.0
220
0.0
230
1.0
 70
     8
 71
     3
 72
     8
 73
     4
 74
     0
 42
0.0000000001
 43
0.0000000001
 40
0.0
 40
0.0
 40
0.0
 40
0.0
 40
1.0
 40
1.0
 40
1.0
 40
1.0
 10
352.1725444566019
 20
191.7080567673119
 30
0.0
 10
352.0702823103375
 20
193.1508320513124
 30
0.0
 10
351.6826255925584
 20
194.5380468418431
 30
0.0
 10
351.0451679510993
 20
195.7423306266437
 30
0.0
  0
SPLINE
  5
1DF
330
70
100
AcDbEntity
  8
shade
 62
     6
420
 16711935
370
    25
100
AcDbSpline
210
0.0
220
0.0
230
1.0
 70
     8
 71
     3
 72
     8
 73
     4
 74
     0
 42
0.0000000001
 43
0.0000000001
 40
0.0
 40
0.0
 40
0.0
 40
0.0
 40
1.0
 40
1.0
 40
1.0
 40
1.0
 10
351.0451679510968
 20
195.7423306266434
 30
0.0
 10
348.9486139773924
 20
199.7031364751902
 30
0.0
 10
345.4248163710205
 20
202.0811162910473
 30
0.0
 10
341.6520698252901
 20
202.0811162910473
 30
0.0
  0
LINE
  5
1E0
330
70
100
AcDbEntity
  8
shade
 62
     6
420
 16711935
370
    25
100
AcDbLine
 10
341.8678779307814
 20
202.0811162910457
 30
0.0
 11
341.6544141594644
 21
202.0811162910457
 31
0.0
  0
SPLINE
  5
1E1
330
70
100
AcDbEntity
  8
shade
 62
     6
420
 16711935
370
    25
100
AcDbSpline
210
0.0
220
0.0
230
1.0
 70
     8
 71
     3
 72
     8
 73
     4
 74
     0
 42
0.0000000001
 43
0.0000000001
 40
0.0
 40
0.0
 40
0.0
 40
0.0
 40
1.0
 40
1.0
 40
1.0
 40
1.0
 10
352.9778981162186
 20
187.8138822520609
 30
0.0
 10
352.9778981162186
 20
189.1138817835575
 30
0.0
 10
352.9299936049109
 20
190.4132333355643
 30
0.0
 10
352.8343276353805
 20
191.7080567673119
 30
0.0
  0
SPLINE
  5
1E2
330
70
100
AcDbEntity
  8
shade
 62
     6
420
 16711935
370
    25
100
AcDbSpline
210
0.0
220
0.0
230
1.0
 70
     8
 71
     3
 72
     8
 73
     4
 74
     0
 42
0.0000000001
 43
0.0000000001
 40
0.0
 40
0.0
 40
0.0
 40
0.0
 40
1.0
 40
1.0
 40
1.0
 40
1.0
 10
352.8343276353741
 20
191.7080567673119
 30
0.0
 10
352.7277304785926
 20
193.1508320513124
 30
0.0
 10
352.3236405447113
 20
194.5380468418431
 30
0.0
 10
351.6591603374144
 20
195.7423306266437
 30
0.0
  0
SPLINE
  5
1E3
330
70
100
AcDbEntity
  8
shade
 62
     6
420
 16711935
370
    25
100
AcDbSpline
210
0.0
220
0.0
230
1.0
 70
     8
 71
     3
 72
     8
 73
     4
 74
     0
 42
0.0000000001
 43
0.0000000001
 40
0.0
 40
0.0
 40
0.0
 40
0.0
 40
1.0
 40
1.0
 40
1.0
 40
1.0
 10
351.6591603374144
 20
195.7423306266434
 30
0.0
 10
349.4737310187441
 20
199.7031364751902
 30
0.0
 10
345.8005555610091
 20
202.0811162910473
 30
0.0
 10
341.8678779307814
 20
202.0811162910473
 30
0.0
  0
LINE
  5
1E4
330
70
100
AcDbEntity
  8
shade
 62
     6
420
 16711935
370
    25
100
AcDbLine
 10
342.0663767364461
 20
202.0811162910457
 30
0.0
 11
341.870280801643
 21
202.0811162910457
 31
0.0
  0
SPLINE
  5
1E5
330
70
100
AcDbEntity
  8
shade
 62
     6
420
 16711935
370
    25
100
AcDbSpline
210
0.0
220
0.0
230
1.0
 70
     8
 71
     3
 72
     8
 73
     4
 74
     0
 42
0.0000000001
 43
0.0000000001
 40
0.0
 40
0.0
 40
0.0
 40
0.0
 40
1.0
 40
1.0
 40
1.0
 40
1.0
 10
353.591972031558
 20
187.8138822520609
 30
0.0
 10
353.591972031558
 20
189.1138817835575
 30
0.0
 10
353.5422756312885
 20
190.4132333355643
 30
0.0
 10
353.443031234796
 20
191.7080567673119
 30
0.0
  0
SPLINE
  5
1E6
330
70
100
AcDbEntity
  8
shade
 62
     6
420
 16711935
370
    25
100
AcDbSpline
210
0.0
220
0.0
230
1.0
 70
     8
 71
     3
 72
     8
 73
     4
 74
     0
 42
0.0000000001
 43
0.0000000001
 40
0.0
 40
0.0
 40
0.0
 40
0.0
 40
1.0
 40
1.0
 40
1.0
 40
1.0
 10
353.4430312347793
 20
191.7080567673119
 30
0.0
 10
353.3324467652493
 20
193.1508320513124
 30
0.0
 10
352.9132416726385
 20
194.5380468418431
 30
0.0
 10
352.2239062958271
 20
195.7423306266437
 30
0.0
  0
SPLINE
  5
1E7
330
70
100
AcDbEntity
  8
shade
 62
     6
420
 16711935
370
    25
100
AcDbSpline
210
0.0
220
0.0
230
1.0
 70
     8
 71
     3
 72
     8
 73
     4
 74
     0
 42
0.0000000001
 43
0.0000000001
 40
0.0
 40
0.0
 40
0.0
 40
0.0
 40
1.0
 40
1.0
 40
1.0
 40
1.0
 10
352.2239062958316
 20
195.7423306266434
 30
0.0
 10
349.9567300483869
 20
199.7031364751902
 30
0.0
 10
346.1461578741559
 20
202.0811162910473
 30
0.0
 10
342.0663767364461
 20
202.0811162910473
 30
0.0
  0
LINE
  5
1E8
330
70
100
AcDbEntity
  8
shade
 62
     6
420
 16711935
370
    25
100
AcDbLine
 10
342.2469187804332
 20
202.0811162910457
 30
0.0
 11
342.0688327180375
 21
202.0811162910457
 31
0.0
  0
SPLINE
  5
1E9
330
70
100
AcDbEntity
  8
shade
 62
     6
420
 16711935
370
    25
100
AcDbSpline
210
0.0
220
0.0
230
1.0
 70
     8
 71
     3
 72
     8
 73
     4
 74
     0
 42
0.0000000001
 43
0.0000000001
 40
0.0
 40
0.0
 40
0.0
 40
0.0
 40
1.0
 40
1.0
 40
1.0
 40
1.0
 10
354.1504950889666
 20
187.8138822520609
 30
0.0
 10
354.1504950889666
 20
189.1138817835575
 30
0.0
 10
354.0991688990626
 20
190.4132333355643
 30
0.0
 10
353.9966697902016
 20
191.7080567673119
 30
0.0
  0
SPLINE
  5
1EA
330
70
100
AcDbEntity
  8
shade
 62
     6
420
 16711935
370
    25
100
AcDbSpline
210
0.0
220
0.0
230
1.0
 70
     8
 71
     3
 72
     8
 73
     4
 74
     0
 42
0.0000000001
 43
0.0000000001
 40
0.0
 40
0.0
 40
0.0
 40
0.0
 40
1.0
 40
1.0
 40
1.0
 40
1.0
 10
353.9966697901978
 20
191.7080567673119
 30
0.0
 10
353.8824587114734
 20
193.1508320513124
 30
0.0
 10
353.4495058200129
 20
194.5380468418431
 30
0.0
 10
352.737563742407
 20
195.7423306266437
 30
0.0
  0
SPLINE
  5
1EB
330
70
100
AcDbEntity
  8
shade
 62
     6
420
 16711935
370
    25
100
AcDbSpline
210
0.0
220
0.0
230
1.0
 70
     8
 71
     3
 72
     8
 73
     4
 74
     0
 42
0.0000000001
 43
0.0000000001
 40
0.0
 40
0.0
 40
0.0
 40
0.0
 40
1.0
 40
1.0
 40
1.0
 40
1.0
 10
352.7375637424096
 20
195.7423306266434
 30
0.0
 10
350.3960356238727
 20
199.7031364751902
 30
0.0
 10
346.4604960275445
 20
202.0811162910473
 30
0.0
 10
342.2469187804332
 20
202.0811162910473
 30
0.0
  0
LINE
  5
1EC
330
70
100
AcDbEntity
  8
shade
 62
     6
420
 16711935
370
    25
100
AcDbLine
 10
342.4089151721293
 20
202.0811162910457
 30
0.0
 11
342.2494226083672
 21
202.0811162910457
 31
0.0
  0
SPLINE
  5
1ED
330
70
100
AcDbEntity
  8
shade
 62
     6
420
 16711935
370
    25
100
AcDbSpline
210
0.0
220
0.0
230
1.0
 70
     8
 71
     3
 72
     8
 73
     4
 74
     0
 42
0.0000000001
 43
0.0000000001
 40
0.0
 40
0.0
 40
0.0
 40
0.0
 40
1.0
 40
1.0
 40
1.0
 40
1.0
 10
354.6516455023802
 20
187.8138822520609
 30
0.0
 10
354.6516455023802
 20
189.1138817835575
 30
0.0
 10
354.5988569382056
 20
190.4132333355643
 30
0.0
 10
354.4934374477642
 20
191.7080567673119
 30
0.0
  0
SPLINE
  5
1EE
330
70
100
AcDbEntity
  8
shade
 62
     6
420
 16711935
370
    25
100
AcDbSpline
210
0.0
220
0.0
230
1.0
 70
     8
 71
     3
 72
     8
 73
     4
 74
     0
 42
0.0000000001
 43
0.0000000001
 40
0.0
 40
0.0
 40
0.0
 40
0.0
 40
1.0
 40
1.0
 40
1.0
 40
1.0
 10
354.4934374477494
 20
191.7080567673119
 30
0.0
 10
354.3759722926316
 20
193.1508320513124
 30
0.0
 10
353.9306838046623
 20
194.5380468418431
 30
0.0
 10
353.198457233339
 20
195.7423306266437
 30
0.0
  0
SPLINE
  5
1EF
330
70
100
AcDbEntity
  8
shade
 62
     6
420
 16711935
370
    25
100
AcDbSpline
210
0.0
220
0.0
230
1.0
 70
     8
 71
     3
 72
     8
 73
     4
 74
     0
 42
0.0000000001
 43
0.0000000001
 40
0.0
 40
0.0
 40
0.0
 40
0.0
 40
1.0
 40
1.0
 40
1.0
 40
1.0
 10
353.1984572333409
 20
195.7423306266434
 30
0.0
 10
350.7902148217416
 20
199.7031364751902
 30
0.0
 10
346.7425447154649
 20
202.0811162910473
 30
0.0
 10
342.4089151721293
 20
202.0811162910473
 30
0.0
  0
LINE
  5
1F0
330
70
100
AcDbEntity
  8
shade
 62
     6
420
 16711935
370
    25
100
AcDbLine
 10
342.5518375129663
 20
202.0811162910457
 30
0.0
 11
342.4114617331394
 21
202.0811162910457
 31
0.0
  0
SPLINE
  5
1F1
330
70
100
AcDbEntity
  8
shade
 62
     6
420
 16711935
370
    25
100
AcDbSpline
210
0.0
220
0.0
230
1.0
 70
     8
 71
     3
 72
     8
 73
     4
 74
     0
 42
0.0000000001
 43
0.0000000001
 40
0.0
 40
0.0
 40
0.0
 40
0.0
 40
1.0
 40
1.0
 40
1.0
 40
1.0
 10
355.0937886232227
 20
187.8138822520609
 30
0.0
 10
355.0937886232227
 20
189.1138817835575
 30
0.0
 10
355.0397098701012
 20
190.4132333355643
 30
0.0
 10
354.9317138545458
 20
191.7080567673119
 30
0.0
  0
SPLINE
  5
1F2
330
70
100
AcDbEntity
  8
shade
 62
     6
420
 16711935
370
    25
100
AcDbSpline
210
0.0
220
0.0
230
1.0
 70
     8
 71
     3
 72
     8
 73
     4
 74
     0
 42
0.0000000001
 43
0.0000000001
 40
0.0
 40
0.0
 40
0.0
 40
0.0
 40
1.0
 40
1.0
 40
1.0
 40
1.0
 10
354.9317138545624
 20
191.7080567673119
 30
0.0
 10
354.8113777699707
 20
193.1508320513124
 30
0.0
 10
354.3552061239873
 20
194.5380468418431
 30
0.0
 10
353.605083429829
 20
195.7423306266437
 30
0.0
  0
SPLINE
  5
1F3
330
70
100
AcDbEntity
  8
shade
 62
     6
420
 16711935
370
    25
100
AcDbSpline
210
0.0
220
0.0
230
1.0
 70
     8
 71
     3
 72
     8
 73
     4
 74
     0
 42
0.0000000001
 43
0.0000000001
 40
0.0
 40
0.0
 40
0.0
 40
0.0
 40
1.0
 40
1.0
 40
1.0
 40
1.0
 10
353.6050834298252
 20
195.7423306266434
 30
0.0
 10
351.1379819113549
 20
199.7031364751902
 30
0.0
 10
346.9913839537057
 20
202.0811162910473
 30
0.0
 10
342.5518375129663
 20
202.0811162910473
 30
0.0
  0
LINE
  5
1F4
330
70
100
AcDbEntity
  8
shade
 62
     6
420
 16711935
370
    25
100
AcDbLine
 10
342.6752196199859
 20
202.0811162910457
 30
0.0
 11
342.5544217954273
 21
202.0811162910457
 31
0.0
  0
SPLINE
  5
1F5
330
70
100
AcDbEntity
  8
shade
 62
     6
420
 16711935
370
    25
100
AcDbSpline
210
0.0
220
0.0
230
1.0
 70
     8
 71
     3
 72
     8
 73
     4
 74
     0
 42
0.0000000001
 43
0.0000000001
 40
0.0
 40
0.0
 40
0.0
 40
0.0
 40
1.0
 40
1.0
 40
1.0
 40
1.0
 10
355.4754822726471
 20
187.8138822520609
 30
0.0
 10
355.4754822726471
 20
189.1138817835575
 30
0.0
 10
355.420289724231
 20
190.4132333355643
 30
0.0
 10
355.310069444117
 20
191.7080567673119
 30
0.0
  0
SPLINE
  5
1F6
330
70
100
AcDbEntity
  8
shade
 62
     6
420
 16711935
370
    25
100
AcDbSpline
210
0.0
220
0.0
230
1.0
 70
     8
 71
     3
 72
     8
 73
     4
 74
     0
 42
0.0000000001
 43
0.0000000001
 40
0.0
 40
0.0
 40
0.0
 40
0.0
 40
1.0
 40
1.0
 40
1.0
 40
1.0
 10
355.3100694441273
 20
191.7080567673119
 30
0.0
 10
355.1872549413575
 20
193.1508320513124
 30
0.0
 10
354.7216880744524
 20
194.5380468418431
 30
0.0
 10
353.9561160017711
 20
195.7423306266437
 30
0.0
  0
SPLINE
  5
1F7
330
70
100
AcDbEntity
  8
shade
 62
     6
420
 16711935
370
    25
100
AcDbSpline
210
0.0
220
0.0
230
1.0
 70
     8
 71
     3
 72
     8
 73
     4
 74
     0
 42
0.0000000001
 43
0.0000000001
 40
0.0
 40
0.0
 40
0.0
 40
0.0
 40
1.0
 40
1.0
 40
1.0
 40
1.0
 10
353.9561160017679
 20
195.7423306266434
 30
0.0
 10
351.4382025487836
 20
199.7031364751902
 30
0.0
 10
347.2062020804141
 20
202.0811162910473
 30
0.0
 10
342.6752196199859
 20
202.0811162910473
 30
0.0
  0
LINE
  5
1F8
330
70
100
AcDbEntity
  8
shade
 62
     6
420
 16711935
370
    25
100
AcDbLine
 10
342.7786590463915
 20
202.0811162910457
 30
0.0
 11
342.6778367137842
 21
202.0811162910457
 31
0.0
  0
SPLINE
  5
1F9
330
70
100
AcDbEntity
  8
shade
 62
     6
420
 16711935
370
    25
100
AcDbSpline
210
0.0
220
0.0
230
1.0
 70
     8
 71
     3
 72
     8
 73
     4
 74
     0
 42
0.0000000001
 43
0.0000000001
 40
0.0
 40
0.0
 40
0.0
 40
0.0
 40
1.0
 40
1.0
 40
1.0
 40
1.0
 10
355.7954814452542
 20
187.8138822520609
 30
0.0
 10
355.7954814452542
 20
189.1138817835575
 30
0.0
 10
355.7393551281645
 20
190.4132333355643
 30
0.0
 10
355.6272700991359
 20
191.7080567673119
 30
0.0
  0
SPLINE
  5
1FA
330
70
100
AcDbEntity
  8
shade
 62
     6
420
 16711935
370
    25
100
AcDbSpline
210
0.0
220
0.0
230
1.0
 70
     8
 71
     3
 72
     8
 73
     4
 74
     0
 42
0.0000000001
 43
0.0000000001
 40
0.0
 40
0.0
 40
0.0
 40
0.0
 40
1.0
 40
1.0
 40
1.0
 40
1.0
 10
355.627270099134
 20
191.7080567673119
 30
0.0
 10
355.5023777735668
 20
193.1508320513124
 30
0.0
 10
355.0289342680909
 20
194.5380468418431
 30
0.0
 10
354.2504099538614
 20
195.7423306266437
 30
0.0
  0
SPLINE
  5
1FB
330
70
100
AcDbEntity
  8
shade
 62
     6
420
 16711935
370
    25
100
AcDbSpline
210
0.0
220
0.0
230
1.0
 70
     8
 71
     3
 72
     8
 73
     4
 74
     0
 42
0.0000000001
 43
0.0000000001
 40
0.0
 40
0.0
 40
0.0
 40
0.0
 40
1.0
 40
1.0
 40
1.0
 40
1.0
 10
354.2504099538596
 20
195.7423306266434
 30
0.0
 10
351.6898974766902
 20
199.7031364751902
 30
0.0
 10
347.386298403498
 20
202.0811162910473
 30
0.0
 10
342.7786590463915
 20
202.0811162910473
 30
0.0
  0
LINE
  5
1FC
330
70
100
AcDbEntity
  8
shade
 62
     6
420
 16711935
370
    25
100
AcDbLine
 10
342.8618183942785
 20
202.0811162910457
 30
0.0
 11
342.781304118155
 21
202.0811162910457
 31
0.0
  0
SPLINE
  5
1FD
330
70
100
AcDbEntity
  8
shade
 62
     6
420
 16711935
370
    25
100
AcDbSpline
210
0.0
220
0.0
230
1.0
 70
     8
 71
     3
 72
     8
 73
     4
 74
     0
 42
0.0000000001
 43
0.0000000001
 40
0.0
 40
0.0
 40
0.0
 40
0.0
 40
1.0
 40
1.0
 40
1.0
 40
1.0
 10
356.0527423702151
 20
187.8138822520609
 30
0.0
 10
356.0527423702151
 20
189.1138817835575
 30
0.0
 10
355.9958653568326
 20
190.4132333355643
 30
0.0
 10
355.8822811769573
 20
191.7080567673119
 30
0.0
  0
SPLINE
  5
1FE
330
70
100
AcDbEntity
  8
shade
 62
     6
420
 16711935
370
    25
100
AcDbSpline
210
0.0
220
0.0
230
1.0
 70
     8
 71
     3
 72
     8
 73
     4
 74
     0
 42
0.0000000001
 43
0.0000000001
 40
0.0
 40
0.0
 40
0.0
 40
0.0
 40
1.0
 40
1.0
 40
1.0
 40
1.0
 10
355.8822811769708
 20
191.7080567673119
 30
0.0
 10
355.7557184014144
 20
193.1508320513124
 30
0.0
 10
355.2759425316758
 20
194.5380468418431
 30
0.0
 10
354.4870053603945
 20
195.7423306266437
 30
0.0
  0
SPLINE
  5
1FF
330
70
100
AcDbEntity
  8
shade
 62
     6
420
 16711935
370
    25
100
AcDbSpline
210
0.0
220
0.0
230
1.0
 70
     8
 71
     3
 72
     8
 73
     4
 74
     0
 42
0.0000000001
 43
0.0000000001
 40
0.0
 40
0.0
 40
0.0
 40
0.0
 40
1.0
 40
1.0
 40
1.0
 40
1.0
 10
354.4870053603933
 20
195.7423306266434
 30
0.0
 10
351.8922457185344
 20
199.7031364751902
 30
0.0
 10
347.531085486185
 20
202.0811162910473
 30
0.0
 10
342.8618183942785
 20
202.0811162910473
 30
0.0
  0
LINE
  5
200
330
70
100
AcDbEntity
  8
shade
 62
     6
420
 16711935
370
    25
100
AcDbLine
 10
342.9244264151347
 20
202.0811162910457
 30
0.0
 11
342.864486650577
 21
202.0811162910457
 31
0.0
  0
SPLINE
  5
201
330
70
100
AcDbEntity
  8
shade
 62
     6
420
 16711935
370
    25
100
AcDbSpline
210
0.0
220
0.0
230
1.0
 70
     8
 71
     3
 72
     8
 73
     4
 74
     0
 42
0.0000000001
 43
0.0000000001
 40
0.0
 40
0.0
 40
0.0
 40
0.0
 40
1.0
 40
1.0
 40
1.0
 40
1.0
 10
356.2464259159445
 20
187.8138822520609
 30
0.0
 10
356.2464259159445
 20
189.1138817835575
 30
0.0
 10
356.1889837272651
 20
190.4132333355643
 30
0.0
 10
356.0742708845284
 20
191.7080567673119
 30
0.0
  0
SPLINE
  5
202
330
70
100
AcDbEntity
  8
shade
 62
     6
420
 16711935
370
    25
100
AcDbSpline
210
0.0
220
0.0
230
1.0
 70
     8
 71
     3
 72
     8
 73
     4
 74
     0
 42
0.0000000001
 43
0.0000000001
 40
0.0
 40
0.0
 40
0.0
 40
0.0
 40
1.0
 40
1.0
 40
1.0
 40
1.0
 10
356.0742708845271
 20
191.7080567673119
 30
0.0
 10
355.9464504804478
 20
193.1508320513124
 30
0.0
 10
355.4619071756107
 20
194.5380468418431
 30
0.0
 10
354.6651304963478
 20
195.7423306266437
 30
0.0
  0
SPLINE
  5
203
330
70
100
AcDbEntity
  8
shade
 62
     6
420
 16711935
370
    25
100
AcDbSpline
210
0.0
220
0.0
230
1.0
 70
     8
 71
     3
 72
     8
 73
     4
 74
     0
 42
0.0000000001
 43
0.0000000001
 40
0.0
 40
0.0
 40
0.0
 40
0.0
 40
1.0
 40
1.0
 40
1.0
 40
1.0
 10
354.6651304963445
 20
195.7423306266434
 30
0.0
 10
352.0445872564183
 20
199.7031364751902
 30
0.0
 10
347.6400910631098
 20
202.0811162910473
 30
0.0
 10
342.9244264151347
 20
202.0811162910473
 30
0.0
  0
LINE
  5
204
330
70
100
AcDbEntity
  8
shade
 62
     6
420
 16711935
370
    25
100
AcDbLine
 10
342.9662788946207
 20
202.0811162910457
 30
0.0
 11
342.9271131325325
 21
202.0811162910457
 31
0.0
  0
SPLINE
  5
205
330
70
100
AcDbEntity
  8
shade
 62
     6
420
 16711935
370
    25
100
AcDbSpline
210
0.0
220
0.0
230
1.0
 70
     8
 71
     3
 72
     8
 73
     4
 74
     0
 42
0.0000000001
 43
0.0000000001
 40
0.0
 40
0.0
 40
0.0
 40
0.0
 40
1.0
 40
1.0
 40
1.0
 40
1.0
 10
356.3759003269269
 20
187.8138822520609
 30
0.0
 10
356.3759003269269
 20
189.1138817835575
 30
0.0
 10
356.3180803274295
 20
190.4132333355643
 30
0.0
 10
356.2026129912819
 20
191.7080567673119
 30
0.0
  0
SPLINE
  5
206
330
70
100
AcDbEntity
  8
shade
 62
     6
420
 16711935
370
    25
100
AcDbSpline
210
0.0
220
0.0
230
1.0
 70
     8
 71
     3
 72
     8
 73
     4
 74
     0
 42
0.0000000001
 43
0.0000000001
 40
0.0
 40
0.0
 40
0.0
 40
0.0
 40
1.0
 40
1.0
 40
1.0
 40
1.0
 10
356.202612991266
 20
191.7080567673119
 30
0.0
 10
356.0739518822536
 20
193.1508320513124
 30
0.0
 10
355.586221621866
 20
194.5380468418431
 30
0.0
 10
354.7842043545366
 20
195.7423306266437
 30
0.0
  0
SPLINE
  5
207
330
70
100
AcDbEntity
  8
shade
 62
     6
420
 16711935
370
    25
100
AcDbSpline
210
0.0
220
0.0
230
1.0
 70
     8
 71
     3
 72
     8
 73
     4
 74
     0
 42
0.0000000001
 43
0.0000000001
 40
0.0
 40
0.0
 40
0.0
 40
0.0
 40
1.0
 40
1.0
 40
1.0
 40
1.0
 10
354.784204354543
 20
195.7423306266434
 30
0.0
 10
352.1464251839124
 20
199.7031364751902
 30
0.0
 10
347.7129595807434
 20
202.0811162910473
 30
0.0
 10
342.9662788946207
 20
202.0811162910473
 30
0.0
  0
LINE
  5
208
330
70
100
AcDbEntity
  8
shade
 62
     6
420
 16711935
370
    25
100
AcDbLine
 10
342.9872393186324
 20
202.0811162910457
 30
0.0
 11
342.9689793759784
 21
202.0811162910457
 31
0.0
  0
SPLINE
  5
209
330
70
100
AcDbEntity
  8
shade
 62
     6
420
 16711935
370
    25
100
AcDbSpline
210
0.0
220
0.0
230
1.0
 70
     8
 71
     3
 72
     8
 73
     4
 74
     0
 42
0.0000000001
 43
0.0000000001
 40
0.0
 40
0.0
 40
0.0
 40
0.0
 40
1.0
 40
1.0
 40
1.0
 40
1.0
 10
356.4407432845122
 20
187.8138822520609
 30
0.0
 10
356.4407432845122
 20
189.1138817835575
 30
0.0
 10
356.3827340710179
 20
190.4132333355643
 30
0.0
 10
356.2668888719093
 20
191.7080567673119
 30
0.0
  0
SPLINE
  5
20A
330
70
100
AcDbEntity
  8
shade
 62
     6
420
 16711935
370
    25
100
AcDbSpline
210
0.0
220
0.0
230
1.0
 70
     8
 71
     3
 72
     8
 73
     4
 74
     0
 42
0.0000000001
 43
0.0000000001
 40
0.0
 40
0.0
 40
0.0
 40
0.0
 40
1.0
 40
1.0
 40
1.0
 40
1.0
 10
356.2668888719144
 20
191.7080567673119
 30
0.0
 10
356.1378067237653
 20
193.1508320513124
 30
0.0
 10
355.6484803825602
 20
194.5380468418431
 30
0.0
 10
354.8438385407899
 20
195.7423306266437
 30
0.0
  0
SPLINE
  5
20B
330
70
100
AcDbEntity
  8
shade
 62
     6
420
 16711935
370
    25
100
AcDbSpline
210
0.0
220
0.0
230
1.0
 70
     8
 71
     3
 72
     8
 73
     4
 74
     0
 42
0.0000000001
 43
0.0000000001
 40
0.0
 40
0.0
 40
0.0
 40
0.0
 40
1.0
 40
1.0
 40
1.0
 40
1.0
 10
354.8438385407906
 20
195.7423306266434
 30
0.0
 10
352.1974273268438
 20
199.7031364751902
 30
0.0
 10
347.7494533571091
 20
202.0811162910473
 30
0.0
 10
342.9872393186324
 20
202.0811162910473
 30
0.0
  0
SPLINE
  5
20C
330
70
100
AcDbEntity
  8
shade
 62
     6
420
 16711935
370
    25
100
AcDbSpline
210
0.0
220
0.0
230
1.0
 70
     8
 71
     3
 72
     8
 73
     4
 74
     0
 42
0.0000000001
 43
0.0000000001
 40
0.0
 40
0.0
 40
0.0
 40
0.0
 40
1.0
 40
1.0
 40
1.0
 40
1.0
 10
337.0609061140543
 20
195.2137674016713
 30
0.0
 10
337.0813643371509
 20
194.1419548331988
 30
0.0
 10
337.0938055835978
 20
192.9073336696265
 30
0.0
 10
337.0970875299839
 20
191.6232636668664
 30
0.0
  0
SPLINE
  5
20D
330
70
100
AcDbEntity
  8
shade
 62
     6
420
 16711935
370
    25
100
AcDbSpline
210
0.0
220
0.0
230
1.0
 70
     8
 71
     3
 72
     8
 73
     4
 74
     0
 42
0.0000000001
 43
0.0000000001
 40
0.0
 40
0.0
 40
0.0
 40
0.0
 40
1.0
 40
1.0
 40
1.0
 40
1.0
 10
337.0970875299723
 20
191.6232636668661
 30
0.0
 10
337.100324900286
 20
190.3566341675884
 30
0.0
 10
337.1019460059263
 20
189.0855751449051
 30
0.0
 10
337.1019460059263
 20
187.8138822520609
 30
0.0
  0
SPLINE
  5
20E
330
70
100
AcDbEntity
  8
shade
 62
     6
420
 16711935
370
    25
100
AcDbSpline
210
0.0
220
0.0
230
1.0
 70
     8
 71
     3
 72
     8
 73
     4
 74
     0
 42
0.0000000001
 43
0.0000000001
 40
0.0
 40
0.0
 40
0.0
 40
0.0
 40
1.0
 40
1.0
 40
1.0
 40
1.0
 10
336.7939455016408
 20
201.0181530181761
 30
0.0
 10
336.9026669354704
 20
200.5216281288548
 30
0.0
 10
336.9999768785117
 20
198.4058686966623
 30
0.0
 10
337.0609061140515
 20
195.2137674016716
 30
0.0
  0
SPLINE
  5
20F
330
70
100
AcDbEntity
  8
shade
 62
     6
420
 16711935
370
    25
100
AcDbSpline
210
0.0
220
0.0
230
1.0
 70
     8
 71
     3
 72
     8
 73
     4
 74
     0
 42
0.0000000001
 43
0.0000000001
 40
0.0
 40
0.0
 40
0.0
 40
0.0
 40
1.0
 40
1.0
 40
1.0
 40
1.0
 10
338.0587002925798
 20
195.2137674016713
 30
0.0
 10
338.1200082313067
 20
194.1419548331988
 30
0.0
 10
338.1572913898334
 20
192.9073336696265
 30
0.0
 10
338.1671265239498
 20
191.6232636668664
 30
0.0
  0
SPLINE
  5
210
330
70
100
AcDbEntity
  8
shade
 62
     6
420
 16711935
370
    25
100
AcDbSpline
210
0.0
220
0.0
230
1.0
 70
     8
 71
     3
 72
     8
 73
     4
 74
     0
 42
0.0000000001
 43
0.0000000001
 40
0.0
 40
0.0
 40
0.0
 40
0.0
 40
1.0
 40
1.0
 40
1.0
 40
1.0
 10
338.1671265239467
 20
191.6232636668661
 30
0.0
 10
338.176828075244
 20
190.3566341675884
 30
0.0
 10
338.1816861044481
 20
189.0855751449051
 30
0.0
 10
338.1816861044481
 20
187.8138822520609
 30
0.0
  0
SPLINE
  5
211
330
70
100
AcDbEntity
  8
shade
 62
     6
420
 16711935
370
    25
100
AcDbSpline
210
0.0
220
0.0
230
1.0
 70
     8
 71
     3
 72
     8
 73
     4
 74
     0
 42
0.0000000001
 43
0.0000000001
 40
0.0
 40
0.0
 40
0.0
 40
0.0
 40
1.0
 40
1.0
 40
1.0
 40
1.0
 10
337.2313489724796
 20
201.0558996991726
 30
0.0
 10
337.567655405088
 20
200.6396567505878
 30
0.0
 10
337.870766015471
 20
198.4993177632514
 30
0.0
 10
338.0587002925795
 20
195.2137674016713
 30
0.0
  0
SPLINE
  5
212
330
70
100
AcDbEntity
  8
shade
 62
     6
420
 16711935
370
    25
100
AcDbSpline
210
0.0
220
0.0
230
1.0
 70
     8
 71
     3
 72
     8
 73
     4
 74
     0
 42
0.0000000001
 43
0.0000000001
 40
0.0
 40
0.0
 40
0.0
 40
0.0
 40
1.0
 40
1.0
 40
1.0
 40
1.0
 10
339.0516099169909
 20
195.2137674016713
 30
0.0
 10
339.1535675975949
 20
194.1419548331988
 30
0.0
 10
339.2155710582871
 20
192.9073336696265
 30
0.0
 10
339.2319272999708
 20
191.6232636668664
 30
0.0
  0
SPLINE
  5
213
330
70
100
AcDbEntity
  8
shade
 62
     6
420
 16711935
370
    25
100
AcDbSpline
210
0.0
220
0.0
230
1.0
 70
     8
 71
     3
 72
     8
 73
     4
 74
     0
 42
0.0000000001
 43
0.0000000001
 40
0.0
 40
0.0
 40
0.0
 40
0.0
 40
1.0
 40
1.0
 40
1.0
 40
1.0
 10
339.2319272999651
 20
191.6232636668661
 30
0.0
 10
339.2480613878028
 20
190.3566341675884
 30
0.0
 10
339.2561404946892
 20
189.0855751449051
 30
0.0
 10
339.2561404946892
 20
187.8138822520609
 30
0.0
  0
SPLINE
  5
214
330
70
100
AcDbEntity
  8
shade
 62
     6
420
 16711935
370
    25
100
AcDbSpline
210
0.0
220
0.0
230
1.0
 70
     8
 71
     3
 72
     8
 73
     4
 74
     0
 42
0.0000000001
 43
0.0000000001
 40
0.0
 40
0.0
 40
0.0
 40
0.0
 40
1.0
 40
1.0
 40
1.0
 40
1.0
 10
338.0244653704357
 20
200.5602731025909
 30
0.0
 10
338.4446349338931
 20
199.6677572696229
 30
0.0
 10
338.8076815336976
 20
197.7780225462366
 30
0.0
 10
339.0516099169877
 20
195.2137674016713
 30
0.0
  0
SPLINE
  5
215
330
70
100
AcDbEntity
  8
shade
 62
     6
420
 16711935
370
    25
100
AcDbSpline
210
0.0
220
0.0
230
1.0
 70
     8
 71
     3
 72
     8
 73
     4
 74
     0
 42
0.0000000001
 43
0.0000000001
 40
0.0
 40
0.0
 40
0.0
 40
0.0
 40
1.0
 40
1.0
 40
1.0
 40
1.0
 10
340.0363963224648
 20
195.2137674016713
 30
0.0
 10
340.1786711801842
 20
194.1419548331988
 30
0.0
 10
340.2651927006417
 20
192.9073336696265
 30
0.0
 10
340.2880166992312
 20
191.6232636668664
 30
0.0
  0
SPLINE
  5
216
330
70
100
AcDbEntity
  8
shade
 62
     6
420
 16711935
370
    25
100
AcDbSpline
210
0.0
220
0.0
230
1.0
 70
     8
 71
     3
 72
     8
 73
     4
 74
     0
 42
0.0000000001
 43
0.0000000001
 40
0.0
 40
0.0
 40
0.0
 40
0.0
 40
1.0
 40
1.0
 40
1.0
 40
1.0
 10
340.2880166992324
 20
191.6232636668661
 30
0.0
 10
340.3105306975682
 20
190.3566341675884
 30
0.0
 10
340.3218045297696
 20
189.0855751449051
 30
0.0
 10
340.3218045297696
 20
187.8138822520609
 30
0.0
  0
SPLINE
  5
217
330
70
100
AcDbEntity
  8
shade
 62
     6
420
 16711935
370
    25
100
AcDbSpline
210
0.0
220
0.0
230
1.0
 70
     8
 71
     3
 72
     8
 73
     4
 74
     0
 42
0.0000000001
 43
0.0000000001
 40
0.0
 40
0.0
 40
0.0
 40
0.0
 40
1.0
 40
1.0
 40
1.0
 40
1.0
 10
338.954026395917
 20
199.8857124095111
 30
0.0
 10
339.3929474826117
 20
198.8566940093074
 30
0.0
 10
339.7673430315448
 20
197.2406518661418
 30
0.0
 10
340.0363963224642
 20
195.2137674016713
 30
0.0
  0
SPLINE
  5
218
330
70
100
AcDbEntity
  8
shade
 62
     6
420
 16711935
370
    25
100
AcDbSpline
210
0.0
220
0.0
230
1.0
 70
     8
 71
     3
 72
     8
 73
     4
 74
     0
 42
0.0000000001
 43
0.0000000001
 40
0.0
 40
0.0
 40
0.0
 40
0.0
 40
1.0
 40
1.0
 40
1.0
 40
1.0
 10
341.0098473404395
 20
195.2137674016716
 30
0.0
 10
341.1919753042606
 20
194.1419548331988
 30
0.0
 10
341.3027326692666
 20
192.9073336696265
 30
0.0
 10
341.3319499776236
 20
191.6232636668664
 30
0.0
  0
SPLINE
  5
219
330
70
100
AcDbEntity
  8
shade
 62
     6
420
 16711935
370
    25
100
AcDbSpline
210
0.0
220
0.0
230
1.0
 70
     8
 71
     3
 72
     8
 73
     4
 74
     0
 42
0.0000000001
 43
0.0000000001
 40
0.0
 40
0.0
 40
0.0
 40
0.0
 40
1.0
 40
1.0
 40
1.0
 40
1.0
 10
341.331949977623
 20
191.6232636668661
 30
0.0
 10
341.3607704504752
 20
190.3566341675884
 30
0.0
 10
341.3752022350943
 20
189.0855751449051
 30
0.0
 10
341.3752022350943
 20
187.8138822520609
 30
0.0
  0
SPLINE
  5
21A
330
70
100
AcDbEntity
  8
shade
 62
     6
420
 16711935
370
    25
100
AcDbSpline
210
0.0
220
0.0
230
1.0
 70
     8
 71
     3
 72
     8
 73
     4
 74
     0
 42
0.0000000001
 43
0.0000000001
 40
0.0
 40
0.0
 40
0.0
 40
0.0
 40
1.0
 40
1.0
 40
1.0
 40
1.0
 10
339.9992473423147
 20
199.0821615089483
 30
0.0
 10
340.4014105004694
 20
198.0860414311758
 30
0.0
 10
340.7457465745723
 20
196.76798518493
 30
0.0
 10
341.0098473404395
 20
195.2137674016713
 30
0.0
  0
SPLINE
  5
21B
330
70
100
AcDbEntity
  8
shade
 62
     6
420
 16711935
370
    25
100
AcDbSpline
210
0.0
220
0.0
230
1.0
 70
     8
 71
     3
 72
     8
 73
     4
 74
     0
 42
0.0000000001
 43
0.0000000001
 40
0.0
 40
0.0
 40
0.0
 40
0.0
 40
1.0
 40
1.0
 40
1.0
 40
1.0
 10
341.9687877760238
 20
195.2137674016716
 30
0.0
 10
342.1901747823836
 20
194.1419548331988
 30
0.0
 10
342.3248067244342
 20
192.9073336696265
 30
0.0
 10
342.3603220417713
 20
191.6232636668664
 30
0.0
  0
SPLINE
  5
21C
330
70
100
AcDbEntity
  8
shade
 62
     6
420
 16711935
370
    25
100
AcDbSpline
210
0.0
220
0.0
230
1.0
 70
     8
 71
     3
 72
     8
 73
     4
 74
     0
 42
0.0000000001
 43
0.0000000001
 40
0.0
 40
0.0
 40
0.0
 40
0.0
 40
1.0
 40
1.0
 40
1.0
 40
1.0
 10
342.3603220417604
 20
191.6232636668661
 30
0.0
 10
342.3953549827364
 20
190.3566341675884
 30
0.0
 10
342.4128976462906
 20
189.0855751449051
 30
0.0
 10
342.4128976462906
 20
187.8138822520609
 30
0.0
  0
SPLINE
  5
21D
330
70
100
AcDbEntity
  8
shade
 62
     6
420
 16711935
370
    25
100
AcDbSpline
210
0.0
220
0.0
230
1.0
 70
     8
 71
     3
 72
     8
 73
     4
 74
     0
 42
0.0000000001
 43
0.0000000001
 40
0.0
 40
0.0
 40
0.0
 40
0.0
 40
1.0
 40
1.0
 40
1.0
 40
1.0
 10
341.146311502656
 20
198.1388720609286
 30
0.0
 10
341.4639337066732
 20
197.3017523007236
 30
0.0
 10
341.7411490205135
 20
196.3158468923937
 30
0.0
 10
341.9687877760186
 20
195.2137674016713
 30
0.0
  0
SPLINE
  5
21E
330
70
100
AcDbEntity
  8
shade
 62
     6
420
 16711935
370
    25
100
AcDbSpline
210
0.0
220
0.0
230
1.0
 70
     8
 71
     3
 72
     8
 73
     4
 74
     0
 42
0.0000000001
 43
0.0000000001
 40
0.0
 40
0.0
 40
0.0
 40
0.0
 40
1.0
 40
1.0
 40
1.0
 40
1.0
 10
342.9100897648411
 20
195.2137674016716
 30
0.0
 10
343.1700136953416
 20
194.1419548331988
 30
0.0
 10
343.3280810730256
 20
192.9073336696265
 30
0.0
 10
343.36977855576
 20
191.6232636668664
 30
0.0
  0
SPLINE
  5
21F
330
70
100
AcDbEntity
  8
shade
 62
     6
420
 16711935
370
    25
100
AcDbSpline
210
0.0
220
0.0
230
1.0
 70
     8
 71
     3
 72
     8
 73
     4
 74
     0
 42
0.0000000001
 43
0.0000000001
 40
0.0
 40
0.0
 40
0.0
 40
0.0
 40
1.0
 40
1.0
 40
1.0
 40
1.0
 10
343.3697785557671
 20
191.6232636668661
 30
0.0
 10
343.4109096946956
 20
190.3566341675884
 30
0.0
 10
343.4315060166639
 20
189.0855751449051
 30
0.0
 10
343.4315060166639
 20
187.8138822520609
 30
0.0
  0
SPLINE
  5
220
330
70
100
AcDbEntity
  8
shade
 62
     6
420
 16711935
370
    25
100
AcDbSpline
210
0.0
220
0.0
230
1.0
 70
     8
 71
     3
 72
     8
 73
     4
 74
     0
 42
0.0000000001
 43
0.0000000001
 40
0.0
 40
0.0
 40
0.0
 40
0.0
 40
1.0
 40
1.0
 40
1.0
 40
1.0
 10
342.3848913815221
 20
197.0179281534663
 30
0.0
 10
342.5786125358533
 20
196.4596690039175
 30
0.0
 10
342.7543414875722
 20
195.8560051547665
 30
0.0
 10
342.9100897648462
 20
195.2137674016713
 30
0.0
  0
SPLINE
  5
221
330
70
100
AcDbEntity
  8
shade
 62
     6
420
 16711935
370
    25
100
AcDbSpline
210
0.0
220
0.0
230
1.0
 70
     8
 71
     3
 72
     8
 73
     4
 74
     0
 42
0.0000000001
 43
0.0000000001
 40
0.0
 40
0.0
 40
0.0
 40
0.0
 40
1.0
 40
1.0
 40
1.0
 40
1.0
 10
343.8306829754588
 20
195.2137674016716
 30
0.0
 10
344.1282960122641
 20
194.1419548331988
 30
0.0
 10
344.3092832426505
 20
192.9073336696265
 30
0.0
 10
344.3570268822602
 20
191.6232636668664
 30
0.0
  0
SPLINE
  5
222
330
70
100
AcDbEntity
  8
shade
 62
     6
420
 16711935
370
    25
100
AcDbSpline
210
0.0
220
0.0
230
1.0
 70
     8
 71
     3
 72
     8
 73
     4
 74
     0
 42
0.0000000001
 43
0.0000000001
 40
0.0
 40
0.0
 40
0.0
 40
0.0
 40
1.0
 40
1.0
 40
1.0
 40
1.0
 10
344.3570268822762
 20
191.6232636668661
 30
0.0
 10
344.40412205793
 20
190.3566341675884
 30
0.0
 10
344.427704857391
 20
189.0855751449051
 30
0.0
 10
344.427704857391
 20
187.8138822520609
 30
0.0
  0
SPLINE
  5
223
330
70
100
AcDbEntity
  8
shade
 62
     6
420
 16711935
370
    25
100
AcDbSpline
210
0.0
220
0.0
230
1.0
 70
     8
 71
     3
 72
     8
 73
     4
 74
     0
 42
0.0000000001
 43
0.0000000001
 40
0.0
 40
0.0
 40
0.0
 40
0.0
 40
1.0
 40
1.0
 40
1.0
 40
1.0
 10
343.7067056680922
 20
195.6418540074909
 30
0.0
 10
343.7491891111371
 20
195.5011216496272
 30
0.0
 10
343.7905228153156
 20
195.3583987150553
 30
0.0
 10
343.8306829754594
 20
195.2137674016713
 30
0.0
  0
SPLINE
  5
224
330
70
100
AcDbEntity
  8
shade
 62
     6
420
 16711935
370
    25
100
AcDbSpline
210
0.0
220
0.0
230
1.0
 70
     8
 71
     3
 72
     8
 73
     4
 74
     0
 42
0.0000000001
 43
0.0000000001
 40
0.0
 40
0.0
 40
0.0
 40
0.0
 40
1.0
 40
1.0
 40
1.0
 40
1.0
 10
344.9834710877101
 20
194.2495055093078
 30
0.0
 10
345.1672192080752
 20
193.4237649873694
 30
0.0
 10
345.2807883179264
 20
192.5344342534209
 30
0.0
 10
345.3188468224229
 20
191.6232636668664
 30
0.0
  0
SPLINE
  5
225
330
70
100
AcDbEntity
  8
shade
 62
     6
420
 16711935
370
    25
100
AcDbSpline
210
0.0
220
0.0
230
1.0
 70
     8
 71
     3
 72
     8
 73
     4
 74
     0
 42
0.0000000001
 43
0.0000000001
 40
0.0
 40
0.0
 40
0.0
 40
0.0
 40
1.0
 40
1.0
 40
1.0
 40
1.0
 10
345.3188468224306
 20
191.6232636668661
 30
0.0
 10
345.3717524201368
 20
190.3566341675884
 30
0.0
 10
345.3982447748998
 20
189.0855751449051
 30
0.0
 10
345.3982447748998
 20
187.8138822520609
 30
0.0
  0
LINE
  5
226
330
70
100
AcDbEntity
  8
shade
 62
     6
420
 16711935
370
    25
100
AcDbLine
 10
336.734953922687
 20
202.0811162910457
 30
0.0
 11
336.6838205895206
 21
201.5210875167058
 31
0.0
  0
LINE
  5
227
330
70
100
AcDbEntity
  8
shade
 62
     6
420
 16711935
370
    25
100
AcDbLine
 10
336.561194045227
 20
202.0811162910457
 30
0.0
 11
336.7939455016446
 21
201.0181530181752
 31
0.0
  0
LINE
  5
228
330
70
100
AcDbEntity
  8
shade
 62
     6
420
 16711935
370
    25
100
AcDbLine
 10
336.561194045227
 20
202.0811162910457
 30
0.0
 11
336.561194045227
 21
173.5466482130745
 31
0.0
  0
LINE
  5
229
330
70
100
AcDbEntity
  8
shade
 62
     6
420
 16711935
370
    25
100
AcDbLine
 10
336.9281989956848
 20
173.5466482130745
 30
0.0
 11
336.734953922687
 21
173.5466482130745
 31
0.0
  0
SPLINE
  5
22A
330
70
100
AcDbEntity
  8
shade
 62
     6
420
 16711935
370
    25
100
AcDbSpline
210
0.0
220
0.0
230
1.0
 70
     8
 71
     3
 72
     8
 73
     4
 74
     0
 42
0.0000000001
 43
0.0000000001
 40
0.0
 40
0.0
 40
0.0
 40
0.0
 40
1.0
 40
1.0
 40
1.0
 40
1.0
 10
337.6965568809029
 20
187.8138822520609
 30
0.0
 10
337.6965568809029
 20
186.5138827205637
 30
0.0
 10
337.6932438528087
 20
185.2145311685569
 30
0.0
 10
337.6866276900289
 20
183.91970773681
 30
0.0
  0
SPLINE
  5
22B
330
70
100
AcDbEntity
  8
shade
 62
     6
420
 16711935
370
    25
100
AcDbSpline
210
0.0
220
0.0
230
1.0
 70
     8
 71
     3
 72
     8
 73
     4
 74
     0
 42
0.0000000001
 43
0.0000000001
 40
0.0
 40
0.0
 40
0.0
 40
0.0
 40
1.0
 40
1.0
 40
1.0
 40
1.0
 10
337.6866276900192
 20
183.9197077368093
 30
0.0
 10
337.6792555372611
 20
182.4769324528094
 30
0.0
 10
337.6513090815528
 20
181.0897176622788
 30
0.0
 10
337.6053542949437
 20
179.8854338774781
 30
0.0
  0
SPLINE
  5
22C
330
70
100
AcDbEntity
  8
shade
 62
     6
420
 16711935
370
    25
100
AcDbSpline
210
0.0
220
0.0
230
1.0
 70
     8
 71
     3
 72
     8
 73
     4
 74
     0
 42
0.0000000001
 43
0.0000000001
 40
0.0
 40
0.0
 40
0.0
 40
0.0
 40
1.0
 40
1.0
 40
1.0
 40
1.0
 10
337.6053542949446
 20
179.8854338774781
 30
0.0
 10
337.454212188851
 20
175.924628028931
 30
0.0
 10
337.2001790476322
 20
173.5466482130745
 30
0.0
 10
336.9281989956848
 20
173.5466482130745
 30
0.0
  0
LINE
  5
22D
330
70
100
AcDbEntity
  8
shade
 62
     6
420
 16711935
370
    25
100
AcDbLine
 10
337.2940068522818
 20
173.5466482130745
 30
0.0
 11
336.9283538494017
 21
173.5466482130745
 31
0.0
  0
SPLINE
  5
22E
330
70
100
AcDbEntity
  8
shade
 62
     6
420
 16711935
370
    25
100
AcDbSpline
210
0.0
220
0.0
230
1.0
 70
     8
 71
     3
 72
     8
 73
     4
 74
     0
 42
0.0000000001
 43
0.0000000001
 40
0.0
 40
0.0
 40
0.0
 40
0.0
 40
1.0
 40
1.0
 40
1.0
 40
1.0
 10
338.8282163989957
 20
187.8138822520609
 30
0.0
 10
338.8282163989957
 20
186.5138827205637
 30
0.0
 10
338.8216011492168
 20
185.2145311685569
 30
0.0
 10
338.8083904042049
 20
183.91970773681
 30
0.0
  0
SPLINE
  5
22F
330
70
100
AcDbEntity
  8
shade
 62
     6
420
 16711935
370
    25
100
AcDbSpline
210
0.0
220
0.0
230
1.0
 70
     8
 71
     3
 72
     8
 73
     4
 74
     0
 42
0.0000000001
 43
0.0000000001
 40
0.0
 40
0.0
 40
0.0
 40
0.0
 40
1.0
 40
1.0
 40
1.0
 40
1.0
 10
338.808390404192
 20
183.9197077368093
 30
0.0
 10
338.7936701451057
 20
182.4769324528094
 30
0.0
 10
338.7378683892186
 20
181.0897176622788
 30
0.0
 10
338.6461087109629
 20
179.8854338774781
 30
0.0
  0
SPLINE
  5
230
330
70
100
AcDbEntity
  8
shade
 62
     6
420
 16711935
370
    25
100
AcDbSpline
210
0.0
220
0.0
230
1.0
 70
     8
 71
     3
 72
     8
 73
     4
 74
     0
 42
0.0000000001
 43
0.0000000001
 40
0.0
 40
0.0
 40
0.0
 40
0.0
 40
1.0
 40
1.0
 40
1.0
 40
1.0
 10
338.6461087109635
 20
179.8854338774781
 30
0.0
 10
338.3443174929112
 20
175.924628028931
 30
0.0
 10
337.8370798137793
 20
173.5466482130745
 30
0.0
 10
337.2940068522818
 20
173.5466482130745
 30
0.0
  0
LINE
  5
231
330
70
100
AcDbEntity
  8
shade
 62
     6
420
 16711935
370
    25
100
AcDbLine
 10
337.6574244258139
 20
173.5466482130745
 30
0.0
 11
337.2945012588246
 21
173.5466482130745
 31
0.0
  0
SPLINE
  5
232
330
70
100
AcDbEntity
  8
shade
 62
     6
420
 16711935
370
    25
100
AcDbSpline
210
0.0
220
0.0
230
1.0
 70
     8
 71
     3
 72
     8
 73
     4
 74
     0
 42
0.0000000001
 43
0.0000000001
 40
0.0
 40
0.0
 40
0.0
 40
0.0
 40
1.0
 40
1.0
 40
1.0
 40
1.0
 10
339.9524813613675
 20
187.8138822520609
 30
0.0
 10
339.9524813613675
 20
186.5138827205637
 30
0.0
 10
339.9425854674728
 20
185.2145311685569
 30
0.0
 10
339.9228232309334
 20
183.91970773681
 30
0.0
  0
SPLINE
  5
233
330
70
100
AcDbEntity
  8
shade
 62
     6
420
 16711935
370
    25
100
AcDbSpline
210
0.0
220
0.0
230
1.0
 70
     8
 71
     3
 72
     8
 73
     4
 74
     0
 42
0.0000000001
 43
0.0000000001
 40
0.0
 40
0.0
 40
0.0
 40
0.0
 40
1.0
 40
1.0
 40
1.0
 40
1.0
 10
339.9228232309193
 20
183.9197077368093
 30
0.0
 10
339.90080287993
 20
182.4769324528094
 30
0.0
 10
339.817327837594
 20
181.0897176622788
 30
0.0
 10
339.6800625686897
 20
179.8854338774781
 30
0.0
  0
SPLINE
  5
234
330
70
100
AcDbEntity
  8
shade
 62
     6
420
 16711935
370
    25
100
AcDbSpline
210
0.0
220
0.0
230
1.0
 70
     8
 71
     3
 72
     8
 73
     4
 74
     0
 42
0.0000000001
 43
0.0000000001
 40
0.0
 40
0.0
 40
0.0
 40
0.0
 40
1.0
 40
1.0
 40
1.0
 40
1.0
 10
339.6800625686884
 20
179.8854338774781
 30
0.0
 10
339.228606618903
 20
175.9246280289316
 30
0.0
 10
338.469818905738
 20
173.5466482130745
 30
0.0
 10
337.6574244258139
 20
173.5466482130745
 30
0.0
  0
LINE
  5
235
330
70
100
AcDbEntity
  8
shade
 62
     6
420
 16711935
370
    25
100
AcDbLine
 10
338.0172663237061
 20
173.5466482130745
 30
0.0
 11
337.658205840046
 21
173.5466482130745
 31
0.0
  0
SPLINE
  5
236
330
70
100
AcDbEntity
  8
shade
 62
     6
420
 16711935
370
    25
100
AcDbSpline
210
0.0
220
0.0
230
1.0
 70
     8
 71
     3
 72
     8
 73
     4
 74
     0
 42
0.0000000001
 43
0.0000000001
 40
0.0
 40
0.0
 40
0.0
 40
0.0
 40
1.0
 40
1.0
 40
1.0
 40
1.0
 10
341.0656846493923
 20
187.8138822520609
 30
0.0
 10
341.0656846493923
 20
186.5138827205637
 30
0.0
 10
341.0525403897321
 20
185.2145311685569
 30
0.0
 10
341.0262911219721
 20
183.91970773681
 30
0.0
  0
SPLINE
  5
237
330
70
100
AcDbEntity
  8
shade
 62
     6
420
 16711935
370
    25
100
AcDbSpline
210
0.0
220
0.0
230
1.0
 70
     8
 71
     3
 72
     8
 73
     4
 74
     0
 42
0.0000000001
 43
0.0000000001
 40
0.0
 40
0.0
 40
0.0
 40
0.0
 40
1.0
 40
1.0
 40
1.0
 40
1.0
 10
341.0262911219624
 20
183.9197077368093
 30
0.0
 10
340.9970425048789
 20
182.4769324528094
 30
0.0
 10
340.8861664543307
 20
181.0897176622788
 30
0.0
 10
340.7038433255544
 20
179.8854338774781
 30
0.0
  0
SPLINE
  5
238
330
70
100
AcDbEntity
  8
shade
 62
     6
420
 16711935
370
    25
100
AcDbSpline
210
0.0
220
0.0
230
1.0
 70
     8
 71
     3
 72
     8
 73
     4
 74
     0
 42
0.0000000001
 43
0.0000000001
 40
0.0
 40
0.0
 40
0.0
 40
0.0
 40
1.0
 40
1.0
 40
1.0
 40
1.0
 10
340.7038433255595
 20
179.8854338774781
 30
0.0
 10
340.1041951995144
 20
175.9246280289316
 30
0.0
 10
339.096332460121
 20
173.5466482130745
 30
0.0
 10
338.0172663237061
 20
173.5466482130745
 30
0.0
  0
LINE
  5
239
330
70
100
AcDbEntity
  8
shade
 62
     6
420
 16711935
370
    25
100
AcDbLine
 10
338.3723588164648
 20
173.5466482130745
 30
0.0
 11
338.0182760752137
 21
173.5466482130745
 31
0.0
  0
SPLINE
  5
23A
330
70
100
AcDbEntity
  8
shade
 62
     6
420
 16711935
370
    25
100
AcDbSpline
210
0.0
220
0.0
230
1.0
 70
     8
 71
     3
 72
     8
 73
     4
 74
     0
 42
0.0000000001
 43
0.0000000001
 40
0.0
 40
0.0
 40
0.0
 40
0.0
 40
1.0
 40
1.0
 40
1.0
 40
1.0
 10
342.1641952253161
 20
187.8138822520609
 30
0.0
 10
342.1641952253161
 20
186.5138827205637
 30
0.0
 10
342.1478454737322
 20
185.2145311685569
 30
0.0
 10
342.1151947944084
 20
183.91970773681
 30
0.0
  0
SPLINE
  5
23B
330
70
100
AcDbEntity
  8
shade
 62
     6
420
 16711935
370
    25
100
AcDbSpline
210
0.0
220
0.0
230
1.0
 70
     8
 71
     3
 72
     8
 73
     4
 74
     0
 42
0.0000000001
 43
0.0000000001
 40
0.0
 40
0.0
 40
0.0
 40
0.0
 40
1.0
 40
1.0
 40
1.0
 40
1.0
 10
342.1151947944192
 20
183.9197077368093
 30
0.0
 10
342.0788133141501
 20
182.4769324528094
 30
0.0
 10
341.9408979100221
 20
181.0897176622788
 30
0.0
 10
341.7141116215238
 20
179.8854338774781
 30
0.0
  0
SPLINE
  5
23C
330
70
100
AcDbEntity
  8
shade
 62
     6
420
 16711935
370
    25
100
AcDbSpline
210
0.0
220
0.0
230
1.0
 70
     8
 71
     3
 72
     8
 73
     4
 74
     0
 42
0.0000000001
 43
0.0000000001
 40
0.0
 40
0.0
 40
0.0
 40
0.0
 40
1.0
 40
1.0
 40
1.0
 40
1.0
 10
341.7141116215238
 20
179.8854338774781
 30
0.0
 10
340.9682272467683
 20
175.924628028931
 30
0.0
 10
339.7145769199178
 20
173.5466482130745
 30
0.0
 10
338.3723588164648
 20
173.5466482130745
 30
0.0
  0
LINE
  5
23D
330
70
100
AcDbEntity
  8
shade
 62
     6
420
 16711935
370
    25
100
AcDbLine
 10
338.7215436662003
 20
173.5466482130745
 30
0.0
 11
338.3735584861982
 21
173.5466482130745
 31
0.0
  0
SPLINE
  5
23E
330
70
100
AcDbEntity
  8
shade
 62
     6
420
 16711935
370
    25
100
AcDbSpline
210
0.0
220
0.0
230
1.0
 70
     8
 71
     3
 72
     8
 73
     4
 74
     0
 42
0.0000000001
 43
0.0000000001
 40
0.0
 40
0.0
 40
0.0
 40
0.0
 40
1.0
 40
1.0
 40
1.0
 40
1.0
 10
343.2444299760148
 20
187.8138822520609
 30
0.0
 10
343.2444299760148
 20
186.5138827205637
 30
0.0
 10
343.2249280619987
 20
185.2145311685569
 30
0.0
 10
343.1859824708398
 20
183.91970773681
 30
0.0
  0
SPLINE
  5
23F
330
70
100
AcDbEntity
  8
shade
 62
     6
420
 16711935
370
    25
100
AcDbSpline
210
0.0
220
0.0
230
1.0
 70
     8
 71
     3
 72
     8
 73
     4
 74
     0
 42
0.0000000001
 43
0.0000000001
 40
0.0
 40
0.0
 40
0.0
 40
0.0
 40
1.0
 40
1.0
 40
1.0
 40
1.0
 10
343.1859824708552
 20
183.9197077368093
 30
0.0
 10
343.1425867962275
 20
182.4769324528094
 30
0.0
 10
342.9780818899009
 20
181.0897176622788
 30
0.0
 10
342.7075721714148
 20
179.8854338774781
 30
0.0
  0
SPLINE
  5
240
330
70
100
AcDbEntity
  8
shade
 62
     6
420
 16711935
370
    25
100
AcDbSpline
210
0.0
220
0.0
230
1.0
 70
     8
 71
     3
 72
     8
 73
     4
 74
     0
 42
0.0000000001
 43
0.0000000001
 40
0.0
 40
0.0
 40
0.0
 40
0.0
 40
1.0
 40
1.0
 40
1.0
 40
1.0
 10
342.7075721714122
 20
179.8854338774781
 30
0.0
 10
341.8178844677417
 20
175.9246280289316
 30
0.0
 10
340.3225357002246
 20
173.5466482130745
 30
0.0
 10
338.7215436662003
 20
173.5466482130745
 30
0.0
  0
LINE
  5
241
330
70
100
AcDbEntity
  8
shade
 62
     6
420
 16711935
370
    25
100
AcDbLine
 10
339.0636819045046
 20
173.5466482130745
 30
0.0
 11
338.7229070254634
 21
173.5466482130745
 31
0.0
  0
SPLINE
  5
242
330
70
100
AcDbEntity
  8
shade
 62
     6
420
 16711935
370
    25
100
AcDbSpline
210
0.0
220
0.0
230
1.0
 70
     8
 71
     3
 72
     8
 73
     4
 74
     0
 42
0.0000000001
 43
0.0000000001
 40
0.0
 40
0.0
 40
0.0
 40
0.0
 40
1.0
 40
1.0
 40
1.0
 40
1.0
 10
344.3028654002314
 20
187.8138822520609
 30
0.0
 10
344.3028654002314
 20
186.5138827205637
 30
0.0
 10
344.2802749349731
 20
185.2145311685569
 30
0.0
 10
344.2351614644035
 20
183.91970773681
 30
0.0
  0
SPLINE
  5
243
330
70
100
AcDbEntity
  8
shade
 62
     6
420
 16711935
370
    25
100
AcDbSpline
210
0.0
220
0.0
230
1.0
 70
     8
 71
     3
 72
     8
 73
     4
 74
     0
 42
0.0000000001
 43
0.0000000001
 40
0.0
 40
0.0
 40
0.0
 40
0.0
 40
1.0
 40
1.0
 40
1.0
 40
1.0
 10
344.2351614644183
 20
183.9197077368093
 30
0.0
 10
344.1848931431028
 20
182.4769324528094
 30
0.0
 10
343.9943353153895
 20
181.0897176622788
 30
0.0
 10
343.6809845133919
 20
179.8854338774781
 30
0.0
  0
SPLINE
  5
244
330
70
100
AcDbEntity
  8
shade
 62
     6
420
 16711935
370
    25
100
AcDbSpline
210
0.0
220
0.0
230
1.0
 70
     8
 71
     3
 72
     8
 73
     4
 74
     0
 42
0.0000000001
 43
0.0000000001
 40
0.0
 40
0.0
 40
0.0
 40
0.0
 40
1.0
 40
1.0
 40
1.0
 40
1.0
 10
343.6809845133912
 20
179.8854338774781
 30
0.0
 10
342.6503954571713
 20
175.924628028931
 30
0.0
 10
340.9182257658545
 20
173.5466482130745
 30
0.0
 10
339.0636819045046
 20
173.5466482130745
 30
0.0
  0
LINE
  5
245
330
70
100
AcDbEntity
  8
shade
 62
     6
420
 16711935
370
    25
100
AcDbLine
 10
339.3976575475586
 20
173.5466482130745
 30
0.0
 11
339.0651897851649
 21
173.5466482130745
 31
0.0
  0
SPLINE
  5
246
330
70
100
AcDbEntity
  8
shade
 62
     6
420
 16711935
370
    25
100
AcDbSpline
210
0.0
220
0.0
230
1.0
 70
     8
 71
     3
 72
     8
 73
     4
 74
     0
 42
0.0000000001
 43
0.0000000001
 40
0.0
 40
0.0
 40
0.0
 40
0.0
 40
1.0
 40
1.0
 40
1.0
 40
1.0
 10
345.3360491016222
 20
187.8138822520609
 30
0.0
 10
345.3360491016222
 20
186.5138827205637
 30
0.0
 10
345.3104437705248
 20
185.2145311685569
 30
0.0
 10
345.2593095713073
 20
183.91970773681
 30
0.0
  0
SPLINE
  5
247
330
70
100
AcDbEntity
  8
shade
 62
     6
420
 16711935
370
    25
100
AcDbSpline
210
0.0
220
0.0
230
1.0
 70
     8
 71
     3
 72
     8
 73
     4
 74
     0
 42
0.0000000001
 43
0.0000000001
 40
0.0
 40
0.0
 40
0.0
 40
0.0
 40
1.0
 40
1.0
 40
1.0
 40
1.0
 10
345.2593095713149
 20
183.9197077368093
 30
0.0
 10
345.202332568127
 20
182.4769324528094
 30
0.0
 10
344.9863433790529
 20
181.0897176622788
 30
0.0
 10
344.6311735787288
 20
179.8854338774781
 30
0.0
  0
SPLINE
  5
248
330
70
100
AcDbEntity
  8
shade
 62
     6
420
 16711935
370
    25
100
AcDbSpline
210
0.0
220
0.0
230
1.0
 70
     8
 71
     3
 72
     8
 73
     4
 74
     0
 42
0.0000000001
 43
0.0000000001
 40
0.0
 40
0.0
 40
0.0
 40
0.0
 40
1.0
 40
1.0
 40
1.0
 40
1.0
 10
344.6311735787282
 20
179.8854338774781
 30
0.0
 10
343.4630447372492
 20
175.924628028931
 30
0.0
 10
341.4997040996301
 20
173.5466482130745
 30
0.0
 10
339.3976575475586
 20
173.5466482130745
 30
0.0
  0
LINE
  5
249
330
70
100
AcDbEntity
  8
shade
 62
     6
420
 16711935
370
    25
100
AcDbLine
 10
339.7223812362302
 20
173.5466482130745
 30
0.0
 11
339.3992950111634
 21
173.5466482130745
 31
0.0
  0
SPLINE
  5
24A
330
70
100
AcDbEntity
  8
shade
 62
     6
420
 16711935
370
    25
100
AcDbSpline
210
0.0
220
0.0
230
1.0
 70
     8
 71
     3
 72
     8
 73
     4
 74
     0
 42
0.0000000001
 43
0.0000000001
 40
0.0
 40
0.0
 40
0.0
 40
0.0
 40
1.0
 40
1.0
 40
1.0
 40
1.0
 10
346.3406110497111
 20
187.8138822520609
 30
0.0
 10
346.3406110497111
 20
186.5138827205637
 30
0.0
 10
346.3120743720414
 20
185.2145311685569
 30
0.0
 10
346.2550862333062
 20
183.91970773681
 30
0.0
  0
SPLINE
  5
24B
330
70
100
AcDbEntity
  8
shade
 62
     6
420
 16711935
370
    25
100
AcDbSpline
210
0.0
220
0.0
230
1.0
 70
     8
 71
     3
 72
     8
 73
     4
 74
     0
 42
0.0000000001
 43
0.0000000001
 40
0.0
 40
0.0
 40
0.0
 40
0.0
 40
1.0
 40
1.0
 40
1.0
 40
1.0
 10
346.2550862332914
 20
183.9197077368093
 30
0.0
 10
346.1915863953728
 20
182.4769324528094
 30
0.0
 10
345.950870356779
 20
181.0897176622788
 30
0.0
 10
345.5550400481937
 20
179.8854338774781
 30
0.0
  0
SPLINE
  5
24C
330
70
100
AcDbEntity
  8
shade
 62
     6
420
 16711935
370
    25
100
AcDbSpline
210
0.0
220
0.0
230
1.0
 70
     8
 71
     3
 72
     8
 73
     4
 74
     0
 42
0.0000000001
 43
0.0000000001
 40
0.0
 40
0.0
 40
0.0
 40
0.0
 40
1.0
 40
1.0
 40
1.0
 40
1.0
 10
345.5550400481931
 20
179.8854338774781
 30
0.0
 10
344.2531816149366
 20
175.924628028931
 30
0.0
 10
342.0650740400881
 20
173.5466482130745
 30
0.0
 10
339.7223812362302
 20
173.5466482130745
 30
0.0
  0
LINE
  5
24D
330
70
100
AcDbEntity
  8
shade
 62
     6
420
 16711935
370
    25
100
AcDbLine
 10
340.036793789349
 20
173.5466482130745
 30
0.0
 11
339.7241361381875
 21
173.5466482130745
 31
0.0
  0
SPLINE
  5
24E
330
70
100
AcDbEntity
  8
shade
 62
     6
420
 16711935
370
    25
100
AcDbSpline
210
0.0
220
0.0
230
1.0
 70
     8
 71
     3
 72
     8
 73
     4
 74
     0
 42
0.0000000001
 43
0.0000000001
 40
0.0
 40
0.0
 40
0.0
 40
0.0
 40
1.0
 40
1.0
 40
1.0
 40
1.0
 10
347.3132745721739
 20
187.8138822520609
 30
0.0
 10
347.3132745721739
 20
186.5138827205637
 30
0.0
 10
347.2818996286439
 20
185.2145311685569
 30
0.0
 10
347.2192434338539
 20
183.91970773681
 30
0.0
  0
SPLINE
  5
24F
330
70
100
AcDbEntity
  8
shade
 62
     6
420
 16711935
370
    25
100
AcDbSpline
210
0.0
220
0.0
230
1.0
 70
     8
 71
     3
 72
     8
 73
     4
 74
     0
 42
0.0000000001
 43
0.0000000001
 40
0.0
 40
0.0
 40
0.0
 40
0.0
 40
1.0
 40
1.0
 40
1.0
 40
1.0
 10
347.2192434338417
 20
183.9197077368093
 30
0.0
 10
347.1494278844653
 20
182.4769324528094
 30
0.0
 10
346.8847701620362
 20
181.0897176622788
 30
0.0
 10
346.4495704613832
 20
179.8854338774781
 30
0.0
  0
SPLINE
  5
250
330
70
100
AcDbEntity
  8
shade
 62
     6
420
 16711935
370
    25
100
AcDbSpline
210
0.0
220
0.0
230
1.0
 70
     8
 71
     3
 72
     8
 73
     4
 74
     0
 42
0.0000000001
 43
0.0000000001
 40
0.0
 40
0.0
 40
0.0
 40
0.0
 40
1.0
 40
1.0
 40
1.0
 40
1.0
 10
346.4495704613838
 20
179.8854338774781
 30
0.0
 10
345.0182288279677
 20
175.924628028931
 30
0.0
 10
342.612491467998
 20
173.5466482130745
 30
0.0
 10
340.036793789349
 20
173.5466482130745
 30
0.0
  0
LINE
  5
251
330
70
100
AcDbEntity
  8
shade
 62
     6
420
 16711935
370
    25
100
AcDbLine
 10
340.3398696585136
 20
173.5466482130745
 30
0.0
 11
340.0386558735441
 21
173.5466482130745
 31
0.0
  0
SPLINE
  5
252
330
70
100
AcDbEntity
  8
shade
 62
     6
420
 16711935
370
    25
100
AcDbSpline
210
0.0
220
0.0
230
1.0
 70
     8
 71
     3
 72
     8
 73
     4
 74
     0
 42
0.0000000001
 43
0.0000000001
 40
0.0
 40
0.0
 40
0.0
 40
0.0
 40
1.0
 40
1.0
 40
1.0
 40
1.0
 10
348.2508670427677
 20
187.8138822520609
 30
0.0
 10
348.2508670427677
 20
186.5138827205637
 30
0.0
 10
348.2167561719216
 20
185.2145311685569
 30
0.0
 10
348.1486362925612
 20
183.91970773681
 30
0.0
  0
SPLINE
  5
253
330
70
100
AcDbEntity
  8
shade
 62
     6
420
 16711935
370
    25
100
AcDbSpline
210
0.0
220
0.0
230
1.0
 70
     8
 71
     3
 72
     8
 73
     4
 74
     0
 42
0.0000000001
 43
0.0000000001
 40
0.0
 40
0.0
 40
0.0
 40
0.0
 40
1.0
 40
1.0
 40
1.0
 40
1.0
 10
348.1486362925759
 20
183.9197077368093
 30
0.0
 10
348.0727327555528
 20
182.4769324528094
 30
0.0
 10
347.7849966077697
 20
181.0897176622788
 30
0.0
 10
347.3118470460152
 20
179.8854338774781
 30
0.0
  0
SPLINE
  5
254
330
70
100
AcDbEntity
  8
shade
 62
     6
420
 16711935
370
    25
100
AcDbSpline
210
0.0
220
0.0
230
1.0
 70
     8
 71
     3
 72
     8
 73
     4
 74
     0
 42
0.0000000001
 43
0.0000000001
 40
0.0
 40
0.0
 40
0.0
 40
0.0
 40
1.0
 40
1.0
 40
1.0
 40
1.0
 10
347.3118470460164
 20
179.8854338774781
 30
0.0
 10
345.7556909513419
 20
175.924628028931
 30
0.0
 10
343.1401708214859
 20
173.5466482130745
 30
0.0
 10
340.3398696585136
 20
173.5466482130745
 30
0.0
  0
LINE
  5
255
330
70
100
AcDbEntity
  8
shade
 62
     6
420
 16711935
370
    25
100
AcDbLine
 10
340.630620273232
 20
173.5466482130745
 30
0.0
 11
340.3418299888325
 21
173.5466482130745
 31
0.0
  0
SPLINE
  5
256
330
70
100
AcDbEntity
  8
shade
 62
     6
420
 16711935
370
    25
100
AcDbSpline
210
0.0
220
0.0
230
1.0
 70
     8
 71
     3
 72
     8
 73
     4
 74
     0
 42
0.0000000001
 43
0.0000000001
 40
0.0
 40
0.0
 40
0.0
 40
0.0
 40
1.0
 40
1.0
 40
1.0
 40
1.0
 10
349.1503302298365
 20
187.8138822520609
 30
0.0
 10
349.1503302298365
 20
186.5138827205637
 30
0.0
 10
349.1135946942444
 20
185.2145311685569
 30
0.0
 10
349.0402333232013
 20
183.91970773681
 30
0.0
  0
SPLINE
  5
257
330
70
100
AcDbEntity
  8
shade
 62
     6
420
 16711935
370
    25
100
AcDbSpline
210
0.0
220
0.0
230
1.0
 70
     8
 71
     3
 72
     8
 73
     4
 74
     0
 42
0.0000000001
 43
0.0000000001
 40
0.0
 40
0.0
 40
0.0
 40
0.0
 40
1.0
 40
1.0
 40
1.0
 40
1.0
 10
349.0402333231955
 20
183.9197077368093
 30
0.0
 10
348.9584893800863
 20
182.4769324528094
 30
0.0
 10
348.6486133424559
 20
181.0897176622788
 30
0.0
 10
348.1390572351242
 20
179.8854338774781
 30
0.0
  0
SPLINE
  5
258
330
70
100
AcDbEntity
  8
shade
 62
     6
420
 16711935
370
    25
100
AcDbSpline
210
0.0
220
0.0
230
1.0
 70
     8
 71
     3
 72
     8
 73
     4
 74
     0
 42
0.0000000001
 43
0.0000000001
 40
0.0
 40
0.0
 40
0.0
 40
0.0
 40
1.0
 40
1.0
 40
1.0
 40
1.0
 10
348.1390572351235
 20
179.8854338774781
 30
0.0
 10
346.4631625369181
 20
175.924628028931
 30
0.0
 10
343.6463909201908
 20
173.5466482130745
 30
0.0
 10
340.630620273232
 20
173.5466482130745
 30
0.0
  0
LINE
  5
259
330
70
100
AcDbEntity
  8
shade
 62
     6
420
 16711935
370
    25
100
AcDbLine
 10
340.9080972654357
 20
173.5466482130745
 30
0.0
 11
340.6326708952684
 21
173.5466482130745
 31
0.0
  0
SPLINE
  5
25A
330
70
100
AcDbEntity
  8
shade
 62
     6
420
 16711935
370
    25
100
AcDbSpline
210
0.0
220
0.0
230
1.0
 70
     8
 71
     3
 72
     8
 73
     4
 74
     0
 42
0.0000000001
 43
0.0000000001
 40
0.0
 40
0.0
 40
0.0
 40
0.0
 40
1.0
 40
1.0
 40
1.0
 40
1.0
 10
350.0087302713134
 20
187.8138822520609
 30
0.0
 10
350.0087302713134
 20
186.5138827205637
 30
0.0
 10
349.9694898946569
 20
185.2145311685569
 30
0.0
 10
349.8911263214753
 20
183.91970773681
 30
0.0
  0
SPLINE
  5
25B
330
70
100
AcDbEntity
  8
shade
 62
     6
420
 16711935
370
    25
100
AcDbSpline
210
0.0
220
0.0
230
1.0
 70
     8
 71
     3
 72
     8
 73
     4
 74
     0
 42
0.0000000001
 43
0.0000000001
 40
0.0
 40
0.0
 40
0.0
 40
0.0
 40
1.0
 40
1.0
 40
1.0
 40
1.0
 10
349.8911263214785
 20
183.9197077368093
 30
0.0
 10
349.8038086040349
 20
182.4769324528094
 30
0.0
 10
349.4728034277842
 20
181.0897176622788
 30
0.0
 10
348.9285028409858
 20
179.8854338774781
 30
0.0
  0
SPLINE
  5
25C
330
70
100
AcDbEntity
  8
shade
 62
     6
420
 16711935
370
    25
100
AcDbSpline
210
0.0
220
0.0
230
1.0
 70
     8
 71
     3
 72
     8
 73
     4
 74
     0
 42
0.0000000001
 43
0.0000000001
 40
0.0
 40
0.0
 40
0.0
 40
0.0
 40
1.0
 40
1.0
 40
1.0
 40
1.0
 10
348.9285028409832
 20
179.8854338774781
 30
0.0
 10
347.1383359594155
 20
175.924628028931
 30
0.0
 10
344.1295005793614
 20
173.5466482130745
 30
0.0
 10
340.9080972654357
 20
173.5466482130745
 30
0.0
  0
LINE
  5
25D
330
70
100
AcDbEntity
  8
shade
 62
     6
420
 16711935
370
    25
100
AcDbLine
 10
341.1713955628522
 20
173.5466482130745
 30
0.0
 11
340.9102309344894
 21
173.5466482130745
 31
0.0
  0
SPLINE
  5
25E
330
70
100
AcDbEntity
  8
shade
 62
     6
420
 16711935
370
    25
100
AcDbSpline
210
0.0
220
0.0
230
1.0
 70
     8
 71
     3
 72
     8
 73
     4
 74
     0
 42
0.0000000001
 43
0.0000000001
 40
0.0
 40
0.0
 40
0.0
 40
0.0
 40
1.0
 40
1.0
 40
1.0
 40
1.0
 10
350.8232672447343
 20
187.8138822520609
 30
0.0
 10
350.8232672447343
 20
186.5138827205637
 30
0.0
 10
350.7816500209659
 20
185.2145311685569
 30
0.0
 10
350.6985398513334
 20
183.91970773681
 30
0.0
  0
SPLINE
  5
25F
330
70
100
AcDbEntity
  8
shade
 62
     6
420
 16711935
370
    25
100
AcDbSpline
210
0.0
220
0.0
230
1.0
 70
     8
 71
     3
 72
     8
 73
     4
 74
     0
 42
0.0000000001
 43
0.0000000001
 40
0.0
 40
0.0
 40
0.0
 40
0.0
 40
1.0
 40
1.0
 40
1.0
 40
1.0
 10
350.6985398513314
 20
183.9197077368093
 30
0.0
 10
350.6059331717993
 20
182.4769324528094
 30
0.0
 10
350.2548785270126
 20
181.0897176622788
 30
0.0
 10
349.6776088561272
 20
179.8854338774781
 30
0.0
  0
SPLINE
  5
260
330
70
100
AcDbEntity
  8
shade
 62
     6
420
 16711935
370
    25
100
AcDbSpline
210
0.0
220
0.0
230
1.0
 70
     8
 71
     3
 72
     8
 73
     4
 74
     0
 42
0.0000000001
 43
0.0000000001
 40
0.0
 40
0.0
 40
0.0
 40
0.0
 40
1.0
 40
1.0
 40
1.0
 40
1.0
 10
349.6776088561304
 20
179.8854338774781
 30
0.0
 10
347.7790089434772
 20
175.924628028931
 30
0.0
 10
344.5879239957121
 20
173.5466482130745
 30
0.0
 10
341.1713955628522
 20
173.5466482130745
 30
0.0
  0
LINE
  5
261
330
70
100
AcDbEntity
  8
shade
 62
     6
420
 16711935
370
    25
100
AcDbLine
 10
341.4196563411531
 20
173.5466482130745
 30
0.0
 11
341.1736055904788
 21
173.5466482130745
 31
0.0
  0
SPLINE
  5
262
330
70
100
AcDbEntity
  8
shade
 62
     6
420
 16711935
370
    25
100
AcDbSpline
210
0.0
220
0.0
230
1.0
 70
     8
 71
     3
 72
     8
 73
     4
 74
     0
 42
0.0000000001
 43
0.0000000001
 40
0.0
 40
0.0
 40
0.0
 40
0.0
 40
1.0
 40
1.0
 40
1.0
 40
1.0
 10
351.5912842997657
 20
187.8138822520609
 30
0.0
 10
351.5912842997657
 20
186.5138827205637
 30
0.0
 10
351.5474259756193
 20
185.2145311685569
 30
0.0
 10
351.4598402976345
 20
183.91970773681
 30
0.0
  0
SPLINE
  5
263
330
70
100
AcDbEntity
  8
shade
 62
     6
420
 16711935
370
    25
100
AcDbSpline
210
0.0
220
0.0
230
1.0
 70
     8
 71
     3
 72
     8
 73
     4
 74
     0
 42
0.0000000001
 43
0.0000000001
 40
0.0
 40
0.0
 40
0.0
 40
0.0
 40
1.0
 40
1.0
 40
1.0
 40
1.0
 10
351.459840297646
 20
183.9197077368093
 30
0.0
 10
351.3622467197647
 20
182.4769324528094
 30
0.0
 10
350.9922876737265
 20
181.0897176622788
 30
0.0
 10
350.3839318524338
 20
179.8854338774781
 30
0.0
  0
SPLINE
  5
264
330
70
100
AcDbEntity
  8
shade
 62
     6
420
 16711935
370
    25
100
AcDbSpline
210
0.0
220
0.0
230
1.0
 70
     8
 71
     3
 72
     8
 73
     4
 74
     0
 42
0.0000000001
 43
0.0000000001
 40
0.0
 40
0.0
 40
0.0
 40
0.0
 40
1.0
 40
1.0
 40
1.0
 40
1.0
 10
350.3839318524299
 20
179.8854338774781
 30
0.0
 10
348.3830917469791
 20
175.924628028931
 30
0.0
 10
345.0201658873301
 20
173.5466482130745
 30
0.0
 10
341.4196563411531
 20
173.5466482130745
 30
0.0
  0
LINE
  5
265
330
70
100
AcDbEntity
  8
shade
 62
     6
420
 16711935
370
    25
100
AcDbLine
 10
341.6520698252901
 20
173.5466482130745
 30
0.0
 11
341.4219364737241
 21
173.5466482130745
 31
0.0
  0
SPLINE
  5
266
330
70
100
AcDbEntity
  8
shade
 62
     6
420
 16711935
370
    25
100
AcDbSpline
210
0.0
220
0.0
230
1.0
 70
     8
 71
     3
 72
     8
 73
     4
 74
     0
 42
0.0000000001
 43
0.0000000001
 40
0.0
 40
0.0
 40
0.0
 40
0.0
 40
1.0
 40
1.0
 40
1.0
 40
1.0
 10
352.3102763244329
 20
187.8138822520609
 30
0.0
 10
352.3102763244329
 20
186.5138827205637
 30
0.0
 10
352.2643199566463
 20
185.2145311685569
 30
0.0
 10
352.1725444565859
 20
183.91970773681
 30
0.0
  0
SPLINE
  5
267
330
70
100
AcDbEntity
  8
shade
 62
     6
420
 16711935
370
    25
100
AcDbSpline
210
0.0
220
0.0
230
1.0
 70
     8
 71
     3
 72
     8
 73
     4
 74
     0
 42
0.0000000001
 43
0.0000000001
 40
0.0
 40
0.0
 40
0.0
 40
0.0
 40
1.0
 40
1.0
 40
1.0
 40
1.0
 10
352.1725444566019
 20
183.9197077368093
 30
0.0
 10
352.0702823103375
 20
182.4769324528094
 30
0.0
 10
351.6826255925584
 20
181.0897176622788
 30
0.0
 10
351.0451679510993
 20
179.8854338774781
 30
0.0
  0
SPLINE
  5
268
330
70
100
AcDbEntity
  8
shade
 62
     6
420
 16711935
370
    25
100
AcDbSpline
210
0.0
220
0.0
230
1.0
 70
     8
 71
     3
 72
     8
 73
     4
 74
     0
 42
0.0000000001
 43
0.0000000001
 40
0.0
 40
0.0
 40
0.0
 40
0.0
 40
1.0
 40
1.0
 40
1.0
 40
1.0
 10
351.0451679510968
 20
179.8854338774781
 30
0.0
 10
348.9486139773924
 20
175.924628028931
 30
0.0
 10
345.4248163710205
 20
173.5466482130745
 30
0.0
 10
341.6520698252901
 20
173.5466482130745
 30
0.0
  0
LINE
  5
269
330
70
100
AcDbEntity
  8
shade
 62
     6
420
 16711935
370
    25
100
AcDbLine
 10
341.8678779307814
 20
173.5466482130745
 30
0.0
 11
341.6544141594644
 21
173.5466482130745
 31
0.0
  0
SPLINE
  5
26A
330
70
100
AcDbEntity
  8
shade
 62
     6
420
 16711935
370
    25
100
AcDbSpline
210
0.0
220
0.0
230
1.0
 70
     8
 71
     3
 72
     8
 73
     4
 74
     0
 42
0.0000000001
 43
0.0000000001
 40
0.0
 40
0.0
 40
0.0
 40
0.0
 40
1.0
 40
1.0
 40
1.0
 40
1.0
 10
352.9778981162186
 20
187.8138822520609
 30
0.0
 10
352.9778981162186
 20
186.5138827205637
 30
0.0
 10
352.9299936049109
 20
185.2145311685569
 30
0.0
 10
352.8343276353805
 20
183.91970773681
 30
0.0
  0
SPLINE
  5
26B
330
70
100
AcDbEntity
  8
shade
 62
     6
420
 16711935
370
    25
100
AcDbSpline
210
0.0
220
0.0
230
1.0
 70
     8
 71
     3
 72
     8
 73
     4
 74
     0
 42
0.0000000001
 43
0.0000000001
 40
0.0
 40
0.0
 40
0.0
 40
0.0
 40
1.0
 40
1.0
 40
1.0
 40
1.0
 10
352.8343276353741
 20
183.9197077368093
 30
0.0
 10
352.7277304785926
 20
182.4769324528094
 30
0.0
 10
352.3236405447113
 20
181.0897176622788
 30
0.0
 10
351.6591603374144
 20
179.8854338774781
 30
0.0
  0
SPLINE
  5
26C
330
70
100
AcDbEntity
  8
shade
 62
     6
420
 16711935
370
    25
100
AcDbSpline
210
0.0
220
0.0
230
1.0
 70
     8
 71
     3
 72
     8
 73
     4
 74
     0
 42
0.0000000001
 43
0.0000000001
 40
0.0
 40
0.0
 40
0.0
 40
0.0
 40
1.0
 40
1.0
 40
1.0
 40
1.0
 10
351.6591603374144
 20
179.8854338774781
 30
0.0
 10
349.4737310187441
 20
175.924628028931
 30
0.0
 10
345.8005555610091
 20
173.5466482130745
 30
0.0
 10
341.8678779307814
 20
173.5466482130745
 30
0.0
  0
LINE
  5
26D
330
70
100
AcDbEntity
  8
shade
 62
     6
420
 16711935
370
    25
100
AcDbLine
 10
342.0663767364461
 20
173.5466482130745
 30
0.0
 11
341.870280801643
 21
173.5466482130745
 31
0.0
  0
SPLINE
  5
26E
330
70
100
AcDbEntity
  8
shade
 62
     6
420
 16711935
370
    25
100
AcDbSpline
210
0.0
220
0.0
230
1.0
 70
     8
 71
     3
 72
     8
 73
     4
 74
     0
 42
0.0000000001
 43
0.0000000001
 40
0.0
 40
0.0
 40
0.0
 40
0.0
 40
1.0
 40
1.0
 40
1.0
 40
1.0
 10
353.591972031558
 20
187.8138822520609
 30
0.0
 10
353.591972031558
 20
186.5138827205637
 30
0.0
 10
353.5422756312885
 20
185.2145311685569
 30
0.0
 10
353.443031234796
 20
183.91970773681
 30
0.0
  0
SPLINE
  5
26F
330
70
100
AcDbEntity
  8
shade
 62
     6
420
 16711935
370
    25
100
AcDbSpline
210
0.0
220
0.0
230
1.0
 70
     8
 71
     3
 72
     8
 73
     4
 74
     0
 42
0.0000000001
 43
0.0000000001
 40
0.0
 40
0.0
 40
0.0
 40
0.0
 40
1.0
 40
1.0
 40
1.0
 40
1.0
 10
353.4430312347793
 20
183.9197077368093
 30
0.0
 10
353.3324467652493
 20
182.4769324528094
 30
0.0
 10
352.9132416726385
 20
181.0897176622788
 30
0.0
 10
352.2239062958271
 20
179.8854338774781
 30
0.0
  0
SPLINE
  5
270
330
70
100
AcDbEntity
  8
shade
 62
     6
420
 16711935
370
    25
100
AcDbSpline
210
0.0
220
0.0
230
1.0
 70
     8
 71
     3
 72
     8
 73
     4
 74
     0
 42
0.0000000001
 43
0.0000000001
 40
0.0
 40
0.0
 40
0.0
 40
0.0
 40
1.0
 40
1.0
 40
1.0
 40
1.0
 10
352.2239062958316
 20
179.8854338774781
 30
0.0
 10
349.9567300483869
 20
175.924628028931
 30
0.0
 10
346.1461578741559
 20
173.5466482130745
 30
0.0
 10
342.0663767364461
 20
173.5466482130745
 30
0.0
  0
LINE
  5
271
330
70
100
AcDbEntity
  8
shade
 62
     6
420
 16711935
370
    25
100
AcDbLine
 10
342.2469187804332
 20
173.5466482130745
 30
0.0
 11
342.0688327180375
 21
173.5466482130745
 31
0.0
  0
SPLINE
  5
272
330
70
100
AcDbEntity
  8
shade
 62
     6
420
 16711935
370
    25
100
AcDbSpline
210
0.0
220
0.0
230
1.0
 70
     8
 71
     3
 72
     8
 73
     4
 74
     0
 42
0.0000000001
 43
0.0000000001
 40
0.0
 40
0.0
 40
0.0
 40
0.0
 40
1.0
 40
1.0
 40
1.0
 40
1.0
 10
354.1504950889666
 20
187.8138822520609
 30
0.0
 10
354.1504950889666
 20
186.5138827205637
 30
0.0
 10
354.0991688990626
 20
185.2145311685569
 30
0.0
 10
353.9966697902016
 20
183.91970773681
 30
0.0
  0
SPLINE
  5
273
330
70
100
AcDbEntity
  8
shade
 62
     6
420
 16711935
370
    25
100
AcDbSpline
210
0.0
220
0.0
230
1.0
 70
     8
 71
     3
 72
     8
 73
     4
 74
     0
 42
0.0000000001
 43
0.0000000001
 40
0.0
 40
0.0
 40
0.0
 40
0.0
 40
1.0
 40
1.0
 40
1.0
 40
1.0
 10
353.9966697901978
 20
183.9197077368093
 30
0.0
 10
353.8824587114734
 20
182.4769324528094
 30
0.0
 10
353.4495058200129
 20
181.0897176622788
 30
0.0
 10
352.737563742407
 20
179.8854338774781
 30
0.0
  0
SPLINE
  5
274
330
70
100
AcDbEntity
  8
shade
 62
     6
420
 16711935
370
    25
100
AcDbSpline
210
0.0
220
0.0
230
1.0
 70
     8
 71
     3
 72
     8
 73
     4
 74
     0
 42
0.0000000001
 43
0.0000000001
 40
0.0
 40
0.0
 40
0.0
 40
0.0
 40
1.0
 40
1.0
 40
1.0
 40
1.0
 10
352.7375637424096
 20
179.8854338774781
 30
0.0
 10
350.3960356238727
 20
175.924628028931
 30
0.0
 10
346.4604960275445
 20
173.5466482130745
 30
0.0
 10
342.2469187804332
 20
173.5466482130745
 30
0.0
  0
LINE
  5
275
330
70
100
AcDbEntity
  8
shade
 62
     6
420
 16711935
370
    25
100
AcDbLine
 10
342.4089151721293
 20
173.5466482130745
 30
0.0
 11
342.2494226083672
 21
173.5466482130745
 31
0.0
  0
SPLINE
  5
276
330
70
100
AcDbEntity
  8
shade
 62
     6
420
 16711935
370
    25
100
AcDbSpline
210
0.0
220
0.0
230
1.0
 70
     8
 71
     3
 72
     8
 73
     4
 74
     0
 42
0.0000000001
 43
0.0000000001
 40
0.0
 40
0.0
 40
0.0
 40
0.0
 40
1.0
 40
1.0
 40
1.0
 40
1.0
 10
354.6516455023802
 20
187.8138822520609
 30
0.0
 10
354.6516455023802
 20
186.5138827205637
 30
0.0
 10
354.5988569382056
 20
185.2145311685569
 30
0.0
 10
354.4934374477642
 20
183.91970773681
 30
0.0
  0
SPLINE
  5
277
330
70
100
AcDbEntity
  8
shade
 62
     6
420
 16711935
370
    25
100
AcDbSpline
210
0.0
220
0.0
230
1.0
 70
     8
 71
     3
 72
     8
 73
     4
 74
     0
 42
0.0000000001
 43
0.0000000001
 40
0.0
 40
0.0
 40
0.0
 40
0.0
 40
1.0
 40
1.0
 40
1.0
 40
1.0
 10
354.4934374477494
 20
183.9197077368093
 30
0.0
 10
354.3759722926316
 20
182.4769324528094
 30
0.0
 10
353.9306838046623
 20
181.0897176622788
 30
0.0
 10
353.198457233339
 20
179.8854338774781
 30
0.0
  0
SPLINE
  5
278
330
70
100
AcDbEntity
  8
shade
 62
     6
420
 16711935
370
    25
100
AcDbSpline
210
0.0
220
0.0
230
1.0
 70
     8
 71
     3
 72
     8
 73
     4
 74
     0
 42
0.0000000001
 43
0.0000000001
 40
0.0
 40
0.0
 40
0.0
 40
0.0
 40
1.0
 40
1.0
 40
1.0
 40
1.0
 10
353.1984572333409
 20
179.8854338774781
 30
0.0
 10
350.7902148217416
 20
175.924628028931
 30
0.0
 10
346.7425447154649
 20
173.5466482130745
 30
0.0
 10
342.4089151721293
 20
173.5466482130745
 30
0.0
  0
LINE
  5
279
330
70
100
AcDbEntity
  8
shade
 62
     6
420
 16711935
370
    25
100
AcDbLine
 10
342.5518375129663
 20
173.5466482130745
 30
0.0
 11
342.4114617331394
 21
173.5466482130745
 31
0.0
  0
SPLINE
  5
27A
330
70
100
AcDbEntity
  8
shade
 62
     6
420
 16711935
370
    25
100
AcDbSpline
210
0.0
220
0.0
230
1.0
 70
     8
 71
     3
 72
     8
 73
     4
 74
     0
 42
0.0000000001
 43
0.0000000001
 40
0.0
 40
0.0
 40
0.0
 40
0.0
 40
1.0
 40
1.0
 40
1.0
 40
1.0
 10
355.0937886232227
 20
187.8138822520609
 30
0.0
 10
355.0937886232227
 20
186.5138827205637
 30
0.0
 10
355.0397098701012
 20
185.2145311685569
 30
0.0
 10
354.9317138545458
 20
183.91970773681
 30
0.0
  0
SPLINE
  5
27B
330
70
100
AcDbEntity
  8
shade
 62
     6
420
 16711935
370
    25
100
AcDbSpline
210
0.0
220
0.0
230
1.0
 70
     8
 71
     3
 72
     8
 73
     4
 74
     0
 42
0.0000000001
 43
0.0000000001
 40
0.0
 40
0.0
 40
0.0
 40
0.0
 40
1.0
 40
1.0
 40
1.0
 40
1.0
 10
354.9317138545624
 20
183.9197077368093
 30
0.0
 10
354.8113777699707
 20
182.4769324528094
 30
0.0
 10
354.3552061239873
 20
181.0897176622788
 30
0.0
 10
353.605083429829
 20
179.8854338774781
 30
0.0
  0
SPLINE
  5
27C
330
70
100
AcDbEntity
  8
shade
 62
     6
420
 16711935
370
    25
100
AcDbSpline
210
0.0
220
0.0
230
1.0
 70
     8
 71
     3
 72
     8
 73
     4
 74
     0
 42
0.0000000001
 43
0.0000000001
 40
0.0
 40
0.0
 40
0.0
 40
0.0
 40
1.0
 40
1.0
 40
1.0
 40
1.0
 10
353.6050834298252
 20
179.8854338774781
 30
0.0
 10
351.1379819113549
 20
175.924628028931
 30
0.0
 10
346.9913839537057
 20
173.5466482130745
 30
0.0
 10
342.5518375129663
 20
173.5466482130745
 30
0.0
  0
LINE
  5
27D
330
70
100
AcDbEntity
  8
shade
 62
     6
420
 16711935
370
    25
100
AcDbLine
 10
342.6752196199859
 20
173.5466482130745
 30
0.0
 11
342.5544217954273
 21
173.5466482130745
 31
0.0
  0
SPLINE
  5
27E
330
70
100
AcDbEntity
  8
shade
 62
     6
420
 16711935
370
    25
100
AcDbSpline
210
0.0
220
0.0
230
1.0
 70
     8
 71
     3
 72
     8
 73
     4
 74
     0
 42
0.0000000001
 43
0.0000000001
 40
0.0
 40
0.0
 40
0.0
 40
0.0
 40
1.0
 40
1.0
 40
1.0
 40
1.0
 10
355.4754822726471
 20
187.8138822520609
 30
0.0
 10
355.4754822726471
 20
186.5138827205637
 30
0.0
 10
355.420289724231
 20
185.2145311685569
 30
0.0
 10
355.310069444117
 20
183.91970773681
 30
0.0
  0
SPLINE
  5
27F
330
70
100
AcDbEntity
  8
shade
 62
     6
420
 16711935
370
    25
100
AcDbSpline
210
0.0
220
0.0
230
1.0
 70
     8
 71
     3
 72
     8
 73
     4
 74
     0
 42
0.0000000001
 43
0.0000000001
 40
0.0
 40
0.0
 40
0.0
 40
0.0
 40
1.0
 40
1.0
 40
1.0
 40
1.0
 10
355.3100694441273
 20
183.9197077368093
 30
0.0
 10
355.1872549413575
 20
182.4769324528094
 30
0.0
 10
354.7216880744524
 20
181.0897176622788
 30
0.0
 10
353.9561160017711
 20
179.8854338774781
 30
0.0
  0
SPLINE
  5
280
330
70
100
AcDbEntity
  8
shade
 62
     6
420
 16711935
370
    25
100
AcDbSpline
210
0.0
220
0.0
230
1.0
 70
     8
 71
     3
 72
     8
 73
     4
 74
     0
 42
0.0000000001
 43
0.0000000001
 40
0.0
 40
0.0
 40
0.0
 40
0.0
 40
1.0
 40
1.0
 40
1.0
 40
1.0
 10
353.9561160017679
 20
179.8854338774781
 30
0.0
 10
351.4382025487836
 20
175.924628028931
 30
0.0
 10
347.2062020804141
 20
173.5466482130745
 30
0.0
 10
342.6752196199859
 20
173.5466482130745
 30
0.0
  0
LINE
  5
281
330
70
100
AcDbEntity
  8
shade
 62
     6
420
 16711935
370
    25
100
AcDbLine
 10
342.7786590463915
 20
173.5466482130745
 30
0.0
 11
342.6778367137842
 21
173.5466482130745
 31
0.0
  0
SPLINE
  5
282
330
70
100
AcDbEntity
  8
shade
 62
     6
420
 16711935
370
    25
100
AcDbSpline
210
0.0
220
0.0
230
1.0
 70
     8
 71
     3
 72
     8
 73
     4
 74
     0
 42
0.0000000001
 43
0.0000000001
 40
0.0
 40
0.0
 40
0.0
 40
0.0
 40
1.0
 40
1.0
 40
1.0
 40
1.0
 10
355.7954814452542
 20
187.8138822520609
 30
0.0
 10
355.7954814452542
 20
186.5138827205637
 30
0.0
 10
355.7393551281645
 20
185.2145311685569
 30
0.0
 10
355.6272700991359
 20
183.91970773681
 30
0.0
  0
SPLINE
  5
283
330
70
100
AcDbEntity
  8
shade
 62
     6
420
 16711935
370
    25
100
AcDbSpline
210
0.0
220
0.0
230
1.0
 70
     8
 71
     3
 72
     8
 73
     4
 74
     0
 42
0.0000000001
 43
0.0000000001
 40
0.0
 40
0.0
 40
0.0
 40
0.0
 40
1.0
 40
1.0
 40
1.0
 40
1.0
 10
355.627270099134
 20
183.9197077368093
 30
0.0
 10
355.5023777735668
 20
182.4769324528094
 30
0.0
 10
355.0289342680909
 20
181.0897176622788
 30
0.0
 10
354.2504099538614
 20
179.8854338774781
 30
0.0
  0
SPLINE
  5
284
330
70
100
AcDbEntity
  8
shade
 62
     6
420
 16711935
370
    25
100
AcDbSpline
210
0.0
220
0.0
230
1.0
 70
     8
 71
     3
 72
     8
 73
     4
 74
     0
 42
0.0000000001
 43
0.0000000001
 40
0.0
 40
0.0
 40
0.0
 40
0.0
 40
1.0
 40
1.0
 40
1.0
 40
1.0
 10
354.2504099538596
 20
179.8854338774781
 30
0.0
 10
351.6898974766902
 20
175.924628028931
 30
0.0
 10
347.386298403498
 20
173.5466482130745
 30
0.0
 10
342.7786590463915
 20
173.5466482130745
 30
0.0
  0
LINE
  5
285
330
70
100
AcDbEntity
  8
shade
 62
     6
420
 16711935
370
    25
100
AcDbLine
 10
342.8618183942785
 20
173.5466482130745
 30
0.0
 11
342.781304118155
 21
173.5466482130745
 31
0.0
  0
SPLINE
  5
286
330
70
100
AcDbEntity
  8
shade
 62
     6
420
 16711935
370
    25
100
AcDbSpline
210
0.0
220
0.0
230
1.0
 70
     8
 71
     3
 72
     8
 73
     4
 74
     0
 42
0.0000000001
 43
0.0000000001
 40
0.0
 40
0.0
 40
0.0
 40
0.0
 40
1.0
 40
1.0
 40
1.0
 40
1.0
 10
356.0527423702151
 20
187.8138822520609
 30
0.0
 10
356.0527423702151
 20
186.5138827205637
 30
0.0
 10
355.9958653568326
 20
185.2145311685569
 30
0.0
 10
355.8822811769573
 20
183.91970773681
 30
0.0
  0
SPLINE
  5
287
330
70
100
AcDbEntity
  8
shade
 62
     6
420
 16711935
370
    25
100
AcDbSpline
210
0.0
220
0.0
230
1.0
 70
     8
 71
     3
 72
     8
 73
     4
 74
     0
 42
0.0000000001
 43
0.0000000001
 40
0.0
 40
0.0
 40
0.0
 40
0.0
 40
1.0
 40
1.0
 40
1.0
 40
1.0
 10
355.8822811769708
 20
183.9197077368093
 30
0.0
 10
355.7557184014144
 20
182.4769324528094
 30
0.0
 10
355.2759425316758
 20
181.0897176622788
 30
0.0
 10
354.4870053603945
 20
179.8854338774781
 30
0.0
  0
SPLINE
  5
288
330
70
100
AcDbEntity
  8
shade
 62
     6
420
 16711935
370
    25
100
AcDbSpline
210
0.0
220
0.0
230
1.0
 70
     8
 71
     3
 72
     8
 73
     4
 74
     0
 42
0.0000000001
 43
0.0000000001
 40
0.0
 40
0.0
 40
0.0
 40
0.0
 40
1.0
 40
1.0
 40
1.0
 40
1.0
 10
354.4870053603933
 20
179.8854338774781
 30
0.0
 10
351.8922457185337
 20
175.924628028931
 30
0.0
 10
347.531085486185
 20
173.5466482130745
 30
0.0
 10
342.8618183942785
 20
173.5466482130745
 30
0.0
  0
LINE
  5
289
330
70
100
AcDbEntity
  8
shade
 62
     6
420
 16711935
370
    25
100
AcDbLine
 10
342.9244264151347
 20
173.5466482130745
 30
0.0
 11
342.864486650577
 21
173.5466482130745
 31
0.0
  0
SPLINE
  5
28A
330
70
100
AcDbEntity
  8
shade
 62
     6
420
 16711935
370
    25
100
AcDbSpline
210
0.0
220
0.0
230
1.0
 70
     8
 71
     3
 72
     8
 73
     4
 74
     0
 42
0.0000000001
 43
0.0000000001
 40
0.0
 40
0.0
 40
0.0
 40
0.0
 40
1.0
 40
1.0
 40
1.0
 40
1.0
 10
356.2464259159445
 20
187.8138822520609
 30
0.0
 10
356.2464259159445
 20
186.5138827205637
 30
0.0
 10
356.1889837272651
 20
185.2145311685569
 30
0.0
 10
356.0742708845284
 20
183.91970773681
 30
0.0
  0
SPLINE
  5
28B
330
70
100
AcDbEntity
  8
shade
 62
     6
420
 16711935
370
    25
100
AcDbSpline
210
0.0
220
0.0
230
1.0
 70
     8
 71
     3
 72
     8
 73
     4
 74
     0
 42
0.0000000001
 43
0.0000000001
 40
0.0
 40
0.0
 40
0.0
 40
0.0
 40
1.0
 40
1.0
 40
1.0
 40
1.0
 10
356.0742708845271
 20
183.9197077368093
 30
0.0
 10
355.9464504804478
 20
182.4769324528094
 30
0.0
 10
355.4619071756107
 20
181.0897176622788
 30
0.0
 10
354.6651304963478
 20
179.8854338774781
 30
0.0
  0
SPLINE
  5
28C
330
70
100
AcDbEntity
  8
shade
 62
     6
420
 16711935
370
    25
100
AcDbSpline
210
0.0
220
0.0
230
1.0
 70
     8
 71
     3
 72
     8
 73
     4
 74
     0
 42
0.0000000001
 43
0.0000000001
 40
0.0
 40
0.0
 40
0.0
 40
0.0
 40
1.0
 40
1.0
 40
1.0
 40
1.0
 10
354.6651304963445
 20
179.8854338774781
 30
0.0
 10
352.0445872564183
 20
175.924628028931
 30
0.0
 10
347.6400910631098
 20
173.5466482130745
 30
0.0
 10
342.9244264151347
 20
173.5466482130745
 30
0.0
  0
LINE
  5
28D
330
70
100
AcDbEntity
  8
shade
 62
     6
420
 16711935
370
    25
100
AcDbLine
 10
342.9662788946207
 20
173.5466482130745
 30
0.0
 11
342.9271131325325
 21
173.5466482130745
 31
0.0
  0
SPLINE
  5
28E
330
70
100
AcDbEntity
  8
shade
 62
     6
420
 16711935
370
    25
100
AcDbSpline
210
0.0
220
0.0
230
1.0
 70
     8
 71
     3
 72
     8
 73
     4
 74
     0
 42
0.0000000001
 43
0.0000000001
 40
0.0
 40
0.0
 40
0.0
 40
0.0
 40
1.0
 40
1.0
 40
1.0
 40
1.0
 10
356.3759003269269
 20
187.8138822520609
 30
0.0
 10
356.3759003269269
 20
186.5138827205637
 30
0.0
 10
356.3180803274295
 20
185.2145311685569
 30
0.0
 10
356.2026129912819
 20
183.91970773681
 30
0.0
  0
SPLINE
  5
28F
330
70
100
AcDbEntity
  8
shade
 62
     6
420
 16711935
370
    25
100
AcDbSpline
210
0.0
220
0.0
230
1.0
 70
     8
 71
     3
 72
     8
 73
     4
 74
     0
 42
0.0000000001
 43
0.0000000001
 40
0.0
 40
0.0
 40
0.0
 40
0.0
 40
1.0
 40
1.0
 40
1.0
 40
1.0
 10
356.202612991266
 20
183.9197077368093
 30
0.0
 10
356.0739518822536
 20
182.4769324528094
 30
0.0
 10
355.586221621866
 20
181.0897176622788
 30
0.0
 10
354.7842043545366
 20
179.8854338774781
 30
0.0
  0
SPLINE
  5
290
330
70
100
AcDbEntity
  8
shade
 62
     6
420
 16711935
370
    25
100
AcDbSpline
210
0.0
220
0.0
230
1.0
 70
     8
 71
     3
 72
     8
 73
     4
 74
     0
 42
0.0000000001
 43
0.0000000001
 40
0.0
 40
0.0
 40
0.0
 40
0.0
 40
1.0
 40
1.0
 40
1.0
 40
1.0
 10
354.784204354543
 20
179.8854338774781
 30
0.0
 10
352.1464251839124
 20
175.924628028931
 30
0.0
 10
347.7129595807427
 20
173.5466482130745
 30
0.0
 10
342.9662788946207
 20
173.5466482130745
 30
0.0
  0
LINE
  5
291
330
70
100
AcDbEntity
  8
shade
 62
     6
420
 16711935
370
    25
100
AcDbLine
 10
342.9872393186324
 20
173.5466482130745
 30
0.0
 11
342.9689793759784
 21
173.5466482130745
 31
0.0
  0
SPLINE
  5
292
330
70
100
AcDbEntity
  8
shade
 62
     6
420
 16711935
370
    25
100
AcDbSpline
210
0.0
220
0.0
230
1.0
 70
     8
 71
     3
 72
     8
 73
     4
 74
     0
 42
0.0000000001
 43
0.0000000001
 40
0.0
 40
0.0
 40
0.0
 40
0.0
 40
1.0
 40
1.0
 40
1.0
 40
1.0
 10
356.4407432845122
 20
187.8138822520609
 30
0.0
 10
356.4407432845122
 20
186.5138827205637
 30
0.0
 10
356.3827340710179
 20
185.2145311685569
 30
0.0
 10
356.2668888719093
 20
183.91970773681
 30
0.0
  0
SPLINE
  5
293
330
70
100
AcDbEntity
  8
shade
 62
     6
420
 16711935
370
    25
100
AcDbSpline
210
0.0
220
0.0
230
1.0
 70
     8
 71
     3
 72
     8
 73
     4
 74
     0
 42
0.0000000001
 43
0.0000000001
 40
0.0
 40
0.0
 40
0.0
 40
0.0
 40
1.0
 40
1.0
 40
1.0
 40
1.0
 10
356.2668888719144
 20
183.9197077368093
 30
0.0
 10
356.1378067237653
 20
182.4769324528094
 30
0.0
 10
355.6484803825602
 20
181.0897176622788
 30
0.0
 10
354.8438385407899
 20
179.8854338774781
 30
0.0
  0
SPLINE
  5
294
330
70
100
AcDbEntity
  8
shade
 62
     6
420
 16711935
370
    25
100
AcDbSpline
210
0.0
220
0.0
230
1.0
 70
     8
 71
     3
 72
     8
 73
     4
 74
     0
 42
0.0000000001
 43
0.0000000001
 40
0.0
 40
0.0
 40
0.0
 40
0.0
 40
1.0
 40
1.0
 40
1.0
 40
1.0
 10
354.8438385407906
 20
179.8854338774781
 30
0.0
 10
352.1974273268438
 20
175.924628028931
 30
0.0
 10
347.7494533571091
 20
173.5466482130745
 30
0.0
 10
342.9872393186324
 20
173.5466482130745
 30
0.0
  0
SPLINE
  5
295
330
70
100
AcDbEntity
  8
shade
 62
     6
420
 16711935
370
    25
100
AcDbSpline
210
0.0
220
0.0
230
1.0
 70
     8
 71
     3
 72
     8
 73
     4
 74
     0
 42
0.0000000001
 43
0.0000000001
 40
0.0
 40
0.0
 40
0.0
 40
0.0
 40
1.0
 40
1.0
 40
1.0
 40
1.0
 10
337.0609061140543
 20
180.4139971024506
 30
0.0
 10
337.0813643371509
 20
181.4858096709227
 30
0.0
 10
337.0938055835978
 20
182.7204308344946
 30
0.0
 10
337.0970875299839
 20
184.0045008372554
 30
0.0
  0
SPLINE
  5
296
330
70
100
AcDbEntity
  8
shade
 62
     6
420
 16711935
370
    25
100
AcDbSpline
210
0.0
220
0.0
230
1.0
 70
     8
 71
     3
 72
     8
 73
     4
 74
     0
 42
0.0000000001
 43
0.0000000001
 40
0.0
 40
0.0
 40
0.0
 40
0.0
 40
1.0
 40
1.0
 40
1.0
 40
1.0
 10
337.0970875299723
 20
184.0045008372554
 30
0.0
 10
337.100324900286
 20
185.2711303365335
 30
0.0
 10
337.1019460059263
 20
186.5421893592167
 30
0.0
 10
337.1019460059263
 20
187.8138822520609
 30
0.0
  0
SPLINE
  5
297
330
70
100
AcDbEntity
  8
shade
 62
     6
420
 16711935
370
    25
100
AcDbSpline
210
0.0
220
0.0
230
1.0
 70
     8
 71
     3
 72
     8
 73
     4
 74
     0
 42
0.0000000001
 43
0.0000000001
 40
0.0
 40
0.0
 40
0.0
 40
0.0
 40
1.0
 40
1.0
 40
1.0
 40
1.0
 10
336.7939455016408
 20
174.6096114859454
 30
0.0
 10
336.9026669354704
 20
175.106136375267
 30
0.0
 10
336.9999768785117
 20
177.2218958074592
 30
0.0
 10
337.0609061140515
 20
180.4139971024499
 30
0.0
  0
SPLINE
  5
298
330
70
100
AcDbEntity
  8
shade
 62
     6
420
 16711935
370
    25
100
AcDbSpline
210
0.0
220
0.0
230
1.0
 70
     8
 71
     3
 72
     8
 73
     4
 74
     0
 42
0.0000000001
 43
0.0000000001
 40
0.0
 40
0.0
 40
0.0
 40
0.0
 40
1.0
 40
1.0
 40
1.0
 40
1.0
 10
338.0587002925798
 20
180.4139971024506
 30
0.0
 10
338.1200082313067
 20
181.4858096709227
 30
0.0
 10
338.1572913898334
 20
182.7204308344953
 30
0.0
 10
338.1671265239498
 20
184.0045008372554
 30
0.0
  0
SPLINE
  5
299
330
70
100
AcDbEntity
  8
shade
 62
     6
420
 16711935
370
    25
100
AcDbSpline
210
0.0
220
0.0
230
1.0
 70
     8
 71
     3
 72
     8
 73
     4
 74
     0
 42
0.0000000001
 43
0.0000000001
 40
0.0
 40
0.0
 40
0.0
 40
0.0
 40
1.0
 40
1.0
 40
1.0
 40
1.0
 10
338.1671265239467
 20
184.0045008372554
 30
0.0
 10
338.176828075244
 20
185.2711303365335
 30
0.0
 10
338.1816861044481
 20
186.5421893592167
 30
0.0
 10
338.1816861044481
 20
187.8138822520609
 30
0.0
  0
SPLINE
  5
29A
330
70
100
AcDbEntity
  8
shade
 62
     6
420
 16711935
370
    25
100
AcDbSpline
210
0.0
220
0.0
230
1.0
 70
     8
 71
     3
 72
     8
 73
     4
 74
     0
 42
0.0000000001
 43
0.0000000001
 40
0.0
 40
0.0
 40
0.0
 40
0.0
 40
1.0
 40
1.0
 40
1.0
 40
1.0
 10
337.2313489724796
 20
174.5718648049493
 30
0.0
 10
337.567655405088
 20
174.9881077535337
 30
0.0
 10
337.870766015471
 20
177.1284467408705
 30
0.0
 10
338.0587002925795
 20
180.4139971024506
 30
0.0
  0
SPLINE
  5
29B
330
70
100
AcDbEntity
  8
shade
 62
     6
420
 16711935
370
    25
100
AcDbSpline
210
0.0
220
0.0
230
1.0
 70
     8
 71
     3
 72
     8
 73
     4
 74
     0
 42
0.0000000001
 43
0.0000000001
 40
0.0
 40
0.0
 40
0.0
 40
0.0
 40
1.0
 40
1.0
 40
1.0
 40
1.0
 10
339.0516099169909
 20
180.4139971024499
 30
0.0
 10
339.1535675975949
 20
181.4858096709227
 30
0.0
 10
339.2155710582871
 20
182.7204308344953
 30
0.0
 10
339.2319272999708
 20
184.0045008372554
 30
0.0
  0
SPLINE
  5
29C
330
70
100
AcDbEntity
  8
shade
 62
     6
420
 16711935
370
    25
100
AcDbSpline
210
0.0
220
0.0
230
1.0
 70
     8
 71
     3
 72
     8
 73
     4
 74
     0
 42
0.0000000001
 43
0.0000000001
 40
0.0
 40
0.0
 40
0.0
 40
0.0
 40
1.0
 40
1.0
 40
1.0
 40
1.0
 10
339.2319272999651
 20
184.0045008372554
 30
0.0
 10
339.2480613878028
 20
185.2711303365335
 30
0.0
 10
339.2561404946892
 20
186.5421893592167
 30
0.0
 10
339.2561404946892
 20
187.8138822520609
 30
0.0
  0
SPLINE
  5
29D
330
70
100
AcDbEntity
  8
shade
 62
     6
420
 16711935
370
    25
100
AcDbSpline
210
0.0
220
0.0
230
1.0
 70
     8
 71
     3
 72
     8
 73
     4
 74
     0
 42
0.0000000001
 43
0.0000000001
 40
0.0
 40
0.0
 40
0.0
 40
0.0
 40
1.0
 40
1.0
 40
1.0
 40
1.0
 10
338.0244653704357
 20
175.0674914015309
 30
0.0
 10
338.4446349338931
 20
175.9600072344986
 30
0.0
 10
338.8076815336976
 20
177.8497419578852
 30
0.0
 10
339.0516099169877
 20
180.4139971024506
 30
0.0
  0
SPLINE
  5
29E
330
70
100
AcDbEntity
  8
shade
 62
     6
420
 16711935
370
    25
100
AcDbSpline
210
0.0
220
0.0
230
1.0
 70
     8
 71
     3
 72
     8
 73
     4
 74
     0
 42
0.0000000001
 43
0.0000000001
 40
0.0
 40
0.0
 40
0.0
 40
0.0
 40
1.0
 40
1.0
 40
1.0
 40
1.0
 10
340.0363963224648
 20
180.4139971024506
 30
0.0
 10
340.1786711801842
 20
181.4858096709227
 30
0.0
 10
340.2651927006417
 20
182.7204308344953
 30
0.0
 10
340.2880166992312
 20
184.0045008372554
 30
0.0
  0
SPLINE
  5
29F
330
70
100
AcDbEntity
  8
shade
 62
     6
420
 16711935
370
    25
100
AcDbSpline
210
0.0
220
0.0
230
1.0
 70
     8
 71
     3
 72
     8
 73
     4
 74
     0
 42
0.0000000001
 43
0.0000000001
 40
0.0
 40
0.0
 40
0.0
 40
0.0
 40
1.0
 40
1.0
 40
1.0
 40
1.0
 10
340.2880166992324
 20
184.0045008372554
 30
0.0
 10
340.3105306975682
 20
185.2711303365335
 30
0.0
 10
340.3218045297696
 20
186.5421893592167
 30
0.0
 10
340.3218045297696
 20
187.8138822520609
 30
0.0
  0
SPLINE
  5
2A0
330
70
100
AcDbEntity
  8
shade
 62
     6
420
 16711935
370
    25
100
AcDbSpline
210
0.0
220
0.0
230
1.0
 70
     8
 71
     3
 72
     8
 73
     4
 74
     0
 42
0.0000000001
 43
0.0000000001
 40
0.0
 40
0.0
 40
0.0
 40
0.0
 40
1.0
 40
1.0
 40
1.0
 40
1.0
 10
338.954026395917
 20
175.7420520946107
 30
0.0
 10
339.3929474826117
 20
176.7710704948145
 30
0.0
 10
339.7673430315448
 20
178.3871126379797
 30
0.0
 10
340.0363963224642
 20
180.4139971024506
 30
0.0
  0
SPLINE
  5
2A1
330
70
100
AcDbEntity
  8
shade
 62
     6
420
 16711935
370
    25
100
AcDbSpline
210
0.0
220
0.0
230
1.0
 70
     8
 71
     3
 72
     8
 73
     4
 74
     0
 42
0.0000000001
 43
0.0000000001
 40
0.0
 40
0.0
 40
0.0
 40
0.0
 40
1.0
 40
1.0
 40
1.0
 40
1.0
 10
341.0098473404395
 20
180.4139971024499
 30
0.0
 10
341.1919753042606
 20
181.4858096709227
 30
0.0
 10
341.3027326692666
 20
182.7204308344946
 30
0.0
 10
341.3319499776236
 20
184.0045008372554
 30
0.0
  0
SPLINE
  5
2A2
330
70
100
AcDbEntity
  8
shade
 62
     6
420
 16711935
370
    25
100
AcDbSpline
210
0.0
220
0.0
230
1.0
 70
     8
 71
     3
 72
     8
 73
     4
 74
     0
 42
0.0000000001
 43
0.0000000001
 40
0.0
 40
0.0
 40
0.0
 40
0.0
 40
1.0
 40
1.0
 40
1.0
 40
1.0
 10
341.331949977623
 20
184.0045008372554
 30
0.0
 10
341.3607704504752
 20
185.2711303365335
 30
0.0
 10
341.3752022350943
 20
186.5421893592167
 30
0.0
 10
341.3752022350943
 20
187.8138822520609
 30
0.0
  0
SPLINE
  5
2A3
330
70
100
AcDbEntity
  8
shade
 62
     6
420
 16711935
370
    25
100
AcDbSpline
210
0.0
220
0.0
230
1.0
 70
     8
 71
     3
 72
     8
 73
     4
 74
     0
 42
0.0000000001
 43
0.0000000001
 40
0.0
 40
0.0
 40
0.0
 40
0.0
 40
1.0
 40
1.0
 40
1.0
 40
1.0
 10
339.9992473423147
 20
176.5456029951732
 30
0.0
 10
340.4014105004694
 20
177.541723072946
 30
0.0
 10
340.7457465745723
 20
178.8597793191915
 30
0.0
 10
341.0098473404395
 20
180.4139971024506
 30
0.0
  0
SPLINE
  5
2A4
330
70
100
AcDbEntity
  8
shade
 62
     6
420
 16711935
370
    25
100
AcDbSpline
210
0.0
220
0.0
230
1.0
 70
     8
 71
     3
 72
     8
 73
     4
 74
     0
 42
0.0000000001
 43
0.0000000001
 40
0.0
 40
0.0
 40
0.0
 40
0.0
 40
1.0
 40
1.0
 40
1.0
 40
1.0
 10
341.9687877760238
 20
180.4139971024499
 30
0.0
 10
342.1901747823836
 20
181.4858096709227
 30
0.0
 10
342.3248067244342
 20
182.7204308344946
 30
0.0
 10
342.3603220417713
 20
184.0045008372554
 30
0.0
  0
SPLINE
  5
2A5
330
70
100
AcDbEntity
  8
shade
 62
     6
420
 16711935
370
    25
100
AcDbSpline
210
0.0
220
0.0
230
1.0
 70
     8
 71
     3
 72
     8
 73
     4
 74
     0
 42
0.0000000001
 43
0.0000000001
 40
0.0
 40
0.0
 40
0.0
 40
0.0
 40
1.0
 40
1.0
 40
1.0
 40
1.0
 10
342.3603220417604
 20
184.0045008372554
 30
0.0
 10
342.3953549827364
 20
185.2711303365335
 30
0.0
 10
342.4128976462906
 20
186.5421893592167
 30
0.0
 10
342.4128976462906
 20
187.8138822520609
 30
0.0
  0
SPLINE
  5
2A6
330
70
100
AcDbEntity
  8
shade
 62
     6
420
 16711935
370
    25
100
AcDbSpline
210
0.0
220
0.0
230
1.0
 70
     8
 71
     3
 72
     8
 73
     4
 74
     0
 42
0.0000000001
 43
0.0000000001
 40
0.0
 40
0.0
 40
0.0
 40
0.0
 40
1.0
 40
1.0
 40
1.0
 40
1.0
 10
341.146311502656
 20
177.4888924431932
 30
0.0
 10
341.4639337066732
 20
178.3260122033979
 30
0.0
 10
341.7411490205135
 20
179.3119176117281
 30
0.0
 10
341.9687877760186
 20
180.4139971024506
 30
0.0
  0
SPLINE
  5
2A7
330
70
100
AcDbEntity
  8
shade
 62
     6
420
 16711935
370
    25
100
AcDbSpline
210
0.0
220
0.0
230
1.0
 70
     8
 71
     3
 72
     8
 73
     4
 74
     0
 42
0.0000000001
 43
0.0000000001
 40
0.0
 40
0.0
 40
0.0
 40
0.0
 40
1.0
 40
1.0
 40
1.0
 40
1.0
 10
342.9100897648411
 20
180.4139971024499
 30
0.0
 10
343.1700136953416
 20
181.4858096709227
 30
0.0
 10
343.3280810730256
 20
182.7204308344953
 30
0.0
 10
343.36977855576
 20
184.0045008372554
 30
0.0
  0
SPLINE
  5
2A8
330
70
100
AcDbEntity
  8
shade
 62
     6
420
 16711935
370
    25
100
AcDbSpline
210
0.0
220
0.0
230
1.0
 70
     8
 71
     3
 72
     8
 73
     4
 74
     0
 42
0.0000000001
 43
0.0000000001
 40
0.0
 40
0.0
 40
0.0
 40
0.0
 40
1.0
 40
1.0
 40
1.0
 40
1.0
 10
343.3697785557671
 20
184.0045008372554
 30
0.0
 10
343.4109096946956
 20
185.2711303365335
 30
0.0
 10
343.4315060166639
 20
186.5421893592167
 30
0.0
 10
343.4315060166639
 20
187.8138822520609
 30
0.0
  0
SPLINE
  5
2A9
330
70
100
AcDbEntity
  8
shade
 62
     6
420
 16711935
370
    25
100
AcDbSpline
210
0.0
220
0.0
230
1.0
 70
     8
 71
     3
 72
     8
 73
     4
 74
     0
 42
0.0000000001
 43
0.0000000001
 40
0.0
 40
0.0
 40
0.0
 40
0.0
 40
1.0
 40
1.0
 40
1.0
 40
1.0
 10
342.3848913815228
 20
178.6098363506555
 30
0.0
 10
342.5786125358533
 20
179.168095500204
 30
0.0
 10
342.7543414875722
 20
179.771759349355
 30
0.0
 10
342.9100897648462
 20
180.4139971024506
 30
0.0
  0
SPLINE
  5
2AA
330
70
100
AcDbEntity
  8
shade
 62
     6
420
 16711935
370
    25
100
AcDbSpline
210
0.0
220
0.0
230
1.0
 70
     8
 71
     3
 72
     8
 73
     4
 74
     0
 42
0.0000000001
 43
0.0000000001
 40
0.0
 40
0.0
 40
0.0
 40
0.0
 40
1.0
 40
1.0
 40
1.0
 40
1.0
 10
343.8306829754588
 20
180.4139971024499
 30
0.0
 10
344.1282960122641
 20
181.4858096709227
 30
0.0
 10
344.3092832426505
 20
182.7204308344946
 30
0.0
 10
344.3570268822602
 20
184.0045008372554
 30
0.0
  0
SPLINE
  5
2AB
330
70
100
AcDbEntity
  8
shade
 62
     6
420
 16711935
370
    25
100
AcDbSpline
210
0.0
220
0.0
230
1.0
 70
     8
 71
     3
 72
     8
 73
     4
 74
     0
 42
0.0000000001
 43
0.0000000001
 40
0.0
 40
0.0
 40
0.0
 40
0.0
 40
1.0
 40
1.0
 40
1.0
 40
1.0
 10
344.3570268822762
 20
184.0045008372554
 30
0.0
 10
344.40412205793
 20
185.2711303365335
 30
0.0
 10
344.427704857391
 20
186.5421893592167
 30
0.0
 10
344.427704857391
 20
187.8138822520609
 30
0.0
  0
SPLINE
  5
2AC
330
70
100
AcDbEntity
  8
shade
 62
     6
420
 16711935
370
    25
100
AcDbSpline
210
0.0
220
0.0
230
1.0
 70
     8
 71
     3
 72
     8
 73
     4
 74
     0
 42
0.0000000001
 43
0.0000000001
 40
0.0
 40
0.0
 40
0.0
 40
0.0
 40
1.0
 40
1.0
 40
1.0
 40
1.0
 10
343.7067056680922
 20
179.9859104966306
 30
0.0
 10
343.7491891111371
 20
180.1266428544943
 30
0.0
 10
343.7905228153156
 20
180.2693657890662
 30
0.0
 10
343.8306829754588
 20
180.4139971024506
 30
0.0
  0
SPLINE
  5
2AD
330
70
100
AcDbEntity
  8
shade
 62
     6
420
 16711935
370
    25
100
AcDbSpline
210
0.0
220
0.0
230
1.0
 70
     8
 71
     3
 72
     8
 73
     4
 74
     0
 42
0.0000000001
 43
0.0000000001
 40
0.0
 40
0.0
 40
0.0
 40
0.0
 40
1.0
 40
1.0
 40
1.0
 40
1.0
 10
344.9834710877101
 20
181.3782589948137
 30
0.0
 10
345.1672192080752
 20
182.2039995167521
 30
0.0
 10
345.2807883179264
 20
183.0933302507009
 30
0.0
 10
345.3188468224229
 20
184.0045008372554
 30
0.0
  0
SPLINE
  5
2AE
330
70
100
AcDbEntity
  8
shade
 62
     6
420
 16711935
370
    25
100
AcDbSpline
210
0.0
220
0.0
230
1.0
 70
     8
 71
     3
 72
     8
 73
     4
 74
     0
 42
0.0000000001
 43
0.0000000001
 40
0.0
 40
0.0
 40
0.0
 40
0.0
 40
1.0
 40
1.0
 40
1.0
 40
1.0
 10
345.3188468224306
 20
184.0045008372554
 30
0.0
 10
345.3717524201368
 20
185.2711303365335
 30
0.0
 10
345.3982447748998
 20
186.5421893592167
 30
0.0
 10
345.3982447748998
 20
187.8138822520609
 30
0.0
  0
LINE
  5
2AF
330
70
100
AcDbEntity
  8
shade
 62
     6
420
 16711935
370
    25
100
AcDbLine
 10
336.734953922687
 20
173.5466482130745
 30
0.0
 11
336.6838205895206
 21
174.1066769874157
 31
0.0
  0
LINE
  5
2B0
330
70
100
AcDbEntity
  8
shade
 62
     6
420
 16711935
370
    25
100
AcDbLine
 10
336.561194045227
 20
173.5466482130745
 30
0.0
 11
336.7939455016446
 21
174.6096114859422
 31
0.0
  0
LWPOLYLINE
  5
2B2
330
70
100
AcDbEntity
  8
PARTS
 62
     3
420
    65280
370
    25
100
AcDbPolyline
 90
        4
 70
     0
 43
0.0
 10
336.561194045227
 20
173.4428865109711
 10
332.2377897909926
 20
173.4428865109711
 10
332.2377897909926
 20
173.5466482130745
 10
336.561194045227
 20
173.5466482130745
  0
LWPOLYLINE
  5
2B3
330
70
100
AcDbEntity
  8
PARTS
 62
     3
420
    65280
370
    25
100
AcDbPolyline
 90
        4
 70
     0
 43
0.0
 10
336.561194045227
 20
173.4428865109711
 10
340.8845982994662
 20
173.4428865109711
 10
340.8845982994662
 20
173.5466482130745
 10
336.561194045227
 20
173.5466482130745
  0
LINE
  5
2B5
330
70
100
AcDbEntity
  8
TOUGU
  6
AI-Linetype-0
 62
     9
420
 12632256
370
    25
100
AcDbLine
 10
336.5611928407467
 20
192.5639316187509
 30
0.0
 11
336.5611928407467
 21
195.5996313564122
 31
0.0
  0
LINE
  5
2B7
330
70
100
AcDbEntity
  8
TOUGU
  6
AI-Linetype-1
 62
     9
420
 12632256
370
    25
100
AcDbLine
 10
336.561195249707
 20
192.5639316187509
 30
0.0
 11
336.561195249707
 21
195.5996313564122
 31
0.0
  0
ENDSEC
  0
SECTION
  2
OBJECTS
  0
DICTIONARY
  5
C
330
0
100
AcDbDictionary
281
     1
  3
ACAD_COLOR
350
63
  3
ACAD_DETAILVIEWSTYLE
350
6A
  3
ACAD_GROUP
350
D
  3
ACAD_LAYOUT
350
62
  3
ACAD_MATERIAL
350
10
  3
ACAD_MLEADERSTYLE
350
66
  3
ACAD_MLINESTYLE
350
5F
  3
ACAD_PLOTSETTINGS
350
61
  3
ACAD_PLOTSTYLENAME
350
E
  3
ACAD_SCALELIST
350
42
  3
ACAD_SECTIONVIEWSTYLE
350
68
  3
ACAD_TABLESTYLE
350
64
  3
ACAD_VISUALSTYLE
350
29
  3
ACDB_RECOMPOSE_DATA
350
2C1
  3
AcDbVariableDictionary
350
2B9
  0
DICTIONARY
  5
63
102
{ACAD_REACTORS
330
C
102
}
330
C
100
AcDbDictionary
281
     1
  0
DICTIONARY
  5
6A
102
{ACAD_REACTORS
330
C
102
}
330
C
100
AcDbDictionary
281
     1
  3
Imperial24
350
6B
  0
DICTIONARY
  5
D
102
{ACAD_REACTORS
330
C
102
}
330
C
100
AcDbDictionary
281
     1
  0
DICTIONARY
  5
62
102
{ACAD_REACTORS
330
C
102
}
330
C
100
AcDbDictionary
281
     1
  3
Layout1
350
6F
  3
Layout2
350
77
  3
Model
350
73
  0
DICTIONARY
  5
10
102
{ACAD_REACTORS
330
C
102
}
330
C
100
AcDbDictionary
281
     1
  3
ByBlock
350
19
  3
ByLayer
350
11
  3
Global
350
21
  0
DICTIONARY
  5
66
102
{ACAD_REACTORS
330
C
102
}
330
C
100
AcDbDictionary
281
     1
  3
Standard
350
67
  0
DICTIONARY
  5
5F
102
{ACAD_REACTORS
330
C
102
}
330
C
100
AcDbDictionary
281
     1
  3
Standard
350
60
  0
DICTIONARY
  5
61
102
{ACAD_REACTORS
330
C
102
}
330
C
100
AcDbDictionary
281
     1
  0
ACDBDICTIONARYWDFLT
  5
E
102
{ACAD_REACTORS
330
C
102
}
330
C
100
AcDbDictionary
281
     1
  3
Normal
350
F
100
AcDbDictionaryWithDefault
340
F
  0
DICTIONARY
  5
42
102
{ACAD_REACTORS
330
C
102
}
330
C
100
AcDbDictionary
281
     1
  3
A0
350
43
  3
A1
350
44
  3
A2
350
45
  3
A3
350
46
  3
A4
350
47
  3
A5
350
48
  3
A6
350
49
  3
A7
350
4A
  3
A8
350
4B
  3
A9
350
4C
  3
B0
350
4D
  3
B1
350
4E
  3
B2
350
4F
  3
B3
350
50
  3
B4
350
51
  3
B5
350
52
  3
B6
350
53
  0
DICTIONARY
  5
68
102
{ACAD_REACTORS
330
C
102
}
330
C
100
AcDbDictionary
281
     1
  3
Imperial24
350
69
  0
DICTIONARY
  5
64
102
{ACAD_REACTORS
330
C
102
}
330
C
100
AcDbDictionary
281
     1
  3
Standard
350
65
  0
DICTIONARY
  5
29
102
{ACAD_REACTORS
330
C
102
}
330
C
100
AcDbDictionary
281
     1
  3
2dWireframe
350
2F
  3
Basic
350
2E
  3
Brighten
350
35
  3
ColorChange
350
39
  3
Conceptual
350
32
  3
Dim
350
34
  3
EdgeColorOff
350
41
  3
Facepattern
350
38
  3
Flat
350
2A
  3
FlatWithEdges
350
2B
  3
Gouraud
350
2C
  3
GouraudWithEdges
350
2D
  3
Hidden
350
31
  3
JitterOff
350
3F
  3
Linepattern
350
37
  3
OverhangOff
350
40
  3
Realistic
350
33
  3
Shaded
350
3E
  3
Shaded with edges
350
3D
  3
Shades of Gray
350
3A
  3
Sketchy
350
3B
  3
Thicken
350
36
  3
Wireframe
350
30
  3
X-Ray
350
3C
  0
XRECORD
  5
2C1
102
{ACAD_REACTORS
330
C
102
}
330
C
100
AcDbXrecord
280
     1
 90
        1
330
65
  0
DICTIONARY
  5
2B9
102
{ACAD_REACTORS
330
C
102
}
330
C
100
AcDbDictionary
281
     1
  3
CANNOSCALE
350
2BE
  3
CMLEADERSTYLE
350
2BB
  3
CTABLESTYLE
350
2BA
  3
CVIEWDETAILSTYLE
350
2BC
  3
CVIEWSECTIONSTYLE
350
2BD
  0
ACDBDETAILVIEWSTYLE
  5
6B
102
{ACAD_REACTORS
330
6A
102
}
330
6A
100
AcDbModelDocViewStyle
 70
     0
  3
Imperial24
290
     1
300
Imperial24
 90
        0
100
AcDbDetailViewStyle
 70
     0
 71
     0
 90
        3
 71
     1
340
55
 62
   256
 40
0.24
340
0
 62
   256
 40
0.24
300

 40
0.36
280
     3
 71
     2
340
5D
 90
       25
 62
   256
 71
     3
340
55
 62
   256
 40
0.24
 90
        1
 40
0.75
 90
        1
300
%<\AcVar ViewType \f "%tc1">% %<\AcVar ViewDetailId>%\PSCALE %<\AcVar ViewScale \f "%sn">%
 71
     4
340
5D
 90
       25
 62
   256
340
5D
 90
       25
 62
   256
280
     0
  0
LAYOUT
  5
6F
102
{ACAD_REACTORS
330
62
102
}
330
62
100
AcDbPlotSettings
  1

  2

  4

  6

 40
0.0
 41
0.0
 42
0.0
 43
0.0
 44
0.0
 45
0.0
 46
0.0
 47
0.0
 48
0.0
 49
0.0
140
0.0
141
0.0
142
1.0
143
1.0
 70
   688
 72
     0
 73
     0
 74
     5
  7

 75
    16
147
1.0
 76
     0
 77
     2
 78
   300
148
0.0
149
0.0
100
AcDbLayout
  1
Layout1
 70
     1
 71
     1
 10
0.0
 20
0.0
 11
12.0
 21
9.0
 12
0.0
 22
0.0
 32
0.0
 14
0.0
 24
0.0
 34
0.0
 15
0.0
 25
0.0
 35
0.0
146
0.0
 13
0.0
 23
0.0
 33
0.0
 16
1.0
 26
0.0
 36
0.0
 17
0.0
 27
1.0
 37
0.0
 76
     0
330
6C
  0
LAYOUT
  5
77
102
{ACAD_REACTORS
330
62
102
}
330
62
100
AcDbPlotSettings
  1

  2

  4

  6

 40
0.0
 41
0.0
 42
0.0
 43
0.0
 44
0.0
 45
0.0
 46
0.0
 47
0.0
 48
0.0
 49
0.0
140
0.0
141
0.0
142
1.0
143
1.0
 70
   688
 72
     0
 73
     0
 74
     5
  7

 75
    16
147
1.0
 76
     0
 77
     2
 78
   300
148
0.0
149
0.0
100
AcDbLayout
  1
Layout2
 70
     1
 71
     2
 10
0.0
 20
0.0
 11
12.0
 21
9.0
 12
0.0
 22
0.0
 32
0.0
 14
0.0
 24
0.0
 34
0.0
 15
0.0
 25
0.0
 35
0.0
146
0.0
 13
0.0
 23
0.0
 33
0.0
 16
1.0
 26
0.0
 36
0.0
 17
0.0
 27
1.0
 37
0.0
 76
     0
330
74
  0
LAYOUT
  5
73
102
{ACAD_REACTORS
330
62
102
}
330
62
100
AcDbPlotSettings
  1

  2

  4

  6

 40
0.0
 41
0.0
 42
0.0
 43
0.0
 44
0.0
 45
0.0
 46
0.0
 47
0.0
 48
0.0
 49
0.0
140
0.0
141
0.0
142
1.0
143
1.0
 70
  1712
 72
     0
 73
     0
 74
     0
  7

 75
     0
147
1.0
 76
     0
 77
     2
 78
   300
148
0.0
149
0.0
100
AcDbLayout
  1
Model
 70
     1
 71
     0
 10
0.0
 20
0.0
 11
12.0
 21
9.0
 12
0.0
 22
0.0
 32
0.0
 14
0.0
 24
0.0
 34
0.0
 15
0.0
 25
0.0
 35
0.0
146
0.0
 13
0.0
 23
0.0
 33
0.0
 16
1.0
 26
0.0
 36
0.0
 17
0.0
 27
1.0
 37
0.0
 76
     0
330
70
  0
MATERIAL
  5
19
102
{ACAD_XDICTIONARY
360
1A
102
}
102
{ACAD_REACTORS
330
10
102
}
330
10
100
AcDbMaterial
  1
ByBlock
 72
     0
 43
0.0208333333333333
 43
0.0
 43
0.0
 43
0.0
 43
0.0
 43
0.0208333333333333
 43
0.0
 43
0.0
 43
0.0
 43
0.0
 43
1.0
 43
0.0
 43
0.0
 43
0.0
 43
0.0
 43
1.0
 77
     0
 47
0.0208333333333333
 47
0.0
 47
0.0
 47
0.0
 47
0.0
 47
0.0208333333333333
 47
0.0
 47
0.0
 47
0.0
 47
0.0
 47
1.0
 47
0.0
 47
0.0
 47
0.0
 47
0.0
 47
1.0
171
     0
 49
0.0208333333333333
 49
0.0
 49
0.0
 49
0.0
 49
0.0
 49
0.0208333333333333
 49
0.0
 49
0.0
 49
0.0
 49
0.0
 49
1.0
 49
0.0
 49
0.0
 49
0.0
 49
0.0
 49
1.0
175
     0
142
0.0208333333333333
142
0.0
142
0.0
142
0.0
142
0.0
142
0.0208333333333333
142
0.0
142
0.0
142
0.0
142
0.0
142
1.0
142
0.0
142
0.0
142
0.0
142
0.0
142
1.0
179
     0
144
0.0208333333333333
144
0.0
144
0.0
144
0.0
144
0.0
144
0.0208333333333333
144
0.0
144
0.0
144
0.0
144
0.0
144
1.0
144
0.0
144
0.0
144
0.0
144
0.0
144
1.0
147
0.0208333333333333
147
0.0
147
0.0
147
0.0
147
0.0
147
0.0208333333333333
147
0.0
147
0.0
147
0.0
147
0.0
147
1.0
147
0.0
147
0.0
147
0.0
147
0.0
147
1.0
  0
MATERIAL
  5
11
102
{ACAD_XDICTIONARY
360
12
102
}
102
{ACAD_REACTORS
330
10
102
}
330
10
100
AcDbMaterial
  1
ByLayer
 72
     0
 43
0.0208333333333333
 43
0.0
 43
0.0
 43
0.0
 43
0.0
 43
0.0208333333333333
 43
0.0
 43
0.0
 43
0.0
 43
0.0
 43
1.0
 43
0.0
 43
0.0
 43
0.0
 43
0.0
 43
1.0
 77
     0
 47
0.0208333333333333
 47
0.0
 47
0.0
 47
0.0
 47
0.0
 47
0.0208333333333333
 47
0.0
 47
0.0
 47
0.0
 47
0.0
 47
1.0
 47
0.0
 47
0.0
 47
0.0
 47
0.0
 47
1.0
171
     0
 49
0.0208333333333333
 49
0.0
 49
0.0
 49
0.0
 49
0.0
 49
0.0208333333333333
 49
0.0
 49
0.0
 49
0.0
 49
0.0
 49
1.0
 49
0.0
 49
0.0
 49
0.0
 49
0.0
 49
1.0
175
     0
142
0.0208333333333333
142
0.0
142
0.0
142
0.0
142
0.0
142
0.0208333333333333
142
0.0
142
0.0
142
0.0
142
0.0
142
1.0
142
0.0
142
0.0
142
0.0
142
0.0
142
1.0
179
     0
144
0.0208333333333333
144
0.0
144
0.0
144
0.0
144
0.0
144
0.0208333333333333
144
0.0
144
0.0
144
0.0
144
0.0
144
1.0
144
0.0
144
0.0
144
0.0
144
0.0
144
1.0
147
0.0208333333333333
147
0.0
147
0.0
147
0.0
147
0.0
147
0.0208333333333333
147
0.0
147
0.0
147
0.0
147
0.0
147
1.0
147
0.0
147
0.0
147
0.0
147
0.0
147
1.0
  0
MATERIAL
  5
21
102
{ACAD_XDICTIONARY
360
22
102
}
102
{ACAD_REACTORS
330
10
102
}
330
10
100
AcDbMaterial
  1
Global
 72
     0
 43
0.0208333333333333
 43
0.0
 43
0.0
 43
0.0
 43
0.0
 43
0.0208333333333333
 43
0.0
 43
0.0
 43
0.0
 43
0.0
 43
1.0
 43
0.0
 43
0.0
 43
0.0
 43
0.0
 43
1.0
 77
     0
 47
0.0208333333333333
 47
0.0
 47
0.0
 47
0.0
 47
0.0
 47
0.0208333333333333
 47
0.0
 47
0.0
 47
0.0
 47
0.0
 47
1.0
 47
0.0
 47
0.0
 47
0.0
 47
0.0
 47
1.0
171
     0
 49
0.0208333333333333
 49
0.0
 49
0.0
 49
0.0
 49
0.0
 49
0.0208333333333333
 49
0.0
 49
0.0
 49
0.0
 49
0.0
 49
1.0
 49
0.0
 49
0.0
 49
0.0
 49
0.0
 49
1.0
175
     0
142
0.0208333333333333
142
0.0
142
0.0
142
0.0
142
0.0
142
0.0208333333333333
142
0.0
142
0.0
142
0.0
142
0.0
142
1.0
142
0.0
142
0.0
142
0.0
142
0.0
142
1.0
179
     0
144
0.0208333333333333
144
0.0
144
0.0
144
0.0
144
0.0
144
0.0208333333333333
144
0.0
144
0.0
144
0.0
144
0.0
144
1.0
144
0.0
144
0.0
144
0.0
144
0.0
144
1.0
147
0.0208333333333333
147
0.0
147
0.0
147
0.0
147
0.0
147
0.0208333333333333
147
0.0
147
0.0
147
0.0
147
0.0
147
1.0
147
0.0
147
0.0
147
0.0
147
0.0
147
1.0
  0
MLEADERSTYLE
  5
67
102
{ACAD_REACTORS
330
66
102
}
330
66
100
AcDbMLeaderStyle
179
     2
170
     2
171
     1
172
     0
 90
        2
 40
0.0
 41
0.0
173
     1
 91
-1056964608
340
5B
 92
       -2
290
     1
 42
0.09
291
     1
 43
0.36
  3
Standard
 44
0.18
300

342
55
174
     1
178
     6
175
     1
176
     0
 93
-1056964608
 45
0.18
292
     0
297
     0
 46
0.18
 94
-1056964608
 47
1.0
 49
1.0
140
1.0
293
     1
141
0.0
294
     1
177
     0
142
1.0
295
     1
296
     0
143
0.125
271
     0
272
     9
273
     9
298
     1
  0
MLINESTYLE
  5
60
102
{ACAD_REACTORS
330
5F
102
}
330
5F
100
AcDbMlineStyle
  2
STANDARD
 70
     0
  3

 62
   256
 51
90.0
 52
90.0
 71
     2
 49
0.5
 62
   256
  6
BYLAYER
 49
-0.5
 62
   256
  6
BYLAYER
  0
ACDBPLACEHOLDER
  5
F
102
{ACAD_REACTORS
330
E
102
}
330
E
  0
SCALE
  5
43
102
{ACAD_REACTORS
330
42
102
}
330
42
100
AcDbScale
 70
     0
300
1:1
140
1.0
141
1.0
290
     1
  0
SCALE
  5
44
102
{ACAD_REACTORS
330
42
102
}
330
42
100
AcDbScale
 70
     0
300
1/128" = 1'-0"
140
0.0078125
141
12.0
290
     0
  0
SCALE
  5
45
102
{ACAD_REACTORS
330
42
102
}
330
42
100
AcDbScale
 70
     0
300
1/64" = 1'-0"
140
0.015625
141
12.0
290
     0
  0
SCALE
  5
46
102
{ACAD_REACTORS
330
42
102
}
330
42
100
AcDbScale
 70
     0
300
1/32" = 1'-0"
140
0.03125
141
12.0
290
     0
  0
SCALE
  5
47
102
{ACAD_REACTORS
330
42
102
}
330
42
100
AcDbScale
 70
     0
300
1/16" = 1'-0"
140
0.0625
141
12.0
290
     0
  0
SCALE
  5
48
102
{ACAD_REACTORS
330
42
102
}
330
42
100
AcDbScale
 70
     0
300
3/32" = 1'-0"
140
0.09375
141
12.0
290
     0
  0
SCALE
  5
49
102
{ACAD_REACTORS
330
42
102
}
330
42
100
AcDbScale
 70
     0
300
1/8" = 1'-0"
140
0.125
141
12.0
290
     0
  0
SCALE
  5
4A
102
{ACAD_REACTORS
330
42
102
}
330
42
100
AcDbScale
 70
     0
300
3/16" = 1'-0"
140
0.1875
141
12.0
290
     0
  0
SCALE
  5
4B
102
{ACAD_REACTORS
330
42
102
}
330
42
100
AcDbScale
 70
     0
300
1/4" = 1'-0"
140
0.25
141
12.0
290
     0
  0
SCALE
  5
4C
102
{ACAD_REACTORS
330
42
102
}
330
42
100
AcDbScale
 70
     0
300
3/8" = 1'-0"
140
0.375
141
12.0
290
     0
  0
SCALE
  5
4D
102
{ACAD_REACTORS
330
42
102
}
330
42
100
AcDbScale
 70
     0
300
1/2" = 1'-0"
140
0.5
141
12.0
290
     0
  0
SCALE
  5
4E
102
{ACAD_REACTORS
330
42
102
}
330
42
100
AcDbScale
 70
     0
300
3/4" = 1'-0"
140
0.75
141
12.0
290
     0
  0
SCALE
  5
4F
102
{ACAD_REACTORS
330
42
102
}
330
42
100
AcDbScale
 70
     0
300
1" = 1'-0"
140
1.0
141
12.0
290
     0
  0
SCALE
  5
50
102
{ACAD_REACTORS
330
42
102
}
330
42
100
AcDbScale
 70
     0
300
1-1/2" = 1'-0"
140
1.5
141
12.0
290
     0
  0
SCALE
  5
51
102
{ACAD_REACTORS
330
42
102
}
330
42
100
AcDbScale
 70
     0
300
3" = 1'-0"
140
3.0
141
12.0
290
     0
  0
SCALE
  5
52
102
{ACAD_REACTORS
330
42
102
}
330
42
100
AcDbScale
 70
     0
300
6" = 1'-0"
140
6.0
141
12.0
290
     0
  0
SCALE
  5
53
102
{ACAD_REACTORS
330
42
102
}
330
42
100
AcDbScale
 70
     0
300
1'-0" = 1'-0"
140
12.0
141
12.0
290
     0
  0
ACDBSECTIONVIEWSTYLE
  5
69
102
{ACAD_REACTORS
330
68
102
}
330
68
100
AcDbModelDocViewStyle
 70
     0
  3
Imperial24
290
     1
300
Imperial24
 90
        0
100
AcDbSectionViewStyle
 70
     0
 71
     0
 90
       78
 71
     1
340
55
 62
   256
 40
0.24
340
0
340
0
 62
   256
 40
0.24
300
I, O, Q, S, X, Z
 40
0.48
 90
        3
 40
0.18
 90
        1
 71
     2
340
5D
 90
       25
 62
   256
340
5D
 90
       50
 62
   256
 40
0.24
 40
0.0
 40
0.24
 71
     3
340
55
 62
   256
 40
0.24
 90
        1
 40
0.75
 90
        1
300
%<\AcVar ViewType \f "%tc1">% %<\AcVar ViewSectionStartId>%-%<\AcVar ViewSectionEndId>%\PSCALE %<\AcVar ViewScale \f "%sn">%
 71
     4
 62
   256
 62
   257
300
ANSI31
 40
1.0
 90
        0
290
     0
290
     0
 90
        6
 40
0.0
 40
1.570796326794896
 40
0.2617993877991494
 40
1.308996938995747
 40
-0.2617993877991494
 40
1.832595714594046
  0
TABLESTYLE
  5
65
102
{ACAD_XDICTIONARY
360
2BF
102
}
102
{ACAD_REACTORS
330
64
102
}
330
64
100
AcDbTableStyle
280
     0
  3
Standard
 70
     0
 71
     0
 40
0.06
 41
0.06
280
     0
281
     0
  7
Standard
140
0.18
170
     2
 62
     0
 63
     7
283
     0
 90
      512
 91
        0
  1

274
    -2
284
     1
 64
     0
275
    -2
285
     1
 65
     0
276
    -2
286
     1
 66
     0
277
    -2
287
     1
 67
     0
278
    -2
288
     1
 68
     0
279
    -2
289
     1
 69
     0
  7
Standard
140
0.25
170
     5
 62
     0
 63
     7
283
     0
 90
      512
 91
        0
  1

274
    -2
284
     1
 64
     0
275
    -2
285
     1
 65
     0
276
    -2
286
     1
 66
     0
277
    -2
287
     1
 67
     0
278
    -2
288
     1
 68
     0
279
    -2
289
     1
 69
     0
  7
Standard
140
0.18
170
     5
 62
     0
 63
     7
283
     0
 90
      512
 91
        0
  1

274
    -2
284
     1
 64
     0
275
    -2
285
     1
 65
     0
276
    -2
286
     1
 66
     0
277
    -2
287
     1
 67
     0
278
    -2
288
     1
 68
     0
279
    -2
289
     1
 69
     0
  0
VISUALSTYLE
  5
2F
102
{ACAD_REACTORS
330
29
102
}
330
29
100
AcDbVisualStyle
  2
2dWireframe
 70
     4
177
     3
291
     0
 70
    58
 90
        0
176
     1
 90
        2
176
     1
 90
        0
176
     1
 90
        0
176
     1
 40
0.6
176
     1
 40
30.0
176
     1
 62
     7
420
 16777215
176
     1
 90
        1
176
     1
 90
        4
176
     1
 62
     7
176
     1
 62
   257
176
     1
 90
        1
176
     1
 90
        1
176
     1
 40
1.0
176
     1
 90
        0
176
     1
 62
   257
176
     1
 40
1.0
176
     1
 90
        1
176
     1
 90
        6
176
     1
 90
        2
176
     1
 62
     7
176
     1
 90
        5
176
     1
 90
        0
176
     1
 90
        0
176
     1
290
     0
176
     1
 90
        1
176
     1
 40
0.0
176
     1
 90
        0
176
     1
290
     1
176
     1
290
     1
176
     1
290
     0
176
     1
290
     0
176
     1
290
     0
176
     1
290
     0
176
     1
290
     0
176
     1
290
     0
176
     1
290
     0
176
     1
 90
       50
176
     1
 40
0.0
176
     1
 40
1.0
176
     1
 90
        0
176
     1
 62
    18
420
        0
176
     1
 90
       50
176
     1
 90
        3
176
     1
 62
     5
420
      255
176
     1
290
     0
176
     1
 90
       50
176
     1
 90
       50
176
     1
 90
       50
176
     1
290
     0
176
     1
 90
       50
176
     1
 62
   256
176
     0
 40
1.0
176
     0
 90
        2
176
     1
  1
strokes_ogs.tif
176
     1
290
     0
176
     1
 40
1.0
176
     1
 40
1.0
176
     1
  0
VISUALSTYLE
  5
2E
102
{ACAD_REACTORS
330
29
102
}
330
29
100
AcDbVisualStyle
  2
Basic
 70
     7
177
     3
291
     1
 70
    58
 90
        1
176
     1
 90
        0
176
     1
 90
        1
176
     1
 90
        0
176
     1
 40
0.6
176
     1
 40
30.0
176
     1
 62
     7
420
 16777215
176
     1
 90
        0
176
     1
 90
        4
176
     1
 62
     7
176
     1
 62
   257
176
     1
 90
        1
176
     1
 90
        1
176
     1
 40
1.0
176
     1
 90
        8
176
     1
 62
     7
176
     1
 40
1.0
176
     1
 90
        1
176
     1
 90
        6
176
     1
 90
        2
176
     1
 62
     7
176
     1
 90
        5
176
     1
 90
        0
176
     1
 90
        0
176
     1
290
     0
176
     1
 90
        1
176
     1
 40
0.0
176
     1
 90
        0
176
     1
290
     0
176
     1
290
     1
176
     1
290
     1
176
     1
290
     0
176
     1
290
     0
176
     1
290
     0
176
     1
290
     0
176
     1
290
     0
176
     1
290
     0
176
     1
 90
       50
176
     1
 40
0.0
176
     1
 40
1.0
176
     1
 90
        0
176
     1
 62
    18
420
        0
176
     1
 90
       50
176
     1
 90
        3
176
     1
 62
     5
420
      255
176
     1
290
     0
176
     1
 90
       50
176
     1
 90
       50
176
     1
 90
       50
176
     1
290
     0
176
     1
 90
       50
176
     1
 62
   256
176
     0
 40
1.0
176
     0
 90
        2
176
     1
  1
strokes_ogs.tif
176
     1
290
     0
176
     1
 40
1.0
176
     1
 40
1.0
176
     1
  0
VISUALSTYLE
  5
35
102
{ACAD_REACTORS
330
29
102
}
330
29
100
AcDbVisualStyle
  2
Brighten
 70
    12
177
     3
291
     1
 70
    58
 90
        2
176
     1
 90
        2
176
     1
 90
        0
176
     1
 90
        0
176
     1
 40
0.6
176
     1
 40
30.0
176
     1
 62
     7
420
 16777215
176
     1
 90
        1
176
     1
 90
        4
176
     1
 62
     7
176
     1
 62
   257
176
     1
 90
        1
176
     1
 90
        1
176
     1
 40
1.0
176
     1
 90
        8
176
     1
 62
     7
176
     1
 40
1.0
176
     1
 90
        1
176
     1
 90
        6
176
     1
 90
        2
176
     1
 62
     7
176
     1
 90
        5
176
     1
 90
        0
176
     1
 90
        0
176
     1
290
     0
176
     1
 90
        1
176
     1
 40
50.0
176
     1
 90
        0
176
     1
290
     0
176
     1
290
     1
176
     1
290
     1
176
     1
290
     0
176
     1
290
     0
176
     1
290
     0
176
     1
290
     0
176
     1
290
     0
176
     1
290
     0
176
     1
 90
       50
176
     1
 40
0.0
176
     1
 40
1.0
176
     1
 90
        0
176
     1
 62
    18
420
        0
176
     1
 90
       50
176
     1
 90
        3
176
     1
 62
     5
420
      255
176
     1
290
     0
176
     1
 90
       50
176
     1
 90
       50
176
     1
 90
       50
176
     1
290
     0
176
     1
 90
       50
176
     1
 62
   256
176
     0
 40
1.0
176
     0
 90
        2
176
     1
  1
strokes_ogs.tif
176
     1
290
     0
176
     1
 40
1.0
176
     1
 40
1.0
176
     1
  0
VISUALSTYLE
  5
39
102
{ACAD_REACTORS
330
29
102
}
330
29
100
AcDbVisualStyle
  2
ColorChange
 70
    16
177
     3
291
     1
 70
    58
 90
        2
176
     1
 90
        2
176
     1
 90
        3
176
     1
 90
        0
176
     1
 40
0.6
176
     1
 40
30.0
176
     1
 62
     8
420
  8421504
176
     1
 90
        1
176
     1
 90
        4
176
     1
 62
     7
176
     1
 62
   257
176
     1
 90
        1
176
     1
 90
        1
176
     1
 40
1.0
176
     1
 90
        8
176
     1
 62
     8
420
  8421504
176
     1
 40
1.0
176
     1
 90
        1
176
     1
 90
        6
176
     1
 90
        2
176
     1
 62
     7
176
     1
 90
        5
176
     1
 90
        0
176
     1
 90
        0
176
     1
290
     0
176
     1
 90
        1
176
     1
 40
0.0
176
     1
 90
        0
176
     1
290
     0
176
     1
290
     1
176
     1
290
     1
176
     1
290
     0
176
     1
290
     0
176
     1
290
     0
176
     1
290
     0
176
     1
290
     0
176
     1
290
     0
176
     1
 90
       50
176
     1
 40
0.0
176
     1
 40
1.0
176
     1
 90
        0
176
     1
 62
    18
420
        0
176
     1
 90
       50
176
     1
 90
        3
176
     1
 62
     5
420
      255
176
     1
290
     0
176
     1
 90
       50
176
     1
 90
       50
176
     1
 90
       50
176
     1
290
     0
176
     1
 90
       50
176
     1
 62
   256
176
     0
 40
1.0
176
     0
 90
        2
176
     1
  1
strokes_ogs.tif
176
     1
290
     0
176
     1
 40
1.0
176
     1
 40
1.0
176
     1
  0
VISUALSTYLE
  5
32
102
{ACAD_REACTORS
330
29
102
}
330
29
100
AcDbVisualStyle
  2
Conceptual
 70
     9
177
     3
291
     0
 70
    58
 90
        3
176
     1
 90
        2
176
     1
 90
        0
176
     1
 90
        0
176
     1
 40
0.6
176
     1
 40
30.0
176
     1
 62
     7
420
 16777215
176
     1
 90
        2
176
     1
 90
        2
176
     1
 62
     7
176
     1
 62
   257
176
     1
 90
        1
176
     1
 90
        1
176
     1
 40
179.0
176
     1
 90
        8
176
     1
 62
     7
176
     1
 40
1.0
176
     1
 90
        1
176
     1
 90
        6
176
     1
 90
        2
176
     1
 62
     7
176
     1
 90
        3
176
     1
 90
        0
176
     1
 90
        0
176
     1
290
     0
176
     1
 90
        1
176
     1
 40
0.0
176
     1
 90
        0
176
     1
290
     0
176
     1
290
     1
176
     1
290
     1
176
     1
290
     0
176
     1
290
     0
176
     1
290
     0
176
     1
290
     0
176
     1
290
     0
176
     1
290
     0
176
     1
 90
       50
176
     1
 40
0.0
176
     1
 40
1.0
176
     1
 90
        0
176
     1
 62
    18
420
        0
176
     1
 90
       50
176
     1
 90
        3
176
     1
 62
     5
420
      255
176
     1
290
     0
176
     1
 90
       50
176
     1
 90
       50
176
     1
 90
       50
176
     1
290
     0
176
     1
 90
       50
176
     1
 62
   256
176
     0
 40
1.0
176
     0
 90
        2
176
     1
  1
strokes_ogs.tif
176
     1
290
     0
176
     1
 40
1.0
176
     1
 40
1.0
176
     1
  0
VISUALSTYLE
  5
34
102
{ACAD_REACTORS
330
29
102
}
330
29
100
AcDbVisualStyle
  2
Dim
 70
    11
177
     3
291
     1
 70
    58
 90
        2
176
     1
 90
        2
176
     1
 90
        0
176
     1
 90
        0
176
     1
 40
0.6
176
     1
 40
30.0
176
     1
 62
     7
420
 16777215
176
     1
 90
        1
176
     1
 90
        4
176
     1
 62
     7
176
     1
 62
   257
176
     1
 90
        1
176
     1
 90
        1
176
     1
 40
1.0
176
     1
 90
        8
176
     1
 62
     7
176
     1
 40
1.0
176
     1
 90
        1
176
     1
 90
        6
176
     1
 90
        2
176
     1
 62
     7
176
     1
 90
        5
176
     1
 90
        0
176
     1
 90
        0
176
     1
290
     0
176
     1
 90
        1
176
     1
 40
-50.0
176
     1
 90
        0
176
     1
290
     0
176
     1
290
     1
176
     1
290
     1
176
     1
290
     0
176
     1
290
     0
176
     1
290
     0
176
     1
290
     0
176
     1
290
     0
176
     1
290
     0
176
     1
 90
       50
176
     1
 40
0.0
176
     1
 40
1.0
176
     1
 90
        0
176
     1
 62
    18
420
        0
176
     1
 90
       50
176
     1
 90
        3
176
     1
 62
     5
420
      255
176
     1
290
     0
176
     1
 90
       50
176
     1
 90
       50
176
     1
 90
       50
176
     1
290
     0
176
     1
 90
       50
176
     1
 62
   256
176
     0
 40
1.0
176
     0
 90
        2
176
     1
  1
strokes_ogs.tif
176
     1
290
     0
176
     1
 40
1.0
176
     1
 40
1.0
176
     1
  0
VISUALSTYLE
  5
41
102
{ACAD_REACTORS
330
29
102
}
330
29
100
AcDbVisualStyle
  2
EdgeColorOff
 70
    22
177
     3
291
     1
 70
    58
 90
        2
176
     0
 90
        2
176
     0
 90
        0
176
     0
 90
        0
176
     0
 40
0.6
176
     0
 40
30.0
176
     0
 62
     7
420
 16777215
176
     0
 90
        1
176
     0
 90
        4
176
     0
 62
     7
176
     0
 62
   257
176
     0
 90
        1
176
     0
 90
        1
176
     0
 40
1.0
176
     0
 90
        8
176
     2
 62
     7
176
     0
 40
1.0
176
     0
 90
        1
176
     0
 90
        6
176
     0
 90
        2
176
     0
 62
     7
176
     0
 90
        5
176
     0
 90
        0
176
     0
 90
        0
176
     0
290
     0
176
     0
 90
        1
176
     0
 40
0.0
176
     0
 90
        0
176
     0
290
     0
176
     0
290
     1
176
     0
290
     1
176
     0
290
     0
176
     0
290
     0
176
     0
290
     0
176
     0
290
     0
176
     0
290
     0
176
     0
290
     0
176
     0
 90
       50
176
     0
 40
0.0
176
     0
 40
1.0
176
     0
 90
        0
176
     0
 62
    18
420
        0
176
     0
 90
       50
176
     0
 90
        3
176
     0
 62
     5
420
      255
176
     0
290
     0
176
     0
 90
       50
176
     0
 90
       50
176
     0
 90
       50
176
     0
290
     0
176
     0
 90
       50
176
     0
 62
   256
176
     0
 40
1.0
176
     0
 90
        2
176
     0
  1
strokes_ogs.tif
176
     0
290
     0
176
     0
 40
1.0
176
     0
 40
1.0
176
     0
  0
VISUALSTYLE
  5
38
102
{ACAD_REACTORS
330
29
102
}
330
29
100
AcDbVisualStyle
  2
Facepattern
 70
    15
177
     3
291
     1
 70
    58
 90
        2
176
     1
 90
        2
176
     1
 90
        0
176
     1
 90
        0
176
     1
 40
0.6
176
     1
 40
30.0
176
     1
 62
     7
420
 16777215
176
     1
 90
        1
176
     1
 90
        4
176
     1
 62
     7
176
     1
 62
   257
176
     1
 90
        1
176
     1
 90
        1
176
     1
 40
1.0
176
     1
 90
        8
176
     1
 62
     7
176
     1
 40
1.0
176
     1
 90
        1
176
     1
 90
        6
176
     1
 90
        2
176
     1
 62
     7
176
     1
 90
        5
176
     1
 90
        0
176
     1
 90
        0
176
     1
290
     0
176
     1
 90
        1
176
     1
 40
0.0
176
     1
 90
        0
176
     1
290
     0
176
     1
290
     1
176
     1
290
     1
176
     1
290
     0
176
     1
290
     0
176
     1
290
     0
176
     1
290
     0
176
     1
290
     0
176
     1
290
     0
176
     1
 90
       50
176
     1
 40
0.0
176
     1
 40
1.0
176
     1
 90
        0
176
     1
 62
    18
420
        0
176
     1
 90
       50
176
     1
 90
        3
176
     1
 62
     5
420
      255
176
     1
290
     0
176
     1
 90
       50
176
     1
 90
       50
176
     1
 90
       50
176
     1
290
     0
176
     1
 90
       50
176
     1
 62
   256
176
     0
 40
1.0
176
     0
 90
        2
176
     1
  1
strokes_ogs.tif
176
     1
290
     0
176
     1
 40
1.0
176
     1
 40
1.0
176
     1
  0
VISUALSTYLE
  5
2A
102
{ACAD_REACTORS
330
29
102
}
330
29
100
AcDbVisualStyle
  2
Flat
 70
     0
177
     3
291
     1
 70
    58
 90
        2
176
     1
 90
        1
176
     1
 90
        1
176
     1
 90
        2
176
     1
 40
0.6
176
     1
 40
30.0
176
     1
 62
     7
420
 16777215
176
     1
 90
        0
176
     1
 90
        0
176
     1
 62
     7
176
     1
 62
   257
176
     1
 90
        1
176
     1
 90
        1
176
     1
 40
1.0
176
     1
 90
        8
176
     1
 62
     7
176
     1
 40
1.0
176
     1
 90
        1
176
     1
 90
        6
176
     1
 90
        2
176
     1
 62
     7
176
     1
 90
        5
176
     1
 90
        0
176
     1
 90
        0
176
     1
290
     0
176
     1
 90
       13
176
     1
 40
0.0
176
     1
 90
        0
176
     1
290
     0
176
     1
290
     1
176
     1
290
     1
176
     1
290
     0
176
     1
290
     0
176
     1
290
     0
176
     1
290
     0
176
     1
290
     0
176
     1
290
     0
176
     1
 90
       50
176
     1
 40
0.0
176
     1
 40
1.0
176
     1
 90
        0
176
     1
 62
    18
420
        0
176
     1
 90
       50
176
     1
 90
        3
176
     1
 62
     5
420
      255
176
     1
290
     0
176
     1
 90
       50
176
     1
 90
       50
176
     1
 90
       50
176
     1
290
     0
176
     1
 90
       50
176
     1
 62
   256
176
     0
 40
1.0
176
     0
 90
        2
176
     1
  1
strokes_ogs.tif
176
     1
290
     0
176
     1
 40
1.0
176
     1
 40
1.0
176
     1
  0
VISUALSTYLE
  5
2B
102
{ACAD_REACTORS
330
29
102
}
330
29
100
AcDbVisualStyle
  2
FlatWithEdges
 70
     1
177
     3
291
     1
 70
    58
 90
        2
176
     1
 90
        1
176
     1
 90
        1
176
     1
 90
        2
176
     1
 40
0.6
176
     1
 40
30.0
176
     1
 62
     7
420
 16777215
176
     1
 90
        1
176
     1
 90
        0
176
     1
 62
     7
176
     1
 62
   257
176
     1
 90
        1
176
     1
 90
        1
176
     1
 40
1.0
176
     1
 90
        0
176
     1
 62
   257
176
     1
 40
1.0
176
     1
 90
        1
176
     1
 90
        6
176
     1
 90
        2
176
     1
 62
     7
176
     1
 90
        5
176
     1
 90
        0
176
     1
 90
        0
176
     1
290
     0
176
     1
 90
       13
176
     1
 40
0.0
176
     1
 90
        0
176
     1
290
     0
176
     1
290
     1
176
     1
290
     1
176
     1
290
     0
176
     1
290
     0
176
     1
290
     0
176
     1
290
     0
176
     1
290
     0
176
     1
290
     0
176
     1
 90
       50
176
     1
 40
0.0
176
     1
 40
1.0
176
     1
 90
        0
176
     1
 62
    18
420
        0
176
     1
 90
       50
176
     1
 90
        3
176
     1
 62
     5
420
      255
176
     1
290
     0
176
     1
 90
       50
176
     1
 90
       50
176
     1
 90
       50
176
     1
290
     0
176
     1
 90
       50
176
     1
 62
   256
176
     0
 40
1.0
176
     0
 90
        2
176
     1
  1
strokes_ogs.tif
176
     1
290
     0
176
     1
 40
1.0
176
     1
 40
1.0
176
     1
  0
VISUALSTYLE
  5
2C
102
{ACAD_REACTORS
330
29
102
}
330
29
100
AcDbVisualStyle
  2
Gouraud
 70
     2
177
     3
291
     1
 70
    58
 90
        2
176
     1
 90
        2
176
     1
 90
        1
176
     1
 90
        2
176
     1
 40
0.6
176
     1
 40
30.0
176
     1
 62
     7
420
 16777215
176
     1
 90
        0
176
     1
 90
        0
176
     1
 62
     7
176
     1
 62
   257
176
     1
 90
        1
176
     1
 90
        1
176
     1
 40
1.0
176
     1
 90
        0
176
     1
 62
     7
176
     1
 40
1.0
176
     1
 90
        1
176
     1
 90
        6
176
     1
 90
        2
176
     1
 62
     7
176
     1
 90
        5
176
     1
 90
        0
176
     1
 90
        0
176
     1
290
     0
176
     1
 90
       13
176
     1
 40
0.0
176
     1
 90
        0
176
     1
290
     0
176
     1
290
     1
176
     1
290
     1
176
     1
290
     0
176
     1
290
     0
176
     1
290
     0
176
     1
290
     0
176
     1
290
     0
176
     1
290
     0
176
     1
 90
       50
176
     1
 40
0.0
176
     1
 40
1.0
176
     1
 90
        0
176
     1
 62
    18
420
        0
176
     1
 90
       50
176
     1
 90
        3
176
     1
 62
     5
420
      255
176
     1
290
     0
176
     1
 90
       50
176
     1
 90
       50
176
     1
 90
       50
176
     1
290
     0
176
     1
 90
       50
176
     1
 62
   256
176
     0
 40
1.0
176
     0
 90
        2
176
     1
  1
strokes_ogs.tif
176
     1
290
     0
176
     1
 40
1.0
176
     1
 40
1.0
176
     1
  0
VISUALSTYLE
  5
2D
102
{ACAD_REACTORS
330
29
102
}
330
29
100
AcDbVisualStyle
  2
GouraudWithEdges
 70
     3
177
     3
291
     1
 70
    58
 90
        2
176
     1
 90
        2
176
     1
 90
        1
176
     1
 90
        2
176
     1
 40
0.6
176
     1
 40
30.0
176
     1
 62
     7
420
 16777215
176
     1
 90
        1
176
     1
 90
        0
176
     1
 62
     7
176
     1
 62
   257
176
     1
 90
        1
176
     1
 90
        1
176
     1
 40
1.0
176
     1
 90
        0
176
     1
 62
   257
176
     1
 40
1.0
176
     1
 90
        1
176
     1
 90
        6
176
     1
 90
        2
176
     1
 62
     7
176
     1
 90
        5
176
     1
 90
        0
176
     1
 90
        0
176
     1
290
     0
176
     1
 90
       13
176
     1
 40
0.0
176
     1
 90
        0
176
     1
290
     0
176
     1
290
     1
176
     1
290
     1
176
     1
290
     0
176
     1
290
     0
176
     1
290
     0
176
     1
290
     0
176
     1
290
     0
176
     1
290
     0
176
     1
 90
       50
176
     1
 40
0.0
176
     1
 40
1.0
176
     1
 90
        0
176
     1
 62
    18
420
        0
176
     1
 90
       50
176
     1
 90
        3
176
     1
 62
     5
420
      255
176
     1
290
     0
176
     1
 90
       50
176
     1
 90
       50
176
     1
 90
       50
176
     1
290
     0
176
     1
 90
       50
176
     1
 62
   256
176
     0
 40
1.0
176
     0
 90
        2
176
     1
  1
strokes_ogs.tif
176
     1
290
     0
176
     1
 40
1.0
176
     1
 40
1.0
176
     1
  0
VISUALSTYLE
  5
31
102
{ACAD_REACTORS
330
29
102
}
330
29
100
AcDbVisualStyle
  2
Hidden
 70
     6
177
     3
291
     0
 70
    58
 90
        1
176
     1
 90
        2
176
     1
 90
        2
176
     1
 90
        0
176
     1
 40
0.6
176
     1
 40
30.0
176
     1
 62
     7
420
 16777215
176
     1
 90
        2
176
     1
 90
        2
176
     1
 62
     7
176
     1
 62
   257
176
     1
 90
        2
176
     1
 90
        1
176
     1
 40
40.0
176
     1
 90
        0
176
     1
 62
   257
176
     1
 40
1.0
176
     1
 90
        1
176
     1
 90
        6
176
     1
 90
        2
176
     1
 62
     7
176
     1
 90
        3
176
     1
 90
        0
176
     1
 90
        0
176
     1
290
     0
176
     1
 90
        1
176
     1
 40
0.0
176
     1
 90
        0
176
     1
290
     0
176
     1
290
     1
176
     1
290
     1
176
     1
290
     0
176
     1
290
     0
176
     1
290
     0
176
     1
290
     0
176
     1
290
     0
176
     1
290
     0
176
     1
 90
       50
176
     1
 40
0.0
176
     1
 40
1.0
176
     1
 90
        0
176
     1
 62
    18
420
        0
176
     1
 90
       50
176
     1
 90
        3
176
     1
 62
     5
420
      255
176
     1
290
     0
176
     1
 90
       50
176
     1
 90
       50
176
     1
 90
       50
176
     1
290
     0
176
     1
 90
       50
176
     1
 62
   256
176
     0
 40
1.0
176
     0
 90
        2
176
     1
  1
strokes_ogs.tif
176
     1
290
     0
176
     1
 40
1.0
176
     1
 40
1.0
176
     1
  0
VISUALSTYLE
  5
3F
102
{ACAD_REACTORS
330
29
102
}
330
29
100
AcDbVisualStyle
  2
JitterOff
 70
    20
177
     3
291
     1
 70
    58
 90
        2
176
     0
 90
        2
176
     0
 90
        0
176
     0
 90
        0
176
     0
 40
0.6
176
     0
 40
30.0
176
     0
 62
     7
420
 16777215
176
     0
 90
        1
176
     0
 90
        4
176
     0
 62
     7
176
     0
 62
   257
176
     0
 90
        1
176
     0
 90
        1
176
     0
 40
1.0
176
     0
 90
       10
176
     2
 62
     7
176
     0
 40
1.0
176
     0
 90
        1
176
     0
 90
        6
176
     0
 90
        2
176
     0
 62
     7
176
     0
 90
        5
176
     0
 90
        0
176
     0
 90
        0
176
     0
290
     0
176
     0
 90
        1
176
     0
 40
0.0
176
     0
 90
        0
176
     0
290
     0
176
     0
290
     1
176
     0
290
     1
176
     0
290
     0
176
     0
290
     0
176
     0
290
     0
176
     0
290
     0
176
     0
290
     0
176
     0
290
     0
176
     0
 90
       50
176
     0
 40
0.0
176
     0
 40
1.0
176
     0
 90
        0
176
     0
 62
    18
420
        0
176
     0
 90
       50
176
     0
 90
        3
176
     0
 62
     5
420
      255
176
     0
290
     0
176
     0
 90
       50
176
     0
 90
       50
176
     0
 90
       50
176
     0
290
     0
176
     0
 90
       50
176
     0
 62
   256
176
     0
 40
1.0
176
     0
 90
        2
176
     0
  1
strokes_ogs.tif
176
     0
290
     0
176
     0
 40
1.0
176
     0
 40
1.0
176
     0
  0
VISUALSTYLE
  5
37
102
{ACAD_REACTORS
330
29
102
}
330
29
100
AcDbVisualStyle
  2
Linepattern
 70
    14
177
     3
291
     1
 70
    58
 90
        2
176
     1
 90
        2
176
     1
 90
        0
176
     1
 90
        0
176
     1
 40
0.6
176
     1
 40
30.0
176
     1
 62
     7
420
 16777215
176
     1
 90
        1
176
     1
 90
        4
176
     1
 62
     7
176
     1
 62
   257
176
     1
 90
        7
176
     1
 90
        7
176
     1
 40
1.0
176
     1
 90
        8
176
     1
 62
     7
176
     1
 40
1.0
176
     1
 90
        1
176
     1
 90
        6
176
     1
 90
        2
176
     1
 62
     7
176
     1
 90
        5
176
     1
 90
        0
176
     1
 90
        0
176
     1
290
     0
176
     1
 90
        1
176
     1
 40
0.0
176
     1
 90
        0
176
     1
290
     0
176
     1
290
     1
176
     1
290
     1
176
     1
290
     0
176
     1
290
     0
176
     1
290
     0
176
     1
290
     0
176
     1
290
     0
176
     1
290
     0
176
     1
 90
       50
176
     1
 40
0.0
176
     1
 40
1.0
176
     1
 90
        0
176
     1
 62
    18
420
        0
176
     1
 90
       50
176
     1
 90
        3
176
     1
 62
     5
420
      255
176
     1
290
     0
176
     1
 90
       50
176
     1
 90
       50
176
     1
 90
       50
176
     1
290
     0
176
     1
 90
       50
176
     1
 62
   256
176
     0
 40
1.0
176
     0
 90
        2
176
     1
  1
strokes_ogs.tif
176
     1
290
     0
176
     1
 40
1.0
176
     1
 40
1.0
176
     1
  0
VISUALSTYLE
  5
40
102
{ACAD_REACTORS
330
29
102
}
330
29
100
AcDbVisualStyle
  2
OverhangOff
 70
    21
177
     3
291
     1
 70
    58
 90
        2
176
     0
 90
        2
176
     0
 90
        0
176
     0
 90
        0
176
     0
 40
0.6
176
     0
 40
30.0
176
     0
 62
     7
420
 16777215
176
     0
 90
        1
176
     0
 90
        4
176
     0
 62
     7
176
     0
 62
   257
176
     0
 90
        1
176
     0
 90
        1
176
     0
 40
1.0
176
     0
 90
        9
176
     2
 62
     7
176
     0
 40
1.0
176
     0
 90
        1
176
     0
 90
        6
176
     0
 90
        2
176
     0
 62
     7
176
     0
 90
        5
176
     0
 90
        0
176
     0
 90
        0
176
     0
290
     0
176
     0
 90
        1
176
     0
 40
0.0
176
     0
 90
        0
176
     0
290
     0
176
     0
290
     1
176
     0
290
     1
176
     0
290
     0
176
     0
290
     0
176
     0
290
     0
176
     0
290
     0
176
     0
290
     0
176
     0
290
     0
176
     0
 90
       50
176
     0
 40
0.0
176
     0
 40
1.0
176
     0
 90
        0
176
     0
 62
    18
420
        0
176
     0
 90
       50
176
     0
 90
        3
176
     0
 62
     5
420
      255
176
     0
290
     0
176
     0
 90
       50
176
     0
 90
       50
176
     0
 90
       50
176
     0
290
     0
176
     0
 90
       50
176
     0
 62
   256
176
     0
 40
1.0
176
     0
 90
        2
176
     0
  1
strokes_ogs.tif
176
     0
290
     0
176
     0
 40
1.0
176
     0
 40
1.0
176
     0
  0
VISUALSTYLE
  5
33
102
{ACAD_REACTORS
330
29
102
}
330
29
100
AcDbVisualStyle
  2
Realistic
 70
     8
177
     3
291
     0
 70
    58
 90
        2
176
     1
 90
        3
176
     1
 90
        0
176
     1
 90
        2
176
     1
 40
0.6
176
     1
 40
30.0
176
     1
 62
     7
420
 16777215
176
     1
 90
        0
176
     1
 90
        0
176
     1
 62
     7
176
     1
 62
   257
176
     1
 90
        1
176
     1
 90
        1
176
     1
 40
1.0
176
     1
 90
        8
176
     1
 62
   257
176
     1
 40
1.0
176
     1
 90
        1
176
     1
 90
        6
176
     1
 90
        2
176
     1
 62
     7
176
     1
 90
        3
176
     1
 90
        0
176
     1
 90
        0
176
     1
290
     0
176
     1
 90
       13
176
     1
 40
0.0
176
     1
 90
        0
176
     1
290
     0
176
     1
290
     1
176
     1
290
     1
176
     1
290
     0
176
     1
290
     0
176
     1
290
     0
176
     1
290
     0
176
     1
290
     0
176
     1
290
     0
176
     1
 90
       50
176
     1
 40
0.0
176
     1
 40
1.0
176
     1
 90
        0
176
     1
 62
    18
420
        0
176
     1
 90
       50
176
     1
 90
        3
176
     1
 62
     5
420
      255
176
     1
290
     0
176
     1
 90
       50
176
     1
 90
       50
176
     1
 90
       50
176
     1
290
     0
176
     1
 90
       50
176
     1
 62
   256
176
     0
 40
1.0
176
     0
 90
        2
176
     1
  1
strokes_ogs.tif
176
     1
290
     0
176
     1
 40
1.0
176
     1
 40
1.0
176
     1
  0
VISUALSTYLE
  5
3E
102
{ACAD_REACTORS
330
29
102
}
330
29
100
AcDbVisualStyle
  2
Shaded
 70
    27
177
     3
291
     0
 70
    58
 90
        2
176
     1
 90
        2
176
     1
 90
        1
176
     1
 90
        2
176
     1
 40
0.6
176
     1
 40
30.0
176
     1
 62
     7
420
 16777215
176
     1
 90
        0
176
     1
 90
        4
176
     1
 62
     7
176
     1
 62
   257
176
     1
 90
        1
176
     1
 90
        1
176
     1
 40
1.0
176
     1
 90
        8
176
     1
 62
   257
176
     1
 40
1.0
176
     1
 90
        1
176
     1
 90
        6
176
     1
 90
        2
176
     1
 62
     8
420
  7895160
176
     1
 90
        3
176
     1
 90
        0
176
     1
 90
        0
176
     1
290
     0
176
     1
 90
        5
176
     1
 40
0.0
176
     1
 90
        0
176
     1
290
     0
176
     1
290
     1
176
     1
290
     1
176
     1
290
     0
176
     1
290
     0
176
     1
290
     0
176
     1
290
     0
176
     1
290
     0
176
     1
290
     0
176
     1
 90
       50
176
     1
 40
0.0
176
     1
 40
1.0
176
     1
 90
        0
176
     1
 62
    18
420
        0
176
     1
 90
       50
176
     1
 90
        3
176
     1
 62
     5
420
      255
176
     1
290
     0
176
     1
 90
       50
176
     1
 90
       50
176
     1
 90
       50
176
     1
290
     0
176
     1
 90
       50
176
     1
 62
   256
176
     0
 40
1.0
176
     0
 90
        2
176
     1
  1
strokes_ogs.tif
176
     1
290
     0
176
     1
 40
1.0
176
     1
 40
1.0
176
     1
  0
VISUALSTYLE
  5
3D
102
{ACAD_REACTORS
330
29
102
}
330
29
100
AcDbVisualStyle
  2
Shaded with edges
 70
    26
177
     3
291
     0
 70
    58
 90
        2
176
     1
 90
        2
176
     1
 90
        1
176
     1
 90
        2
176
     1
 40
0.6
176
     1
 40
30.0
176
     1
 62
     7
420
 16777215
176
     1
 90
        1
176
     1
 90
        2
176
     1
 62
     7
176
     1
 62
   257
176
     1
 90
        2
176
     1
 90
        1
176
     1
 40
1.0
176
     1
 90
        8
176
     1
 62
   257
176
     1
 40
1.0
176
     1
 90
        1
176
     1
 90
        6
176
     1
 90
        2
176
     1
 62
     7
176
     1
 90
        3
176
     1
 90
        0
176
     1
 90
        0
176
     1
290
     0
176
     1
 90
        5
176
     1
 40
0.0
176
     1
 90
        0
176
     1
290
     0
176
     1
290
     1
176
     1
290
     1
176
     1
290
     0
176
     1
290
     0
176
     1
290
     0
176
     1
290
     0
176
     1
290
     0
176
     1
290
     0
176
     1
 90
       50
176
     1
 40
0.0
176
     1
 40
1.0
176
     1
 90
        0
176
     1
 62
    18
420
        0
176
     1
 90
       50
176
     1
 90
        3
176
     1
 62
     5
420
      255
176
     1
290
     0
176
     1
 90
       50
176
     1
 90
       50
176
     1
 90
       50
176
     1
290
     0
176
     1
 90
       50
176
     1
 62
   256
176
     0
 40
1.0
176
     0
 90
        2
176
     1
  1
strokes_ogs.tif
176
     1
290
     0
176
     1
 40
1.0
176
     1
 40
1.0
176
     1
  0
VISUALSTYLE
  5
3A
102
{ACAD_REACTORS
330
29
102
}
330
29
100
AcDbVisualStyle
  2
Shades of Gray
 70
    23
177
     3
291
     0
 70
    58
 90
        2
176
     1
 90
        2
176
     1
 90
        3
176
     1
 90
        0
176
     1
 40
0.6
176
     1
 40
30.0
176
     1
 62
     7
420
 16777215
176
     1
 90
        2
176
     1
 90
        2
176
     1
 62
     7
176
     1
 62
     7
176
     1
 90
        1
176
     1
 90
        1
176
     1
 40
40.0
176
     1
 90
        8
176
     1
 62
     7
176
     1
 40
1.0
176
     1
 90
        1
176
     1
 90
        6
176
     1
 90
        2
176
     1
 62
     7
176
     1
 90
        3
176
     1
 90
        0
176
     1
 90
        0
176
     1
290
     0
176
     1
 90
        1
176
     1
 40
0.0
176
     1
 90
        0
176
     1
290
     0
176
     1
290
     1
176
     1
290
     1
176
     1
290
     0
176
     1
290
     0
176
     1
290
     0
176
     1
290
     0
176
     1
290
     0
176
     1
290
     0
176
     1
 90
       50
176
     1
 40
0.0
176
     1
 40
1.0
176
     1
 90
        0
176
     1
 62
    18
420
        0
176
     1
 90
       50
176
     1
 90
        3
176
     1
 62
     5
420
      255
176
     1
290
     0
176
     1
 90
       50
176
     1
 90
       50
176
     1
 90
       50
176
     1
290
     0
176
     1
 90
       50
176
     1
 62
   256
176
     0
 40
1.0
176
     0
 90
        2
176
     1
  1
strokes_ogs.tif
176
     1
290
     0
176
     1
 40
1.0
176
     1
 40
1.0
176
     1
  0
VISUALSTYLE
  5
3B
102
{ACAD_REACTORS
330
29
102
}
330
29
100
AcDbVisualStyle
  2
Sketchy
 70
    24
177
     3
291
     0
 70
    58
 90
        1
176
     1
 90
        2
176
     1
 90
        2
176
     1
 90
        0
176
     1
 40
0.6
176
     1
 40
30.0
176
     1
 62
     7
420
 16777215
176
     1
 90
        2
176
     1
 90
        2
176
     1
 62
     7
176
     1
 62
     7
176
     1
 90
        1
176
     1
 90
        1
176
     1
 40
40.0
176
     1
 90
       11
176
     1
 62
     7
176
     1
 40
1.0
176
     1
 90
        1
176
     1
 90
        6
176
     1
 90
        2
176
     1
 62
     7
176
     1
 90
        6
176
     1
 90
        0
176
     1
 90
        0
176
     1
290
     0
176
     1
 90
        1
176
     1
 40
0.0
176
     1
 90
        0
176
     1
290
     0
176
     1
290
     1
176
     1
290
     1
176
     1
290
     0
176
     1
290
     0
176
     1
290
     0
176
     1
290
     0
176
     1
290
     0
176
     1
290
     0
176
     1
 90
       50
176
     1
 40
0.0
176
     1
 40
1.0
176
     1
 90
        0
176
     1
 62
    18
420
        0
176
     1
 90
       50
176
     1
 90
        3
176
     1
 62
     5
420
      255
176
     1
290
     0
176
     1
 90
       50
176
     1
 90
       50
176
     1
 90
       50
176
     1
290
     0
176
     1
 90
       50
176
     1
 62
   256
176
     0
 40
1.0
176
     0
 90
        2
176
     1
  1
strokes_ogs.tif
176
     1
290
     0
176
     1
 40
1.0
176
     1
 40
1.0
176
     1
  0
VISUALSTYLE
  5
36
102
{ACAD_REACTORS
330
29
102
}
330
29
100
AcDbVisualStyle
  2
Thicken
 70
    13
177
     3
291
     1
 70
    58
 90
        2
176
     1
 90
        2
176
     1
 90
        0
176
     1
 90
        0
176
     1
 40
0.6
176
     1
 40
30.0
176
     1
 62
     7
420
 16777215
176
     1
 90
        1
176
     1
 90
        4
176
     1
 62
     7
176
     1
 62
   257
176
     1
 90
        1
176
     1
 90
        1
176
     1
 40
1.0
176
     1
 90
       12
176
     1
 62
     7
176
     1
 40
1.0
176
     1
 90
        1
176
     1
 90
        6
176
     1
 90
        2
176
     1
 62
     7
176
     1
 90
        5
176
     1
 90
        0
176
     1
 90
        0
176
     1
290
     0
176
     1
 90
        1
176
     1
 40
0.0
176
     1
 90
        0
176
     1
290
     0
176
     1
290
     1
176
     1
290
     1
176
     1
290
     0
176
     1
290
     0
176
     1
290
     0
176
     1
290
     0
176
     1
290
     0
176
     1
290
     0
176
     1
 90
       50
176
     1
 40
0.0
176
     1
 40
1.0
176
     1
 90
        0
176
     1
 62
    18
420
        0
176
     1
 90
       50
176
     1
 90
        3
176
     1
 62
     5
420
      255
176
     1
290
     0
176
     1
 90
       50
176
     1
 90
       50
176
     1
 90
       50
176
     1
290
     0
176
     1
 90
       50
176
     1
 62
   256
176
     0
 40
1.0
176
     0
 90
        2
176
     1
  1
strokes_ogs.tif
176
     1
290
     0
176
     1
 40
1.0
176
     1
 40
1.0
176
     1
  0
VISUALSTYLE
  5
30
102
{ACAD_REACTORS
330
29
102
}
330
29
100
AcDbVisualStyle
  2
Wireframe
 70
     5
177
     3
291
     0
 70
    58
 90
        0
176
     1
 90
        2
176
     1
 90
        0
176
     1
 90
        0
176
     1
 40
0.6
176
     1
 40
30.0
176
     1
 62
     7
420
 16777215
176
     1
 90
        1
176
     1
 90
        4
176
     1
 62
     7
176
     1
 62
   257
176
     1
 90
        1
176
     1
 90
        1
176
     1
 40
1.0
176
     1
 90
        0
176
     1
 62
   257
176
     1
 40
1.0
176
     1
 90
        1
176
     1
 90
        6
176
     1
 90
        2
176
     1
 62
     7
176
     1
 90
        3
176
     1
 90
        0
176
     1
 90
        0
176
     1
290
     0
176
     1
 90
        1
176
     1
 40
0.0
176
     1
 90
        0
176
     1
290
     0
176
     1
290
     1
176
     1
290
     1
176
     1
290
     0
176
     1
290
     0
176
     1
290
     0
176
     1
290
     0
176
     1
290
     0
176
     1
290
     0
176
     1
 90
       50
176
     1
 40
0.0
176
     1
 40
1.0
176
     1
 90
        0
176
     1
 62
    18
420
        0
176
     1
 90
       50
176
     1
 90
        3
176
     1
 62
     5
420
      255
176
     1
290
     0
176
     1
 90
       50
176
     1
 90
       50
176
     1
 90
       50
176
     1
290
     0
176
     1
 90
       50
176
     1
 62
   256
176
     0
 40
1.0
176
     0
 90
        2
176
     1
  1
strokes_ogs.tif
176
     1
290
     0
176
     1
 40
1.0
176
     1
 40
1.0
176
     1
  0
VISUALSTYLE
  5
3C
102
{ACAD_REACTORS
330
29
102
}
330
29
100
AcDbVisualStyle
  2
X-Ray
 70
    25
177
     3
291
     0
 70
    58
 90
        2
176
     1
 90
        2
176
     1
 90
        1
176
     1
 90
        1
176
     1
 40
0.5
176
     1
 40
30.0
176
     1
 62
     7
420
 16777215
176
     1
 90
        1
176
     1
 90
        0
176
     1
 62
     7
176
     1
 62
   257
176
     1
 90
        1
176
     1
 90
        1
176
     1
 40
1.0
176
     1
 90
        8
176
     1
 62
     7
176
     1
 40
1.0
176
     1
 90
        1
176
     1
 90
        6
176
     1
 90
        2
176
     1
 62
     7
176
     1
 90
        3
176
     1
 90
        0
176
     1
 90
        0
176
     1
290
     0
176
     1
 90
       13
176
     1
 40
0.0
176
     1
 90
        0
176
     1
290
     0
176
     1
290
     1
176
     1
290
     1
176
     1
290
     0
176
     1
290
     0
176
     1
290
     0
176
     1
290
     0
176
     1
290
     0
176
     1
290
     0
176
     1
 90
       50
176
     1
 40
0.0
176
     1
 40
1.0
176
     1
 90
        0
176
     1
 62
    18
420
        0
176
     1
 90
       50
176
     1
 90
        3
176
     1
 62
     5
420
      255
176
     1
290
     0
176
     1
 90
       50
176
     1
 90
       50
176
     1
 90
       50
176
     1
290
     0
176
     1
 90
       50
176
     1
 62
   256
176
     0
 40
1.0
176
     0
 90
        2
176
     1
  1
strokes_ogs.tif
176
     1
290
     0
176
     1
 40
1.0
176
     1
 40
1.0
176
     1
  0
DICTIONARYVAR
  5
2BE
102
{ACAD_REACTORS
330
2B9
102
}
330
2B9
100
DictionaryVariables
280
     0
  1
1:1
  0
DICTIONARYVAR
  5
2BB
102
{ACAD_REACTORS
330
2B9
102
}
330
2B9
100
DictionaryVariables
280
     0
  1
STANDARD
  0
DICTIONARYVAR
  5
2BA
102
{ACAD_REACTORS
330
2B9
102
}
330
2B9
100
DictionaryVariables
280
     0
  1
STANDARD
  0
DICTIONARYVAR
  5
2BC
102
{ACAD_REACTORS
330
2B9
102
}
330
2B9
100
DictionaryVariables
280
     0
  1
Imperial24
  0
DICTIONARYVAR
  5
2BD
102
{ACAD_REACTORS
330
2B9
102
}
330
2B9
100
DictionaryVariables
280
     0
  1
Imperial24
  0
DICTIONARY
  5
1A
330
19
100
AcDbDictionary
280
     1
281
     1
  3
BUMPTILE
360
1C
  3
DIFFUSETILE
360
1B
  3
OPACITYTILE
360
1F
  3
REFLECTIONTILE
360
1E
  3
REFRACTIONTILE
360
20
  3
SPECULARTILE
360
1D
  0
DICTIONARY
  5
12
330
11
100
AcDbDictionary
280
     1
281
     1
  3
BUMPTILE
360
14
  3
DIFFUSETILE
360
13
  3
OPACITYTILE
360
17
  3
REFLECTIONTILE
360
16
  3
REFRACTIONTILE
360
18
  3
SPECULARTILE
360
15
  0
DICTIONARY
  5
22
330
21
100
AcDbDictionary
280
     1
281
     1
  3
BUMPTILE
360
24
  3
DIFFUSETILE
360
23
  3
OPACITYTILE
360
27
  3
REFLECTIONTILE
360
26
  3
REFRACTIONTILE
360
28
  3
SPECULARTILE
360
25
  0
DICTIONARY
  5
2BF
330
65
100
AcDbDictionary
280
     1
281
     1
  3
ACAD_ROUNDTRIP_2008_TABLESTYLE_CELLSTYLEMAP
360
2C0
  0
XRECORD
  5
1C
102
{ACAD_REACTORS
330
1A
102
}
330
1A
100
AcDbXrecord
280
     1
270
     1
271
     1
  0
XRECORD
  5
1B
102
{ACAD_REACTORS
330
1A
102
}
330
1A
100
AcDbXrecord
280
     1
270
     1
271
     1
  0
XRECORD
  5
1F
102
{ACAD_REACTORS
330
1A
102
}
330
1A
100
AcDbXrecord
280
     1
270
     1
271
     1
  0
XRECORD
  5
1E
102
{ACAD_REACTORS
330
1A
102
}
330
1A
100
AcDbXrecord
280
     1
270
     1
271
     1
  0
XRECORD
  5
20
102
{ACAD_REACTORS
330
1A
102
}
330
1A
100
AcDbXrecord
280
     1
270
     1
271
     1
  0
XRECORD
  5
1D
102
{ACAD_REACTORS
330
1A
102
}
330
1A
100
AcDbXrecord
280
     1
270
     1
271
     1
  0
XRECORD
  5
14
102
{ACAD_REACTORS
330
12
102
}
330
12
100
AcDbXrecord
280
     1
270
     1
271
     1
  0
XRECORD
  5
13
102
{ACAD_REACTORS
330
12
102
}
330
12
100
AcDbXrecord
280
     1
270
     1
271
     1
  0
XRECORD
  5
17
102
{ACAD_REACTORS
330
12
102
}
330
12
100
AcDbXrecord
280
     1
270
     1
271
     1
  0
XRECORD
  5
16
102
{ACAD_REACTORS
330
12
102
}
330
12
100
AcDbXrecord
280
     1
270
     1
271
     1
  0
XRECORD
  5
18
102
{ACAD_REACTORS
330
12
102
}
330
12
100
AcDbXrecord
280
     1
270
     1
271
     1
  0
XRECORD
  5
15
102
{ACAD_REACTORS
330
12
102
}
330
12
100
AcDbXrecord
280
     1
270
     1
271
     1
  0
XRECORD
  5
24
102
{ACAD_REACTORS
330
22
102
}
330
22
100
AcDbXrecord
280
     1
270
     1
271
     1
  0
XRECORD
  5
23
102
{ACAD_REACTORS
330
22
102
}
330
22
100
AcDbXrecord
280
     1
270
     1
271
     1
  0
XRECORD
  5
27
102
{ACAD_REACTORS
330
22
102
}
330
22
100
AcDbXrecord
280
     1
270
     1
271
     1
  0
XRECORD
  5
26
102
{ACAD_REACTORS
330
22
102
}
330
22
100
AcDbXrecord
280
     1
270
     1
271
     1
  0
XRECORD
  5
28
102
{ACAD_REACTORS
330
22
102
}
330
22
100
AcDbXrecord
280
     1
270
     1
271
     1
  0
XRECORD
  5
25
102
{ACAD_REACTORS
330
22
102
}
330
22
100
AcDbXrecord
280
     1
270
     1
271
     1
  0
CELLSTYLEMAP
  5
2C0
102
{ACAD_REACTORS
330
2BF
102
}
330
2BF
100
AcDbCellStyleMap
 90
        3
300
CELLSTYLE
  1
TABLEFORMAT_BEGIN
 90
        5
170
     1
 91
        0
 92
    32768
 62
   257
 93
        1
300
CONTENTFORMAT
  1
CONTENTFORMAT_BEGIN
 90
        0
 91
        0
 92
      512
 93
        0
300

 40
0.0
140
1.0
 94
        5
 62
     0
340
55
144
0.25
309
CONTENTFORMAT_END
171
     0
 94
        0
309
TABLEFORMAT_END
  1
CELLSTYLE_BEGIN
 90
        1
 91
        1
300
_TITLE
309
CELLSTYLE_END
300
CELLSTYLE
  1
TABLEFORMAT_BEGIN
 90
        5
170
     1
 91
        0
 92
        0
 62
   257
 93
        1
300
CONTENTFORMAT
  1
CONTENTFORMAT_BEGIN
 90
        0
 91
        0
 92
      512
 93
        0
300

 40
0.0
140
1.0
 94
        5
 62
     0
340
55
144
0.18
309
CONTENTFORMAT_END
171
     0
 94
        0
309
TABLEFORMAT_END
  1
CELLSTYLE_BEGIN
 90
        2
 91
        1
300
_HEADER
309
CELLSTYLE_END
300
CELLSTYLE
  1
TABLEFORMAT_BEGIN
 90
        5
170
     1
 91
        0
 92
        0
 62
   257
 93
        1
300
CONTENTFORMAT
  1
CONTENTFORMAT_BEGIN
 90
        0
 91
        0
 92
      512
 93
        0
300

 40
0.0
140
1.0
 94
        2
 62
     0
340
55
144
0.18
309
CONTENTFORMAT_END
171
     0
 94
        0
309
TABLEFORMAT_END
  1
CELLSTYLE_BEGIN
 90
        3
 91
        2
300
_DATA
309
CELLSTYLE_END
  0
ENDSEC
  0
EOF
