  0
SECTION
  2
HEADER
  9
$ACADVER
  1
AC1032
  9
$ACADMAINTVER
 90
      228
  9
$DWGCODEPAGE
  3
ANSI_932
  9
$REQUIREDVERSIONS
160
                 0
  9
$INSBASE
 10
0.0
 20
0.0
 30
0.0
  9
$EXTMIN
 10
1.000000000000000E+20
 20
1.000000000000000E+20
 30
1.000000000000000E+20
  9
$EXTMAX
 10
-1.000000000000000E+20
 20
-1.000000000000000E+20
 30
-1.000000000000000E+20
  9
$LIMMIN
 10
0.0
 20
0.0
  9
$LIMMAX
 10
12.0
 20
9.0
  9
$ORTHOMODE
 70
     0
  9
$REGENMODE
 70
     1
  9
$FILLMODE
 70
     1
  9
$QTEXTMODE
 70
     0
  9
$MIRRTEXT
 70
     0
  9
$LTSCALE
 40
1.0
  9
$ATTMODE
 70
     1
  9
$TEXTSIZE
 40
0.2
  9
$TRACEWID
 40
0.05
  9
$TEXTSTYLE
  7
Standard
  9
$CLAYER
  8
0
  9
$CELTYPE
  6
ByLayer
  9
$CECOLOR
 62
   256
  9
$CELTSCALE
 40
1.0
  9
$DISPSILH
 70
     0
  9
$DIMSCALE
 40
1.0
  9
$DIMASZ
 40
0.18
  9
$DIMEXO
 40
0.0625
  9
$DIMDLI
 40
0.38
  9
$DIMRND
 40
0.0
  9
$DIMDLE
 40
0.0
  9
$DIMEXE
 40
0.18
  9
$DIMTP
 40
0.0
  9
$DIMTM
 40
0.0
  9
$DIMTXT
 40
0.18
  9
$DIMCEN
 40
0.09
  9
$DIMTSZ
 40
0.0
  9
$DIMTOL
 70
     0
  9
$DIMLIM
 70
     0
  9
$DIMTIH
 70
     1
  9
$DIMTOH
 70
     1
  9
$DIMSE1
 70
     0
  9
$DIMSE2
 70
     0
  9
$DIMTAD
 70
     0
  9
$DIMZIN
 70
     0
  9
$DIMBLK
  1

  9
$DIMASO
 70
     1
  9
$DIMSHO
 70
     1
  9
$DIMPOST
  1

  9
$DIMAPOST
  1

  9
$DIMALT
 70
     0
  9
$DIMALTD
 70
     2
  9
$DIMALTF
 40
25.4
  9
$DIMLFAC
 40
1.0
  9
$DIMTOFL
 70
     0
  9
$DIMTVP
 40
0.0
  9
$DIMTIX
 70
     0
  9
$DIMSOXD
 70
     0
  9
$DIMSAH
 70
     0
  9
$DIMBLK1
  1

  9
$DIMBLK2
  1

  9
$DIMSTYLE
  2
Standard
  9
$DIMCLRD
 70
     0
  9
$DIMCLRE
 70
     0
  9
$DIMCLRT
 70
     0
  9
$DIMTFAC
 40
1.0
  9
$DIMGAP
 40
0.09
  9
$DIMJUST
 70
     0
  9
$DIMSD1
 70
     0
  9
$DIMSD2
 70
     0
  9
$DIMTOLJ
 70
     1
  9
$DIMTZIN
 70
     0
  9
$DIMALTZ
 70
     0
  9
$DIMALTTZ
 70
     0
  9
$DIMUPT
 70
     0
  9
$DIMDEC
 70
     4
  9
$DIMTDEC
 70
     4
  9
$DIMALTU
 70
     2
  9
$DIMALTTD
 70
     2
  9
$DIMTXSTY
  7
Standard
  9
$DIMAUNIT
 70
     0
  9
$DIMADEC
 70
     0
  9
$DIMALTRND
 40
0.0
  9
$DIMAZIN
 70
     0
  9
$DIMDSEP
 70
    46
  9
$DIMATFIT
 70
     3
  9
$DIMFRAC
 70
     0
  9
$DIMLDRBLK
  1

  9
$DIMLUNIT
 70
     2
  9
$DIMLWD
 70
    -2
  9
$DIMLWE
 70
    -2
  9
$DIMTMOVE
 70
     0
  9
$DIMFXL
 40
1.0
  9
$DIMFXLON
 70
     0
  9
$DIMJOGANG
 40
0.7853981633974483
  9
$DIMTFILL
 70
     0
  9
$DIMTFILLCLR
 70
     0
  9
$DIMARCSYM
 70
     0
  9
$DIMLTYPE
  6

  9
$DIMLTEX1
  6

  9
$DIMLTEX2
  6

  9
$DIMTXTDIRECTION
 70
     0
  9
$LUNITS
 70
     2
  9
$LUPREC
 70
     4
  9
$SKETCHINC
 40
0.1
  9
$FILLETRAD
 40
0.0
  9
$AUNITS
 70
     0
  9
$AUPREC
 70
     0
  9
$MENU
  1
.
  9
$ELEVATION
 40
0.0
  9
$PELEVATION
 40
0.0
  9
$THICKNESS
 40
0.0
  9
$LIMCHECK
 70
     0
  9
$CHAMFERA
 40
0.0
  9
$CHAMFERB
 40
0.0
  9
$CHAMFERC
 40
0.0
  9
$CHAMFERD
 40
0.0
  9
$SKPOLY
 70
     0
  9
$TDCREATE
 40
2460061.742164352
  9
$TDUCREATE
 40
2460061.367164352
  9
$TDUPDATE
 40
2460061.742164352
  9
$TDUUPDATE
 40
2460061.367164352
  9
$TDINDWG
 40
0.0000000000
  9
$TDUSRTIMER
 40
0.0000000000
  9
$USRTIMER
 70
     1
  9
$ANGBASE
 50
0.0
  9
$ANGDIR
 70
     0
  9
$PDMODE
 70
     0
  9
$PDSIZE
 40
0.0
  9
$PLINEWID
 40
0.0
  9
$SPLFRAME
 70
     0
  9
$SPLINETYPE
 70
     6
  9
$SPLINESEGS
 70
     8
  9
$HANDSEED
  5
16E
  9
$SURFTAB1
 70
     6
  9
$SURFTAB2
 70
     6
  9
$SURFTYPE
 70
     6
  9
$SURFU
 70
     6
  9
$SURFV
 70
     6
  9
$UCSBASE
  2

  9
$UCSNAME
  2

  9
$UCSORG
 10
0.0
 20
0.0
 30
0.0
  9
$UCSXDIR
 10
1.0
 20
0.0
 30
0.0
  9
$UCSYDIR
 10
0.0
 20
1.0
 30
0.0
  9
$UCSORTHOREF
  2

  9
$UCSORTHOVIEW
 70
     0
  9
$UCSORGTOP
 10
0.0
 20
0.0
 30
0.0
  9
$UCSORGBOTTOM
 10
0.0
 20
0.0
 30
0.0
  9
$UCSORGLEFT
 10
0.0
 20
0.0
 30
0.0
  9
$UCSORGRIGHT
 10
0.0
 20
0.0
 30
0.0
  9
$UCSORGFRONT
 10
0.0
 20
0.0
 30
0.0
  9
$UCSORGBACK
 10
0.0
 20
0.0
 30
0.0
  9
$PUCSBASE
  2

  9
$PUCSNAME
  2

  9
$PUCSORG
 10
0.0
 20
0.0
 30
0.0
  9
$PUCSXDIR
 10
1.0
 20
0.0
 30
0.0
  9
$PUCSYDIR
 10
0.0
 20
1.0
 30
0.0
  9
$PUCSORTHOREF
  2

  9
$PUCSORTHOVIEW
 70
     0
  9
$PUCSORGTOP
 10
0.0
 20
0.0
 30
0.0
  9
$PUCSORGBOTTOM
 10
0.0
 20
0.0
 30
0.0
  9
$PUCSORGLEFT
 10
0.0
 20
0.0
 30
0.0
  9
$PUCSORGRIGHT
 10
0.0
 20
0.0
 30
0.0
  9
$PUCSORGFRONT
 10
0.0
 20
0.0
 30
0.0
  9
$PUCSORGBACK
 10
0.0
 20
0.0
 30
0.0
  9
$USERI1
 70
     0
  9
$USERI2
 70
     0
  9
$USERI3
 70
     0
  9
$USERI4
 70
     0
  9
$USERI5
 70
     0
  9
$USERR1
 40
0.0
  9
$USERR2
 40
0.0
  9
$USERR3
 40
0.0
  9
$USERR4
 40
0.0
  9
$USERR5
 40
0.0
  9
$WORLDVIEW
 70
     1
  9
$SHADEDGE
 70
     3
  9
$SHADEDIF
 70
    70
  9
$TILEMODE
 70
     1
  9
$MAXACTVP
 70
    64
  9
$PINSBASE
 10
0.0
 20
0.0
 30
0.0
  9
$PLIMCHECK
 70
     0
  9
$PEXTMIN
 10
1.000000000000000E+20
 20
1.000000000000000E+20
 30
1.000000000000000E+20
  9
$PEXTMAX
 10
-1.000000000000000E+20
 20
-1.000000000000000E+20
 30
-1.000000000000000E+20
  9
$PLIMMIN
 10
0.0
 20
0.0
  9
$PLIMMAX
 10
12.0
 20
9.0
  9
$UNITMODE
 70
     0
  9
$VISRETAIN
 70
     1
  9
$PLINEGEN
 70
     0
  9
$PSLTSCALE
 70
     1
  9
$TREEDEPTH
 70
  3020
  9
$CMLSTYLE
  2
Standard
  9
$CMLJUST
 70
     0
  9
$CMLSCALE
 40
1.0
  9
$PROXYGRAPHICS
 70
     1
  9
$MEASUREMENT
 70
     0
  9
$CELWEIGHT
370
    -1
  9
$ENDCAPS
280
     0
  9
$JOINSTYLE
280
     0
  9
$LWDISPLAY
290
     1
  9
$INSUNITS
 70
     4
  9
$HYPERLINKBASE
  1

  9
$STYLESHEET
  1

  9
$XEDIT
290
     1
  9
$CEPSNTYPE
380
     0
  9
$PSTYLEMODE
290
     1
  9
$FINGERPRINTGUID
  2
{6C1B2BD4-10D4-3A46-94A0-74326B14C0F0}
  9
$VERSIONGUID
  2
{D2C77A62-1332-024E-83C2-BB5198B0EEE9}
  9
$EXTNAMES
290
     1
  9
$PSVPSCALE
 40
0.0
  9
$OLESTARTUP
290
     0
  9
$SORTENTS
280
   127
  9
$INDEXCTL
280
     0
  9
$HIDETEXT
280
     1
  9
$XCLIPFRAME
280
     2
  9
$HALOGAP
280
     0
  9
$OBSCOLOR
 70
   257
  9
$OBSLTYPE
280
     0
  9
$INTERSECTIONDISPLAY
280
     0
  9
$INTERSECTIONCOLOR
 70
   257
  9
$DIMASSOC
280
     2
  9
$PROJECTNAME
  1

  9
$CAMERADISPLAY
290
     0
  9
$LENSLENGTH
 40
50.0
  9
$CAMERAHEIGHT
 40
0.0
  9
$STEPSPERSEC
 40
2.0
  9
$STEPSIZE
 40
6.0
  9
$3DDWFPREC
 40
2.0
  9
$PSOLWIDTH
 40
0.25
  9
$PSOLHEIGHT
 40
4.0
  9
$LOFTANG1
 40
1.570796326794896
  9
$LOFTANG2
 40
1.570796326794896
  9
$LOFTMAG1
 40
0.0
  9
$LOFTMAG2
 40
0.0
  9
$LOFTPARAM
 70
     7
  9
$LOFTNORMALS
280
     1
  9
$LATITUDE
 40
37.795
  9
$LONGITUDE
 40
-122.394
  9
$NORTHDIRECTION
 40
0.0
  9
$TIMEZONE
 70
 -8000
  9
$LIGHTGLYPHDISPLAY
280
     1
  9
$TILEMODELIGHTSYNCH
280
     1
  9
$CMATERIAL
347
11
  9
$SOLIDHIST
280
     0
  9
$SHOWHIST
280
     1
  9
$DWFFRAME
280
     2
  9
$DGNFRAME
280
     0
  9
$REALWORLDSCALE
290
     1
  9
$INTERFERECOLOR
 62
     1
  9
$INTERFEREOBJVS
345
33
  9
$INTERFEREVPVS
346
30
  9
$CSHADOW
280
     0
  9
$SHADOWPLANELOCATION
 40
0.0
  0
ENDSEC
  0
SECTION
  2
CLASSES
  0
CLASS
  1
ACDBDICTIONARYWDFLT
  2
AcDbDictionaryWithDefault
  3
ObjectDBX Classes
 90
        0
 91
        1
280
     0
281
     0
  0
CLASS
  1
MATERIAL
  2
AcDbMaterial
  3
ObjectDBX Classes
 90
     1153
 91
        3
280
     0
281
     0
  0
CLASS
  1
VISUALSTYLE
  2
AcDbVisualStyle
  3
ObjectDBX Classes
 90
     4095
 91
       24
280
     0
281
     0
  0
CLASS
  1
SCALE
  2
AcDbScale
  3
ObjectDBX Classes
 90
     1153
 91
       17
280
     0
281
     0
  0
CLASS
  1
TABLESTYLE
  2
AcDbTableStyle
  3
ObjectDBX Classes
 90
     4095
 91
        1
280
     0
281
     0
  0
CLASS
  1
MLEADERSTYLE
  2
AcDbMLeaderStyle
  3
ACDB_MLEADERSTYLE_CLASS
 90
     4095
 91
        1
280
     0
281
     0
  0
CLASS
  1
ACDBSECTIONVIEWSTYLE
  2
AcDbSectionViewStyle
  3
ObjectDBX Classes
 90
     1025
 91
        1
280
     0
281
     0
  0
CLASS
  1
ACDBDETAILVIEWSTYLE
  2
AcDbDetailViewStyle
  3
ObjectDBX Classes
 90
     1025
 91
        1
280
     0
281
     0
  0
CLASS
  1
DICTIONARYVAR
  2
AcDbDictionaryVar
  3
ObjectDBX Classes
 90
        0
 91
        5
280
     0
281
     0
  0
CLASS
  1
CELLSTYLEMAP
  2
AcDbCellStyleMap
  3
ObjectDBX Classes
 90
     1152
 91
        1
280
     0
281
     0
  0
ENDSEC
  0
SECTION
  2
TABLES
  0
TABLE
  2
VPORT
  5
8
330
0
100
AcDbSymbolTable
 70
     1
  0
VPORT
  5
57
330
8
100
AcDbSymbolTableRecord
100
AcDbViewportTableRecord
  2
*Active
 70
     0
 10
0.0
 20
0.0
 11
1.0
 21
1.0
 12
0.0
 22
0.0
 13
0.0
 23
0.0
 14
1.0
 24
1.0
 15
0.0
 25
0.0
 16
0.0
 26
0.0
 36
1.0
 17
338.666666582
 27
190.4999999523751
 37
0.0
 40
388.8749999028449
 41
1.776612021857632
 42
50.0
 43
0.0
 44
0.0
 50
0.0
 51
0.0
 71
     0
 72
   100
 73
     1
 74
     1
 75
     0
 76
     0
 77
     0
 78
     0
281
     0
 65
     1
110
0.0
120
0.0
130
0.0
111
1.0
121
0.0
131
0.0
112
0.0
122
1.0
132
0.0
 79
     0
146
0.0
 60
     3
 61
     5
292
     1
282
     1
141
0.0
142
0.0
 63
   250
421
  3355443
  0
ENDTAB
  0
TABLE
  2
LTYPE
  5
5
330
0
100
AcDbSymbolTable
 70
     1
  0
LTYPE
  5
5B
330
5
100
AcDbSymbolTableRecord
100
AcDbLinetypeTableRecord
  2
ByBlock
 70
     0
  3

 72
    65
 73
     0
 40
0.0
  0
LTYPE
  5
5C
330
5
100
AcDbSymbolTableRecord
100
AcDbLinetypeTableRecord
  2
ByLayer
 70
     0
  3

 72
    65
 73
     0
 40
0.0
  0
LTYPE
  5
5D
330
5
100
AcDbSymbolTableRecord
100
AcDbLinetypeTableRecord
  2
Continuous
 70
     0
  3
Solid line
 72
    65
 73
     0
 40
0.0
  0
ENDTAB
  0
TABLE
  2
LAYER
  5
2
330
0
100
AcDbSymbolTable
 70
     5
  0
LAYER
  5
54
330
2
100
AcDbSymbolTableRecord
100
AcDbLayerTableRecord
  2
0
 70
     0
 62
     7
  6
Continuous
370
    -3
390
F
347
21
348
0
  0
LAYER
  5
78
330
2
100
AcDbSymbolTableRecord
100
AcDbLayerTableRecord
  2
Defpoints
 70
     0
 62
     7
  6
Continuous
290
     0
370
     0
390
F
347
21
348
0
  0
LAYER
  5
7A
330
2
100
AcDbSymbolTableRecord
100
AcDbLayerTableRecord
  2
FLAME
 70
     0
 62
     7
  6
Continuous
370
     0
390
F
347
21
348
0
  0
LAYER
  5
82
330
2
100
AcDbSymbolTableRecord
100
AcDbLayerTableRecord
  2
text
 70
     0
 62
     7
  6
Continuous
370
     0
390
F
347
21
348
0
  0
LAYER
  5
86
330
2
100
AcDbSymbolTableRecord
100
AcDbLayerTableRecord
  2
shade
 70
     0
 62
     7
  6
Continuous
370
     0
390
F
347
21
348
0
  0
ENDTAB
  0
TABLE
  2
STYLE
  5
3
330
0
100
AcDbSymbolTable
 70
     2
  0
STYLE
  5
55
330
3
100
AcDbSymbolTableRecord
100
AcDbTextStyleTableRecord
  2
Standard
 70
     0
 40
0.0
 41
1.0
 50
0.0
 71
     0
 42
0.2
  3
txt
  4

  0
STYLE
  5
5A
330
3
100
AcDbSymbolTableRecord
100
AcDbTextStyleTableRecord
  2
Annotative
 70
     0
 40
0.0
 41
1.0
 50
0.0
 71
     0
 42
0.2
  3
txt
  4

1001
AcadAnnotative
1000
AnnotativeData
1002
{
1070
     1
1070
     1
1002
}
  0
ENDTAB
  0
TABLE
  2
VIEW
  5
6
330
0
100
AcDbSymbolTable
 70
     0
  0
ENDTAB
  0
TABLE
  2
UCS
  5
7
330
0
100
AcDbSymbolTable
 70
     0
  0
ENDTAB
  0
TABLE
  2
APPID
  5
9
330
0
100
AcDbSymbolTable
 70
     2
  0
APPID
  5
56
330
9
100
AcDbSymbolTableRecord
100
AcDbRegAppTableRecord
  2
ACAD
 70
     0
  0
APPID
  5
5E
330
9
100
AcDbSymbolTableRecord
100
AcDbRegAppTableRecord
  2
AcadAnnotative
 70
     0
  0
ENDTAB
  0
TABLE
  2
DIMSTYLE
  5
A
330
0
100
AcDbSymbolTable
 70
     2
100
AcDbDimStyleTable
 71
     0
  0
DIMSTYLE
105
58
330
A
100
AcDbSymbolTableRecord
100
AcDbDimStyleTableRecord
  2
Standard
 70
     0
340
55
  0
DIMSTYLE
105
59
330
A
100
AcDbSymbolTableRecord
100
AcDbDimStyleTableRecord
  2
Annotative
 70
     0
340
55
1001
AcadAnnotative
1000
AnnotativeData
1002
{
1070
     1
1070
     1
1002
}
  0
ENDTAB
  0
TABLE
  2
BLOCK_RECORD
  5
1
330
0
100
AcDbSymbolTable
 70
     1
  0
BLOCK_RECORD
  5
70
330
1
100
AcDbSymbolTableRecord
100
AcDbBlockTableRecord
  2
*Model_Space
340
73
 70
     0
280
     1
281
     0
  0
BLOCK_RECORD
  5
6C
330
1
100
AcDbSymbolTableRecord
100
AcDbBlockTableRecord
  2
*Paper_Space
340
6F
 70
     0
280
     1
281
     0
  0
BLOCK_RECORD
  5
74
330
1
100
AcDbSymbolTableRecord
100
AcDbBlockTableRecord
  2
*Paper_Space0
340
77
 70
     0
280
     1
281
     0
  0
ENDTAB
  0
ENDSEC
  0
SECTION
  2
BLOCKS
  0
BLOCK
  5
71
330
70
100
AcDbEntity
  8
0
100
AcDbBlockBegin
  2
*Model_Space
 70
     0
 10
0.0
 20
0.0
 30
0.0
  3
*Model_Space
  1

  0
ENDBLK
  5
72
330
70
100
AcDbEntity
  8
0
100
AcDbBlockEnd
  0
BLOCK
  5
6D
330
6C
100
AcDbEntity
 67
     1
  8
0
100
AcDbBlockBegin
  2
*Paper_Space
 70
     0
 10
0.0
 20
0.0
 30
0.0
  3
*Paper_Space
  1

  0
ENDBLK
  5
6E
330
6C
100
AcDbEntity
 67
     1
  8
0
100
AcDbBlockEnd
  0
BLOCK
  5
75
330
74
100
AcDbEntity
 67
     1
  8
0
100
AcDbBlockBegin
  2
*Paper_Space0
 70
     0
 10
0.0
 20
0.0
 30
0.0
  3
*Paper_Space0
  1

  0
ENDBLK
  5
76
330
74
100
AcDbEntity
 67
     1
  8
0
100
AcDbBlockEnd
  0
ENDSEC
  0
SECTION
  2
ENTITIES
  0
LWPOLYLINE
  5
79
330
70
100
AcDbEntity
  8
Defpoints
 62
    18
420
        0
370
    25
100
AcDbPolyline
 90
        4
 70
     1
 43
0.0
 10
203.9696969187045
 20
0.0
 10
473.3636362452955
 20
0.0
 10
473.3636362452955
 20
380.9999999047501
 10
203.9696969187045
 20
380.9999999047501
  0
LINE
  5
7B
330
70
100
AcDbEntity
  8
FLAME
 62
     2
420
 16776960
370
    25
100
AcDbLine
 10
386.772727176034
 20
272.6256966318128
 30
0.0
 11
386.772727176034
 21
137.9287269685173
 31
0.0
  0
LINE
  5
7C
330
70
100
AcDbEntity
  8
FLAME
 62
     2
420
 16776960
370
    25
100
AcDbLine
 10
271.3181817503523
 20
137.9287269685173
 30
0.0
 11
271.3181817503523
 21
272.6256966318128
 31
0.0
  0
LINE
  5
7D
330
70
100
AcDbEntity
  8
FLAME
 62
     2
420
 16776960
370
    25
100
AcDbLine
 10
386.772727176034
 20
137.9287269685173
 30
0.0
 11
271.3181817503523
 21
137.9287269685173
 31
0.0
  0
LINE
  5
7E
330
70
100
AcDbEntity
  8
FLAME
 62
     2
420
 16776960
370
    25
100
AcDbLine
 10
386.772727176034
 20
144.3428683810551
 30
0.0
 11
271.3181817503523
 21
144.3428683810551
 31
0.0
  0
LINE
  5
7F
330
70
100
AcDbEntity
  8
FLAME
 62
     2
420
 16776960
370
    25
100
AcDbLine
 10
386.772727176034
 20
150.7570097935929
 30
0.0
 11
271.3181817503523
 21
150.7570097935929
 31
0.0
  0
LINE
  5
80
330
70
100
AcDbEntity
  8
FLAME
 62
     2
420
 16776960
370
    25
100
AcDbLine
 10
386.772727176034
 20
157.1711512061307
 30
0.0
 11
271.3181817503523
 21
157.1711512061307
 31
0.0
  0
LINE
  5
81
330
70
100
AcDbEntity
  8
FLAME
 62
     2
420
 16776960
370
    25
100
AcDbLine
 10
386.772727176034
 20
272.6256966318128
 30
0.0
 11
271.3181817503523
 21
272.6256966318128
 31
0.0
  0
MTEXT
  5
83
330
70
100
AcDbEntity
  8
text
100
AcDbMText
 10
275.7425143082345
 20
145.8049567811757
 30
0.0
 40
0.2
 41
0.0
 46
0.0
 71
     7
 72
     1
  1
\C4;\c16776960;\FMS PMincho|b0|i0|c128;\H3.207071;\W1.000000;KP134/KP134GO/KP134BK
 73
     1
 44
1.0
  0
MTEXT
  5
84
330
70
100
AcDbEntity
  8
text
100
AcDbMText
 10
275.7425143082345
 20
152.2191001511542
 30
0.0
 40
0.2
 41
0.0
 46
0.0
 71
     7
 72
     1
  1
\C4;\c16776960;\FMS PMincho|b0|i0|c128;\H3.207071;\W1.000000;ペンダント　ラメラ 3
 73
     1
 44
1.0
  0
MTEXT
  5
85
330
70
100
AcDbEntity
  8
text
100
AcDbMText
 10
275.9840370335973
 20
139.3857964908968
 30
0.0
 40
0.2
 41
0.0
 46
0.0
 71
     7
 72
     1
  1
\C4;\c16776960;\FMS PMincho|b0|i0|c128;\H3.207071;\W0.858326;E26 LED電球(100W相当　電球色 全方向/広配光タイプ)
 73
     1
 44
1.0
  0
LINE
  5
87
330
70
100
AcDbEntity
  8
shade
 62
     6
420
 16711935
370
    25
100
AcDbLine
 10
328.9449090803199
 20
214.0775909097533
 30
0.0
 11
328.8652592556969
 21
214.0775909097533
 31
0.0
  0
LINE
  5
88
330
70
100
AcDbEntity
  8
shade
 62
     6
420
 16711935
370
    25
100
AcDbLine
 10
328.5321795771031
 20
214.2658513192022
 30
0.0
 11
328.4851144747428
 21
214.2658513192022
 31
0.0
  0
LINE
  5
89
330
70
100
AcDbEntity
  8
shade
 62
     6
420
 16711935
370
    25
100
AcDbLine
 10
328.952150375239
 20
214.2658513192022
 30
0.0
 11
328.832676743172
 21
214.2658513192022
 31
0.0
  0
LWPOLYLINE
  5
8A
330
70
100
AcDbEntity
  8
shade
 62
     6
420
 16711935
370
    25
100
AcDbPolyline
 90
        3
 70
     0
 43
0.0
 10
329.3757407159624
 20
184.143907381113
 10
329.4191840660007
 20
184.143907381113
 10
329.419185170866
 20
184.143907381113
  0
LWPOLYLINE
  5
8B
330
70
100
AcDbEntity
  8
shade
 62
     6
420
 16711935
370
    25
100
AcDbPolyline
 90
        3
 70
     0
 43
0.0
 10
329.3395364511098
 20
183.9556447619337
 10
329.4191840660007
 20
183.9556447619337
 10
329.419185170866
 20
183.9556447619337
  0
LINE
  5
8C
330
70
100
AcDbEntity
  8
shade
 62
     6
420
 16711935
370
    25
100
AcDbLine
 10
329.1621346694368
 20
183.9556447619337
 30
0.0
 11
329.2055802292058
 21
183.9556447619337
 31
0.0
  0
LWPOLYLINE
  5
8D
330
70
100
AcDbEntity
  8
shade
 62
     6
420
 16711935
370
    25
100
AcDbPolyline
 90
       18
 70
     0
 43
0.0
 10
325.882029157665
 20
183.5356739638004
 10
325.8856487002566
 20
183.5356739638004
 10
325.9218529651054
 20
183.5356739638004
 10
325.9942614948132
 20
183.5356739638004
 10
326.1028742893738
 20
183.5356739638004
 10
326.2440718061925
 20
183.5356739638004
 10
326.4178518355367
 20
183.5356739638004
 10
326.6205948348233
 20
183.5356739638004
 10
326.8559225563685
 20
183.5356739638004
 10
327.112974162658
 20
183.5356739638004
 10
327.3989865291553
 20
183.5356739638004
 10
327.7031032378155
 20
183.5356739638004
 10
328.0253198691654
 20
183.5356739638004
 10
328.3583995477592
 20
183.5356739638004
 10
328.7059618161833
 20
183.5356739638004
 10
329.0607631697956
 20
183.5356739638004
 10
329.4191840660007
 20
183.5356739638004
 10
329.419185170866
 20
183.5356739638004
  0
LWPOLYLINE
  5
8E
330
70
100
AcDbEntity
  8
shade
 62
     6
420
 16711935
370
    25
100
AcDbPolyline
 90
        3
 70
     0
 43
0.0
 10
328.3330561204171
 20
214.3237816785397
 10
328.3475387102474
 20
214.3237816785397
 10
328.4561515048092
 20
214.3237816785397
  0
LWPOLYLINE
  5
8F
330
70
100
AcDbEntity
  8
shade
 62
     6
420
 16711935
370
    25
100
AcDbPolyline
 90
        3
 70
     0
 43
0.0
 10
327.8660224296514
 20
214.3237816785397
 10
327.9203288269323
 20
214.3237816785397
 10
327.9529113394627
 20
214.3237816785397
  0
LWPOLYLINE
  5
90
330
70
100
AcDbEntity
  8
shade
 62
     6
420
 16711935
370
    25
100
AcDbPolyline
 90
        3
 70
     0
 43
0.0
 10
329.3612581261283
 20
214.0920734995887
 10
329.4191840660007
 20
214.0920734995887
 10
329.419185170866
 20
214.0920734995887
  0
LWPOLYLINE
  5
91
330
70
100
AcDbEntity
  8
shade
 62
     6
420
 16711935
370
    25
100
AcDbPolyline
 90
        4
 70
     0
 43
0.0
 10
328.9449090803199
 20
214.0920734995887
 10
329.0643827123872
 20
214.0920734995887
 10
329.1802368018638
 20
214.0920734995887
 10
329.1910976393705
 20
214.0920734995887
  0
LWPOLYLINE
  5
92
330
70
100
AcDbEntity
  8
shade
 62
     6
420
 16711935
370
    25
100
AcDbPolyline
 90
        3
 70
     0
 43
0.0
 10
329.3178125663593
 20
214.3237816785397
 10
329.4191840660007
 20
214.3237816785397
 10
329.419185170866
 20
214.3237816785397
  0
LWPOLYLINE
  5
93
330
70
100
AcDbEntity
  8
shade
 62
     6
420
 16711935
370
    25
100
AcDbPolyline
 90
        4
 70
     0
 43
0.0
 10
328.959391670154
 20
214.3237816785397
 10
329.0752435498951
 20
214.3237816785397
 10
329.1874780967792
 20
214.3237816785397
 10
329.2671279214019
 20
214.3237816785397
  0
LWPOLYLINE
  5
94
330
70
100
AcDbEntity
  8
shade
 62
     6
420
 16711935
370
    25
100
AcDbPolyline
 90
        4
 70
     0
 43
0.0
 10
328.4887362270703
 20
183.894097069736
 10
328.4814949321513
 20
183.894097069736
 10
328.3728821375946
 20
183.894097069736
 10
328.3439191676558
 20
183.894097069736
  0
LWPOLYLINE
  5
95
330
70
100
AcDbEntity
  8
shade
 62
     6
420
 16711935
370
    25
100
AcDbPolyline
 90
        4
 70
     0
 43
0.0
 10
329.1621346694368
 20
183.894097069736
 10
329.0462805799615
 20
183.894097069736
 10
328.9340482428081
 20
183.894097069736
 10
328.832676743172
 20
183.894097069736
  0
LWPOLYLINE
  5
96
330
70
100
AcDbEntity
  8
shade
 62
     6
420
 16711935
370
    25
100
AcDbPolyline
 90
        4
 70
     0
 43
0.0
 10
329.1621346694368
 20
184.1258052486873
 10
329.0426610373686
 20
184.1258052486873
 10
328.926806947893
 20
184.1258052486873
 10
328.8725005506172
 20
184.1258052486873
  0
LWPOLYLINE
  5
97
330
70
100
AcDbEntity
  8
shade
 62
     6
420
 16711935
370
    25
100
AcDbPolyline
 90
       41
 70
     0
 43
0.0
 10
325.2665566551655
 20
183.752899552917
 10
324.871929284377
 20
183.7963451126864
 10
323.7749405012818
 20
183.9375426295067
 10
322.5983018935646
 20
184.143907381113
 10
321.3782188309489
 20
184.437161042529
 10
320.4007036799181
 20
184.74851683637
 10
319.4304287189407
 20
185.1431442071582
 10
318.478256995261
 20
185.635521325265
 10
317.5622895364338
 20
186.2401329902537
 10
316.9106127690816
 20
186.7687165829449
 10
316.2878989716628
 20
187.3733260382006
 10
315.7086307340172
 20
188.0575875278113
 10
315.1728080561458
 20
188.8251183846388
 10
314.6876700232224
 20
189.6831576938643
 10
314.2568394924454
 20
190.6389511698715
 10
313.8911761964599
 20
191.6961161455203
 10
313.6160246674744
 20
192.7605202063547
 10
313.4060392684059
 20
193.9154371390533
 10
313.2576015615334
 20
195.1608647338827
 10
313.1743321943201
 20
196.4714573537689
 10
313.148988766978
 20
197.8073956107331
 10
313.1815734892391
 20
199.1433316579614
 10
313.293805826387
 20
200.7870061661734
 10
313.4820684455718
 20
202.3184461275017
 10
313.7427395944578
 20
203.7340342090864
 10
314.0721975207228
 20
205.0373877437894
 10
314.4668248915126
 20
206.232128483932
 10
314.9157575547179
 20
207.3254955147
 10
315.3936531878555
 20
208.2668064008744
 10
315.9149954856286
 20
209.1248457100999
 10
316.4797811334391
 20
209.9032374044358
 10
317.0843927984255
 20
210.6019814838816
 10
317.7215880808092
 20
211.2319365762143
 10
318.5325633925406
 20
211.8980959334006
 10
319.379742969122
 20
212.473740208988
 10
320.2631268105574
 20
212.9624977845001
 10
321.1718540793388
 20
213.3752272877156
 10
322.1059236705916
 20
213.711928718633
 10
323.3477306179667
 20
214.0594887773276
 10
324.6040168405746
 20
214.3056795461127
 10
325.8204814654693
 20
214.4685987379503
  0
LINE
  5
98
330
70
100
AcDbEntity
  8
shade
 62
     6
420
 16711935
370
    25
100
AcDbLine
 10
325.8603052729145
 20
214.4685987379503
 30
0.0
 11
325.8639270252381
 21
214.4323944730989
 31
0.0
  0
LINE
  5
99
330
70
100
AcDbEntity
  8
shade
 62
     6
420
 16711935
370
    25
100
AcDbLine
 10
325.9652985248796
 20
214.4685987379503
 30
0.0
 11
325.9652985248796
 21
214.4468726434664
 31
0.0
  0
LINE
  5
9A
330
70
100
AcDbEntity
  8
shade
 62
     6
420
 16711935
370
    25
100
AcDbLine
 10
325.9652985248796
 20
214.4685987379503
 30
0.0
 11
325.9652985248796
 21
214.4504966055246
 31
0.0
  0
LWPOLYLINE
  5
9B
330
70
100
AcDbEntity
  8
shade
 62
     6
420
 16711935
370
    25
100
AcDbPolyline
 90
       41
 70
     0
 43
0.0
 10
325.3896498298256
 20
183.752899552917
 10
325.0058855062796
 20
183.7963451126864
 10
323.9414792357106
 20
183.9375426295067
 10
322.8010459977128
 20
184.143907381113
 10
321.6135465524889
 20
184.437161042529
 10
320.6649943713955
 20
184.74851683637
 10
319.7236834852225
 20
185.1431442071582
 10
318.8004747314764
 20
185.635521325265
 10
317.909849595122
 20
186.2401329902537
 10
317.2762749602019
 20
186.7687165829449
 10
316.6752850475375
 20
187.3733260382006
 10
316.110498294857
 20
188.0575875278113
 10
315.5891571019541
 20
188.8251183846388
 10
315.1185016588661
 20
189.6831576938643
 10
314.7021526130578
 20
190.6389511698715
 10
314.347350154579
 20
191.6961161455203
 10
314.079438815638
 20
192.7605202063547
 10
313.8730740640381
 20
193.9154371390533
 10
313.7318776520807
 20
195.1608647338827
 10
313.6522289323281
 20
196.4714573537689
 10
313.6268855049808
 20
197.8073956107331
 10
313.6558484749158
 20
199.1433316579614
 10
313.7644612694763
 20
200.7870061661734
 10
313.9491032411976
 20
202.3184461275017
 10
314.2025330951684
 20
203.7340342090864
 10
314.5211312887936
 20
205.0373877437894
 10
314.9048956123396
 20
206.232128483932
 10
315.3429674380329
 20
207.3254955147
 10
315.8063826910671
 20
208.2668064008744
 10
316.3132423990103
 20
209.1248457100999
 10
316.8599259143936
 20
209.9032374044358
 10
317.4464354469582
 20
210.6019814838816
 10
318.0655285969097
 20
211.2319365762143
 10
318.8511604813002
 20
211.8980959334006
 10
319.6729977354048
 20
212.473740208988
 10
320.5310381494971
 20
212.9624977845001
 10
321.4144230957977
 20
213.3752272877156
 10
322.319529717122
 20
213.711928718633
 10
323.5251301899022
 20
214.0594887773276
 10
324.7452143573937
 20
214.3056795461127
 10
325.9290942600257
 20
214.4685987379503
  0
LWPOLYLINE
  5
9C
330
70
100
AcDbEntity
  8
shade
 62
     6
420
 16711935
370
    25
100
AcDbPolyline
 90
       41
 70
     0
 43
0.0
 10
325.5960145814319
 20
183.7492800103241
 10
325.2231110953964
 20
183.7963451126864
 10
324.2130112221083
 20
183.9375426295067
 10
323.126883276526
 20
184.143907381113
 10
322.0009315234971
 20
184.437161042529
 10
321.0994455496309
 20
184.74851683637
 10
320.2051997658184
 20
185.1431442071582
 10
319.3290572193033
 20
185.635521325265
 10
318.481877642718
 20
186.2401329902537
 10
317.8772659777316
 20
186.7687165829449
 10
317.3052390350008
 20
187.3733260382006
 10
316.7694152522587
 20
188.0575875278113
 10
316.273417486698
 20
188.8251183846388
 10
315.8281043660857
 20
189.6831576938643
 10
315.4334781001623
 20
190.6389511698715
 10
315.0931582315241
 20
191.6961161455203
 10
314.84334902501
 20
192.7605202063547
 10
314.6478462157769
 20
193.9154371390533
 10
314.5102693464163
 20
195.1608647338827
 10
314.4342401692516
 20
196.4714573537689
 10
314.4125184942369
 20
197.8073956107331
 10
314.4378608167087
 20
199.1433316579614
 10
314.5428529638121
 20
200.7870061661734
 10
314.7166340980216
 20
202.3184461275017
 10
314.9592020096154
 20
203.7340342090864
 10
315.2633187182752
 20
205.0373877437894
 10
315.6253613668078
 20
206.232128483932
 10
316.0417104126109
 20
207.3254955147
 10
316.4797811334391
 20
208.2668064008744
 10
316.9612985189003
 20
209.1248457100999
 10
317.4826397118069
 20
209.9032374044358
 10
318.0401851695676
 20
210.6019814838816
 10
318.6266947021283
 20
211.2319365762143
 10
319.3761223216649
 20
211.8980959334006
 10
320.1581346634578
 20
212.473740208988
 10
320.9727306226473
 20
212.9624977845001
 10
321.8126700091791
 20
213.3752272877156
 10
322.6707104232724
 20
213.711928718633
 10
323.8183860610557
 20
214.0594887773276
 10
324.9769225363408
 20
214.3056795461127
 10
326.0920134518632
 20
214.4685987379503
  0
LINE
  5
9D
330
70
100
AcDbEntity
  8
shade
 62
     6
420
 16711935
370
    25
100
AcDbLine
 10
326.1390785542277
 20
214.4685987379503
 30
0.0
 11
326.1390785542277
 21
214.4360140156905
 31
0.0
  0
LINE
  5
9E
330
70
100
AcDbEntity
  8
shade
 62
     6
420
 16711935
370
    25
100
AcDbLine
 10
326.3744062757677
 20
214.4685987379503
 30
0.0
 11
326.3780258183592
 21
214.4251509684479
 31
0.0
  0
LWPOLYLINE
  5
9F
330
70
100
AcDbEntity
  8
shade
 62
     6
420
 16711935
370
    25
100
AcDbPolyline
 90
       41
 70
     0
 43
0.0
 10
325.8603052729145
 20
183.752899552917
 10
325.5272255943207
 20
183.7963451126864
 10
324.5859147081438
 20
183.9375426295067
 10
323.5794365871869
 20
184.143907381113
 10
322.5331346587769
 20
184.437161042529
 10
321.6968159197035
 20
184.74851683637
 10
320.8677384755489
 20
185.1431442071582
 10
320.0495218689011
 20
185.635521325265
 10
319.2638888796464
 20
186.2401329902537
 10
318.7063434218845
 20
186.7687165829449
 10
318.1741413914715
 20
187.3733260382006
 10
317.6781425210401
 20
188.0575875278113
 10
317.2183490203295
 20
188.8251183846388
 10
316.8019999745211
 20
189.6831576938643
 10
316.4363366785356
 20
190.6389511698715
 10
316.1213591323687
 20
191.6961161455203
 10
315.8860314108233
 20
192.7605202063547
 10
315.7050100865604
 20
193.9154371390533
 10
315.5782951595716
 20
195.1608647338827
 10
315.5095072773324
 20
196.4714573537689
 10
315.4877844974419
 20
197.8073956107331
 10
315.513127924784
 20
199.1433316579614
 10
315.6108787769688
 20
200.7870061661734
 10
315.7701784262132
 20
202.3184461275017
 10
315.99464420538
 20
203.7340342090864
 10
316.2770381341564
 20
205.0373877437894
 10
316.6137373553417
 20
206.232128483932
 10
317.001123431211
 20
207.3254955147
 10
317.4066105346423
 20
208.2668064008744
 10
317.8555431978463
 20
209.1248457100999
 10
318.3370605833074
 20
209.9032374044358
 10
318.854781128757
 20
210.6019814838816
 10
319.401465749007
 20
211.2319365762143
 10
320.0965869712618
 20
211.8980959334006
 10
320.820672268318
 20
212.473740208988
 10
321.5773422876349
 20
212.9624977845001
 10
322.3593535245675
 20
213.3752272877156
 10
323.1558462464596
 20
213.711928718633
 10
324.2202525170235
 20
214.0594887773276
 10
325.2955196250991
 20
214.3056795461127
 10
326.3707867331799
 20
214.4722182805431
  0
LWPOLYLINE
  5
A0
330
70
100
AcDbEntity
  8
shade
 62
     6
420
 16711935
370
    25
100
AcDbPolyline
 90
        6
 70
     0
 43
0.0
 10
318.3986071706379
 20
201.272144199093
 10
318.4311918929003
 20
201.6233238003805
 10
318.4746363478029
 20
202.0686380258558
 10
318.5361840399986
 20
202.6008389514061
 10
318.6194534072131
 20
203.2054506163964
 10
318.7244455543114
 20
203.8788512684979
  0
LWPOLYLINE
  5
A1
330
70
100
AcDbEntity
  8
shade
 62
     6
420
 16711935
370
    25
100
AcDbPolyline
 90
       18
 70
     0
 43
0.0
 10
319.5788664258132
 20
189.33559763517
 10
319.3218159243843
 20
189.9546896802598
 10
319.0575252329052
 20
190.740322669513
 10
318.9561526283934
 20
191.0915044805312
 10
318.8656419662688
 20
191.45354712906
 10
318.7787519515924
 20
191.826450615098
 10
318.6991032318362
 20
192.2029758534609
 10
318.6266947021283
 20
192.5903619293317
 10
318.5615263624755
 20
192.9849870903882
 10
318.5036004226069
 20
193.3904752986857
 10
318.460154862834
 20
193.7380353573816
 10
318.420329950522
 20
194.1145605957432
 10
318.380505038211
 20
194.5164270517174
 10
318.3479214208154
 20
194.9508782299502
 10
318.3189584508817
 20
195.4070532929358
 10
318.2936150235396
 20
195.8958108684494
 10
318.2791335385697
 20
196.2650948118946
 10
318.2718922436546
 20
196.5257637510485
  0
LWPOLYLINE
  5
A2
330
70
100
AcDbEntity
  8
shade
 62
     6
420
 16711935
370
    25
100
AcDbPolyline
 90
       41
 70
     0
 43
0.0
 10
326.2078675413385
 20
183.752899552917
 10
325.900131290092
 20
183.7963451126864
 10
325.0529506086402
 20
183.9375426295067
 10
324.1442244447292
 20
184.143907381113
 10
323.1992918062287
 20
184.437161042529
 10
322.4426239966473
 20
184.74851683637
 10
321.6931952722454
 20
185.1431442071582
 10
320.9582491376786
 20
185.635521325265
 10
320.2450246781304
 20
186.2401329902537
 10
319.7417856176546
 20
186.7687165829449
 10
319.2602693370535
 20
187.3733260382006
 10
318.8113355689882
 20
188.0575875278113
 10
318.3986071706382
 20
188.8251183846388
 10
318.0220830371406
 20
189.6831576938643
 10
317.6890044634133
 20
190.6389511698715
 10
317.4066105346423
 20
191.6961161455203
 10
317.1966262404441
 20
192.7605202063547
 10
317.0300864011498
 20
193.9154371390533
 10
316.9178529591312
 20
195.1608647338827
 10
316.8526857243437
 20
196.4714573537689
 10
316.8345835919116
 20
197.8073956107331
 10
316.8563063718007
 20
199.1433316579614
 10
316.9431963864734
 20
200.7870061661734
 10
317.0916340933458
 20
202.3184461275017
 10
317.2943770926276
 20
203.7340342090864
 10
317.5478069465946
 20
205.0373877437894
 10
317.8519236552546
 20
206.232128483932
 10
318.1994837139467
 20
207.3254955147
 10
318.5687676573945
 20
208.2668064008744
 10
318.9742547608255
 20
209.1248457100999
 10
319.4087059390557
 20
209.9032374044358
 10
319.875741839553
 20
210.6019814838816
 10
320.3717396051179
 20
211.2319365762143
 10
320.9980740499894
 20
211.8980959334006
 10
321.6533703599344
 20
212.473740208988
 10
322.3376318495438
 20
212.9624977845001
 10
323.039994366715
 20
213.3752272877156
 10
323.7604579114464
 20
213.711928718633
 10
324.7234926823751
 20
214.0594887773276
 10
325.6937665384818
 20
214.3056795461127
 10
326.667659937184
 20
214.4722182805431
  0
LINE
  5
A3
330
70
100
AcDbEntity
  8
shade
 62
     6
420
 16711935
370
    25
100
AcDbLine
 10
326.667659937184
 20
214.4685987379503
 30
0.0
 11
326.6749012320991
 21
214.4070488360209
 31
0.0
  0
LWPOLYLINE
  5
A4
330
70
100
AcDbEntity
  8
shade
 62
     6
420
 16711935
370
    25
100
AcDbPolyline
 90
       38
 70
     0
 43
0.0
 10
319.5354208660444
 20
189.4369691348112
 10
319.3218159243843
 20
189.9546896802598
 10
319.0575252329052
 20
190.740322669513
 10
318.9597732758569
 20
191.0915044805312
 10
318.8656419662688
 20
191.45354712906
 10
318.7787519515924
 20
191.826450615098
 10
318.6991032318362
 20
192.2029758534609
 10
318.6266947021283
 20
192.5903619293317
 10
318.5615263624755
 20
192.9849870903882
 10
318.5036004226069
 20
193.3904752986857
 10
318.460154862834
 20
193.7380353573816
 10
318.420329950522
 20
194.1145605957432
 10
318.380505038211
 20
194.5164270517174
 10
318.3479214208154
 20
194.9508782299502
 10
318.3189584508817
 20
195.4070532929358
 10
318.2936150235396
 20
195.8958108684494
 10
318.2791335385697
 20
196.2650948118946
 10
318.2682727010631
 20
196.6597199729512
 10
318.2574107586857
 20
197.0941711511849
 10
318.2537901112238
 20
197.5720678891893
 10
318.2574107586857
 20
198.0934079772291
 10
318.2646520536047
 20
198.6509545398578
 10
318.322579098344
 20
200.1498119886567
 10
318.3334399358503
 20
200.3416941504305
 10
318.3443007733574
 20
200.5299567696111
 10
318.3587833631928
 20
200.71821717906
 10
318.3696442006991
 20
200.9064797982407
 10
318.3841256856693
 20
201.0875011225049
 10
318.3986071706379
 20
201.272144199093
 10
318.4311918929003
 20
201.6233238003805
 10
318.4746363478029
 20
202.0686380258558
 10
318.5361840399986
 20
202.6008389514061
 10
318.6194534072131
 20
203.2054506163964
 10
318.7244455543114
 20
203.8788512684979
 10
318.9489124383451
 20
205.0156616493043
 10
319.1987216448578
 20
206.0330050272421
 10
319.477494926172
 20
206.9453507337456
 10
319.5390415135012
 20
207.111889468176
  0
LWPOLYLINE
  5
A5
330
70
100
AcDbEntity
  8
shade
 62
     6
420
 16711935
370
    25
100
AcDbPolyline
 90
        6
 70
     0
 43
0.0
 10
319.9879741767064
 20
201.272144199093
 10
320.0133176040472
 20
201.6233238003805
 10
320.0531425163595
 20
202.0686380258558
 10
320.1074489136401
 20
202.6008389514061
 10
320.1762367958848
 20
203.2054506163964
 10
320.2667474580193
 20
203.8788512684979
  0
LWPOLYLINE
  5
A6
330
70
100
AcDbEntity
  8
shade
 62
     6
420
 16711935
370
    25
100
AcDbPolyline
 90
       19
 70
     0
 43
0.0
 10
321.3275319762596
 20
188.5535863982413
 10
321.0378978574349
 20
189.2269848406108
 10
320.7772278134141
 20
189.9546896802598
 10
320.5527609293822
 20
190.740322669513
 10
320.4658709147095
 20
191.0915044805312
 10
320.3862210900878
 20
191.45354712906
 10
320.3101930177884
 20
191.826450615098
 10
320.2450246781304
 20
192.2029758534609
 10
320.1834780907999
 20
192.5903619293317
 10
320.125551046062
 20
192.9849870903882
 10
320.0784848388348
 20
193.3904752986857
 10
320.0386610313893
 20
193.7380353573816
 10
320.0060763091321
 20
194.1145605957432
 10
319.9734926917365
 20
194.5164270517174
 10
319.9409090743407
 20
194.9508782299502
 10
319.9155656469985
 20
195.4070532929358
 10
319.8974635145719
 20
195.8958108684494
 10
319.8829820296017
 20
196.2650948118946
 10
319.875741839553
 20
196.5257637510485
  0
LINE
  5
A7
330
70
100
AcDbEntity
  8
shade
 62
     6
420
 16711935
370
    25
100
AcDbLine
 10
327.0260830431198
 20
183.760140847835
 30
0.0
 11
327.0224635005283
 21
183.752899552917
 31
0.0
  0
LWPOLYLINE
  5
A8
330
70
100
AcDbEntity
  8
shade
 62
     6
420
 16711935
370
    25
100
AcDbPolyline
 90
       41
 70
     0
 43
0.0
 10
326.6133535399043
 20
183.752899552917
 10
326.345443305834
 20
183.7963451126864
 10
325.6068754189437
 20
183.9375426295067
 10
324.8103815921809
 20
184.143907381113
 10
323.9849247954796
 20
184.437161042529
 10
323.3260067332162
 20
184.74851683637
 10
322.6707104232724
 20
185.1431442071582
 10
322.0262749508392
 20
185.635521325265
 10
321.4071818008826
 20
186.2401329902537
 10
320.9654893277283
 20
186.7687165829449
 10
320.5455207393322
 20
187.3733260382006
 10
320.1545140160007
 20
188.0575875278113
 10
319.7924713674733
 20
188.8251183846388
 10
319.4630123363366
 20
189.6831576938643
 10
319.173378217517
 20
190.6389511698715
 10
318.9271896584597
 20
191.6961161455203
 10
318.7425476867384
 20
192.7605202063547
 10
318.5977306273281
 20
193.9154371390533
 10
318.499979775145
 20
195.1608647338827
 10
318.442052730407
 20
196.4714573537689
 10
318.4275712454371
 20
197.8073956107331
 10
318.4456733778692
 20
199.1433316579614
 10
318.52170255503
 20
200.7870061661734
 10
318.6520370246087
 20
202.3184461275017
 10
318.8258181588185
 20
203.7340342090864
 10
319.0502839379866
 20
205.0373877437894
 10
319.3145757343344
 20
206.232128483932
 10
319.6186913381242
 20
207.3254955147
 10
319.9409090743407
 20
208.2668064008744
 10
320.2957104279529
 20
209.1248457100999
 10
320.6758552089074
 20
209.9032374044358
 10
321.0849640646658
 20
210.6019814838816
 10
321.5157945954393
 20
211.2319365762143
 10
322.062479215688
 20
211.8980959334006
 10
322.6345061584185
 20
212.473740208988
 10
323.2318765284897
 20
212.9624977845001
 10
323.8473490309893
 20
213.3752272877156
 10
324.4773019135871
 20
213.711928718633
 10
325.3172413001189
 20
214.0594887773276
 10
326.168041524161
 20
214.3056795461127
 10
327.0152222056132
 20
214.4722182805431
  0
LINE
  5
A9
330
70
100
AcDbEntity
  8
shade
 62
     6
420
 16711935
370
    25
100
AcDbLine
 10
327.0152222056132
 20
214.4685987379503
 30
0.0
 11
327.0260830431198
 21
214.3817076184109
 31
0.0
  0
LWPOLYLINE
  5
AA
330
70
100
AcDbEntity
  8
shade
 62
     6
420
 16711935
370
    25
100
AcDbPolyline
 90
       50
 70
     0
 43
0.0
 10
321.7330201845561
 20
187.8186380539426
 10
321.6678529497685
 20
187.9127704683994
 10
321.3275319762596
 20
188.5535863982413
 10
321.0378978574349
 20
189.2269848406108
 10
320.7772278134141
 20
189.9546896802598
 10
320.5527609293822
 20
190.740322669513
 10
320.4658709147095
 20
191.0915044805312
 10
320.3862210900878
 20
191.45354712906
 10
320.3101930177884
 20
191.826450615098
 10
320.2450246781304
 20
192.2029758534609
 10
320.1834780907999
 20
192.5903619293317
 10
320.125551046062
 20
192.9849870903882
 10
320.0784848388348
 20
193.3904752986857
 10
320.0386610313893
 20
193.7380353573816
 10
320.0060763091321
 20
194.1145605957432
 10
319.9734926917365
 20
194.5164270517174
 10
319.9409090743407
 20
194.9508782299502
 10
319.9155656469985
 20
195.4070532929358
 10
319.8974635145719
 20
195.8958108684494
 10
319.8829820296017
 20
196.2650948118946
 10
319.875741839553
 20
196.6597199729512
 10
319.8685005446331
 20
197.0941711511849
 10
319.8648798971799
 20
197.5720678891893
 10
319.8648798971799
 20
198.0934079772291
 10
319.872121192095
 20
198.6509545398578
 10
319.9228069419137
 20
200.1498119886567
 10
319.9300482368339
 20
200.3416941504305
 10
319.9409090743407
 20
200.5299567696111
 10
319.9517699118525
 20
200.71821717906
 10
319.9626318542247
 20
200.9064797982407
 10
319.9734926917365
 20
201.0875011225049
 10
319.9879741767064
 20
201.272144199093
 10
320.0133176040472
 20
201.6233238003805
 10
320.0531425163595
 20
202.0686380258558
 10
320.1074489136401
 20
202.6008389514061
 10
320.1762367958848
 20
203.2054506163964
 10
320.2667474580193
 20
203.8788512684979
 10
320.4550100771977
 20
205.0156616493043
 10
320.6722356663158
 20
206.0330050272421
 10
320.9111829304516
 20
206.9453507337456
 10
321.0777227697469
 20
207.4920342491305
 10
321.255123446553
 20
207.9988939570708
 10
321.294948358864
 20
208.1075067516287
 10
321.3347732711747
 20
208.2125000035948
 10
321.374598183487
 20
208.3174932555612
 10
321.4180426383893
 20
208.4224865075276
 10
321.4578675507013
 20
208.5238557974358
 10
321.5013131104742
 20
208.6216099642188
 10
321.5411380227814
 20
208.7193597115355
 10
321.7981874193437
 20
209.2588041417343
  0
LWPOLYLINE
  5
AB
330
70
100
AcDbEntity
  8
shade
 62
     6
420
 16711935
370
    25
100
AcDbPolyline
 90
       35
 70
     0
 43
0.0
 10
322.8481099952079
 20
188.5535863982413
 10
322.6091638359416
 20
189.2269848406108
 10
322.3991784368734
 20
189.9546896802598
 10
322.2181571126101
 20
190.740322669513
 10
322.1457485829074
 20
191.0915044805312
 10
322.0842019955769
 20
191.45354712906
 10
322.0226543033808
 20
191.826450615098
 10
321.9683479061012
 20
192.2029758534609
 10
321.9176621562774
 20
192.5903619293317
 10
321.8742165965096
 20
192.9849870903882
 10
321.8307721416061
 20
193.3904752986857
 10
321.8018080668069
 20
193.7380353573816
 10
321.7728450968681
 20
194.1145605957432
 10
321.7475016695209
 20
194.5164270517174
 10
321.7221593470494
 20
194.9508782299502
 10
321.7004365671654
 20
195.4070532929358
 10
321.6859550821955
 20
195.8958108684494
 10
321.6750931398185
 20
196.2650948118946
 10
321.6678529497685
 20
196.6597199729512
 10
321.6606116548496
 20
197.0941711511849
 10
321.6569910073915
 20
197.5720678891893
 10
321.6606116548496
 20
198.0934079772291
 10
321.6642323023117
 20
198.6509545398578
 10
321.7040572146186
 20
200.1498119886567
 10
321.7149180521292
 20
200.3416941504305
 10
321.7221593470494
 20
200.5299567696111
 10
321.7293995370994
 20
200.71821717906
 10
321.7402614794713
 20
200.9064797982407
 10
321.7511223169831
 20
201.0875011225049
 10
321.7583636119034
 20
201.272144199093
 10
321.7800852869168
 20
201.6233238003805
 10
321.8126700091791
 20
202.0686380258558
 10
321.8561144640827
 20
202.6008389514061
 10
321.9140415088207
 20
203.2054506163964
 10
321.9864500385282
 20
203.8788512684979
  0
LINE
  5
AC
330
70
100
AcDbEntity
  8
shade
 62
     6
420
 16711935
370
    25
100
AcDbLine
 10
327.4243299565013
 20
183.7891038177696
 30
0.0
 11
327.4207104139097
 21
183.752899552917
 31
0.0
  0
LWPOLYLINE
  5
AD
330
70
100
AcDbEntity
  8
shade
 62
     6
420
 16711935
370
    25
100
AcDbPolyline
 90
       41
 70
     0
 43
0.0
 10
327.0731481454805
 20
183.752899552917
 10
326.8523030137756
 20
183.7963451126864
 10
326.2332087589487
 20
183.9375426295067
 10
325.5670516114982
 20
184.143907381113
 10
324.8791705792959
 20
184.437161042529
 10
324.3288653115853
 20
184.74851683637
 10
323.7785600438784
 20
185.1431442071582
 10
323.2427373660016
 20
185.635521325265
 10
322.7213961730898
 20
186.2401329902537
 10
322.3557339819708
 20
186.7687165829449
 10
322.00455217095
 20
187.3733260382006
 10
321.6750931398185
 20
188.0575875278113
 10
321.374598183487
 20
188.8251183846388
 10
321.0994455496309
 20
189.6831576938643
 10
320.8568765331719
 20
190.6389511698715
 10
320.6505128864269
 20
191.6961161455203
 10
320.4948338846432
 20
192.7605202063547
 10
320.3753602525759
 20
193.9154371390533
 10
320.2920908853614
 20
195.1608647338827
 10
320.2450246781304
 20
196.4714573537689
 10
320.2305431931654
 20
197.8073956107331
 10
320.2486453255872
 20
199.1433316579614
 10
320.3138125603799
 20
200.7870061661734
 10
320.4188058123451
 20
202.3184461275017
 10
320.5672424143508
 20
203.7340342090864
 10
320.7518843860721
 20
205.0373877437894
 10
320.9763512701095
 20
206.232128483932
 10
321.2297811240765
 20
207.3254955147
 10
321.4976924630123
 20
208.2668064008744
 10
321.7945678767573
 20
209.1248457100999
 10
322.1131649655105
 20
209.9032374044358
 10
322.4534848341539
 20
210.6019814838816
 10
322.8119068352246
 20
211.2319365762143
 10
323.2717003359352
 20
211.8980959334006
 10
323.7495970739396
 20
212.473740208988
 10
324.2492154869572
 20
212.9624977845001
 10
324.7633164898206
 20
213.3752272877156
 10
325.288278330184
 20
213.711928718633
 10
325.9906419522256
 20
214.0594887773276
 10
326.7002446594464
 20
214.3056795461127
 10
327.4098473666671
 20
214.4722182805431
  0
LINE
  5
AE
330
70
100
AcDbEntity
  8
shade
 62
     6
420
 16711935
370
    25
100
AcDbLine
 10
327.4098473666671
 20
214.4685987379503
 30
0.0
 11
327.4279494990941
 21
214.3491228961498
 31
0.0
  0
LWPOLYLINE
  5
AF
330
70
100
AcDbEntity
  8
shade
 62
     6
420
 16711935
370
    25
100
AcDbPolyline
 90
       47
 70
     0
 43
0.0
 10
324.4954040460141
 20
188.5535863982413
 10
324.3180044740773
 20
189.2269848406108
 10
324.1587048248326
 20
189.9546896802598
 10
324.0247486029251
 20
190.740322669513
 10
323.9704422056494
 20
191.0915044805312
 10
323.9233771032887
 20
191.45354712906
 10
323.876312000923
 20
191.826450615098
 10
323.8364881934775
 20
192.2029758534609
 10
323.8002839286236
 20
192.5903619293317
 10
323.7640796637696
 20
192.9849870903882
 10
323.7351144841043
 20
193.3904752986857
 10
323.7133928090857
 20
193.7380353573816
 10
323.6916711340672
 20
194.1145605957432
 10
323.6699472493167
 20
194.5164270517174
 10
323.6518451168897
 20
194.9508782299502
 10
323.6373647367914
 20
195.4070532929358
 10
323.622882146956
 20
195.8958108684494
 10
323.615640852037
 20
196.2650948118946
 10
323.6120213094442
 20
196.6597199729512
 10
323.6083995571219
 20
197.0941711511849
 10
323.6047800145252
 20
197.5720678891893
 10
323.6047800145252
 20
198.0934079772291
 10
323.6083995571219
 20
198.6509545398578
 10
323.6409842793792
 20
200.1498119886567
 10
323.6446038219745
 20
200.3416941504305
 10
323.6518451168897
 20
200.5299567696111
 10
323.6590864118061
 20
200.71821717906
 10
323.6663277067251
 20
200.9064797982407
 10
323.6735690016454
 20
201.0875011225049
 10
323.6808080868247
 20
201.272144199093
 10
323.6952906766588
 20
201.6233238003805
 10
323.7206341040009
 20
202.0686380258558
 10
323.7532166165309
 20
202.6008389514061
 10
323.7930426337084
 20
203.2054506163964
 10
323.8509685735809
 20
203.8788512684979
 10
323.9668226630578
 20
205.0156616493043
 10
324.097157132633
 20
206.0330050272421
 10
324.241974192042
 20
206.9453507337456
 10
324.3433479014194
 20
207.4920342491305
 10
324.4519606959757
 20
207.9988939570708
 10
324.4736823709942
 20
208.1075067516287
 10
324.4990257983415
 20
208.2125000035948
 10
324.5243692256785
 20
208.3174932555612
 10
324.5497104432898
 20
208.4224865075276
 10
324.5750538706409
 20
208.5238557974358
 10
324.6003972979779
 20
208.6216099642188
 10
324.6257407253251
 20
208.7193597115355
  0
LWPOLYLINE
  5
B0
330
70
100
AcDbEntity
  8
shade
 62
     6
420
 16711935
370
    25
100
AcDbPolyline
 90
        7
 70
     0
 43
0.0
 10
325.5634298591746
 20
186.2220308578267
 10
325.5091234618937
 20
186.2980611398572
 10
325.4367149321862
 20
186.40305218209
 10
325.3715476973986
 20
186.5008041391396
 10
325.3136217575261
 20
186.5949343438647
 10
325.2665566551655
 20
186.6782059208113
 10
325.2231110953964
 20
186.7542339931095
  0
LINE
  5
B1
330
70
100
AcDbEntity
  8
shade
 62
     6
420
 16711935
370
    25
100
AcDbLine
 10
327.8442985449009
 20
214.4685987379503
 30
0.0
 11
327.8732637245665
 21
214.2803339090376
 31
0.0
  0
LINE
  5
B2
330
70
100
AcDbEntity
  8
shade
 62
     6
420
 16711935
370
    25
100
AcDbLine
 10
327.869641972243
 20
183.850651509966
 30
0.0
 11
327.8551615921447
 21
183.752899552917
 31
0.0
  0
LWPOLYLINE
  5
B3
330
70
100
AcDbEntity
  8
shade
 62
     6
420
 16711935
370
    25
100
AcDbPolyline
 90
       53
 70
     0
 43
0.0
 10
323.7133928090857
 20
186.9135336423555
 10
323.4491021176079
 20
187.308158803412
 10
323.1232637339296
 20
187.9127704683994
 10
322.8481099952079
 20
188.5535863982413
 10
322.6091638359416
 20
189.2269848406108
 10
322.3991784368734
 20
189.9546896802598
 10
322.2181571126101
 20
190.740322669513
 10
322.1493692303645
 20
191.0915044805312
 10
322.0842019955769
 20
191.45354712906
 10
322.0226543033808
 20
191.826450615098
 10
321.9683479061012
 20
192.2029758534609
 10
321.9176621562774
 20
192.5903619293317
 10
321.8742165965096
 20
192.9849870903882
 10
321.8307721416061
 20
193.3904752986857
 10
321.8018080668069
 20
193.7380353573816
 10
321.7728450968681
 20
194.1145605957432
 10
321.7475016695209
 20
194.5164270517174
 10
321.7221593470494
 20
194.9508782299502
 10
321.7004365671654
 20
195.4070532929358
 10
321.6859550821955
 20
195.8958108684494
 10
321.6750931398185
 20
196.2650948118946
 10
321.6678529497685
 20
196.6597199729512
 10
321.6606116548496
 20
197.0941711511849
 10
321.6569910073915
 20
197.5720678891893
 10
321.6606116548496
 20
198.0934079772291
 10
321.6642323023117
 20
198.6509545398578
 10
321.7040572146186
 20
200.1498119886567
 10
321.7149180521292
 20
200.3416941504305
 10
321.7221593470494
 20
200.5299567696111
 10
321.7293995370994
 20
200.71821717906
 10
321.7402614794713
 20
200.9064797982407
 10
321.7511223169831
 20
201.0875011225049
 10
321.7583636119034
 20
201.272144199093
 10
321.7800852869168
 20
201.6233238003805
 10
321.8126700091791
 20
202.0686380258558
 10
321.8561144640827
 20
202.6008389514061
 10
321.9140415088207
 20
203.2054506163964
 10
321.9864500385282
 20
203.8788512684979
 10
322.1385083928578
 20
205.0156616493043
 10
322.3159090696588
 20
206.0330050272421
 10
322.5077912314349
 20
206.9453507337456
 10
322.6453681007904
 20
207.4920342491305
 10
322.7865645127478
 20
207.9988939570708
 10
322.8191481301449
 20
208.1075067516287
 10
322.8517317475353
 20
208.2125000035948
 10
322.8879360123841
 20
208.3174932555612
 10
322.9205185249145
 20
208.4224865075276
 10
322.9531032471769
 20
208.5238557974358
 10
322.9856879694393
 20
208.6216099642188
 10
323.0218922342932
 20
208.7193597115355
 10
323.2934242206858
 20
209.4289624187562
 10
323.5685757496764
 20
210.0227132462372
 10
323.8002839286236
 20
210.4571644244713
  0
LWPOLYLINE
  5
B4
330
70
100
AcDbEntity
  8
shade
 62
     6
420
 16711935
370
    25
100
AcDbPolyline
 90
       41
 70
     0
 43
0.0
 10
327.5872491483385
 20
183.7492800103241
 10
327.4062278240743
 20
183.7963451126864
 10
326.921089791156
 20
183.9375426295067
 10
326.3997497031149
 20
184.143907381113
 10
325.8603052729145
 20
184.437161042529
 10
325.4258540946756
 20
184.74851683637
 10
324.9986442113644
 20
185.1431442071582
 10
324.5750538706409
 20
185.635521325265
 10
324.1695656623392
 20
186.2401329902537
 10
323.8799315435145
 20
186.7687165829449
 10
323.6047800145252
 20
187.3733260382006
 10
323.3477306179667
 20
188.0575875278113
 10
323.1124028964226
 20
188.8251183846388
 10
322.8951773073045
 20
189.6831576938643
 10
322.7069146881248
 20
190.6389511698715
 10
322.5439954962836
 20
191.6961161455203
 10
322.4245218642203
 20
192.7605202063547
 10
322.3303905546287
 20
193.9154371390533
 10
322.265223319836
 20
195.1608647338827
 10
322.2290190549875
 20
196.4714573537689
 10
322.2181571126101
 20
197.8073956107331
 10
322.2290190549875
 20
199.1433316579614
 10
322.2797048048061
 20
200.7870061661734
 10
322.3629741720207
 20
202.3184461275017
 10
322.478828261496
 20
203.7340342090864
 10
322.6236453209066
 20
205.0373877437894
 10
322.7974253502596
 20
206.232128483932
 10
323.0001683495375
 20
207.3254955147
 10
323.2101526437405
 20
208.2668064008744
 10
323.4418608226928
 20
209.1248457100999
 10
323.6916711340672
 20
209.9032374044358
 10
323.9595813681376
 20
210.6019814838816
 10
324.241974192042
 20
211.2319365762143
 10
324.6003972979779
 20
211.8980959334006
 10
324.9733007840172
 20
212.473740208988
 10
325.3643064024835
 20
212.9624977845001
 10
325.76979461078
 20
213.3752272877156
 10
326.1825241139965
 20
213.711928718633
 10
326.7328293817036
 20
214.0594887773276
 10
327.2867541920071
 20
214.3056795461127
 10
327.8442985449009
 20
214.4722182805431
  0
LWPOLYLINE
  5
B5
330
70
100
AcDbEntity
  8
shade
 62
     6
420
 16711935
370
    25
100
AcDbPolyline
 90
       61
 70
     0
 43
0.0
 10
325.541708184151
 20
186.2546155800865
 10
325.5091234618937
 20
186.2980611398572
 10
325.4367149321862
 20
186.40305218209
 10
325.3715476973986
 20
186.5008041391396
 10
325.3136217575261
 20
186.5949343438647
 10
325.2665566551655
 20
186.6782059208113
 10
325.2231110953964
 20
186.7542339931095
 10
324.9443378140835
 20
187.308158803412
 10
324.7017687976194
 20
187.9127704683994
 10
324.4954040460141
 20
188.5535863982413
 10
324.3180044740773
 20
189.2269848406108
 10
324.1623265771561
 20
189.9546896802598
 10
324.0247486029251
 20
190.740322669513
 10
323.9704422056494
 20
191.0915044805312
 10
323.9233771032887
 20
191.45354712906
 10
323.876312000923
 20
191.826450615098
 10
323.8364881934775
 20
192.2029758534609
 10
323.8002839286236
 20
192.5903619293317
 10
323.7640796637696
 20
192.9849870903882
 10
323.7351144841043
 20
193.3904752986857
 10
323.7133928090857
 20
193.7380353573816
 10
323.6916711340672
 20
194.1145605957432
 10
323.6699472493167
 20
194.5164270517174
 10
323.6518451168897
 20
194.9508782299502
 10
323.6373647367914
 20
195.4070532929358
 10
323.622882146956
 20
195.8958108684494
 10
323.615640852037
 20
196.2650948118946
 10
323.6120213094442
 20
196.6597199729512
 10
323.6083995571219
 20
197.0941711511849
 10
323.6047800145252
 20
197.5720678891893
 10
323.6047800145252
 20
198.0934079772291
 10
323.6083995571219
 20
198.6509545398578
 10
323.6409842793792
 20
200.1498119886567
 10
323.6446038219745
 20
200.3416941504305
 10
323.6518451168897
 20
200.5299567696111
 10
323.6590864118061
 20
200.71821717906
 10
323.6663277067251
 20
200.9064797982407
 10
323.6735690016454
 20
201.0875011225049
 10
323.6808080868247
 20
201.272144199093
 10
323.6952906766588
 20
201.6233238003805
 10
323.7206341040009
 20
202.0686380258558
 10
323.7532166165309
 20
202.6008389514061
 10
323.7930426337084
 20
203.2054506163964
 10
323.8509685735809
 20
203.8788512684979
 10
323.9668226630578
 20
205.0156616493043
 10
324.097157132633
 20
206.0330050272421
 10
324.241974192042
 20
206.9453507337456
 10
324.3433479014194
 20
207.4920342491305
 10
324.4519606959757
 20
207.9988939570708
 10
324.4736823709942
 20
208.1075067516287
 10
324.4990257983415
 20
208.2125000035948
 10
324.5243692256785
 20
208.3174932555612
 10
324.5497104432898
 20
208.4224865075276
 10
324.5750538706409
 20
208.5238557974358
 10
324.6003972979779
 20
208.6216099642188
 10
324.6257407253251
 20
208.7193597115355
 10
324.8284837246079
 20
209.4289624187562
 10
325.0348484762184
 20
210.0227132462372
 10
325.237591475496
 20
210.525953411585
 10
325.4367149321862
 20
210.9459219999834
 10
325.6430796837976
 20
211.3260667809377
  0
LWPOLYLINE
  5
B6
330
70
100
AcDbEntity
  8
shade
 62
     6
420
 16711935
370
    25
100
AcDbPolyline
 90
       60
 70
     0
 43
0.0
 10
326.2404500538689
 20
188.5535863982413
 10
326.1245959643936
 20
189.2269848406108
 10
326.0232244647521
 20
189.9546896802598
 10
325.9327138026173
 20
190.740322669513
 10
325.900131290092
 20
191.0915044805312
 10
325.8675465678296
 20
191.45354712906
 10
325.838583597896
 20
191.826450615098
 10
325.8132401705487
 20
192.2029758534609
 10
325.7878967432069
 20
192.5903619293317
 10
325.7661750681884
 20
192.9849870903882
 10
325.7480729357614
 20
193.3904752986857
 10
325.7335903459273
 20
193.7380353573816
 10
325.7191099658278
 20
194.1145605957432
 10
325.7082469185852
 20
194.5164270517174
 10
325.6937665384818
 20
194.9508782299502
 10
325.6865252435654
 20
195.4070532929358
 10
325.6756644060587
 20
195.8958108684494
 10
325.6720426537313
 20
196.2650948118946
 10
325.6684231111397
 20
196.6597199729512
 10
325.6648035685469
 20
197.0941711511849
 10
325.6648035685469
 20
197.5720678891893
 10
325.6648035685469
 20
198.0934079772291
 10
325.6684231111397
 20
198.6509545398578
 10
325.6865252435654
 20
200.1498119886567
 10
325.6901447861583
 20
200.3416941504305
 10
325.6937665384818
 20
200.5299567696111
 10
325.6973860810734
 20
200.71821717906
 10
325.7046273759924
 20
200.9064797982407
 10
325.7082469185852
 20
201.0875011225049
 10
325.7118686709075
 20
201.272144199093
 10
325.7227295084193
 20
201.6233238003805
 10
325.7372120982497
 20
202.0686380258558
 10
325.7589337732733
 20
202.6008389514061
 10
325.7878967432069
 20
203.2054506163964
 10
325.8241010080606
 20
203.8788512684979
 10
325.8965095377633
 20
205.0156616493043
 10
325.9834006573066
 20
206.0330050272421
 10
326.0739113194363
 20
206.9453507337456
 10
326.1426980968151
 20
207.4920342491305
 10
326.2114870839353
 20
207.9988939570708
 10
326.2259696737655
 20
208.1075067516287
 10
326.2404500538689
 20
208.2125000035948
 10
326.2585521862907
 20
208.3174932555612
 10
326.2730347761262
 20
208.4224865075276
 10
326.2911369085531
 20
208.5238557974358
 10
326.3056172886565
 20
208.6216099642188
 10
326.3237194210835
 20
208.7193597115355
 10
326.4540561003907
 20
209.4289624187562
 10
326.588012322293
 20
210.0227132462372
 10
326.7183467918682
 20
210.525953411585
 10
326.8450617188569
 20
210.9459219999834
 10
326.9826374833508
 20
211.3369298281804
 10
327.112974162658
 20
211.6519051646152
 10
327.1419371325965
 20
211.7134506470779
 10
327.1709001025302
 20
211.7713810064144
 10
327.1962435298774
 20
211.8293069462869
 10
327.2215869572195
 20
211.8836133435652
 10
327.2505499271531
 20
211.9343001982533
 10
327.2758933544991
 20
211.9813630908815
 10
327.3012345721105
 20
212.028430402978
  0
LWPOLYLINE
  5
B7
330
70
100
AcDbEntity
  8
shade
 62
     6
420
 16711935
370
    25
100
AcDbPolyline
 90
       10
 70
     0
 43
0.0
 10
327.2179652048959
 20
185.7115516072962
 10
327.1419371325965
 20
185.8274056967702
 10
327.0478047181384
 20
185.9867031362832
 10
326.9428136759053
 20
186.1894483452993
 10
326.8921268212172
 20
186.2980611398572
 10
326.8450617188566
 20
186.40305218209
 10
326.8052379114112
 20
186.5008041391396
 10
326.7690336465575
 20
186.5949343438647
 10
326.7364489243003
 20
186.6782059208113
 10
326.7074859543614
 20
186.7542339931095
  0
LINE
  5
B8
330
70
100
AcDbEntity
  8
shade
 62
     6
420
 16711935
370
    25
100
AcDbLine
 10
328.3620213000828
 20
184.0063294068868
 30
0.0
 11
328.3185757403137
 21
183.752899552917
 31
0.0
  0
LWPOLYLINE
  5
B9
330
70
100
AcDbEntity
  8
shade
 62
     6
420
 16711935
370
    25
100
AcDbPolyline
 90
       41
 70
     0
 43
0.0
 10
328.1230718262154
 20
183.752899552917
 10
327.9999786515553
 20
183.7963451126864
 10
327.6560381354536
 20
183.9375426295067
 10
327.2903737345986
 20
184.143907381113
 10
326.9102289536442
 20
184.437161042529
 10
326.60611445472
 20
184.74851683637
 10
326.3019977460599
 20
185.1431442071582
 10
326.0051223323251
 20
185.635521325265
 10
325.7191099658278
 20
186.2401329902537
 10
325.516364756814
 20
186.7687165829449
 10
325.3208630524464
 20
187.3733260382006
 10
325.1398417281819
 20
188.0575875278113
 10
324.9733007840172
 20
188.8251183846388
 10
324.8212424296879
 20
189.6831576938643
 10
324.6872884175212
 20
190.6389511698715
 10
324.5750538706409
 20
191.6961161455203
 10
324.4881649608297
 20
192.7605202063547
 10
324.4229955163114
 20
193.9154371390533
 10
324.3759304139459
 20
195.1608647338827
 10
324.3505869866038
 20
196.4714573537689
 10
324.3433479014194
 20
197.8073956107331
 10
324.3505869866038
 20
199.1433316579614
 10
324.3867912514577
 20
200.7870061661734
 10
324.4447194010609
 20
202.3184461275017
 10
324.5279887682752
 20
203.7340342090864
 10
324.6293602679167
 20
205.0373877437894
 10
324.7524556523087
 20
206.232128483932
 10
324.8936509593955
 20
207.3254955147
 10
325.0420897711335
 20
208.2668064008744
 10
325.2050089629707
 20
209.1248457100999
 10
325.3824085349066
 20
209.9032374044358
 10
325.5706711540898
 20
210.6019814838816
 10
325.76979461078
 20
211.2319365762143
 10
326.0196049221592
 20
211.8980959334006
 10
326.2875151562295
 20
212.473740208988
 10
326.5626688949509
 20
212.9624977845001
 10
326.8450617188566
 20
213.3752272877156
 10
327.1383153802678
 20
213.711928718633
 10
327.5257014561425
 20
214.0594887773276
 10
327.9167070746087
 20
214.3056795461127
 10
328.307714902807
 20
214.4722182805431
  0
LINE
  5
BA
330
70
100
AcDbEntity
  8
shade
 62
     6
420
 16711935
370
    25
100
AcDbLine
 10
328.307714902807
 20
214.4685987379503
 30
0.0
 11
328.3765016801861
 21
214.0812104523461
 31
0.0
  0
LWPOLYLINE
  5
BB
330
70
100
AcDbEntity
  8
shade
 62
     6
420
 16711935
370
    25
100
AcDbPolyline
 90
       72
 70
     0
 43
0.0
 10
327.2143456622992
 20
185.7187929022129
 10
327.1419371325965
 20
185.8274056967702
 10
327.0478047181384
 20
185.9867031362832
 10
326.9428136759053
 20
186.1894483452993
 10
326.8921268212172
 20
186.2980611398572
 10
326.8450617188566
 20
186.40305218209
 10
326.8052379114112
 20
186.5008041391396
 10
326.7690336465575
 20
186.5949343438647
 10
326.7364489243003
 20
186.6782059208113
 10
326.7074859543614
 20
186.7542339931095
 10
326.5300841726898
 20
187.308158803412
 10
326.3744062757677
 20
187.9127704683994
 10
326.2404500538689
 20
188.5535863982413
 10
326.1245959643936
 20
189.2269848406108
 10
326.0232244647521
 20
189.9546896802598
 10
325.9327138026173
 20
190.740322669513
 10
325.900131290092
 20
191.0915044805312
 10
325.8675465678296
 20
191.45354712906
 10
325.838583597896
 20
191.826450615098
 10
325.8132401705487
 20
192.2029758534609
 10
325.7878967432069
 20
192.5903619293317
 10
325.7661750681884
 20
192.9849870903882
 10
325.7480729357614
 20
193.3904752986857
 10
325.7335903459273
 20
193.7380353573816
 10
325.7191099658278
 20
194.1145605957432
 10
325.7082469185852
 20
194.5164270517174
 10
325.6937665384818
 20
194.9508782299502
 10
325.6865252435654
 20
195.4070532929358
 10
325.6756644060587
 20
195.8958108684494
 10
325.6720426537313
 20
196.2650948118946
 10
325.6684231111397
 20
196.6597199729512
 10
325.6648035685469
 20
197.0941711511849
 10
325.6648035685469
 20
197.5720678891893
 10
325.6648035685469
 20
198.0934079772291
 10
325.6684231111397
 20
198.6509545398578
 10
325.6865252435654
 20
200.1498119886567
 10
325.6901447861583
 20
200.3416941504305
 10
325.6937665384818
 20
200.5299567696111
 10
325.6973860810734
 20
200.71821717906
 10
325.7046273759924
 20
200.9064797982407
 10
325.7082469185852
 20
201.0875011225049
 10
325.7118686709075
 20
201.272144199093
 10
325.7227295084193
 20
201.6233238003805
 10
325.7372120982497
 20
202.0686380258558
 10
325.7589337732733
 20
202.6008389514061
 10
325.7878967432069
 20
203.2054506163964
 10
325.8241010080606
 20
203.8788512684979
 10
325.8965095377633
 20
205.0156616493043
 10
325.9834006573066
 20
206.0330050272421
 10
326.0739113194363
 20
206.9453507337456
 10
326.1426980968151
 20
207.4920342491305
 10
326.2114870839353
 20
207.9988939570708
 10
326.2259696737655
 20
208.1075067516287
 10
326.2404500538689
 20
208.2125000035948
 10
326.2585521862907
 20
208.3174932555612
 10
326.2730347761262
 20
208.4224865075276
 10
326.2911369085531
 20
208.5238557974358
 10
326.3056172886565
 20
208.6216099642188
 10
326.3237194210835
 20
208.7193597115355
 10
326.4540561003907
 20
209.4289624187562
 10
326.588012322293
 20
210.0227132462372
 10
326.7183467918682
 20
210.525953411585
 10
326.8450617188569
 20
210.9459219999834
 10
326.9826374833508
 20
211.3369298281804
 10
327.112974162658
 20
211.6519051646152
 10
327.1419371325965
 20
211.7134506470779
 10
327.1709001025302
 20
211.7713810064144
 10
327.1962435298774
 20
211.8293069462869
 10
327.2215869572195
 20
211.8836133435652
 10
327.2505499271531
 20
211.9343001982533
 10
327.2758933544991
 20
211.9813630908815
 10
327.3012345721105
 20
212.028430402978
  0
LWPOLYLINE
  5
BC
330
70
100
AcDbEntity
  8
shade
 62
     6
420
 16711935
370
    25
100
AcDbPolyline
 90
       87
 70
     0
 43
0.0
 10
328.6516554189075
 20
185.2481374591259
 10
328.6444141239873
 20
185.255376544309
 10
328.6154511540536
 20
185.3133046939151
 10
328.5973490216266
 20
185.3531285013593
 10
328.5792468891996
 20
185.3929545185365
 10
328.5611447567727
 20
185.4400196208981
 10
328.5394208720183
 20
185.4943260181777
 10
328.5176991970049
 20
185.5522519580489
 10
328.4959753122492
 20
185.6174191928381
 10
328.4706340946394
 20
185.7079298549703
 10
328.4344298297852
 20
185.8274056967702
 10
328.394603812608
 20
185.9867031362832
 10
328.3475387102474
 20
186.1894483452993
 10
328.3258170352289
 20
186.2980611398572
 10
328.307714902807
 20
186.40305218209
 10
328.2896127703749
 20
186.5008041391396
 10
328.2751301805395
 20
186.5949343438647
 10
328.2606475907092
 20
186.6782059208113
 10
328.2461672106058
 20
186.7542339931095
 10
328.170136928576
 20
187.308158803412
 10
328.1013501511969
 20
187.9127704683994
 10
328.0434220015924
 20
188.5535863982413
 10
327.9963568992317
 20
189.2269848406108
 10
327.9529113394627
 20
189.9546896802598
 10
327.9130875320172
 20
190.740322669513
 10
327.8986049421779
 20
191.0915044805312
 10
327.8841245620784
 20
191.45354712906
 10
327.8732637245665
 20
191.826450615098
 10
327.8624006773279
 20
192.2029758534609
 10
327.8515398398173
 20
192.5903619293317
 10
327.8406790023093
 20
192.9849870903882
 10
327.8334377073907
 20
193.3904752986857
 10
327.8261964124752
 20
193.7380353573816
 10
327.8189573272908
 20
194.1145605957432
 10
327.8153355749637
 20
194.5164270517174
 10
327.8080942800482
 20
194.9508782299502
 10
327.8044747374554
 20
195.4070532929358
 10
327.8008551948641
 20
195.8958108684494
 10
327.8008551948641
 20
196.2650948118946
 10
327.7972334425406
 20
196.6597199729512
 10
327.7972334425406
 20
197.0941711511849
 10
327.7972334425406
 20
197.5720678891893
 10
327.7972334425406
 20
198.0934079772291
 10
327.7972334425406
 20
198.6509545398578
 10
327.8044747374554
 20
200.1498119886567
 10
327.8080942800485
 20
200.3416941504305
 10
327.8080942800485
 20
200.5299567696111
 10
327.8117160323759
 20
200.71821717906
 10
327.8117160323759
 20
200.9064797982407
 10
327.8153355749637
 20
201.0875011225049
 10
327.8189573272908
 20
201.272144199093
 10
327.8225768698827
 20
201.6233238003805
 10
327.8298181647978
 20
202.0686380258558
 10
327.8370594597177
 20
202.6008389514061
 10
327.8479202972296
 20
203.2054506163964
 10
327.8660224296518
 20
203.8788512684979
 10
327.8986049421779
 20
205.0156616493043
 10
327.9348092070306
 20
206.0330050272421
 10
327.9746352242081
 20
206.9453507337456
 10
328.0035981941469
 20
207.4920342491305
 10
328.0325611640857
 20
207.9988939570708
 10
328.0398024590008
 20
208.1075067516287
 10
328.0470437539159
 20
208.2125000035948
 10
328.0542850488311
 20
208.3174932555612
 10
328.0615241340194
 20
208.4224865075276
 10
328.0687654289345
 20
208.5238557974358
 10
328.0723871812619
 20
208.6216099642188
 10
328.0796262664412
 20
208.7193597115355
 10
328.1375544160492
 20
209.4289624187562
 10
328.1954803559178
 20
210.0227132462372
 10
328.2534085055261
 20
210.525953411585
 10
328.307714902807
 20
210.9459219999834
 10
328.3656408426744
 20
211.3369298281804
 10
328.4235667825468
 20
211.6519051646152
 10
328.4344298297855
 20
211.7134506470779
 10
328.4452906672973
 20
211.7713810064144
 10
328.4597710473956
 20
211.8293069462869
 10
328.4706340946394
 20
211.8836133435652
 10
328.4814949321513
 20
211.9343001982533
 10
328.4923557696628
 20
211.9813630908815
 10
328.5032166071698
 20
212.028430402978
 10
328.5394208720183
 20
212.180486547573
 10
328.5792468891996
 20
212.3144449792074
 10
328.6118294017261
 20
212.430296858951
 10
328.6480336665801
 20
212.5280466062664
 10
328.6806183888412
 20
212.6149377258071
 10
328.7023400638597
 20
212.6692441230851
  0
LINE
  5
BD
330
70
100
AcDbEntity
  8
shade
 62
     6
420
 16711935
370
    25
100
AcDbLine
 10
328.9557699178266
 20
184.6145628242007
 30
0.0
 11
328.8073333158245
 21
183.752899552917
 31
0.0
  0
LWPOLYLINE
  5
BE
330
70
100
AcDbEntity
  8
shade
 62
     6
420
 16711935
370
    25
100
AcDbPolyline
 90
       41
 70
     0
 43
0.0
 10
328.6914792263478
 20
183.752899552917
 10
328.622690239238
 20
183.7963451126864
 10
328.4271885348704
 20
183.9375426295067
 10
328.2244433258565
 20
184.143907381113
 10
328.0072177367384
 20
184.437161042529
 10
327.8370594597177
 20
184.74851683637
 10
327.6668989729615
 20
185.1431442071582
 10
327.5003580288007
 20
185.635521325265
 10
327.3410605892867
 20
186.2401329902537
 10
327.2252064998111
 20
186.7687165829449
 10
327.1165937052547
 20
187.3733260382006
 10
327.0152222056132
 20
188.0575875278113
 10
326.921089791156
 20
188.8251183846388
 10
326.8342008813448
 20
189.6831576938643
 10
326.7581705993137
 20
190.6389511698715
 10
326.6966251168497
 20
191.6961161455203
 10
326.6459382621655
 20
192.7605202063547
 10
326.6097339973115
 20
193.9154371390533
 10
326.5843905699694
 20
195.1608647338827
 10
326.5699101898661
 20
196.4714573537689
 10
326.5662884375424
 20
197.8073956107331
 10
326.5699101898661
 20
199.1433316579614
 10
326.5916318648846
 20
200.7870061661734
 10
326.6242165871469
 20
202.3184461275017
 10
326.6712816895127
 20
203.7340342090864
 10
326.72920762938
 20
205.0373877437894
 10
326.7979966164909
 20
206.232128483932
 10
326.8740246887903
 20
207.3254955147
 10
326.9609158083323
 20
208.2668064008744
 10
327.0514264704671
 20
209.1248457100999
 10
327.149178427512
 20
209.9032374044358
 10
327.2541694697447
 20
210.6019814838816
 10
327.3664040166288
 20
211.2319365762143
 10
327.5075993237155
 20
211.8980959334006
 10
327.6596576780463
 20
212.473740208988
 10
327.8117160323759
 20
212.9624977845001
 10
327.9710134718845
 20
213.3752272877156
 10
328.1375544160492
 20
213.711928718633
 10
328.3547800051625
 20
214.0594887773276
 10
328.5756251368722
 20
214.3056795461127
 10
328.7964724783181
 20
214.4722182805431
  0
LINE
  5
BF
330
70
100
AcDbEntity
  8
shade
 62
     6
420
 16711935
370
    25
100
AcDbLine
 10
328.7964724783181
 20
214.4685987379503
 30
0.0
 11
328.9811133451739
 21
213.4041924673839
 31
0.0
  0
LWPOLYLINE
  5
C0
330
70
100
AcDbEntity
  8
shade
 62
     6
420
 16711935
370
    25
100
AcDbPolyline
 90
       87
 70
     0
 43
0.0
 10
328.6552749614952
 20
185.2372744118833
 10
328.6444141239873
 20
185.255376544309
 10
328.6154511540536
 20
185.3133046939151
 10
328.5973490216266
 20
185.3531285013593
 10
328.5792468891996
 20
185.3929545185365
 10
328.5611447567727
 20
185.4400196208981
 10
328.5394208720183
 20
185.4943260181777
 10
328.5176991970049
 20
185.5522519580489
 10
328.4959753122492
 20
185.6174191928381
 10
328.4706340946394
 20
185.7079298549703
 10
328.4344298297852
 20
185.8274056967702
 10
328.394603812608
 20
185.9867031362832
 10
328.3475387102474
 20
186.1894483452993
 10
328.3258170352289
 20
186.2980611398572
 10
328.307714902807
 20
186.40305218209
 10
328.2896127703749
 20
186.5008041391396
 10
328.2751301805395
 20
186.5949343438647
 10
328.2606475907092
 20
186.6782059208113
 10
328.2461672106058
 20
186.7542339931095
 10
328.170136928576
 20
187.308158803412
 10
328.1013501511969
 20
187.9127704683994
 10
328.0434220015924
 20
188.5535863982413
 10
327.9963568992317
 20
189.2269848406108
 10
327.9529113394627
 20
189.9546896802598
 10
327.9130875320172
 20
190.740322669513
 10
327.8986049421779
 20
191.0915044805312
 10
327.8841245620784
 20
191.45354712906
 10
327.8732637245665
 20
191.826450615098
 10
327.8624006773279
 20
192.2029758534609
 10
327.8515398398173
 20
192.5903619293317
 10
327.8406790023093
 20
192.9849870903882
 10
327.8334377073907
 20
193.3904752986857
 10
327.8261964124752
 20
193.7380353573816
 10
327.8189573272908
 20
194.1145605957432
 10
327.8153355749637
 20
194.5164270517174
 10
327.8080942800482
 20
194.9508782299502
 10
327.8044747374554
 20
195.4070532929358
 10
327.8008551948641
 20
195.8958108684494
 10
327.8008551948641
 20
196.2650948118946
 10
327.7972334425406
 20
196.6597199729512
 10
327.7972334425406
 20
197.0941711511849
 10
327.7972334425406
 20
197.5720678891893
 10
327.7972334425406
 20
198.0934079772291
 10
327.7972334425406
 20
198.6509545398578
 10
327.8044747374554
 20
200.1498119886567
 10
327.8080942800485
 20
200.3416941504305
 10
327.8080942800485
 20
200.5299567696111
 10
327.8117160323759
 20
200.71821717906
 10
327.8117160323759
 20
200.9064797982407
 10
327.8153355749637
 20
201.0875011225049
 10
327.8189573272908
 20
201.272144199093
 10
327.8225768698827
 20
201.6233238003805
 10
327.8298181647978
 20
202.0686380258558
 10
327.8370594597177
 20
202.6008389514061
 10
327.8479202972296
 20
203.2054506163964
 10
327.8660224296518
 20
203.8788512684979
 10
327.8986049421779
 20
205.0156616493043
 10
327.9348092070306
 20
206.0330050272421
 10
327.9746352242081
 20
206.9453507337456
 10
328.0035981941469
 20
207.4920342491305
 10
328.0325611640857
 20
207.9988939570708
 10
328.0398024590008
 20
208.1075067516287
 10
328.0470437539159
 20
208.2125000035948
 10
328.0542850488311
 20
208.3174932555612
 10
328.0615241340194
 20
208.4224865075276
 10
328.0687654289345
 20
208.5238557974358
 10
328.0723871812619
 20
208.6216099642188
 10
328.0796262664412
 20
208.7193597115355
 10
328.1375544160492
 20
209.4289624187562
 10
328.1954803559178
 20
210.0227132462372
 10
328.2534085055261
 20
210.525953411585
 10
328.307714902807
 20
210.9459219999834
 10
328.3656408426744
 20
211.3369298281804
 10
328.4235667825468
 20
211.6519051646152
 10
328.4344298297855
 20
211.7134506470779
 10
328.4452906672973
 20
211.7713810064144
 10
328.4597710473956
 20
211.8293069462869
 10
328.4706340946394
 20
211.8836133435652
 10
328.4814949321513
 20
211.9343001982533
 10
328.4923557696628
 20
211.9813630908815
 10
328.5032166071698
 20
212.028430402978
 10
328.5394208720183
 20
212.180486547573
 10
328.5792468891996
 20
212.3144449792074
 10
328.6118294017261
 20
212.430296858951
 10
328.6480336665801
 20
212.5280466062664
 10
328.6806183888412
 20
212.6149377258071
 10
328.6950987689407
 20
212.6547615332526
  0
LINE
  5
C1
330
70
100
AcDbEntity
  8
shade
 62
     6
420
 16711935
370
    25
100
AcDbLine
 10
329.292469139012
 20
214.4685987379503
 30
0.0
 11
329.2526453315716
 21
214.2513731488334
 31
0.0
  0
LINE
  5
C2
330
70
100
AcDbEntity
  8
shade
 62
     6
420
 16711935
370
    25
100
AcDbLine
 10
329.292469139012
 20
214.4685987379503
 30
0.0
 11
329.419185170866
 21
213.7630247483083
 31
0.0
  0
LINE
  5
C3
330
70
100
AcDbEntity
  8
shade
 62
     6
420
 16711935
370
    25
100
AcDbLine
 10
329.408323228489
 20
184.3321677905619
 30
0.0
 11
329.3033321862558
 21
183.752899552917
 31
0.0
  0
LWPOLYLINE
  5
C4
330
70
100
AcDbEntity
  8
shade
 62
     6
420
 16711935
370
    25
100
AcDbPolyline
 90
       41
 70
     0
 43
0.0
 10
329.2707474639935
 20
183.752899552917
 10
329.2598866264868
 20
183.7963451126864
 10
329.2200606093093
 20
183.9375426295067
 10
329.1766172592722
 20
184.143907381113
 10
329.136791242095
 20
184.437161042529
 10
329.1005869772411
 20
184.74851683637
 10
329.0680044647159
 20
185.1431442071582
 10
329.031800199862
 20
185.635521325265
 10
328.9992154775957
 20
186.2401329902537
 10
328.977493802581
 20
186.7687165829449
 10
328.9557699178266
 20
187.3733260382006
 10
328.9340482428081
 20
188.0575875278113
 10
328.9159461103863
 20
188.8251183846388
 10
328.8978439779593
 20
189.6831576938643
 10
328.8833613881239
 20
190.6389511698715
 10
328.8725005506172
 20
191.6961161455203
 10
328.8616397131054
 20
192.7605202063547
 10
328.8543984181905
 20
193.9154371390533
 10
328.8507788755936
 20
195.1608647338827
 10
328.84715712327
 20
196.4714573537689
 10
328.8435375806784
 20
197.8073956107331
 10
328.84715712327
 20
199.1433316579614
 10
328.8507788755936
 20
200.7870061661734
 10
328.8580179607818
 20
202.3184461275017
 10
328.8652592556969
 20
203.7340342090864
 10
328.8761200932039
 20
205.0373877437894
 10
328.8906026830391
 20
206.232128483932
 10
328.9087048154698
 20
207.3254955147
 10
328.9231874053014
 20
208.2668064008744
 10
328.9412895377271
 20
209.1248457100999
 10
328.9630112127469
 20
209.9032374044358
 10
328.9847328877654
 20
210.6019814838816
 10
329.006456772516
 20
211.2319365762143
 10
329.0354197424496
 20
211.8980959334006
 10
329.0643827123872
 20
212.473740208988
 10
329.0969674346495
 20
212.9624977845001
 10
329.129549947176
 20
213.3752272877156
 10
329.1621346694368
 20
213.711928718633
 10
329.2055802292058
 20
214.0594887773276
 10
329.2490257889801
 20
214.3056795461127
 10
329.292469139012
 20
214.4722182805431
  0
LWPOLYLINE
  5
C5
330
70
100
AcDbEntity
  8
shade
 62
     6
420
 16711935
370
    25
100
AcDbPolyline
 90
       41
 70
     0
 43
0.0
 10
325.2267306379892
 20
183.752899552917
 10
324.8284837246079
 20
183.7963451126864
 10
323.7206341040009
 20
183.9375426295067
 10
322.5331346587769
 20
184.143907381113
 10
321.298569006322
 20
184.437161042529
 10
320.3138125603799
 20
184.74851683637
 10
319.3326778667614
 20
185.1431442071582
 10
318.3732648481613
 20
185.635521325265
 10
317.4464354469582
 20
186.2401329902537
 10
316.7875173846857
 20
186.7687165829449
 10
316.1611840446795
 20
187.3733260382006
 10
315.57467451212
 20
188.0575875278113
 10
315.0316105393232
 20
188.8251183846388
 10
314.5428529638121
 20
189.6831576938643
 10
314.1084017855768
 20
190.6389511698715
 10
313.7391189469997
 20
191.6961161455203
 10
313.4603456656865
 20
192.7605202063547
 10
313.2467407240267
 20
193.9154371390533
 10
313.1019236646174
 20
195.1608647338827
 10
313.0150336499397
 20
196.4714573537689
 10
312.9896902225975
 20
197.8073956107331
 10
313.0222738399892
 20
199.1433316579614
 10
313.134507282013
 20
200.7870061661734
 10
313.3263905486494
 20
202.3184461275017
 10
313.5906812401272
 20
203.7340342090864
 10
313.923760918721
 20
205.0373877437894
 10
314.3183871846453
 20
206.232128483932
 10
314.7745611427605
 20
207.3254955147
 10
315.2560774233565
 20
208.2668064008744
 10
315.7846599111831
 20
209.1248457100999
 10
316.3530662064504
 20
209.9032374044358
 10
316.9612985189003
 20
210.6019814838816
 10
317.6057339913322
 20
211.2319365762143
 10
318.42395059798
 20
211.8980959334006
 10
319.2819910120772
 20
212.473740208988
 10
320.1726161484277
 20
212.9624977845001
 10
321.0922042547157
 20
213.3752272877156
 10
322.0335151408888
 20
213.711928718633
 10
323.2898024683622
 20
214.0594887773276
 10
324.5569517382088
 20
214.3056795461127
 10
325.7878967432069
 20
214.4685987379503
  0
LINE
  5
C6
330
70
100
AcDbEntity
  8
shade
 62
     6
420
 16711935
370
    25
100
AcDbLine
 10
325.8277227603841
 20
214.4685987379503
 30
0.0
 11
325.8277227603841
 21
214.4541161481162
 31
0.0
  0
LINE
  5
C7
330
70
100
AcDbEntity
  8
shade
 62
     6
420
 16711935
370
    25
100
AcDbLine
 10
329.419185170866
 20
214.4685987379503
 30
0.0
 11
329.4191840660007
 21
214.4685987379503
 31
0.0
  0
LINE
  5
C8
330
70
100
AcDbEntity
  8
shade
 62
     6
420
 16711935
370
    25
100
AcDbLine
 10
329.419185170866
 20
214.5699680278598
 30
0.0
 11
329.4191840660007
 21
214.5699680278598
 31
0.0
  0
LWPOLYLINE
  5
C9
330
70
100
AcDbEntity
  8
shade
 62
     6
420
 16711935
370
    25
100
AcDbPolyline
 90
       19
 70
     0
 43
0.0
 10
324.785038164834
 20
183.6479085106842
 10
324.8140033445084
 20
183.6479085106842
 10
324.8755488269724
 20
183.6479085106842
 10
324.9733007840172
 20
183.6479085106842
 10
325.1072570059211
 20
183.6479085106842
 10
325.2774174926735
 20
183.6479085106842
 10
325.4765409493634
 20
183.6479085106842
 10
325.7046273759924
 20
183.6479085106842
 10
325.9652985248796
 20
183.6479085106842
 10
326.2513108913756
 20
183.6479085106842
 10
326.5626688949509
 20
183.6479085106842
 10
326.8957485735447
 20
183.6479085106842
 10
327.2505499271531
 20
183.6479085106842
 10
327.6198338706009
 20
183.6479085106842
 10
328.0072177367384
 20
183.6479085106842
 10
328.4018451075283
 20
183.6479085106842
 10
328.8037115635012
 20
183.6479085106842
 10
329.2128215241261
 20
183.6479085106842
 10
329.419185170866
 20
183.6479085106842
  0
LWPOLYLINE
  5
CA
330
70
100
AcDbEntity
  8
shade
 62
     6
420
 16711935
370
    25
100
AcDbPolyline
 90
       19
 70
     0
 43
0.0
 10
324.7959012120775
 20
183.752899552917
 10
324.8248641820112
 20
183.752899552917
 10
324.8864118742111
 20
183.752899552917
 10
324.984161621529
 20
183.752899552917
 10
325.1181178434278
 20
183.752899552917
 10
325.2846587875925
 20
183.752899552917
 10
325.4837822442837
 20
183.752899552917
 10
325.7154882135042
 20
183.752899552917
 10
325.9725398197947
 20
183.752899552917
 10
326.2585521862907
 20
183.752899552917
 10
326.5699101898661
 20
183.752899552917
 10
326.9029876587239
 20
183.752899552917
 10
327.2577912220722
 20
183.752899552917
 10
327.627072955784
 20
183.752899552917
 10
328.010839489062
 20
183.752899552917
 10
328.4054646501198
 20
183.752899552917
 10
328.8073333158245
 20
183.752899552917
 10
329.2128215241261
 20
183.752899552917
 10
329.419185170866
 20
183.752899552917
  0
LWPOLYLINE
  5
CB
330
70
100
AcDbEntity
  8
shade
 62
     6
420
 16711935
370
    25
100
AcDbPolyline
 90
        3
 70
     0
 43
0.0
 10
325.9652985248796
 20
214.4613552333005
 10
325.9761593623914
 20
214.457735690709
 10
325.979778904983
 20
214.4504966055246
  0
LINE
  5
CC
330
70
100
AcDbEntity
  8
shade
 62
     6
420
 16711935
370
    25
100
AcDbLine
 10
326.0087440846487
 20
214.4685987379503
 30
0.0
 11
326.0232244647521
 21
214.457735690709
 31
0.0
  0
LWPOLYLINE
  5
CD
330
70
100
AcDbEntity
  8
shade
 62
     6
420
 16711935
370
    25
100
AcDbPolyline
 90
        3
 70
     0
 43
0.0
 10
326.4287126730486
 20
214.4323944730989
 10
326.4214713781283
 20
214.4613552333005
 10
326.4178518355367
 20
214.4685987379503
  0
LINE
  5
CE
330
70
100
AcDbEntity
  8
shade
 62
     6
420
 16711935
370
    25
100
AcDbLine
 10
326.2947564511447
 20
214.4685987379503
 30
0.0
 11
326.3056172886565
 21
214.4613552333005
 31
0.0
  0
LWPOLYLINE
  5
CF
330
70
100
AcDbEntity
  8
shade
 62
     6
420
 16711935
370
    25
100
AcDbPolyline
 90
        3
 70
     0
 43
0.0
 10
326.5518080574442
 20
214.4685987379503
 10
326.5626688949509
 20
214.4613552333005
 10
326.5699101898661
 20
214.457735690709
  0
LWPOLYLINE
  5
D0
330
70
100
AcDbEntity
  8
shade
 62
     6
420
 16711935
370
    25
100
AcDbPolyline
 90
        3
 70
     0
 43
0.0
 10
327.2686520595801
 20
214.439633558282
 10
327.2650303072566
 20
214.4613552333005
 10
327.261410764665
 20
214.4685987379503
  0
LWPOLYLINE
  5
D1
330
70
100
AcDbEntity
  8
shade
 62
     6
420
 16711935
370
    25
100
AcDbPolyline
 90
        5
 70
     0
 43
0.0
 10
327.1564175127002
 20
214.4758378231347
 10
327.1672805599386
 20
214.4758378231347
 10
327.1853826923656
 20
214.4613552333005
 10
327.1998630724689
 20
214.4432531008736
 10
327.2071043673841
 20
214.4251509684479
  0
LWPOLYLINE
  5
D2
330
70
100
AcDbEntity
  8
shade
 62
     6
420
 16711935
370
    25
100
AcDbPolyline
 90
        6
 70
     0
 43
0.0
 10
327.5727665585082
 20
214.4758378231347
 10
327.583629605747
 20
214.4758378231347
 10
327.6017317381739
 20
214.4613552333005
 10
327.6162121182773
 20
214.4432531008736
 10
327.6234534131925
 20
214.4142923406719
 10
327.627072955784
 20
214.4070488360209
  0
LWPOLYLINE
  5
D3
330
70
100
AcDbEntity
  8
shade
 62
     6
420
 16711935
370
    25
100
AcDbPolyline
 90
        3
 70
     0
 43
0.0
 10
328.4670123423159
 20
214.1862037043125
 10
328.4670123423159
 20
214.1970667515551
 10
328.474253637231
 20
214.2658513192022
  0
LWPOLYLINE
  5
D4
330
70
100
AcDbEntity
  8
shade
 62
     6
420
 16711935
370
    25
100
AcDbPolyline
 90
        5
 70
     0
 43
0.0
 10
328.4742536372307
 20
214.2658513192022
 10
328.4814949321513
 20
214.3274012211313
 10
328.4814949321513
 20
214.396190208245
 10
328.4778731798274
 20
214.4613552333005
 10
328.4778731798277
 20
214.4685987379503
  0
LWPOLYLINE
  5
D5
330
70
100
AcDbEntity
  8
shade
 62
     6
420
 16711935
370
    25
100
AcDbPolyline
 90
        8
 70
     0
 43
0.0
 10
328.4416689149738
 20
214.4758378231347
 10
328.4452906672973
 20
214.4758378231347
 10
328.4525319622163
 20
214.4613552333005
 10
328.4561515048092
 20
214.4432531008736
 10
328.4597710473956
 20
214.4142923406719
 10
328.4597710473956
 20
214.3817076184109
 10
328.4597710473956
 20
214.3491228961498
 10
328.4561515048089
 20
214.3237816785397
  0
LWPOLYLINE
  5
D6
330
70
100
AcDbEntity
  8
shade
 62
     6
420
 16711935
370
    25
100
AcDbPolyline
 90
        3
 70
     0
 43
0.0
 10
328.4561515048092
 20
214.3237816785397
 10
328.4452906672973
 20
214.1970667515551
 10
328.4452906672973
 20
214.1608624867012
  0
LINE
  5
D7
330
70
100
AcDbEntity
  8
shade
 62
     6
420
 16711935
370
    25
100
AcDbLine
 10
328.9449090803199
 20
214.0920734995887
 30
0.0
 11
328.9449090803199
 21
213.6141745518513
 31
0.0
  0
LWPOLYLINE
  5
D8
330
70
100
AcDbEntity
  8
shade
 62
     6
420
 16711935
370
    25
100
AcDbPolyline
 90
        3
 70
     0
 43
0.0
 10
328.959391670154
 20
214.3237816785397
 10
328.9485286229115
 20
214.1970667515551
 10
328.9449090803199
 20
214.0920734995887
  0
LWPOLYLINE
  5
D9
330
70
100
AcDbEntity
  8
shade
 62
     6
420
 16711935
370
    25
100
AcDbPolyline
 90
        8
 70
     0
 43
0.0
 10
328.9412895377271
 20
214.4758378231347
 10
328.9485286229115
 20
214.4722182805431
 10
328.9557699178266
 20
214.4541161481162
 10
328.959391670154
 20
214.4323944730989
 10
328.9630112127469
 20
214.3998097508378
 10
328.9630112127469
 20
214.3672250285767
 10
328.959391670154
 20
214.3382598489072
 10
328.959391670154
 20
214.3237816785397
  0
LWPOLYLINE
  5
DA
330
70
100
AcDbEntity
  8
shade
 62
     6
420
 16711935
370
    25
100
AcDbPolyline
 90
        3
 70
     0
 43
0.0
 10
327.0224635005283
 20
183.752899552917
 10
327.0297025857127
 20
183.7565213052421
 10
327.033324338035
 20
183.760140847835
  0
LWPOLYLINE
  5
DB
330
70
100
AcDbEntity
  8
shade
 62
     6
420
 16711935
370
    25
100
AcDbPolyline
 90
        7
 70
     0
 43
0.0
 10
329.1621346694368
 20
183.7492800103241
 10
329.1621346694368
 20
183.760140847835
 10
329.1621346694368
 20
183.7854842751768
 10
329.1621346694368
 20
183.8144472451133
 10
329.1621346694368
 20
183.8470319673744
 10
329.1621346694368
 20
183.8796144799019
 10
329.1621346694368
 20
183.894097069736
  0
LWPOLYLINE
  5
DC
330
70
100
AcDbEntity
  8
shade
 62
     6
420
 16711935
370
    25
100
AcDbPolyline
 90
        5
 70
     0
 43
0.0
 10
329.1621346694368
 20
183.894097069736
 10
329.1621346694368
 20
183.9049579072456
 10
329.1621346694368
 20
183.9846077318683
 10
329.1621346694368
 20
184.1185639537706
 10
329.1621346694368
 20
184.1258052486873
  0
LINE
  5
DD
330
70
100
AcDbEntity
  8
shade
 62
     6
420
 16711935
370
    25
100
AcDbLine
 10
319.7743692350412
 20
207.796150957788
 30
0.0
 11
319.5354208660444
 21
207.111889468176
 31
0.0
  0
LINE
  5
DE
330
70
100
AcDbEntity
  8
shade
 62
     6
420
 16711935
370
    25
100
AcDbLine
 10
319.5318013234477
 20
189.4333495922197
 30
0.0
 11
319.7707485875883
 21
188.8721834869997
 31
0.0
  0
LINE
  5
DF
330
70
100
AcDbEntity
  8
shade
 62
     6
420
 16711935
370
    25
100
AcDbLine
 10
322.2435005399522
 20
210.1856324380748
 30
0.0
 11
321.7837059343748
 21
209.2407020093089
 31
0.0
  0
LINE
  5
E0
330
70
100
AcDbEntity
  8
shade
 62
     6
420
 16711935
370
    25
100
AcDbLine
 10
321.7293995370994
 20
187.815018511351
 30
0.0
 11
322.1819528477562
 21
187.0547289494422
 31
0.0
  0
LINE
  5
E1
330
70
100
AcDbEntity
  8
shade
 62
     6
420
 16711935
370
    25
100
AcDbLine
 10
324.4048933838847
 20
211.5577749598901
 30
0.0
 11
323.8002839286236
 21
210.4607839670628
 31
0.0
  0
LINE
  5
E2
330
70
100
AcDbEntity
  8
shade
 62
     6
420
 16711935
370
    25
100
AcDbLine
 10
323.7061515141706
 20
186.9062923474387
 30
0.0
 11
324.3143827217498
 21
186.0048052687102
 31
0.0
  0
LWPOLYLINE
  5
E3
330
70
100
AcDbEntity
  8
shade
 62
     6
420
 16711935
370
    25
100
AcDbPolyline
 90
        4
 70
     0
 43
0.0
 10
326.3382020109137
 20
212.5714943757687
 10
326.059428729606
 20
212.0610151252378
 10
325.8204814654693
 20
211.6301834895953
 10
325.6358383888825
 20
211.3115841911052
  0
LWPOLYLINE
  5
E4
330
70
100
AcDbEntity
  8
shade
 62
     6
420
 16711935
370
    25
100
AcDbPolyline
 90
        4
 70
     0
 43
0.0
 10
325.541708184151
 20
186.2509938277633
 10
325.7118686709075
 20
186.0120465636276
 10
325.9652985248796
 20
185.6500039150992
 10
326.247691348784
 20
185.2264135743744
  0
LWPOLYLINE
  5
E5
330
70
100
AcDbEntity
  8
shade
 62
     6
420
 16711935
370
    25
100
AcDbPolyline
 90
        4
 70
     0
 43
0.0
 10
328.0072177367384
 20
213.4476358174222
 10
327.8080942800485
 20
213.027667229021
 10
327.56552747332
 20
212.5316705683232
 10
327.2903737345986
 20
212.0139478131426
  0
LWPOLYLINE
  5
E6
330
70
100
AcDbEntity
  8
shade
 62
     6
420
 16711935
370
    25
100
AcDbPolyline
 90
        4
 70
     0
 43
0.0
 10
327.2143456622992
 20
185.7187929022129
 10
327.3772648541406
 20
185.4762238857507
 10
327.645175088211
 20
185.0562530876188
 10
327.9384309593542
 20
184.5530151320049
  0
LWPOLYLINE
  5
E7
330
70
100
AcDbEntity
  8
shade
 62
     6
420
 16711935
370
    25
100
AcDbPolyline
 90
        5
 70
     0
 43
0.0
 10
329.2417844940598
 20
214.2658513192022
 10
329.1042087295647
 20
213.7770937436886
 10
328.959391670154
 20
213.3354034802701
 10
328.8145746107399
 20
212.9480196141313
 10
328.6950987689407
 20
212.6547615332526
  0
LWPOLYLINE
  5
E8
330
70
100
AcDbEntity
  8
shade
 62
     6
420
 16711935
370
    25
100
AcDbPolyline
 90
        4
 70
     0
 43
0.0
 10
328.6516554189075
 20
185.2372744118833
 10
328.8435375806784
 20
184.8679926781718
 10
329.0680044647159
 20
184.3611329702315
 10
329.2417844940598
 20
183.8578928048834
  0
LINE
  5
E9
330
70
100
AcDbEntity
  8
shade
 62
     6
420
 16711935
370
    25
100
AcDbLine
 10
329.408323228489
 20
184.3321677905619
 30
0.0
 11
329.419185170866
 21
184.3796169977515
 31
0.0
  0
LWPOLYLINE
  5
EA
330
70
100
AcDbEntity
  8
shade
 62
     6
420
 16711935
370
    25
100
AcDbPolyline
 90
       17
 70
     0
 43
0.0
 10
325.9146116701903
 20
183.5320544212089
 10
325.9327138026173
 20
183.5320544212089
 10
325.9834006573066
 20
183.5320544212089
 10
326.0739113194363
 20
183.5320544212089
 10
326.197004494096
 20
183.5320544212089
 10
326.3526846007492
 20
183.5320544212089
 10
326.5409450102016
 20
183.5320544212089
 10
326.7581705993137
 20
183.5320544212089
 10
327.0043613681013
 20
183.5320544212089
 10
327.2722716021768
 20
183.5320544212089
 10
327.56552747332
 20
183.5320544212089
 10
327.8732637245665
 20
183.5320544212089
 10
328.2027216508368
 20
183.5320544212089
 10
328.5394208720183
 20
183.5320544212089
 10
328.8869831404475
 20
183.5320544212089
 10
329.2417844940598
 20
183.5320544212089
 10
329.419185170866
 20
183.5320544212089
  0
LWPOLYLINE
  5
EB
330
70
100
AcDbEntity
  8
shade
 62
     6
420
 16711935
370
    25
100
AcDbPolyline
 90
        9
 70
     0
 43
0.0
 10
325.882029157665
 20
183.5356739638004
 10
325.8856487002566
 20
183.5320544212089
 10
325.8892682428481
 20
183.5320544212089
 10
325.8928899951718
 20
183.5320544212089
 10
325.8965095377633
 20
183.5320544212089
 10
325.900131290092
 20
183.5320544212089
 10
325.9037508326835
 20
183.5320544212089
 10
325.9109921276039
 20
183.5320544212089
 10
325.9146116701903
 20
183.5320544212089
  0
LINE
  5
EC
330
70
100
AcDbEntity
  8
shade
 62
     6
420
 16711935
370
    25
100
AcDbLine
 10
324.785038164834
 20
183.6479085106842
 30
0.0
 11
325.882029157665
 21
183.5356739638004
 31
0.0
  0
LINE
  5
ED
330
70
100
AcDbEntity
  8
shade
 62
     6
420
 16711935
370
    25
100
AcDbLine
 10
324.7959012120775
 20
183.752899552917
 30
0.0
 11
324.785038164834
 21
183.6479085106842
 31
0.0
  0
LINE
  5
EE
330
70
100
AcDbEntity
  8
shade
 62
     6
420
 16711935
370
    25
100
AcDbLine
 10
325.9652985248796
 20
214.4613552333005
 30
0.0
 11
325.979778904983
 21
214.4504966055246
 31
0.0
  0
LINE
  5
EF
330
70
100
AcDbEntity
  8
shade
 62
     6
420
 16711935
370
    25
100
AcDbLine
 10
328.0180807839823
 20
207.763566235527
 30
0.0
 11
328.0180807839823
 21
207.763566235527
 31
0.0
  0
LINE
  5
F0
330
70
100
AcDbEntity
  8
shade
 62
     6
420
 16711935
370
    25
100
AcDbLine
 10
327.9275701218526
 20
205.8700858354036
 30
0.0
 11
327.9275701218526
 21
205.8700858354036
 31
0.0
  0
LWPOLYLINE
  5
F1
330
70
100
AcDbEntity
  8
shade
 62
     6
420
 16711935
370
    25
100
AcDbPolyline
 90
        5
 70
     0
 43
0.0
 10
329.4191840660007
 20
214.4685987379503
 10
324.7959012120779
 20
214.4685987379503
 10
324.785038164834
 20
214.5699680278598
 10
325.882029157665
 20
214.6858243270671
 10
329.419185170866
 20
214.6858243270675
  0
LINE
  5
F2
330
70
100
AcDbEntity
  8
shade
 62
     6
420
 16711935
370
    25
100
AcDbLine
 10
324.785038164834
 20
214.5699680278598
 30
0.0
 11
329.419185170866
 21
214.5699680278598
 31
0.0
  0
SPLINE
  5
F3
330
70
100
AcDbEntity
  8
shade
 62
     6
420
 16711935
370
    25
100
AcDbSpline
210
0.0
220
0.0
230
1.0
 70
     8
 71
     3
 72
    14
 73
    10
 74
     0
 42
0.0000000001
 43
0.0000000001
 40
0.0
 40
0.0
 40
0.0
 40
0.0
 40
1.0
 40
1.0
 40
1.0
 40
2.0
 40
2.0
 40
2.0
 40
3.0
 40
3.0
 40
3.0
 40
3.0
 10
329.419185170866
 20
247.7918307896348
 30
0.0
 10
329.419185170866
 20
247.7918307896348
 30
0.0
 10
324.8010033538362
 20
247.7918307896348
 30
0.0
 10
324.8010033538362
 20
247.7918307896348
 30
0.0
 10
324.8010033538365
 20
244.2492399438071
 30
0.0
 10
326.3357100312867
 20
240.8803716274526
 30
0.0
 10
329.0086801204598
 20
238.5554671555816
 30
0.0
 10
329.0086801204598
 20
238.5554671555816
 30
0.0
 10
329.419185170866
 20
238.5554671555816
 30
0.0
 10
329.419185170866
 20
238.5554671555816
 30
0.0
  0
LINE
  5
F4
330
70
100
AcDbEntity
  8
shade
 62
     6
420
 16711935
370
    25
100
AcDbLine
 10
329.727064315534
 20
220.8049381139185
 30
0.0
 11
329.7270644975429
 21
238.5554671555816
 31
0.0
  0
LINE
  5
F5
330
70
100
AcDbEntity
  8
shade
 62
     6
420
 16711935
370
    25
100
AcDbLine
 10
329.11130671158
 20
219.7931429684652
 30
0.0
 11
329.1113064299553
 21
214.5926172565504
 31
0.0
  0
LINE
  5
F6
330
70
100
AcDbEntity
  8
shade
 62
     6
420
 16711935
370
    25
100
AcDbLine
 10
329.1113069315914
 20
238.5554671555816
 30
0.0
 11
329.1113067174923
 21
220.5058009405946
 31
0.0
  0
SPLINE
  5
F7
330
70
100
AcDbEntity
  8
shade
 62
     6
420
 16711935
370
    25
100
AcDbSpline
210
0.0
220
0.0
230
1.0
 70
     8
 71
     3
 72
    14
 73
    10
 74
     0
 42
0.0000000001
 43
0.0000000001
 40
0.0
 40
0.0
 40
0.0
 40
0.0
 40
1.0
 40
1.0
 40
1.0
 40
2.0
 40
2.0
 40
2.0
 40
3.0
 40
3.0
 40
3.0
 40
3.0
 10
329.419185170866
 20
247.7918307896348
 30
0.0
 10
329.419185170866
 20
247.7918307896348
 30
0.0
 10
334.0373669878907
 20
247.7918307896348
 30
0.0
 10
334.0373669878907
 20
247.7918307896348
 30
0.0
 10
334.037366987891
 20
244.2492399438075
 30
0.0
 10
332.5026603104413
 20
240.8803716274529
 30
0.0
 10
329.8296902212687
 20
238.5554671555816
 30
0.0
 10
329.8296902212687
 20
238.5554671555816
 30
0.0
 10
329.419185170866
 20
238.5554671555816
 30
0.0
 10
329.419185170866
 20
238.5554671555816
 30
0.0
  0
LINE
  5
F8
330
70
100
AcDbEntity
  8
shade
 62
     6
420
 16711935
370
    25
100
AcDbLine
 10
329.893461261412
 20
214.0775909097533
 30
0.0
 11
329.973111086035
 21
214.0775909097533
 31
0.0
  0
LINE
  5
F9
330
70
100
AcDbEntity
  8
shade
 62
     6
420
 16711935
370
    25
100
AcDbLine
 10
330.3061907646237
 20
214.2658513192022
 30
0.0
 11
330.3532558669894
 21
214.2658513192022
 31
0.0
  0
LINE
  5
FA
330
70
100
AcDbEntity
  8
shade
 62
     6
420
 16711935
370
    25
100
AcDbLine
 10
329.8862199664918
 20
214.2658513192022
 30
0.0
 11
330.0056935985602
 21
214.2658513192022
 31
0.0
  0
LWPOLYLINE
  5
FB
330
70
100
AcDbEntity
  8
shade
 62
     6
420
 16711935
370
    25
100
AcDbPolyline
 90
        3
 70
     0
 43
0.0
 10
329.4626296257698
 20
184.143907381113
 10
329.4191862757315
 20
184.143907381113
 10
329.419185170866
 20
184.143907381113
  0
LWPOLYLINE
  5
FC
330
70
100
AcDbEntity
  8
shade
 62
     6
420
 16711935
370
    25
100
AcDbPolyline
 90
        3
 70
     0
 43
0.0
 10
329.4988338906225
 20
183.9556447619337
 10
329.4191862757315
 20
183.9556447619337
 10
329.419185170866
 20
183.9556447619337
  0
LINE
  5
FD
330
70
100
AcDbEntity
  8
shade
 62
     6
420
 16711935
370
    25
100
AcDbLine
 10
329.6762356722951
 20
183.9556447619337
 30
0.0
 11
329.632790112526
 21
183.9556447619337
 31
0.0
  0
LWPOLYLINE
  5
FE
330
70
100
AcDbEntity
  8
shade
 62
     6
420
 16711935
370
    25
100
AcDbPolyline
 90
       18
 70
     0
 43
0.0
 10
332.9563411840669
 20
183.5356739638004
 10
332.9527216414754
 20
183.5356739638004
 10
332.9165173766214
 20
183.5356739638004
 10
332.8441088469138
 20
183.5356739638004
 10
332.7354960523572
 20
183.5356739638004
 10
332.5942985355395
 20
183.5356739638004
 10
332.4205185061904
 20
183.5356739638004
 10
332.2177755069089
 20
183.5356739638004
 10
331.9824477853635
 20
183.5356739638004
 10
331.7253961790691
 20
183.5356739638004
 10
331.4393838125731
 20
183.5356739638004
 10
331.1352671039168
 20
183.5356739638004
 10
330.8130504725669
 20
183.5356739638004
 10
330.479970793973
 20
183.5356739638004
 10
330.1324085255438
 20
183.5356739638004
 10
329.7776071719367
 20
183.5356739638004
 10
329.4191862757312
 20
183.5356739638004
 10
329.419185170866
 20
183.5356739638004
  0
LWPOLYLINE
  5
FF
330
70
100
AcDbEntity
  8
shade
 62
     6
420
 16711935
370
    25
100
AcDbPolyline
 90
        3
 70
     0
 43
0.0
 10
330.5053142213152
 20
214.3237816785397
 10
330.4908316314849
 20
214.3237816785397
 10
330.3822188369231
 20
214.3237816785397
  0
LWPOLYLINE
  5
100
330
70
100
AcDbEntity
  8
shade
 62
     6
420
 16711935
370
    25
100
AcDbPolyline
 90
        3
 70
     0
 43
0.0
 10
330.9723479120754
 20
214.3237816785397
 10
330.9180415147996
 20
214.3237816785397
 10
330.8854590022731
 20
214.3237816785397
  0
LWPOLYLINE
  5
101
330
70
100
AcDbEntity
  8
shade
 62
     6
420
 16711935
370
    25
100
AcDbPolyline
 90
        3
 70
     0
 43
0.0
 10
329.4771122156039
 20
214.0920734995887
 10
329.4191862757315
 20
214.0920734995887
 10
329.419185170866
 20
214.0920734995887
  0
LWPOLYLINE
  5
102
330
70
100
AcDbEntity
  8
shade
 62
     6
420
 16711935
370
    25
100
AcDbPolyline
 90
        4
 70
     0
 43
0.0
 10
329.893461261412
 20
214.0920734995887
 10
329.7739876293438
 20
214.0920734995887
 10
329.6581335398682
 20
214.0920734995887
 10
329.6472727023564
 20
214.0920734995887
  0
LWPOLYLINE
  5
103
330
70
100
AcDbEntity
  8
shade
 62
     6
420
 16711935
370
    25
100
AcDbPolyline
 90
        3
 70
     0
 43
0.0
 10
329.520557775373
 20
214.3237816785397
 10
329.4191862757315
 20
214.3237816785397
 10
329.419185170866
 20
214.3237816785397
  0
LWPOLYLINE
  5
104
330
70
100
AcDbEntity
  8
shade
 62
     6
420
 16711935
370
    25
100
AcDbPolyline
 90
        4
 70
     0
 43
0.0
 10
329.8789786715766
 20
214.3237816785397
 10
329.763126791832
 20
214.3237816785397
 10
329.6508922449479
 20
214.3237816785397
 10
329.5712424203249
 20
214.3237816785397
  0
LWPOLYLINE
  5
105
330
70
100
AcDbEntity
  8
shade
 62
     6
420
 16711935
370
    25
100
AcDbPolyline
 90
        4
 70
     0
 43
0.0
 10
330.3496341146658
 20
183.894097069736
 10
330.356875409581
 20
183.894097069736
 10
330.4654882041428
 20
183.894097069736
 10
330.4944511740765
 20
183.894097069736
  0
LWPOLYLINE
  5
106
330
70
100
AcDbEntity
  8
shade
 62
     6
420
 16711935
370
    25
100
AcDbPolyline
 90
        4
 70
     0
 43
0.0
 10
329.6762356722951
 20
183.894097069736
 10
329.7920897617708
 20
183.894097069736
 10
329.9043220989187
 20
183.894097069736
 10
330.0056935985602
 20
183.894097069736
  0
LWPOLYLINE
  5
107
330
70
100
AcDbEntity
  8
shade
 62
     6
420
 16711935
370
    25
100
AcDbPolyline
 90
        4
 70
     0
 43
0.0
 10
329.6762356722951
 20
184.1258052486873
 10
329.7957093043637
 20
184.1258052486873
 10
329.9115633938338
 20
184.1258052486873
 10
329.9658697911199
 20
184.1258052486873
  0
LWPOLYLINE
  5
108
330
70
100
AcDbEntity
  8
shade
 62
     6
420
 16711935
370
    25
100
AcDbPolyline
 90
       41
 70
     0
 43
0.0
 10
333.5718136865664
 20
183.752899552917
 10
333.966441057355
 20
183.7963451126864
 10
335.0634298404505
 20
183.9375426295067
 10
336.2400684481678
 20
184.143907381113
 10
337.4601515107881
 20
184.437161042529
 10
338.4376666618103
 20
184.74851683637
 10
339.4079416227874
 20
185.1431442071582
 10
340.360113346471
 20
185.635521325265
 10
341.276080805302
 20
186.2401329902537
 10
341.9277575726542
 20
186.7687165829449
 10
342.550471370064
 20
187.3733260382006
 10
343.1297396077135
 20
188.0575875278113
 10
343.6655622855903
 20
188.8251183846388
 10
344.1507003185045
 20
189.6831576938643
 10
344.5815308492827
 20
190.6389511698715
 10
344.9471941452673
 20
191.6961161455203
 10
345.2223456742581
 20
192.7605202063547
 10
345.4323310733251
 20
193.9154371390533
 10
345.5807687801975
 20
195.1608647338827
 10
345.664038147408
 20
196.4714573537689
 10
345.6893815747542
 20
197.8073956107331
 10
345.6567968524931
 20
199.1433316579614
 10
345.5445645153449
 20
200.7870061661734
 10
345.3563018961605
 20
202.3184461275017
 10
345.0956307472745
 20
203.7340342090864
 10
344.7661728210078
 20
205.0373877437894
 10
344.3715454502144
 20
206.232128483932
 10
343.9226127870144
 20
207.3254955147
 10
343.4447171538764
 20
208.2668064008744
 10
342.9233748561034
 20
209.1248457100999
 10
342.3585892082932
 20
209.9032374044358
 10
341.7539775433013
 20
210.6019814838816
 10
341.1167822609231
 20
211.2319365762143
 10
340.3058069491901
 20
211.8980959334006
 10
339.4586273726051
 20
212.473740208988
 10
338.575243531171
 20
212.9624977845001
 10
337.6665162623935
 20
213.3752272877156
 10
336.7324466711356
 20
213.711928718633
 10
335.4906397237655
 20
214.0594887773276
 10
334.2343535011612
 20
214.3056795461127
 10
333.0178888762629
 20
214.4685987379503
  0
LINE
  5
109
330
70
100
AcDbEntity
  8
shade
 62
     6
420
 16711935
370
    25
100
AcDbLine
 10
332.9780650688174
 20
214.4685987379503
 30
0.0
 11
332.9744433164939
 21
214.4323944730989
 31
0.0
  0
LINE
  5
10A
330
70
100
AcDbEntity
  8
shade
 62
     6
420
 16711935
370
    25
100
AcDbLine
 10
332.8730718168527
 20
214.4685987379503
 30
0.0
 11
332.8730718168527
 21
214.4468726434664
 31
0.0
  0
LINE
  5
10B
330
70
100
AcDbEntity
  8
shade
 62
     6
420
 16711935
370
    25
100
AcDbLine
 10
332.8730718168527
 20
214.4685987379503
 30
0.0
 11
332.8730718168527
 21
214.4504966055246
 31
0.0
  0
LWPOLYLINE
  5
10C
330
70
100
AcDbEntity
  8
shade
 62
     6
420
 16711935
370
    25
100
AcDbPolyline
 90
       41
 70
     0
 43
0.0
 10
333.4487205119016
 20
183.752899552917
 10
333.8324848354527
 20
183.7963451126864
 10
334.8968911060165
 20
183.9375426295067
 10
336.0373243440144
 20
184.143907381113
 10
337.224823789243
 20
184.437161042529
 10
338.1733759703312
 20
184.74851683637
 10
339.1146868565043
 20
185.1431442071582
 10
340.0378956102546
 20
185.635521325265
 10
340.9285207466051
 20
186.2401329902537
 10
341.5620953815304
 20
186.7687165829449
 10
342.1630852941945
 20
187.3733260382006
 10
342.7278720468705
 20
188.0575875278113
 10
343.2492132397817
 20
188.8251183846388
 10
343.7198686828661
 20
189.6831576938643
 10
344.1362177286741
 20
190.6389511698715
 10
344.491020187153
 20
191.6961161455203
 10
344.7589315260892
 20
192.7605202063547
 10
344.9652962776994
 20
193.9154371390533
 10
345.1064926896513
 20
195.1608647338827
 10
345.1861414094093
 20
196.4714573537689
 10
345.211484836746
 20
197.8073956107331
 10
345.1825218668127
 20
199.1433316579614
 10
345.073909072256
 20
200.7870061661734
 10
344.8892671005347
 20
202.3184461275017
 10
344.6358372465623
 20
203.7340342090864
 10
344.3172390529387
 20
205.0373877437894
 10
343.9334747293924
 20
206.232128483932
 10
343.4954029036993
 20
207.3254955147
 10
343.0319876506652
 20
208.2668064008744
 10
342.5251279427222
 20
209.1248457100999
 10
341.9784444273384
 20
209.9032374044358
 10
341.3919348947792
 20
210.6019814838816
 10
340.7728417448223
 20
211.2319365762143
 10
339.9872098604317
 20
211.8980959334006
 10
339.1653726063271
 20
212.473740208988
 10
338.3073321922351
 20
212.9624977845001
 10
337.4239472459345
 20
213.3752272877156
 10
336.5188406246151
 20
213.711928718633
 10
335.3132401518246
 20
214.0594887773276
 10
334.0931559843387
 20
214.3056795461127
 10
332.9092760817015
 20
214.4685987379503
  0
LWPOLYLINE
  5
10D
330
70
100
AcDbEntity
  8
shade
 62
     6
420
 16711935
370
    25
100
AcDbPolyline
 90
       41
 70
     0
 43
0.0
 10
333.2423557603004
 20
183.7492800103241
 10
333.6152592463343
 20
183.7963451126864
 10
334.6253591196185
 20
183.9375426295067
 10
335.7114870652111
 20
184.143907381113
 10
336.837438818239
 20
184.437161042529
 10
337.7389247921014
 20
184.74851683637
 10
338.6331705759086
 20
185.1431442071582
 10
339.5093131224273
 20
185.635521325265
 10
340.3564926990143
 20
186.2401329902537
 10
340.961104364001
 20
186.7687165829449
 10
341.5331313067312
 20
187.3733260382006
 10
342.0689550894681
 20
188.0575875278113
 10
342.5649528550342
 20
188.8251183846388
 10
343.0102659756415
 20
189.6831576938643
 10
343.4048922415658
 20
190.6389511698715
 10
343.7452121102079
 20
191.6961161455203
 10
343.9950213167223
 20
192.7605202063547
 10
344.1905241259551
 20
193.9154371390533
 10
344.3281009953109
 20
195.1608647338827
 10
344.4041301724807
 20
196.4714573537689
 10
344.4258518474992
 20
197.8073956107331
 10
344.4005095250188
 20
199.1433316579614
 10
344.2955173779202
 20
200.7870061661734
 10
344.1217362437052
 20
202.3184461275017
 10
343.8791683321115
 20
203.7340342090864
 10
343.5750516234516
 20
205.0373877437894
 10
343.2130089749277
 20
206.232128483932
 10
342.7966599291197
 20
207.3254955147
 10
342.3585892082932
 20
208.2668064008744
 10
341.877071822832
 20
209.1248457100999
 10
341.3557306299253
 20
209.9032374044358
 10
340.7981851721647
 20
210.6019814838816
 10
340.2116756395985
 20
211.2319365762143
 10
339.462248020067
 20
211.8980959334006
 10
338.6802356782744
 20
212.473740208988
 10
337.8656397190847
 20
212.9624977845001
 10
337.0257003325531
 20
213.3752272877156
 10
336.1676599184598
 20
213.711928718633
 10
335.0199842806814
 20
214.0594887773276
 10
333.8614478053864
 20
214.3056795461127
 10
332.7463568898691
 20
214.4685987379503
  0
LINE
  5
10E
330
70
100
AcDbEntity
  8
shade
 62
     6
420
 16711935
370
    25
100
AcDbLine
 10
332.6992917875045
 20
214.4685987379503
 30
0.0
 11
332.6992917875045
 21
214.4360140156905
 31
0.0
  0
LINE
  5
10F
330
70
100
AcDbEntity
  8
shade
 62
     6
420
 16711935
370
    25
100
AcDbLine
 10
332.4639640659594
 20
214.4685987379503
 30
0.0
 11
332.4603445233679
 21
214.4251509684479
 31
0.0
  0
LWPOLYLINE
  5
110
330
70
100
AcDbEntity
  8
shade
 62
     6
420
 16711935
370
    25
100
AcDbPolyline
 90
       41
 70
     0
 43
0.0
 10
332.9780650688174
 20
183.752899552917
 10
333.3111447474113
 20
183.7963451126864
 10
334.2524556335843
 20
183.9375426295067
 10
335.2589337545488
 20
184.143907381113
 10
336.305235682955
 20
184.437161042529
 10
337.1415544220246
 20
184.74851683637
 10
337.9706318661833
 20
185.1431442071582
 10
338.7888484728311
 20
185.635521325265
 10
339.5744814620818
 20
186.2401329902537
 10
340.1320269198423
 20
186.7687165829449
 10
340.6642289502605
 20
187.3733260382006
 10
341.1602278206919
 20
188.0575875278113
 10
341.6200213214028
 20
188.8251183846388
 10
342.0363703672109
 20
189.6831576938643
 10
342.4020336631967
 20
190.6389511698715
 10
342.7170112093635
 20
191.6961161455203
 10
342.9523389309077
 20
192.7605202063547
 10
343.1333602551716
 20
193.9154371390533
 10
343.2600751821551
 20
195.1608647338827
 10
343.328863064405
 20
196.4714573537689
 10
343.3505858442887
 20
197.8073956107331
 10
343.3252424169431
 20
199.1433316579614
 10
343.2274915647632
 20
200.7870061661734
 10
343.068191915519
 20
202.3184461275017
 10
342.8437261363471
 20
203.7340342090864
 10
342.5613322075756
 20
205.0373877437894
 10
342.2246329863902
 20
206.232128483932
 10
341.8372469105206
 20
207.3254955147
 10
341.4317598070848
 20
208.2668064008744
 10
340.982827143886
 20
209.1248457100999
 10
340.5013097584236
 20
209.9032374044358
 10
339.983589212975
 20
210.6019814838816
 10
339.4369045927214
 20
211.2319365762143
 10
338.741783370465
 20
211.8980959334006
 10
338.0176980734091
 20
212.473740208988
 10
337.261028054097
 20
212.9624977845001
 10
336.4790168171699
 20
213.3752272877156
 10
335.6825240952724
 20
213.711928718633
 10
334.6181178247037
 20
214.0594887773276
 10
333.5428507166319
 20
214.3056795461127
 10
332.4675836085561
 20
214.4722182805431
  0
LWPOLYLINE
  5
111
330
70
100
AcDbEntity
  8
shade
 62
     6
420
 16711935
370
    25
100
AcDbPolyline
 90
        6
 70
     0
 43
0.0
 10
340.4397631710943
 20
201.272144199093
 10
340.407178448832
 20
201.6233238003805
 10
340.3637339939291
 20
202.0686380258558
 10
340.3021863017333
 20
202.6008389514061
 10
340.218916934514
 20
203.2054506163964
 10
340.1139247874205
 20
203.8788512684979
  0
LWPOLYLINE
  5
112
330
70
100
AcDbEntity
  8
shade
 62
     6
420
 16711935
370
    25
100
AcDbPolyline
 90
       18
 70
     0
 43
0.0
 10
339.2595039159187
 20
189.33559763517
 10
339.5165544173428
 20
189.9546896802598
 10
339.7808451088267
 20
190.740322669513
 10
339.8822177133338
 20
191.0915044805312
 10
339.9727283754667
 20
191.45354712906
 10
340.0596183901396
 20
191.826450615098
 10
340.1392671098958
 20
192.2029758534609
 10
340.2116756395985
 20
192.5903619293317
 10
340.2768439792529
 20
192.9849870903882
 10
340.3347699191292
 20
193.3904752986857
 10
340.378215478898
 20
193.7380353573816
 10
340.4180403912087
 20
194.1145605957432
 10
340.4578653035213
 20
194.5164270517174
 10
340.4904489209127
 20
194.9508782299502
 10
340.5194118908467
 20
195.4070532929358
 10
340.5447553181975
 20
195.8958108684494
 10
340.5592368031625
 20
196.2650948118946
 10
340.5664780980773
 20
196.5257637510485
  0
LWPOLYLINE
  5
113
330
70
100
AcDbEntity
  8
shade
 62
     6
420
 16711935
370
    25
100
AcDbPolyline
 90
       41
 70
     0
 43
0.0
 10
332.6305028003934
 20
183.752899552917
 10
332.9382390516399
 20
183.7963451126864
 10
333.7854197330869
 20
183.9375426295067
 10
334.6941458970028
 20
184.143907381113
 10
335.6390785355032
 20
184.437161042529
 10
336.3957463450847
 20
184.74851683637
 10
337.1451750694869
 20
185.1431442071582
 10
337.8801212040485
 20
185.635521325265
 10
338.5933456636018
 20
186.2401329902537
 10
339.0965847240825
 20
186.7687165829449
 10
339.5781010046733
 20
187.3733260382006
 10
340.0270347727437
 20
188.0575875278113
 10
340.4397631710943
 20
188.8251183846388
 10
340.8162873045917
 20
189.6831576938643
 10
341.1493658783152
 20
190.6389511698715
 10
341.4317598070848
 20
191.6961161455203
 10
341.6417441012878
 20
192.7605202063547
 10
341.8082839405822
 20
193.9154371390533
 10
341.9205173826008
 20
195.1608647338827
 10
341.985684617388
 20
196.4714573537689
 10
342.0037867498156
 20
197.8073956107331
 10
341.9820639699299
 20
199.1433316579614
 10
341.895173955259
 20
200.7870061661734
 10
341.7467362483864
 20
202.3184461275017
 10
341.5439932491034
 20
203.7340342090864
 10
341.2905633951374
 20
205.0373877437894
 10
340.9864466864775
 20
206.232128483932
 10
340.6388866277839
 20
207.3254955147
 10
340.2696026843375
 20
208.2668064008744
 10
339.8641155809068
 20
209.1248457100999
 10
339.4296644026712
 20
209.9032374044358
 10
338.9626285021789
 20
210.6019814838816
 10
338.4666307366143
 20
211.2319365762143
 10
337.8402962917426
 20
211.8980959334006
 10
337.1849999817976
 20
212.473740208988
 10
336.500738492183
 20
212.9624977845001
 10
335.7983759750121
 20
213.3752272877156
 10
335.0779124302808
 20
213.711928718633
 10
334.1148776593572
 20
214.0594887773276
 10
333.1446038032466
 20
214.3056795461127
 10
332.1707104045483
 20
214.4722182805431
  0
LINE
  5
114
330
70
100
AcDbEntity
  8
shade
 62
     6
420
 16711935
370
    25
100
AcDbLine
 10
332.1707104045483
 20
214.4685987379503
 30
0.0
 11
332.163469109628
 21
214.4070488360209
 31
0.0
  0
LWPOLYLINE
  5
115
330
70
100
AcDbEntity
  8
shade
 62
     6
420
 16711935
370
    25
100
AcDbPolyline
 90
       38
 70
     0
 43
0.0
 10
339.3029494756881
 20
189.4369691348112
 10
339.5165544173428
 20
189.9546896802598
 10
339.7808451088267
 20
190.740322669513
 10
339.878597065875
 20
191.0915044805312
 10
339.9727283754667
 20
191.45354712906
 10
340.0596183901396
 20
191.826450615098
 10
340.1392671098958
 20
192.2029758534609
 10
340.2116756395985
 20
192.5903619293317
 10
340.2768439792529
 20
192.9849870903882
 10
340.3347699191292
 20
193.3904752986857
 10
340.378215478898
 20
193.7380353573816
 10
340.4180403912087
 20
194.1145605957432
 10
340.4578653035213
 20
194.5164270517174
 10
340.4904489209127
 20
194.9508782299502
 10
340.5194118908467
 20
195.4070532929358
 10
340.5447553181975
 20
195.8958108684494
 10
340.5592368031625
 20
196.2650948118946
 10
340.5700976406689
 20
196.6597199729512
 10
340.5809595830462
 20
197.0941711511849
 10
340.5845802305043
 20
197.5720678891893
 10
340.5809595830462
 20
198.0934079772291
 10
340.5737182881314
 20
198.6509545398578
 10
340.5157912433931
 20
200.1498119886567
 10
340.5049304058816
 20
200.3416941504305
 10
340.4940695683746
 20
200.5299567696111
 10
340.4795869785398
 20
200.71821717906
 10
340.4687261410277
 20
200.9064797982407
 10
340.4542446560588
 20
201.0875011225049
 10
340.4397631710943
 20
201.272144199093
 10
340.407178448832
 20
201.6233238003805
 10
340.3637339939291
 20
202.0686380258558
 10
340.3021863017333
 20
202.6008389514061
 10
340.218916934514
 20
203.2054506163964
 10
340.1139247874205
 20
203.8788512684979
 10
339.8894579033821
 20
205.0156616493043
 10
339.6396486968729
 20
206.0330050272421
 10
339.36087541556
 20
206.9453507337456
 10
339.2993288282307
 20
207.111889468176
  0
LWPOLYLINE
  5
116
330
70
100
AcDbEntity
  8
shade
 62
     6
420
 16711935
370
    25
100
AcDbPolyline
 90
        6
 70
     0
 43
0.0
 10
338.8503961650255
 20
201.272144199093
 10
338.8250527376837
 20
201.6233238003805
 10
338.7852278253731
 20
202.0686380258558
 10
338.7309214280922
 20
202.6008389514061
 10
338.6621335458475
 20
203.2054506163964
 10
338.5716228837178
 20
203.8788512684979
  0
LWPOLYLINE
  5
117
330
70
100
AcDbEntity
  8
shade
 62
     6
420
 16711935
370
    25
100
AcDbPolyline
 90
       19
 70
     0
 43
0.0
 10
337.5108383654723
 20
188.5535863982413
 10
337.8004724842974
 20
189.2269848406108
 10
338.0611425283178
 20
189.9546896802598
 10
338.2856094123501
 20
190.740322669513
 10
338.3724994270227
 20
191.0915044805312
 10
338.4521492516445
 20
191.45354712906
 10
338.5281773239436
 20
191.826450615098
 10
338.5933456636018
 20
192.2029758534609
 10
338.6548922509272
 20
192.5903619293317
 10
338.7128192956652
 20
192.9849870903882
 10
338.7598855028958
 20
193.3904752986857
 10
338.7997093103413
 20
193.7380353573816
 10
338.8322940326037
 20
194.1145605957432
 10
338.8648776499957
 20
194.5164270517174
 10
338.8974612673916
 20
194.9508782299502
 10
338.9228046947334
 20
195.4070532929358
 10
338.9409068271604
 20
195.8958108684494
 10
338.9553883121293
 20
196.2650948118946
 10
338.9626285021789
 20
196.5257637510485
  0
LINE
  5
118
330
70
100
AcDbEntity
  8
shade
 62
     6
420
 16711935
370
    25
100
AcDbLine
 10
331.8122872986073
 20
183.760140847835
 30
0.0
 11
331.815906841204
 21
183.752899552917
 31
0.0
  0
LWPOLYLINE
  5
119
330
70
100
AcDbEntity
  8
shade
 62
     6
420
 16711935
370
    25
100
AcDbPolyline
 90
       41
 70
     0
 43
0.0
 10
332.2250168018276
 20
183.752899552917
 10
332.4929270358982
 20
183.7963451126864
 10
333.2314949227883
 20
183.9375426295067
 10
334.027988749551
 20
184.143907381113
 10
334.8534455462475
 20
184.437161042529
 10
335.5123636085161
 20
184.74851683637
 10
336.1676599184598
 20
185.1431442071582
 10
336.812095390893
 20
185.635521325265
 10
337.4311885408535
 20
186.2401329902537
 10
337.8728810139998
 20
186.7687165829449
 10
338.2928496023997
 20
187.3733260382006
 10
338.6838563257312
 20
188.0575875278113
 10
339.045898974259
 20
188.8251183846388
 10
339.3753580053953
 20
189.6831576938643
 10
339.6649921242153
 20
190.6389511698715
 10
339.9111806832671
 20
191.6961161455203
 10
340.0958226549884
 20
192.7605202063547
 10
340.2406397144028
 20
193.9154371390533
 10
340.3383905665873
 20
195.1608647338827
 10
340.3963176113198
 20
196.4714573537689
 10
340.41079909629
 20
197.8073956107331
 10
340.3926969638682
 20
199.1433316579614
 10
340.3166677867023
 20
200.7870061661734
 10
340.1863333171271
 20
202.3184461275017
 10
340.0125521829128
 20
203.7340342090864
 10
339.7880864037422
 20
205.0373877437894
 10
339.5237946073975
 20
206.232128483932
 10
339.2196790036081
 20
207.3254955147
 10
338.8974612673916
 20
208.2668064008744
 10
338.5426599137789
 20
209.1248457100999
 10
338.1625151328245
 20
209.9032374044358
 10
337.7534062770661
 20
210.6019814838816
 10
337.322575746293
 20
211.2319365762143
 10
336.7758911260391
 20
211.8980959334006
 10
336.2038641833138
 20
212.473740208988
 10
335.6064938132422
 20
212.9624977845001
 10
334.9910213107426
 20
213.3752272877156
 10
334.361068428141
 20
213.711928718633
 10
333.5211290416095
 20
214.0594887773276
 10
332.6703288175696
 20
214.3056795461127
 10
331.8231481361191
 20
214.4722182805431
  0
LINE
  5
11A
330
70
100
AcDbEntity
  8
shade
 62
     6
420
 16711935
370
    25
100
AcDbLine
 10
331.8231481361191
 20
214.4685987379503
 30
0.0
 11
331.8122872986073
 21
214.3817076184109
 31
0.0
  0
LWPOLYLINE
  5
11B
330
70
100
AcDbEntity
  8
shade
 62
     6
420
 16711935
370
    25
100
AcDbPolyline
 90
       50
 70
     0
 43
0.0
 10
337.1053501571707
 20
187.8186380539426
 10
337.1705173919634
 20
187.9127704683994
 10
337.5108383654723
 20
188.5535863982413
 10
337.8004724842974
 20
189.2269848406108
 10
338.0611425283178
 20
189.9546896802598
 10
338.2856094123501
 20
190.740322669513
 10
338.3724994270227
 20
191.0915044805312
 10
338.4521492516445
 20
191.45354712906
 10
338.5281773239436
 20
191.826450615098
 10
338.5933456636018
 20
192.2029758534609
 10
338.6548922509272
 20
192.5903619293317
 10
338.7128192956652
 20
192.9849870903882
 10
338.7598855028958
 20
193.3904752986857
 10
338.7997093103413
 20
193.7380353573816
 10
338.8322940326037
 20
194.1145605957432
 10
338.8648776499957
 20
194.5164270517174
 10
338.8974612673916
 20
194.9508782299502
 10
338.9228046947334
 20
195.4070532929358
 10
338.9409068271604
 20
195.8958108684494
 10
338.9553883121293
 20
196.2650948118946
 10
338.9626285021789
 20
196.6597199729512
 10
338.9698697970944
 20
197.0941711511849
 10
338.9734904445563
 20
197.5720678891893
 10
338.9734904445563
 20
198.0934079772291
 10
338.966249149637
 20
198.6509545398578
 10
338.9155633998186
 20
200.1498119886567
 10
338.908322104898
 20
200.3416941504305
 10
338.8974612673916
 20
200.5299567696111
 10
338.8866004298795
 20
200.71821717906
 10
338.8757384875021
 20
200.9064797982407
 10
338.8648776499957
 20
201.0875011225049
 10
338.8503961650255
 20
201.272144199093
 10
338.8250527376837
 20
201.6233238003805
 10
338.7852278253731
 20
202.0686380258558
 10
338.7309214280922
 20
202.6008389514061
 10
338.6621335458475
 20
203.2054506163964
 10
338.5716228837178
 20
203.8788512684979
 10
338.3833602645346
 20
205.0156616493043
 10
338.1661346754161
 20
206.0330050272421
 10
337.9271874112794
 20
206.9453507337456
 10
337.7606475719851
 20
207.4920342491305
 10
337.5832468951789
 20
207.9988939570708
 10
337.5434219828683
 20
208.1075067516287
 10
337.5035970705575
 20
208.2125000035948
 10
337.4637721582414
 20
208.3174932555612
 10
337.420327703343
 20
208.4224865075276
 10
337.3805027910307
 20
208.5238557974358
 10
337.3370572312616
 20
208.6216099642188
 10
337.2972323189458
 20
208.7193597115355
 10
337.0401829223834
 20
209.2588041417343
  0
LWPOLYLINE
  5
11C
330
70
100
AcDbEntity
  8
shade
 62
     6
420
 16711935
370
    25
100
AcDbPolyline
 90
       35
 70
     0
 43
0.0
 10
335.9902603465189
 20
188.5535863982413
 10
336.2292065057904
 20
189.2269848406108
 10
336.4391919048538
 20
189.9546896802598
 10
336.6202132291218
 20
190.740322669513
 10
336.6926217588245
 20
191.0915044805312
 10
336.7541683461554
 20
191.45354712906
 10
336.8157160383502
 20
191.826450615098
 10
336.8700224356307
 20
192.2029758534609
 10
336.9207081854536
 20
192.5903619293317
 10
336.9641537452226
 20
192.9849870903882
 10
337.0075982001262
 20
193.3904752986857
 10
337.0365622749302
 20
193.7380353573816
 10
337.0655252448639
 20
194.1145605957432
 10
337.090868672206
 20
194.5164270517174
 10
337.1162109946828
 20
194.9508782299502
 10
337.1379337745717
 20
195.4070532929358
 10
337.1524152595368
 20
195.8958108684494
 10
337.1632772019087
 20
196.2650948118946
 10
337.1705173919634
 20
196.6597199729512
 10
337.1777586868786
 20
197.0941711511849
 10
337.1813793343408
 20
197.5720678891893
 10
337.1777586868786
 20
198.0934079772291
 10
337.1741380394205
 20
198.6509545398578
 10
337.1343131271095
 20
200.1498119886567
 10
337.1234522896015
 20
200.3416941504305
 10
337.1162109946828
 20
200.5299567696111
 10
337.1089708046329
 20
200.71821717906
 10
337.0981088622559
 20
200.9064797982407
 10
337.0872480247492
 20
201.0875011225049
 10
337.0800067298341
 20
201.272144199093
 10
337.0582850548142
 20
201.6233238003805
 10
337.0257003325531
 20
202.0686380258558
 10
336.9822558776496
 20
202.6008389514061
 10
336.9243288329116
 20
203.2054506163964
 10
336.8519203032038
 20
203.8788512684979
  0
LINE
  5
11D
330
70
100
AcDbEntity
  8
shade
 62
     6
420
 16711935
370
    25
100
AcDbLine
 10
331.414040385231
 20
183.7891038177696
 30
0.0
 11
331.4176599278226
 21
183.752899552917
 31
0.0
  0
LWPOLYLINE
  5
11E
330
70
100
AcDbEntity
  8
shade
 62
     6
420
 16711935
370
    25
100
AcDbPolyline
 90
       41
 70
     0
 43
0.0
 10
331.7652221962505
 20
183.752899552917
 10
331.9860673279602
 20
183.7963451126864
 10
332.605161582782
 20
183.9375426295067
 10
333.2713187302338
 20
184.143907381113
 10
333.9591997624399
 20
184.437161042529
 10
334.509505030147
 20
184.74851683637
 10
335.0598102978589
 20
185.1431442071582
 10
335.5956329757342
 20
185.635521325265
 10
336.116974168637
 20
186.2401329902537
 10
336.4826363597614
 20
186.7687165829449
 10
336.8338181707771
 20
187.3733260382006
 10
337.1632772019087
 20
188.0575875278113
 10
337.4637721582414
 20
188.8251183846388
 10
337.7389247921014
 20
189.6831576938643
 10
337.9814938085565
 20
190.6389511698715
 10
338.1878574553015
 20
191.6961161455203
 10
338.3435364570878
 20
192.7605202063547
 10
338.4630100891563
 20
193.9154371390533
 10
338.5462794563705
 20
195.1608647338827
 10
338.5933456636018
 20
196.4714573537689
 10
338.6078271485666
 20
197.8073956107331
 10
338.5897250161396
 20
199.1433316579614
 10
338.524557781352
 20
200.7870061661734
 10
338.4195645293872
 20
202.3184461275017
 10
338.2711279273851
 20
203.7340342090864
 10
338.0864859556599
 20
205.0373877437894
 10
337.8620190716266
 20
206.232128483932
 10
337.6085892176555
 20
207.3254955147
 10
337.3406778787148
 20
208.2668064008744
 10
337.0438024649801
 20
209.1248457100999
 10
336.7252053762205
 20
209.9032374044358
 10
336.384885507578
 20
210.6019814838816
 10
336.0264635065076
 20
211.2319365762143
 10
335.5666700057958
 20
211.8980959334006
 10
335.0887732677926
 20
212.473740208988
 10
334.5891548547697
 20
212.9624977845001
 10
334.0750538519168
 20
213.3752272877156
 10
333.5500920115467
 20
213.711928718633
 10
332.8477283895105
 20
214.0594887773276
 10
332.1381256822911
 20
214.3056795461127
 10
331.4285229750651
 20
214.4722182805431
  0
LINE
  5
11F
330
70
100
AcDbEntity
  8
shade
 62
     6
420
 16711935
370
    25
100
AcDbLine
 10
331.4285229750651
 20
214.4685987379503
 30
0.0
 11
331.4104208426381
 21
214.3491228961498
 31
0.0
  0
LWPOLYLINE
  5
120
330
70
100
AcDbEntity
  8
shade
 62
     6
420
 16711935
370
    25
100
AcDbPolyline
 90
       47
 70
     0
 43
0.0
 10
334.3429662957179
 20
188.5535863982413
 10
334.5203658676537
 20
189.2269848406108
 10
334.6796655169033
 20
189.9546896802598
 10
334.813621738802
 20
190.740322669513
 10
334.8679281360829
 20
191.0915044805312
 10
334.9149932384483
 20
191.45354712906
 10
334.9620583408038
 20
191.826450615098
 10
335.0018821482493
 20
192.2029758534609
 10
335.0380864131033
 20
192.5903619293317
 10
335.0742906779572
 20
192.9849870903882
 10
335.1032558576267
 20
193.3904752986857
 10
335.1249775326465
 20
193.7380353573816
 10
335.1466992076599
 20
194.1145605957432
 10
335.1684230924143
 20
194.5164270517174
 10
335.1865252248413
 20
194.9508782299502
 10
335.2010056049447
 20
195.4070532929358
 10
335.2154881947762
 20
195.8958108684494
 10
335.2227294896952
 20
196.2650948118946
 10
335.226349032283
 20
196.6597199729512
 10
335.2299707846104
 20
197.0941711511849
 10
335.2335903272019
 20
197.5720678891893
 10
335.2335903272019
 20
198.0934079772291
 10
335.2299707846104
 20
198.6509545398578
 10
335.1973860623493
 20
200.1498119886567
 10
335.1937665197564
 20
200.3416941504305
 10
335.1865252248413
 20
200.5299567696111
 10
335.1792839299262
 20
200.71821717906
 10
335.1720426350072
 20
200.9064797982407
 10
335.164801340092
 20
201.0875011225049
 10
335.1575622549038
 20
201.272144199093
 10
335.1430796650722
 20
201.6233238003805
 10
335.1177362377263
 20
202.0686380258558
 10
335.0851537251959
 20
202.6008389514061
 10
335.0453277080235
 20
203.2054506163964
 10
334.9874017681511
 20
203.8788512684979
 10
334.8715476786741
 20
205.0156616493043
 10
334.7412132090954
 20
206.0330050272421
 10
334.5963961496851
 20
206.9453507337456
 10
334.4950224403116
 20
207.4920342491305
 10
334.3864096457511
 20
207.9988939570708
 10
334.3646879707364
 20
208.1075067516287
 10
334.3393445433943
 20
208.2125000035948
 10
334.3140011160484
 20
208.3174932555612
 10
334.288659898437
 20
208.4224865075276
 10
334.2633164710962
 20
208.5238557974358
 10
334.2379730437489
 20
208.6216099642188
 10
334.2126296164071
 20
208.7193597115355
  0
LWPOLYLINE
  5
121
330
70
100
AcDbEntity
  8
shade
 62
     6
420
 16711935
370
    25
100
AcDbPolyline
 90
        7
 70
     0
 43
0.0
 10
333.2749404825573
 20
186.2220308578267
 10
333.3292468798382
 20
186.2980611398572
 10
333.4016554095448
 20
186.40305218209
 10
333.4668226443324
 20
186.5008041391396
 10
333.524748584201
 20
186.5949343438647
 10
333.5718136865668
 20
186.6782059208113
 10
333.6152592463343
 20
186.7542339931095
  0
LINE
  5
122
330
70
100
AcDbEntity
  8
shade
 62
     6
420
 16711935
370
    25
100
AcDbLine
 10
330.9940717968298
 20
214.4685987379503
 30
0.0
 11
330.9651066171602
 21
214.2803339090376
 31
0.0
  0
LINE
  5
123
330
70
100
AcDbEntity
  8
shade
 62
     6
420
 16711935
370
    25
100
AcDbLine
 10
330.9687283694877
 20
183.850651509966
 30
0.0
 11
330.9832087495872
 21
183.752899552917
 31
0.0
  0
LWPOLYLINE
  5
124
330
70
100
AcDbEntity
  8
shade
 62
     6
420
 16711935
370
    25
100
AcDbPolyline
 90
       53
 70
     0
 43
0.0
 10
335.1249775326465
 20
186.9135336423555
 10
335.389268224124
 20
187.308158803412
 10
335.7151066077975
 20
187.9127704683994
 10
335.9902603465189
 20
188.5535863982413
 10
336.2292065057904
 20
189.2269848406108
 10
336.4391919048538
 20
189.9546896802598
 10
336.6202132291218
 20
190.740322669513
 10
336.6890011113678
 20
191.0915044805312
 10
336.7541683461554
 20
191.45354712906
 10
336.8157160383502
 20
191.826450615098
 10
336.8700224356307
 20
192.2029758534609
 10
336.9207081854536
 20
192.5903619293317
 10
336.9641537452226
 20
192.9849870903882
 10
337.0075982001262
 20
193.3904752986857
 10
337.0365622749302
 20
193.7380353573816
 10
337.0655252448639
 20
194.1145605957432
 10
337.090868672206
 20
194.5164270517174
 10
337.1162109946828
 20
194.9508782299502
 10
337.1379337745717
 20
195.4070532929358
 10
337.1524152595368
 20
195.8958108684494
 10
337.1632772019087
 20
196.2650948118946
 10
337.1705173919634
 20
196.6597199729512
 10
337.1777586868786
 20
197.0941711511849
 10
337.1813793343408
 20
197.5720678891893
 10
337.1777586868786
 20
198.0934079772291
 10
337.1741380394205
 20
198.6509545398578
 10
337.1343131271095
 20
200.1498119886567
 10
337.1234522896015
 20
200.3416941504305
 10
337.1162109946828
 20
200.5299567696111
 10
337.1089708046329
 20
200.71821717906
 10
337.0981088622559
 20
200.9064797982407
 10
337.0872480247492
 20
201.0875011225049
 10
337.0800067298341
 20
201.272144199093
 10
337.0582850548142
 20
201.6233238003805
 10
337.0257003325531
 20
202.0686380258558
 10
336.9822558776496
 20
202.6008389514061
 10
336.9243288329116
 20
203.2054506163964
 10
336.8519203032038
 20
203.8788512684979
 10
336.6998619488744
 20
205.0156616493043
 10
336.5224612720683
 20
206.0330050272421
 10
336.3305791102971
 20
206.9453507337456
 10
336.1930022409364
 20
207.4920342491305
 10
336.0518058289842
 20
207.9988939570708
 10
336.0192222115925
 20
208.1075067516287
 10
335.9866385941915
 20
208.2125000035948
 10
335.9504343293427
 20
208.3174932555612
 10
335.9178518168126
 20
208.4224865075276
 10
335.8852670945554
 20
208.5238557974358
 10
335.852682372293
 20
208.6216099642188
 10
335.8164781074391
 20
208.7193597115355
 10
335.5449461210465
 20
209.4289624187562
 10
335.2697945920559
 20
210.0227132462372
 10
335.0380864131033
 20
210.4571644244713
  0
LWPOLYLINE
  5
125
330
70
100
AcDbEntity
  8
shade
 62
     6
420
 16711935
370
    25
100
AcDbPolyline
 90
       41
 70
     0
 43
0.0
 10
331.2511211933934
 20
183.7492800103241
 10
331.4321425176567
 20
183.7963451126864
 10
331.9172805505759
 20
183.9375426295067
 10
332.4386206386225
 20
184.143907381113
 10
332.9780650688174
 20
184.437161042529
 10
333.4125162470528
 20
184.74851683637
 10
333.839726130373
 20
185.1431442071582
 10
334.2633164710962
 20
185.635521325265
 10
334.6688046793927
 20
186.2401329902537
 10
334.9584387982174
 20
186.7687165829449
 10
335.2335903272019
 20
187.3733260382006
 10
335.4906397237655
 20
188.0575875278113
 10
335.7259674453094
 20
188.8251183846388
 10
335.9431930344227
 20
189.6831576938643
 10
336.131455653606
 20
190.6389511698715
 10
336.2943748454435
 20
191.6961161455203
 10
336.4138484775117
 20
192.7605202063547
 10
336.5079797871032
 20
193.9154371390533
 10
336.5731470218908
 20
195.1608647338827
 10
336.6093512867447
 20
196.4714573537689
 10
336.6202132291218
 20
197.8073956107331
 10
336.6093512867447
 20
199.1433316579614
 10
336.5586655369223
 20
200.7870061661734
 10
336.4753961697076
 20
202.3184461275017
 10
336.3595420802308
 20
203.7340342090864
 10
336.2147250208205
 20
205.0373877437894
 10
336.0409449914762
 20
206.232128483932
 10
335.8382019921896
 20
207.3254955147
 10
335.6282176979914
 20
208.2668064008744
 10
335.3965095190392
 20
209.1248457100999
 10
335.1466992076599
 20
209.9032374044358
 10
334.8787889735947
 20
210.6019814838816
 10
334.5963961496851
 20
211.2319365762143
 10
334.2379730437489
 20
211.8980959334006
 10
333.8650695577096
 20
212.473740208988
 10
333.4740639392527
 20
212.9624977845001
 10
333.068575730951
 20
213.3752272877156
 10
332.6558462277355
 20
213.711928718633
 10
332.1055409600235
 20
214.0594887773276
 10
331.5516161497252
 20
214.3056795461127
 10
330.9940717968298
 20
214.4722182805431
  0
LWPOLYLINE
  5
126
330
70
100
AcDbEntity
  8
shade
 62
     6
420
 16711935
370
    25
100
AcDbPolyline
 90
       61
 70
     0
 43
0.0
 10
333.2966621575758
 20
186.2546155800865
 10
333.3292468798382
 20
186.2980611398572
 10
333.4016554095448
 20
186.40305218209
 10
333.4668226443324
 20
186.5008041391396
 10
333.524748584201
 20
186.5949343438647
 10
333.5718136865668
 20
186.6782059208113
 10
333.6152592463343
 20
186.7542339931095
 10
333.8940325276487
 20
187.308158803412
 10
334.1366015441077
 20
187.9127704683994
 10
334.3429662957179
 20
188.5535863982413
 10
334.5203658676537
 20
189.2269848406108
 10
334.6760437645809
 20
189.9546896802598
 10
334.813621738802
 20
190.740322669513
 10
334.8679281360829
 20
191.0915044805312
 10
334.9149932384483
 20
191.45354712906
 10
334.9620583408038
 20
191.826450615098
 10
335.0018821482493
 20
192.2029758534609
 10
335.0380864131033
 20
192.5903619293317
 10
335.0742906779572
 20
192.9849870903882
 10
335.1032558576267
 20
193.3904752986857
 10
335.1249775326465
 20
193.7380353573816
 10
335.1466992076599
 20
194.1145605957432
 10
335.1684230924143
 20
194.5164270517174
 10
335.1865252248413
 20
194.9508782299502
 10
335.2010056049447
 20
195.4070532929358
 10
335.2154881947762
 20
195.8958108684494
 10
335.2227294896952
 20
196.2650948118946
 10
335.226349032283
 20
196.6597199729512
 10
335.2299707846104
 20
197.0941711511849
 10
335.2335903272019
 20
197.5720678891893
 10
335.2335903272019
 20
198.0934079772291
 10
335.2299707846104
 20
198.6509545398578
 10
335.1973860623493
 20
200.1498119886567
 10
335.1937665197564
 20
200.3416941504305
 10
335.1865252248413
 20
200.5299567696111
 10
335.1792839299262
 20
200.71821717906
 10
335.1720426350072
 20
200.9064797982407
 10
335.164801340092
 20
201.0875011225049
 10
335.1575622549038
 20
201.272144199093
 10
335.1430796650722
 20
201.6233238003805
 10
335.1177362377263
 20
202.0686380258558
 10
335.0851537251959
 20
202.6008389514061
 10
335.0453277080235
 20
203.2054506163964
 10
334.9874017681511
 20
203.8788512684979
 10
334.8715476786741
 20
205.0156616493043
 10
334.7412132090954
 20
206.0330050272421
 10
334.5963961496851
 20
206.9453507337456
 10
334.4950224403116
 20
207.4920342491305
 10
334.3864096457511
 20
207.9988939570708
 10
334.3646879707364
 20
208.1075067516287
 10
334.3393445433943
 20
208.2125000035948
 10
334.3140011160484
 20
208.3174932555612
 10
334.288659898437
 20
208.4224865075276
 10
334.2633164710962
 20
208.5238557974358
 10
334.2379730437489
 20
208.6216099642188
 10
334.2126296164071
 20
208.7193597115355
 10
334.0098866171241
 20
209.4289624187562
 10
333.803521865519
 20
210.0227132462372
 10
333.6007788662308
 20
210.525953411585
 10
333.4016554095448
 20
210.9459219999834
 10
333.1952906579343
 20
211.3260667809377
  0
LWPOLYLINE
  5
127
330
70
100
AcDbEntity
  8
shade
 62
     6
420
 16711935
370
    25
100
AcDbPolyline
 90
       60
 70
     0
 43
0.0
 10
332.5979202878669
 20
188.5535863982413
 10
332.7137743773387
 20
189.2269848406108
 10
332.8151458769803
 20
189.9546896802598
 10
332.9056565391147
 20
190.740322669513
 10
332.9382390516399
 20
191.0915044805312
 10
332.9708237739023
 20
191.45354712906
 10
332.9997867438359
 20
191.826450615098
 10
333.0251301711781
 20
192.2029758534609
 10
333.0504735985253
 20
192.5903619293317
 10
333.0721952735439
 20
192.9849870903882
 10
333.0902974059708
 20
193.3904752986857
 10
333.1047799958011
 20
193.7380353573816
 10
333.1192603759045
 20
194.1145605957432
 10
333.130123423147
 20
194.5164270517174
 10
333.1446038032466
 20
194.9508782299502
 10
333.1518450981655
 20
195.4070532929358
 10
333.1627059356774
 20
195.8958108684494
 10
333.166327688001
 20
196.2650948118946
 10
333.1699472305925
 20
196.6597199729512
 10
333.1735667731802
 20
197.0941711511849
 10
333.1735667731802
 20
197.5720678891893
 10
333.1735667731802
 20
198.0934079772291
 10
333.1699472305925
 20
198.6509545398578
 10
333.1518450981655
 20
200.1498119886567
 10
333.1482255555702
 20
200.3416941504305
 10
333.1446038032466
 20
200.5299567696111
 10
333.1409842606537
 20
200.71821717906
 10
333.1337429657386
 20
200.9064797982407
 10
333.130123423147
 20
201.0875011225049
 10
333.1265016708235
 20
201.272144199093
 10
333.1156408333129
 20
201.6233238003805
 10
333.1011582434775
 20
202.0686380258558
 10
333.079436568459
 20
202.6008389514061
 10
333.0504735985253
 20
203.2054506163964
 10
333.0142693336714
 20
203.8788512684979
 10
332.9418608039687
 20
205.0156616493043
 10
332.8549696844257
 20
206.0330050272421
 10
332.7644590222921
 20
206.9453507337456
 10
332.6956722449117
 20
207.4920342491305
 10
332.6268832578018
 20
207.9988939570708
 10
332.6124006679664
 20
208.1075067516287
 10
332.5979202878669
 20
208.2125000035948
 10
332.5798181554361
 20
208.3174932555612
 10
332.5653355656009
 20
208.4224865075276
 10
332.5472334331792
 20
208.5238557974358
 10
332.5327530530757
 20
208.6216099642188
 10
332.5146509206488
 20
208.7193597115355
 10
332.3843142413377
 20
209.4289624187562
 10
332.250358019439
 20
210.0227132462372
 10
332.120023549859
 20
210.525953411585
 10
331.9933086228753
 20
210.9459219999834
 10
331.8557328583799
 20
211.3369298281804
 10
331.7253961790691
 20
211.6519051646152
 10
331.6964332091355
 20
211.7134506470779
 10
331.6674702392018
 20
211.7713810064144
 10
331.6421268118546
 20
211.8293069462869
 10
331.6167833845124
 20
211.8836133435652
 10
331.5878204145736
 20
211.9343001982533
 10
331.5624769872367
 20
211.9813630908815
 10
331.5371357696266
 20
212.028430402978
  0
LWPOLYLINE
  5
128
330
70
100
AcDbEntity
  8
shade
 62
     6
420
 16711935
370
    25
100
AcDbPolyline
 90
       10
 70
     0
 43
0.0
 10
331.6204051368361
 20
185.7115516072962
 10
331.6964332091355
 20
185.8274056967702
 10
331.7905656235926
 20
185.9867031362832
 10
331.8955566658266
 20
186.1894483452993
 10
331.9462435205147
 20
186.2980611398572
 10
331.9933086228753
 20
186.40305218209
 10
332.0331324303208
 20
186.5008041391396
 10
332.0693366951696
 20
186.5949343438647
 10
332.1019214174371
 20
186.6782059208113
 10
332.1308843873708
 20
186.7542339931095
  0
LINE
  5
129
330
70
100
AcDbEntity
  8
shade
 62
     6
420
 16711935
370
    25
100
AcDbLine
 10
330.4763490416444
 20
184.0063294068868
 30
0.0
 11
330.5197946014183
 21
183.752899552917
 31
0.0
  0
LWPOLYLINE
  5
12A
330
70
100
AcDbEntity
  8
shade
 62
     6
420
 16711935
370
    25
100
AcDbPolyline
 90
       41
 70
     0
 43
0.0
 10
330.7152985155169
 20
183.752899552917
 10
330.8383916901769
 20
183.7963451126864
 10
331.1823322062774
 20
183.9375426295067
 10
331.5479966071285
 20
184.143907381113
 10
331.9281413880839
 20
184.437161042529
 10
332.232255887012
 20
184.74851683637
 10
332.5363725956673
 20
185.1431442071582
 10
332.8332480094072
 20
185.635521325265
 10
333.1192603759045
 20
186.2401329902537
 10
333.3220055849231
 20
186.7687165829449
 10
333.5175072892858
 20
187.3733260382006
 10
333.6985286135488
 20
188.0575875278113
 10
333.8650695577096
 20
188.8251183846388
 10
334.0171279120392
 20
189.6831576938643
 10
334.1510819242111
 20
190.6389511698715
 10
334.2633164710962
 20
191.6961161455203
 10
334.3502053808971
 20
192.7605202063547
 10
334.4153748254257
 20
193.9154371390533
 10
334.4624399277864
 20
195.1608647338827
 10
334.4877833551285
 20
196.4714573537689
 10
334.4950224403116
 20
197.8073956107331
 10
334.4877833551285
 20
199.1433316579614
 10
334.4515790902745
 20
200.7870061661734
 10
334.3936509406713
 20
202.3184461275017
 10
334.3103815734568
 20
203.7340342090864
 10
334.2090100738156
 20
205.0373877437894
 10
334.0859146894197
 20
206.232128483932
 10
333.9447193823365
 20
207.3254955147
 10
333.7962805705988
 20
208.2668064008744
 10
333.6333613787612
 20
209.1248457100999
 10
333.4559618068218
 20
209.9032374044358
 10
333.2676991876422
 20
210.6019814838816
 10
333.068575730951
 20
211.2319365762143
 10
332.8187654195718
 20
211.8980959334006
 10
332.5508551855024
 20
212.473740208988
 10
332.2757014467811
 20
212.9624977845001
 10
331.9933086228753
 20
213.3752272877156
 10
331.700054961459
 20
213.711928718633
 10
331.3126688855895
 20
214.0594887773276
 10
330.9216632671232
 20
214.3056795461127
 10
330.5306554389304
 20
214.4722182805431
  0
LINE
  5
12B
330
70
100
AcDbEntity
  8
shade
 62
     6
420
 16711935
370
    25
100
AcDbLine
 10
330.5306554389304
 20
214.4685987379503
 30
0.0
 11
330.4618686615461
 21
214.0812104523461
 31
0.0
  0
LWPOLYLINE
  5
12C
330
70
100
AcDbEntity
  8
shade
 62
     6
420
 16711935
370
    25
100
AcDbPolyline
 90
       72
 70
     0
 43
0.0
 10
331.6240246794276
 20
185.7187929022129
 10
331.6964332091355
 20
185.8274056967702
 10
331.7905656235926
 20
185.9867031362832
 10
331.8955566658266
 20
186.1894483452993
 10
331.9462435205147
 20
186.2980611398572
 10
331.9933086228753
 20
186.40305218209
 10
332.0331324303208
 20
186.5008041391396
 10
332.0693366951696
 20
186.5949343438647
 10
332.1019214174371
 20
186.6782059208113
 10
332.1308843873708
 20
186.7542339931095
 10
332.3082861690383
 20
187.308158803412
 10
332.4639640659594
 20
187.9127704683994
 10
332.5979202878669
 20
188.5535863982413
 10
332.7137743773387
 20
189.2269848406108
 10
332.8151458769803
 20
189.9546896802598
 10
332.9056565391147
 20
190.740322669513
 10
332.9382390516399
 20
191.0915044805312
 10
332.9708237739023
 20
191.45354712906
 10
332.9997867438359
 20
191.826450615098
 10
333.0251301711781
 20
192.2029758534609
 10
333.0504735985253
 20
192.5903619293317
 10
333.0721952735439
 20
192.9849870903882
 10
333.0902974059708
 20
193.3904752986857
 10
333.1047799958011
 20
193.7380353573816
 10
333.1192603759045
 20
194.1145605957432
 10
333.130123423147
 20
194.5164270517174
 10
333.1446038032466
 20
194.9508782299502
 10
333.1518450981655
 20
195.4070532929358
 10
333.1627059356774
 20
195.8958108684494
 10
333.166327688001
 20
196.2650948118946
 10
333.1699472305925
 20
196.6597199729512
 10
333.1735667731802
 20
197.0941711511849
 10
333.1735667731802
 20
197.5720678891893
 10
333.1735667731802
 20
198.0934079772291
 10
333.1699472305925
 20
198.6509545398578
 10
333.1518450981655
 20
200.1498119886567
 10
333.1482255555702
 20
200.3416941504305
 10
333.1446038032466
 20
200.5299567696111
 10
333.1409842606537
 20
200.71821717906
 10
333.1337429657386
 20
200.9064797982407
 10
333.130123423147
 20
201.0875011225049
 10
333.1265016708235
 20
201.272144199093
 10
333.1156408333129
 20
201.6233238003805
 10
333.1011582434775
 20
202.0686380258558
 10
333.079436568459
 20
202.6008389514061
 10
333.0504735985253
 20
203.2054506163964
 10
333.0142693336714
 20
203.8788512684979
 10
332.9418608039687
 20
205.0156616493043
 10
332.8549696844257
 20
206.0330050272421
 10
332.7644590222921
 20
206.9453507337456
 10
332.6956722449117
 20
207.4920342491305
 10
332.6268832578018
 20
207.9988939570708
 10
332.6124006679664
 20
208.1075067516287
 10
332.5979202878669
 20
208.2125000035948
 10
332.5798181554361
 20
208.3174932555612
 10
332.5653355656009
 20
208.4224865075276
 10
332.5472334331792
 20
208.5238557974358
 10
332.5327530530757
 20
208.6216099642188
 10
332.5146509206488
 20
208.7193597115355
 10
332.3843142413377
 20
209.4289624187562
 10
332.250358019439
 20
210.0227132462372
 10
332.120023549859
 20
210.525953411585
 10
331.9933086228753
 20
210.9459219999834
 10
331.8557328583799
 20
211.3369298281804
 10
331.7253961790691
 20
211.6519051646152
 10
331.6964332091355
 20
211.7134506470779
 10
331.6674702392018
 20
211.7713810064144
 10
331.6421268118546
 20
211.8293069462869
 10
331.6167833845124
 20
211.8836133435652
 10
331.5878204145736
 20
211.9343001982533
 10
331.5624769872367
 20
211.9813630908815
 10
331.5371357696266
 20
212.028430402978
  0
LWPOLYLINE
  5
12D
330
70
100
AcDbEntity
  8
shade
 62
     6
420
 16711935
370
    25
100
AcDbPolyline
 90
       87
 70
     0
 43
0.0
 10
330.1867149228244
 20
185.2481374591259
 10
330.193956217745
 20
185.255376544309
 10
330.2229191876784
 20
185.3133046939151
 10
330.2410213201053
 20
185.3531285013593
 10
330.2591234525323
 20
185.3929545185365
 10
330.277225584958
 20
185.4400196208981
 10
330.2989494697085
 20
185.4943260181777
 10
330.320671144727
 20
185.5522519580489
 10
330.3423950294776
 20
185.6174191928381
 10
330.3677362470877
 20
185.7079298549703
 10
330.4039405119417
 20
185.8274056967702
 10
330.4437665291191
 20
185.9867031362832
 10
330.4908316314849
 20
186.1894483452993
 10
330.5125533064983
 20
186.2980611398572
 10
330.5306554389304
 20
186.40305218209
 10
330.5487575713522
 20
186.5008041391396
 10
330.5632401611873
 20
186.5949343438647
 10
330.5777227510215
 20
186.6782059208113
 10
330.592203131121
 20
186.7542339931095
 10
330.6682334131563
 20
187.308158803412
 10
330.7370201905354
 20
187.9127704683994
 10
330.7949483401399
 20
188.5535863982413
 10
330.8420134425005
 20
189.2269848406108
 10
330.8854590022731
 20
189.9546896802598
 10
330.9252828097199
 20
190.740322669513
 10
330.9397653995502
 20
191.0915044805312
 10
330.9542457796535
 20
191.45354712906
 10
330.9651066171602
 20
191.826450615098
 10
330.9759696644028
 20
192.2029758534609
 10
330.9868305019108
 20
192.5903619293317
 10
330.9976913394227
 20
192.9849870903882
 10
331.0049326343416
 20
193.3904752986857
 10
331.0121739292568
 20
193.7380353573816
 10
331.0194130144412
 20
194.1145605957432
 10
331.0230347667647
 20
194.5164270517174
 10
331.0302760616837
 20
194.9508782299502
 10
331.0338956042753
 20
195.4070532929358
 10
331.0375151468682
 20
195.8958108684494
 10
331.0375151468682
 20
196.2650948118946
 10
331.0411368991904
 20
196.6597199729512
 10
331.0411368991904
 20
197.0941711511849
 10
331.0411368991904
 20
197.5720678891893
 10
331.0411368991904
 20
198.0934079772291
 10
331.0411368991904
 20
198.6509545398578
 10
331.0338956042753
 20
200.1498119886567
 10
331.0302760616837
 20
200.3416941504305
 10
331.0302760616837
 20
200.5299567696111
 10
331.0266543093602
 20
200.71821717906
 10
331.0266543093602
 20
200.9064797982407
 10
331.0230347667647
 20
201.0875011225049
 10
331.0194130144412
 20
201.272144199093
 10
331.0157934718496
 20
201.6233238003805
 10
331.0085521769293
 20
202.0686380258558
 10
331.0013108820142
 20
202.6008389514061
 10
330.9904500445075
 20
203.2054506163964
 10
330.9723479120754
 20
203.8788512684979
 10
330.9397653995502
 20
205.0156616493043
 10
330.9035611346963
 20
206.0330050272421
 10
330.8637351175191
 20
206.9453507337456
 10
330.834772147585
 20
207.4920342491305
 10
330.8058091776466
 20
207.9988939570708
 10
330.7985678827315
 20
208.1075067516287
 10
330.7913265878164
 20
208.2125000035948
 10
330.7840852928961
 20
208.3174932555612
 10
330.7768462077129
 20
208.4224865075276
 10
330.7696049127978
 20
208.5238557974358
 10
330.7659831604691
 20
208.6216099642188
 10
330.758744075286
 20
208.7193597115355
 10
330.7008159256815
 20
209.4289624187562
 10
330.642889985809
 20
210.0227132462372
 10
330.5849618362058
 20
210.525953411585
 10
330.5306554389304
 20
210.9459219999834
 10
330.472729499058
 20
211.3369298281804
 10
330.4148035591855
 20
211.6519051646152
 10
330.4039405119417
 20
211.7134506470779
 10
330.3930796744349
 20
211.7713810064144
 10
330.3785992943315
 20
211.8293069462869
 10
330.3677362470877
 20
211.8836133435652
 10
330.356875409581
 20
211.9343001982533
 10
330.3460145720692
 20
211.9813630908815
 10
330.3351537345625
 20
212.028430402978
 10
330.2989494697085
 20
212.180486547573
 10
330.2591234525323
 20
212.3144449792074
 10
330.2265409400019
 20
212.430296858951
 10
330.1903366751519
 20
212.5280466062664
 10
330.1577519528911
 20
212.6149377258071
 10
330.1360302778726
 20
212.6692441230851
  0
LINE
  5
12E
330
70
100
AcDbEntity
  8
shade
 62
     6
420
 16711935
370
    25
100
AcDbLine
 10
329.8826004239002
 20
184.6145628242007
 30
0.0
 11
330.0310370259075
 21
183.752899552917
 31
0.0
  0
LWPOLYLINE
  5
12F
330
70
100
AcDbEntity
  8
shade
 62
     6
420
 16711935
370
    25
100
AcDbPolyline
 90
       41
 70
     0
 43
0.0
 10
330.1468911153793
 20
183.752899552917
 10
330.215680102494
 20
183.7963451126864
 10
330.4111818068567
 20
183.9375426295067
 10
330.6139270158754
 20
184.143907381113
 10
330.8311526049938
 20
184.437161042529
 10
331.0013108820142
 20
184.74851683637
 10
331.1714713687666
 20
185.1431442071582
 10
331.3380123129316
 20
185.635521325265
 10
331.4973097524456
 20
186.2401329902537
 10
331.6131638419209
 20
186.7687165829449
 10
331.7217766364827
 20
187.3733260382006
 10
331.8231481361191
 20
188.0575875278113
 10
331.9172805505762
 20
188.8251183846388
 10
332.004169460382
 20
189.6831576938643
 10
332.0801997424135
 20
190.6389511698715
 10
332.1417452248775
 20
191.6961161455203
 10
332.1924320795668
 20
192.7605202063547
 10
332.2286363444153
 20
193.9154371390533
 10
332.2539797717612
 20
195.1608647338827
 10
332.2684601518659
 20
196.4714573537689
 10
332.2720819041882
 20
197.8073956107331
 10
332.2684601518659
 20
199.1433316579614
 10
332.2467384768462
 20
200.7870061661734
 10
332.2141537545853
 20
202.3184461275017
 10
332.1670886522247
 20
203.7340342090864
 10
332.1091627123522
 20
205.0373877437894
 10
332.0403737252359
 20
206.232128483932
 10
331.9643456529365
 20
207.3254955147
 10
331.8774545333996
 20
208.2668064008744
 10
331.7869438712703
 20
209.1248457100999
 10
331.6891919142152
 20
209.9032374044358
 10
331.5842008719824
 20
210.6019814838816
 10
331.4719663250983
 20
211.2319365762143
 10
331.3307710180164
 20
211.8980959334006
 10
331.1787126636859
 20
212.473740208988
 10
331.0266543093602
 20
212.9624977845001
 10
330.8673568698423
 20
213.3752272877156
 10
330.7008159256815
 20
213.711928718633
 10
330.4835903365646
 20
214.0594887773276
 10
330.2627452048546
 20
214.3056795461127
 10
330.0418978634141
 20
214.4722182805431
  0
LINE
  5
130
330
70
100
AcDbEntity
  8
shade
 62
     6
420
 16711935
370
    25
100
AcDbLine
 10
330.0418978634141
 20
214.4685987379503
 30
0.0
 11
329.8572569965581
 21
213.4041924673839
 31
0.0
  0
LWPOLYLINE
  5
131
330
70
100
AcDbEntity
  8
shade
 62
     6
420
 16711935
370
    25
100
AcDbPolyline
 90
       87
 70
     0
 43
0.0
 10
330.1830953802332
 20
185.2372744118833
 10
330.193956217745
 20
185.255376544309
 10
330.2229191876784
 20
185.3133046939151
 10
330.2410213201053
 20
185.3531285013593
 10
330.2591234525323
 20
185.3929545185365
 10
330.277225584958
 20
185.4400196208981
 10
330.2989494697085
 20
185.4943260181777
 10
330.320671144727
 20
185.5522519580489
 10
330.3423950294776
 20
185.6174191928381
 10
330.3677362470877
 20
185.7079298549703
 10
330.4039405119417
 20
185.8274056967702
 10
330.4437665291191
 20
185.9867031362832
 10
330.4908316314849
 20
186.1894483452993
 10
330.5125533064983
 20
186.2980611398572
 10
330.5306554389304
 20
186.40305218209
 10
330.5487575713522
 20
186.5008041391396
 10
330.5632401611873
 20
186.5949343438647
 10
330.5777227510215
 20
186.6782059208113
 10
330.592203131121
 20
186.7542339931095
 10
330.6682334131563
 20
187.308158803412
 10
330.7370201905354
 20
187.9127704683994
 10
330.7949483401399
 20
188.5535863982413
 10
330.8420134425005
 20
189.2269848406108
 10
330.8854590022731
 20
189.9546896802598
 10
330.9252828097199
 20
190.740322669513
 10
330.9397653995502
 20
191.0915044805312
 10
330.9542457796535
 20
191.45354712906
 10
330.9651066171602
 20
191.826450615098
 10
330.9759696644028
 20
192.2029758534609
 10
330.9868305019108
 20
192.5903619293317
 10
330.9976913394227
 20
192.9849870903882
 10
331.0049326343416
 20
193.3904752986857
 10
331.0121739292568
 20
193.7380353573816
 10
331.0194130144412
 20
194.1145605957432
 10
331.0230347667647
 20
194.5164270517174
 10
331.0302760616837
 20
194.9508782299502
 10
331.0338956042753
 20
195.4070532929358
 10
331.0375151468682
 20
195.8958108684494
 10
331.0375151468682
 20
196.2650948118946
 10
331.0411368991904
 20
196.6597199729512
 10
331.0411368991904
 20
197.0941711511849
 10
331.0411368991904
 20
197.5720678891893
 10
331.0411368991904
 20
198.0934079772291
 10
331.0411368991904
 20
198.6509545398578
 10
331.0338956042753
 20
200.1498119886567
 10
331.0302760616837
 20
200.3416941504305
 10
331.0302760616837
 20
200.5299567696111
 10
331.0266543093602
 20
200.71821717906
 10
331.0266543093602
 20
200.9064797982407
 10
331.0230347667647
 20
201.0875011225049
 10
331.0194130144412
 20
201.272144199093
 10
331.0157934718496
 20
201.6233238003805
 10
331.0085521769293
 20
202.0686380258558
 10
331.0013108820142
 20
202.6008389514061
 10
330.9904500445075
 20
203.2054506163964
 10
330.9723479120754
 20
203.8788512684979
 10
330.9397653995502
 20
205.0156616493043
 10
330.9035611346963
 20
206.0330050272421
 10
330.8637351175191
 20
206.9453507337456
 10
330.834772147585
 20
207.4920342491305
 10
330.8058091776466
 20
207.9988939570708
 10
330.7985678827315
 20
208.1075067516287
 10
330.7913265878164
 20
208.2125000035948
 10
330.7840852928961
 20
208.3174932555612
 10
330.7768462077129
 20
208.4224865075276
 10
330.7696049127978
 20
208.5238557974358
 10
330.7659831604691
 20
208.6216099642188
 10
330.758744075286
 20
208.7193597115355
 10
330.7008159256815
 20
209.4289624187562
 10
330.642889985809
 20
210.0227132462372
 10
330.5849618362058
 20
210.525953411585
 10
330.5306554389304
 20
210.9459219999834
 10
330.472729499058
 20
211.3369298281804
 10
330.4148035591855
 20
211.6519051646152
 10
330.4039405119417
 20
211.7134506470779
 10
330.3930796744349
 20
211.7713810064144
 10
330.3785992943315
 20
211.8293069462869
 10
330.3677362470877
 20
211.8836133435652
 10
330.356875409581
 20
211.9343001982533
 10
330.3460145720692
 20
211.9813630908815
 10
330.3351537345625
 20
212.028430402978
 10
330.2989494697085
 20
212.180486547573
 10
330.2591234525323
 20
212.3144449792074
 10
330.2265409400019
 20
212.430296858951
 10
330.1903366751519
 20
212.5280466062664
 10
330.1577519528911
 20
212.6149377258071
 10
330.1432715727877
 20
212.6547615332526
  0
LINE
  5
132
330
70
100
AcDbEntity
  8
shade
 62
     6
420
 16711935
370
    25
100
AcDbLine
 10
329.5459012027148
 20
214.4685987379503
 30
0.0
 11
329.5857250101603
 21
214.2513731488334
 31
0.0
  0
LINE
  5
133
330
70
100
AcDbEntity
  8
shade
 62
     6
420
 16711935
370
    25
100
AcDbLine
 10
329.5459012027148
 20
214.4685987379503
 30
0.0
 11
329.419185170866
 21
213.7630247483083
 31
0.0
  0
LINE
  5
134
330
70
100
AcDbEntity
  8
shade
 62
     6
420
 16711935
370
    25
100
AcDbLine
 10
329.4300471132434
 20
184.3321677905619
 30
0.0
 11
329.5350381554722
 21
183.752899552917
 31
0.0
  0
LWPOLYLINE
  5
135
330
70
100
AcDbEntity
  8
shade
 62
     6
420
 16711935
370
    25
100
AcDbPolyline
 90
       41
 70
     0
 43
0.0
 10
329.5676228777334
 20
183.752899552917
 10
329.5784837152452
 20
183.7963451126864
 10
329.6183097324227
 20
183.9375426295067
 10
329.6617530824597
 20
184.143907381113
 10
329.7015790996372
 20
184.437161042529
 10
329.7377833644912
 20
184.74851683637
 10
329.7703658770164
 20
185.1431442071582
 10
329.8065701418703
 20
185.635521325265
 10
329.8391548641315
 20
186.2401329902537
 10
329.8608765391512
 20
186.7687165829449
 10
329.8826004239002
 20
187.3733260382006
 10
329.9043220989187
 20
188.0575875278113
 10
329.9224242313457
 20
188.8251183846388
 10
329.9405263637726
 20
189.6831576938643
 10
329.9550089536081
 20
190.6389511698715
 10
329.9658697911199
 20
191.6961161455203
 10
329.9767306286266
 20
192.7605202063547
 10
329.9839719235417
 20
193.9154371390533
 10
329.9875914661333
 20
195.1608647338827
 10
329.9912132184569
 20
196.4714573537689
 10
329.9948327610536
 20
197.8073956107331
 10
329.9912132184569
 20
199.1433316579614
 10
329.9875914661333
 20
200.7870061661734
 10
329.9803523809501
 20
202.3184461275017
 10
329.973111086035
 20
203.7340342090864
 10
329.9622502485231
 20
205.0373877437894
 10
329.9477676586878
 20
206.232128483932
 10
329.9296655262659
 20
207.3254955147
 10
329.9151829364305
 20
208.2668064008744
 10
329.8970808040035
 20
209.1248457100999
 10
329.8753591289812
 20
209.9032374044358
 10
329.8536374539668
 20
210.6019814838816
 10
329.8319135692124
 20
211.2319365762143
 10
329.8029505992787
 20
211.8980959334006
 10
329.7739876293438
 20
212.473740208988
 10
329.7414029070827
 20
212.9624977845001
 10
329.7088203945563
 20
213.3752272877156
 10
329.6762356722951
 20
213.711928718633
 10
329.632790112526
 20
214.0594887773276
 10
329.589344552757
 20
214.3056795461127
 10
329.5459012027148
 20
214.4722182805431
  0
LWPOLYLINE
  5
136
330
70
100
AcDbEntity
  8
shade
 62
     6
420
 16711935
370
    25
100
AcDbPolyline
 90
       41
 70
     0
 43
0.0
 10
333.6116397037427
 20
183.752899552917
 10
334.0098866171241
 20
183.7963451126864
 10
335.1177362377263
 20
183.9375426295067
 10
336.305235682955
 20
184.143907381113
 10
337.5398013354099
 20
184.437161042529
 10
338.524557781352
 20
184.74851683637
 10
339.5056924749705
 20
185.1431442071582
 10
340.465105493571
 20
185.635521325265
 10
341.3919348947792
 20
186.2401329902537
 10
342.0508529570462
 20
186.7687165829449
 10
342.6771862970528
 20
187.3733260382006
 10
343.2636958296171
 20
188.0575875278113
 10
343.8067598024042
 20
188.8251183846388
 10
344.2955173779202
 20
189.6831576938643
 10
344.7299685561552
 20
190.6389511698715
 10
345.0992513947312
 20
191.6961161455203
 10
345.3780246760455
 20
192.7605202063547
 10
345.5916296177052
 20
193.9154371390533
 10
345.7364466771145
 20
195.1608647338827
 10
345.8233366917913
 20
196.4714573537689
 10
345.8486801191331
 20
197.8073956107331
 10
345.8160965017379
 20
199.1433316579614
 10
345.7038630597244
 20
200.7870061661734
 10
345.5119797930774
 20
202.3184461275017
 10
345.2476891015999
 20
203.7340342090864
 10
344.9146094230099
 20
205.0373877437894
 10
344.5199831570869
 20
206.232128483932
 10
344.0638091989676
 20
207.3254955147
 10
343.5822929183716
 20
208.2668064008744
 10
343.0537104305488
 20
209.1248457100999
 10
342.4853041352768
 20
209.9032374044358
 10
341.877071822832
 20
210.6019814838816
 10
341.2326363503984
 20
211.2319365762143
 10
340.4144197437519
 20
211.8980959334006
 10
339.5563793296586
 20
212.473740208988
 10
338.6657541933042
 20
212.9624977845001
 10
337.7461660870165
 20
213.3752272877156
 10
336.804855200838
 20
213.711928718633
 10
335.54856787337
 20
214.0594887773276
 10
334.281418603518
 20
214.3056795461127
 10
333.0504735985253
 20
214.4685987379503
  0
LINE
  5
137
330
70
100
AcDbEntity
  8
shade
 62
     6
420
 16711935
370
    25
100
AcDbLine
 10
333.0106475813478
 20
214.4685987379503
 30
0.0
 11
333.0106475813478
 21
214.4541161481162
 31
0.0
  0
LINE
  5
138
330
70
100
AcDbEntity
  8
shade
 62
     6
420
 16711935
370
    25
100
AcDbLine
 10
329.419185170866
 20
214.4685987379503
 30
0.0
 11
329.4191862757315
 21
214.4685987379503
 31
0.0
  0
LINE
  5
139
330
70
100
AcDbEntity
  8
shade
 62
     6
420
 16711935
370
    25
100
AcDbLine
 10
329.419185170866
 20
214.5699680278598
 30
0.0
 11
329.4191862757315
 21
214.5699680278598
 31
0.0
  0
LWPOLYLINE
  5
13A
330
70
100
AcDbEntity
  8
shade
 62
     6
420
 16711935
370
    25
100
AcDbPolyline
 90
       19
 70
     0
 43
0.0
 10
334.0533321768932
 20
183.6479085106842
 10
334.0243669972275
 20
183.6479085106842
 10
333.9628215147635
 20
183.6479085106842
 10
333.8650695577099
 20
183.6479085106842
 10
333.7311133358112
 20
183.6479085106842
 10
333.560952849055
 20
183.6479085106842
 10
333.3618293923635
 20
183.6479085106842
 10
333.1337429657386
 20
183.6479085106842
 10
332.8730718168527
 20
183.6479085106842
 10
332.5870594503551
 20
183.6479085106842
 10
332.2757014467811
 20
183.6479085106842
 10
331.9426217681873
 20
183.6479085106842
 10
331.5878204145736
 20
183.6479085106842
 10
331.2185364711313
 20
183.6479085106842
 10
330.8311526049938
 20
183.6479085106842
 10
330.436525234204
 20
183.6479085106842
 10
330.0346587782311
 20
183.6479085106842
 10
329.6255488176109
 20
183.6479085106842
 10
329.419185170866
 20
183.6479085106842
  0
LWPOLYLINE
  5
13B
330
70
100
AcDbEntity
  8
shade
 62
     6
420
 16711935
370
    25
100
AcDbPolyline
 90
       19
 70
     0
 43
0.0
 10
334.0424691296505
 20
183.752899552917
 10
334.0135061597156
 20
183.752899552917
 10
333.9519584675209
 20
183.752899552917
 10
333.8542087202033
 20
183.752899552917
 10
333.7202524982994
 20
183.752899552917
 10
333.5537115541398
 20
183.752899552917
 10
333.3545880974483
 20
183.752899552917
 10
333.1228821282319
 20
183.752899552917
 10
332.8658305219324
 20
183.752899552917
 10
332.5798181554361
 20
183.752899552917
 10
332.2684601518659
 20
183.752899552917
 10
331.9353826830028
 20
183.752899552917
 10
331.5805791196585
 20
183.752899552917
 10
331.2112973859428
 20
183.752899552917
 10
330.8275308526651
 20
183.752899552917
 10
330.4329056916125
 20
183.752899552917
 10
330.0310370259075
 20
183.752899552917
 10
329.6255488176109
 20
183.752899552917
 10
329.419185170866
 20
183.752899552917
  0
LWPOLYLINE
  5
13C
330
70
100
AcDbEntity
  8
shade
 62
     6
420
 16711935
370
    25
100
AcDbPolyline
 90
        3
 70
     0
 43
0.0
 10
332.8730718168527
 20
214.4613552333005
 10
332.8622109793457
 20
214.457735690709
 10
332.8585914367493
 20
214.4504966055246
  0
LINE
  5
13D
330
70
100
AcDbEntity
  8
shade
 62
     6
420
 16711935
370
    25
100
AcDbLine
 10
332.8296262570797
 20
214.4685987379503
 30
0.0
 11
332.8151458769803
 21
214.457735690709
 31
0.0
  0
LWPOLYLINE
  5
13E
330
70
100
AcDbEntity
  8
shade
 62
     6
420
 16711935
370
    25
100
AcDbPolyline
 90
        3
 70
     0
 43
0.0
 10
332.4096576686837
 20
214.4323944730989
 10
332.4168989635988
 20
214.4613552333005
 10
332.4205185061904
 20
214.4685987379503
  0
LINE
  5
13F
330
70
100
AcDbEntity
  8
shade
 62
     6
420
 16711935
370
    25
100
AcDbLine
 10
332.5436138905822
 20
214.4685987379503
 30
0.0
 11
332.5327530530757
 21
214.4613552333005
 31
0.0
  0
LWPOLYLINE
  5
140
330
70
100
AcDbEntity
  8
shade
 62
     6
420
 16711935
370
    25
100
AcDbPolyline
 90
        3
 70
     0
 43
0.0
 10
332.2865622842929
 20
214.4685987379503
 10
332.2757014467811
 20
214.4613552333005
 10
332.2684601518659
 20
214.457735690709
  0
LWPOLYLINE
  5
141
330
70
100
AcDbEntity
  8
shade
 62
     6
420
 16711935
370
    25
100
AcDbPolyline
 90
        3
 70
     0
 43
0.0
 10
331.5697182821518
 20
214.439633558282
 10
331.5733400344754
 20
214.4613552333005
 10
331.5769595770669
 20
214.4685987379503
  0
LWPOLYLINE
  5
142
330
70
100
AcDbEntity
  8
shade
 62
     6
420
 16711935
370
    25
100
AcDbPolyline
 90
        5
 70
     0
 43
0.0
 10
331.6819528290321
 20
214.4758378231347
 10
331.6710897817933
 20
214.4758378231347
 10
331.6529876493612
 20
214.4613552333005
 10
331.638507269263
 20
214.4432531008736
 10
331.6312659743478
 20
214.4251509684479
  0
LWPOLYLINE
  5
143
330
70
100
AcDbEntity
  8
shade
 62
     6
420
 16711935
370
    25
100
AcDbPolyline
 90
        6
 70
     0
 43
0.0
 10
331.2656037832289
 20
214.4758378231347
 10
331.254740735985
 20
214.4758378231347
 10
331.2366386035545
 20
214.4613552333005
 10
331.2221582234546
 20
214.4432531008736
 10
331.2149169285395
 20
214.4142923406719
 10
331.2112973859428
 20
214.4070488360209
  0
LWPOLYLINE
  5
144
330
70
100
AcDbEntity
  8
shade
 62
     6
420
 16711935
370
    25
100
AcDbPolyline
 90
        3
 70
     0
 43
0.0
 10
330.3713579994113
 20
214.1862037043125
 10
330.3713579994113
 20
214.1970667515551
 10
330.3641167044962
 20
214.2658513192022
  0
LWPOLYLINE
  5
145
330
70
100
AcDbEntity
  8
shade
 62
     6
420
 16711935
370
    25
100
AcDbPolyline
 90
        5
 70
     0
 43
0.0
 10
330.3641167044962
 20
214.2658513192022
 10
330.356875409581
 20
214.3274012211313
 10
330.356875409581
 20
214.396190208245
 10
330.3604971619098
 20
214.4613552333005
 10
330.3604971619098
 20
214.4685987379503
  0
LWPOLYLINE
  5
146
330
70
100
AcDbEntity
  8
shade
 62
     6
420
 16711935
370
    25
100
AcDbPolyline
 90
        8
 70
     0
 43
0.0
 10
330.3967014267585
 20
214.4758378231347
 10
330.3930796744349
 20
214.4758378231347
 10
330.3858383795198
 20
214.4613552333005
 10
330.3822188369231
 20
214.4432531008736
 10
330.3785992943315
 20
214.4142923406719
 10
330.3785992943315
 20
214.3817076184109
 10
330.3785992943315
 20
214.3491228961498
 10
330.3822188369231
 20
214.3237816785397
  0
LWPOLYLINE
  5
147
330
70
100
AcDbEntity
  8
shade
 62
     6
420
 16711935
370
    25
100
AcDbPolyline
 90
        3
 70
     0
 43
0.0
 10
330.3822188369231
 20
214.3237816785397
 10
330.3930796744349
 20
214.1970667515551
 10
330.3930796744349
 20
214.1608624867012
  0
LINE
  5
148
330
70
100
AcDbEntity
  8
shade
 62
     6
420
 16711935
370
    25
100
AcDbLine
 10
329.893461261412
 20
214.0920734995887
 30
0.0
 11
329.893461261412
 21
213.6141745518513
 31
0.0
  0
LWPOLYLINE
  5
149
330
70
100
AcDbEntity
  8
shade
 62
     6
420
 16711935
370
    25
100
AcDbPolyline
 90
        3
 70
     0
 43
0.0
 10
329.8789786715766
 20
214.3237816785397
 10
329.8898417188204
 20
214.1970667515551
 10
329.893461261412
 20
214.0920734995887
  0
LWPOLYLINE
  5
14A
330
70
100
AcDbEntity
  8
shade
 62
     6
420
 16711935
370
    25
100
AcDbPolyline
 90
        8
 70
     0
 43
0.0
 10
329.8970808040035
 20
214.4758378231347
 10
329.8898417188204
 20
214.4722182805431
 10
329.8826004239002
 20
214.4541161481162
 10
329.8789786715766
 20
214.4323944730989
 10
329.8753591289815
 20
214.3998097508378
 10
329.8753591289812
 20
214.3672250285767
 10
329.8789786715766
 20
214.3382598489072
 10
329.8789786715766
 20
214.3237816785397
  0
LWPOLYLINE
  5
14B
330
70
100
AcDbEntity
  8
shade
 62
     6
420
 16711935
370
    25
100
AcDbPolyline
 90
        3
 70
     0
 43
0.0
 10
331.815906841204
 20
183.752899552917
 10
331.8086677560196
 20
183.7565213052421
 10
331.8050460036921
 20
183.760140847835
  0
LWPOLYLINE
  5
14C
330
70
100
AcDbEntity
  8
shade
 62
     6
420
 16711935
370
    25
100
AcDbPolyline
 90
        7
 70
     0
 43
0.0
 10
329.6762356722951
 20
183.7492800103241
 10
329.6762356722951
 20
183.760140847835
 10
329.6762356722951
 20
183.7854842751768
 10
329.6762356722951
 20
183.8144472451133
 10
329.6762356722951
 20
183.8470319673744
 10
329.6762356722951
 20
183.8796144799019
 10
329.6762356722951
 20
183.894097069736
  0
LWPOLYLINE
  5
14D
330
70
100
AcDbEntity
  8
shade
 62
     6
420
 16711935
370
    25
100
AcDbPolyline
 90
        5
 70
     0
 43
0.0
 10
329.6762356722951
 20
183.894097069736
 10
329.6762356722951
 20
183.9049579072456
 10
329.6762356722951
 20
183.9846077318683
 10
329.6762356722951
 20
184.1185639537706
 10
329.6762356722951
 20
184.1258052486873
  0
LINE
  5
14E
330
70
100
AcDbEntity
  8
shade
 62
     6
420
 16711935
370
    25
100
AcDbLine
 10
339.064001106686
 20
207.796150957788
 30
0.0
 11
339.3029494756881
 21
207.111889468176
 31
0.0
  0
LINE
  5
14F
330
70
100
AcDbEntity
  8
shade
 62
     6
420
 16711935
370
    25
100
AcDbLine
 10
339.3065690182798
 20
189.4333495922197
 30
0.0
 11
339.0676217541479
 21
188.8721834869997
 31
0.0
  0
LINE
  5
150
330
70
100
AcDbEntity
  8
shade
 62
     6
420
 16711935
370
    25
100
AcDbLine
 10
336.5948698017749
 20
210.1856324380748
 30
0.0
 11
337.054664407352
 21
209.2407020093089
 31
0.0
  0
LINE
  5
151
330
70
100
AcDbEntity
  8
shade
 62
     6
420
 16711935
370
    25
100
AcDbLine
 10
337.1089708046329
 20
187.815018511351
 30
0.0
 11
336.6564174939758
 21
187.0547289494422
 31
0.0
  0
LINE
  5
152
330
70
100
AcDbEntity
  8
shade
 62
     6
420
 16711935
370
    25
100
AcDbLine
 10
334.4334769578476
 20
211.5577749598901
 30
0.0
 11
335.0380864131033
 21
210.4607839670628
 31
0.0
  0
LINE
  5
153
330
70
100
AcDbEntity
  8
shade
 62
     6
420
 16711935
370
    25
100
AcDbLine
 10
335.1322188275617
 20
186.9062923474387
 30
0.0
 11
334.5239876199824
 21
186.0048052687102
 31
0.0
  0
LWPOLYLINE
  5
154
330
70
100
AcDbEntity
  8
shade
 62
     6
420
 16711935
370
    25
100
AcDbPolyline
 90
        4
 70
     0
 43
0.0
 10
332.5001683308134
 20
212.5714943757687
 10
332.7789416121263
 20
212.0610151252378
 10
333.0178888762629
 20
211.6301834895953
 10
333.202531952855
 20
211.3115841911052
  0
LWPOLYLINE
  5
155
330
70
100
AcDbEntity
  8
shade
 62
     6
420
 16711935
370
    25
100
AcDbPolyline
 90
        4
 70
     0
 43
0.0
 10
333.2966621575758
 20
186.2509938277633
 10
333.1265016708235
 20
186.0120465636276
 10
332.8730718168527
 20
185.6500039150992
 10
332.5906789929482
 20
185.2264135743744
  0
LWPOLYLINE
  5
156
330
70
100
AcDbEntity
  8
shade
 62
     6
420
 16711935
370
    25
100
AcDbPolyline
 90
        4
 70
     0
 43
0.0
 10
330.8311526049938
 20
213.4476358174222
 10
331.0302760616837
 20
213.027667229021
 10
331.2728428684068
 20
212.5316705683232
 10
331.5479966071285
 20
212.0139478131426
  0
LWPOLYLINE
  5
157
330
70
100
AcDbEntity
  8
shade
 62
     6
420
 16711935
370
    25
100
AcDbPolyline
 90
        4
 70
     0
 43
0.0
 10
331.6240246794276
 20
185.7187929022129
 10
331.4611054875916
 20
185.4762238857507
 10
331.1931952535213
 20
185.0562530876188
 10
330.8999393823727
 20
184.5530151320049
  0
LWPOLYLINE
  5
158
330
70
100
AcDbEntity
  8
shade
 62
     6
420
 16711935
370
    25
100
AcDbPolyline
 90
        5
 70
     0
 43
0.0
 10
329.5965858476721
 20
214.2658513192022
 10
329.7341616121676
 20
213.7770937436886
 10
329.8789786715766
 20
213.3354034802701
 10
330.0237957309871
 20
212.9480196141313
 10
330.1432715727877
 20
212.6547615332526
  0
LWPOLYLINE
  5
159
330
70
100
AcDbEntity
  8
shade
 62
     6
420
 16711935
370
    25
100
AcDbPolyline
 90
        4
 70
     0
 43
0.0
 10
330.1867149228244
 20
185.2372744118833
 10
329.9948327610536
 20
184.8679926781718
 10
329.7703658770164
 20
184.3611329702315
 10
329.5965858476721
 20
183.8578928048834
  0
LINE
  5
15A
330
70
100
AcDbEntity
  8
shade
 62
     6
420
 16711935
370
    25
100
AcDbLine
 10
329.4300471132434
 20
184.3321677905619
 30
0.0
 11
329.419185170866
 21
184.3796169977515
 31
0.0
  0
LWPOLYLINE
  5
15B
330
70
100
AcDbEntity
  8
shade
 62
     6
420
 16711935
370
    25
100
AcDbPolyline
 90
       17
 70
     0
 43
0.0
 10
332.9237586715366
 20
183.5320544212089
 10
332.9056565391147
 20
183.5320544212089
 10
332.8549696844257
 20
183.5320544212089
 10
332.7644590222921
 20
183.5320544212089
 10
332.6413658476359
 20
183.5320544212089
 10
332.485685740978
 20
183.5320544212089
 10
332.2974253315355
 20
183.5320544212089
 10
332.0801997424135
 20
183.5320544212089
 10
331.8340089736309
 20
183.5320544212089
 10
331.5660987395603
 20
183.5320544212089
 10
331.2728428684068
 20
183.5320544212089
 10
330.9651066171602
 20
183.5320544212089
 10
330.63564869089
 20
183.5320544212089
 10
330.2989494697085
 20
183.5320544212089
 10
329.9513872012806
 20
183.5320544212089
 10
329.5965858476721
 20
183.5320544212089
 10
329.419185170866
 20
183.5320544212089
  0
LWPOLYLINE
  5
15C
330
70
100
AcDbEntity
  8
shade
 62
     6
420
 16711935
370
    25
100
AcDbPolyline
 90
        9
 70
     0
 43
0.0
 10
332.9563411840669
 20
183.5356739638004
 10
332.9527216414754
 20
183.5320544212089
 10
332.9491020988838
 20
183.5320544212089
 10
332.9454803465551
 20
183.5320544212089
 10
332.9418608039687
 20
183.5320544212089
 10
332.9382390516399
 20
183.5320544212089
 10
332.9346195090484
 20
183.5320544212089
 10
332.9273782141332
 20
183.5320544212089
 10
332.9237586715369
 20
183.5320544212089
  0
LINE
  5
15D
330
70
100
AcDbEntity
  8
shade
 62
     6
420
 16711935
370
    25
100
AcDbLine
 10
334.0533321768932
 20
183.6479085106842
 30
0.0
 11
332.9563411840669
 21
183.5356739638004
 31
0.0
  0
LINE
  5
15E
330
70
100
AcDbEntity
  8
shade
 62
     6
420
 16711935
370
    25
100
AcDbLine
 10
334.0424691296505
 20
183.752899552917
 30
0.0
 11
334.0533321768932
 21
183.6479085106842
 31
0.0
  0
LINE
  5
15F
330
70
100
AcDbEntity
  8
shade
 62
     6
420
 16711935
370
    25
100
AcDbLine
 10
332.8730718168527
 20
214.4613552333005
 30
0.0
 11
332.8585914367493
 21
214.4504966055246
 31
0.0
  0
LINE
  5
160
330
70
100
AcDbEntity
  8
shade
 62
     6
420
 16711935
370
    25
100
AcDbLine
 10
330.82028955775
 20
207.763566235527
 30
0.0
 11
330.82028955775
 21
207.763566235527
 31
0.0
  0
LINE
  5
161
330
70
100
AcDbEntity
  8
shade
 62
     6
420
 16711935
370
    25
100
AcDbLine
 10
330.9108002198845
 20
205.8700858354036
 30
0.0
 11
330.9108002198845
 21
205.8700858354036
 31
0.0
  0
LWPOLYLINE
  5
162
330
70
100
AcDbEntity
  8
shade
 62
     6
420
 16711935
370
    25
100
AcDbPolyline
 90
        5
 70
     0
 43
0.0
 10
329.4191862757315
 20
214.4685987379503
 10
334.0424691296505
 20
214.4685987379503
 10
334.0533321768932
 20
214.5699680278598
 10
332.9563411840669
 20
214.6858243270671
 10
329.419185170866
 20
214.6858243270675
  0
LINE
  5
163
330
70
100
AcDbEntity
  8
shade
 62
     6
420
 16711935
370
    25
100
AcDbLine
 10
334.0533321768932
 20
214.5699680278598
 30
0.0
 11
329.419185170866
 21
214.5699680278598
 31
0.0
  0
LINE
  5
164
330
70
100
AcDbEntity
  8
shade
 62
     6
420
 16711935
370
    25
100
AcDbLine
 10
329.7270636301484
 20
219.7931429684652
 30
0.0
 11
329.7270639117766
 21
214.5926172565504
 31
0.0
  0
ENDSEC
  0
SECTION
  2
OBJECTS
  0
DICTIONARY
  5
C
330
0
100
AcDbDictionary
281
     1
  3
ACAD_COLOR
350
63
  3
ACAD_DETAILVIEWSTYLE
350
6A
  3
ACAD_GROUP
350
D
  3
ACAD_LAYOUT
350
62
  3
ACAD_MATERIAL
350
10
  3
ACAD_MLEADERSTYLE
350
66
  3
ACAD_MLINESTYLE
350
5F
  3
ACAD_PLOTSETTINGS
350
61
  3
ACAD_PLOTSTYLENAME
350
E
  3
ACAD_SCALELIST
350
42
  3
ACAD_SECTIONVIEWSTYLE
350
68
  3
ACAD_TABLESTYLE
350
64
  3
ACAD_VISUALSTYLE
350
29
  3
ACDB_RECOMPOSE_DATA
350
16D
  3
AcDbVariableDictionary
350
165
  0
DICTIONARY
  5
63
102
{ACAD_REACTORS
330
C
102
}
330
C
100
AcDbDictionary
281
     1
  0
DICTIONARY
  5
6A
102
{ACAD_REACTORS
330
C
102
}
330
C
100
AcDbDictionary
281
     1
  3
Imperial24
350
6B
  0
DICTIONARY
  5
D
102
{ACAD_REACTORS
330
C
102
}
330
C
100
AcDbDictionary
281
     1
  0
DICTIONARY
  5
62
102
{ACAD_REACTORS
330
C
102
}
330
C
100
AcDbDictionary
281
     1
  3
Layout1
350
6F
  3
Layout2
350
77
  3
Model
350
73
  0
DICTIONARY
  5
10
102
{ACAD_REACTORS
330
C
102
}
330
C
100
AcDbDictionary
281
     1
  3
ByBlock
350
19
  3
ByLayer
350
11
  3
Global
350
21
  0
DICTIONARY
  5
66
102
{ACAD_REACTORS
330
C
102
}
330
C
100
AcDbDictionary
281
     1
  3
Standard
350
67
  0
DICTIONARY
  5
5F
102
{ACAD_REACTORS
330
C
102
}
330
C
100
AcDbDictionary
281
     1
  3
Standard
350
60
  0
DICTIONARY
  5
61
102
{ACAD_REACTORS
330
C
102
}
330
C
100
AcDbDictionary
281
     1
  0
ACDBDICTIONARYWDFLT
  5
E
102
{ACAD_REACTORS
330
C
102
}
330
C
100
AcDbDictionary
281
     1
  3
Normal
350
F
100
AcDbDictionaryWithDefault
340
F
  0
DICTIONARY
  5
42
102
{ACAD_REACTORS
330
C
102
}
330
C
100
AcDbDictionary
281
     1
  3
A0
350
43
  3
A1
350
44
  3
A2
350
45
  3
A3
350
46
  3
A4
350
47
  3
A5
350
48
  3
A6
350
49
  3
A7
350
4A
  3
A8
350
4B
  3
A9
350
4C
  3
B0
350
4D
  3
B1
350
4E
  3
B2
350
4F
  3
B3
350
50
  3
B4
350
51
  3
B5
350
52
  3
B6
350
53
  0
DICTIONARY
  5
68
102
{ACAD_REACTORS
330
C
102
}
330
C
100
AcDbDictionary
281
     1
  3
Imperial24
350
69
  0
DICTIONARY
  5
64
102
{ACAD_REACTORS
330
C
102
}
330
C
100
AcDbDictionary
281
     1
  3
Standard
350
65
  0
DICTIONARY
  5
29
102
{ACAD_REACTORS
330
C
102
}
330
C
100
AcDbDictionary
281
     1
  3
2dWireframe
350
2F
  3
Basic
350
2E
  3
Brighten
350
35
  3
ColorChange
350
39
  3
Conceptual
350
32
  3
Dim
350
34
  3
EdgeColorOff
350
41
  3
Facepattern
350
38
  3
Flat
350
2A
  3
FlatWithEdges
350
2B
  3
Gouraud
350
2C
  3
GouraudWithEdges
350
2D
  3
Hidden
350
31
  3
JitterOff
350
3F
  3
Linepattern
350
37
  3
OverhangOff
350
40
  3
Realistic
350
33
  3
Shaded
350
3E
  3
Shaded with edges
350
3D
  3
Shades of Gray
350
3A
  3
Sketchy
350
3B
  3
Thicken
350
36
  3
Wireframe
350
30
  3
X-Ray
350
3C
  0
XRECORD
  5
16D
102
{ACAD_REACTORS
330
C
102
}
330
C
100
AcDbXrecord
280
     1
 90
        1
330
65
  0
DICTIONARY
  5
165
102
{ACAD_REACTORS
330
C
102
}
330
C
100
AcDbDictionary
281
     1
  3
CANNOSCALE
350
16A
  3
CMLEADERSTYLE
350
167
  3
CTABLESTYLE
350
166
  3
CVIEWDETAILSTYLE
350
168
  3
CVIEWSECTIONSTYLE
350
169
  0
ACDBDETAILVIEWSTYLE
  5
6B
102
{ACAD_REACTORS
330
6A
102
}
330
6A
100
AcDbModelDocViewStyle
 70
     0
  3
Imperial24
290
     1
300
Imperial24
 90
        0
100
AcDbDetailViewStyle
 70
     0
 71
     0
 90
        3
 71
     1
340
55
 62
   256
 40
0.24
340
0
 62
   256
 40
0.24
300

 40
0.36
280
     3
 71
     2
340
5D
 90
       25
 62
   256
 71
     3
340
55
 62
   256
 40
0.24
 90
        1
 40
0.75
 90
        1
300
%<\AcVar ViewType \f "%tc1">% %<\AcVar ViewDetailId>%\PSCALE %<\AcVar ViewScale \f "%sn">%
 71
     4
340
5D
 90
       25
 62
   256
340
5D
 90
       25
 62
   256
280
     0
  0
LAYOUT
  5
6F
102
{ACAD_REACTORS
330
62
102
}
330
62
100
AcDbPlotSettings
  1

  2

  4

  6

 40
0.0
 41
0.0
 42
0.0
 43
0.0
 44
0.0
 45
0.0
 46
0.0
 47
0.0
 48
0.0
 49
0.0
140
0.0
141
0.0
142
1.0
143
1.0
 70
   688
 72
     0
 73
     0
 74
     5
  7

 75
    16
147
1.0
 76
     0
 77
     2
 78
   300
148
0.0
149
0.0
100
AcDbLayout
  1
Layout1
 70
     1
 71
     1
 10
0.0
 20
0.0
 11
12.0
 21
9.0
 12
0.0
 22
0.0
 32
0.0
 14
0.0
 24
0.0
 34
0.0
 15
0.0
 25
0.0
 35
0.0
146
0.0
 13
0.0
 23
0.0
 33
0.0
 16
1.0
 26
0.0
 36
0.0
 17
0.0
 27
1.0
 37
0.0
 76
     0
330
6C
  0
LAYOUT
  5
77
102
{ACAD_REACTORS
330
62
102
}
330
62
100
AcDbPlotSettings
  1

  2

  4

  6

 40
0.0
 41
0.0
 42
0.0
 43
0.0
 44
0.0
 45
0.0
 46
0.0
 47
0.0
 48
0.0
 49
0.0
140
0.0
141
0.0
142
1.0
143
1.0
 70
   688
 72
     0
 73
     0
 74
     5
  7

 75
    16
147
1.0
 76
     0
 77
     2
 78
   300
148
0.0
149
0.0
100
AcDbLayout
  1
Layout2
 70
     1
 71
     2
 10
0.0
 20
0.0
 11
12.0
 21
9.0
 12
0.0
 22
0.0
 32
0.0
 14
0.0
 24
0.0
 34
0.0
 15
0.0
 25
0.0
 35
0.0
146
0.0
 13
0.0
 23
0.0
 33
0.0
 16
1.0
 26
0.0
 36
0.0
 17
0.0
 27
1.0
 37
0.0
 76
     0
330
74
  0
LAYOUT
  5
73
102
{ACAD_REACTORS
330
62
102
}
330
62
100
AcDbPlotSettings
  1

  2

  4

  6

 40
0.0
 41
0.0
 42
0.0
 43
0.0
 44
0.0
 45
0.0
 46
0.0
 47
0.0
 48
0.0
 49
0.0
140
0.0
141
0.0
142
1.0
143
1.0
 70
  1712
 72
     0
 73
     0
 74
     0
  7

 75
     0
147
1.0
 76
     0
 77
     2
 78
   300
148
0.0
149
0.0
100
AcDbLayout
  1
Model
 70
     1
 71
     0
 10
0.0
 20
0.0
 11
12.0
 21
9.0
 12
0.0
 22
0.0
 32
0.0
 14
0.0
 24
0.0
 34
0.0
 15
0.0
 25
0.0
 35
0.0
146
0.0
 13
0.0
 23
0.0
 33
0.0
 16
1.0
 26
0.0
 36
0.0
 17
0.0
 27
1.0
 37
0.0
 76
     0
330
70
  0
MATERIAL
  5
19
102
{ACAD_XDICTIONARY
360
1A
102
}
102
{ACAD_REACTORS
330
10
102
}
330
10
100
AcDbMaterial
  1
ByBlock
 72
     0
 43
0.0208333333333333
 43
0.0
 43
0.0
 43
0.0
 43
0.0
 43
0.0208333333333333
 43
0.0
 43
0.0
 43
0.0
 43
0.0
 43
1.0
 43
0.0
 43
0.0
 43
0.0
 43
0.0
 43
1.0
 77
     0
 47
0.0208333333333333
 47
0.0
 47
0.0
 47
0.0
 47
0.0
 47
0.0208333333333333
 47
0.0
 47
0.0
 47
0.0
 47
0.0
 47
1.0
 47
0.0
 47
0.0
 47
0.0
 47
0.0
 47
1.0
171
     0
 49
0.0208333333333333
 49
0.0
 49
0.0
 49
0.0
 49
0.0
 49
0.0208333333333333
 49
0.0
 49
0.0
 49
0.0
 49
0.0
 49
1.0
 49
0.0
 49
0.0
 49
0.0
 49
0.0
 49
1.0
175
     0
142
0.0208333333333333
142
0.0
142
0.0
142
0.0
142
0.0
142
0.0208333333333333
142
0.0
142
0.0
142
0.0
142
0.0
142
1.0
142
0.0
142
0.0
142
0.0
142
0.0
142
1.0
179
     0
144
0.0208333333333333
144
0.0
144
0.0
144
0.0
144
0.0
144
0.0208333333333333
144
0.0
144
0.0
144
0.0
144
0.0
144
1.0
144
0.0
144
0.0
144
0.0
144
0.0
144
1.0
147
0.0208333333333333
147
0.0
147
0.0
147
0.0
147
0.0
147
0.0208333333333333
147
0.0
147
0.0
147
0.0
147
0.0
147
1.0
147
0.0
147
0.0
147
0.0
147
0.0
147
1.0
  0
MATERIAL
  5
11
102
{ACAD_XDICTIONARY
360
12
102
}
102
{ACAD_REACTORS
330
10
102
}
330
10
100
AcDbMaterial
  1
ByLayer
 72
     0
 43
0.0208333333333333
 43
0.0
 43
0.0
 43
0.0
 43
0.0
 43
0.0208333333333333
 43
0.0
 43
0.0
 43
0.0
 43
0.0
 43
1.0
 43
0.0
 43
0.0
 43
0.0
 43
0.0
 43
1.0
 77
     0
 47
0.0208333333333333
 47
0.0
 47
0.0
 47
0.0
 47
0.0
 47
0.0208333333333333
 47
0.0
 47
0.0
 47
0.0
 47
0.0
 47
1.0
 47
0.0
 47
0.0
 47
0.0
 47
0.0
 47
1.0
171
     0
 49
0.0208333333333333
 49
0.0
 49
0.0
 49
0.0
 49
0.0
 49
0.0208333333333333
 49
0.0
 49
0.0
 49
0.0
 49
0.0
 49
1.0
 49
0.0
 49
0.0
 49
0.0
 49
0.0
 49
1.0
175
     0
142
0.0208333333333333
142
0.0
142
0.0
142
0.0
142
0.0
142
0.0208333333333333
142
0.0
142
0.0
142
0.0
142
0.0
142
1.0
142
0.0
142
0.0
142
0.0
142
0.0
142
1.0
179
     0
144
0.0208333333333333
144
0.0
144
0.0
144
0.0
144
0.0
144
0.0208333333333333
144
0.0
144
0.0
144
0.0
144
0.0
144
1.0
144
0.0
144
0.0
144
0.0
144
0.0
144
1.0
147
0.0208333333333333
147
0.0
147
0.0
147
0.0
147
0.0
147
0.0208333333333333
147
0.0
147
0.0
147
0.0
147
0.0
147
1.0
147
0.0
147
0.0
147
0.0
147
0.0
147
1.0
  0
MATERIAL
  5
21
102
{ACAD_XDICTIONARY
360
22
102
}
102
{ACAD_REACTORS
330
10
102
}
330
10
100
AcDbMaterial
  1
Global
 72
     0
 43
0.0208333333333333
 43
0.0
 43
0.0
 43
0.0
 43
0.0
 43
0.0208333333333333
 43
0.0
 43
0.0
 43
0.0
 43
0.0
 43
1.0
 43
0.0
 43
0.0
 43
0.0
 43
0.0
 43
1.0
 77
     0
 47
0.0208333333333333
 47
0.0
 47
0.0
 47
0.0
 47
0.0
 47
0.0208333333333333
 47
0.0
 47
0.0
 47
0.0
 47
0.0
 47
1.0
 47
0.0
 47
0.0
 47
0.0
 47
0.0
 47
1.0
171
     0
 49
0.0208333333333333
 49
0.0
 49
0.0
 49
0.0
 49
0.0
 49
0.0208333333333333
 49
0.0
 49
0.0
 49
0.0
 49
0.0
 49
1.0
 49
0.0
 49
0.0
 49
0.0
 49
0.0
 49
1.0
175
     0
142
0.0208333333333333
142
0.0
142
0.0
142
0.0
142
0.0
142
0.0208333333333333
142
0.0
142
0.0
142
0.0
142
0.0
142
1.0
142
0.0
142
0.0
142
0.0
142
0.0
142
1.0
179
     0
144
0.0208333333333333
144
0.0
144
0.0
144
0.0
144
0.0
144
0.0208333333333333
144
0.0
144
0.0
144
0.0
144
0.0
144
1.0
144
0.0
144
0.0
144
0.0
144
0.0
144
1.0
147
0.0208333333333333
147
0.0
147
0.0
147
0.0
147
0.0
147
0.0208333333333333
147
0.0
147
0.0
147
0.0
147
0.0
147
1.0
147
0.0
147
0.0
147
0.0
147
0.0
147
1.0
  0
MLEADERSTYLE
  5
67
102
{ACAD_REACTORS
330
66
102
}
330
66
100
AcDbMLeaderStyle
179
     2
170
     2
171
     1
172
     0
 90
        2
 40
0.0
 41
0.0
173
     1
 91
-1056964608
340
5B
 92
       -2
290
     1
 42
0.09
291
     1
 43
0.36
  3
Standard
 44
0.18
300

342
55
174
     1
178
     6
175
     1
176
     0
 93
-1056964608
 45
0.18
292
     0
297
     0
 46
0.18
 94
-1056964608
 47
1.0
 49
1.0
140
1.0
293
     1
141
0.0
294
     1
177
     0
142
1.0
295
     1
296
     0
143
0.125
271
     0
272
     9
273
     9
298
     1
  0
MLINESTYLE
  5
60
102
{ACAD_REACTORS
330
5F
102
}
330
5F
100
AcDbMlineStyle
  2
STANDARD
 70
     0
  3

 62
   256
 51
90.0
 52
90.0
 71
     2
 49
0.5
 62
   256
  6
BYLAYER
 49
-0.5
 62
   256
  6
BYLAYER
  0
ACDBPLACEHOLDER
  5
F
102
{ACAD_REACTORS
330
E
102
}
330
E
  0
SCALE
  5
43
102
{ACAD_REACTORS
330
42
102
}
330
42
100
AcDbScale
 70
     0
300
1:1
140
1.0
141
1.0
290
     1
  0
SCALE
  5
44
102
{ACAD_REACTORS
330
42
102
}
330
42
100
AcDbScale
 70
     0
300
1/128" = 1'-0"
140
0.0078125
141
12.0
290
     0
  0
SCALE
  5
45
102
{ACAD_REACTORS
330
42
102
}
330
42
100
AcDbScale
 70
     0
300
1/64" = 1'-0"
140
0.015625
141
12.0
290
     0
  0
SCALE
  5
46
102
{ACAD_REACTORS
330
42
102
}
330
42
100
AcDbScale
 70
     0
300
1/32" = 1'-0"
140
0.03125
141
12.0
290
     0
  0
SCALE
  5
47
102
{ACAD_REACTORS
330
42
102
}
330
42
100
AcDbScale
 70
     0
300
1/16" = 1'-0"
140
0.0625
141
12.0
290
     0
  0
SCALE
  5
48
102
{ACAD_REACTORS
330
42
102
}
330
42
100
AcDbScale
 70
     0
300
3/32" = 1'-0"
140
0.09375
141
12.0
290
     0
  0
SCALE
  5
49
102
{ACAD_REACTORS
330
42
102
}
330
42
100
AcDbScale
 70
     0
300
1/8" = 1'-0"
140
0.125
141
12.0
290
     0
  0
SCALE
  5
4A
102
{ACAD_REACTORS
330
42
102
}
330
42
100
AcDbScale
 70
     0
300
3/16" = 1'-0"
140
0.1875
141
12.0
290
     0
  0
SCALE
  5
4B
102
{ACAD_REACTORS
330
42
102
}
330
42
100
AcDbScale
 70
     0
300
1/4" = 1'-0"
140
0.25
141
12.0
290
     0
  0
SCALE
  5
4C
102
{ACAD_REACTORS
330
42
102
}
330
42
100
AcDbScale
 70
     0
300
3/8" = 1'-0"
140
0.375
141
12.0
290
     0
  0
SCALE
  5
4D
102
{ACAD_REACTORS
330
42
102
}
330
42
100
AcDbScale
 70
     0
300
1/2" = 1'-0"
140
0.5
141
12.0
290
     0
  0
SCALE
  5
4E
102
{ACAD_REACTORS
330
42
102
}
330
42
100
AcDbScale
 70
     0
300
3/4" = 1'-0"
140
0.75
141
12.0
290
     0
  0
SCALE
  5
4F
102
{ACAD_REACTORS
330
42
102
}
330
42
100
AcDbScale
 70
     0
300
1" = 1'-0"
140
1.0
141
12.0
290
     0
  0
SCALE
  5
50
102
{ACAD_REACTORS
330
42
102
}
330
42
100
AcDbScale
 70
     0
300
1-1/2" = 1'-0"
140
1.5
141
12.0
290
     0
  0
SCALE
  5
51
102
{ACAD_REACTORS
330
42
102
}
330
42
100
AcDbScale
 70
     0
300
3" = 1'-0"
140
3.0
141
12.0
290
     0
  0
SCALE
  5
52
102
{ACAD_REACTORS
330
42
102
}
330
42
100
AcDbScale
 70
     0
300
6" = 1'-0"
140
6.0
141
12.0
290
     0
  0
SCALE
  5
53
102
{ACAD_REACTORS
330
42
102
}
330
42
100
AcDbScale
 70
     0
300
1'-0" = 1'-0"
140
12.0
141
12.0
290
     0
  0
ACDBSECTIONVIEWSTYLE
  5
69
102
{ACAD_REACTORS
330
68
102
}
330
68
100
AcDbModelDocViewStyle
 70
     0
  3
Imperial24
290
     1
300
Imperial24
 90
        0
100
AcDbSectionViewStyle
 70
     0
 71
     0
 90
       78
 71
     1
340
55
 62
   256
 40
0.24
340
0
340
0
 62
   256
 40
0.24
300
I, O, Q, S, X, Z
 40
0.48
 90
        3
 40
0.18
 90
        1
 71
     2
340
5D
 90
       25
 62
   256
340
5D
 90
       50
 62
   256
 40
0.24
 40
0.0
 40
0.24
 71
     3
340
55
 62
   256
 40
0.24
 90
        1
 40
0.75
 90
        1
300
%<\AcVar ViewType \f "%tc1">% %<\AcVar ViewSectionStartId>%-%<\AcVar ViewSectionEndId>%\PSCALE %<\AcVar ViewScale \f "%sn">%
 71
     4
 62
   256
 62
   257
300
ANSI31
 40
1.0
 90
        0
290
     0
290
     0
 90
        6
 40
0.0
 40
1.570796326794896
 40
0.2617993877991494
 40
1.308996938995747
 40
-0.2617993877991494
 40
1.832595714594046
  0
TABLESTYLE
  5
65
102
{ACAD_XDICTIONARY
360
16B
102
}
102
{ACAD_REACTORS
330
64
102
}
330
64
100
AcDbTableStyle
280
     0
  3
Standard
 70
     0
 71
     0
 40
0.06
 41
0.06
280
     0
281
     0
  7
Standard
140
0.18
170
     2
 62
     0
 63
     7
283
     0
 90
      512
 91
        0
  1

274
    -2
284
     1
 64
     0
275
    -2
285
     1
 65
     0
276
    -2
286
     1
 66
     0
277
    -2
287
     1
 67
     0
278
    -2
288
     1
 68
     0
279
    -2
289
     1
 69
     0
  7
Standard
140
0.25
170
     5
 62
     0
 63
     7
283
     0
 90
      512
 91
        0
  1

274
    -2
284
     1
 64
     0
275
    -2
285
     1
 65
     0
276
    -2
286
     1
 66
     0
277
    -2
287
     1
 67
     0
278
    -2
288
     1
 68
     0
279
    -2
289
     1
 69
     0
  7
Standard
140
0.18
170
     5
 62
     0
 63
     7
283
     0
 90
      512
 91
        0
  1

274
    -2
284
     1
 64
     0
275
    -2
285
     1
 65
     0
276
    -2
286
     1
 66
     0
277
    -2
287
     1
 67
     0
278
    -2
288
     1
 68
     0
279
    -2
289
     1
 69
     0
  0
VISUALSTYLE
  5
2F
102
{ACAD_REACTORS
330
29
102
}
330
29
100
AcDbVisualStyle
  2
2dWireframe
 70
     4
177
     3
291
     0
 70
    58
 90
        0
176
     1
 90
        2
176
     1
 90
        0
176
     1
 90
        0
176
     1
 40
0.6
176
     1
 40
30.0
176
     1
 62
     7
420
 16777215
176
     1
 90
        1
176
     1
 90
        4
176
     1
 62
     7
176
     1
 62
   257
176
     1
 90
        1
176
     1
 90
        1
176
     1
 40
1.0
176
     1
 90
        0
176
     1
 62
   257
176
     1
 40
1.0
176
     1
 90
        1
176
     1
 90
        6
176
     1
 90
        2
176
     1
 62
     7
176
     1
 90
        5
176
     1
 90
        0
176
     1
 90
        0
176
     1
290
     0
176
     1
 90
        1
176
     1
 40
0.0
176
     1
 90
        0
176
     1
290
     1
176
     1
290
     1
176
     1
290
     0
176
     1
290
     0
176
     1
290
     0
176
     1
290
     0
176
     1
290
     0
176
     1
290
     0
176
     1
290
     0
176
     1
 90
       50
176
     1
 40
0.0
176
     1
 40
1.0
176
     1
 90
        0
176
     1
 62
    18
420
        0
176
     1
 90
       50
176
     1
 90
        3
176
     1
 62
     5
420
      255
176
     1
290
     0
176
     1
 90
       50
176
     1
 90
       50
176
     1
 90
       50
176
     1
290
     0
176
     1
 90
       50
176
     1
 62
   256
176
     0
 40
1.0
176
     0
 90
        2
176
     1
  1
strokes_ogs.tif
176
     1
290
     0
176
     1
 40
1.0
176
     1
 40
1.0
176
     1
  0
VISUALSTYLE
  5
2E
102
{ACAD_REACTORS
330
29
102
}
330
29
100
AcDbVisualStyle
  2
Basic
 70
     7
177
     3
291
     1
 70
    58
 90
        1
176
     1
 90
        0
176
     1
 90
        1
176
     1
 90
        0
176
     1
 40
0.6
176
     1
 40
30.0
176
     1
 62
     7
420
 16777215
176
     1
 90
        0
176
     1
 90
        4
176
     1
 62
     7
176
     1
 62
   257
176
     1
 90
        1
176
     1
 90
        1
176
     1
 40
1.0
176
     1
 90
        8
176
     1
 62
     7
176
     1
 40
1.0
176
     1
 90
        1
176
     1
 90
        6
176
     1
 90
        2
176
     1
 62
     7
176
     1
 90
        5
176
     1
 90
        0
176
     1
 90
        0
176
     1
290
     0
176
     1
 90
        1
176
     1
 40
0.0
176
     1
 90
        0
176
     1
290
     0
176
     1
290
     1
176
     1
290
     1
176
     1
290
     0
176
     1
290
     0
176
     1
290
     0
176
     1
290
     0
176
     1
290
     0
176
     1
290
     0
176
     1
 90
       50
176
     1
 40
0.0
176
     1
 40
1.0
176
     1
 90
        0
176
     1
 62
    18
420
        0
176
     1
 90
       50
176
     1
 90
        3
176
     1
 62
     5
420
      255
176
     1
290
     0
176
     1
 90
       50
176
     1
 90
       50
176
     1
 90
       50
176
     1
290
     0
176
     1
 90
       50
176
     1
 62
   256
176
     0
 40
1.0
176
     0
 90
        2
176
     1
  1
strokes_ogs.tif
176
     1
290
     0
176
     1
 40
1.0
176
     1
 40
1.0
176
     1
  0
VISUALSTYLE
  5
35
102
{ACAD_REACTORS
330
29
102
}
330
29
100
AcDbVisualStyle
  2
Brighten
 70
    12
177
     3
291
     1
 70
    58
 90
        2
176
     1
 90
        2
176
     1
 90
        0
176
     1
 90
        0
176
     1
 40
0.6
176
     1
 40
30.0
176
     1
 62
     7
420
 16777215
176
     1
 90
        1
176
     1
 90
        4
176
     1
 62
     7
176
     1
 62
   257
176
     1
 90
        1
176
     1
 90
        1
176
     1
 40
1.0
176
     1
 90
        8
176
     1
 62
     7
176
     1
 40
1.0
176
     1
 90
        1
176
     1
 90
        6
176
     1
 90
        2
176
     1
 62
     7
176
     1
 90
        5
176
     1
 90
        0
176
     1
 90
        0
176
     1
290
     0
176
     1
 90
        1
176
     1
 40
50.0
176
     1
 90
        0
176
     1
290
     0
176
     1
290
     1
176
     1
290
     1
176
     1
290
     0
176
     1
290
     0
176
     1
290
     0
176
     1
290
     0
176
     1
290
     0
176
     1
290
     0
176
     1
 90
       50
176
     1
 40
0.0
176
     1
 40
1.0
176
     1
 90
        0
176
     1
 62
    18
420
        0
176
     1
 90
       50
176
     1
 90
        3
176
     1
 62
     5
420
      255
176
     1
290
     0
176
     1
 90
       50
176
     1
 90
       50
176
     1
 90
       50
176
     1
290
     0
176
     1
 90
       50
176
     1
 62
   256
176
     0
 40
1.0
176
     0
 90
        2
176
     1
  1
strokes_ogs.tif
176
     1
290
     0
176
     1
 40
1.0
176
     1
 40
1.0
176
     1
  0
VISUALSTYLE
  5
39
102
{ACAD_REACTORS
330
29
102
}
330
29
100
AcDbVisualStyle
  2
ColorChange
 70
    16
177
     3
291
     1
 70
    58
 90
        2
176
     1
 90
        2
176
     1
 90
        3
176
     1
 90
        0
176
     1
 40
0.6
176
     1
 40
30.0
176
     1
 62
     8
420
  8421504
176
     1
 90
        1
176
     1
 90
        4
176
     1
 62
     7
176
     1
 62
   257
176
     1
 90
        1
176
     1
 90
        1
176
     1
 40
1.0
176
     1
 90
        8
176
     1
 62
     8
420
  8421504
176
     1
 40
1.0
176
     1
 90
        1
176
     1
 90
        6
176
     1
 90
        2
176
     1
 62
     7
176
     1
 90
        5
176
     1
 90
        0
176
     1
 90
        0
176
     1
290
     0
176
     1
 90
        1
176
     1
 40
0.0
176
     1
 90
        0
176
     1
290
     0
176
     1
290
     1
176
     1
290
     1
176
     1
290
     0
176
     1
290
     0
176
     1
290
     0
176
     1
290
     0
176
     1
290
     0
176
     1
290
     0
176
     1
 90
       50
176
     1
 40
0.0
176
     1
 40
1.0
176
     1
 90
        0
176
     1
 62
    18
420
        0
176
     1
 90
       50
176
     1
 90
        3
176
     1
 62
     5
420
      255
176
     1
290
     0
176
     1
 90
       50
176
     1
 90
       50
176
     1
 90
       50
176
     1
290
     0
176
     1
 90
       50
176
     1
 62
   256
176
     0
 40
1.0
176
     0
 90
        2
176
     1
  1
strokes_ogs.tif
176
     1
290
     0
176
     1
 40
1.0
176
     1
 40
1.0
176
     1
  0
VISUALSTYLE
  5
32
102
{ACAD_REACTORS
330
29
102
}
330
29
100
AcDbVisualStyle
  2
Conceptual
 70
     9
177
     3
291
     0
 70
    58
 90
        3
176
     1
 90
        2
176
     1
 90
        0
176
     1
 90
        0
176
     1
 40
0.6
176
     1
 40
30.0
176
     1
 62
     7
420
 16777215
176
     1
 90
        2
176
     1
 90
        2
176
     1
 62
     7
176
     1
 62
   257
176
     1
 90
        1
176
     1
 90
        1
176
     1
 40
179.0
176
     1
 90
        8
176
     1
 62
     7
176
     1
 40
1.0
176
     1
 90
        1
176
     1
 90
        6
176
     1
 90
        2
176
     1
 62
     7
176
     1
 90
        3
176
     1
 90
        0
176
     1
 90
        0
176
     1
290
     0
176
     1
 90
        1
176
     1
 40
0.0
176
     1
 90
        0
176
     1
290
     0
176
     1
290
     1
176
     1
290
     1
176
     1
290
     0
176
     1
290
     0
176
     1
290
     0
176
     1
290
     0
176
     1
290
     0
176
     1
290
     0
176
     1
 90
       50
176
     1
 40
0.0
176
     1
 40
1.0
176
     1
 90
        0
176
     1
 62
    18
420
        0
176
     1
 90
       50
176
     1
 90
        3
176
     1
 62
     5
420
      255
176
     1
290
     0
176
     1
 90
       50
176
     1
 90
       50
176
     1
 90
       50
176
     1
290
     0
176
     1
 90
       50
176
     1
 62
   256
176
     0
 40
1.0
176
     0
 90
        2
176
     1
  1
strokes_ogs.tif
176
     1
290
     0
176
     1
 40
1.0
176
     1
 40
1.0
176
     1
  0
VISUALSTYLE
  5
34
102
{ACAD_REACTORS
330
29
102
}
330
29
100
AcDbVisualStyle
  2
Dim
 70
    11
177
     3
291
     1
 70
    58
 90
        2
176
     1
 90
        2
176
     1
 90
        0
176
     1
 90
        0
176
     1
 40
0.6
176
     1
 40
30.0
176
     1
 62
     7
420
 16777215
176
     1
 90
        1
176
     1
 90
        4
176
     1
 62
     7
176
     1
 62
   257
176
     1
 90
        1
176
     1
 90
        1
176
     1
 40
1.0
176
     1
 90
        8
176
     1
 62
     7
176
     1
 40
1.0
176
     1
 90
        1
176
     1
 90
        6
176
     1
 90
        2
176
     1
 62
     7
176
     1
 90
        5
176
     1
 90
        0
176
     1
 90
        0
176
     1
290
     0
176
     1
 90
        1
176
     1
 40
-50.0
176
     1
 90
        0
176
     1
290
     0
176
     1
290
     1
176
     1
290
     1
176
     1
290
     0
176
     1
290
     0
176
     1
290
     0
176
     1
290
     0
176
     1
290
     0
176
     1
290
     0
176
     1
 90
       50
176
     1
 40
0.0
176
     1
 40
1.0
176
     1
 90
        0
176
     1
 62
    18
420
        0
176
     1
 90
       50
176
     1
 90
        3
176
     1
 62
     5
420
      255
176
     1
290
     0
176
     1
 90
       50
176
     1
 90
       50
176
     1
 90
       50
176
     1
290
     0
176
     1
 90
       50
176
     1
 62
   256
176
     0
 40
1.0
176
     0
 90
        2
176
     1
  1
strokes_ogs.tif
176
     1
290
     0
176
     1
 40
1.0
176
     1
 40
1.0
176
     1
  0
VISUALSTYLE
  5
41
102
{ACAD_REACTORS
330
29
102
}
330
29
100
AcDbVisualStyle
  2
EdgeColorOff
 70
    22
177
     3
291
     1
 70
    58
 90
        2
176
     0
 90
        2
176
     0
 90
        0
176
     0
 90
        0
176
     0
 40
0.6
176
     0
 40
30.0
176
     0
 62
     7
420
 16777215
176
     0
 90
        1
176
     0
 90
        4
176
     0
 62
     7
176
     0
 62
   257
176
     0
 90
        1
176
     0
 90
        1
176
     0
 40
1.0
176
     0
 90
        8
176
     2
 62
     7
176
     0
 40
1.0
176
     0
 90
        1
176
     0
 90
        6
176
     0
 90
        2
176
     0
 62
     7
176
     0
 90
        5
176
     0
 90
        0
176
     0
 90
        0
176
     0
290
     0
176
     0
 90
        1
176
     0
 40
0.0
176
     0
 90
        0
176
     0
290
     0
176
     0
290
     1
176
     0
290
     1
176
     0
290
     0
176
     0
290
     0
176
     0
290
     0
176
     0
290
     0
176
     0
290
     0
176
     0
290
     0
176
     0
 90
       50
176
     0
 40
0.0
176
     0
 40
1.0
176
     0
 90
        0
176
     0
 62
    18
420
        0
176
     0
 90
       50
176
     0
 90
        3
176
     0
 62
     5
420
      255
176
     0
290
     0
176
     0
 90
       50
176
     0
 90
       50
176
     0
 90
       50
176
     0
290
     0
176
     0
 90
       50
176
     0
 62
   256
176
     0
 40
1.0
176
     0
 90
        2
176
     0
  1
strokes_ogs.tif
176
     0
290
     0
176
     0
 40
1.0
176
     0
 40
1.0
176
     0
  0
VISUALSTYLE
  5
38
102
{ACAD_REACTORS
330
29
102
}
330
29
100
AcDbVisualStyle
  2
Facepattern
 70
    15
177
     3
291
     1
 70
    58
 90
        2
176
     1
 90
        2
176
     1
 90
        0
176
     1
 90
        0
176
     1
 40
0.6
176
     1
 40
30.0
176
     1
 62
     7
420
 16777215
176
     1
 90
        1
176
     1
 90
        4
176
     1
 62
     7
176
     1
 62
   257
176
     1
 90
        1
176
     1
 90
        1
176
     1
 40
1.0
176
     1
 90
        8
176
     1
 62
     7
176
     1
 40
1.0
176
     1
 90
        1
176
     1
 90
        6
176
     1
 90
        2
176
     1
 62
     7
176
     1
 90
        5
176
     1
 90
        0
176
     1
 90
        0
176
     1
290
     0
176
     1
 90
        1
176
     1
 40
0.0
176
     1
 90
        0
176
     1
290
     0
176
     1
290
     1
176
     1
290
     1
176
     1
290
     0
176
     1
290
     0
176
     1
290
     0
176
     1
290
     0
176
     1
290
     0
176
     1
290
     0
176
     1
 90
       50
176
     1
 40
0.0
176
     1
 40
1.0
176
     1
 90
        0
176
     1
 62
    18
420
        0
176
     1
 90
       50
176
     1
 90
        3
176
     1
 62
     5
420
      255
176
     1
290
     0
176
     1
 90
       50
176
     1
 90
       50
176
     1
 90
       50
176
     1
290
     0
176
     1
 90
       50
176
     1
 62
   256
176
     0
 40
1.0
176
     0
 90
        2
176
     1
  1
strokes_ogs.tif
176
     1
290
     0
176
     1
 40
1.0
176
     1
 40
1.0
176
     1
  0
VISUALSTYLE
  5
2A
102
{ACAD_REACTORS
330
29
102
}
330
29
100
AcDbVisualStyle
  2
Flat
 70
     0
177
     3
291
     1
 70
    58
 90
        2
176
     1
 90
        1
176
     1
 90
        1
176
     1
 90
        2
176
     1
 40
0.6
176
     1
 40
30.0
176
     1
 62
     7
420
 16777215
176
     1
 90
        0
176
     1
 90
        0
176
     1
 62
     7
176
     1
 62
   257
176
     1
 90
        1
176
     1
 90
        1
176
     1
 40
1.0
176
     1
 90
        8
176
     1
 62
     7
176
     1
 40
1.0
176
     1
 90
        1
176
     1
 90
        6
176
     1
 90
        2
176
     1
 62
     7
176
     1
 90
        5
176
     1
 90
        0
176
     1
 90
        0
176
     1
290
     0
176
     1
 90
       13
176
     1
 40
0.0
176
     1
 90
        0
176
     1
290
     0
176
     1
290
     1
176
     1
290
     1
176
     1
290
     0
176
     1
290
     0
176
     1
290
     0
176
     1
290
     0
176
     1
290
     0
176
     1
290
     0
176
     1
 90
       50
176
     1
 40
0.0
176
     1
 40
1.0
176
     1
 90
        0
176
     1
 62
    18
420
        0
176
     1
 90
       50
176
     1
 90
        3
176
     1
 62
     5
420
      255
176
     1
290
     0
176
     1
 90
       50
176
     1
 90
       50
176
     1
 90
       50
176
     1
290
     0
176
     1
 90
       50
176
     1
 62
   256
176
     0
 40
1.0
176
     0
 90
        2
176
     1
  1
strokes_ogs.tif
176
     1
290
     0
176
     1
 40
1.0
176
     1
 40
1.0
176
     1
  0
VISUALSTYLE
  5
2B
102
{ACAD_REACTORS
330
29
102
}
330
29
100
AcDbVisualStyle
  2
FlatWithEdges
 70
     1
177
     3
291
     1
 70
    58
 90
        2
176
     1
 90
        1
176
     1
 90
        1
176
     1
 90
        2
176
     1
 40
0.6
176
     1
 40
30.0
176
     1
 62
     7
420
 16777215
176
     1
 90
        1
176
     1
 90
        0
176
     1
 62
     7
176
     1
 62
   257
176
     1
 90
        1
176
     1
 90
        1
176
     1
 40
1.0
176
     1
 90
        0
176
     1
 62
   257
176
     1
 40
1.0
176
     1
 90
        1
176
     1
 90
        6
176
     1
 90
        2
176
     1
 62
     7
176
     1
 90
        5
176
     1
 90
        0
176
     1
 90
        0
176
     1
290
     0
176
     1
 90
       13
176
     1
 40
0.0
176
     1
 90
        0
176
     1
290
     0
176
     1
290
     1
176
     1
290
     1
176
     1
290
     0
176
     1
290
     0
176
     1
290
     0
176
     1
290
     0
176
     1
290
     0
176
     1
290
     0
176
     1
 90
       50
176
     1
 40
0.0
176
     1
 40
1.0
176
     1
 90
        0
176
     1
 62
    18
420
        0
176
     1
 90
       50
176
     1
 90
        3
176
     1
 62
     5
420
      255
176
     1
290
     0
176
     1
 90
       50
176
     1
 90
       50
176
     1
 90
       50
176
     1
290
     0
176
     1
 90
       50
176
     1
 62
   256
176
     0
 40
1.0
176
     0
 90
        2
176
     1
  1
strokes_ogs.tif
176
     1
290
     0
176
     1
 40
1.0
176
     1
 40
1.0
176
     1
  0
VISUALSTYLE
  5
2C
102
{ACAD_REACTORS
330
29
102
}
330
29
100
AcDbVisualStyle
  2
Gouraud
 70
     2
177
     3
291
     1
 70
    58
 90
        2
176
     1
 90
        2
176
     1
 90
        1
176
     1
 90
        2
176
     1
 40
0.6
176
     1
 40
30.0
176
     1
 62
     7
420
 16777215
176
     1
 90
        0
176
     1
 90
        0
176
     1
 62
     7
176
     1
 62
   257
176
     1
 90
        1
176
     1
 90
        1
176
     1
 40
1.0
176
     1
 90
        0
176
     1
 62
     7
176
     1
 40
1.0
176
     1
 90
        1
176
     1
 90
        6
176
     1
 90
        2
176
     1
 62
     7
176
     1
 90
        5
176
     1
 90
        0
176
     1
 90
        0
176
     1
290
     0
176
     1
 90
       13
176
     1
 40
0.0
176
     1
 90
        0
176
     1
290
     0
176
     1
290
     1
176
     1
290
     1
176
     1
290
     0
176
     1
290
     0
176
     1
290
     0
176
     1
290
     0
176
     1
290
     0
176
     1
290
     0
176
     1
 90
       50
176
     1
 40
0.0
176
     1
 40
1.0
176
     1
 90
        0
176
     1
 62
    18
420
        0
176
     1
 90
       50
176
     1
 90
        3
176
     1
 62
     5
420
      255
176
     1
290
     0
176
     1
 90
       50
176
     1
 90
       50
176
     1
 90
       50
176
     1
290
     0
176
     1
 90
       50
176
     1
 62
   256
176
     0
 40
1.0
176
     0
 90
        2
176
     1
  1
strokes_ogs.tif
176
     1
290
     0
176
     1
 40
1.0
176
     1
 40
1.0
176
     1
  0
VISUALSTYLE
  5
2D
102
{ACAD_REACTORS
330
29
102
}
330
29
100
AcDbVisualStyle
  2
GouraudWithEdges
 70
     3
177
     3
291
     1
 70
    58
 90
        2
176
     1
 90
        2
176
     1
 90
        1
176
     1
 90
        2
176
     1
 40
0.6
176
     1
 40
30.0
176
     1
 62
     7
420
 16777215
176
     1
 90
        1
176
     1
 90
        0
176
     1
 62
     7
176
     1
 62
   257
176
     1
 90
        1
176
     1
 90
        1
176
     1
 40
1.0
176
     1
 90
        0
176
     1
 62
   257
176
     1
 40
1.0
176
     1
 90
        1
176
     1
 90
        6
176
     1
 90
        2
176
     1
 62
     7
176
     1
 90
        5
176
     1
 90
        0
176
     1
 90
        0
176
     1
290
     0
176
     1
 90
       13
176
     1
 40
0.0
176
     1
 90
        0
176
     1
290
     0
176
     1
290
     1
176
     1
290
     1
176
     1
290
     0
176
     1
290
     0
176
     1
290
     0
176
     1
290
     0
176
     1
290
     0
176
     1
290
     0
176
     1
 90
       50
176
     1
 40
0.0
176
     1
 40
1.0
176
     1
 90
        0
176
     1
 62
    18
420
        0
176
     1
 90
       50
176
     1
 90
        3
176
     1
 62
     5
420
      255
176
     1
290
     0
176
     1
 90
       50
176
     1
 90
       50
176
     1
 90
       50
176
     1
290
     0
176
     1
 90
       50
176
     1
 62
   256
176
     0
 40
1.0
176
     0
 90
        2
176
     1
  1
strokes_ogs.tif
176
     1
290
     0
176
     1
 40
1.0
176
     1
 40
1.0
176
     1
  0
VISUALSTYLE
  5
31
102
{ACAD_REACTORS
330
29
102
}
330
29
100
AcDbVisualStyle
  2
Hidden
 70
     6
177
     3
291
     0
 70
    58
 90
        1
176
     1
 90
        2
176
     1
 90
        2
176
     1
 90
        0
176
     1
 40
0.6
176
     1
 40
30.0
176
     1
 62
     7
420
 16777215
176
     1
 90
        2
176
     1
 90
        2
176
     1
 62
     7
176
     1
 62
   257
176
     1
 90
        2
176
     1
 90
        1
176
     1
 40
40.0
176
     1
 90
        0
176
     1
 62
   257
176
     1
 40
1.0
176
     1
 90
        1
176
     1
 90
        6
176
     1
 90
        2
176
     1
 62
     7
176
     1
 90
        3
176
     1
 90
        0
176
     1
 90
        0
176
     1
290
     0
176
     1
 90
        1
176
     1
 40
0.0
176
     1
 90
        0
176
     1
290
     0
176
     1
290
     1
176
     1
290
     1
176
     1
290
     0
176
     1
290
     0
176
     1
290
     0
176
     1
290
     0
176
     1
290
     0
176
     1
290
     0
176
     1
 90
       50
176
     1
 40
0.0
176
     1
 40
1.0
176
     1
 90
        0
176
     1
 62
    18
420
        0
176
     1
 90
       50
176
     1
 90
        3
176
     1
 62
     5
420
      255
176
     1
290
     0
176
     1
 90
       50
176
     1
 90
       50
176
     1
 90
       50
176
     1
290
     0
176
     1
 90
       50
176
     1
 62
   256
176
     0
 40
1.0
176
     0
 90
        2
176
     1
  1
strokes_ogs.tif
176
     1
290
     0
176
     1
 40
1.0
176
     1
 40
1.0
176
     1
  0
VISUALSTYLE
  5
3F
102
{ACAD_REACTORS
330
29
102
}
330
29
100
AcDbVisualStyle
  2
JitterOff
 70
    20
177
     3
291
     1
 70
    58
 90
        2
176
     0
 90
        2
176
     0
 90
        0
176
     0
 90
        0
176
     0
 40
0.6
176
     0
 40
30.0
176
     0
 62
     7
420
 16777215
176
     0
 90
        1
176
     0
 90
        4
176
     0
 62
     7
176
     0
 62
   257
176
     0
 90
        1
176
     0
 90
        1
176
     0
 40
1.0
176
     0
 90
       10
176
     2
 62
     7
176
     0
 40
1.0
176
     0
 90
        1
176
     0
 90
        6
176
     0
 90
        2
176
     0
 62
     7
176
     0
 90
        5
176
     0
 90
        0
176
     0
 90
        0
176
     0
290
     0
176
     0
 90
        1
176
     0
 40
0.0
176
     0
 90
        0
176
     0
290
     0
176
     0
290
     1
176
     0
290
     1
176
     0
290
     0
176
     0
290
     0
176
     0
290
     0
176
     0
290
     0
176
     0
290
     0
176
     0
290
     0
176
     0
 90
       50
176
     0
 40
0.0
176
     0
 40
1.0
176
     0
 90
        0
176
     0
 62
    18
420
        0
176
     0
 90
       50
176
     0
 90
        3
176
     0
 62
     5
420
      255
176
     0
290
     0
176
     0
 90
       50
176
     0
 90
       50
176
     0
 90
       50
176
     0
290
     0
176
     0
 90
       50
176
     0
 62
   256
176
     0
 40
1.0
176
     0
 90
        2
176
     0
  1
strokes_ogs.tif
176
     0
290
     0
176
     0
 40
1.0
176
     0
 40
1.0
176
     0
  0
VISUALSTYLE
  5
37
102
{ACAD_REACTORS
330
29
102
}
330
29
100
AcDbVisualStyle
  2
Linepattern
 70
    14
177
     3
291
     1
 70
    58
 90
        2
176
     1
 90
        2
176
     1
 90
        0
176
     1
 90
        0
176
     1
 40
0.6
176
     1
 40
30.0
176
     1
 62
     7
420
 16777215
176
     1
 90
        1
176
     1
 90
        4
176
     1
 62
     7
176
     1
 62
   257
176
     1
 90
        7
176
     1
 90
        7
176
     1
 40
1.0
176
     1
 90
        8
176
     1
 62
     7
176
     1
 40
1.0
176
     1
 90
        1
176
     1
 90
        6
176
     1
 90
        2
176
     1
 62
     7
176
     1
 90
        5
176
     1
 90
        0
176
     1
 90
        0
176
     1
290
     0
176
     1
 90
        1
176
     1
 40
0.0
176
     1
 90
        0
176
     1
290
     0
176
     1
290
     1
176
     1
290
     1
176
     1
290
     0
176
     1
290
     0
176
     1
290
     0
176
     1
290
     0
176
     1
290
     0
176
     1
290
     0
176
     1
 90
       50
176
     1
 40
0.0
176
     1
 40
1.0
176
     1
 90
        0
176
     1
 62
    18
420
        0
176
     1
 90
       50
176
     1
 90
        3
176
     1
 62
     5
420
      255
176
     1
290
     0
176
     1
 90
       50
176
     1
 90
       50
176
     1
 90
       50
176
     1
290
     0
176
     1
 90
       50
176
     1
 62
   256
176
     0
 40
1.0
176
     0
 90
        2
176
     1
  1
strokes_ogs.tif
176
     1
290
     0
176
     1
 40
1.0
176
     1
 40
1.0
176
     1
  0
VISUALSTYLE
  5
40
102
{ACAD_REACTORS
330
29
102
}
330
29
100
AcDbVisualStyle
  2
OverhangOff
 70
    21
177
     3
291
     1
 70
    58
 90
        2
176
     0
 90
        2
176
     0
 90
        0
176
     0
 90
        0
176
     0
 40
0.6
176
     0
 40
30.0
176
     0
 62
     7
420
 16777215
176
     0
 90
        1
176
     0
 90
        4
176
     0
 62
     7
176
     0
 62
   257
176
     0
 90
        1
176
     0
 90
        1
176
     0
 40
1.0
176
     0
 90
        9
176
     2
 62
     7
176
     0
 40
1.0
176
     0
 90
        1
176
     0
 90
        6
176
     0
 90
        2
176
     0
 62
     7
176
     0
 90
        5
176
     0
 90
        0
176
     0
 90
        0
176
     0
290
     0
176
     0
 90
        1
176
     0
 40
0.0
176
     0
 90
        0
176
     0
290
     0
176
     0
290
     1
176
     0
290
     1
176
     0
290
     0
176
     0
290
     0
176
     0
290
     0
176
     0
290
     0
176
     0
290
     0
176
     0
290
     0
176
     0
 90
       50
176
     0
 40
0.0
176
     0
 40
1.0
176
     0
 90
        0
176
     0
 62
    18
420
        0
176
     0
 90
       50
176
     0
 90
        3
176
     0
 62
     5
420
      255
176
     0
290
     0
176
     0
 90
       50
176
     0
 90
       50
176
     0
 90
       50
176
     0
290
     0
176
     0
 90
       50
176
     0
 62
   256
176
     0
 40
1.0
176
     0
 90
        2
176
     0
  1
strokes_ogs.tif
176
     0
290
     0
176
     0
 40
1.0
176
     0
 40
1.0
176
     0
  0
VISUALSTYLE
  5
33
102
{ACAD_REACTORS
330
29
102
}
330
29
100
AcDbVisualStyle
  2
Realistic
 70
     8
177
     3
291
     0
 70
    58
 90
        2
176
     1
 90
        3
176
     1
 90
        0
176
     1
 90
        2
176
     1
 40
0.6
176
     1
 40
30.0
176
     1
 62
     7
420
 16777215
176
     1
 90
        0
176
     1
 90
        0
176
     1
 62
     7
176
     1
 62
   257
176
     1
 90
        1
176
     1
 90
        1
176
     1
 40
1.0
176
     1
 90
        8
176
     1
 62
   257
176
     1
 40
1.0
176
     1
 90
        1
176
     1
 90
        6
176
     1
 90
        2
176
     1
 62
     7
176
     1
 90
        3
176
     1
 90
        0
176
     1
 90
        0
176
     1
290
     0
176
     1
 90
       13
176
     1
 40
0.0
176
     1
 90
        0
176
     1
290
     0
176
     1
290
     1
176
     1
290
     1
176
     1
290
     0
176
     1
290
     0
176
     1
290
     0
176
     1
290
     0
176
     1
290
     0
176
     1
290
     0
176
     1
 90
       50
176
     1
 40
0.0
176
     1
 40
1.0
176
     1
 90
        0
176
     1
 62
    18
420
        0
176
     1
 90
       50
176
     1
 90
        3
176
     1
 62
     5
420
      255
176
     1
290
     0
176
     1
 90
       50
176
     1
 90
       50
176
     1
 90
       50
176
     1
290
     0
176
     1
 90
       50
176
     1
 62
   256
176
     0
 40
1.0
176
     0
 90
        2
176
     1
  1
strokes_ogs.tif
176
     1
290
     0
176
     1
 40
1.0
176
     1
 40
1.0
176
     1
  0
VISUALSTYLE
  5
3E
102
{ACAD_REACTORS
330
29
102
}
330
29
100
AcDbVisualStyle
  2
Shaded
 70
    27
177
     3
291
     0
 70
    58
 90
        2
176
     1
 90
        2
176
     1
 90
        1
176
     1
 90
        2
176
     1
 40
0.6
176
     1
 40
30.0
176
     1
 62
     7
420
 16777215
176
     1
 90
        0
176
     1
 90
        4
176
     1
 62
     7
176
     1
 62
   257
176
     1
 90
        1
176
     1
 90
        1
176
     1
 40
1.0
176
     1
 90
        8
176
     1
 62
   257
176
     1
 40
1.0
176
     1
 90
        1
176
     1
 90
        6
176
     1
 90
        2
176
     1
 62
     8
420
  7895160
176
     1
 90
        3
176
     1
 90
        0
176
     1
 90
        0
176
     1
290
     0
176
     1
 90
        5
176
     1
 40
0.0
176
     1
 90
        0
176
     1
290
     0
176
     1
290
     1
176
     1
290
     1
176
     1
290
     0
176
     1
290
     0
176
     1
290
     0
176
     1
290
     0
176
     1
290
     0
176
     1
290
     0
176
     1
 90
       50
176
     1
 40
0.0
176
     1
 40
1.0
176
     1
 90
        0
176
     1
 62
    18
420
        0
176
     1
 90
       50
176
     1
 90
        3
176
     1
 62
     5
420
      255
176
     1
290
     0
176
     1
 90
       50
176
     1
 90
       50
176
     1
 90
       50
176
     1
290
     0
176
     1
 90
       50
176
     1
 62
   256
176
     0
 40
1.0
176
     0
 90
        2
176
     1
  1
strokes_ogs.tif
176
     1
290
     0
176
     1
 40
1.0
176
     1
 40
1.0
176
     1
  0
VISUALSTYLE
  5
3D
102
{ACAD_REACTORS
330
29
102
}
330
29
100
AcDbVisualStyle
  2
Shaded with edges
 70
    26
177
     3
291
     0
 70
    58
 90
        2
176
     1
 90
        2
176
     1
 90
        1
176
     1
 90
        2
176
     1
 40
0.6
176
     1
 40
30.0
176
     1
 62
     7
420
 16777215
176
     1
 90
        1
176
     1
 90
        2
176
     1
 62
     7
176
     1
 62
   257
176
     1
 90
        2
176
     1
 90
        1
176
     1
 40
1.0
176
     1
 90
        8
176
     1
 62
   257
176
     1
 40
1.0
176
     1
 90
        1
176
     1
 90
        6
176
     1
 90
        2
176
     1
 62
     7
176
     1
 90
        3
176
     1
 90
        0
176
     1
 90
        0
176
     1
290
     0
176
     1
 90
        5
176
     1
 40
0.0
176
     1
 90
        0
176
     1
290
     0
176
     1
290
     1
176
     1
290
     1
176
     1
290
     0
176
     1
290
     0
176
     1
290
     0
176
     1
290
     0
176
     1
290
     0
176
     1
290
     0
176
     1
 90
       50
176
     1
 40
0.0
176
     1
 40
1.0
176
     1
 90
        0
176
     1
 62
    18
420
        0
176
     1
 90
       50
176
     1
 90
        3
176
     1
 62
     5
420
      255
176
     1
290
     0
176
     1
 90
       50
176
     1
 90
       50
176
     1
 90
       50
176
     1
290
     0
176
     1
 90
       50
176
     1
 62
   256
176
     0
 40
1.0
176
     0
 90
        2
176
     1
  1
strokes_ogs.tif
176
     1
290
     0
176
     1
 40
1.0
176
     1
 40
1.0
176
     1
  0
VISUALSTYLE
  5
3A
102
{ACAD_REACTORS
330
29
102
}
330
29
100
AcDbVisualStyle
  2
Shades of Gray
 70
    23
177
     3
291
     0
 70
    58
 90
        2
176
     1
 90
        2
176
     1
 90
        3
176
     1
 90
        0
176
     1
 40
0.6
176
     1
 40
30.0
176
     1
 62
     7
420
 16777215
176
     1
 90
        2
176
     1
 90
        2
176
     1
 62
     7
176
     1
 62
     7
176
     1
 90
        1
176
     1
 90
        1
176
     1
 40
40.0
176
     1
 90
        8
176
     1
 62
     7
176
     1
 40
1.0
176
     1
 90
        1
176
     1
 90
        6
176
     1
 90
        2
176
     1
 62
     7
176
     1
 90
        3
176
     1
 90
        0
176
     1
 90
        0
176
     1
290
     0
176
     1
 90
        1
176
     1
 40
0.0
176
     1
 90
        0
176
     1
290
     0
176
     1
290
     1
176
     1
290
     1
176
     1
290
     0
176
     1
290
     0
176
     1
290
     0
176
     1
290
     0
176
     1
290
     0
176
     1
290
     0
176
     1
 90
       50
176
     1
 40
0.0
176
     1
 40
1.0
176
     1
 90
        0
176
     1
 62
    18
420
        0
176
     1
 90
       50
176
     1
 90
        3
176
     1
 62
     5
420
      255
176
     1
290
     0
176
     1
 90
       50
176
     1
 90
       50
176
     1
 90
       50
176
     1
290
     0
176
     1
 90
       50
176
     1
 62
   256
176
     0
 40
1.0
176
     0
 90
        2
176
     1
  1
strokes_ogs.tif
176
     1
290
     0
176
     1
 40
1.0
176
     1
 40
1.0
176
     1
  0
VISUALSTYLE
  5
3B
102
{ACAD_REACTORS
330
29
102
}
330
29
100
AcDbVisualStyle
  2
Sketchy
 70
    24
177
     3
291
     0
 70
    58
 90
        1
176
     1
 90
        2
176
     1
 90
        2
176
     1
 90
        0
176
     1
 40
0.6
176
     1
 40
30.0
176
     1
 62
     7
420
 16777215
176
     1
 90
        2
176
     1
 90
        2
176
     1
 62
     7
176
     1
 62
     7
176
     1
 90
        1
176
     1
 90
        1
176
     1
 40
40.0
176
     1
 90
       11
176
     1
 62
     7
176
     1
 40
1.0
176
     1
 90
        1
176
     1
 90
        6
176
     1
 90
        2
176
     1
 62
     7
176
     1
 90
        6
176
     1
 90
        0
176
     1
 90
        0
176
     1
290
     0
176
     1
 90
        1
176
     1
 40
0.0
176
     1
 90
        0
176
     1
290
     0
176
     1
290
     1
176
     1
290
     1
176
     1
290
     0
176
     1
290
     0
176
     1
290
     0
176
     1
290
     0
176
     1
290
     0
176
     1
290
     0
176
     1
 90
       50
176
     1
 40
0.0
176
     1
 40
1.0
176
     1
 90
        0
176
     1
 62
    18
420
        0
176
     1
 90
       50
176
     1
 90
        3
176
     1
 62
     5
420
      255
176
     1
290
     0
176
     1
 90
       50
176
     1
 90
       50
176
     1
 90
       50
176
     1
290
     0
176
     1
 90
       50
176
     1
 62
   256
176
     0
 40
1.0
176
     0
 90
        2
176
     1
  1
strokes_ogs.tif
176
     1
290
     0
176
     1
 40
1.0
176
     1
 40
1.0
176
     1
  0
VISUALSTYLE
  5
36
102
{ACAD_REACTORS
330
29
102
}
330
29
100
AcDbVisualStyle
  2
Thicken
 70
    13
177
     3
291
     1
 70
    58
 90
        2
176
     1
 90
        2
176
     1
 90
        0
176
     1
 90
        0
176
     1
 40
0.6
176
     1
 40
30.0
176
     1
 62
     7
420
 16777215
176
     1
 90
        1
176
     1
 90
        4
176
     1
 62
     7
176
     1
 62
   257
176
     1
 90
        1
176
     1
 90
        1
176
     1
 40
1.0
176
     1
 90
       12
176
     1
 62
     7
176
     1
 40
1.0
176
     1
 90
        1
176
     1
 90
        6
176
     1
 90
        2
176
     1
 62
     7
176
     1
 90
        5
176
     1
 90
        0
176
     1
 90
        0
176
     1
290
     0
176
     1
 90
        1
176
     1
 40
0.0
176
     1
 90
        0
176
     1
290
     0
176
     1
290
     1
176
     1
290
     1
176
     1
290
     0
176
     1
290
     0
176
     1
290
     0
176
     1
290
     0
176
     1
290
     0
176
     1
290
     0
176
     1
 90
       50
176
     1
 40
0.0
176
     1
 40
1.0
176
     1
 90
        0
176
     1
 62
    18
420
        0
176
     1
 90
       50
176
     1
 90
        3
176
     1
 62
     5
420
      255
176
     1
290
     0
176
     1
 90
       50
176
     1
 90
       50
176
     1
 90
       50
176
     1
290
     0
176
     1
 90
       50
176
     1
 62
   256
176
     0
 40
1.0
176
     0
 90
        2
176
     1
  1
strokes_ogs.tif
176
     1
290
     0
176
     1
 40
1.0
176
     1
 40
1.0
176
     1
  0
VISUALSTYLE
  5
30
102
{ACAD_REACTORS
330
29
102
}
330
29
100
AcDbVisualStyle
  2
Wireframe
 70
     5
177
     3
291
     0
 70
    58
 90
        0
176
     1
 90
        2
176
     1
 90
        0
176
     1
 90
        0
176
     1
 40
0.6
176
     1
 40
30.0
176
     1
 62
     7
420
 16777215
176
     1
 90
        1
176
     1
 90
        4
176
     1
 62
     7
176
     1
 62
   257
176
     1
 90
        1
176
     1
 90
        1
176
     1
 40
1.0
176
     1
 90
        0
176
     1
 62
   257
176
     1
 40
1.0
176
     1
 90
        1
176
     1
 90
        6
176
     1
 90
        2
176
     1
 62
     7
176
     1
 90
        3
176
     1
 90
        0
176
     1
 90
        0
176
     1
290
     0
176
     1
 90
        1
176
     1
 40
0.0
176
     1
 90
        0
176
     1
290
     0
176
     1
290
     1
176
     1
290
     1
176
     1
290
     0
176
     1
290
     0
176
     1
290
     0
176
     1
290
     0
176
     1
290
     0
176
     1
290
     0
176
     1
 90
       50
176
     1
 40
0.0
176
     1
 40
1.0
176
     1
 90
        0
176
     1
 62
    18
420
        0
176
     1
 90
       50
176
     1
 90
        3
176
     1
 62
     5
420
      255
176
     1
290
     0
176
     1
 90
       50
176
     1
 90
       50
176
     1
 90
       50
176
     1
290
     0
176
     1
 90
       50
176
     1
 62
   256
176
     0
 40
1.0
176
     0
 90
        2
176
     1
  1
strokes_ogs.tif
176
     1
290
     0
176
     1
 40
1.0
176
     1
 40
1.0
176
     1
  0
VISUALSTYLE
  5
3C
102
{ACAD_REACTORS
330
29
102
}
330
29
100
AcDbVisualStyle
  2
X-Ray
 70
    25
177
     3
291
     0
 70
    58
 90
        2
176
     1
 90
        2
176
     1
 90
        1
176
     1
 90
        1
176
     1
 40
0.5
176
     1
 40
30.0
176
     1
 62
     7
420
 16777215
176
     1
 90
        1
176
     1
 90
        0
176
     1
 62
     7
176
     1
 62
   257
176
     1
 90
        1
176
     1
 90
        1
176
     1
 40
1.0
176
     1
 90
        8
176
     1
 62
     7
176
     1
 40
1.0
176
     1
 90
        1
176
     1
 90
        6
176
     1
 90
        2
176
     1
 62
     7
176
     1
 90
        3
176
     1
 90
        0
176
     1
 90
        0
176
     1
290
     0
176
     1
 90
       13
176
     1
 40
0.0
176
     1
 90
        0
176
     1
290
     0
176
     1
290
     1
176
     1
290
     1
176
     1
290
     0
176
     1
290
     0
176
     1
290
     0
176
     1
290
     0
176
     1
290
     0
176
     1
290
     0
176
     1
 90
       50
176
     1
 40
0.0
176
     1
 40
1.0
176
     1
 90
        0
176
     1
 62
    18
420
        0
176
     1
 90
       50
176
     1
 90
        3
176
     1
 62
     5
420
      255
176
     1
290
     0
176
     1
 90
       50
176
     1
 90
       50
176
     1
 90
       50
176
     1
290
     0
176
     1
 90
       50
176
     1
 62
   256
176
     0
 40
1.0
176
     0
 90
        2
176
     1
  1
strokes_ogs.tif
176
     1
290
     0
176
     1
 40
1.0
176
     1
 40
1.0
176
     1
  0
DICTIONARYVAR
  5
16A
102
{ACAD_REACTORS
330
165
102
}
330
165
100
DictionaryVariables
280
     0
  1
1:1
  0
DICTIONARYVAR
  5
167
102
{ACAD_REACTORS
330
165
102
}
330
165
100
DictionaryVariables
280
     0
  1
STANDARD
  0
DICTIONARYVAR
  5
166
102
{ACAD_REACTORS
330
165
102
}
330
165
100
DictionaryVariables
280
     0
  1
STANDARD
  0
DICTIONARYVAR
  5
168
102
{ACAD_REACTORS
330
165
102
}
330
165
100
DictionaryVariables
280
     0
  1
Imperial24
  0
DICTIONARYVAR
  5
169
102
{ACAD_REACTORS
330
165
102
}
330
165
100
DictionaryVariables
280
     0
  1
Imperial24
  0
DICTIONARY
  5
1A
330
19
100
AcDbDictionary
280
     1
281
     1
  3
BUMPTILE
360
1C
  3
DIFFUSETILE
360
1B
  3
OPACITYTILE
360
1F
  3
REFLECTIONTILE
360
1E
  3
REFRACTIONTILE
360
20
  3
SPECULARTILE
360
1D
  0
DICTIONARY
  5
12
330
11
100
AcDbDictionary
280
     1
281
     1
  3
BUMPTILE
360
14
  3
DIFFUSETILE
360
13
  3
OPACITYTILE
360
17
  3
REFLECTIONTILE
360
16
  3
REFRACTIONTILE
360
18
  3
SPECULARTILE
360
15
  0
DICTIONARY
  5
22
330
21
100
AcDbDictionary
280
     1
281
     1
  3
BUMPTILE
360
24
  3
DIFFUSETILE
360
23
  3
OPACITYTILE
360
27
  3
REFLECTIONTILE
360
26
  3
REFRACTIONTILE
360
28
  3
SPECULARTILE
360
25
  0
DICTIONARY
  5
16B
330
65
100
AcDbDictionary
280
     1
281
     1
  3
ACAD_ROUNDTRIP_2008_TABLESTYLE_CELLSTYLEMAP
360
16C
  0
XRECORD
  5
1C
102
{ACAD_REACTORS
330
1A
102
}
330
1A
100
AcDbXrecord
280
     1
270
     1
271
     1
  0
XRECORD
  5
1B
102
{ACAD_REACTORS
330
1A
102
}
330
1A
100
AcDbXrecord
280
     1
270
     1
271
     1
  0
XRECORD
  5
1F
102
{ACAD_REACTORS
330
1A
102
}
330
1A
100
AcDbXrecord
280
     1
270
     1
271
     1
  0
XRECORD
  5
1E
102
{ACAD_REACTORS
330
1A
102
}
330
1A
100
AcDbXrecord
280
     1
270
     1
271
     1
  0
XRECORD
  5
20
102
{ACAD_REACTORS
330
1A
102
}
330
1A
100
AcDbXrecord
280
     1
270
     1
271
     1
  0
XRECORD
  5
1D
102
{ACAD_REACTORS
330
1A
102
}
330
1A
100
AcDbXrecord
280
     1
270
     1
271
     1
  0
XRECORD
  5
14
102
{ACAD_REACTORS
330
12
102
}
330
12
100
AcDbXrecord
280
     1
270
     1
271
     1
  0
XRECORD
  5
13
102
{ACAD_REACTORS
330
12
102
}
330
12
100
AcDbXrecord
280
     1
270
     1
271
     1
  0
XRECORD
  5
17
102
{ACAD_REACTORS
330
12
102
}
330
12
100
AcDbXrecord
280
     1
270
     1
271
     1
  0
XRECORD
  5
16
102
{ACAD_REACTORS
330
12
102
}
330
12
100
AcDbXrecord
280
     1
270
     1
271
     1
  0
XRECORD
  5
18
102
{ACAD_REACTORS
330
12
102
}
330
12
100
AcDbXrecord
280
     1
270
     1
271
     1
  0
XRECORD
  5
15
102
{ACAD_REACTORS
330
12
102
}
330
12
100
AcDbXrecord
280
     1
270
     1
271
     1
  0
XRECORD
  5
24
102
{ACAD_REACTORS
330
22
102
}
330
22
100
AcDbXrecord
280
     1
270
     1
271
     1
  0
XRECORD
  5
23
102
{ACAD_REACTORS
330
22
102
}
330
22
100
AcDbXrecord
280
     1
270
     1
271
     1
  0
XRECORD
  5
27
102
{ACAD_REACTORS
330
22
102
}
330
22
100
AcDbXrecord
280
     1
270
     1
271
     1
  0
XRECORD
  5
26
102
{ACAD_REACTORS
330
22
102
}
330
22
100
AcDbXrecord
280
     1
270
     1
271
     1
  0
XRECORD
  5
28
102
{ACAD_REACTORS
330
22
102
}
330
22
100
AcDbXrecord
280
     1
270
     1
271
     1
  0
XRECORD
  5
25
102
{ACAD_REACTORS
330
22
102
}
330
22
100
AcDbXrecord
280
     1
270
     1
271
     1
  0
CELLSTYLEMAP
  5
16C
102
{ACAD_REACTORS
330
16B
102
}
330
16B
100
AcDbCellStyleMap
 90
        3
300
CELLSTYLE
  1
TABLEFORMAT_BEGIN
 90
        5
170
     1
 91
        0
 92
    32768
 62
   257
 93
        1
300
CONTENTFORMAT
  1
CONTENTFORMAT_BEGIN
 90
        0
 91
        0
 92
      512
 93
        0
300

 40
0.0
140
1.0
 94
        5
 62
     0
340
55
144
0.25
309
CONTENTFORMAT_END
171
     0
 94
        0
309
TABLEFORMAT_END
  1
CELLSTYLE_BEGIN
 90
        1
 91
        1
300
_TITLE
309
CELLSTYLE_END
300
CELLSTYLE
  1
TABLEFORMAT_BEGIN
 90
        5
170
     1
 91
        0
 92
        0
 62
   257
 93
        1
300
CONTENTFORMAT
  1
CONTENTFORMAT_BEGIN
 90
        0
 91
        0
 92
      512
 93
        0
300

 40
0.0
140
1.0
 94
        5
 62
     0
340
55
144
0.18
309
CONTENTFORMAT_END
171
     0
 94
        0
309
TABLEFORMAT_END
  1
CELLSTYLE_BEGIN
 90
        2
 91
        1
300
_HEADER
309
CELLSTYLE_END
300
CELLSTYLE
  1
TABLEFORMAT_BEGIN
 90
        5
170
     1
 91
        0
 92
        0
 62
   257
 93
        1
300
CONTENTFORMAT
  1
CONTENTFORMAT_BEGIN
 90
        0
 91
        0
 92
      512
 93
        0
300

 40
0.0
140
1.0
 94
        2
 62
     0
340
55
144
0.18
309
CONTENTFORMAT_END
171
     0
 94
        0
309
TABLEFORMAT_END
  1
CELLSTYLE_BEGIN
 90
        3
 91
        2
300
_DATA
309
CELLSTYLE_END
  0
ENDSEC
  0
EOF
