  0
SECTION
  2
HEADER
  9
$ACADVER
  1
AC1032
  9
$ACADMAINTVER
 90
      197
  9
$DWGCODEPAGE
  3
ANSI_932
  9
$REQUIREDVERSIONS
160
                 0
  9
$INSBASE
 10
0.0
 20
0.0
 30
0.0
  9
$EXTMIN
 10
1.000000000000000E+20
 20
1.000000000000000E+20
 30
1.000000000000000E+20
  9
$EXTMAX
 10
-1.000000000000000E+20
 20
-1.000000000000000E+20
 30
-1.000000000000000E+20
  9
$LIMMIN
 10
0.0
 20
0.0
  9
$LIMMAX
 10
12.0
 20
9.0
  9
$ORTHOMODE
 70
     0
  9
$REGENMODE
 70
     1
  9
$FILLMODE
 70
     1
  9
$QTEXTMODE
 70
     0
  9
$MIRRTEXT
 70
     0
  9
$LTSCALE
 40
1.0
  9
$ATTMODE
 70
     1
  9
$TEXTSIZE
 40
0.2
  9
$TRACEWID
 40
0.05
  9
$TEXTSTYLE
  7
Standard
  9
$CLAYER
  8
0
  9
$CELTYPE
  6
ByLayer
  9
$CECOLOR
 62
   256
  9
$CELTSCALE
 40
1.0
  9
$DISPSILH
 70
     0
  9
$DIMSCALE
 40
1.0
  9
$DIMASZ
 40
0.18
  9
$DIMEXO
 40
0.0625
  9
$DIMDLI
 40
0.38
  9
$DIMRND
 40
0.0
  9
$DIMDLE
 40
0.0
  9
$DIMEXE
 40
0.18
  9
$DIMTP
 40
0.0
  9
$DIMTM
 40
0.0
  9
$DIMTXT
 40
0.18
  9
$DIMCEN
 40
0.09
  9
$DIMTSZ
 40
0.0
  9
$DIMTOL
 70
     0
  9
$DIMLIM
 70
     0
  9
$DIMTIH
 70
     1
  9
$DIMTOH
 70
     1
  9
$DIMSE1
 70
     0
  9
$DIMSE2
 70
     0
  9
$DIMTAD
 70
     0
  9
$DIMZIN
 70
     0
  9
$DIMBLK
  1

  9
$DIMASO
 70
     1
  9
$DIMSHO
 70
     1
  9
$DIMPOST
  1

  9
$DIMAPOST
  1

  9
$DIMALT
 70
     0
  9
$DIMALTD
 70
     2
  9
$DIMALTF
 40
25.4
  9
$DIMLFAC
 40
1.0
  9
$DIMTOFL
 70
     0
  9
$DIMTVP
 40
0.0
  9
$DIMTIX
 70
     0
  9
$DIMSOXD
 70
     0
  9
$DIMSAH
 70
     0
  9
$DIMBLK1
  1

  9
$DIMBLK2
  1

  9
$DIMSTYLE
  2
Standard
  9
$DIMCLRD
 70
     0
  9
$DIMCLRE
 70
     0
  9
$DIMCLRT
 70
     0
  9
$DIMTFAC
 40
1.0
  9
$DIMGAP
 40
0.09
  9
$DIMJUST
 70
     0
  9
$DIMSD1
 70
     0
  9
$DIMSD2
 70
     0
  9
$DIMTOLJ
 70
     1
  9
$DIMTZIN
 70
     0
  9
$DIMALTZ
 70
     0
  9
$DIMALTTZ
 70
     0
  9
$DIMUPT
 70
     0
  9
$DIMDEC
 70
     4
  9
$DIMTDEC
 70
     4
  9
$DIMALTU
 70
     2
  9
$DIMALTTD
 70
     2
  9
$DIMTXSTY
  7
Standard
  9
$DIMAUNIT
 70
     0
  9
$DIMADEC
 70
     0
  9
$DIMALTRND
 40
0.0
  9
$DIMAZIN
 70
     0
  9
$DIMDSEP
 70
    46
  9
$DIMATFIT
 70
     3
  9
$DIMFRAC
 70
     0
  9
$DIMLDRBLK
  1

  9
$DIMLUNIT
 70
     2
  9
$DIMLWD
 70
    -2
  9
$DIMLWE
 70
    -2
  9
$DIMTMOVE
 70
     0
  9
$DIMFXL
 40
1.0
  9
$DIMFXLON
 70
     0
  9
$DIMJOGANG
 40
0.7853981633974483
  9
$DIMTFILL
 70
     0
  9
$DIMTFILLCLR
 70
     0
  9
$DIMARCSYM
 70
     0
  9
$DIMLTYPE
  6

  9
$DIMLTEX1
  6

  9
$DIMLTEX2
  6

  9
$DIMTXTDIRECTION
 70
     0
  9
$LUNITS
 70
     2
  9
$LUPREC
 70
     4
  9
$SKETCHINC
 40
0.1
  9
$FILLETRAD
 40
0.0
  9
$AUNITS
 70
     0
  9
$AUPREC
 70
     0
  9
$MENU
  1
.
  9
$ELEVATION
 40
0.0
  9
$PELEVATION
 40
0.0
  9
$THICKNESS
 40
0.0
  9
$LIMCHECK
 70
     0
  9
$CHAMFERA
 40
0.0
  9
$CHAMFERB
 40
0.0
  9
$CHAMFERC
 40
0.0
  9
$CHAMFERD
 40
0.0
  9
$SKPOLY
 70
     0
  9
$TDCREATE
 40
2459605.660694445
  9
$TDUCREATE
 40
2459605.285694445
  9
$TDUPDATE
 40
2459605.660694445
  9
$TDUUPDATE
 40
2459605.285694445
  9
$TDINDWG
 40
0.0000000000
  9
$TDUSRTIMER
 40
0.0000000000
  9
$USRTIMER
 70
     1
  9
$ANGBASE
 50
0.0
  9
$ANGDIR
 70
     0
  9
$PDMODE
 70
     0
  9
$PDSIZE
 40
0.0
  9
$PLINEWID
 40
0.0
  9
$SPLFRAME
 70
     0
  9
$SPLINETYPE
 70
     6
  9
$SPLINESEGS
 70
     8
  9
$HANDSEED
  5
132
  9
$SURFTAB1
 70
     6
  9
$SURFTAB2
 70
     6
  9
$SURFTYPE
 70
     6
  9
$SURFU
 70
     6
  9
$SURFV
 70
     6
  9
$UCSBASE
  2

  9
$UCSNAME
  2

  9
$UCSORG
 10
0.0
 20
0.0
 30
0.0
  9
$UCSXDIR
 10
1.0
 20
0.0
 30
0.0
  9
$UCSYDIR
 10
0.0
 20
1.0
 30
0.0
  9
$UCSORTHOREF
  2

  9
$UCSORTHOVIEW
 70
     0
  9
$UCSORGTOP
 10
0.0
 20
0.0
 30
0.0
  9
$UCSORGBOTTOM
 10
0.0
 20
0.0
 30
0.0
  9
$UCSORGLEFT
 10
0.0
 20
0.0
 30
0.0
  9
$UCSORGRIGHT
 10
0.0
 20
0.0
 30
0.0
  9
$UCSORGFRONT
 10
0.0
 20
0.0
 30
0.0
  9
$UCSORGBACK
 10
0.0
 20
0.0
 30
0.0
  9
$PUCSBASE
  2

  9
$PUCSNAME
  2

  9
$PUCSORG
 10
0.0
 20
0.0
 30
0.0
  9
$PUCSXDIR
 10
1.0
 20
0.0
 30
0.0
  9
$PUCSYDIR
 10
0.0
 20
1.0
 30
0.0
  9
$PUCSORTHOREF
  2

  9
$PUCSORTHOVIEW
 70
     0
  9
$PUCSORGTOP
 10
0.0
 20
0.0
 30
0.0
  9
$PUCSORGBOTTOM
 10
0.0
 20
0.0
 30
0.0
  9
$PUCSORGLEFT
 10
0.0
 20
0.0
 30
0.0
  9
$PUCSORGRIGHT
 10
0.0
 20
0.0
 30
0.0
  9
$PUCSORGFRONT
 10
0.0
 20
0.0
 30
0.0
  9
$PUCSORGBACK
 10
0.0
 20
0.0
 30
0.0
  9
$USERI1
 70
     0
  9
$USERI2
 70
     0
  9
$USERI3
 70
     0
  9
$USERI4
 70
     0
  9
$USERI5
 70
     0
  9
$USERR1
 40
0.0
  9
$USERR2
 40
0.0
  9
$USERR3
 40
0.0
  9
$USERR4
 40
0.0
  9
$USERR5
 40
0.0
  9
$WORLDVIEW
 70
     1
  9
$SHADEDGE
 70
     3
  9
$SHADEDIF
 70
    70
  9
$TILEMODE
 70
     1
  9
$MAXACTVP
 70
    64
  9
$PINSBASE
 10
0.0
 20
0.0
 30
0.0
  9
$PLIMCHECK
 70
     0
  9
$PEXTMIN
 10
1.000000000000000E+20
 20
1.000000000000000E+20
 30
1.000000000000000E+20
  9
$PEXTMAX
 10
-1.000000000000000E+20
 20
-1.000000000000000E+20
 30
-1.000000000000000E+20
  9
$PLIMMIN
 10
0.0
 20
0.0
  9
$PLIMMAX
 10
12.0
 20
9.0
  9
$UNITMODE
 70
     0
  9
$VISRETAIN
 70
     1
  9
$PLINEGEN
 70
     0
  9
$PSLTSCALE
 70
     1
  9
$TREEDEPTH
 70
  3020
  9
$CMLSTYLE
  2
Standard
  9
$CMLJUST
 70
     0
  9
$CMLSCALE
 40
1.0
  9
$PROXYGRAPHICS
 70
     1
  9
$MEASUREMENT
 70
     0
  9
$CELWEIGHT
370
    -1
  9
$ENDCAPS
280
     0
  9
$JOINSTYLE
280
     0
  9
$LWDISPLAY
290
     1
  9
$INSUNITS
 70
     4
  9
$HYPERLINKBASE
  1

  9
$STYLESHEET
  1

  9
$XEDIT
290
     1
  9
$CEPSNTYPE
380
     0
  9
$PSTYLEMODE
290
     1
  9
$FINGERPRINTGUID
  2
{0A045C19-B4BD-8E4F-8E96-C59C941C74E7}
  9
$VERSIONGUID
  2
{8ACDA270-F1E5-5148-892A-E4F4785C44A2}
  9
$EXTNAMES
290
     1
  9
$PSVPSCALE
 40
0.0
  9
$OLESTARTUP
290
     0
  9
$SORTENTS
280
   127
  9
$INDEXCTL
280
     0
  9
$HIDETEXT
280
     1
  9
$XCLIPFRAME
280
     2
  9
$HALOGAP
280
     0
  9
$OBSCOLOR
 70
   257
  9
$OBSLTYPE
280
     0
  9
$INTERSECTIONDISPLAY
280
     0
  9
$INTERSECTIONCOLOR
 70
   257
  9
$DIMASSOC
280
     2
  9
$PROJECTNAME
  1

  9
$CAMERADISPLAY
290
     0
  9
$LENSLENGTH
 40
50.0
  9
$CAMERAHEIGHT
 40
0.0
  9
$STEPSPERSEC
 40
2.0
  9
$STEPSIZE
 40
6.0
  9
$3DDWFPREC
 40
2.0
  9
$PSOLWIDTH
 40
0.25
  9
$PSOLHEIGHT
 40
4.0
  9
$LOFTANG1
 40
1.570796326794896
  9
$LOFTANG2
 40
1.570796326794896
  9
$LOFTMAG1
 40
0.0
  9
$LOFTMAG2
 40
0.0
  9
$LOFTPARAM
 70
     7
  9
$LOFTNORMALS
280
     1
  9
$LATITUDE
 40
37.795
  9
$LONGITUDE
 40
-122.394
  9
$NORTHDIRECTION
 40
0.0
  9
$TIMEZONE
 70
 -8000
  9
$LIGHTGLYPHDISPLAY
280
     1
  9
$TILEMODELIGHTSYNCH
280
     1
  9
$CMATERIAL
347
11
  9
$SOLIDHIST
280
     0
  9
$SHOWHIST
280
     1
  9
$DWFFRAME
280
     2
  9
$DGNFRAME
280
     0
  9
$REALWORLDSCALE
290
     1
  9
$INTERFERECOLOR
 62
     1
  9
$INTERFEREOBJVS
345
33
  9
$INTERFEREVPVS
346
30
  9
$CSHADOW
280
     0
  9
$SHADOWPLANELOCATION
 40
0.0
  0
ENDSEC
  0
SECTION
  2
CLASSES
  0
CLASS
  1
ACDBDICTIONARYWDFLT
  2
AcDbDictionaryWithDefault
  3
ObjectDBX Classes
 90
        0
 91
        1
280
     0
281
     0
  0
CLASS
  1
MATERIAL
  2
AcDbMaterial
  3
ObjectDBX Classes
 90
     1153
 91
        3
280
     0
281
     0
  0
CLASS
  1
VISUALSTYLE
  2
AcDbVisualStyle
  3
ObjectDBX Classes
 90
     4095
 91
       24
280
     0
281
     0
  0
CLASS
  1
SCALE
  2
AcDbScale
  3
ObjectDBX Classes
 90
     1153
 91
       17
280
     0
281
     0
  0
CLASS
  1
TABLESTYLE
  2
AcDbTableStyle
  3
ObjectDBX Classes
 90
     4095
 91
        1
280
     0
281
     0
  0
CLASS
  1
MLEADERSTYLE
  2
AcDbMLeaderStyle
  3
ACDB_MLEADERSTYLE_CLASS
 90
     4095
 91
        1
280
     0
281
     0
  0
CLASS
  1
ACDBSECTIONVIEWSTYLE
  2
AcDbSectionViewStyle
  3
ObjectDBX Classes
 90
     1025
 91
        1
280
     0
281
     0
  0
CLASS
  1
ACDBDETAILVIEWSTYLE
  2
AcDbDetailViewStyle
  3
ObjectDBX Classes
 90
     1025
 91
        1
280
     0
281
     0
  0
CLASS
  1
DICTIONARYVAR
  2
AcDbDictionaryVar
  3
ObjectDBX Classes
 90
        0
 91
        5
280
     0
281
     0
  0
CLASS
  1
CELLSTYLEMAP
  2
AcDbCellStyleMap
  3
ObjectDBX Classes
 90
     1152
 91
        1
280
     0
281
     0
  0
ENDSEC
  0
SECTION
  2
TABLES
  0
TABLE
  2
VPORT
  5
8
330
0
100
AcDbSymbolTable
 70
     1
  0
VPORT
  5
57
330
8
100
AcDbSymbolTableRecord
100
AcDbViewportTableRecord
  2
*Active
 70
     0
 10
0.0
 20
0.0
 11
1.0
 21
1.0
 12
0.0
 22
0.0
 13
0.0
 23
0.0
 14
1.0
 24
1.0
 15
0.0
 25
0.0
 16
0.0
 26
0.0
 36
1.0
 17
105.0078345989922
 27
148.5053410476718
 37
0.0
 40
302.9508957372506
 41
0.7070980333648977
 42
50.0
 43
0.0
 44
0.0
 50
0.0
 51
0.0
 71
     0
 72
   100
 73
     1
 74
     1
 75
     0
 76
     0
 77
     0
 78
     0
281
     0
 65
     1
110
0.0
120
0.0
130
0.0
111
1.0
121
0.0
131
0.0
112
0.0
122
1.0
132
0.0
 79
     0
146
0.0
 60
     3
 61
     5
292
     1
282
     1
141
0.0
142
0.0
 63
   250
421
  3355443
  0
ENDTAB
  0
TABLE
  2
LTYPE
  5
5
330
0
100
AcDbSymbolTable
 70
     1
  0
LTYPE
  5
5B
330
5
100
AcDbSymbolTableRecord
100
AcDbLinetypeTableRecord
  2
ByBlock
 70
     0
  3

 72
    65
 73
     0
 40
0.0
  0
LTYPE
  5
5C
330
5
100
AcDbSymbolTableRecord
100
AcDbLinetypeTableRecord
  2
ByLayer
 70
     0
  3

 72
    65
 73
     0
 40
0.0
  0
LTYPE
  5
5D
330
5
100
AcDbSymbolTableRecord
100
AcDbLinetypeTableRecord
  2
Continuous
 70
     0
  3
Solid line
 72
    65
 73
     0
 40
0.0
  0
ENDTAB
  0
TABLE
  2
LAYER
  5
2
330
0
100
AcDbSymbolTable
 70
     2
  0
LAYER
  5
54
330
2
100
AcDbSymbolTableRecord
100
AcDbLayerTableRecord
  2
0
 70
     0
 62
     7
  6
Continuous
370
    -3
390
F
347
21
348
0
  0
LAYER
  5
78
330
2
100
AcDbSymbolTableRecord
100
AcDbLayerTableRecord
  2
レイヤー 1
 70
     0
 62
     7
  6
Continuous
370
     0
390
F
347
21
348
0
  0
ENDTAB
  0
TABLE
  2
STYLE
  5
3
330
0
100
AcDbSymbolTable
 70
     2
  0
STYLE
  5
55
330
3
100
AcDbSymbolTableRecord
100
AcDbTextStyleTableRecord
  2
Standard
 70
     0
 40
0.0
 41
1.0
 50
0.0
 71
     0
 42
0.2
  3
txt
  4

  0
STYLE
  5
5A
330
3
100
AcDbSymbolTableRecord
100
AcDbTextStyleTableRecord
  2
Annotative
 70
     0
 40
0.0
 41
1.0
 50
0.0
 71
     0
 42
0.2
  3
txt
  4

1001
AcadAnnotative
1000
AnnotativeData
1002
{
1070
     1
1070
     1
1002
}
  0
ENDTAB
  0
TABLE
  2
VIEW
  5
6
330
0
100
AcDbSymbolTable
 70
     0
  0
ENDTAB
  0
TABLE
  2
UCS
  5
7
330
0
100
AcDbSymbolTable
 70
     0
  0
ENDTAB
  0
TABLE
  2
APPID
  5
9
330
0
100
AcDbSymbolTable
 70
     2
  0
APPID
  5
56
330
9
100
AcDbSymbolTableRecord
100
AcDbRegAppTableRecord
  2
ACAD
 70
     0
  0
APPID
  5
5E
330
9
100
AcDbSymbolTableRecord
100
AcDbRegAppTableRecord
  2
AcadAnnotative
 70
     0
  0
ENDTAB
  0
TABLE
  2
DIMSTYLE
  5
A
330
0
100
AcDbSymbolTable
 70
     2
100
AcDbDimStyleTable
 71
     0
  0
DIMSTYLE
105
58
330
A
100
AcDbSymbolTableRecord
100
AcDbDimStyleTableRecord
  2
Standard
 70
     0
340
55
  0
DIMSTYLE
105
59
330
A
100
AcDbSymbolTableRecord
100
AcDbDimStyleTableRecord
  2
Annotative
 70
     0
340
55
1001
AcadAnnotative
1000
AnnotativeData
1002
{
1070
     1
1070
     1
1002
}
  0
ENDTAB
  0
TABLE
  2
BLOCK_RECORD
  5
1
330
0
100
AcDbSymbolTable
 70
     1
  0
BLOCK_RECORD
  5
70
330
1
100
AcDbSymbolTableRecord
100
AcDbBlockTableRecord
  2
*Model_Space
340
73
 70
     0
280
     1
281
     0
  0
BLOCK_RECORD
  5
6C
330
1
100
AcDbSymbolTableRecord
100
AcDbBlockTableRecord
  2
*Paper_Space
340
6F
 70
     0
280
     1
281
     0
  0
BLOCK_RECORD
  5
74
330
1
100
AcDbSymbolTableRecord
100
AcDbBlockTableRecord
  2
*Paper_Space0
340
77
 70
     0
280
     1
281
     0
  0
ENDTAB
  0
ENDSEC
  0
SECTION
  2
BLOCKS
  0
BLOCK
  5
71
330
70
100
AcDbEntity
  8
0
100
AcDbBlockBegin
  2
*Model_Space
 70
     0
 10
0.0
 20
0.0
 30
0.0
  3
*Model_Space
  1

  0
ENDBLK
  5
72
330
70
100
AcDbEntity
  8
0
100
AcDbBlockEnd
  0
BLOCK
  5
6D
330
6C
100
AcDbEntity
 67
     1
  8
0
100
AcDbBlockBegin
  2
*Paper_Space
 70
     0
 10
0.0
 20
0.0
 30
0.0
  3
*Paper_Space
  1

  0
ENDBLK
  5
6E
330
6C
100
AcDbEntity
 67
     1
  8
0
100
AcDbBlockEnd
  0
BLOCK
  5
75
330
74
100
AcDbEntity
 67
     1
  8
0
100
AcDbBlockBegin
  2
*Paper_Space0
 70
     0
 10
0.0
 20
0.0
 30
0.0
  3
*Paper_Space0
  1

  0
ENDBLK
  5
76
330
74
100
AcDbEntity
 67
     1
  8
0
100
AcDbBlockEnd
  0
ENDSEC
  0
SECTION
  2
ENTITIES
  0
SPLINE
  5
79
330
70
100
AcDbEntity
  8
レイヤー 1
 62
    18
420
        0
370
    25
100
AcDbSpline
210
0.0
220
0.0
230
1.0
 70
    24
 71
     3
 72
     8
 73
     4
 74
     0
 42
0.0000000001
 43
0.0000000001
 40
0.0
 40
0.0
 40
0.0
 40
0.0
 40
1.0
 40
1.0
 40
1.0
 40
1.0
 10
102.8699913615438
 20
221.9113470582374
 30
0.0
 10
102.8699913615438
 20
221.9113470582374
 30
0.0
 10
102.8699913615438
 20
192.2356821215374
 30
0.0
 10
102.8699913615438
 20
192.2356821215374
 30
0.0
  0
SPLINE
  5
7A
330
70
100
AcDbEntity
  8
レイヤー 1
 62
    18
420
        0
370
    25
100
AcDbSpline
210
0.0
220
0.0
230
1.0
 70
    24
 71
     3
 72
     8
 73
     4
 74
     0
 42
0.0000000001
 43
0.0000000001
 40
0.0
 40
0.0
 40
0.0
 40
0.0
 40
1.0
 40
1.0
 40
1.0
 40
1.0
 10
102.8699913615438
 20
186.3513513734968
 30
0.0
 10
102.8699913615438
 20
186.3513513734968
 30
0.0
 10
102.8699913615438
 20
164.9306735156249
 30
0.0
 10
102.8699913615438
 20
164.9306735156249
 30
0.0
  0
LWPOLYLINE
  5
7B
330
70
100
AcDbEntity
  8
レイヤー 1
 62
    18
420
        0
370
    25
100
AcDbPolyline
 90
        9
 70
     0
 43
0.0
 10
102.9546653490172
 20
221.9113470582374
 10
104.224656735961
 20
223.1390068344062
 10
105.3676640565031
 20
224.4936614429
 10
106.3413234020984
 20
225.9753324155656
 10
107.1879986812922
 20
227.5416666097813
 10
107.8653259855391
 20
229.1926640255469
 10
108.3309952359109
 20
230.8859930520875
 10
108.6696588880344
 20
232.664006832025
 10
108.7966644862828
 20
234.3996674693407
  0
LWPOLYLINE
  5
7C
330
70
100
AcDbEntity
  8
レイヤー 1
 62
    18
420
        0
370
    25
100
AcDbPolyline
 90
       13
 70
     0
 43
0.0
 10
118.2793328731265
 20
148.2936829937968
 10
117.6019948029563
 20
149.817674811314
 10
116.7129986789109
 20
151.2993457839796
 10
115.7393285673922
 20
152.6540111583968
 10
114.5963320127734
 20
153.924013311264
 10
113.3263298599062
 20
155.0670098658827
 10
111.971664485489
 20
156.0830115881765
 10
110.5323251235985
 20
156.9720077122218
 10
109.0083225401578
 20
157.6916773931671
 10
107.3996567351672
 20
158.284341475864
 10
105.7486593194016
 20
158.7076791154609
 10
104.0553302928609
 20
158.9616795460343
 10
102.3619905003969
 20
159.0463427675843
  0
SPLINE
  5
7D
330
70
100
AcDbEntity
  8
レイヤー 1
 62
    18
420
        0
370
    25
100
AcDbSpline
210
0.0
220
0.0
230
1.0
 70
    24
 71
     3
 72
     8
 73
     4
 74
     0
 42
0.0000000001
 43
0.0000000001
 40
0.0
 40
0.0
 40
0.0
 40
0.0
 40
1.0
 40
1.0
 40
1.0
 40
1.0
 10
134.1966644799328
 20
106.6800085860687
 30
0.0
 10
134.1966644799328
 20
106.6800085860687
 30
0.0
 10
118.2793328731265
 20
148.2936722278734
 30
0.0
 10
118.2793328731265
 20
148.2936722278734
 30
0.0
  0
SPLINE
  5
7E
330
70
100
AcDbEntity
  8
レイヤー 1
 62
    18
420
        0
370
    25
100
AcDbSpline
210
0.0
220
0.0
230
1.0
 70
    24
 71
     3
 72
     8
 73
     4
 74
     0
 42
0.0000000001
 43
0.0000000001
 40
0.0
 40
0.0
 40
0.0
 40
0.0
 40
1.0
 40
1.0
 40
1.0
 40
1.0
 10
103.0816601813422
 20
164.7613470725249
 30
0.0
 10
103.0816601813422
 20
164.7613470725249
 30
0.0
 10
103.0816601813422
 20
159.0463427675843
 30
0.0
 10
103.0816601813422
 20
159.0463427675843
 30
0.0
  0
LWPOLYLINE
  5
7F
330
70
100
AcDbEntity
  8
レイヤー 1
 62
    18
420
        0
370
    13
100
AcDbPolyline
 90
       71
 70
     1
 43
0.0
 10
80.85667095282186
 20
99.90667094805935
 10
80.94133417437188
 20
99.52566491923752
 10
81.19533460494531
 20
99.14466965633906
 10
81.61866686158047
 20
98.76366362751721
 10
82.21133632723905
 20
98.42499997539377
 10
82.93100062522265
 20
98.0439939465719
 10
83.82000213222969
 20
97.70533029444846
 10
84.87833546529843
 20
97.40899825310002
 10
86.06366901365388
 20
97.11266621175157
 10
87.37600277729608
 20
96.81633417040313
 10
88.77299976248828
 20
96.56233373982971
 10
90.2970023459289
 20
96.30833330925625
 10
91.94799437873284
 20
96.13899610023283
 10
93.64133417119687
 20
95.9696696571328
 10
95.41933718521091
 20
95.80033244810939
 10
97.23966104407658
 20
95.71566922655938
 10
99.14466965633906
 20
95.63099523908595
 10
101.0496675026781
 20
95.58866362831095
 10
102.9546653490172
 20
95.58866362831095
 10
104.8596631953562
 20
95.58866362831095
 10
106.7223294309203
 20
95.67333761578437
 10
108.5849956664844
 20
95.75800083733438
 10
110.4053302912734
 20
95.88499566965941
 10
112.1410016945125
 20
96.05433287868281
 10
113.7919991102781
 20
96.22367008770623
 10
115.4006649152687
 20
96.43532814158128
 10
116.8823358879343
 20
96.68932857215471
 10
118.2370012623515
 20
96.94332900272815
 10
119.4646610385203
 20
97.23966104407658
 10
120.6076683590625
 20
97.53600385134843
 10
121.5389960938828
 20
97.87466750347187
 10
122.3856713730765
 20
98.21333115559532
 10
123.0206670665484
 20
98.59433718441717
 10
123.5286679276953
 20
98.97533244731564
 10
123.8673315798187
 20
99.31399609943909
 10
124.0366687888422
 20
99.73733373903595
 10
124.0366687888422
 20
100.1183290019344
 10
123.8673315798187
 20
100.4993350307562
 10
123.5286679276953
 20
100.8379986828797
 10
123.0206670665484
 20
101.2189939457781
 10
122.3856713730765
 20
101.5999999746
 10
121.5389960938828
 20
101.9386636267234
 10
120.6076683590625
 20
102.2773272788469
 10
119.4646610385203
 20
102.5736700861187
 10
118.2370012623515
 20
102.8700021274672
 10
116.8823358879343
 20
103.1240025580406
 10
115.4006649152687
 20
103.378002988614
 10
113.7919991102781
 20
103.5896610424891
 10
112.1410016945125
 20
103.7589982515125
 10
110.4053302912734
 20
103.9283354605359
 10
108.5849956664844
 20
104.0553302928609
 10
106.7223294309203
 20
104.1400042803343
 10
104.8596631953562
 20
104.2246675018844
 10
102.9546653490172
 20
104.2246675018844
 10
101.0496675026781
 20
104.2246675018844
 10
99.14466965633906
 20
104.1823358911093
 10
97.23966104407658
 20
104.0976619036359
 10
95.41933718521091
 20
104.0129986820859
 10
93.64133417119687
 20
103.8436614730625
 10
91.94799437873284
 20
103.6743350299625
 10
90.2970023459289
 20
103.5049978209391
 10
88.77299976248828
 20
103.2509973903656
 10
87.37600277729608
 20
102.9969969597922
 10
86.06366901365388
 20
102.7429965292187
 10
84.87833546529843
 20
102.4043328770953
 10
83.82000213222969
 20
102.1080008357468
 10
82.93100062522265
 20
101.7693371836234
 10
82.21133632723905
 20
101.3883311548015
 10
81.61866686158047
 20
101.0496675026781
 10
81.19533460494531
 20
100.6686614738562
 10
80.94133417437188
 20
100.2876662109578
  0
LWPOLYLINE
  5
80
330
70
100
AcDbEntity
  8
レイヤー 1
 62
    18
420
        0
370
    25
100
AcDbPolyline
 90
       67
 70
     0
 43
0.0
 10
123.5709995384703
 20
98.97535397916243
 10
125.2219969542359
 20
99.44101246361089
 10
126.7459995376766
 20
99.90668171398276
 10
128.1429965228688
 20
100.4146825751296
 10
129.3706562990375
 20
100.9650150470515
 10
130.5136636195797
 20
101.5153475189734
 10
131.4449913544
 20
102.0656799908952
 10
132.2493242568953
 20
102.6583440735921
 10
132.9266623270656
 20
103.2933505329874
 10
133.3923315774375
 20
103.9283462264593
 10
133.7309952295609
 20
104.5633526858546
 10
133.857990061886
 20
105.1983483793265
 10
133.857990061886
 20
105.8333440727984
 10
133.6886636187859
 20
106.4683505321937
 10
133.3076575899641
 20
107.1033462256655
 10
132.7996567288172
 20
107.6960103083624
 10
132.1223294245703
 20
108.3310167677577
 10
131.317996522075
 20
108.9236808504546
 10
130.3019947997813
 20
109.4740133223765
 10
129.1589982451625
 20
110.0243457942984
 10
127.8889960922953
 20
110.5746782662202
 10
126.4919991071031
 20
111.0826791273671
 10
124.9256649128875
 20
111.548348377739
 10
123.2746567311985
 20
111.9716860173358
 10
121.4966644831078
 20
112.3950128910093
 10
119.6339982475437
 20
112.7760189198312
 10
117.6443264137313
 20
113.0723509611796
 10
115.6123229691438
 20
113.368683002528
 10
113.4533246922313
 20
113.6226834331015
 10
111.2943264153188
 20
113.8343522528999
 10
109.0506649168562
 20
114.0036786959999
 10
106.8069926524703
 20
114.0883526834733
 10
104.5209995432328
 20
114.1730159050234
 10
102.2349956680719
 20
114.1730159050234
 10
99.90666018213596
 20
114.1730159050234
 10
97.62065630697506
 20
114.0883526834733
 10
95.37699480851252
 20
113.9613470852249
 10
93.13332254412662
 20
113.7920206421249
 10
90.97432426721409
 20
113.5803518223265
 10
88.85766298403829
 20
113.326351391753
 10
86.82566492241251
 20
113.0300193504046
 10
84.87833008233673
 20
112.6913449323577
 10
83.01566384677267
 20
112.3526812802343
 10
81.23766621572032
 20
111.9293436406374
 10
79.58666341699299
 20
111.463685156189
 10
78.06266621651407
 20
110.9980159058171
 10
76.66566384836016
 20
110.4900150446702
 10
75.39566169549299
 20
109.9820141835234
 10
74.29499675164923
 20
109.3893501008265
 10
73.32133202309219
 20
108.8390176289046
 10
72.51699373763519
 20
108.2463535462077
 10
71.83966105042658
 20
107.6113470868124
 10
71.37399718301643
 20
106.9763513933405
 10
71.03533353089297
 20
106.3836873106436
 10
70.86599632186954
 20
105.7486808512484
 10
70.90833331560626
 20
105.0713535470015
 10
71.07766514166797
 20
104.4363470876062
 10
71.41633417675312
 20
103.8436830049093
 10
71.9243296549383
 20
103.2086873114374
 10
72.6016623421469
 20
102.5736808520421
 10
73.40599524464221
 20
101.9810167693452
 10
74.42199696693595
 20
101.4306842974233
 10
75.52266191077972
 20
100.8803518255015
 10
76.83499567442189
 20
100.3300193535796
 10
78.2319980425758
 20
99.82201849243274
 10
79.75599524305471
 20
99.35634924206087
 10
81.44932965255705
 20
98.93301160246402
  0
LWPOLYLINE
  5
81
330
70
100
AcDbEntity
  8
レイヤー 1
 62
    18
420
        0
370
    25
100
AcDbPolyline
 90
       80
 70
     0
 43
0.0
 10
123.6979943707953
 20
98.42502150724055
 10
125.433655008111
 20
98.89067999168901
 10
126.9999892023266
 20
99.39868085283588
 10
128.4393177982938
 20
99.94901332475777
 10
129.751651561936
 20
100.4993457966796
 10
130.9369904932532
 20
101.0920206452999
 10
131.9529922155469
 20
101.7270163387718
 10
132.7996567288172
 20
102.4043544089421
 10
133.1383203809407
 20
102.7430180610655
 10
133.4769840330641
 20
103.081681713189
 10
133.773326840336
 20
103.4203453653124
 10
133.984984894211
 20
103.8013513941343
 10
134.1966537140094
 20
104.1823466570327
 10
134.3236593122578
 20
104.6056842966296
 10
134.4083225338079
 20
104.986679559528
 10
134.4506541445829
 20
105.4100171991249
 10
134.4506541445829
 20
105.7910124620234
 10
134.3659909230328
 20
106.2143501016202
 10
134.2389853247844
 20
106.5953453645187
 10
134.0696588816844
 20
106.9763513933405
 10
133.815658451111
 20
107.357346656239
 10
133.5616580205375
 20
107.6960210742858
 10
133.2653259791891
 20
108.0770163371843
 10
132.8843199503672
 20
108.4156799893077
 10
132.0799870478719
 20
109.093018059478
 10
131.0639853255782
 20
109.7280137529499
 10
129.9209887709594
 20
110.3206778356468
 10
128.6509866180922
 20
110.8710210734921
 10
127.211658022125
 20
111.421353545414
 10
125.6453238279094
 20
111.9293544065608
 10
123.9519840354454
 20
112.3950128910093
 10
122.1316601765797
 20
112.8183505306062
 10
120.1843199535422
 20
113.241688170203
 10
118.1946588856531
 20
113.5803518223265
 10
116.0779922195156
 20
113.8766838636749
 10
113.8766515659047
 20
114.1306842942483
 10
111.6329900674422
 20
114.3846847248218
 10
109.3046545815063
 20
114.5540111679218
 10
106.9763190955703
 20
114.6386851553952
 10
104.6056519988594
 20
114.7233483769452
 10
102.1926532913735
 20
114.7656799877202
 10
99.82198619466256
 20
114.7233483769452
 10
97.45131909795162
 20
114.6386851553952
 10
95.1229943779391
 20
114.5116795571468
 10
92.83699050277816
 20
114.3423531140468
 10
90.59331823839226
 20
114.1306842942483
 10
88.39199373366644
 20
113.8343522528999
 10
86.27532706752893
 20
113.5380202115515
 10
84.28565523371645
 20
113.1570141827296
 10
82.38065738737738
 20
112.7760189198312
 10
80.56032814555003
 20
112.3526812802343
 10
78.86699373604769
 20
111.8446804190874
 10
77.34299115260707
 20
111.3366795579405
 10
75.90365717367816
 20
110.7863470860187
 10
74.63366040377268
 20
110.2360146140968
 10
73.53299007696723
 20
109.6433505313999
 10
72.55932534841019
 20
109.008354837928
 10
71.75499244591488
 20
108.3310167677577
 10
71.41632341082973
 20
107.9923531156343
 10
71.11999136948128
 20
107.6113470868124
 10
70.86599632186954
 20
107.230351823914
 10
70.65432750207112
 20
106.8916881717905
 10
70.48499567600939
 20
106.4683505321937
 10
70.35799007776098
 20
106.0873445033718
 10
70.31565846698597
 20
105.7063492404733
 10
70.31565846698597
 20
105.2830116008765
 10
70.35799007776098
 20
104.859684727203
 10
70.44265868227269
 20
104.4786786983812
 10
70.61199050833441
 20
104.0976834354827
 10
70.82365932813285
 20
103.7166881725843
 10
71.07765975870629
 20
103.3356821437624
 10
71.37399180005473
 20
102.997018491639
 10
72.05132448726333
 20
102.2773488106937
 10
72.94032599427035
 20
101.6423531172218
 10
73.95632771656408
 20
101.0073466578265
 10
75.14165588195786
 20
100.4146825751296
 10
76.49632663933676
 20
99.86435010320775
 10
77.97799222904067
 20
99.31401763128587
 10
79.54432642325627
 20
98.848348380914
 10
81.27999244353363
 20
98.38267913054215
  0
LINE
  5
82
330
70
100
AcDbEntity
  8
レイヤー 1
 62
    18
420
        0
370
    25
100
AcDbLine
 10
104.4786679324578
 20
114.1730051391
 30
0.0
 11
103.9283246946125
 21
104.2246675018844
 31
0.0
  0
LINE
  5
83
330
70
100
AcDbEntity
  8
レイヤー 1
 62
    18
420
        0
370
    13
100
AcDbLine
 10
106.7223294309203
 20
114.0883419175499
 30
0.0
 11
105.3676640565031
 21
104.8173315845812
 31
0.0
  0
LINE
  5
84
330
70
100
AcDbEntity
  8
レイヤー 1
 62
    18
420
        0
370
    25
100
AcDbLine
 10
107.1033246938188
 20
104.1400042803343
 30
0.0
 11
110.4476619020484
 21
113.8766838636749
 31
0.0
  0
LINE
  5
85
330
70
100
AcDbEntity
  8
レイヤー 1
 62
    18
420
        0
370
    13
100
AcDbLine
 10
111.4636636243422
 20
113.7920206421249
 30
0.0
 11
107.8653259855391
 21
104.5633419199312
 31
0.0
  0
LINE
  5
86
330
70
100
AcDbEntity
  8
レイヤー 1
 62
    18
420
        0
370
    25
100
AcDbLine
 10
110.8709995416453
 20
103.8860146156843
 30
0.0
 11
115.7393285673922
 21
113.3686614706812
 31
0.0
  0
LINE
  5
87
330
70
100
AcDbEntity
  8
レイヤー 1
 62
    18
420
        0
370
    13
100
AcDbLine
 10
116.8823358879343
 20
113.199356559428
 30
0.0
 11
111.4636636243422
 21
104.3093307234344
 31
0.0
  0
LINE
  5
88
330
70
100
AcDbEntity
  8
レイヤー 1
 62
    18
420
        0
370
    25
100
AcDbLine
 10
114.0459995408515
 20
103.5473401976375
 30
0.0
 11
120.8616580237125
 21
112.5220077233343
 31
0.0
  0
LINE
  5
89
330
70
100
AcDbEntity
  8
レイヤー 1
 62
    18
420
        0
370
    13
100
AcDbLine
 10
121.7083333029062
 20
112.3526812802343
 30
0.0
 11
114.42699480375
 21
103.9283462264593
 31
0.0
  0
SPLINE
  5
8A
330
70
100
AcDbEntity
  8
レイヤー 1
 62
    18
420
        0
370
    25
100
AcDbSpline
210
0.0
220
0.0
230
1.0
 70
    24
 71
     3
 72
     8
 73
     4
 74
     0
 42
0.0000000001
 43
0.0000000001
 40
0.0
 40
0.0
 40
0.0
 40
0.0
 40
1.0
 40
1.0
 40
1.0
 40
1.0
 10
125.0526705111359
 20
111.5060275328874
 30
0.0
 10
125.0526705111359
 20
111.5060275328874
 30
0.0
 10
116.8399935112359
 20
103.1240240898874
 30
0.0
 10
116.8399935112359
 20
103.1240240898874
 30
0.0
  0
SPLINE
  5
8B
330
70
100
AcDbEntity
  8
レイヤー 1
 62
    18
420
        0
370
    25
100
AcDbSpline
210
0.0
220
0.0
230
1.0
 70
    24
 71
     3
 72
     8
 73
     4
 74
     0
 42
0.0000000001
 43
0.0000000001
 40
0.0
 40
0.0
 40
0.0
 40
0.0
 40
1.0
 40
1.0
 40
1.0
 40
1.0
 10
128.2700021211172
 20
110.4476941998186
 30
0.0
 10
128.2700021211172
 20
110.4476941998186
 30
0.0
 10
119.2530029846453
 20
102.6160232287405
 30
0.0
 10
119.2530029846453
 20
102.6160232287405
 30
0.0
  0
SPLINE
  5
8C
330
70
100
AcDbEntity
  8
レイヤー 1
 62
    18
420
        0
370
    25
100
AcDbSpline
210
0.0
220
0.0
230
1.0
 70
    24
 71
     3
 72
     8
 73
     4
 74
     0
 42
0.0000000001
 43
0.0000000001
 40
0.0
 40
0.0
 40
0.0
 40
0.0
 40
1.0
 40
1.0
 40
1.0
 40
1.0
 10
130.8099956609281
 20
109.2200236577264
 30
0.0
 10
130.8099956609281
 20
109.2200236577264
 30
0.0
 10
121.2849956633094
 20
102.0233591460436
 30
0.0
 10
121.2849956633094
 20
102.0233591460436
 30
0.0
  0
SPLINE
  5
8D
330
70
100
AcDbEntity
  8
レイヤー 1
 62
    18
420
        0
370
    25
100
AcDbSpline
210
0.0
220
0.0
230
1.0
 70
    24
 71
     3
 72
     8
 73
     4
 74
     0
 42
0.0000000001
 43
0.0000000001
 40
0.0
 40
0.0
 40
0.0
 40
0.0
 40
1.0
 40
1.0
 40
1.0
 40
1.0
 10
132.5033354533922
 20
107.9923531156343
 30
0.0
 10
132.5033354533922
 20
107.9923531156343
 30
0.0
 10
122.5973294269516
 20
101.4730266741217
 30
0.0
 10
122.5973294269516
 20
101.4730266741217
 30
0.0
  0
SPLINE
  5
8E
330
70
100
AcDbEntity
  8
レイヤー 1
 62
    18
420
        0
370
    25
100
AcDbSpline
210
0.0
220
0.0
230
1.0
 70
    24
 71
     3
 72
     8
 73
     4
 74
     0
 42
0.0000000001
 43
0.0000000001
 40
0.0
 40
0.0
 40
0.0
 40
0.0
 40
1.0
 40
1.0
 40
1.0
 40
1.0
 10
133.4769947989875
 20
106.8493565610155
 30
0.0
 10
133.4769947989875
 20
106.8493565610155
 30
0.0
 10
123.4863363169203
 20
100.8803518255015
 30
0.0
 10
123.4863363169203
 20
100.8803518255015
 30
0.0
  0
SPLINE
  5
8F
330
70
100
AcDbEntity
  8
レイヤー 1
 62
    18
420
        0
370
    25
100
AcDbSpline
210
0.0
220
0.0
230
1.0
 70
    24
 71
     3
 72
     8
 73
     4
 74
     0
 42
0.0000000001
 43
0.0000000001
 40
0.0
 40
0.0
 40
0.0
 40
0.0
 40
1.0
 40
1.0
 40
1.0
 40
1.0
 10
124.0366687888422
 20
100.1183505337811
 30
0.0
 10
124.0366687888422
 20
100.1183505337811
 30
0.0
 10
133.9003324385843
 20
105.4100171991249
 30
0.0
 10
133.9003324385843
 20
105.4100171991249
 30
0.0
  0
SPLINE
  5
90
330
70
100
AcDbEntity
  8
レイヤー 1
 62
    18
420
        0
370
    25
100
AcDbSpline
210
0.0
220
0.0
230
1.0
 70
    24
 71
     3
 72
     8
 73
     4
 74
     0
 42
0.0000000001
 43
0.0000000001
 40
0.0
 40
0.0
 40
0.0
 40
0.0
 40
1.0
 40
1.0
 40
1.0
 40
1.0
 10
133.6463320080109
 20
104.3940262427546
 30
0.0
 10
133.6463320080109
 20
104.3940262427546
 30
0.0
 10
124.0366687888422
 20
99.6103604385577
 30
0.0
 10
124.0366687888422
 20
99.6103604385577
 30
0.0
  0
SPLINE
  5
91
330
70
100
AcDbEntity
  8
レイヤー 1
 62
    18
420
        0
370
    25
100
AcDbSpline
210
0.0
220
0.0
230
1.0
 70
    24
 71
     3
 72
     8
 73
     4
 74
     0
 42
0.0000000001
 43
0.0000000001
 40
0.0
 40
0.0
 40
0.0
 40
0.0
 40
1.0
 40
1.0
 40
1.0
 40
1.0
 10
123.9096631905937
 20
99.31401763128587
 30
0.0
 10
123.9096631905937
 20
99.31401763128587
 30
0.0
 10
131.8683289939969
 20
102.3620227981671
 30
0.0
 10
131.8683289939969
 20
102.3620227981671
 30
0.0
  0
LWPOLYLINE
  5
92
330
70
100
AcDbEntity
  8
レイヤー 1
 62
    18
420
        0
370
    25
100
AcDbPolyline
 90
        9
 70
     0
 43
0.0
 10
103.9283246946125
 20
104.2246890337311
 10
105.3676532905797
 20
104.817353116428
 10
107.1033246938188
 20
104.1400150462577
 10
107.8653152196157
 20
104.5633526858546
 10
110.8709887757219
 20
103.8860146156843
 10
111.4636528584188
 20
104.3093522552811
 10
114.0459887749281
 20
103.5473509635608
 10
114.0883203857032
 20
103.5473509635608
 10
114.0459887749281
 20
103.5473509635608
  0
LWPOLYLINE
  5
93
330
70
100
AcDbEntity
  8
レイヤー 1
 62
    18
420
        0
370
    25
100
AcDbPolyline
 90
        3
 70
     0
 43
0.0
 10
116.8399935112359
 20
103.1240025580406
 10
114.42699480375
 20
103.9283462264593
 10
114.0459995408515
 20
103.5473401976375
  0
SPLINE
  5
94
330
70
100
AcDbEntity
  8
レイヤー 1
 62
    18
420
        0
370
    25
100
AcDbSpline
210
0.0
220
0.0
230
1.0
 70
    24
 71
     3
 72
     8
 73
     4
 74
     0
 42
0.0000000001
 43
0.0000000001
 40
0.0
 40
0.0
 40
0.0
 40
0.0
 40
1.0
 40
1.0
 40
1.0
 40
1.0
 10
119.2530029846453
 20
102.6160232287405
 30
0.0
 10
119.2530029846453
 20
102.6160232287405
 30
0.0
 10
117.0939939418094
 20
103.3780137545374
 30
0.0
 10
117.0939939418094
 20
103.3780137545374
 30
0.0
  0
SPLINE
  5
95
330
70
100
AcDbEntity
  8
レイヤー 1
 62
    18
420
        0
370
    25
100
AcDbSpline
210
0.0
220
0.0
230
1.0
 70
    24
 71
     3
 72
     8
 73
     4
 74
     0
 42
0.0000000001
 43
0.0000000001
 40
0.0
 40
0.0
 40
0.0
 40
0.0
 40
1.0
 40
1.0
 40
1.0
 40
1.0
 10
121.2849956633094
 20
102.0233483801202
 30
0.0
 10
121.2849956633094
 20
102.0233483801202
 30
0.0
 10
119.4223294277453
 20
102.7853496718405
 30
0.0
 10
119.4223294277453
 20
102.7853496718405
 30
0.0
  0
SPLINE
  5
96
330
70
100
AcDbEntity
  8
レイヤー 1
 62
    18
420
        0
370
    25
100
AcDbSpline
210
0.0
220
0.0
230
1.0
 70
    24
 71
     3
 72
     8
 73
     4
 74
     0
 42
0.0000000001
 43
0.0000000001
 40
0.0
 40
0.0
 40
0.0
 40
0.0
 40
1.0
 40
1.0
 40
1.0
 40
1.0
 10
122.5973294269516
 20
101.4730159081983
 30
0.0
 10
122.5973294269516
 20
101.4730159081983
 30
0.0
 10
121.4120012615578
 20
102.1503539783686
 30
0.0
 10
121.4120012615578
 20
102.1503539783686
 30
0.0
  0
SPLINE
  5
97
330
70
100
AcDbEntity
  8
レイヤー 1
 62
    18
420
        0
370
    25
100
AcDbSpline
210
0.0
220
0.0
230
1.0
 70
    24
 71
     3
 72
     8
 73
     4
 74
     0
 42
0.0000000001
 43
0.0000000001
 40
0.0
 40
0.0
 40
0.0
 40
0.0
 40
1.0
 40
1.0
 40
1.0
 40
1.0
 10
123.4863363169203
 20
100.8803518255015
 30
0.0
 10
123.4863363169203
 20
100.8803518255015
 30
0.0
 10
122.6819926485016
 20
101.5576898956717
 30
0.0
 10
122.6819926485016
 20
101.5576898956717
 30
0.0
  0
LWPOLYLINE
  5
98
330
70
100
AcDbEntity
  8
レイヤー 1
 62
    18
420
        0
370
    25
100
AcDbPolyline
 90
        3
 70
     0
 43
0.0
 10
123.5709995384703
 20
100.9226726703531
 10
124.0366580229188
 20
100.1183505337811
 10
124.1213320103922
 20
99.65268128340932
  0
SPLINE
  5
99
330
70
100
AcDbEntity
  8
レイヤー 1
 62
    18
420
        0
370
    25
100
AcDbSpline
210
0.0
220
0.0
230
1.0
 70
    24
 71
     3
 72
     8
 73
     4
 74
     0
 42
0.0000000001
 43
0.0000000001
 40
0.0
 40
0.0
 40
0.0
 40
0.0
 40
1.0
 40
1.0
 40
1.0
 40
1.0
 10
124.0366580229188
 20
99.61032814078754
 30
0.0
 10
124.0366580229188
 20
99.61032814078754
 30
0.0
 10
123.9096631905937
 20
99.31400686536248
 30
0.0
 10
123.9096631905937
 20
99.31400686536248
 30
0.0
  0
SPLINE
  5
9A
330
70
100
AcDbEntity
  8
レイヤー 1
 62
    18
420
        0
370
    25
100
AcDbSpline
210
0.0
220
0.0
230
1.0
 70
    24
 71
     3
 72
     8
 73
     4
 74
     0
 42
0.0000000001
 43
0.0000000001
 40
0.0
 40
0.0
 40
0.0
 40
0.0
 40
1.0
 40
1.0
 40
1.0
 40
1.0
 10
103.9283246946125
 20
104.2246675018844
 30
0.0
 10
103.9283246946125
 20
104.2246675018844
 30
0.0
 10
102.4466644878703
 20
104.986679559528
 30
0.0
 10
102.4466644878703
 20
104.986679559528
 30
0.0
  0
LWPOLYLINE
  5
9B
330
70
100
AcDbEntity
  8
レイヤー 1
 62
    18
420
        0
370
    25
100
AcDbPolyline
 90
       38
 70
     0
 43
0.0
 10
102.4466752537937
 20
96.98568214534994
 10
103.378002988614
 20
95.58867439423435
 10
104.2669991126593
 20
96.98568214534994
 10
105.3253324457281
 20
95.63100600500936
 10
106.1720077249218
 20
97.02801375612494
 10
107.484341488564
 20
95.71567999248276
 10
108.1616687928109
 20
97.11267697767496
 10
109.6010081547015
 20
95.80034321403278
 10
109.939671806825
 20
97.19734019922498
 10
111.5906692225906
 20
95.96968042305618
 10
111.5906692225906
 20
97.3666774082484
 10
113.5379986797047
 20
96.18133847693123
 10
113.1993350275812
 20
97.57834622804683
 10
115.5700021242922
 20
96.47768128420308
 10
114.9350064308203
 20
97.74767267114686
 10
117.3903367490812
 20
96.77401332555151
 10
116.5860038465859
 20
97.95934149094527
 10
119.1683397630953
 20
97.15500858844997
 10
118.2370012623515
 20
98.17101031074372
 10
120.7346739573109
 20
97.57834622804683
 10
119.6763406242421
 20
98.50967396286716
 10
122.0470077209531
 20
98.0863470891937
 10
120.9040004004109
 20
98.89067999168901
 10
123.1476726647968
 20
98.67901117189058
 10
121.7506649136812
 20
99.35633847613749
 10
123.6980051367187
 20
99.10234881148744
 10
122.0046653442547
 20
99.90668171398276
 10
123.9943371780672
 20
99.52567568516091
 10
121.7930072903796
 20
100.4146718092062
 10
124.0790003996172
 20
99.94901332475777
 10
121.2003324417594
 20
100.8380094488031
 10
123.4863363169203
 20
100.8803410595781
 10
120.6499999698375
 20
101.2190154776249
 10
122.597340192875
 20
101.473005142275
 10
119.9726726655906
 20
101.6846739620734
 10
121.2850064292328
 20
102.0233483801202
 10
119.0836657756219
 20
102.1503432124452
 10
119.2530029846453
 20
102.6160124628171
  0
SPLINE
  5
9C
330
70
100
AcDbEntity
  8
レイヤー 1
 62
    18
420
        0
370
    13
100
AcDbSpline
210
0.0
220
0.0
230
1.0
 70
    24
 71
     3
 72
     8
 73
     4
 74
     0
 42
0.0000000001
 43
0.0000000001
 40
0.0
 40
0.0
 40
0.0
 40
0.0
 40
1.0
 40
1.0
 40
1.0
 40
1.0
 10
104.2669991126593
 20
96.98568214534994
 30
0.0
 10
104.2669991126593
 20
96.98568214534994
 30
0.0
 10
104.3093307234344
 20
99.86433933728434
 30
0.0
 10
104.3093307234344
 20
99.86433933728434
 30
0.0
  0
SPLINE
  5
9D
330
70
100
AcDbEntity
  8
レイヤー 1
 62
    18
420
        0
370
    13
100
AcDbSpline
210
0.0
220
0.0
230
1.0
 70
    24
 71
     3
 72
     8
 73
     4
 74
     0
 42
0.0000000001
 43
0.0000000001
 40
0.0
 40
0.0
 40
0.0
 40
0.0
 40
1.0
 40
1.0
 40
1.0
 40
1.0
 10
106.1719969589984
 20
97.02801375612494
 30
0.0
 10
106.1719969589984
 20
97.02801375612494
 30
0.0
 10
105.917996528425
 20
99.94901332475777
 30
0.0
 10
105.917996528425
 20
99.94901332475777
 30
0.0
  0
SPLINE
  5
9E
330
70
100
AcDbEntity
  8
レイヤー 1
 62
    18
420
        0
370
    13
100
AcDbSpline
210
0.0
220
0.0
230
1.0
 70
    24
 71
     3
 72
     8
 73
     4
 74
     0
 42
0.0000000001
 43
0.0000000001
 40
0.0
 40
0.0
 40
0.0
 40
0.0
 40
1.0
 40
1.0
 40
1.0
 40
1.0
 10
108.1616580268875
 20
97.11267697767496
 30
0.0
 10
108.1616580268875
 20
97.11267697767496
 30
0.0
 10
107.738331153214
 20
100.0336765463077
 30
0.0
 10
107.738331153214
 20
100.0336765463077
 30
0.0
  0
SPLINE
  5
9F
330
70
100
AcDbEntity
  8
レイヤー 1
 62
    18
420
        0
370
    13
100
AcDbSpline
210
0.0
220
0.0
230
1.0
 70
    24
 71
     3
 72
     8
 73
     4
 74
     0
 42
0.0000000001
 43
0.0000000001
 40
0.0
 40
0.0
 40
0.0
 40
0.0
 40
1.0
 40
1.0
 40
1.0
 40
1.0
 10
109.9396610409016
 20
97.19734019922498
 30
0.0
 10
109.9396610409016
 20
97.19734019922498
 30
0.0
 10
109.3469969582047
 20
100.1183397678578
 30
0.0
 10
109.3469969582047
 20
100.1183397678578
 30
0.0
  0
SPLINE
  5
A0
330
70
100
AcDbEntity
  8
レイヤー 1
 62
    18
420
        0
370
    13
100
AcDbSpline
210
0.0
220
0.0
230
1.0
 70
    24
 71
     3
 72
     8
 73
     4
 74
     0
 42
0.0000000001
 43
0.0000000001
 40
0.0
 40
0.0
 40
0.0
 40
0.0
 40
1.0
 40
1.0
 40
1.0
 40
1.0
 10
111.5906584566672
 20
97.3666774082484
 30
0.0
 10
111.5906584566672
 20
97.3666774082484
 30
0.0
 10
110.9556627631953
 20
100.2453453661062
 30
0.0
 10
110.9556627631953
 20
100.2453453661062
 30
0.0
  0
SPLINE
  5
A1
330
70
100
AcDbEntity
  8
レイヤー 1
 62
    18
420
        0
370
    13
100
AcDbSpline
210
0.0
220
0.0
230
1.0
 70
    24
 71
     3
 72
     8
 73
     4
 74
     0
 42
0.0000000001
 43
0.0000000001
 40
0.0
 40
0.0
 40
0.0
 40
0.0
 40
1.0
 40
1.0
 40
1.0
 40
1.0
 10
113.1993242616578
 20
97.57834622804683
 30
0.0
 10
113.1993242616578
 20
97.57834622804683
 30
0.0
 10
112.3526597483875
 20
100.4146718092062
 30
0.0
 10
112.3526597483875
 20
100.4146718092062
 30
0.0
  0
SPLINE
  5
A2
330
70
100
AcDbEntity
  8
レイヤー 1
 62
    18
420
        0
370
    13
100
AcDbSpline
210
0.0
220
0.0
230
1.0
 70
    24
 71
     3
 72
     8
 73
     4
 74
     0
 42
0.0000000001
 43
0.0000000001
 40
0.0
 40
0.0
 40
0.0
 40
0.0
 40
1.0
 40
1.0
 40
1.0
 40
1.0
 10
114.9349956648969
 20
97.74767267114686
 30
0.0
 10
114.9349956648969
 20
97.74767267114686
 30
0.0
 10
113.8343307210531
 20
100.5840090182296
 30
0.0
 10
113.8343307210531
 20
100.5840090182296
 30
0.0
  0
SPLINE
  5
A3
330
70
100
AcDbEntity
  8
レイヤー 1
 62
    18
420
        0
370
    13
100
AcDbSpline
210
0.0
220
0.0
230
1.0
 70
    24
 71
     3
 72
     8
 73
     4
 74
     0
 42
0.0000000001
 43
0.0000000001
 40
0.0
 40
0.0
 40
0.0
 40
0.0
 40
1.0
 40
1.0
 40
1.0
 40
1.0
 10
116.5859930806625
 20
97.95934149094527
 30
0.0
 10
116.5859930806625
 20
97.95934149094527
 30
0.0
 10
115.4006649152687
 20
100.795677838028
 30
0.0
 10
115.4006649152687
 20
100.795677838028
 30
0.0
  0
SPLINE
  5
A4
330
70
100
AcDbEntity
  8
レイヤー 1
 62
    18
420
        0
370
    13
100
AcDbSpline
210
0.0
220
0.0
230
1.0
 70
    24
 71
     3
 72
     8
 73
     4
 74
     0
 42
0.0000000001
 43
0.0000000001
 40
0.0
 40
0.0
 40
0.0
 40
0.0
 40
1.0
 40
1.0
 40
1.0
 40
1.0
 10
118.2369904964281
 20
98.17101031074372
 30
0.0
 10
118.2369904964281
 20
98.17101031074372
 30
0.0
 10
116.6706563022125
 20
101.0073466578265
 30
0.0
 10
116.6706563022125
 20
101.0073466578265
 30
0.0
  0
SPLINE
  5
A5
330
70
100
AcDbEntity
  8
レイヤー 1
 62
    18
420
        0
370
    13
100
AcDbSpline
210
0.0
220
0.0
230
1.0
 70
    24
 71
     3
 72
     8
 73
     4
 74
     0
 42
0.0000000001
 43
0.0000000001
 40
0.0
 40
0.0
 40
0.0
 40
0.0
 40
1.0
 40
1.0
 40
1.0
 40
1.0
 10
119.6763298583187
 20
98.50967396286716
 30
0.0
 10
119.6763298583187
 20
98.50967396286716
 30
0.0
 10
117.8559952335297
 20
101.2613470883999
 30
0.0
 10
117.8559952335297
 20
101.2613470883999
 30
0.0
  0
SPLINE
  5
A6
330
70
100
AcDbEntity
  8
レイヤー 1
 62
    18
420
        0
370
    13
100
AcDbSpline
210
0.0
220
0.0
230
1.0
 70
    24
 71
     3
 72
     8
 73
     4
 74
     0
 42
0.0000000001
 43
0.0000000001
 40
0.0
 40
0.0
 40
0.0
 40
0.0
 40
1.0
 40
1.0
 40
1.0
 40
1.0
 10
120.9039896344875
 20
98.89067999168901
 30
0.0
 10
120.9039896344875
 20
98.89067999168901
 30
0.0
 10
118.9566601773734
 20
101.473005142275
 30
0.0
 10
118.9566601773734
 20
101.473005142275
 30
0.0
  0
SPLINE
  5
A7
330
70
100
AcDbEntity
  8
レイヤー 1
 62
    18
420
        0
370
    13
100
AcDbSpline
210
0.0
220
0.0
230
1.0
 70
    24
 71
     3
 72
     8
 73
     4
 74
     0
 42
0.0000000001
 43
0.0000000001
 40
0.0
 40
0.0
 40
0.0
 40
0.0
 40
1.0
 40
1.0
 40
1.0
 40
1.0
 10
121.7506649136812
 20
99.35633847613749
 30
0.0
 10
121.7506649136812
 20
99.35633847613749
 30
0.0
 10
120.0996567319922
 20
101.1766731009265
 30
0.0
 10
120.0996567319922
 20
101.1766731009265
 30
0.0
  0
LWPOLYLINE
  5
A8
330
70
100
AcDbEntity
  8
レイヤー 1
 62
    18
420
        0
370
    25
100
AcDbPolyline
 90
        3
 70
     0
 43
0.0
 10
119.2529922187219
 20
102.6160232287405
 10
117.2209995400578
 20
102.7430180610655
 10
116.8399935112359
 20
103.1240025580406
  0
LINE
  5
A9
330
70
100
AcDbEntity
  8
レイヤー 1
 62
    18
420
        0
370
    25
100
AcDbLine
 10
100.4146610432828
 20
114.1730051391
 30
0.0
 11
101.0073358919031
 21
104.2246675018844
 31
0.0
  0
LINE
  5
AA
330
70
100
AcDbEntity
  8
レイヤー 1
 62
    18
420
        0
370
    13
100
AcDbLine
 10
98.21333115559532
 20
114.0883419175499
 30
0.0
 11
99.52566491923752
 21
104.8173315845812
 31
0.0
  0
LINE
  5
AB
330
70
100
AcDbEntity
  8
レイヤー 1
 62
    18
420
        0
370
    25
100
AcDbLine
 10
97.83233589269688
 20
104.1400042803343
 30
0.0
 11
94.4456563077688
 21
113.8766838636749
 31
0.0
  0
LINE
  5
AC
330
70
100
AcDbEntity
  8
レイヤー 1
 62
    18
420
        0
370
    13
100
AcDbLine
 10
93.47199696217344
 20
113.7920206421249
 30
0.0
 11
97.02799222427817
 21
104.5633419199312
 31
0.0
  0
LINE
  5
AD
330
70
100
AcDbEntity
  8
レイヤー 1
 62
    18
420
        0
370
    25
100
AcDbLine
 10
94.06466104487034
 20
103.8860146156843
 30
0.0
 11
89.15399502538674
 21
113.3686614706812
 31
0.0
  0
LINE
  5
AE
330
70
100
AcDbEntity
  8
レイヤー 1
 62
    18
420
        0
370
    13
100
AcDbLine
 10
88.01100385372967
 20
113.199356559428
 30
0.0
 11
93.47199696217344
 21
104.3093307234344
 31
0.0
  0
LINE
  5
AF
330
70
100
AcDbEntity
  8
レイヤー 1
 62
    18
420
        0
370
    25
100
AcDbLine
 10
90.88966104566408
 20
103.5473401976375
 30
0.0
 11
84.03166556906642
 21
112.5220077233343
 31
0.0
  0
LINE
  5
B0
330
70
100
AcDbEntity
  8
レイヤー 1
 62
    18
420
        0
370
    13
100
AcDbLine
 10
83.2273326665711
 20
112.3526812802343
 30
0.0
 11
90.50865501684224
 21
103.9283462264593
 31
0.0
  0
SPLINE
  5
B1
330
70
100
AcDbEntity
  8
レイヤー 1
 62
    18
420
        0
370
    25
100
AcDbSpline
210
0.0
220
0.0
230
1.0
 70
    24
 71
     3
 72
     8
 73
     4
 74
     0
 42
0.0000000001
 43
0.0000000001
 40
0.0
 40
0.0
 40
0.0
 40
0.0
 40
1.0
 40
1.0
 40
1.0
 40
1.0
 10
79.88300084130313
 20
111.5060275328874
 30
0.0
 10
79.88300084130313
 20
111.5060275328874
 30
0.0
 10
88.09566707527968
 20
103.1240240898874
 30
0.0
 10
88.09566707527968
 20
103.1240240898874
 30
0.0
  0
SPLINE
  5
B2
330
70
100
AcDbEntity
  8
レイヤー 1
 62
    18
420
        0
370
    25
100
AcDbSpline
210
0.0
220
0.0
230
1.0
 70
    24
 71
     3
 72
     8
 73
     4
 74
     0
 42
0.0000000001
 43
0.0000000001
 40
0.0
 40
0.0
 40
0.0
 40
0.0
 40
1.0
 40
1.0
 40
1.0
 40
1.0
 10
76.66566384836016
 20
110.4476941998186
 30
0.0
 10
76.66566384836016
 20
110.4476941998186
 30
0.0
 10
85.68266298483205
 20
102.6160232287405
 30
0.0
 10
85.68266298483205
 20
102.6160232287405
 30
0.0
  0
SPLINE
  5
B3
330
70
100
AcDbEntity
  8
レイヤー 1
 62
    18
420
        0
370
    25
100
AcDbSpline
210
0.0
220
0.0
230
1.0
 70
    24
 71
     3
 72
     8
 73
     4
 74
     0
 42
0.0000000001
 43
0.0000000001
 40
0.0
 40
0.0
 40
0.0
 40
0.0
 40
1.0
 40
1.0
 40
1.0
 40
1.0
 10
74.12566492558751
 20
109.2200236577264
 30
0.0
 10
74.12566492558751
 20
109.2200236577264
 30
0.0
 10
83.65066492320627
 20
102.0233591460436
 30
0.0
 10
83.65066492320627
 20
102.0233591460436
 30
0.0
  0
SPLINE
  5
B4
330
70
100
AcDbEntity
  8
レイヤー 1
 62
    18
420
        0
370
    25
100
AcDbSpline
210
0.0
220
0.0
230
1.0
 70
    24
 71
     3
 72
     8
 73
     4
 74
     0
 42
0.0000000001
 43
0.0000000001
 40
0.0
 40
0.0
 40
0.0
 40
0.0
 40
1.0
 40
1.0
 40
1.0
 40
1.0
 10
72.43233051608517
 20
107.9923531156343
 30
0.0
 10
72.43233051608517
 20
107.9923531156343
 30
0.0
 10
82.33833115956407
 20
101.4730266741217
 30
0.0
 10
82.33833115956407
 20
101.4730266741217
 30
0.0
  0
SPLINE
  5
B5
330
70
100
AcDbEntity
  8
レイヤー 1
 62
    18
420
        0
370
    25
100
AcDbSpline
210
0.0
220
0.0
230
1.0
 70
    24
 71
     3
 72
     8
 73
     4
 74
     0
 42
0.0000000001
 43
0.0000000001
 40
0.0
 40
0.0
 40
0.0
 40
0.0
 40
1.0
 40
1.0
 40
1.0
 40
1.0
 10
71.45866578752813
 20
106.8493565610155
 30
0.0
 10
71.45866578752813
 20
106.8493565610155
 30
0.0
 10
81.40699804178204
 20
100.8803518255015
 30
0.0
 10
81.40699804178204
 20
100.8803518255015
 30
0.0
  0
SPLINE
  5
B6
330
70
100
AcDbEntity
  8
レイヤー 1
 62
    18
420
        0
370
    25
100
AcDbSpline
210
0.0
220
0.0
230
1.0
 70
    24
 71
     3
 72
     8
 73
     4
 74
     0
 42
0.0000000001
 43
0.0000000001
 40
0.0
 40
0.0
 40
0.0
 40
0.0
 40
1.0
 40
1.0
 40
1.0
 40
1.0
 10
80.89899718063518
 20
100.1183505337811
 30
0.0
 10
80.89899718063518
 20
100.1183505337811
 30
0.0
 10
71.03533353089297
 20
105.4100171991249
 30
0.0
 10
71.03533353089297
 20
105.4100171991249
 30
0.0
  0
SPLINE
  5
B7
330
70
100
AcDbEntity
  8
レイヤー 1
 62
    18
420
        0
370
    25
100
AcDbSpline
210
0.0
220
0.0
230
1.0
 70
    24
 71
     3
 72
     8
 73
     4
 74
     0
 42
0.0000000001
 43
0.0000000001
 40
0.0
 40
0.0
 40
0.0
 40
0.0
 40
1.0
 40
1.0
 40
1.0
 40
1.0
 10
71.28933396146641
 20
104.3940262427546
 30
0.0
 10
71.28933396146641
 20
104.3940262427546
 30
0.0
 10
80.89899718063518
 20
99.6103604385577
 30
0.0
 10
80.89899718063518
 20
99.6103604385577
 30
0.0
  0
SPLINE
  5
B8
330
70
100
AcDbEntity
  8
レイヤー 1
 62
    18
420
        0
370
    25
100
AcDbSpline
210
0.0
220
0.0
230
1.0
 70
    24
 71
     3
 72
     8
 73
     4
 74
     0
 42
0.0000000001
 43
0.0000000001
 40
0.0
 40
0.0
 40
0.0
 40
0.0
 40
1.0
 40
1.0
 40
1.0
 40
1.0
 10
81.02599739592189
 20
99.31401763128587
 30
0.0
 10
81.02599739592189
 20
99.31401763128587
 30
0.0
 10
73.06733159251876
 20
102.3620227981671
 30
0.0
 10
73.06733159251876
 20
102.3620227981671
 30
0.0
  0
LWPOLYLINE
  5
B9
330
70
100
AcDbEntity
  8
レイヤー 1
 62
    18
420
        0
370
    25
100
AcDbPolyline
 90
        9
 70
     0
 43
0.0
 10
101.0073358919031
 20
104.2246890337311
 10
99.52566491923752
 20
104.817353116428
 10
97.83233589269688
 20
104.1400150462577
 10
97.02799222427817
 20
104.5633526858546
 10
94.06466104487034
 20
103.8860146156843
 10
93.47199696217344
 20
104.3093522552811
 10
90.88966104566408
 20
103.5473509635608
 10
90.84732943488909
 20
103.5473509635608
 10
90.88966104566408
 20
103.5473509635608
  0
LWPOLYLINE
  5
BA
330
70
100
AcDbEntity
  8
レイヤー 1
 62
    18
420
        0
370
    25
100
AcDbPolyline
 90
        3
 70
     0
 43
0.0
 10
88.09566169231798
 20
103.1240025580406
 10
90.50865501684224
 20
103.9283462264593
 10
90.88966104566408
 20
103.5473401976375
  0
SPLINE
  5
BB
330
70
100
AcDbEntity
  8
レイヤー 1
 62
    18
420
        0
370
    25
100
AcDbSpline
210
0.0
220
0.0
230
1.0
 70
    24
 71
     3
 72
     8
 73
     4
 74
     0
 42
0.0000000001
 43
0.0000000001
 40
0.0
 40
0.0
 40
0.0
 40
0.0
 40
1.0
 40
1.0
 40
1.0
 40
1.0
 10
85.68266836779375
 20
102.6160232287405
 30
0.0
 10
85.68266836779375
 20
102.6160232287405
 30
0.0
 10
87.84166664470625
 20
103.3780137545374
 30
0.0
 10
87.84166664470625
 20
103.3780137545374
 30
0.0
  0
SPLINE
  5
BC
330
70
100
AcDbEntity
  8
レイヤー 1
 62
    18
420
        0
370
    25
100
AcDbSpline
210
0.0
220
0.0
230
1.0
 70
    24
 71
     3
 72
     8
 73
     4
 74
     0
 42
0.0000000001
 43
0.0000000001
 40
0.0
 40
0.0
 40
0.0
 40
0.0
 40
1.0
 40
1.0
 40
1.0
 40
1.0
 10
83.65066492320627
 20
102.0233483801202
 30
0.0
 10
83.65066492320627
 20
102.0233483801202
 30
0.0
 10
85.51333115877033
 20
102.7853496718405
 30
0.0
 10
85.51333115877033
 20
102.7853496718405
 30
0.0
  0
SPLINE
  5
BD
330
70
100
AcDbEntity
  8
レイヤー 1
 62
    18
420
        0
370
    25
100
AcDbSpline
210
0.0
220
0.0
230
1.0
 70
    24
 71
     3
 72
     8
 73
     4
 74
     0
 42
0.0000000001
 43
0.0000000001
 40
0.0
 40
0.0
 40
0.0
 40
0.0
 40
1.0
 40
1.0
 40
1.0
 40
1.0
 10
82.33833115956407
 20
101.4730159081983
 30
0.0
 10
82.33833115956407
 20
101.4730159081983
 30
0.0
 10
83.52366470791954
 20
102.1503539783686
 30
0.0
 10
83.52366470791954
 20
102.1503539783686
 30
0.0
  0
SPLINE
  5
BE
330
70
100
AcDbEntity
  8
レイヤー 1
 62
    18
420
        0
370
    25
100
AcDbSpline
210
0.0
220
0.0
230
1.0
 70
    24
 71
     3
 72
     8
 73
     4
 74
     0
 42
0.0000000001
 43
0.0000000001
 40
0.0
 40
0.0
 40
0.0
 40
0.0
 40
1.0
 40
1.0
 40
1.0
 40
1.0
 10
81.40699804178204
 20
100.8803518255015
 30
0.0
 10
81.40699804178204
 20
100.8803518255015
 30
0.0
 10
82.21133094427736
 20
101.5576898956717
 30
0.0
 10
82.21133094427736
 20
101.5576898956717
 30
0.0
  0
LWPOLYLINE
  5
BF
330
70
100
AcDbEntity
  8
レイヤー 1
 62
    18
420
        0
370
    25
100
AcDbPolyline
 90
        3
 70
     0
 43
0.0
 10
81.36466104804533
 20
100.9226726703531
 10
80.89900256359687
 20
100.1183505337811
 10
80.81433395908517
 20
99.65268128340932
  0
SPLINE
  5
C0
330
70
100
AcDbEntity
  8
レイヤー 1
 62
    18
420
        0
370
    25
100
AcDbSpline
210
0.0
220
0.0
230
1.0
 70
    24
 71
     3
 72
     8
 73
     4
 74
     0
 42
0.0000000001
 43
0.0000000001
 40
0.0
 40
0.0
 40
0.0
 40
0.0
 40
1.0
 40
1.0
 40
1.0
 40
1.0
 10
80.89900256359687
 20
99.61032814078754
 30
0.0
 10
80.89900256359687
 20
99.61032814078754
 30
0.0
 10
81.02599739592189
 20
99.31400686536248
 30
0.0
 10
81.02599739592189
 20
99.31400686536248
 30
0.0
  0
SPLINE
  5
C1
330
70
100
AcDbEntity
  8
レイヤー 1
 62
    18
420
        0
370
    25
100
AcDbSpline
210
0.0
220
0.0
230
1.0
 70
    24
 71
     3
 72
     8
 73
     4
 74
     0
 42
0.0000000001
 43
0.0000000001
 40
0.0
 40
0.0
 40
0.0
 40
0.0
 40
1.0
 40
1.0
 40
1.0
 40
1.0
 10
101.0073358919031
 20
104.2246675018844
 30
0.0
 10
101.0073358919031
 20
104.2246675018844
 30
0.0
 10
102.4466644878703
 20
104.986679559528
 30
0.0
 10
102.4466644878703
 20
104.986679559528
 30
0.0
  0
LWPOLYLINE
  5
C2
330
70
100
AcDbEntity
  8
レイヤー 1
 62
    18
420
        0
370
    25
100
AcDbPolyline
 90
       38
 70
     0
 43
0.0
 10
102.4466752537937
 20
96.98568214534994
 10
101.51533675305
 20
95.58867439423435
 10
100.6686722397796
 20
96.98568214534994
 10
99.61033890671092
 20
95.63100600500936
 10
98.76367439344059
 20
97.02801375612494
 10
97.45134062979841
 20
95.71567999248276
 10
96.77400255962812
 20
97.11267697767496
 10
95.3346739636609
 20
95.80034321403278
 10
94.99599954561407
 20
97.19734019922498
 10
93.34500212984844
 20
95.96968042305618
 10
93.34500212984844
 20
97.3666774082484
 10
91.39767267273436
 20
96.18133847693123
 10
91.69400471408279
 20
97.57834622804683
 10
89.36567461110856
 20
96.47768128420308
 10
90.00067030458046
 20
97.74767267114686
 10
87.5453399863195
 20
96.77401332555151
 10
88.30734127803982
 20
97.95934149094527
 10
85.76733697230546
 20
97.15500858844997
 10
86.69867009008749
 20
98.17101031074372
 10
84.20100816105152
 20
97.57834622804683
 10
85.25934149412028
 20
98.50967396286716
 10
82.88867439740934
 20
98.0863470891937
 10
84.0316709520281
 20
98.89067999168901
 10
81.78800407060389
 20
98.67901117189058
 10
83.18500643875777
 20
99.35633847613749
 10
81.23767159868201
 20
99.10234881148744
 10
82.93100600818435
 20
99.90668171398276
 10
80.94133955733358
 20
99.52567568516091
 10
83.14267482798278
 20
100.4146718092062
 10
80.85667095282186
 20
99.94901332475777
 10
83.73533891067967
 20
100.8380094488031
 10
81.40700880770543
 20
100.8803410595781
 10
84.28567138260154
 20
101.2190154776249
 10
82.33834192548746
 20
101.473005142275
 10
84.92067245903513
 20
101.6846739620734
 10
83.65067030616796
 20
102.0233483801202
 10
85.85200557681716
 20
102.1503432124452
 10
85.68267375075544
 20
102.6160124628171
  0
SPLINE
  5
C3
330
70
100
AcDbEntity
  8
レイヤー 1
 62
    18
420
        0
370
    13
100
AcDbSpline
210
0.0
220
0.0
230
1.0
 70
    24
 71
     3
 72
     8
 73
     4
 74
     0
 42
0.0000000001
 43
0.0000000001
 40
0.0
 40
0.0
 40
0.0
 40
0.0
 40
1.0
 40
1.0
 40
1.0
 40
1.0
 10
100.6686722397796
 20
96.98568214534994
 30
0.0
 10
100.6686722397796
 20
96.98568214534994
 30
0.0
 10
100.6263298630812
 20
99.86433933728434
 30
0.0
 10
100.6263298630812
 20
99.86433933728434
 30
0.0
  0
SPLINE
  5
C4
330
70
100
AcDbEntity
  8
レイヤー 1
 62
    18
420
        0
370
    13
100
AcDbSpline
210
0.0
220
0.0
230
1.0
 70
    24
 71
     3
 72
     8
 73
     4
 74
     0
 42
0.0000000001
 43
0.0000000001
 40
0.0
 40
0.0
 40
0.0
 40
0.0
 40
1.0
 40
1.0
 40
1.0
 40
1.0
 10
98.76366362751721
 20
97.02801375612494
 30
0.0
 10
98.76366362751721
 20
97.02801375612494
 30
0.0
 10
98.97533244731564
 20
99.94901332475777
 30
0.0
 10
98.97533244731564
 20
99.94901332475777
 30
0.0
  0
SPLINE
  5
C5
330
70
100
AcDbEntity
  8
レイヤー 1
 62
    18
420
        0
370
    13
100
AcDbSpline
210
0.0
220
0.0
230
1.0
 70
    24
 71
     3
 72
     8
 73
     4
 74
     0
 42
0.0000000001
 43
0.0000000001
 40
0.0
 40
0.0
 40
0.0
 40
0.0
 40
1.0
 40
1.0
 40
1.0
 40
1.0
 10
96.77400255962812
 20
97.11267697767496
 30
0.0
 10
96.77400255962812
 20
97.11267697767496
 30
0.0
 10
97.19732943330159
 20
100.0336765463077
 30
0.0
 10
97.19732943330159
 20
100.0336765463077
 30
0.0
  0
SPLINE
  5
C6
330
70
100
AcDbEntity
  8
レイヤー 1
 62
    18
420
        0
370
    13
100
AcDbSpline
210
0.0
220
0.0
230
1.0
 70
    24
 71
     3
 72
     8
 73
     4
 74
     0
 42
0.0000000001
 43
0.0000000001
 40
0.0
 40
0.0
 40
0.0
 40
0.0
 40
1.0
 40
1.0
 40
1.0
 40
1.0
 10
94.99599954561407
 20
97.19734019922498
 30
0.0
 10
94.99599954561407
 20
97.19734019922498
 30
0.0
 10
95.58866362831095
 20
100.1183397678578
 30
0.0
 10
95.58866362831095
 20
100.1183397678578
 30
0.0
  0
SPLINE
  5
C7
330
70
100
AcDbEntity
  8
レイヤー 1
 62
    18
420
        0
370
    13
100
AcDbSpline
210
0.0
220
0.0
230
1.0
 70
    24
 71
     3
 72
     8
 73
     4
 74
     0
 42
0.0000000001
 43
0.0000000001
 40
0.0
 40
0.0
 40
0.0
 40
0.0
 40
1.0
 40
1.0
 40
1.0
 40
1.0
 10
93.34500212984844
 20
97.3666774082484
 30
0.0
 10
93.34500212984844
 20
97.3666774082484
 30
0.0
 10
93.97999782332034
 20
100.2453453661062
 30
0.0
 10
93.97999782332034
 20
100.2453453661062
 30
0.0
  0
SPLINE
  5
C8
330
70
100
AcDbEntity
  8
レイヤー 1
 62
    18
420
        0
370
    13
100
AcDbSpline
210
0.0
220
0.0
230
1.0
 70
    24
 71
     3
 72
     8
 73
     4
 74
     0
 42
0.0000000001
 43
0.0000000001
 40
0.0
 40
0.0
 40
0.0
 40
0.0
 40
1.0
 40
1.0
 40
1.0
 40
1.0
 10
91.69400471408279
 20
97.57834622804683
 30
0.0
 10
91.69400471408279
 20
97.57834622804683
 30
0.0
 10
92.54066922735312
 20
100.4146718092062
 30
0.0
 10
92.54066922735312
 20
100.4146718092062
 30
0.0
  0
SPLINE
  5
C9
330
70
100
AcDbEntity
  8
レイヤー 1
 62
    18
420
        0
370
    13
100
AcDbSpline
210
0.0
220
0.0
230
1.0
 70
    24
 71
     3
 72
     8
 73
     4
 74
     0
 42
0.0000000001
 43
0.0000000001
 40
0.0
 40
0.0
 40
0.0
 40
0.0
 40
1.0
 40
1.0
 40
1.0
 40
1.0
 10
90.00067030458046
 20
97.74767267114686
 30
0.0
 10
90.00067030458046
 20
97.74767267114686
 30
0.0
 10
91.10132986546252
 20
100.5840090182296
 30
0.0
 10
91.10132986546252
 20
100.5840090182296
 30
0.0
  0
SPLINE
  5
CA
330
70
100
AcDbEntity
  8
レイヤー 1
 62
    18
420
        0
370
    13
100
AcDbSpline
210
0.0
220
0.0
230
1.0
 70
    24
 71
     3
 72
     8
 73
     4
 74
     0
 42
0.0000000001
 43
0.0000000001
 40
0.0
 40
0.0
 40
0.0
 40
0.0
 40
1.0
 40
1.0
 40
1.0
 40
1.0
 10
88.30733589507811
 20
97.95934149094527
 30
0.0
 10
88.30733589507811
 20
97.95934149094527
 30
0.0
 10
89.53500105420859
 20
100.795677838028
 30
0.0
 10
89.53500105420859
 20
100.795677838028
 30
0.0
  0
SPLINE
  5
CB
330
70
100
AcDbEntity
  8
レイヤー 1
 62
    18
420
        0
370
    13
100
AcDbSpline
210
0.0
220
0.0
230
1.0
 70
    24
 71
     3
 72
     8
 73
     4
 74
     0
 42
0.0000000001
 43
0.0000000001
 40
0.0
 40
0.0
 40
0.0
 40
0.0
 40
1.0
 40
1.0
 40
1.0
 40
1.0
 10
86.69867009008749
 20
98.17101031074372
 30
0.0
 10
86.69867009008749
 20
98.17101031074372
 30
0.0
 10
88.26500428430312
 20
101.0073466578265
 30
0.0
 10
88.26500428430312
 20
101.0073466578265
 30
0.0
  0
SPLINE
  5
CC
330
70
100
AcDbEntity
  8
レイヤー 1
 62
    18
420
        0
370
    13
100
AcDbSpline
210
0.0
220
0.0
230
1.0
 70
    24
 71
     3
 72
     8
 73
     4
 74
     0
 42
0.0000000001
 43
0.0000000001
 40
0.0
 40
0.0
 40
0.0
 40
0.0
 40
1.0
 40
1.0
 40
1.0
 40
1.0
 10
85.25933611115858
 20
98.50967396286716
 30
0.0
 10
85.25933611115858
 20
98.50967396286716
 30
0.0
 10
87.07967073594764
 20
101.2613470883999
 30
0.0
 10
87.07967073594764
 20
101.2613470883999
 30
0.0
  0
SPLINE
  5
CD
330
70
100
AcDbEntity
  8
レイヤー 1
 62
    18
420
        0
370
    13
100
AcDbSpline
210
0.0
220
0.0
230
1.0
 70
    24
 71
     3
 72
     8
 73
     4
 74
     0
 42
0.0000000001
 43
0.0000000001
 40
0.0
 40
0.0
 40
0.0
 40
0.0
 40
1.0
 40
1.0
 40
1.0
 40
1.0
 10
84.0316709520281
 20
98.89067999168901
 30
0.0
 10
84.0316709520281
 20
98.89067999168901
 30
0.0
 10
85.97900040914218
 20
101.473005142275
 30
0.0
 10
85.97900040914218
 20
101.473005142275
 30
0.0
  0
SPLINE
  5
CE
330
70
100
AcDbEntity
  8
レイヤー 1
 62
    18
420
        0
370
    13
100
AcDbSpline
210
0.0
220
0.0
230
1.0
 70
    24
 71
     3
 72
     8
 73
     4
 74
     0
 42
0.0000000001
 43
0.0000000001
 40
0.0
 40
0.0
 40
0.0
 40
0.0
 40
1.0
 40
1.0
 40
1.0
 40
1.0
 10
83.18500105579609
 20
99.35633847613749
 30
0.0
 10
83.18500105579609
 20
99.35633847613749
 30
0.0
 10
84.83600385452342
 20
101.1766731009265
 30
0.0
 10
84.83600385452342
 20
101.1766731009265
 30
0.0
  0
LWPOLYLINE
  5
CF
330
70
100
AcDbEntity
  8
レイヤー 1
 62
    18
420
        0
370
    25
100
AcDbPolyline
 90
        3
 70
     0
 43
0.0
 10
85.68266298483205
 20
102.6160232287405
 10
87.71466104645783
 20
102.7430180610655
 10
88.09566169231798
 20
103.1240025580406
  0
LWPOLYLINE
  5
D0
330
70
100
AcDbEntity
  8
レイヤー 1
 62
    18
420
        0
370
    25
100
AcDbPolyline
 90
       21
 70
     0
 43
0.0
 10
108.7966752522062
 20
234.3996890011874
 10
108.7120012647328
 20
234.6113470550625
 10
108.5003324449344
 20
234.8230051089375
 10
108.1193371820359
 20
235.0346846946593
 10
107.569004710114
 20
235.2040111377593
 10
106.9339982507187
 20
235.3733375808594
 10
106.1720077249218
 20
235.5003539450312
 10
105.2830008349531
 20
235.5850171665812
 10
104.3516731001328
 20
235.6696803881312
 10
103.378002988614
 20
235.7543436096812
 10
102.3620012663203
 20
235.7543436096812
 10
101.3883419207249
 20
235.7543436096812
 10
100.3723401984312
 20
235.6696803881312
 10
99.4410016976875
 20
235.5850171665812
 10
98.59433718441717
 20
235.5003539450312
 10
97.83233589269688
 20
235.3733375808594
 10
97.15500858844997
 20
235.2040111377593
 10
96.64700772730309
 20
235.0346846946593
 10
96.26600169848124
 20
234.8230051089375
 10
96.0120012679078
 20
234.6113470550625
 10
95.92733804635781
 20
234.3996890011874
  0
SPLINE
  5
D1
330
70
100
AcDbEntity
  8
レイヤー 1
 62
    18
420
        0
370
    25
100
AcDbSpline
210
0.0
220
0.0
230
1.0
 70
    24
 71
     3
 72
     8
 73
     4
 74
     0
 42
0.0000000001
 43
0.0000000001
 40
0.0
 40
0.0
 40
0.0
 40
0.0
 40
1.0
 40
1.0
 40
1.0
 40
1.0
 10
101.8963320159484
 20
221.9113470582374
 30
0.0
 10
101.8963320159484
 20
221.9113470582374
 30
0.0
 10
101.8963320159484
 20
191.8123444819405
 30
0.0
 10
101.8963320159484
 20
191.8123444819405
 30
0.0
  0
SPLINE
  5
D2
330
70
100
AcDbEntity
  8
レイヤー 1
 62
    18
420
        0
370
    25
100
AcDbSpline
210
0.0
220
0.0
230
1.0
 70
    24
 71
     3
 72
     8
 73
     4
 74
     0
 42
0.0000000001
 43
0.0000000001
 40
0.0
 40
0.0
 40
0.0
 40
0.0
 40
1.0
 40
1.0
 40
1.0
 40
1.0
 10
101.8963320159484
 20
185.9280137338999
 30
0.0
 10
101.8963320159484
 20
185.9280137338999
 30
0.0
 10
101.8963320159484
 20
164.9306735156249
 30
0.0
 10
101.8963320159484
 20
164.9306735156249
 30
0.0
  0
LWPOLYLINE
  5
D3
330
70
100
AcDbEntity
  8
レイヤー 1
 62
    18
420
        0
370
    25
100
AcDbPolyline
 90
        9
 70
     0
 43
0.0
 10
95.92732728043442
 20
234.3996890011874
 10
96.09665372353443
 20
232.664006832025
 10
96.39298576488288
 20
230.8860145839343
 10
96.90098662602975
 20
229.1926855573937
 10
97.57832469620005
 20
227.541688141628
 10
98.38265759869535
 20
225.9753539474124
 10
99.39865932098911
 20
224.4936829747468
 10
100.5416558756078
 20
223.1390068344062
 10
101.811658028475
 20
221.9113470582374
  0
LINE
  5
D4
330
70
100
AcDbEntity
  8
レイヤー 1
 62
    18
420
        0
370
    25
100
AcDbLine
 10
101.642331585375
 20
164.7613470725249
 30
0.0
 11
101.642331585375
 21
159.0463427675843
 31
0.0
  0
LWPOLYLINE
  5
D5
330
70
100
AcDbEntity
  8
レイヤー 1
 62
    18
420
        0
370
    25
100
AcDbPolyline
 90
       14
 70
     0
 43
0.0
 10
102.3620012663203
 20
159.0463427675843
 10
100.6686614738562
 20
158.9616687801109
 10
99.01766405809064
 20
158.7076683495375
 10
97.36666664232501
 20
158.284341475864
 10
95.75800083733438
 20
157.6916666272437
 10
94.23399825389376
 20
156.9720077122218
 10
92.75232728122816
 20
156.0830008222531
 10
91.39766190681097
 20
155.0669990999594
 10
90.16999674768049
 20
153.9240025453406
 10
89.02700019306172
 20
152.6540003924734
 10
88.01099847076796
 20
151.2993350180562
 10
87.16433395749765
 20
149.817674811314
 10
86.44466427655236
 20
148.2936722278734
 10
70.48499567600939
 20
106.5106713770453
  0
LWPOLYLINE
  5
D6
330
70
100
AcDbEntity
  8
レイヤー 1
 62
    18
420
        0
370
    25
100
AcDbPolyline
 90
       18
 70
     0
 43
0.0
 10
103.0816709472656
 20
164.7613470725249
 10
103.0816709472656
 20
164.8036786832999
 10
103.0393285705672
 20
164.846010294075
 10
102.9969969597922
 20
164.8883419048499
 10
102.9123337382422
 20
164.9306735156249
 10
102.8276705166921
 20
164.9306735156249
 10
102.7006649184437
 20
164.9730051264
 10
102.5736700861187
 20
164.9730051264
 10
102.4466644878703
 20
164.9730051264
 10
102.3196696555453
 20
164.9730051264
 10
102.1926640572969
 20
164.9730051264
 10
102.0656692249718
 20
164.9730051264
 10
101.9386636267234
 20
164.9306735156249
 10
101.8540004051734
 20
164.9306735156249
 10
101.7693371836234
 20
164.8883419048499
 10
101.726994806925
 20
164.846010294075
 10
101.68466319615
 20
164.8036786832999
 10
101.642331585375
 20
164.7613470725249
  0
LWPOLYLINE
  5
D7
330
70
100
AcDbEntity
  8
レイヤー 1
 62
    18
420
        0
370
    25
100
AcDbPolyline
 90
       22
 70
     0
 43
0.0
 10
102.8699913615438
 20
221.8266838366874
 10
102.9123229723188
 20
221.8690154474624
 10
102.9546545830938
 20
221.8690154474624
 10
102.9546545830938
 20
221.9113470582374
 10
102.9123229723188
 20
221.9536786690124
 10
102.8276489848454
 20
221.9960102797875
 10
102.7853173740704
 20
222.0383418905625
 10
102.7006541525203
 20
222.0383418905625
 10
102.5736485542719
 20
222.0383418905625
 10
102.4889853327219
 20
222.0806735013375
 10
102.3619905003969
 20
222.0806735013375
 10
102.2773165129235
 20
222.0806735013375
 10
102.1503216805985
 20
222.0383418905625
 10
102.0656476931251
 20
222.0383418905625
 10
101.980984471575
 20
222.0383418905625
 10
101.896321250025
 20
221.9960102797875
 10
101.85398963925
 20
221.9536786690124
 10
101.811658028475
 20
221.9536786690124
 10
101.811658028475
 20
221.9113470582374
 10
101.811658028475
 20
221.8690154474624
 10
101.85398963925
 20
221.8690154474624
 10
101.896321250025
 20
221.8266838366874
  0
SPLINE
  5
D8
330
70
100
AcDbEntity
  8
レイヤー 1
 62
    18
420
        0
370
    13
100
AcDbSpline
210
0.0
220
0.0
230
1.0
 70
    24
 71
     3
 72
     8
 73
     4
 74
     0
 42
0.0000000001
 43
0.0000000001
 40
0.0
 40
0.0
 40
0.0
 40
0.0
 40
1.0
 40
1.0
 40
1.0
 40
1.0
 10
106.4259973895719
 20
193.802016315753
 30
0.0
 10
106.4259973895719
 20
193.802016315753
 30
0.0
 10
98.34032598792035
 20
190.2460102877249
 30
0.0
 10
98.34032598792035
 20
190.2460102877249
 30
0.0
  0
SPLINE
  5
D9
330
70
100
AcDbEntity
  8
レイヤー 1
 62
    18
420
        0
370
    13
100
AcDbSpline
210
0.0
220
0.0
230
1.0
 70
    24
 71
     3
 72
     8
 73
     4
 74
     0
 42
0.0000000001
 43
0.0000000001
 40
0.0
 40
0.0
 40
0.0
 40
0.0
 40
1.0
 40
1.0
 40
1.0
 40
1.0
 10
106.4259973895719
 20
187.9176640358656
 30
0.0
 10
106.4259973895719
 20
187.9176640358656
 30
0.0
 10
98.34032598792035
 20
184.3616795396843
 30
0.0
 10
98.34032598792035
 20
184.3616795396843
 30
0.0
  0
LINE
  5
DA
330
70
100
AcDbEntity
  8
レイヤー 1
 62
    18
420
        0
370
    25
100
AcDbLine
 10
194.944991338525
 20
253.5343306861282
 30
0.0
 11
194.944991338525
 21
43.60334624154057
 31
0.0
  0
LWPOLYLINE
  5
DB
330
70
100
AcDbEntity
  8
レイヤー 1
 62
    18
420
        0
370
    25
100
AcDbPolyline
 90
        3
 70
     0
 43
0.0
 10
15.02833279128008
 20
253.5343306861282
 10
15.02833279128008
 20
43.60334624154057
 10
194.944991338525
 20
43.60334624154057
  0
SPLINE
  5
DC
330
70
100
AcDbEntity
  8
レイヤー 1
 62
    18
420
        0
370
    25
100
AcDbSpline
210
0.0
220
0.0
230
1.0
 70
    24
 71
     3
 72
     8
 73
     4
 74
     0
 42
0.0000000001
 43
0.0000000001
 40
0.0
 40
0.0
 40
0.0
 40
0.0
 40
1.0
 40
1.0
 40
1.0
 40
1.0
 10
194.944991338525
 20
53.59401548953119
 30
0.0
 10
194.944991338525
 20
53.59401548953119
 30
0.0
 10
15.02832471683754
 20
53.59401548953119
 30
0.0
 10
15.02832471683754
 20
53.59401548953119
 30
0.0
  0
SPLINE
  5
DD
330
70
100
AcDbEntity
  8
レイヤー 1
 62
    18
420
        0
370
    25
100
AcDbSpline
210
0.0
220
0.0
230
1.0
 70
    24
 71
     3
 72
     8
 73
     4
 74
     0
 42
0.0000000001
 43
0.0000000001
 40
0.0
 40
0.0
 40
0.0
 40
0.0
 40
1.0
 40
1.0
 40
1.0
 40
1.0
 10
194.944991338525
 20
63.5846793545601
 30
0.0
 10
194.944991338525
 20
63.5846793545601
 30
0.0
 10
15.02832471683754
 20
63.5846793545601
 30
0.0
 10
15.02832471683754
 20
63.5846793545601
 30
0.0
  0
SPLINE
  5
DE
330
70
100
AcDbEntity
  8
レイヤー 1
 62
    18
420
        0
370
    25
100
AcDbSpline
210
0.0
220
0.0
230
1.0
 70
    24
 71
     3
 72
     8
 73
     4
 74
     0
 42
0.0000000001
 43
0.0000000001
 40
0.0
 40
0.0
 40
0.0
 40
0.0
 40
1.0
 40
1.0
 40
1.0
 40
1.0
 10
194.944991338525
 20
73.57534321958903
 30
0.0
 10
194.944991338525
 20
73.57534321958903
 30
0.0
 10
15.02832471683754
 20
73.57534321958903
 30
0.0
 10
15.02832471683754
 20
73.57534321958903
 30
0.0
  0
SPLINE
  5
DF
330
70
100
AcDbEntity
  8
レイヤー 1
 62
    18
420
        0
370
    25
100
AcDbSpline
210
0.0
220
0.0
230
1.0
 70
    24
 71
     3
 72
     8
 73
     4
 74
     0
 42
0.0000000001
 43
0.0000000001
 40
0.0
 40
0.0
 40
0.0
 40
0.0
 40
1.0
 40
1.0
 40
1.0
 40
1.0
 10
194.944991338525
 20
253.5343306861282
 30
0.0
 10
194.944991338525
 20
253.5343306861282
 30
0.0
 10
15.02832471683754
 20
253.5343306861282
 30
0.0
 10
15.02832471683754
 20
253.5343306861282
 30
0.0
  0
SPLINE
  5
E0
330
70
100
AcDbEntity
  8
レイヤー 1
 62
    18
420
        0
370
    13
100
AcDbSpline
210
0.0
220
0.0
230
1.0
 70
    24
 71
     3
 72
     8
 73
     4
 74
     0
 42
0.0000000001
 43
0.0000000001
 40
0.0
 40
0.0
 40
0.0
 40
0.0
 40
1.0
 40
1.0
 40
1.0
 40
1.0
 10
20.99733348957285
 20
65.27799223221567
 30
0.0
 10
20.99733348957285
 20
65.27799223221567
 30
0.0
 10
20.99733348957285
 20
70.27333762213436
 30
0.0
 10
20.99733348957285
 20
70.27333762213436
 30
0.0
  0
SPLINE
  5
E1
330
70
100
AcDbEntity
  8
レイヤー 1
 62
    18
420
        0
370
    13
100
AcDbSpline
210
0.0
220
0.0
230
1.0
 70
    24
 71
     3
 72
     8
 73
     4
 74
     0
 42
0.0000000001
 43
0.0000000001
 40
0.0
 40
0.0
 40
0.0
 40
0.0
 40
1.0
 40
1.0
 40
1.0
 40
1.0
 10
24.34166666058125
 20
70.27333762213436
 30
0.0
 10
24.34166666058125
 20
70.27333762213436
 30
0.0
 10
20.99733348957285
 20
66.92901117982808
 30
0.0
 10
20.99733348957285
 20
66.92901117982808
 30
0.0
  0
SPLINE
  5
E2
330
70
100
AcDbEntity
  8
レイヤー 1
 62
    18
420
        0
370
    13
100
AcDbSpline
210
0.0
220
0.0
230
1.0
 70
    24
 71
     3
 72
     8
 73
     4
 74
     0
 42
0.0000000001
 43
0.0000000001
 40
0.0
 40
0.0
 40
0.0
 40
0.0
 40
1.0
 40
1.0
 40
1.0
 40
1.0
 10
22.1826656921879
 20
68.11433934522185
 30
0.0
 10
22.1826656921879
 20
68.11433934522185
 30
0.0
 10
24.34166666058125
 20
65.27799223221567
 30
0.0
 10
24.34166666058125
 20
65.27799223221567
 30
0.0
  0
LWPOLYLINE
  5
E3
330
70
100
AcDbEntity
  8
レイヤー 1
 62
    18
420
        0
370
    13
100
AcDbPolyline
 90
       11
 70
     0
 43
0.0
 10
25.99266676782774
 20
65.27801376406245
 10
25.99266676782774
 20
70.27334300509605
 10
28.15166504474024
 20
70.27334300509605
 10
28.8713320342047
 20
70.01934257452262
 10
29.08299816252228
 20
69.80767913768588
 10
29.33699859309571
 20
69.29967827653901
 10
29.33699859309571
 20
68.58000859559371
 10
29.08299816252228
 20
68.11434472818355
 10
28.8713320342047
 20
67.90267590838512
 10
28.15166504474024
 20
67.64867547781168
 10
25.99266676782774
 20
67.64867547781168
  0
LWPOLYLINE
  5
E4
330
70
100
AcDbEntity
  8
レイヤー 1
 62
    18
420
        0
370
    13
100
AcDbPolyline
 90
        4
 70
     0
 43
0.0
 10
30.9879987003422
 20
69.29966751061562
 10
31.45366525923321
 20
69.55367870711246
 10
32.17333224869766
 20
70.27333762213436
 10
32.17333224869766
 20
65.27799223221567
  0
LWPOLYLINE
  5
E5
330
70
100
AcDbEntity
  8
レイヤー 1
 62
    18
420
        0
370
    13
100
AcDbPolyline
 90
       17
 70
     0
 43
0.0
 10
37.67666504235899
 20
70.27333762213436
 10
35.2636636433922
 20
70.27333762213436
 10
35.05199751507463
 20
68.11433396226016
 10
35.2636636433922
 20
68.36833439283359
 10
35.98333063285666
 20
68.58000321263202
 10
36.70299762232111
 20
68.58000321263202
 10
37.42266461178556
 20
68.36833439283359
 10
37.88833117067657
 20
67.90267052542342
 10
38.14233160125001
 20
67.18300084447813
 10
38.14233160125001
 20
66.67499998333124
 10
37.88833117067657
 20
65.99766729612266
 10
37.42266461178556
 20
65.48966643497578
 10
36.70299762232111
 20
65.27800299813906
 10
35.98333063285666
 20
65.27800299813906
 10
35.2636636433922
 20
65.48966643497578
 10
35.05199751507463
 20
65.74366686554921
 10
34.79799708450118
 20
66.20933611592109
  0
LWPOLYLINE
  5
E6
330
70
100
AcDbEntity
  8
レイヤー 1
 62
    18
420
        0
370
    13
100
AcDbPolyline
 90
       17
 70
     0
 43
0.0
 10
42.41800192726171
 20
70.27333762213436
 10
40.04733483055077
 20
70.27333762213436
 10
39.79333439997734
 20
68.11433396226016
 10
40.04733483055077
 20
68.36833439283359
 10
40.76700182001522
 20
68.58000321263202
 10
41.48666611799883
 20
68.58000321263202
 10
42.20633310746328
 20
68.36833439283359
 10
42.6719996663543
 20
67.90267052542342
 10
42.88366848615273
 20
67.18300084447813
 10
42.88366848615273
 20
66.67499998333124
 10
42.6719996663543
 20
65.99766729612266
 10
42.20633310746328
 20
65.48966643497578
 10
41.48666611799883
 20
65.27800299813906
 10
40.76700182001522
 20
65.27800299813906
 10
40.04733483055077
 20
65.48966643497578
 10
39.79333439997734
 20
65.74366686554921
 10
39.58166827165976
 20
66.20933611592109
  0
LWPOLYLINE
  5
E7
330
70
100
AcDbEntity
  8
レイヤー 1
 62
    18
420
        0
370
    13
100
AcDbPolyline
 90
        3
 70
     0
 43
0.0
 10
44.32299977360078
 20
70.27333762213436
 10
44.32299977360078
 20
65.27799223221567
 10
47.20166234849689
 20
65.27799223221567
  0
LWPOLYLINE
  5
E8
330
70
100
AcDbEntity
  8
レイヤー 1
 62
    18
420
        0
370
    13
100
AcDbPolyline
 90
       20
 70
     0
 43
0.0
 10
51.94300192488046
 20
69.08800945674059
 10
51.68900149430703
 20
69.55367332415075
 10
51.22333224393516
 20
70.01934257452262
 10
50.757668376525
 20
70.27333762213436
 10
49.78399826500626
 20
70.27333762213436
 10
49.31833439759609
 20
70.01934257452262
 10
48.85266514722423
 20
69.55367332415075
 10
48.59866471665079
 20
69.08800945674059
 10
48.38700127981406
 20
68.36833977579529
 10
48.38700127981406
 20
67.18300622743981
 10
48.59866471665079
 20
66.46334192945622
 10
48.85266514722423
 20
65.99767267908434
 10
49.31833439759609
 20
65.48967181793748
 10
49.78399826500626
 20
65.27800838110074
 10
50.757668376525
 20
65.27800838110074
 10
51.22333224393516
 20
65.48967181793748
 10
51.68900149430703
 20
65.99767267908434
 10
51.94300192488046
 20
66.46334192945622
 10
51.94300192488046
 20
67.18300622743981
 10
50.757668376525
 20
67.18300622743981
  0
LWPOLYLINE
  5
E9
330
70
100
AcDbEntity
  8
レイヤー 1
 62
    18
420
        0
370
    13
100
AcDbPolyline
 90
        3
 70
     0
 43
0.0
 10
53.38233052084767
 20
70.27333762213436
 10
55.28733375014844
 20
67.9026812913468
 10
57.19233159648752
 20
70.27333762213436
  0
LINE
  5
EA
330
70
100
AcDbEntity
  8
レイヤー 1
 62
    18
420
        0
370
    13
100
AcDbLine
 10
55.28733375014844
 20
67.9026812913468
 30
0.0
 11
55.28733375014844
 21
65.27799223221567
 31
0.0
  0
LWPOLYLINE
  5
EB
330
70
100
AcDbEntity
  8
レイヤー 1
 62
    18
420
        0
370
    13
100
AcDbPolyline
 90
        3
 70
     0
 43
0.0
 10
21.03966510034786
 20
55.88000859876872
 10
21.03966510034786
 20
60.87535398868741
 10
24.12999784078282
 20
60.87535398868741
  0
SPLINE
  5
EC
330
70
100
AcDbEntity
  8
レイヤー 1
 62
    18
420
        0
370
    13
100
AcDbSpline
210
0.0
220
0.0
230
1.0
 70
    24
 71
     3
 72
     8
 73
     4
 74
     0
 42
0.0000000001
 43
0.0000000001
 40
0.0
 40
0.0
 40
0.0
 40
0.0
 40
1.0
 40
1.0
 40
1.0
 40
1.0
 10
21.03966510034786
 20
58.50467612605308
 30
0.0
 10
21.03966510034786
 20
58.50467612605308
 30
0.0
 10
22.9446669839082
 20
58.50467612605308
 30
0.0
 10
22.9446669839082
 20
58.50467612605308
 30
0.0
  0
SPLINE
  5
ED
330
70
100
AcDbEntity
  8
レイヤー 1
 62
    18
420
        0
370
    13
100
AcDbSpline
210
0.0
220
0.0
230
1.0
 70
    24
 71
     3
 72
     8
 73
     4
 74
     0
 42
0.0000000001
 43
0.0000000001
 40
0.0
 40
0.0
 40
0.0
 40
0.0
 40
1.0
 40
1.0
 40
1.0
 40
1.0
 10
21.03966510034786
 20
55.88000859876872
 30
0.0
 10
21.03966510034786
 20
55.88000859876872
 30
0.0
 10
24.12999784078282
 20
55.88000859876872
 30
0.0
 10
24.12999784078282
 20
55.88000859876872
 30
0.0
  0
LWPOLYLINE
  5
EE
330
70
100
AcDbEntity
  8
レイヤー 1
 62
    18
420
        0
370
    13
100
AcDbPolyline
 90
       14
 70
     0
 43
0.0
 10
25.78100063951016
 20
59.69000429144686
 10
25.78100063951016
 20
59.90166772828359
 10
26.03499837860275
 20
60.40966858943046
 10
26.28899880917618
 20
60.62133740922889
 10
26.7546653680672
 20
60.87533245684063
 10
27.68599848584923
 20
60.87533245684063
 10
28.1939993469961
 20
60.62133740922889
 10
28.40566547531368
 20
60.40966858943046
 10
28.65966590588712
 20
59.90166772828359
 10
28.65966590588712
 20
59.43600386087343
 10
28.40566547531368
 20
58.97033461050156
 10
27.93999891642267
 20
58.25067031251795
 10
25.56933181971173
 20
55.88000321580702
 10
28.8713320342047
 20
55.88000321580702
  0
LWPOLYLINE
  5
EF
330
70
100
AcDbEntity
  8
レイヤー 1
 62
    18
420
        0
370
    13
100
AcDbPolyline
 90
       23
 70
     0
 43
0.0
 10
33.18933397099141
 20
60.15567354181872
 10
32.93533354041797
 20
60.62133740922889
 10
32.21566655095351
 20
60.87533783980233
 10
31.7499999920625
 20
60.87533783980233
 10
31.03033300259805
 20
60.62133740922889
 10
30.56466644370703
 20
59.90167311124529
 10
30.3106660131336
 20
58.71633956288982
 10
30.3106660131336
 20
57.53100601453435
 10
30.56466644370703
 20
56.59967289675232
 10
31.03033300259805
 20
56.09167203560545
 10
31.7499999920625
 20
55.88000321580702
 10
32.00400042263594
 20
55.88000321580702
 10
32.68133310984453
 20
56.09167203560545
 10
33.18933397099141
 20
56.59967289675232
 10
33.40100009930899
 20
57.27700558396091
 10
33.40100009930899
 20
57.53100601453435
 10
33.18933397099141
 20
58.25067031251795
 10
32.68133310984453
 20
58.71633956288982
 10
32.00400042263594
 20
58.97033999346326
 10
31.7499999920625
 20
58.97033999346326
 10
31.03033300259805
 20
58.71633956288982
 10
30.56466644370703
 20
58.25067031251795
 10
30.3106660131336
 20
57.53100601453435
  0
LWPOLYLINE
  5
F0
330
70
100
AcDbEntity
  8
レイヤー 1
 62
    18
420
        0
370
    13
100
AcDbPolyline
 90
        3
 70
     0
 43
0.0
 10
42.41800192726171
 20
55.88000859876872
 10
42.75666827086601
 20
56.21866148496877
 10
42.75666827086601
 20
56.51500429224061
  0
LWPOLYLINE
  5
F1
330
70
100
AcDbEntity
  8
レイヤー 1
 62
    18
420
        0
370
    13
100
AcDbPolyline
 90
        3
 70
     0
 43
0.0
 10
40.42833278493008
 20
56.21866148496877
 10
40.72466482627852
 20
55.88000859876872
 10
42.41800192726171
 20
55.88000859876872
  0
LINE
  5
F2
330
70
100
AcDbEntity
  8
レイヤー 1
 62
    18
420
        0
370
    13
100
AcDbLine
 10
42.75666827086601
 20
59.85933073454688
 30
0.0
 11
42.75666827086601
 21
59.18200343029998
 31
0.0
  0
LWPOLYLINE
  5
F3
330
70
100
AcDbEntity
  8
レイヤー 1
 62
    18
420
        0
370
    13
100
AcDbPolyline
 90
        4
 70
     1
 43
0.0
 10
42.07933020069572
 20
57.86965890073441
 10
42.07933020069572
 20
56.51500429224061
 10
38.73499837542775
 20
56.51500429224061
 10
38.73499837542775
 20
57.86965890073441
  0
SPLINE
  5
F4
330
70
100
AcDbEntity
  8
レイヤー 1
 62
    18
420
        0
370
    13
100
AcDbSpline
210
0.0
220
0.0
230
1.0
 70
    24
 71
     3
 72
     8
 73
     4
 74
     0
 42
0.0000000001
 43
0.0000000001
 40
0.0
 40
0.0
 40
0.0
 40
0.0
 40
1.0
 40
1.0
 40
1.0
 40
1.0
 10
40.42833547641093
 20
57.86968043258119
 30
0.0
 10
40.42833547641093
 20
57.86968043258119
 30
0.0
 10
40.42833547641093
 20
56.21867763385386
 30
0.0
 10
40.42833547641093
 20
56.21867763385386
 30
0.0
  0
SPLINE
  5
F5
330
70
100
AcDbEntity
  8
レイヤー 1
 62
    18
420
        0
370
    13
100
AcDbSpline
210
0.0
220
0.0
230
1.0
 70
    24
 71
     3
 72
     8
 73
     4
 74
     0
 42
0.0000000001
 43
0.0000000001
 40
0.0
 40
0.0
 40
0.0
 40
0.0
 40
1.0
 40
1.0
 40
1.0
 40
1.0
 10
40.42833547641093
 20
60.53667957064057
 30
0.0
 10
40.42833547641093
 20
60.53667957064057
 30
0.0
 10
40.42833547641093
 20
58.54701311978979
 30
0.0
 10
40.42833547641093
 20
58.54701311978979
 30
0.0
  0
SPLINE
  5
F6
330
70
100
AcDbEntity
  8
レイヤー 1
 62
    18
420
        0
370
    13
100
AcDbSpline
210
0.0
220
0.0
230
1.0
 70
    24
 71
     3
 72
     8
 73
     4
 74
     0
 42
0.0000000001
 43
0.0000000001
 40
0.0
 40
0.0
 40
0.0
 40
0.0
 40
1.0
 40
1.0
 40
1.0
 40
1.0
 10
38.0576683797
 20
59.85934688343197
 30
0.0
 10
38.0576683797
 20
59.85934688343197
 30
0.0
 10
38.0576683797
 20
59.18200881326168
 30
0.0
 10
38.0576683797
 20
59.18200881326168
 30
0.0
  0
SPLINE
  5
F7
330
70
100
AcDbEntity
  8
レイヤー 1
 62
    18
420
        0
370
    13
100
AcDbSpline
210
0.0
220
0.0
230
1.0
 70
    24
 71
     3
 72
     8
 73
     4
 74
     0
 42
0.0000000001
 43
0.0000000001
 40
0.0
 40
0.0
 40
0.0
 40
0.0
 40
1.0
 40
1.0
 40
1.0
 40
1.0
 10
38.73500106690859
 20
57.1923423624109
 30
0.0
 10
38.73500106690859
 20
57.1923423624109
 30
0.0
 10
42.07933289217656
 20
57.1923423624109
 30
0.0
 10
42.07933289217656
 20
57.1923423624109
 30
0.0
  0
SPLINE
  5
F8
330
70
100
AcDbEntity
  8
レイヤー 1
 62
    18
420
        0
370
    13
100
AcDbSpline
210
0.0
220
0.0
230
1.0
 70
    24
 71
     3
 72
     8
 73
     4
 74
     0
 42
0.0000000001
 43
0.0000000001
 40
0.0
 40
0.0
 40
0.0
 40
0.0
 40
1.0
 40
1.0
 40
1.0
 40
1.0
 10
41.06333386136367
 20
58.54701311978979
 30
0.0
 10
41.06333386136367
 20
58.54701311978979
 30
0.0
 10
42.07933289217656
 20
58.54701311978979
 30
0.0
 10
42.07933289217656
 20
58.54701311978979
 30
0.0
  0
SPLINE
  5
F9
330
70
100
AcDbEntity
  8
レイヤー 1
 62
    18
420
        0
370
    13
100
AcDbSpline
210
0.0
220
0.0
230
1.0
 70
    24
 71
     3
 72
     8
 73
     4
 74
     0
 42
0.0000000001
 43
0.0000000001
 40
0.0
 40
0.0
 40
0.0
 40
0.0
 40
1.0
 40
1.0
 40
1.0
 40
1.0
 10
38.73500106690859
 20
58.54701311978979
 30
0.0
 10
38.73500106690859
 20
58.54701311978979
 30
0.0
 10
39.75100009772149
 20
58.54701311978979
 30
0.0
 10
39.75100009772149
 20
58.54701311978979
 30
0.0
  0
SPLINE
  5
FA
330
70
100
AcDbEntity
  8
レイヤー 1
 62
    18
420
        0
370
    13
100
AcDbSpline
210
0.0
220
0.0
230
1.0
 70
    24
 71
     3
 72
     8
 73
     4
 74
     0
 42
0.0000000001
 43
0.0000000001
 40
0.0
 40
0.0
 40
0.0
 40
0.0
 40
1.0
 40
1.0
 40
1.0
 40
1.0
 10
41.06333386136367
 20
59.18200881326168
 30
0.0
 10
41.06333386136367
 20
59.18200881326168
 30
0.0
 10
42.07933289217656
 20
59.18200881326168
 30
0.0
 10
42.07933289217656
 20
59.18200881326168
 30
0.0
  0
SPLINE
  5
FB
330
70
100
AcDbEntity
  8
レイヤー 1
 62
    18
420
        0
370
    13
100
AcDbSpline
210
0.0
220
0.0
230
1.0
 70
    24
 71
     3
 72
     8
 73
     4
 74
     0
 42
0.0000000001
 43
0.0000000001
 40
0.0
 40
0.0
 40
0.0
 40
0.0
 40
1.0
 40
1.0
 40
1.0
 40
1.0
 10
38.73500106690859
 20
59.18200881326168
 30
0.0
 10
38.73500106690859
 20
59.18200881326168
 30
0.0
 10
39.75100009772149
 20
59.18200881326168
 30
0.0
 10
39.75100009772149
 20
59.18200881326168
 30
0.0
  0
SPLINE
  5
FC
330
70
100
AcDbEntity
  8
レイヤー 1
 62
    18
420
        0
370
    13
100
AcDbSpline
210
0.0
220
0.0
230
1.0
 70
    24
 71
     3
 72
     8
 73
     4
 74
     0
 42
0.0000000001
 43
0.0000000001
 40
0.0
 40
0.0
 40
0.0
 40
0.0
 40
1.0
 40
1.0
 40
1.0
 40
1.0
 10
38.0576683797
 20
59.85934688343197
 30
0.0
 10
38.0576683797
 20
59.85934688343197
 30
0.0
 10
42.75666827086601
 20
59.85934688343197
 30
0.0
 10
42.75666827086601
 20
59.85934688343197
 30
0.0
  0
SPLINE
  5
FD
330
70
100
AcDbEntity
  8
レイヤー 1
 62
    18
420
        0
370
    13
100
AcDbSpline
210
0.0
220
0.0
230
1.0
 70
    24
 71
     3
 72
     8
 73
     4
 74
     0
 42
0.0000000001
 43
0.0000000001
 40
0.0
 40
0.0
 40
0.0
 40
0.0
 40
1.0
 40
1.0
 40
1.0
 40
1.0
 10
38.39633472330429
 20
60.53667957064057
 30
0.0
 10
38.39633472330429
 20
60.53667957064057
 30
0.0
 10
42.41800192726171
 20
60.53667957064057
 30
0.0
 10
42.41800192726171
 20
60.53667957064057
 30
0.0
  0
SPLINE
  5
FE
330
70
100
AcDbEntity
  8
レイヤー 1
 62
    18
420
        0
370
    13
100
AcDbSpline
210
0.0
220
0.0
230
1.0
 70
    24
 71
     3
 72
     8
 73
     4
 74
     0
 42
0.0000000001
 43
0.0000000001
 40
0.0
 40
0.0
 40
0.0
 40
0.0
 40
1.0
 40
1.0
 40
1.0
 40
1.0
 10
47.75200020338046
 20
60.53667957064057
 30
0.0
 10
47.75200020338046
 20
60.53667957064057
 30
0.0
 10
48.42933289058906
 20
60.19801053555543
 30
0.0
 10
48.42933289058906
 20
60.19801053555543
 30
0.0
  0
LWPOLYLINE
  5
FF
330
70
100
AcDbEntity
  8
レイヤー 1
 62
    18
420
        0
370
    13
100
AcDbPolyline
 90
        4
 70
     0
 43
0.0
 10
48.72566493193751
 20
56.51500429224061
 10
48.09066385550392
 20
57.19233159648752
 10
47.75199482041877
 20
57.86965890073441
 10
47.07466213321017
 20
58.88568215487493
  0
SPLINE
  5
100
330
70
100
AcDbEntity
  8
レイヤー 1
 62
    18
420
        0
370
    13
100
AcDbSpline
210
0.0
220
0.0
230
1.0
 70
    24
 71
     3
 72
     8
 73
     4
 74
     0
 42
0.0000000001
 43
0.0000000001
 40
0.0
 40
0.0
 40
0.0
 40
0.0
 40
1.0
 40
1.0
 40
1.0
 40
1.0
 10
48.42932750762737
 20
58.88568215487493
 30
0.0
 10
48.42932750762737
 20
58.88568215487493
 30
0.0
 10
47.75199482041877
 20
58.20833331878125
 30
0.0
 10
47.75199482041877
 20
58.20833331878125
 30
0.0
  0
SPLINE
  5
101
330
70
100
AcDbEntity
  8
レイヤー 1
 62
    18
420
        0
370
    13
100
AcDbSpline
210
0.0
220
0.0
230
1.0
 70
    24
 71
     3
 72
     8
 73
     4
 74
     0
 42
0.0000000001
 43
0.0000000001
 40
0.0
 40
0.0
 40
0.0
 40
0.0
 40
1.0
 40
1.0
 40
1.0
 40
1.0
 10
45.76233375252968
 20
56.85367871028745
 30
0.0
 10
45.76233375252968
 20
56.85367871028745
 30
0.0
 10
46.73599848108672
 20
57.86965890073441
 30
0.0
 10
46.73599848108672
 20
57.86965890073441
 30
0.0
  0
SPLINE
  5
102
330
70
100
AcDbEntity
  8
レイヤー 1
 62
    18
420
        0
370
    13
100
AcDbSpline
210
0.0
220
0.0
230
1.0
 70
    24
 71
     3
 72
     8
 73
     4
 74
     0
 42
0.0000000001
 43
0.0000000001
 40
0.0
 40
0.0
 40
0.0
 40
0.0
 40
1.0
 40
1.0
 40
1.0
 40
1.0
 10
46.05866579387813
 20
58.88568215487493
 30
0.0
 10
46.05866579387813
 20
58.88568215487493
 30
0.0
 10
46.39732944600157
 20
58.54700773682809
 30
0.0
 10
46.39732944600157
 20
58.54700773682809
 30
0.0
  0
LWPOLYLINE
  5
103
330
70
100
AcDbEntity
  8
レイヤー 1
 62
    18
420
        0
370
    13
100
AcDbPolyline
 90
        3
 70
     0
 43
0.0
 10
45.42366471744454
 20
57.53100601453435
 10
44.74633203023595
 20
56.85367871028745
 10
44.06899934302734
 20
56.85367871028745
  0
LINE
  5
104
330
70
100
AcDbEntity
  8
レイヤー 1
 62
    18
420
        0
370
    13
100
AcDbLine
 10
44.74633203023595
 20
56.85367871028745
 30
0.0
 11
44.74633203023595
 21
60.19800515259372
 31
0.0
  0
LWPOLYLINE
  5
105
330
70
100
AcDbEntity
  8
レイヤー 1
 62
    18
420
        0
370
    13
100
AcDbPolyline
 90
        3
 70
     0
 43
0.0
 10
47.07466213321017
 20
60.87535398868741
 10
47.07466213321017
 20
55.88000859876872
 10
46.39732944600157
 20
55.88000859876872
  0
SPLINE
  5
106
330
70
100
AcDbEntity
  8
レイヤー 1
 62
    18
420
        0
370
    13
100
AcDbSpline
210
0.0
220
0.0
230
1.0
 70
    24
 71
     3
 72
     8
 73
     4
 74
     0
 42
0.0000000001
 43
0.0000000001
 40
0.0
 40
0.0
 40
0.0
 40
0.0
 40
1.0
 40
1.0
 40
1.0
 40
1.0
 10
44.06899934302734
 20
58.54700773682809
 30
0.0
 10
44.06899934302734
 20
58.54700773682809
 30
0.0
 10
45.42366471744454
 20
58.54700773682809
 30
0.0
 10
45.42366471744454
 20
58.54700773682809
 30
0.0
  0
SPLINE
  5
107
330
70
100
AcDbEntity
  8
レイヤー 1
 62
    18
420
        0
370
    13
100
AcDbSpline
210
0.0
220
0.0
230
1.0
 70
    24
 71
     3
 72
     8
 73
     4
 74
     0
 42
0.0000000001
 43
0.0000000001
 40
0.0
 40
0.0
 40
0.0
 40
0.0
 40
1.0
 40
1.0
 40
1.0
 40
1.0
 10
45.76233375252968
 20
59.52067784834683
 30
0.0
 10
45.76233375252968
 20
59.52067784834683
 30
0.0
 10
48.72566493193751
 20
59.52067784834683
 30
0.0
 10
48.72566493193751
 20
59.52067784834683
 30
0.0
  0
SPLINE
  5
108
330
70
100
AcDbEntity
  8
レイヤー 1
 62
    18
420
        0
370
    13
100
AcDbSpline
210
0.0
220
0.0
230
1.0
 70
    24
 71
     3
 72
     8
 73
     4
 74
     0
 42
0.0000000001
 43
0.0000000001
 40
0.0
 40
0.0
 40
0.0
 40
0.0
 40
1.0
 40
1.0
 40
1.0
 40
1.0
 10
44.06899934302734
 20
60.19800515259372
 30
0.0
 10
44.06899934302734
 20
60.19800515259372
 30
0.0
 10
45.42366471744454
 20
60.19800515259372
 30
0.0
 10
45.42366471744454
 20
60.19800515259372
 30
0.0
  0
LWPOLYLINE
  5
109
330
70
100
AcDbEntity
  8
レイヤー 1
 62
    18
420
        0
370
    13
100
AcDbPolyline
 90
        3
 70
     0
 43
0.0
 10
50.7576629935633
 20
58.54700773682809
 10
50.41899934143985
 20
58.20833331878125
 10
50.0803303063547
 20
58.20833331878125
  0
LINE
  5
10A
330
70
100
AcDbEntity
  8
レイヤー 1
 62
    18
420
        0
370
    13
100
AcDbLine
 10
51.05400041787344
 20
59.18200343029998
 30
0.0
 11
50.7576629935633
 21
58.54700773682809
 31
0.0
  0
LWPOLYLINE
  5
10B
330
70
100
AcDbEntity
  8
レイヤー 1
 62
    18
420
        0
370
    13
100
AcDbPolyline
 90
        3
 70
     0
 43
0.0
 10
54.73700127822656
 20
60.87535398868741
 10
54.73700127822656
 20
58.20833331878125
 10
54.05966859101796
 20
58.20833331878125
  0
SPLINE
  5
10C
330
70
100
AcDbEntity
  8
レイヤー 1
 62
    18
420
        0
370
    13
100
AcDbSpline
210
0.0
220
0.0
230
1.0
 70
    24
 71
     3
 72
     8
 73
     4
 74
     0
 42
0.0000000001
 43
0.0000000001
 40
0.0
 40
0.0
 40
0.0
 40
0.0
 40
1.0
 40
1.0
 40
1.0
 40
1.0
 10
53.72099955593281
 20
60.53667957064057
 30
0.0
 10
53.72099955593281
 20
60.53667957064057
 30
0.0
 10
53.72099955593281
 20
58.88567677191324
 30
0.0
 10
53.72099955593281
 20
58.88567677191324
 30
0.0
  0
SPLINE
  5
10D
330
70
100
AcDbEntity
  8
レイヤー 1
 62
    18
420
        0
370
    13
100
AcDbSpline
210
0.0
220
0.0
230
1.0
 70
    24
 71
     3
 72
     8
 73
     4
 74
     0
 42
0.0000000001
 43
0.0000000001
 40
0.0
 40
0.0
 40
0.0
 40
0.0
 40
1.0
 40
1.0
 40
1.0
 40
1.0
 10
52.40866579229063
 20
57.8696750496195
 30
0.0
 10
52.40866579229063
 20
57.8696750496195
 30
0.0
 10
52.40866579229063
 20
55.88000859876872
 30
0.0
 10
52.40866579229063
 20
55.88000859876872
 30
0.0
  0
SPLINE
  5
10E
330
70
100
AcDbEntity
  8
レイヤー 1
 62
    18
420
        0
370
    13
100
AcDbSpline
210
0.0
220
0.0
230
1.0
 70
    24
 71
     3
 72
     8
 73
     4
 74
     0
 42
0.0000000001
 43
0.0000000001
 40
0.0
 40
0.0
 40
0.0
 40
0.0
 40
1.0
 40
1.0
 40
1.0
 40
1.0
 10
52.06999675720549
 20
60.53667957064057
 30
0.0
 10
52.06999675720549
 20
60.53667957064057
 30
0.0
 10
52.06999675720549
 20
58.20834408470464
 30
0.0
 10
52.06999675720549
 20
58.20834408470464
 30
0.0
  0
SPLINE
  5
10F
330
70
100
AcDbEntity
  8
レイヤー 1
 62
    18
420
        0
370
    13
100
AcDbSpline
210
0.0
220
0.0
230
1.0
 70
    24
 71
     3
 72
     8
 73
     4
 74
     0
 42
0.0000000001
 43
0.0000000001
 40
0.0
 40
0.0
 40
0.0
 40
0.0
 40
1.0
 40
1.0
 40
1.0
 40
1.0
 10
51.05399503491174
 20
60.53667957064057
 30
0.0
 10
51.05399503491174
 20
60.53667957064057
 30
0.0
 10
51.05399503491174
 20
59.18200881326168
 30
0.0
 10
51.05399503491174
 20
59.18200881326168
 30
0.0
  0
SPLINE
  5
110
330
70
100
AcDbEntity
  8
レイヤー 1
 62
    18
420
        0
370
    13
100
AcDbSpline
210
0.0
220
0.0
230
1.0
 70
    24
 71
     3
 72
     8
 73
     4
 74
     0
 42
0.0000000001
 43
0.0000000001
 40
0.0
 40
0.0
 40
0.0
 40
0.0
 40
1.0
 40
1.0
 40
1.0
 40
1.0
 10
50.0803303063547
 20
55.88000859876872
 30
0.0
 10
50.0803303063547
 20
55.88000859876872
 30
0.0
 10
54.73699589526486
 20
55.88000859876872
 30
0.0
 10
54.73699589526486
 20
55.88000859876872
 30
0.0
  0
SPLINE
  5
111
330
70
100
AcDbEntity
  8
レイヤー 1
 62
    18
420
        0
370
    13
100
AcDbSpline
210
0.0
220
0.0
230
1.0
 70
    24
 71
     3
 72
     8
 73
     4
 74
     0
 42
0.0000000001
 43
0.0000000001
 40
0.0
 40
0.0
 40
0.0
 40
0.0
 40
1.0
 40
1.0
 40
1.0
 40
1.0
 10
50.7576629935633
 20
57.1923423624109
 30
0.0
 10
50.7576629935633
 20
57.1923423624109
 30
0.0
 10
54.05966320805626
 20
57.1923423624109
 30
0.0
 10
54.05966320805626
 20
57.1923423624109
 30
0.0
  0
SPLINE
  5
112
330
70
100
AcDbEntity
  8
レイヤー 1
 62
    18
420
        0
370
    13
100
AcDbSpline
210
0.0
220
0.0
230
1.0
 70
    24
 71
     3
 72
     8
 73
     4
 74
     0
 42
0.0000000001
 43
0.0000000001
 40
0.0
 40
0.0
 40
0.0
 40
0.0
 40
1.0
 40
1.0
 40
1.0
 40
1.0
 10
50.0803303063547
 20
59.52067784834683
 30
0.0
 10
50.0803303063547
 20
59.52067784834683
 30
0.0
 10
53.08599847949922
 20
59.52067784834683
 30
0.0
 10
53.08599847949922
 20
59.52067784834683
 30
0.0
  0
SPLINE
  5
113
330
70
100
AcDbEntity
  8
レイヤー 1
 62
    18
420
        0
370
    13
100
AcDbSpline
210
0.0
220
0.0
230
1.0
 70
    24
 71
     3
 72
     8
 73
     4
 74
     0
 42
0.0000000001
 43
0.0000000001
 40
0.0
 40
0.0
 40
0.0
 40
0.0
 40
1.0
 40
1.0
 40
1.0
 40
1.0
 10
50.41899934143985
 20
60.53667957064057
 30
0.0
 10
50.41899934143985
 20
60.53667957064057
 30
0.0
 10
52.74732944441408
 20
60.53667957064057
 30
0.0
 10
52.74732944441408
 20
60.53667957064057
 30
0.0
  0
LWPOLYLINE
  5
114
330
70
100
AcDbEntity
  8
レイヤー 1
 62
    18
420
        0
370
    13
100
AcDbPolyline
 90
        3
 70
     0
 43
0.0
 10
56.09166665264375
 20
60.87535398868741
 10
56.09166665264375
 20
55.88000859876872
 10
58.92799761676485
 20
55.88000859876872
  0
LWPOLYLINE
  5
115
330
70
100
AcDbEntity
  8
レイヤー 1
 62
    18
420
        0
370
    13
100
AcDbPolyline
 90
        3
 70
     0
 43
0.0
 10
60.11333116512032
 20
55.88000859876872
 10
60.11333116512032
 20
60.87535398868741
 10
63.20366794277656
 20
60.87535398868741
  0
SPLINE
  5
116
330
70
100
AcDbEntity
  8
レイヤー 1
 62
    18
420
        0
370
    13
100
AcDbSpline
210
0.0
220
0.0
230
1.0
 70
    24
 71
     3
 72
     8
 73
     4
 74
     0
 42
0.0000000001
 43
0.0000000001
 40
0.0
 40
0.0
 40
0.0
 40
0.0
 40
1.0
 40
1.0
 40
1.0
 40
1.0
 10
60.11333116512032
 20
58.50467612605308
 30
0.0
 10
60.11333116512032
 20
58.50467612605308
 30
0.0
 10
62.01832901145939
 20
58.50467612605308
 30
0.0
 10
62.01832901145939
 20
58.50467612605308
 30
0.0
  0
SPLINE
  5
117
330
70
100
AcDbEntity
  8
レイヤー 1
 62
    18
420
        0
370
    13
100
AcDbSpline
210
0.0
220
0.0
230
1.0
 70
    24
 71
     3
 72
     8
 73
     4
 74
     0
 42
0.0000000001
 43
0.0000000001
 40
0.0
 40
0.0
 40
0.0
 40
0.0
 40
1.0
 40
1.0
 40
1.0
 40
1.0
 10
60.11333116512032
 20
55.88000859876872
 30
0.0
 10
60.11333116512032
 20
55.88000859876872
 30
0.0
 10
63.20366794277656
 20
55.88000859876872
 30
0.0
 10
63.20366794277656
 20
55.88000859876872
 30
0.0
  0
LWPOLYLINE
  5
118
330
70
100
AcDbEntity
  8
レイヤー 1
 62
    18
420
        0
370
    13
100
AcDbPolyline
 90
       12
 70
     1
 43
0.0
 10
64.64300192170546
 20
55.88000859876872
 10
64.64300192170546
 20
60.87533783980233
 10
66.29399933747111
 20
60.87533783980233
 10
67.01366363545471
 20
60.62133740922889
 10
67.47933288582657
 20
60.15567354181872
 10
67.7333333164
 20
59.69000429144686
 10
67.98733374697343
 20
58.97033999346326
 10
67.98733374697343
 20
57.78500644510779
 10
67.7333333164
 20
57.06533676416249
 10
67.47933288582657
 20
56.59967289675232
 10
67.01366363545471
 20
56.09167203560545
 10
66.29399933747111
 20
55.88000859876872
  0
LWPOLYLINE
  5
119
330
70
100
AcDbEntity
  8
レイヤー 1
 62
    18
420
        0
370
    13
100
AcDbPolyline
 90
        3
 70
     0
 43
0.0
 10
72.30533030079846
 20
56.51500429224061
 10
71.62799761358986
 20
56.21866148496877
 10
70.99300192011796
 20
56.21866148496877
  0
LWPOLYLINE
  5
11A
330
70
100
AcDbEntity
  8
レイヤー 1
 62
    18
420
        0
370
    13
100
AcDbPolyline
 90
        6
 70
     0
 43
0.0
 10
72.30533030079846
 20
56.51500429224061
 10
72.98266298800704
 20
56.85367871028745
 10
73.65999567521564
 20
57.53100601453435
 10
73.95632771656408
 20
58.20833331878125
 10
73.95632771656408
 20
58.88568215487493
 10
69.97700019782422
 20
58.88568215487493
  0
LINE
  5
11B
330
70
100
AcDbEntity
  8
レイヤー 1
 62
    18
420
        0
370
    13
100
AcDbLine
 10
70.31566923290937
 20
60.19800515259372
 30
0.0
 11
73.65999567521564
 21
60.19800515259372
 31
0.0
  0
LWPOLYLINE
  5
11C
330
70
100
AcDbEntity
  8
レイヤー 1
 62
    18
420
        0
370
    13
100
AcDbPolyline
 90
        3
 70
     0
 43
0.0
 10
79.62899502776799
 20
57.86965890073441
 10
79.96766406285314
 20
58.54700773682809
 10
79.96766406285314
 20
59.18200343029998
  0
LWPOLYLINE
  5
11D
330
70
100
AcDbEntity
  8
レイヤー 1
 62
    18
420
        0
370
    13
100
AcDbPolyline
 90
        3
 70
     0
 43
0.0
 10
79.62899502776799
 20
57.86965890073441
 10
78.65533029921095
 20
56.85367871028745
 10
77.30066492479377
 20
56.21866148496877
  0
SPLINE
  5
11E
330
70
100
AcDbEntity
  8
レイヤー 1
 62
    18
420
        0
370
    13
100
AcDbSpline
210
0.0
220
0.0
230
1.0
 70
    24
 71
     3
 72
     8
 73
     4
 74
     0
 42
0.0000000001
 43
0.0000000001
 40
0.0
 40
0.0
 40
0.0
 40
0.0
 40
1.0
 40
1.0
 40
1.0
 40
1.0
 10
76.32700019623673
 20
60.19800515259372
 30
0.0
 10
76.32700019623673
 20
60.19800515259372
 30
0.0
 10
77.63933395987891
 20
59.52067784834683
 30
0.0
 10
77.63933395987891
 20
59.52067784834683
 30
0.0
  0
SPLINE
  5
11F
330
70
100
AcDbEntity
  8
レイヤー 1
 62
    18
420
        0
370
    13
100
AcDbSpline
210
0.0
220
0.0
230
1.0
 70
    24
 71
     3
 72
     8
 73
     4
 74
     0
 42
0.0000000001
 43
0.0000000001
 40
0.0
 40
0.0
 40
0.0
 40
0.0
 40
1.0
 40
1.0
 40
1.0
 40
1.0
 10
76.62333223758515
 20
56.21866148496877
 30
0.0
 10
76.62333223758515
 20
56.21866148496877
 30
0.0
 10
77.30066492479377
 20
56.21866148496877
 30
0.0
 10
77.30066492479377
 20
56.21866148496877
 30
0.0
  0
LWPOLYLINE
  5
120
330
70
100
AcDbEntity
  8
レイヤー 1
 62
    18
420
        0
370
    13
100
AcDbPolyline
 90
        9
 70
     0
 43
0.0
 10
82.29599954878906
 20
56.21868301681556
 10
82.97333223599766
 20
56.21868301681556
 10
84.28566599963984
 20
56.85367871028745
 10
84.96299868684845
 20
57.53101139749604
 10
85.30166233897189
 20
58.20834946766634
 10
85.64033137405704
 20
58.88568215487493
 10
85.64033137405704
 20
59.52067784834683
 10
84.96299868684845
 20
59.85934688343197
 10
81.95733051370392
 20
59.85934688343197
  0
LWPOLYLINE
  5
121
330
70
100
AcDbEntity
  8
レイヤー 1
 62
    18
420
        0
370
    13
100
AcDbPolyline
 90
        8
 70
     1
 43
0.0
 10
85.64033137405704
 20
60.87535398868741
 10
85.9789950261805
 20
60.87535398868741
 10
86.31766406126564
 20
60.53668495360227
 10
86.31766406126564
 20
60.19801591851712
 10
85.9789950261805
 20
59.85935226639367
 10
85.64033137405704
 20
59.85935226639367
 10
85.30166233897189
 20
60.19801591851712
 10
85.30166233897189
 20
60.53668495360227
  0
LWPOLYLINE
  5
122
330
70
100
AcDbEntity
  8
レイヤー 1
 62
    18
420
        0
370
    13
100
AcDbPolyline
 90
        3
 70
     0
 43
0.0
 10
90.63566061509066
 20
60.87535398868741
 10
90.63566061509066
 20
55.88000859876872
 10
93.51432857294845
 20
55.88000859876872
  0
LWPOLYLINE
  5
123
330
70
100
AcDbEntity
  8
レイヤー 1
 62
    18
420
        0
370
    13
100
AcDbPolyline
 90
       12
 70
     1
 43
0.0
 10
94.69966750426562
 20
55.88000859876872
 10
94.69966750426562
 20
60.87533783980233
 10
96.35066492003126
 20
60.87533783980233
 10
97.07032383505318
 20
60.62133740922889
 10
97.53599308542504
 20
60.15567354181872
 10
97.78999351599848
 20
59.69000429144686
 10
98.00166233579689
 20
58.97033999346326
 10
98.00166233579689
 20
57.78500644510779
 10
97.78999351599848
 20
57.06533676416249
 10
97.53599308542504
 20
56.59967289675232
 10
97.07032383505318
 20
56.09167203560545
 10
96.35066492003126
 20
55.88000859876872
  0
LWPOLYLINE
  5
124
330
70
100
AcDbEntity
  8
レイヤー 1
 62
    18
420
        0
370
    13
100
AcDbPolyline
 90
        3
 70
     0
 43
0.0
 10
99.69499136233755
 20
55.88000859876872
 10
101.5999999746
 20
60.87535398868741
 10
103.5049978209391
 20
55.88000859876872
  0
LINE
  5
125
330
70
100
AcDbEntity
  8
レイヤー 1
 62
    18
420
        0
370
    13
100
AcDbLine
 10
100.4146610432828
 20
57.53100601453435
 30
0.0
 11
102.7853281399938
 21
57.53100601453435
 31
0.0
  0
LWPOLYLINE
  5
126
330
70
100
AcDbEntity
  8
レイヤー 1
 62
    18
420
        0
370
    13
100
AcDbPolyline
 90
        4
 70
     0
 43
0.0
 10
104.9019948061312
 20
59.90168387716868
 10
105.4099956672781
 20
60.15567354181872
 10
106.1296653482234
 20
60.87535398868741
 10
106.1296653482234
 20
55.88000859876872
  0
LWPOLYLINE
  5
127
330
70
100
AcDbEntity
  8
レイヤー 1
 62
    18
420
        0
370
    13
100
AcDbPolyline
 90
       23
 70
     0
 43
0.0
 10
111.5906692225906
 20
60.15567354181872
 10
111.3366687920172
 20
60.62133740922889
 10
110.6169991110719
 20
60.87533783980233
 10
110.1513298607
 20
60.87533783980233
 10
109.4316601797547
 20
60.62133740922889
 10
108.9660016953062
 20
59.90167311124529
 10
108.7120012647328
 20
58.71633956288982
 10
108.7120012647328
 20
57.53100601453435
 10
108.9660016953062
 20
56.59967289675232
 10
109.4316601797547
 20
56.09167203560545
 10
110.1513298607
 20
55.88000321580702
 10
110.4053302912734
 20
55.88000321580702
 10
111.1249999722187
 20
56.09167203560545
 10
111.5906692225906
 20
56.59967289675232
 10
111.8023272764656
 20
57.27700558396091
 10
111.8023272764656
 20
57.53100601453435
 10
111.5906692225906
 20
58.25067031251795
 10
111.1249999722187
 20
58.71633956288982
 10
110.4053302912734
 20
58.97033999346326
 10
110.1513298607
 20
58.97033999346326
 10
109.4316601797547
 20
58.71633956288982
 10
108.9660016953062
 20
58.25067031251795
 10
108.7120012647328
 20
57.53100601453435
  0
LWPOLYLINE
  5
128
330
70
100
AcDbEntity
  8
レイヤー 1
 62
    18
420
        0
370
    13
100
AcDbPolyline
 90
        3
 70
     0
 43
0.0
 10
113.4956563030063
 20
60.87535398868741
 10
113.4956563030063
 20
55.88000859876872
 10
116.3319926500891
 20
55.88000859876872
  0
ENDSEC
  0
SECTION
  2
OBJECTS
  0
DICTIONARY
  5
C
330
0
100
AcDbDictionary
281
     1
  3
ACAD_COLOR
350
63
  3
ACAD_DETAILVIEWSTYLE
350
6A
  3
ACAD_GROUP
350
D
  3
ACAD_LAYOUT
350
62
  3
ACAD_MATERIAL
350
10
  3
ACAD_MLEADERSTYLE
350
66
  3
ACAD_MLINESTYLE
350
5F
  3
ACAD_PLOTSETTINGS
350
61
  3
ACAD_PLOTSTYLENAME
350
E
  3
ACAD_SCALELIST
350
42
  3
ACAD_SECTIONVIEWSTYLE
350
68
  3
ACAD_TABLESTYLE
350
64
  3
ACAD_VISUALSTYLE
350
29
  3
ACDB_RECOMPOSE_DATA
350
131
  3
AcDbVariableDictionary
350
129
  0
DICTIONARY
  5
63
102
{ACAD_REACTORS
330
C
102
}
330
C
100
AcDbDictionary
281
     1
  0
DICTIONARY
  5
6A
102
{ACAD_REACTORS
330
C
102
}
330
C
100
AcDbDictionary
281
     1
  3
Imperial24
350
6B
  0
DICTIONARY
  5
D
102
{ACAD_REACTORS
330
C
102
}
330
C
100
AcDbDictionary
281
     1
  0
DICTIONARY
  5
62
102
{ACAD_REACTORS
330
C
102
}
330
C
100
AcDbDictionary
281
     1
  3
Layout1
350
6F
  3
Layout2
350
77
  3
Model
350
73
  0
DICTIONARY
  5
10
102
{ACAD_REACTORS
330
C
102
}
330
C
100
AcDbDictionary
281
     1
  3
ByBlock
350
19
  3
ByLayer
350
11
  3
Global
350
21
  0
DICTIONARY
  5
66
102
{ACAD_REACTORS
330
C
102
}
330
C
100
AcDbDictionary
281
     1
  3
Standard
350
67
  0
DICTIONARY
  5
5F
102
{ACAD_REACTORS
330
C
102
}
330
C
100
AcDbDictionary
281
     1
  3
Standard
350
60
  0
DICTIONARY
  5
61
102
{ACAD_REACTORS
330
C
102
}
330
C
100
AcDbDictionary
281
     1
  0
ACDBDICTIONARYWDFLT
  5
E
102
{ACAD_REACTORS
330
C
102
}
330
C
100
AcDbDictionary
281
     1
  3
Normal
350
F
100
AcDbDictionaryWithDefault
340
F
  0
DICTIONARY
  5
42
102
{ACAD_REACTORS
330
C
102
}
330
C
100
AcDbDictionary
281
     1
  3
A0
350
43
  3
A1
350
44
  3
A2
350
45
  3
A3
350
46
  3
A4
350
47
  3
A5
350
48
  3
A6
350
49
  3
A7
350
4A
  3
A8
350
4B
  3
A9
350
4C
  3
B0
350
4D
  3
B1
350
4E
  3
B2
350
4F
  3
B3
350
50
  3
B4
350
51
  3
B5
350
52
  3
B6
350
53
  0
DICTIONARY
  5
68
102
{ACAD_REACTORS
330
C
102
}
330
C
100
AcDbDictionary
281
     1
  3
Imperial24
350
69
  0
DICTIONARY
  5
64
102
{ACAD_REACTORS
330
C
102
}
330
C
100
AcDbDictionary
281
     1
  3
Standard
350
65
  0
DICTIONARY
  5
29
102
{ACAD_REACTORS
330
C
102
}
330
C
100
AcDbDictionary
281
     1
  3
2dWireframe
350
2F
  3
Basic
350
2E
  3
Brighten
350
35
  3
ColorChange
350
39
  3
Conceptual
350
32
  3
Dim
350
34
  3
EdgeColorOff
350
41
  3
Facepattern
350
38
  3
Flat
350
2A
  3
FlatWithEdges
350
2B
  3
Gouraud
350
2C
  3
GouraudWithEdges
350
2D
  3
Hidden
350
31
  3
JitterOff
350
3F
  3
Linepattern
350
37
  3
OverhangOff
350
40
  3
Realistic
350
33
  3
Shaded
350
3E
  3
Shaded with edges
350
3D
  3
Shades of Gray
350
3A
  3
Sketchy
350
3B
  3
Thicken
350
36
  3
Wireframe
350
30
  3
X-Ray
350
3C
  0
XRECORD
  5
131
102
{ACAD_REACTORS
330
C
102
}
330
C
100
AcDbXrecord
280
     1
 90
        1
330
65
  0
DICTIONARY
  5
129
102
{ACAD_REACTORS
330
C
102
}
330
C
100
AcDbDictionary
281
     1
  3
CANNOSCALE
350
12E
  3
CMLEADERSTYLE
350
12B
  3
CTABLESTYLE
350
12A
  3
CVIEWDETAILSTYLE
350
12C
  3
CVIEWSECTIONSTYLE
350
12D
  0
ACDBDETAILVIEWSTYLE
  5
6B
102
{ACAD_REACTORS
330
6A
102
}
330
6A
100
AcDbModelDocViewStyle
 70
     0
  3
Imperial24
290
     1
300
Imperial24
 90
        0
100
AcDbDetailViewStyle
 70
     0
 71
     0
 90
        3
 71
     1
340
55
 62
   256
 40
0.24
340
0
 62
   256
 40
0.24
300

 40
0.36
280
     3
 71
     2
340
5D
 90
       25
 62
   256
 71
     3
340
55
 62
   256
 40
0.24
 90
        1
 40
0.75
 90
        1
300
%<\AcVar ViewType \f "%tc1">% %<\AcVar ViewDetailId>%\PSCALE %<\AcVar ViewScale \f "%sn">%
 71
     4
340
5D
 90
       25
 62
   256
340
5D
 90
       25
 62
   256
280
     0
  0
LAYOUT
  5
6F
102
{ACAD_REACTORS
330
62
102
}
330
62
100
AcDbPlotSettings
  1

  2

  4

  6

 40
0.0
 41
0.0
 42
0.0
 43
0.0
 44
0.0
 45
0.0
 46
0.0
 47
0.0
 48
0.0
 49
0.0
140
0.0
141
0.0
142
1.0
143
1.0
 70
   688
 72
     0
 73
     0
 74
     5
  7

 75
    16
147
1.0
 76
     0
 77
     2
 78
   300
148
0.0
149
0.0
100
AcDbLayout
  1
Layout1
 70
     1
 71
     1
 10
0.0
 20
0.0
 11
12.0
 21
9.0
 12
0.0
 22
0.0
 32
0.0
 14
0.0
 24
0.0
 34
0.0
 15
0.0
 25
0.0
 35
0.0
146
0.0
 13
0.0
 23
0.0
 33
0.0
 16
1.0
 26
0.0
 36
0.0
 17
0.0
 27
1.0
 37
0.0
 76
     0
330
6C
  0
LAYOUT
  5
77
102
{ACAD_REACTORS
330
62
102
}
330
62
100
AcDbPlotSettings
  1

  2

  4

  6

 40
0.0
 41
0.0
 42
0.0
 43
0.0
 44
0.0
 45
0.0
 46
0.0
 47
0.0
 48
0.0
 49
0.0
140
0.0
141
0.0
142
1.0
143
1.0
 70
   688
 72
     0
 73
     0
 74
     5
  7

 75
    16
147
1.0
 76
     0
 77
     2
 78
   300
148
0.0
149
0.0
100
AcDbLayout
  1
Layout2
 70
     1
 71
     2
 10
0.0
 20
0.0
 11
12.0
 21
9.0
 12
0.0
 22
0.0
 32
0.0
 14
0.0
 24
0.0
 34
0.0
 15
0.0
 25
0.0
 35
0.0
146
0.0
 13
0.0
 23
0.0
 33
0.0
 16
1.0
 26
0.0
 36
0.0
 17
0.0
 27
1.0
 37
0.0
 76
     0
330
74
  0
LAYOUT
  5
73
102
{ACAD_REACTORS
330
62
102
}
330
62
100
AcDbPlotSettings
  1

  2

  4

  6

 40
0.0
 41
0.0
 42
0.0
 43
0.0
 44
0.0
 45
0.0
 46
0.0
 47
0.0
 48
0.0
 49
0.0
140
0.0
141
0.0
142
1.0
143
1.0
 70
  1712
 72
     0
 73
     0
 74
     0
  7

 75
     0
147
1.0
 76
     0
 77
     2
 78
   300
148
0.0
149
0.0
100
AcDbLayout
  1
Model
 70
     1
 71
     0
 10
0.0
 20
0.0
 11
12.0
 21
9.0
 12
0.0
 22
0.0
 32
0.0
 14
0.0
 24
0.0
 34
0.0
 15
0.0
 25
0.0
 35
0.0
146
0.0
 13
0.0
 23
0.0
 33
0.0
 16
1.0
 26
0.0
 36
0.0
 17
0.0
 27
1.0
 37
0.0
 76
     0
330
70
  0
MATERIAL
  5
19
102
{ACAD_XDICTIONARY
360
1A
102
}
102
{ACAD_REACTORS
330
10
102
}
330
10
100
AcDbMaterial
  1
ByBlock
 72
     0
 43
0.0208333333333333
 43
0.0
 43
0.0
 43
0.0
 43
0.0
 43
0.0208333333333333
 43
0.0
 43
0.0
 43
0.0
 43
0.0
 43
1.0
 43
0.0
 43
0.0
 43
0.0
 43
0.0
 43
1.0
 77
     0
 47
0.0208333333333333
 47
0.0
 47
0.0
 47
0.0
 47
0.0
 47
0.0208333333333333
 47
0.0
 47
0.0
 47
0.0
 47
0.0
 47
1.0
 47
0.0
 47
0.0
 47
0.0
 47
0.0
 47
1.0
171
     0
 49
0.0208333333333333
 49
0.0
 49
0.0
 49
0.0
 49
0.0
 49
0.0208333333333333
 49
0.0
 49
0.0
 49
0.0
 49
0.0
 49
1.0
 49
0.0
 49
0.0
 49
0.0
 49
0.0
 49
1.0
175
     0
142
0.0208333333333333
142
0.0
142
0.0
142
0.0
142
0.0
142
0.0208333333333333
142
0.0
142
0.0
142
0.0
142
0.0
142
1.0
142
0.0
142
0.0
142
0.0
142
0.0
142
1.0
179
     0
144
0.0208333333333333
144
0.0
144
0.0
144
0.0
144
0.0
144
0.0208333333333333
144
0.0
144
0.0
144
0.0
144
0.0
144
1.0
144
0.0
144
0.0
144
0.0
144
0.0
144
1.0
147
0.0208333333333333
147
0.0
147
0.0
147
0.0
147
0.0
147
0.0208333333333333
147
0.0
147
0.0
147
0.0
147
0.0
147
1.0
147
0.0
147
0.0
147
0.0
147
0.0
147
1.0
  0
MATERIAL
  5
11
102
{ACAD_XDICTIONARY
360
12
102
}
102
{ACAD_REACTORS
330
10
102
}
330
10
100
AcDbMaterial
  1
ByLayer
 72
     0
 43
0.0208333333333333
 43
0.0
 43
0.0
 43
0.0
 43
0.0
 43
0.0208333333333333
 43
0.0
 43
0.0
 43
0.0
 43
0.0
 43
1.0
 43
0.0
 43
0.0
 43
0.0
 43
0.0
 43
1.0
 77
     0
 47
0.0208333333333333
 47
0.0
 47
0.0
 47
0.0
 47
0.0
 47
0.0208333333333333
 47
0.0
 47
0.0
 47
0.0
 47
0.0
 47
1.0
 47
0.0
 47
0.0
 47
0.0
 47
0.0
 47
1.0
171
     0
 49
0.0208333333333333
 49
0.0
 49
0.0
 49
0.0
 49
0.0
 49
0.0208333333333333
 49
0.0
 49
0.0
 49
0.0
 49
0.0
 49
1.0
 49
0.0
 49
0.0
 49
0.0
 49
0.0
 49
1.0
175
     0
142
0.0208333333333333
142
0.0
142
0.0
142
0.0
142
0.0
142
0.0208333333333333
142
0.0
142
0.0
142
0.0
142
0.0
142
1.0
142
0.0
142
0.0
142
0.0
142
0.0
142
1.0
179
     0
144
0.0208333333333333
144
0.0
144
0.0
144
0.0
144
0.0
144
0.0208333333333333
144
0.0
144
0.0
144
0.0
144
0.0
144
1.0
144
0.0
144
0.0
144
0.0
144
0.0
144
1.0
147
0.0208333333333333
147
0.0
147
0.0
147
0.0
147
0.0
147
0.0208333333333333
147
0.0
147
0.0
147
0.0
147
0.0
147
1.0
147
0.0
147
0.0
147
0.0
147
0.0
147
1.0
  0
MATERIAL
  5
21
102
{ACAD_XDICTIONARY
360
22
102
}
102
{ACAD_REACTORS
330
10
102
}
330
10
100
AcDbMaterial
  1
Global
 72
     0
 43
0.0208333333333333
 43
0.0
 43
0.0
 43
0.0
 43
0.0
 43
0.0208333333333333
 43
0.0
 43
0.0
 43
0.0
 43
0.0
 43
1.0
 43
0.0
 43
0.0
 43
0.0
 43
0.0
 43
1.0
 77
     0
 47
0.0208333333333333
 47
0.0
 47
0.0
 47
0.0
 47
0.0
 47
0.0208333333333333
 47
0.0
 47
0.0
 47
0.0
 47
0.0
 47
1.0
 47
0.0
 47
0.0
 47
0.0
 47
0.0
 47
1.0
171
     0
 49
0.0208333333333333
 49
0.0
 49
0.0
 49
0.0
 49
0.0
 49
0.0208333333333333
 49
0.0
 49
0.0
 49
0.0
 49
0.0
 49
1.0
 49
0.0
 49
0.0
 49
0.0
 49
0.0
 49
1.0
175
     0
142
0.0208333333333333
142
0.0
142
0.0
142
0.0
142
0.0
142
0.0208333333333333
142
0.0
142
0.0
142
0.0
142
0.0
142
1.0
142
0.0
142
0.0
142
0.0
142
0.0
142
1.0
179
     0
144
0.0208333333333333
144
0.0
144
0.0
144
0.0
144
0.0
144
0.0208333333333333
144
0.0
144
0.0
144
0.0
144
0.0
144
1.0
144
0.0
144
0.0
144
0.0
144
0.0
144
1.0
147
0.0208333333333333
147
0.0
147
0.0
147
0.0
147
0.0
147
0.0208333333333333
147
0.0
147
0.0
147
0.0
147
0.0
147
1.0
147
0.0
147
0.0
147
0.0
147
0.0
147
1.0
  0
MLEADERSTYLE
  5
67
102
{ACAD_REACTORS
330
66
102
}
330
66
100
AcDbMLeaderStyle
179
     2
170
     2
171
     1
172
     0
 90
        2
 40
0.0
 41
0.0
173
     1
 91
-1056964608
340
5B
 92
       -2
290
     1
 42
0.09
291
     1
 43
0.36
  3
Standard
 44
0.18
300

342
55
174
     1
178
     6
175
     1
176
     0
 93
-1056964608
 45
0.18
292
     0
297
     0
 46
0.18
 94
-1056964608
 47
1.0
 49
1.0
140
1.0
293
     1
141
0.0
294
     1
177
     0
142
1.0
295
     1
296
     0
143
0.125
271
     0
272
     9
273
     9
298
     1
  0
MLINESTYLE
  5
60
102
{ACAD_REACTORS
330
5F
102
}
330
5F
100
AcDbMlineStyle
  2
STANDARD
 70
     0
  3

 62
   256
 51
90.0
 52
90.0
 71
     2
 49
0.5
 62
   256
  6
BYLAYER
 49
-0.5
 62
   256
  6
BYLAYER
  0
ACDBPLACEHOLDER
  5
F
102
{ACAD_REACTORS
330
E
102
}
330
E
  0
SCALE
  5
43
102
{ACAD_REACTORS
330
42
102
}
330
42
100
AcDbScale
 70
     0
300
1:1
140
1.0
141
1.0
290
     1
  0
SCALE
  5
44
102
{ACAD_REACTORS
330
42
102
}
330
42
100
AcDbScale
 70
     0
300
1/128" = 1'-0"
140
0.0078125
141
12.0
290
     0
  0
SCALE
  5
45
102
{ACAD_REACTORS
330
42
102
}
330
42
100
AcDbScale
 70
     0
300
1/64" = 1'-0"
140
0.015625
141
12.0
290
     0
  0
SCALE
  5
46
102
{ACAD_REACTORS
330
42
102
}
330
42
100
AcDbScale
 70
     0
300
1/32" = 1'-0"
140
0.03125
141
12.0
290
     0
  0
SCALE
  5
47
102
{ACAD_REACTORS
330
42
102
}
330
42
100
AcDbScale
 70
     0
300
1/16" = 1'-0"
140
0.0625
141
12.0
290
     0
  0
SCALE
  5
48
102
{ACAD_REACTORS
330
42
102
}
330
42
100
AcDbScale
 70
     0
300
3/32" = 1'-0"
140
0.09375
141
12.0
290
     0
  0
SCALE
  5
49
102
{ACAD_REACTORS
330
42
102
}
330
42
100
AcDbScale
 70
     0
300
1/8" = 1'-0"
140
0.125
141
12.0
290
     0
  0
SCALE
  5
4A
102
{ACAD_REACTORS
330
42
102
}
330
42
100
AcDbScale
 70
     0
300
3/16" = 1'-0"
140
0.1875
141
12.0
290
     0
  0
SCALE
  5
4B
102
{ACAD_REACTORS
330
42
102
}
330
42
100
AcDbScale
 70
     0
300
1/4" = 1'-0"
140
0.25
141
12.0
290
     0
  0
SCALE
  5
4C
102
{ACAD_REACTORS
330
42
102
}
330
42
100
AcDbScale
 70
     0
300
3/8" = 1'-0"
140
0.375
141
12.0
290
     0
  0
SCALE
  5
4D
102
{ACAD_REACTORS
330
42
102
}
330
42
100
AcDbScale
 70
     0
300
1/2" = 1'-0"
140
0.5
141
12.0
290
     0
  0
SCALE
  5
4E
102
{ACAD_REACTORS
330
42
102
}
330
42
100
AcDbScale
 70
     0
300
3/4" = 1'-0"
140
0.75
141
12.0
290
     0
  0
SCALE
  5
4F
102
{ACAD_REACTORS
330
42
102
}
330
42
100
AcDbScale
 70
     0
300
1" = 1'-0"
140
1.0
141
12.0
290
     0
  0
SCALE
  5
50
102
{ACAD_REACTORS
330
42
102
}
330
42
100
AcDbScale
 70
     0
300
1-1/2" = 1'-0"
140
1.5
141
12.0
290
     0
  0
SCALE
  5
51
102
{ACAD_REACTORS
330
42
102
}
330
42
100
AcDbScale
 70
     0
300
3" = 1'-0"
140
3.0
141
12.0
290
     0
  0
SCALE
  5
52
102
{ACAD_REACTORS
330
42
102
}
330
42
100
AcDbScale
 70
     0
300
6" = 1'-0"
140
6.0
141
12.0
290
     0
  0
SCALE
  5
53
102
{ACAD_REACTORS
330
42
102
}
330
42
100
AcDbScale
 70
     0
300
1'-0" = 1'-0"
140
12.0
141
12.0
290
     0
  0
ACDBSECTIONVIEWSTYLE
  5
69
102
{ACAD_REACTORS
330
68
102
}
330
68
100
AcDbModelDocViewStyle
 70
     0
  3
Imperial24
290
     1
300
Imperial24
 90
        0
100
AcDbSectionViewStyle
 70
     0
 71
     0
 90
       78
 71
     1
340
55
 62
   256
 40
0.24
340
0
340
0
 62
   256
 40
0.24
300
I, O, Q, S, X, Z
 40
0.48
 90
        3
 40
0.18
 90
        1
 71
     2
340
5D
 90
       25
 62
   256
340
5D
 90
       50
 62
   256
 40
0.24
 40
0.0
 40
0.24
 71
     3
340
55
 62
   256
 40
0.24
 90
        1
 40
0.75
 90
        1
300
%<\AcVar ViewType \f "%tc1">% %<\AcVar ViewSectionStartId>%-%<\AcVar ViewSectionEndId>%\PSCALE %<\AcVar ViewScale \f "%sn">%
 71
     4
 62
   256
 62
   257
300
ANSI31
 40
1.0
 90
        0
290
     0
290
     0
 90
        6
 40
0.0
 40
1.570796326794896
 40
0.2617993877991494
 40
1.308996938995747
 40
-0.2617993877991494
 40
1.832595714594046
  0
TABLESTYLE
  5
65
102
{ACAD_XDICTIONARY
360
12F
102
}
102
{ACAD_REACTORS
330
64
102
}
330
64
100
AcDbTableStyle
280
     0
  3
Standard
 70
     0
 71
     0
 40
0.06
 41
0.06
280
     0
281
     0
  7
Standard
140
0.18
170
     2
 62
     0
 63
     7
283
     0
 90
      512
 91
        0
  1

274
    -2
284
     1
 64
     0
275
    -2
285
     1
 65
     0
276
    -2
286
     1
 66
     0
277
    -2
287
     1
 67
     0
278
    -2
288
     1
 68
     0
279
    -2
289
     1
 69
     0
  7
Standard
140
0.25
170
     5
 62
     0
 63
     7
283
     0
 90
      512
 91
        0
  1

274
    -2
284
     1
 64
     0
275
    -2
285
     1
 65
     0
276
    -2
286
     1
 66
     0
277
    -2
287
     1
 67
     0
278
    -2
288
     1
 68
     0
279
    -2
289
     1
 69
     0
  7
Standard
140
0.18
170
     5
 62
     0
 63
     7
283
     0
 90
      512
 91
        0
  1

274
    -2
284
     1
 64
     0
275
    -2
285
     1
 65
     0
276
    -2
286
     1
 66
     0
277
    -2
287
     1
 67
     0
278
    -2
288
     1
 68
     0
279
    -2
289
     1
 69
     0
  0
VISUALSTYLE
  5
2F
102
{ACAD_REACTORS
330
29
102
}
330
29
100
AcDbVisualStyle
  2
2dWireframe
 70
     4
177
     3
291
     0
 70
    58
 90
        0
176
     1
 90
        2
176
     1
 90
        0
176
     1
 90
        0
176
     1
 40
0.6
176
     1
 40
30.0
176
     1
 62
     7
420
 16777215
176
     1
 90
        1
176
     1
 90
        4
176
     1
 62
     7
176
     1
 62
   257
176
     1
 90
        1
176
     1
 90
        1
176
     1
 40
1.0
176
     1
 90
        0
176
     1
 62
   257
176
     1
 40
1.0
176
     1
 90
        1
176
     1
 90
        6
176
     1
 90
        2
176
     1
 62
     7
176
     1
 90
        5
176
     1
 90
        0
176
     1
 90
        0
176
     1
290
     0
176
     1
 90
        1
176
     1
 40
0.0
176
     1
 90
        0
176
     1
290
     1
176
     1
290
     1
176
     1
290
     0
176
     1
290
     0
176
     1
290
     0
176
     1
290
     0
176
     1
290
     0
176
     1
290
     0
176
     1
290
     0
176
     1
 90
       50
176
     1
 40
0.0
176
     1
 40
1.0
176
     1
 90
        0
176
     1
 62
    18
420
        0
176
     1
 90
       50
176
     1
 90
        3
176
     1
 62
     5
420
      255
176
     1
290
     0
176
     1
 90
       50
176
     1
 90
       50
176
     1
 90
       50
176
     1
290
     0
176
     1
 90
       50
176
     1
 62
   256
176
     0
 40
1.0
176
     0
 90
        2
176
     1
  1
strokes_ogs.tif
176
     1
290
     0
176
     1
 40
1.0
176
     1
 40
1.0
176
     1
  0
VISUALSTYLE
  5
2E
102
{ACAD_REACTORS
330
29
102
}
330
29
100
AcDbVisualStyle
  2
Basic
 70
     7
177
     3
291
     1
 70
    58
 90
        1
176
     1
 90
        0
176
     1
 90
        1
176
     1
 90
        0
176
     1
 40
0.6
176
     1
 40
30.0
176
     1
 62
     7
420
 16777215
176
     1
 90
        0
176
     1
 90
        4
176
     1
 62
     7
176
     1
 62
   257
176
     1
 90
        1
176
     1
 90
        1
176
     1
 40
1.0
176
     1
 90
        8
176
     1
 62
     7
176
     1
 40
1.0
176
     1
 90
        1
176
     1
 90
        6
176
     1
 90
        2
176
     1
 62
     7
176
     1
 90
        5
176
     1
 90
        0
176
     1
 90
        0
176
     1
290
     0
176
     1
 90
        1
176
     1
 40
0.0
176
     1
 90
        0
176
     1
290
     0
176
     1
290
     1
176
     1
290
     1
176
     1
290
     0
176
     1
290
     0
176
     1
290
     0
176
     1
290
     0
176
     1
290
     0
176
     1
290
     0
176
     1
 90
       50
176
     1
 40
0.0
176
     1
 40
1.0
176
     1
 90
        0
176
     1
 62
    18
420
        0
176
     1
 90
       50
176
     1
 90
        3
176
     1
 62
     5
420
      255
176
     1
290
     0
176
     1
 90
       50
176
     1
 90
       50
176
     1
 90
       50
176
     1
290
     0
176
     1
 90
       50
176
     1
 62
   256
176
     0
 40
1.0
176
     0
 90
        2
176
     1
  1
strokes_ogs.tif
176
     1
290
     0
176
     1
 40
1.0
176
     1
 40
1.0
176
     1
  0
VISUALSTYLE
  5
35
102
{ACAD_REACTORS
330
29
102
}
330
29
100
AcDbVisualStyle
  2
Brighten
 70
    12
177
     3
291
     1
 70
    58
 90
        2
176
     1
 90
        2
176
     1
 90
        0
176
     1
 90
        0
176
     1
 40
0.6
176
     1
 40
30.0
176
     1
 62
     7
420
 16777215
176
     1
 90
        1
176
     1
 90
        4
176
     1
 62
     7
176
     1
 62
   257
176
     1
 90
        1
176
     1
 90
        1
176
     1
 40
1.0
176
     1
 90
        8
176
     1
 62
     7
176
     1
 40
1.0
176
     1
 90
        1
176
     1
 90
        6
176
     1
 90
        2
176
     1
 62
     7
176
     1
 90
        5
176
     1
 90
        0
176
     1
 90
        0
176
     1
290
     0
176
     1
 90
        1
176
     1
 40
50.0
176
     1
 90
        0
176
     1
290
     0
176
     1
290
     1
176
     1
290
     1
176
     1
290
     0
176
     1
290
     0
176
     1
290
     0
176
     1
290
     0
176
     1
290
     0
176
     1
290
     0
176
     1
 90
       50
176
     1
 40
0.0
176
     1
 40
1.0
176
     1
 90
        0
176
     1
 62
    18
420
        0
176
     1
 90
       50
176
     1
 90
        3
176
     1
 62
     5
420
      255
176
     1
290
     0
176
     1
 90
       50
176
     1
 90
       50
176
     1
 90
       50
176
     1
290
     0
176
     1
 90
       50
176
     1
 62
   256
176
     0
 40
1.0
176
     0
 90
        2
176
     1
  1
strokes_ogs.tif
176
     1
290
     0
176
     1
 40
1.0
176
     1
 40
1.0
176
     1
  0
VISUALSTYLE
  5
39
102
{ACAD_REACTORS
330
29
102
}
330
29
100
AcDbVisualStyle
  2
ColorChange
 70
    16
177
     3
291
     1
 70
    58
 90
        2
176
     1
 90
        2
176
     1
 90
        3
176
     1
 90
        0
176
     1
 40
0.6
176
     1
 40
30.0
176
     1
 62
     8
420
  8421504
176
     1
 90
        1
176
     1
 90
        4
176
     1
 62
     7
176
     1
 62
   257
176
     1
 90
        1
176
     1
 90
        1
176
     1
 40
1.0
176
     1
 90
        8
176
     1
 62
     8
420
  8421504
176
     1
 40
1.0
176
     1
 90
        1
176
     1
 90
        6
176
     1
 90
        2
176
     1
 62
     7
176
     1
 90
        5
176
     1
 90
        0
176
     1
 90
        0
176
     1
290
     0
176
     1
 90
        1
176
     1
 40
0.0
176
     1
 90
        0
176
     1
290
     0
176
     1
290
     1
176
     1
290
     1
176
     1
290
     0
176
     1
290
     0
176
     1
290
     0
176
     1
290
     0
176
     1
290
     0
176
     1
290
     0
176
     1
 90
       50
176
     1
 40
0.0
176
     1
 40
1.0
176
     1
 90
        0
176
     1
 62
    18
420
        0
176
     1
 90
       50
176
     1
 90
        3
176
     1
 62
     5
420
      255
176
     1
290
     0
176
     1
 90
       50
176
     1
 90
       50
176
     1
 90
       50
176
     1
290
     0
176
     1
 90
       50
176
     1
 62
   256
176
     0
 40
1.0
176
     0
 90
        2
176
     1
  1
strokes_ogs.tif
176
     1
290
     0
176
     1
 40
1.0
176
     1
 40
1.0
176
     1
  0
VISUALSTYLE
  5
32
102
{ACAD_REACTORS
330
29
102
}
330
29
100
AcDbVisualStyle
  2
Conceptual
 70
     9
177
     3
291
     0
 70
    58
 90
        3
176
     1
 90
        2
176
     1
 90
        0
176
     1
 90
        0
176
     1
 40
0.6
176
     1
 40
30.0
176
     1
 62
     7
420
 16777215
176
     1
 90
        2
176
     1
 90
        2
176
     1
 62
     7
176
     1
 62
   257
176
     1
 90
        1
176
     1
 90
        1
176
     1
 40
179.0
176
     1
 90
        8
176
     1
 62
     7
176
     1
 40
1.0
176
     1
 90
        1
176
     1
 90
        6
176
     1
 90
        2
176
     1
 62
     7
176
     1
 90
        3
176
     1
 90
        0
176
     1
 90
        0
176
     1
290
     0
176
     1
 90
        1
176
     1
 40
0.0
176
     1
 90
        0
176
     1
290
     0
176
     1
290
     1
176
     1
290
     1
176
     1
290
     0
176
     1
290
     0
176
     1
290
     0
176
     1
290
     0
176
     1
290
     0
176
     1
290
     0
176
     1
 90
       50
176
     1
 40
0.0
176
     1
 40
1.0
176
     1
 90
        0
176
     1
 62
    18
420
        0
176
     1
 90
       50
176
     1
 90
        3
176
     1
 62
     5
420
      255
176
     1
290
     0
176
     1
 90
       50
176
     1
 90
       50
176
     1
 90
       50
176
     1
290
     0
176
     1
 90
       50
176
     1
 62
   256
176
     0
 40
1.0
176
     0
 90
        2
176
     1
  1
strokes_ogs.tif
176
     1
290
     0
176
     1
 40
1.0
176
     1
 40
1.0
176
     1
  0
VISUALSTYLE
  5
34
102
{ACAD_REACTORS
330
29
102
}
330
29
100
AcDbVisualStyle
  2
Dim
 70
    11
177
     3
291
     1
 70
    58
 90
        2
176
     1
 90
        2
176
     1
 90
        0
176
     1
 90
        0
176
     1
 40
0.6
176
     1
 40
30.0
176
     1
 62
     7
420
 16777215
176
     1
 90
        1
176
     1
 90
        4
176
     1
 62
     7
176
     1
 62
   257
176
     1
 90
        1
176
     1
 90
        1
176
     1
 40
1.0
176
     1
 90
        8
176
     1
 62
     7
176
     1
 40
1.0
176
     1
 90
        1
176
     1
 90
        6
176
     1
 90
        2
176
     1
 62
     7
176
     1
 90
        5
176
     1
 90
        0
176
     1
 90
        0
176
     1
290
     0
176
     1
 90
        1
176
     1
 40
-50.0
176
     1
 90
        0
176
     1
290
     0
176
     1
290
     1
176
     1
290
     1
176
     1
290
     0
176
     1
290
     0
176
     1
290
     0
176
     1
290
     0
176
     1
290
     0
176
     1
290
     0
176
     1
 90
       50
176
     1
 40
0.0
176
     1
 40
1.0
176
     1
 90
        0
176
     1
 62
    18
420
        0
176
     1
 90
       50
176
     1
 90
        3
176
     1
 62
     5
420
      255
176
     1
290
     0
176
     1
 90
       50
176
     1
 90
       50
176
     1
 90
       50
176
     1
290
     0
176
     1
 90
       50
176
     1
 62
   256
176
     0
 40
1.0
176
     0
 90
        2
176
     1
  1
strokes_ogs.tif
176
     1
290
     0
176
     1
 40
1.0
176
     1
 40
1.0
176
     1
  0
VISUALSTYLE
  5
41
102
{ACAD_REACTORS
330
29
102
}
330
29
100
AcDbVisualStyle
  2
EdgeColorOff
 70
    22
177
     3
291
     1
 70
    58
 90
        2
176
     0
 90
        2
176
     0
 90
        0
176
     0
 90
        0
176
     0
 40
0.6
176
     0
 40
30.0
176
     0
 62
     7
420
 16777215
176
     0
 90
        1
176
     0
 90
        4
176
     0
 62
     7
176
     0
 62
   257
176
     0
 90
        1
176
     0
 90
        1
176
     0
 40
1.0
176
     0
 90
        8
176
     2
 62
     7
176
     0
 40
1.0
176
     0
 90
        1
176
     0
 90
        6
176
     0
 90
        2
176
     0
 62
     7
176
     0
 90
        5
176
     0
 90
        0
176
     0
 90
        0
176
     0
290
     0
176
     0
 90
        1
176
     0
 40
0.0
176
     0
 90
        0
176
     0
290
     0
176
     0
290
     1
176
     0
290
     1
176
     0
290
     0
176
     0
290
     0
176
     0
290
     0
176
     0
290
     0
176
     0
290
     0
176
     0
290
     0
176
     0
 90
       50
176
     0
 40
0.0
176
     0
 40
1.0
176
     0
 90
        0
176
     0
 62
    18
420
        0
176
     0
 90
       50
176
     0
 90
        3
176
     0
 62
     5
420
      255
176
     0
290
     0
176
     0
 90
       50
176
     0
 90
       50
176
     0
 90
       50
176
     0
290
     0
176
     0
 90
       50
176
     0
 62
   256
176
     0
 40
1.0
176
     0
 90
        2
176
     0
  1
strokes_ogs.tif
176
     0
290
     0
176
     0
 40
1.0
176
     0
 40
1.0
176
     0
  0
VISUALSTYLE
  5
38
102
{ACAD_REACTORS
330
29
102
}
330
29
100
AcDbVisualStyle
  2
Facepattern
 70
    15
177
     3
291
     1
 70
    58
 90
        2
176
     1
 90
        2
176
     1
 90
        0
176
     1
 90
        0
176
     1
 40
0.6
176
     1
 40
30.0
176
     1
 62
     7
420
 16777215
176
     1
 90
        1
176
     1
 90
        4
176
     1
 62
     7
176
     1
 62
   257
176
     1
 90
        1
176
     1
 90
        1
176
     1
 40
1.0
176
     1
 90
        8
176
     1
 62
     7
176
     1
 40
1.0
176
     1
 90
        1
176
     1
 90
        6
176
     1
 90
        2
176
     1
 62
     7
176
     1
 90
        5
176
     1
 90
        0
176
     1
 90
        0
176
     1
290
     0
176
     1
 90
        1
176
     1
 40
0.0
176
     1
 90
        0
176
     1
290
     0
176
     1
290
     1
176
     1
290
     1
176
     1
290
     0
176
     1
290
     0
176
     1
290
     0
176
     1
290
     0
176
     1
290
     0
176
     1
290
     0
176
     1
 90
       50
176
     1
 40
0.0
176
     1
 40
1.0
176
     1
 90
        0
176
     1
 62
    18
420
        0
176
     1
 90
       50
176
     1
 90
        3
176
     1
 62
     5
420
      255
176
     1
290
     0
176
     1
 90
       50
176
     1
 90
       50
176
     1
 90
       50
176
     1
290
     0
176
     1
 90
       50
176
     1
 62
   256
176
     0
 40
1.0
176
     0
 90
        2
176
     1
  1
strokes_ogs.tif
176
     1
290
     0
176
     1
 40
1.0
176
     1
 40
1.0
176
     1
  0
VISUALSTYLE
  5
2A
102
{ACAD_REACTORS
330
29
102
}
330
29
100
AcDbVisualStyle
  2
Flat
 70
     0
177
     3
291
     1
 70
    58
 90
        2
176
     1
 90
        1
176
     1
 90
        1
176
     1
 90
        2
176
     1
 40
0.6
176
     1
 40
30.0
176
     1
 62
     7
420
 16777215
176
     1
 90
        0
176
     1
 90
        0
176
     1
 62
     7
176
     1
 62
   257
176
     1
 90
        1
176
     1
 90
        1
176
     1
 40
1.0
176
     1
 90
        8
176
     1
 62
     7
176
     1
 40
1.0
176
     1
 90
        1
176
     1
 90
        6
176
     1
 90
        2
176
     1
 62
     7
176
     1
 90
        5
176
     1
 90
        0
176
     1
 90
        0
176
     1
290
     0
176
     1
 90
       13
176
     1
 40
0.0
176
     1
 90
        0
176
     1
290
     0
176
     1
290
     1
176
     1
290
     1
176
     1
290
     0
176
     1
290
     0
176
     1
290
     0
176
     1
290
     0
176
     1
290
     0
176
     1
290
     0
176
     1
 90
       50
176
     1
 40
0.0
176
     1
 40
1.0
176
     1
 90
        0
176
     1
 62
    18
420
        0
176
     1
 90
       50
176
     1
 90
        3
176
     1
 62
     5
420
      255
176
     1
290
     0
176
     1
 90
       50
176
     1
 90
       50
176
     1
 90
       50
176
     1
290
     0
176
     1
 90
       50
176
     1
 62
   256
176
     0
 40
1.0
176
     0
 90
        2
176
     1
  1
strokes_ogs.tif
176
     1
290
     0
176
     1
 40
1.0
176
     1
 40
1.0
176
     1
  0
VISUALSTYLE
  5
2B
102
{ACAD_REACTORS
330
29
102
}
330
29
100
AcDbVisualStyle
  2
FlatWithEdges
 70
     1
177
     3
291
     1
 70
    58
 90
        2
176
     1
 90
        1
176
     1
 90
        1
176
     1
 90
        2
176
     1
 40
0.6
176
     1
 40
30.0
176
     1
 62
     7
420
 16777215
176
     1
 90
        1
176
     1
 90
        0
176
     1
 62
     7
176
     1
 62
   257
176
     1
 90
        1
176
     1
 90
        1
176
     1
 40
1.0
176
     1
 90
        0
176
     1
 62
   257
176
     1
 40
1.0
176
     1
 90
        1
176
     1
 90
        6
176
     1
 90
        2
176
     1
 62
     7
176
     1
 90
        5
176
     1
 90
        0
176
     1
 90
        0
176
     1
290
     0
176
     1
 90
       13
176
     1
 40
0.0
176
     1
 90
        0
176
     1
290
     0
176
     1
290
     1
176
     1
290
     1
176
     1
290
     0
176
     1
290
     0
176
     1
290
     0
176
     1
290
     0
176
     1
290
     0
176
     1
290
     0
176
     1
 90
       50
176
     1
 40
0.0
176
     1
 40
1.0
176
     1
 90
        0
176
     1
 62
    18
420
        0
176
     1
 90
       50
176
     1
 90
        3
176
     1
 62
     5
420
      255
176
     1
290
     0
176
     1
 90
       50
176
     1
 90
       50
176
     1
 90
       50
176
     1
290
     0
176
     1
 90
       50
176
     1
 62
   256
176
     0
 40
1.0
176
     0
 90
        2
176
     1
  1
strokes_ogs.tif
176
     1
290
     0
176
     1
 40
1.0
176
     1
 40
1.0
176
     1
  0
VISUALSTYLE
  5
2C
102
{ACAD_REACTORS
330
29
102
}
330
29
100
AcDbVisualStyle
  2
Gouraud
 70
     2
177
     3
291
     1
 70
    58
 90
        2
176
     1
 90
        2
176
     1
 90
        1
176
     1
 90
        2
176
     1
 40
0.6
176
     1
 40
30.0
176
     1
 62
     7
420
 16777215
176
     1
 90
        0
176
     1
 90
        0
176
     1
 62
     7
176
     1
 62
   257
176
     1
 90
        1
176
     1
 90
        1
176
     1
 40
1.0
176
     1
 90
        0
176
     1
 62
     7
176
     1
 40
1.0
176
     1
 90
        1
176
     1
 90
        6
176
     1
 90
        2
176
     1
 62
     7
176
     1
 90
        5
176
     1
 90
        0
176
     1
 90
        0
176
     1
290
     0
176
     1
 90
       13
176
     1
 40
0.0
176
     1
 90
        0
176
     1
290
     0
176
     1
290
     1
176
     1
290
     1
176
     1
290
     0
176
     1
290
     0
176
     1
290
     0
176
     1
290
     0
176
     1
290
     0
176
     1
290
     0
176
     1
 90
       50
176
     1
 40
0.0
176
     1
 40
1.0
176
     1
 90
        0
176
     1
 62
    18
420
        0
176
     1
 90
       50
176
     1
 90
        3
176
     1
 62
     5
420
      255
176
     1
290
     0
176
     1
 90
       50
176
     1
 90
       50
176
     1
 90
       50
176
     1
290
     0
176
     1
 90
       50
176
     1
 62
   256
176
     0
 40
1.0
176
     0
 90
        2
176
     1
  1
strokes_ogs.tif
176
     1
290
     0
176
     1
 40
1.0
176
     1
 40
1.0
176
     1
  0
VISUALSTYLE
  5
2D
102
{ACAD_REACTORS
330
29
102
}
330
29
100
AcDbVisualStyle
  2
GouraudWithEdges
 70
     3
177
     3
291
     1
 70
    58
 90
        2
176
     1
 90
        2
176
     1
 90
        1
176
     1
 90
        2
176
     1
 40
0.6
176
     1
 40
30.0
176
     1
 62
     7
420
 16777215
176
     1
 90
        1
176
     1
 90
        0
176
     1
 62
     7
176
     1
 62
   257
176
     1
 90
        1
176
     1
 90
        1
176
     1
 40
1.0
176
     1
 90
        0
176
     1
 62
   257
176
     1
 40
1.0
176
     1
 90
        1
176
     1
 90
        6
176
     1
 90
        2
176
     1
 62
     7
176
     1
 90
        5
176
     1
 90
        0
176
     1
 90
        0
176
     1
290
     0
176
     1
 90
       13
176
     1
 40
0.0
176
     1
 90
        0
176
     1
290
     0
176
     1
290
     1
176
     1
290
     1
176
     1
290
     0
176
     1
290
     0
176
     1
290
     0
176
     1
290
     0
176
     1
290
     0
176
     1
290
     0
176
     1
 90
       50
176
     1
 40
0.0
176
     1
 40
1.0
176
     1
 90
        0
176
     1
 62
    18
420
        0
176
     1
 90
       50
176
     1
 90
        3
176
     1
 62
     5
420
      255
176
     1
290
     0
176
     1
 90
       50
176
     1
 90
       50
176
     1
 90
       50
176
     1
290
     0
176
     1
 90
       50
176
     1
 62
   256
176
     0
 40
1.0
176
     0
 90
        2
176
     1
  1
strokes_ogs.tif
176
     1
290
     0
176
     1
 40
1.0
176
     1
 40
1.0
176
     1
  0
VISUALSTYLE
  5
31
102
{ACAD_REACTORS
330
29
102
}
330
29
100
AcDbVisualStyle
  2
Hidden
 70
     6
177
     3
291
     0
 70
    58
 90
        1
176
     1
 90
        2
176
     1
 90
        2
176
     1
 90
        0
176
     1
 40
0.6
176
     1
 40
30.0
176
     1
 62
     7
420
 16777215
176
     1
 90
        2
176
     1
 90
        2
176
     1
 62
     7
176
     1
 62
   257
176
     1
 90
        2
176
     1
 90
        1
176
     1
 40
40.0
176
     1
 90
        0
176
     1
 62
   257
176
     1
 40
1.0
176
     1
 90
        1
176
     1
 90
        6
176
     1
 90
        2
176
     1
 62
     7
176
     1
 90
        3
176
     1
 90
        0
176
     1
 90
        0
176
     1
290
     0
176
     1
 90
        1
176
     1
 40
0.0
176
     1
 90
        0
176
     1
290
     0
176
     1
290
     1
176
     1
290
     1
176
     1
290
     0
176
     1
290
     0
176
     1
290
     0
176
     1
290
     0
176
     1
290
     0
176
     1
290
     0
176
     1
 90
       50
176
     1
 40
0.0
176
     1
 40
1.0
176
     1
 90
        0
176
     1
 62
    18
420
        0
176
     1
 90
       50
176
     1
 90
        3
176
     1
 62
     5
420
      255
176
     1
290
     0
176
     1
 90
       50
176
     1
 90
       50
176
     1
 90
       50
176
     1
290
     0
176
     1
 90
       50
176
     1
 62
   256
176
     0
 40
1.0
176
     0
 90
        2
176
     1
  1
strokes_ogs.tif
176
     1
290
     0
176
     1
 40
1.0
176
     1
 40
1.0
176
     1
  0
VISUALSTYLE
  5
3F
102
{ACAD_REACTORS
330
29
102
}
330
29
100
AcDbVisualStyle
  2
JitterOff
 70
    20
177
     3
291
     1
 70
    58
 90
        2
176
     0
 90
        2
176
     0
 90
        0
176
     0
 90
        0
176
     0
 40
0.6
176
     0
 40
30.0
176
     0
 62
     7
420
 16777215
176
     0
 90
        1
176
     0
 90
        4
176
     0
 62
     7
176
     0
 62
   257
176
     0
 90
        1
176
     0
 90
        1
176
     0
 40
1.0
176
     0
 90
       10
176
     2
 62
     7
176
     0
 40
1.0
176
     0
 90
        1
176
     0
 90
        6
176
     0
 90
        2
176
     0
 62
     7
176
     0
 90
        5
176
     0
 90
        0
176
     0
 90
        0
176
     0
290
     0
176
     0
 90
        1
176
     0
 40
0.0
176
     0
 90
        0
176
     0
290
     0
176
     0
290
     1
176
     0
290
     1
176
     0
290
     0
176
     0
290
     0
176
     0
290
     0
176
     0
290
     0
176
     0
290
     0
176
     0
290
     0
176
     0
 90
       50
176
     0
 40
0.0
176
     0
 40
1.0
176
     0
 90
        0
176
     0
 62
    18
420
        0
176
     0
 90
       50
176
     0
 90
        3
176
     0
 62
     5
420
      255
176
     0
290
     0
176
     0
 90
       50
176
     0
 90
       50
176
     0
 90
       50
176
     0
290
     0
176
     0
 90
       50
176
     0
 62
   256
176
     0
 40
1.0
176
     0
 90
        2
176
     0
  1
strokes_ogs.tif
176
     0
290
     0
176
     0
 40
1.0
176
     0
 40
1.0
176
     0
  0
VISUALSTYLE
  5
37
102
{ACAD_REACTORS
330
29
102
}
330
29
100
AcDbVisualStyle
  2
Linepattern
 70
    14
177
     3
291
     1
 70
    58
 90
        2
176
     1
 90
        2
176
     1
 90
        0
176
     1
 90
        0
176
     1
 40
0.6
176
     1
 40
30.0
176
     1
 62
     7
420
 16777215
176
     1
 90
        1
176
     1
 90
        4
176
     1
 62
     7
176
     1
 62
   257
176
     1
 90
        7
176
     1
 90
        7
176
     1
 40
1.0
176
     1
 90
        8
176
     1
 62
     7
176
     1
 40
1.0
176
     1
 90
        1
176
     1
 90
        6
176
     1
 90
        2
176
     1
 62
     7
176
     1
 90
        5
176
     1
 90
        0
176
     1
 90
        0
176
     1
290
     0
176
     1
 90
        1
176
     1
 40
0.0
176
     1
 90
        0
176
     1
290
     0
176
     1
290
     1
176
     1
290
     1
176
     1
290
     0
176
     1
290
     0
176
     1
290
     0
176
     1
290
     0
176
     1
290
     0
176
     1
290
     0
176
     1
 90
       50
176
     1
 40
0.0
176
     1
 40
1.0
176
     1
 90
        0
176
     1
 62
    18
420
        0
176
     1
 90
       50
176
     1
 90
        3
176
     1
 62
     5
420
      255
176
     1
290
     0
176
     1
 90
       50
176
     1
 90
       50
176
     1
 90
       50
176
     1
290
     0
176
     1
 90
       50
176
     1
 62
   256
176
     0
 40
1.0
176
     0
 90
        2
176
     1
  1
strokes_ogs.tif
176
     1
290
     0
176
     1
 40
1.0
176
     1
 40
1.0
176
     1
  0
VISUALSTYLE
  5
40
102
{ACAD_REACTORS
330
29
102
}
330
29
100
AcDbVisualStyle
  2
OverhangOff
 70
    21
177
     3
291
     1
 70
    58
 90
        2
176
     0
 90
        2
176
     0
 90
        0
176
     0
 90
        0
176
     0
 40
0.6
176
     0
 40
30.0
176
     0
 62
     7
420
 16777215
176
     0
 90
        1
176
     0
 90
        4
176
     0
 62
     7
176
     0
 62
   257
176
     0
 90
        1
176
     0
 90
        1
176
     0
 40
1.0
176
     0
 90
        9
176
     2
 62
     7
176
     0
 40
1.0
176
     0
 90
        1
176
     0
 90
        6
176
     0
 90
        2
176
     0
 62
     7
176
     0
 90
        5
176
     0
 90
        0
176
     0
 90
        0
176
     0
290
     0
176
     0
 90
        1
176
     0
 40
0.0
176
     0
 90
        0
176
     0
290
     0
176
     0
290
     1
176
     0
290
     1
176
     0
290
     0
176
     0
290
     0
176
     0
290
     0
176
     0
290
     0
176
     0
290
     0
176
     0
290
     0
176
     0
 90
       50
176
     0
 40
0.0
176
     0
 40
1.0
176
     0
 90
        0
176
     0
 62
    18
420
        0
176
     0
 90
       50
176
     0
 90
        3
176
     0
 62
     5
420
      255
176
     0
290
     0
176
     0
 90
       50
176
     0
 90
       50
176
     0
 90
       50
176
     0
290
     0
176
     0
 90
       50
176
     0
 62
   256
176
     0
 40
1.0
176
     0
 90
        2
176
     0
  1
strokes_ogs.tif
176
     0
290
     0
176
     0
 40
1.0
176
     0
 40
1.0
176
     0
  0
VISUALSTYLE
  5
33
102
{ACAD_REACTORS
330
29
102
}
330
29
100
AcDbVisualStyle
  2
Realistic
 70
     8
177
     3
291
     0
 70
    58
 90
        2
176
     1
 90
        3
176
     1
 90
        0
176
     1
 90
        2
176
     1
 40
0.6
176
     1
 40
30.0
176
     1
 62
     7
420
 16777215
176
     1
 90
        0
176
     1
 90
        0
176
     1
 62
     7
176
     1
 62
   257
176
     1
 90
        1
176
     1
 90
        1
176
     1
 40
1.0
176
     1
 90
        8
176
     1
 62
   257
176
     1
 40
1.0
176
     1
 90
        1
176
     1
 90
        6
176
     1
 90
        2
176
     1
 62
     7
176
     1
 90
        3
176
     1
 90
        0
176
     1
 90
        0
176
     1
290
     0
176
     1
 90
       13
176
     1
 40
0.0
176
     1
 90
        0
176
     1
290
     0
176
     1
290
     1
176
     1
290
     1
176
     1
290
     0
176
     1
290
     0
176
     1
290
     0
176
     1
290
     0
176
     1
290
     0
176
     1
290
     0
176
     1
 90
       50
176
     1
 40
0.0
176
     1
 40
1.0
176
     1
 90
        0
176
     1
 62
    18
420
        0
176
     1
 90
       50
176
     1
 90
        3
176
     1
 62
     5
420
      255
176
     1
290
     0
176
     1
 90
       50
176
     1
 90
       50
176
     1
 90
       50
176
     1
290
     0
176
     1
 90
       50
176
     1
 62
   256
176
     0
 40
1.0
176
     0
 90
        2
176
     1
  1
strokes_ogs.tif
176
     1
290
     0
176
     1
 40
1.0
176
     1
 40
1.0
176
     1
  0
VISUALSTYLE
  5
3E
102
{ACAD_REACTORS
330
29
102
}
330
29
100
AcDbVisualStyle
  2
Shaded
 70
    27
177
     3
291
     0
 70
    58
 90
        2
176
     1
 90
        2
176
     1
 90
        1
176
     1
 90
        2
176
     1
 40
0.6
176
     1
 40
30.0
176
     1
 62
     7
420
 16777215
176
     1
 90
        0
176
     1
 90
        4
176
     1
 62
     7
176
     1
 62
   257
176
     1
 90
        1
176
     1
 90
        1
176
     1
 40
1.0
176
     1
 90
        8
176
     1
 62
   257
176
     1
 40
1.0
176
     1
 90
        1
176
     1
 90
        6
176
     1
 90
        2
176
     1
 62
     8
420
  7895160
176
     1
 90
        3
176
     1
 90
        0
176
     1
 90
        0
176
     1
290
     0
176
     1
 90
        5
176
     1
 40
0.0
176
     1
 90
        0
176
     1
290
     0
176
     1
290
     1
176
     1
290
     1
176
     1
290
     0
176
     1
290
     0
176
     1
290
     0
176
     1
290
     0
176
     1
290
     0
176
     1
290
     0
176
     1
 90
       50
176
     1
 40
0.0
176
     1
 40
1.0
176
     1
 90
        0
176
     1
 62
    18
420
        0
176
     1
 90
       50
176
     1
 90
        3
176
     1
 62
     5
420
      255
176
     1
290
     0
176
     1
 90
       50
176
     1
 90
       50
176
     1
 90
       50
176
     1
290
     0
176
     1
 90
       50
176
     1
 62
   256
176
     0
 40
1.0
176
     0
 90
        2
176
     1
  1
strokes_ogs.tif
176
     1
290
     0
176
     1
 40
1.0
176
     1
 40
1.0
176
     1
  0
VISUALSTYLE
  5
3D
102
{ACAD_REACTORS
330
29
102
}
330
29
100
AcDbVisualStyle
  2
Shaded with edges
 70
    26
177
     3
291
     0
 70
    58
 90
        2
176
     1
 90
        2
176
     1
 90
        1
176
     1
 90
        2
176
     1
 40
0.6
176
     1
 40
30.0
176
     1
 62
     7
420
 16777215
176
     1
 90
        1
176
     1
 90
        2
176
     1
 62
     7
176
     1
 62
   257
176
     1
 90
        2
176
     1
 90
        1
176
     1
 40
1.0
176
     1
 90
        8
176
     1
 62
   257
176
     1
 40
1.0
176
     1
 90
        1
176
     1
 90
        6
176
     1
 90
        2
176
     1
 62
     7
176
     1
 90
        3
176
     1
 90
        0
176
     1
 90
        0
176
     1
290
     0
176
     1
 90
        5
176
     1
 40
0.0
176
     1
 90
        0
176
     1
290
     0
176
     1
290
     1
176
     1
290
     1
176
     1
290
     0
176
     1
290
     0
176
     1
290
     0
176
     1
290
     0
176
     1
290
     0
176
     1
290
     0
176
     1
 90
       50
176
     1
 40
0.0
176
     1
 40
1.0
176
     1
 90
        0
176
     1
 62
    18
420
        0
176
     1
 90
       50
176
     1
 90
        3
176
     1
 62
     5
420
      255
176
     1
290
     0
176
     1
 90
       50
176
     1
 90
       50
176
     1
 90
       50
176
     1
290
     0
176
     1
 90
       50
176
     1
 62
   256
176
     0
 40
1.0
176
     0
 90
        2
176
     1
  1
strokes_ogs.tif
176
     1
290
     0
176
     1
 40
1.0
176
     1
 40
1.0
176
     1
  0
VISUALSTYLE
  5
3A
102
{ACAD_REACTORS
330
29
102
}
330
29
100
AcDbVisualStyle
  2
Shades of Gray
 70
    23
177
     3
291
     0
 70
    58
 90
        2
176
     1
 90
        2
176
     1
 90
        3
176
     1
 90
        0
176
     1
 40
0.6
176
     1
 40
30.0
176
     1
 62
     7
420
 16777215
176
     1
 90
        2
176
     1
 90
        2
176
     1
 62
     7
176
     1
 62
     7
176
     1
 90
        1
176
     1
 90
        1
176
     1
 40
40.0
176
     1
 90
        8
176
     1
 62
     7
176
     1
 40
1.0
176
     1
 90
        1
176
     1
 90
        6
176
     1
 90
        2
176
     1
 62
     7
176
     1
 90
        3
176
     1
 90
        0
176
     1
 90
        0
176
     1
290
     0
176
     1
 90
        1
176
     1
 40
0.0
176
     1
 90
        0
176
     1
290
     0
176
     1
290
     1
176
     1
290
     1
176
     1
290
     0
176
     1
290
     0
176
     1
290
     0
176
     1
290
     0
176
     1
290
     0
176
     1
290
     0
176
     1
 90
       50
176
     1
 40
0.0
176
     1
 40
1.0
176
     1
 90
        0
176
     1
 62
    18
420
        0
176
     1
 90
       50
176
     1
 90
        3
176
     1
 62
     5
420
      255
176
     1
290
     0
176
     1
 90
       50
176
     1
 90
       50
176
     1
 90
       50
176
     1
290
     0
176
     1
 90
       50
176
     1
 62
   256
176
     0
 40
1.0
176
     0
 90
        2
176
     1
  1
strokes_ogs.tif
176
     1
290
     0
176
     1
 40
1.0
176
     1
 40
1.0
176
     1
  0
VISUALSTYLE
  5
3B
102
{ACAD_REACTORS
330
29
102
}
330
29
100
AcDbVisualStyle
  2
Sketchy
 70
    24
177
     3
291
     0
 70
    58
 90
        1
176
     1
 90
        2
176
     1
 90
        2
176
     1
 90
        0
176
     1
 40
0.6
176
     1
 40
30.0
176
     1
 62
     7
420
 16777215
176
     1
 90
        2
176
     1
 90
        2
176
     1
 62
     7
176
     1
 62
     7
176
     1
 90
        1
176
     1
 90
        1
176
     1
 40
40.0
176
     1
 90
       11
176
     1
 62
     7
176
     1
 40
1.0
176
     1
 90
        1
176
     1
 90
        6
176
     1
 90
        2
176
     1
 62
     7
176
     1
 90
        6
176
     1
 90
        0
176
     1
 90
        0
176
     1
290
     0
176
     1
 90
        1
176
     1
 40
0.0
176
     1
 90
        0
176
     1
290
     0
176
     1
290
     1
176
     1
290
     1
176
     1
290
     0
176
     1
290
     0
176
     1
290
     0
176
     1
290
     0
176
     1
290
     0
176
     1
290
     0
176
     1
 90
       50
176
     1
 40
0.0
176
     1
 40
1.0
176
     1
 90
        0
176
     1
 62
    18
420
        0
176
     1
 90
       50
176
     1
 90
        3
176
     1
 62
     5
420
      255
176
     1
290
     0
176
     1
 90
       50
176
     1
 90
       50
176
     1
 90
       50
176
     1
290
     0
176
     1
 90
       50
176
     1
 62
   256
176
     0
 40
1.0
176
     0
 90
        2
176
     1
  1
strokes_ogs.tif
176
     1
290
     0
176
     1
 40
1.0
176
     1
 40
1.0
176
     1
  0
VISUALSTYLE
  5
36
102
{ACAD_REACTORS
330
29
102
}
330
29
100
AcDbVisualStyle
  2
Thicken
 70
    13
177
     3
291
     1
 70
    58
 90
        2
176
     1
 90
        2
176
     1
 90
        0
176
     1
 90
        0
176
     1
 40
0.6
176
     1
 40
30.0
176
     1
 62
     7
420
 16777215
176
     1
 90
        1
176
     1
 90
        4
176
     1
 62
     7
176
     1
 62
   257
176
     1
 90
        1
176
     1
 90
        1
176
     1
 40
1.0
176
     1
 90
       12
176
     1
 62
     7
176
     1
 40
1.0
176
     1
 90
        1
176
     1
 90
        6
176
     1
 90
        2
176
     1
 62
     7
176
     1
 90
        5
176
     1
 90
        0
176
     1
 90
        0
176
     1
290
     0
176
     1
 90
        1
176
     1
 40
0.0
176
     1
 90
        0
176
     1
290
     0
176
     1
290
     1
176
     1
290
     1
176
     1
290
     0
176
     1
290
     0
176
     1
290
     0
176
     1
290
     0
176
     1
290
     0
176
     1
290
     0
176
     1
 90
       50
176
     1
 40
0.0
176
     1
 40
1.0
176
     1
 90
        0
176
     1
 62
    18
420
        0
176
     1
 90
       50
176
     1
 90
        3
176
     1
 62
     5
420
      255
176
     1
290
     0
176
     1
 90
       50
176
     1
 90
       50
176
     1
 90
       50
176
     1
290
     0
176
     1
 90
       50
176
     1
 62
   256
176
     0
 40
1.0
176
     0
 90
        2
176
     1
  1
strokes_ogs.tif
176
     1
290
     0
176
     1
 40
1.0
176
     1
 40
1.0
176
     1
  0
VISUALSTYLE
  5
30
102
{ACAD_REACTORS
330
29
102
}
330
29
100
AcDbVisualStyle
  2
Wireframe
 70
     5
177
     3
291
     0
 70
    58
 90
        0
176
     1
 90
        2
176
     1
 90
        0
176
     1
 90
        0
176
     1
 40
0.6
176
     1
 40
30.0
176
     1
 62
     7
420
 16777215
176
     1
 90
        1
176
     1
 90
        4
176
     1
 62
     7
176
     1
 62
   257
176
     1
 90
        1
176
     1
 90
        1
176
     1
 40
1.0
176
     1
 90
        0
176
     1
 62
   257
176
     1
 40
1.0
176
     1
 90
        1
176
     1
 90
        6
176
     1
 90
        2
176
     1
 62
     7
176
     1
 90
        3
176
     1
 90
        0
176
     1
 90
        0
176
     1
290
     0
176
     1
 90
        1
176
     1
 40
0.0
176
     1
 90
        0
176
     1
290
     0
176
     1
290
     1
176
     1
290
     1
176
     1
290
     0
176
     1
290
     0
176
     1
290
     0
176
     1
290
     0
176
     1
290
     0
176
     1
290
     0
176
     1
 90
       50
176
     1
 40
0.0
176
     1
 40
1.0
176
     1
 90
        0
176
     1
 62
    18
420
        0
176
     1
 90
       50
176
     1
 90
        3
176
     1
 62
     5
420
      255
176
     1
290
     0
176
     1
 90
       50
176
     1
 90
       50
176
     1
 90
       50
176
     1
290
     0
176
     1
 90
       50
176
     1
 62
   256
176
     0
 40
1.0
176
     0
 90
        2
176
     1
  1
strokes_ogs.tif
176
     1
290
     0
176
     1
 40
1.0
176
     1
 40
1.0
176
     1
  0
VISUALSTYLE
  5
3C
102
{ACAD_REACTORS
330
29
102
}
330
29
100
AcDbVisualStyle
  2
X-Ray
 70
    25
177
     3
291
     0
 70
    58
 90
        2
176
     1
 90
        2
176
     1
 90
        1
176
     1
 90
        1
176
     1
 40
0.5
176
     1
 40
30.0
176
     1
 62
     7
420
 16777215
176
     1
 90
        1
176
     1
 90
        0
176
     1
 62
     7
176
     1
 62
   257
176
     1
 90
        1
176
     1
 90
        1
176
     1
 40
1.0
176
     1
 90
        8
176
     1
 62
     7
176
     1
 40
1.0
176
     1
 90
        1
176
     1
 90
        6
176
     1
 90
        2
176
     1
 62
     7
176
     1
 90
        3
176
     1
 90
        0
176
     1
 90
        0
176
     1
290
     0
176
     1
 90
       13
176
     1
 40
0.0
176
     1
 90
        0
176
     1
290
     0
176
     1
290
     1
176
     1
290
     1
176
     1
290
     0
176
     1
290
     0
176
     1
290
     0
176
     1
290
     0
176
     1
290
     0
176
     1
290
     0
176
     1
 90
       50
176
     1
 40
0.0
176
     1
 40
1.0
176
     1
 90
        0
176
     1
 62
    18
420
        0
176
     1
 90
       50
176
     1
 90
        3
176
     1
 62
     5
420
      255
176
     1
290
     0
176
     1
 90
       50
176
     1
 90
       50
176
     1
 90
       50
176
     1
290
     0
176
     1
 90
       50
176
     1
 62
   256
176
     0
 40
1.0
176
     0
 90
        2
176
     1
  1
strokes_ogs.tif
176
     1
290
     0
176
     1
 40
1.0
176
     1
 40
1.0
176
     1
  0
DICTIONARYVAR
  5
12E
102
{ACAD_REACTORS
330
129
102
}
330
129
100
DictionaryVariables
280
     0
  1
1:1
  0
DICTIONARYVAR
  5
12B
102
{ACAD_REACTORS
330
129
102
}
330
129
100
DictionaryVariables
280
     0
  1
STANDARD
  0
DICTIONARYVAR
  5
12A
102
{ACAD_REACTORS
330
129
102
}
330
129
100
DictionaryVariables
280
     0
  1
STANDARD
  0
DICTIONARYVAR
  5
12C
102
{ACAD_REACTORS
330
129
102
}
330
129
100
DictionaryVariables
280
     0
  1
Imperial24
  0
DICTIONARYVAR
  5
12D
102
{ACAD_REACTORS
330
129
102
}
330
129
100
DictionaryVariables
280
     0
  1
Imperial24
  0
DICTIONARY
  5
1A
330
19
100
AcDbDictionary
280
     1
281
     1
  3
BUMPTILE
360
1C
  3
DIFFUSETILE
360
1B
  3
OPACITYTILE
360
1F
  3
REFLECTIONTILE
360
1E
  3
REFRACTIONTILE
360
20
  3
SPECULARTILE
360
1D
  0
DICTIONARY
  5
12
330
11
100
AcDbDictionary
280
     1
281
     1
  3
BUMPTILE
360
14
  3
DIFFUSETILE
360
13
  3
OPACITYTILE
360
17
  3
REFLECTIONTILE
360
16
  3
REFRACTIONTILE
360
18
  3
SPECULARTILE
360
15
  0
DICTIONARY
  5
22
330
21
100
AcDbDictionary
280
     1
281
     1
  3
BUMPTILE
360
24
  3
DIFFUSETILE
360
23
  3
OPACITYTILE
360
27
  3
REFLECTIONTILE
360
26
  3
REFRACTIONTILE
360
28
  3
SPECULARTILE
360
25
  0
DICTIONARY
  5
12F
330
65
100
AcDbDictionary
280
     1
281
     1
  3
ACAD_ROUNDTRIP_2008_TABLESTYLE_CELLSTYLEMAP
360
130
  0
XRECORD
  5
1C
102
{ACAD_REACTORS
330
1A
102
}
330
1A
100
AcDbXrecord
280
     1
270
     1
271
     1
  0
XRECORD
  5
1B
102
{ACAD_REACTORS
330
1A
102
}
330
1A
100
AcDbXrecord
280
     1
270
     1
271
     1
  0
XRECORD
  5
1F
102
{ACAD_REACTORS
330
1A
102
}
330
1A
100
AcDbXrecord
280
     1
270
     1
271
     1
  0
XRECORD
  5
1E
102
{ACAD_REACTORS
330
1A
102
}
330
1A
100
AcDbXrecord
280
     1
270
     1
271
     1
  0
XRECORD
  5
20
102
{ACAD_REACTORS
330
1A
102
}
330
1A
100
AcDbXrecord
280
     1
270
     1
271
     1
  0
XRECORD
  5
1D
102
{ACAD_REACTORS
330
1A
102
}
330
1A
100
AcDbXrecord
280
     1
270
     1
271
     1
  0
XRECORD
  5
14
102
{ACAD_REACTORS
330
12
102
}
330
12
100
AcDbXrecord
280
     1
270
     1
271
     1
  0
XRECORD
  5
13
102
{ACAD_REACTORS
330
12
102
}
330
12
100
AcDbXrecord
280
     1
270
     1
271
     1
  0
XRECORD
  5
17
102
{ACAD_REACTORS
330
12
102
}
330
12
100
AcDbXrecord
280
     1
270
     1
271
     1
  0
XRECORD
  5
16
102
{ACAD_REACTORS
330
12
102
}
330
12
100
AcDbXrecord
280
     1
270
     1
271
     1
  0
XRECORD
  5
18
102
{ACAD_REACTORS
330
12
102
}
330
12
100
AcDbXrecord
280
     1
270
     1
271
     1
  0
XRECORD
  5
15
102
{ACAD_REACTORS
330
12
102
}
330
12
100
AcDbXrecord
280
     1
270
     1
271
     1
  0
XRECORD
  5
24
102
{ACAD_REACTORS
330
22
102
}
330
22
100
AcDbXrecord
280
     1
270
     1
271
     1
  0
XRECORD
  5
23
102
{ACAD_REACTORS
330
22
102
}
330
22
100
AcDbXrecord
280
     1
270
     1
271
     1
  0
XRECORD
  5
27
102
{ACAD_REACTORS
330
22
102
}
330
22
100
AcDbXrecord
280
     1
270
     1
271
     1
  0
XRECORD
  5
26
102
{ACAD_REACTORS
330
22
102
}
330
22
100
AcDbXrecord
280
     1
270
     1
271
     1
  0
XRECORD
  5
28
102
{ACAD_REACTORS
330
22
102
}
330
22
100
AcDbXrecord
280
     1
270
     1
271
     1
  0
XRECORD
  5
25
102
{ACAD_REACTORS
330
22
102
}
330
22
100
AcDbXrecord
280
     1
270
     1
271
     1
  0
CELLSTYLEMAP
  5
130
102
{ACAD_REACTORS
330
12F
102
}
330
12F
100
AcDbCellStyleMap
 90
        3
300
CELLSTYLE
  1
TABLEFORMAT_BEGIN
 90
        5
170
     1
 91
        0
 92
    32768
 62
   257
 93
        1
300
CONTENTFORMAT
  1
CONTENTFORMAT_BEGIN
 90
        0
 91
        0
 92
      512
 93
        0
300

 40
0.0
140
1.0
 94
        5
 62
     0
340
55
144
0.25
309
CONTENTFORMAT_END
171
     0
 94
        0
309
TABLEFORMAT_END
  1
CELLSTYLE_BEGIN
 90
        1
 91
        1
300
_TITLE
309
CELLSTYLE_END
300
CELLSTYLE
  1
TABLEFORMAT_BEGIN
 90
        5
170
     1
 91
        0
 92
        0
 62
   257
 93
        1
300
CONTENTFORMAT
  1
CONTENTFORMAT_BEGIN
 90
        0
 91
        0
 92
      512
 93
        0
300

 40
0.0
140
1.0
 94
        5
 62
     0
340
55
144
0.18
309
CONTENTFORMAT_END
171
     0
 94
        0
309
TABLEFORMAT_END
  1
CELLSTYLE_BEGIN
 90
        2
 91
        1
300
_HEADER
309
CELLSTYLE_END
300
CELLSTYLE
  1
TABLEFORMAT_BEGIN
 90
        5
170
     1
 91
        0
 92
        0
 62
   257
 93
        1
300
CONTENTFORMAT
  1
CONTENTFORMAT_BEGIN
 90
        0
 91
        0
 92
      512
 93
        0
300

 40
0.0
140
1.0
 94
        2
 62
     0
340
55
144
0.18
309
CONTENTFORMAT_END
171
     0
 94
        0
309
TABLEFORMAT_END
  1
CELLSTYLE_BEGIN
 90
        3
 91
        2
300
_DATA
309
CELLSTYLE_END
  0
ENDSEC
  0
EOF
