  0
SECTION
  2
HEADER
  9
$ACADVER
  1
AC1032
  9
$ACADMAINTVER
 90
      197
  9
$DWGCODEPAGE
  3
ANSI_932
  9
$REQUIREDVERSIONS
160
                 0
  9
$INSBASE
 10
0.0
 20
0.0
 30
0.0
  9
$EXTMIN
 10
1.000000000000000E+20
 20
1.000000000000000E+20
 30
1.000000000000000E+20
  9
$EXTMAX
 10
-1.000000000000000E+20
 20
-1.000000000000000E+20
 30
-1.000000000000000E+20
  9
$LIMMIN
 10
0.0
 20
0.0
  9
$LIMMAX
 10
12.0
 20
9.0
  9
$ORTHOMODE
 70
     0
  9
$REGENMODE
 70
     1
  9
$FILLMODE
 70
     1
  9
$QTEXTMODE
 70
     0
  9
$MIRRTEXT
 70
     0
  9
$LTSCALE
 40
1.0
  9
$ATTMODE
 70
     1
  9
$TEXTSIZE
 40
0.2
  9
$TRACEWID
 40
0.05
  9
$TEXTSTYLE
  7
Standard
  9
$CLAYER
  8
0
  9
$CELTYPE
  6
ByLayer
  9
$CECOLOR
 62
   256
  9
$CELTSCALE
 40
1.0
  9
$DISPSILH
 70
     0
  9
$DIMSCALE
 40
1.0
  9
$DIMASZ
 40
0.18
  9
$DIMEXO
 40
0.0625
  9
$DIMDLI
 40
0.38
  9
$DIMRND
 40
0.0
  9
$DIMDLE
 40
0.0
  9
$DIMEXE
 40
0.18
  9
$DIMTP
 40
0.0
  9
$DIMTM
 40
0.0
  9
$DIMTXT
 40
0.18
  9
$DIMCEN
 40
0.09
  9
$DIMTSZ
 40
0.0
  9
$DIMTOL
 70
     0
  9
$DIMLIM
 70
     0
  9
$DIMTIH
 70
     1
  9
$DIMTOH
 70
     1
  9
$DIMSE1
 70
     0
  9
$DIMSE2
 70
     0
  9
$DIMTAD
 70
     0
  9
$DIMZIN
 70
     0
  9
$DIMBLK
  1

  9
$DIMASO
 70
     1
  9
$DIMSHO
 70
     1
  9
$DIMPOST
  1

  9
$DIMAPOST
  1

  9
$DIMALT
 70
     0
  9
$DIMALTD
 70
     2
  9
$DIMALTF
 40
25.4
  9
$DIMLFAC
 40
1.0
  9
$DIMTOFL
 70
     0
  9
$DIMTVP
 40
0.0
  9
$DIMTIX
 70
     0
  9
$DIMSOXD
 70
     0
  9
$DIMSAH
 70
     0
  9
$DIMBLK1
  1

  9
$DIMBLK2
  1

  9
$DIMSTYLE
  2
Standard
  9
$DIMCLRD
 70
     0
  9
$DIMCLRE
 70
     0
  9
$DIMCLRT
 70
     0
  9
$DIMTFAC
 40
1.0
  9
$DIMGAP
 40
0.09
  9
$DIMJUST
 70
     0
  9
$DIMSD1
 70
     0
  9
$DIMSD2
 70
     0
  9
$DIMTOLJ
 70
     1
  9
$DIMTZIN
 70
     0
  9
$DIMALTZ
 70
     0
  9
$DIMALTTZ
 70
     0
  9
$DIMUPT
 70
     0
  9
$DIMDEC
 70
     4
  9
$DIMTDEC
 70
     4
  9
$DIMALTU
 70
     2
  9
$DIMALTTD
 70
     2
  9
$DIMTXSTY
  7
Standard
  9
$DIMAUNIT
 70
     0
  9
$DIMADEC
 70
     0
  9
$DIMALTRND
 40
0.0
  9
$DIMAZIN
 70
     0
  9
$DIMDSEP
 70
    46
  9
$DIMATFIT
 70
     3
  9
$DIMFRAC
 70
     0
  9
$DIMLDRBLK
  1

  9
$DIMLUNIT
 70
     2
  9
$DIMLWD
 70
    -2
  9
$DIMLWE
 70
    -2
  9
$DIMTMOVE
 70
     0
  9
$DIMFXL
 40
1.0
  9
$DIMFXLON
 70
     0
  9
$DIMJOGANG
 40
0.7853981633974483
  9
$DIMTFILL
 70
     0
  9
$DIMTFILLCLR
 70
     0
  9
$DIMARCSYM
 70
     0
  9
$DIMLTYPE
  6

  9
$DIMLTEX1
  6

  9
$DIMLTEX2
  6

  9
$DIMTXTDIRECTION
 70
     0
  9
$LUNITS
 70
     2
  9
$LUPREC
 70
     4
  9
$SKETCHINC
 40
0.1
  9
$FILLETRAD
 40
0.0
  9
$AUNITS
 70
     0
  9
$AUPREC
 70
     0
  9
$MENU
  1
.
  9
$ELEVATION
 40
0.0
  9
$PELEVATION
 40
0.0
  9
$THICKNESS
 40
0.0
  9
$LIMCHECK
 70
     0
  9
$CHAMFERA
 40
0.0
  9
$CHAMFERB
 40
0.0
  9
$CHAMFERC
 40
0.0
  9
$CHAMFERD
 40
0.0
  9
$SKPOLY
 70
     0
  9
$TDCREATE
 40
2459605.659432870
  9
$TDUCREATE
 40
2459605.284432870
  9
$TDUPDATE
 40
2459605.659432870
  9
$TDUUPDATE
 40
2459605.284432870
  9
$TDINDWG
 40
0.0000000000
  9
$TDUSRTIMER
 40
0.0000000000
  9
$USRTIMER
 70
     1
  9
$ANGBASE
 50
0.0
  9
$ANGDIR
 70
     0
  9
$PDMODE
 70
     0
  9
$PDSIZE
 40
0.0
  9
$PLINEWID
 40
0.0
  9
$SPLFRAME
 70
     0
  9
$SPLINETYPE
 70
     6
  9
$SPLINESEGS
 70
     8
  9
$HANDSEED
  5
132
  9
$SURFTAB1
 70
     6
  9
$SURFTAB2
 70
     6
  9
$SURFTYPE
 70
     6
  9
$SURFU
 70
     6
  9
$SURFV
 70
     6
  9
$UCSBASE
  2

  9
$UCSNAME
  2

  9
$UCSORG
 10
0.0
 20
0.0
 30
0.0
  9
$UCSXDIR
 10
1.0
 20
0.0
 30
0.0
  9
$UCSYDIR
 10
0.0
 20
1.0
 30
0.0
  9
$UCSORTHOREF
  2

  9
$UCSORTHOVIEW
 70
     0
  9
$UCSORGTOP
 10
0.0
 20
0.0
 30
0.0
  9
$UCSORGBOTTOM
 10
0.0
 20
0.0
 30
0.0
  9
$UCSORGLEFT
 10
0.0
 20
0.0
 30
0.0
  9
$UCSORGRIGHT
 10
0.0
 20
0.0
 30
0.0
  9
$UCSORGFRONT
 10
0.0
 20
0.0
 30
0.0
  9
$UCSORGBACK
 10
0.0
 20
0.0
 30
0.0
  9
$PUCSBASE
  2

  9
$PUCSNAME
  2

  9
$PUCSORG
 10
0.0
 20
0.0
 30
0.0
  9
$PUCSXDIR
 10
1.0
 20
0.0
 30
0.0
  9
$PUCSYDIR
 10
0.0
 20
1.0
 30
0.0
  9
$PUCSORTHOREF
  2

  9
$PUCSORTHOVIEW
 70
     0
  9
$PUCSORGTOP
 10
0.0
 20
0.0
 30
0.0
  9
$PUCSORGBOTTOM
 10
0.0
 20
0.0
 30
0.0
  9
$PUCSORGLEFT
 10
0.0
 20
0.0
 30
0.0
  9
$PUCSORGRIGHT
 10
0.0
 20
0.0
 30
0.0
  9
$PUCSORGFRONT
 10
0.0
 20
0.0
 30
0.0
  9
$PUCSORGBACK
 10
0.0
 20
0.0
 30
0.0
  9
$USERI1
 70
     0
  9
$USERI2
 70
     0
  9
$USERI3
 70
     0
  9
$USERI4
 70
     0
  9
$USERI5
 70
     0
  9
$USERR1
 40
0.0
  9
$USERR2
 40
0.0
  9
$USERR3
 40
0.0
  9
$USERR4
 40
0.0
  9
$USERR5
 40
0.0
  9
$WORLDVIEW
 70
     1
  9
$SHADEDGE
 70
     3
  9
$SHADEDIF
 70
    70
  9
$TILEMODE
 70
     1
  9
$MAXACTVP
 70
    64
  9
$PINSBASE
 10
0.0
 20
0.0
 30
0.0
  9
$PLIMCHECK
 70
     0
  9
$PEXTMIN
 10
1.000000000000000E+20
 20
1.000000000000000E+20
 30
1.000000000000000E+20
  9
$PEXTMAX
 10
-1.000000000000000E+20
 20
-1.000000000000000E+20
 30
-1.000000000000000E+20
  9
$PLIMMIN
 10
0.0
 20
0.0
  9
$PLIMMAX
 10
12.0
 20
9.0
  9
$UNITMODE
 70
     0
  9
$VISRETAIN
 70
     1
  9
$PLINEGEN
 70
     0
  9
$PSLTSCALE
 70
     1
  9
$TREEDEPTH
 70
  3020
  9
$CMLSTYLE
  2
Standard
  9
$CMLJUST
 70
     0
  9
$CMLSCALE
 40
1.0
  9
$PROXYGRAPHICS
 70
     1
  9
$MEASUREMENT
 70
     0
  9
$CELWEIGHT
370
    -1
  9
$ENDCAPS
280
     0
  9
$JOINSTYLE
280
     0
  9
$LWDISPLAY
290
     1
  9
$INSUNITS
 70
     4
  9
$HYPERLINKBASE
  1

  9
$STYLESHEET
  1

  9
$XEDIT
290
     1
  9
$CEPSNTYPE
380
     0
  9
$PSTYLEMODE
290
     1
  9
$FINGERPRINTGUID
  2
{C69EFF94-C410-D24C-A29D-BACA07C32FD5}
  9
$VERSIONGUID
  2
{5FDFD94E-9AEC-E745-A8E5-B91660269470}
  9
$EXTNAMES
290
     1
  9
$PSVPSCALE
 40
0.0
  9
$OLESTARTUP
290
     0
  9
$SORTENTS
280
   127
  9
$INDEXCTL
280
     0
  9
$HIDETEXT
280
     1
  9
$XCLIPFRAME
280
     2
  9
$HALOGAP
280
     0
  9
$OBSCOLOR
 70
   257
  9
$OBSLTYPE
280
     0
  9
$INTERSECTIONDISPLAY
280
     0
  9
$INTERSECTIONCOLOR
 70
   257
  9
$DIMASSOC
280
     2
  9
$PROJECTNAME
  1

  9
$CAMERADISPLAY
290
     0
  9
$LENSLENGTH
 40
50.0
  9
$CAMERAHEIGHT
 40
0.0
  9
$STEPSPERSEC
 40
2.0
  9
$STEPSIZE
 40
6.0
  9
$3DDWFPREC
 40
2.0
  9
$PSOLWIDTH
 40
0.25
  9
$PSOLHEIGHT
 40
4.0
  9
$LOFTANG1
 40
1.570796326794896
  9
$LOFTANG2
 40
1.570796326794896
  9
$LOFTMAG1
 40
0.0
  9
$LOFTMAG2
 40
0.0
  9
$LOFTPARAM
 70
     7
  9
$LOFTNORMALS
280
     1
  9
$LATITUDE
 40
37.795
  9
$LONGITUDE
 40
-122.394
  9
$NORTHDIRECTION
 40
0.0
  9
$TIMEZONE
 70
 -8000
  9
$LIGHTGLYPHDISPLAY
280
     1
  9
$TILEMODELIGHTSYNCH
280
     1
  9
$CMATERIAL
347
11
  9
$SOLIDHIST
280
     0
  9
$SHOWHIST
280
     1
  9
$DWFFRAME
280
     2
  9
$DGNFRAME
280
     0
  9
$REALWORLDSCALE
290
     1
  9
$INTERFERECOLOR
 62
     1
  9
$INTERFEREOBJVS
345
33
  9
$INTERFEREVPVS
346
30
  9
$CSHADOW
280
     0
  9
$SHADOWPLANELOCATION
 40
0.0
  0
ENDSEC
  0
SECTION
  2
CLASSES
  0
CLASS
  1
ACDBDICTIONARYWDFLT
  2
AcDbDictionaryWithDefault
  3
ObjectDBX Classes
 90
        0
 91
        1
280
     0
281
     0
  0
CLASS
  1
MATERIAL
  2
AcDbMaterial
  3
ObjectDBX Classes
 90
     1153
 91
        3
280
     0
281
     0
  0
CLASS
  1
VISUALSTYLE
  2
AcDbVisualStyle
  3
ObjectDBX Classes
 90
     4095
 91
       24
280
     0
281
     0
  0
CLASS
  1
SCALE
  2
AcDbScale
  3
ObjectDBX Classes
 90
     1153
 91
       17
280
     0
281
     0
  0
CLASS
  1
TABLESTYLE
  2
AcDbTableStyle
  3
ObjectDBX Classes
 90
     4095
 91
        1
280
     0
281
     0
  0
CLASS
  1
MLEADERSTYLE
  2
AcDbMLeaderStyle
  3
ACDB_MLEADERSTYLE_CLASS
 90
     4095
 91
        1
280
     0
281
     0
  0
CLASS
  1
ACDBSECTIONVIEWSTYLE
  2
AcDbSectionViewStyle
  3
ObjectDBX Classes
 90
     1025
 91
        1
280
     0
281
     0
  0
CLASS
  1
ACDBDETAILVIEWSTYLE
  2
AcDbDetailViewStyle
  3
ObjectDBX Classes
 90
     1025
 91
        1
280
     0
281
     0
  0
CLASS
  1
DICTIONARYVAR
  2
AcDbDictionaryVar
  3
ObjectDBX Classes
 90
        0
 91
        5
280
     0
281
     0
  0
CLASS
  1
CELLSTYLEMAP
  2
AcDbCellStyleMap
  3
ObjectDBX Classes
 90
     1152
 91
        1
280
     0
281
     0
  0
ENDSEC
  0
SECTION
  2
TABLES
  0
TABLE
  2
VPORT
  5
8
330
0
100
AcDbSymbolTable
 70
     1
  0
VPORT
  5
57
330
8
100
AcDbSymbolTableRecord
100
AcDbViewportTableRecord
  2
*Active
 70
     0
 10
0.0
 20
0.0
 11
1.0
 21
1.0
 12
0.0
 22
0.0
 13
0.0
 23
0.0
 14
1.0
 24
1.0
 15
0.0
 25
0.0
 16
0.0
 26
0.0
 36
1.0
 17
105.0078345989922
 27
148.5053410476718
 37
0.0
 40
302.9508957372506
 41
0.7070980333648977
 42
50.0
 43
0.0
 44
0.0
 50
0.0
 51
0.0
 71
     0
 72
   100
 73
     1
 74
     1
 75
     0
 76
     0
 77
     0
 78
     0
281
     0
 65
     1
110
0.0
120
0.0
130
0.0
111
1.0
121
0.0
131
0.0
112
0.0
122
1.0
132
0.0
 79
     0
146
0.0
 60
     3
 61
     5
292
     1
282
     1
141
0.0
142
0.0
 63
   250
421
  3355443
  0
ENDTAB
  0
TABLE
  2
LTYPE
  5
5
330
0
100
AcDbSymbolTable
 70
     1
  0
LTYPE
  5
5B
330
5
100
AcDbSymbolTableRecord
100
AcDbLinetypeTableRecord
  2
ByBlock
 70
     0
  3

 72
    65
 73
     0
 40
0.0
  0
LTYPE
  5
5C
330
5
100
AcDbSymbolTableRecord
100
AcDbLinetypeTableRecord
  2
ByLayer
 70
     0
  3

 72
    65
 73
     0
 40
0.0
  0
LTYPE
  5
5D
330
5
100
AcDbSymbolTableRecord
100
AcDbLinetypeTableRecord
  2
Continuous
 70
     0
  3
Solid line
 72
    65
 73
     0
 40
0.0
  0
ENDTAB
  0
TABLE
  2
LAYER
  5
2
330
0
100
AcDbSymbolTable
 70
     2
  0
LAYER
  5
54
330
2
100
AcDbSymbolTableRecord
100
AcDbLayerTableRecord
  2
0
 70
     0
 62
     7
  6
Continuous
370
    -3
390
F
347
21
348
0
  0
LAYER
  5
78
330
2
100
AcDbSymbolTableRecord
100
AcDbLayerTableRecord
  2
レイヤー 1
 70
     0
 62
     7
  6
Continuous
370
     0
390
F
347
21
348
0
  0
ENDTAB
  0
TABLE
  2
STYLE
  5
3
330
0
100
AcDbSymbolTable
 70
     2
  0
STYLE
  5
55
330
3
100
AcDbSymbolTableRecord
100
AcDbTextStyleTableRecord
  2
Standard
 70
     0
 40
0.0
 41
1.0
 50
0.0
 71
     0
 42
0.2
  3
txt
  4

  0
STYLE
  5
5A
330
3
100
AcDbSymbolTableRecord
100
AcDbTextStyleTableRecord
  2
Annotative
 70
     0
 40
0.0
 41
1.0
 50
0.0
 71
     0
 42
0.2
  3
txt
  4

1001
AcadAnnotative
1000
AnnotativeData
1002
{
1070
     1
1070
     1
1002
}
  0
ENDTAB
  0
TABLE
  2
VIEW
  5
6
330
0
100
AcDbSymbolTable
 70
     0
  0
ENDTAB
  0
TABLE
  2
UCS
  5
7
330
0
100
AcDbSymbolTable
 70
     0
  0
ENDTAB
  0
TABLE
  2
APPID
  5
9
330
0
100
AcDbSymbolTable
 70
     2
  0
APPID
  5
56
330
9
100
AcDbSymbolTableRecord
100
AcDbRegAppTableRecord
  2
ACAD
 70
     0
  0
APPID
  5
5E
330
9
100
AcDbSymbolTableRecord
100
AcDbRegAppTableRecord
  2
AcadAnnotative
 70
     0
  0
ENDTAB
  0
TABLE
  2
DIMSTYLE
  5
A
330
0
100
AcDbSymbolTable
 70
     2
100
AcDbDimStyleTable
 71
     0
  0
DIMSTYLE
105
58
330
A
100
AcDbSymbolTableRecord
100
AcDbDimStyleTableRecord
  2
Standard
 70
     0
340
55
  0
DIMSTYLE
105
59
330
A
100
AcDbSymbolTableRecord
100
AcDbDimStyleTableRecord
  2
Annotative
 70
     0
340
55
1001
AcadAnnotative
1000
AnnotativeData
1002
{
1070
     1
1070
     1
1002
}
  0
ENDTAB
  0
TABLE
  2
BLOCK_RECORD
  5
1
330
0
100
AcDbSymbolTable
 70
     1
  0
BLOCK_RECORD
  5
70
330
1
100
AcDbSymbolTableRecord
100
AcDbBlockTableRecord
  2
*Model_Space
340
73
 70
     0
280
     1
281
     0
  0
BLOCK_RECORD
  5
6C
330
1
100
AcDbSymbolTableRecord
100
AcDbBlockTableRecord
  2
*Paper_Space
340
6F
 70
     0
280
     1
281
     0
  0
BLOCK_RECORD
  5
74
330
1
100
AcDbSymbolTableRecord
100
AcDbBlockTableRecord
  2
*Paper_Space0
340
77
 70
     0
280
     1
281
     0
  0
ENDTAB
  0
ENDSEC
  0
SECTION
  2
BLOCKS
  0
BLOCK
  5
71
330
70
100
AcDbEntity
  8
0
100
AcDbBlockBegin
  2
*Model_Space
 70
     0
 10
0.0
 20
0.0
 30
0.0
  3
*Model_Space
  1

  0
ENDBLK
  5
72
330
70
100
AcDbEntity
  8
0
100
AcDbBlockEnd
  0
BLOCK
  5
6D
330
6C
100
AcDbEntity
 67
     1
  8
0
100
AcDbBlockBegin
  2
*Paper_Space
 70
     0
 10
0.0
 20
0.0
 30
0.0
  3
*Paper_Space
  1

  0
ENDBLK
  5
6E
330
6C
100
AcDbEntity
 67
     1
  8
0
100
AcDbBlockEnd
  0
BLOCK
  5
75
330
74
100
AcDbEntity
 67
     1
  8
0
100
AcDbBlockBegin
  2
*Paper_Space0
 70
     0
 10
0.0
 20
0.0
 30
0.0
  3
*Paper_Space0
  1

  0
ENDBLK
  5
76
330
74
100
AcDbEntity
 67
     1
  8
0
100
AcDbBlockEnd
  0
ENDSEC
  0
SECTION
  2
ENTITIES
  0
LINE
  5
79
330
70
100
AcDbEntity
  8
レイヤー 1
 62
    18
420
        0
370
    25
100
AcDbLine
 10
194.944991338525
 20
253.5343306861282
 30
0.0
 11
194.944991338525
 21
43.60334624154057
 31
0.0
  0
LWPOLYLINE
  5
7A
330
70
100
AcDbEntity
  8
レイヤー 1
 62
    18
420
        0
370
    25
100
AcDbPolyline
 90
        3
 70
     0
 43
0.0
 10
15.02833279128008
 20
253.5343306861282
 10
15.02833279128008
 20
43.60334624154057
 10
194.944991338525
 20
43.60334624154057
  0
SPLINE
  5
7B
330
70
100
AcDbEntity
  8
レイヤー 1
 62
    18
420
        0
370
    25
100
AcDbSpline
210
0.0
220
0.0
230
1.0
 70
    24
 71
     3
 72
     8
 73
     4
 74
     0
 42
0.0000000001
 43
0.0000000001
 40
0.0
 40
0.0
 40
0.0
 40
0.0
 40
1.0
 40
1.0
 40
1.0
 40
1.0
 10
194.944991338525
 20
53.59401548953119
 30
0.0
 10
194.944991338525
 20
53.59401548953119
 30
0.0
 10
15.02832471683754
 20
53.59401548953119
 30
0.0
 10
15.02832471683754
 20
53.59401548953119
 30
0.0
  0
SPLINE
  5
7C
330
70
100
AcDbEntity
  8
レイヤー 1
 62
    18
420
        0
370
    25
100
AcDbSpline
210
0.0
220
0.0
230
1.0
 70
    24
 71
     3
 72
     8
 73
     4
 74
     0
 42
0.0000000001
 43
0.0000000001
 40
0.0
 40
0.0
 40
0.0
 40
0.0
 40
1.0
 40
1.0
 40
1.0
 40
1.0
 10
194.944991338525
 20
63.5846793545601
 30
0.0
 10
194.944991338525
 20
63.5846793545601
 30
0.0
 10
15.02832471683754
 20
63.5846793545601
 30
0.0
 10
15.02832471683754
 20
63.5846793545601
 30
0.0
  0
SPLINE
  5
7D
330
70
100
AcDbEntity
  8
レイヤー 1
 62
    18
420
        0
370
    25
100
AcDbSpline
210
0.0
220
0.0
230
1.0
 70
    24
 71
     3
 72
     8
 73
     4
 74
     0
 42
0.0000000001
 43
0.0000000001
 40
0.0
 40
0.0
 40
0.0
 40
0.0
 40
1.0
 40
1.0
 40
1.0
 40
1.0
 10
194.944991338525
 20
73.57534321958903
 30
0.0
 10
194.944991338525
 20
73.57534321958903
 30
0.0
 10
15.02832471683754
 20
73.57534321958903
 30
0.0
 10
15.02832471683754
 20
73.57534321958903
 30
0.0
  0
SPLINE
  5
7E
330
70
100
AcDbEntity
  8
レイヤー 1
 62
    18
420
        0
370
    25
100
AcDbSpline
210
0.0
220
0.0
230
1.0
 70
    24
 71
     3
 72
     8
 73
     4
 74
     0
 42
0.0000000001
 43
0.0000000001
 40
0.0
 40
0.0
 40
0.0
 40
0.0
 40
1.0
 40
1.0
 40
1.0
 40
1.0
 10
194.944991338525
 20
253.5343306861282
 30
0.0
 10
194.944991338525
 20
253.5343306861282
 30
0.0
 10
15.02832471683754
 20
253.5343306861282
 30
0.0
 10
15.02832471683754
 20
253.5343306861282
 30
0.0
  0
SPLINE
  5
7F
330
70
100
AcDbEntity
  8
レイヤー 1
 62
    18
420
        0
370
    25
100
AcDbSpline
210
0.0
220
0.0
230
1.0
 70
    24
 71
     3
 72
     8
 73
     4
 74
     0
 42
0.0000000001
 43
0.0000000001
 40
0.0
 40
0.0
 40
0.0
 40
0.0
 40
1.0
 40
1.0
 40
1.0
 40
1.0
 10
102.7853173740704
 20
216.9583332790938
 30
0.0
 10
102.7853173740704
 20
216.9583332790938
 30
0.0
 10
102.7853173740704
 20
184.4886743720093
 30
0.0
 10
102.7853173740704
 20
184.4886743720093
 30
0.0
  0
SPLINE
  5
80
330
70
100
AcDbEntity
  8
レイヤー 1
 62
    18
420
        0
370
    25
100
AcDbSpline
210
0.0
220
0.0
230
1.0
 70
    24
 71
     3
 72
     8
 73
     4
 74
     0
 42
0.0000000001
 43
0.0000000001
 40
0.0
 40
0.0
 40
0.0
 40
0.0
 40
1.0
 40
1.0
 40
1.0
 40
1.0
 10
102.7853173740704
 20
178.6043436239687
 30
0.0
 10
102.7853173740704
 20
178.6043436239687
 30
0.0
 10
102.7853173740704
 20
155.2786786856812
 30
0.0
 10
102.7853173740704
 20
155.2786786856812
 30
0.0
  0
LWPOLYLINE
  5
81
330
70
100
AcDbEntity
  8
レイヤー 1
 62
    18
420
        0
370
    25
100
AcDbPolyline
 90
        8
 70
     0
 43
0.0
 10
102.8276705166921
 20
216.9583548109405
 10
103.9706670713109
 20
218.1013513655593
 10
104.9866687936046
 20
219.3713427525031
 10
105.87566491765
 20
220.7260188928437
 10
106.5530029878203
 20
222.2076683336625
 10
107.0610038489671
 20
223.7740025278781
 10
107.3996675010906
 20
225.3403367220938
 10
107.5266623334156
 20
226.9490025270844
  0
LWPOLYLINE
  5
82
330
70
100
AcDbEntity
  8
レイヤー 1
 62
    18
420
        0
370
    25
100
AcDbPolyline
 90
       11
 70
     0
 43
0.0
 10
112.7336657772094
 20
144.3143500920952
 10
112.1409909285891
 20
145.542009868264
 10
111.4636636243422
 20
146.6426748121078
 10
110.6169991110719
 20
147.7010081451765
 10
109.6856606103281
 20
148.5900150351452
 10
108.6273272772594
 20
149.3943479376405
 10
107.4843307226406
 20
150.0716752418874
 10
106.2566601805484
 20
150.6220077138093
 10
104.9866580276813
 20
151.0030137426312
 10
103.7166558748141
 20
151.2570141732046
 10
102.3619905003969
 20
151.3416773947546
  0
SPLINE
  5
83
330
70
100
AcDbEntity
  8
レイヤー 1
 62
    18
420
        0
370
    25
100
AcDbSpline
210
0.0
220
0.0
230
1.0
 70
    24
 71
     3
 72
     8
 73
     4
 74
     0
 42
0.0000000001
 43
0.0000000001
 40
0.0
 40
0.0
 40
0.0
 40
0.0
 40
1.0
 40
1.0
 40
1.0
 40
1.0
 10
123.0629986773234
 20
116.0356821405874
 30
0.0
 10
123.0629986773234
 20
116.0356821405874
 30
0.0
 10
112.733655011286
 20
144.3143500920952
 30
0.0
 10
112.733655011286
 20
144.3143500920952
 30
0.0
  0
SPLINE
  5
84
330
70
100
AcDbEntity
  8
レイヤー 1
 62
    18
420
        0
370
    25
100
AcDbSpline
210
0.0
220
0.0
230
1.0
 70
    24
 71
     3
 72
     8
 73
     4
 74
     0
 42
0.0000000001
 43
0.0000000001
 40
0.0
 40
0.0
 40
0.0
 40
0.0
 40
1.0
 40
1.0
 40
1.0
 40
1.0
 10
102.8276705166921
 20
155.0246782551077
 30
0.0
 10
102.8276705166921
 20
155.0246782551077
 30
0.0
 10
102.8276705166921
 20
151.299356549903
 30
0.0
 10
102.8276705166921
 20
151.299356549903
 30
0.0
  0
LWPOLYLINE
  5
85
330
70
100
AcDbEntity
  8
レイヤー 1
 62
    18
420
        0
370
    13
100
AcDbPolyline
 90
       58
 70
     1
 43
0.0
 10
88.39199911662813
 20
111.6330223652124
 10
88.47666233817815
 20
111.3366795579405
 10
88.73066276875158
 20
111.0403475165921
 10
89.11166341461173
 20
110.7440154752437
 10
89.70432749730862
 20
110.4476834338952
 10
90.38166018451722
 20
110.1936830033218
 10
91.27065630856256
 20
109.9396825727483
 10
92.24432642008128
 20
109.7280137529499
 10
93.34499136392505
 20
109.5163556990749
 10
94.57266190601721
 20
109.3046868792765
 10
95.8426640588844
 20
109.177681281028
 10
97.23966104407658
 20
109.050686448703
 10
98.6789896400438
 20
108.9236808504546
 10
100.1606606127094
 20
108.8813492396796
 10
101.68466319615
 20
108.8390176289046
 10
103.2086657795906
 20
108.8390176289046
 10
104.6903259863328
 20
108.8813492396796
 10
106.1719969589984
 20
108.9236808504546
 10
107.6113255549656
 20
109.050686448703
 10
109.0083225401578
 20
109.177681281028
 10
110.3206563038
 20
109.3046868792765
 10
111.5059952351172
 20
109.5163556990749
 10
112.6066601789609
 20
109.7280137529499
 10
113.6226619012547
 20
109.9396825727483
 10
114.469326414525
 20
110.1936830033218
 10
115.1889960954703
 20
110.4476834338952
 10
115.7393285673922
 20
110.7440154752437
 10
116.1626554410656
 20
111.0403475165921
 10
116.3743242608641
 20
111.3366795579405
 10
116.4589982483375
 20
111.6330223652124
 10
116.3743242608641
 20
111.9293544065608
 10
116.1626554410656
 20
112.2680180586843
 10
115.7393285673922
 20
112.5643501000327
 10
115.1889960954703
 20
112.8183505306062
 10
114.469326414525
 20
113.1146825719546
 10
113.6226619012547
 20
113.368683002528
 10
112.6066601789609
 20
113.5803518223265
 10
111.5059952351172
 20
113.7920206421249
 10
110.3206563038
 20
113.9613470852249
 10
109.0083225401578
 20
114.1306842942483
 10
107.6113255549656
 20
114.2576791265734
 10
106.1719969589984
 20
114.3423531140468
 10
104.6903259863328
 20
114.4270163355968
 10
103.2086657795906
 20
114.4693479463718
 10
101.68466319615
 20
114.4693479463718
 10
100.1606606127094
 20
114.4270163355968
 10
98.6789896400438
 20
114.3423531140468
 10
97.23966104407658
 20
114.2576791265734
 10
95.8426640588844
 20
114.1306842942483
 10
94.57266190601721
 20
113.9613470852249
 10
93.34499136392505
 20
113.7920206421249
 10
92.24432642008128
 20
113.5803518223265
 10
91.27065630856256
 20
113.368683002528
 10
90.38166018451722
 20
113.1146825719546
 10
89.70432749730862
 20
112.8183505306062
 10
89.11166341461173
 20
112.5643501000327
 10
88.73066276875158
 20
112.2680180586843
 10
88.47666233817815
 20
111.9293544065608
  0
LWPOLYLINE
  5
86
330
70
100
AcDbEntity
  8
レイヤー 1
 62
    18
420
        0
370
    25
100
AcDbPolyline
 90
       54
 70
     0
 43
0.0
 10
116.162666206989
 20
111.0403367506687
 10
117.4749892047078
 20
111.4213320135672
 10
118.660328136025
 20
111.8023272764656
 10
119.7186614690938
 20
112.2256649160625
 10
120.6499892039141
 20
112.6913341664343
 10
121.4119904956344
 20
113.1570034168062
 10
122.0046653442547
 20
113.6226619012547
 10
122.4703238287031
 20
114.1306627624016
 10
122.7243242592766
 20
114.6386636235484
 10
122.851329857525
 20
115.1466644846953
 10
122.80899824675
 20
115.6546653458422
 10
122.5549978161766
 20
116.204997817764
 10
122.1739917873547
 20
116.7129986789109
 10
121.6236593154328
 20
117.1786679292828
 10
120.9039896344875
 20
117.6443264137313
 10
120.0573251212172
 20
118.1099956641031
 10
119.0413233989235
 20
118.5333333037
 10
117.8983268443047
 20
118.9566601773734
 10
116.5859930806625
 20
119.3376662061953
 10
115.1889960954703
 20
119.6763298583187
 10
113.7073251228047
 20
119.9726618996672
 10
112.0986593178141
 20
120.2266623302406
 10
110.4476619020484
 20
120.4806627608141
 10
108.6696588880344
 20
120.6499999698375
 10
106.8916558740203
 20
120.7769948021625
 10
105.0713320151547
 20
120.8616687896359
 10
103.2086657795906
 20
120.9040004004109
 10
101.3459995440265
 20
120.9040004004109
 10
99.48332254253912
 20
120.8616687896359
 10
97.66299868367346
 20
120.7769948021625
 10
95.88499566965941
 20
120.6499999698375
 10
94.14932426642035
 20
120.4383311500391
 10
92.45599523987971
 20
120.2266623302406
 10
90.88966104566408
 20
119.9303302888922
 10
89.36566384518517
 20
119.6339982475437
 10
88.01099847076796
 20
119.2953345954203
 10
86.74099631790079
 20
118.9143285665984
 10
85.59799976328203
 20
118.491001692925
 10
84.5819980409883
 20
118.0676640533281
 10
83.73533352771797
 20
117.6019948029563
 10
83.05799545754767
 20
117.1363363185078
 10
82.50766298562579
 20
116.6283354573609
 10
82.12666233976564
 20
116.120334596214
 10
81.95733051370392
 20
115.6123337350672
 10
81.91499890292892
 20
115.1043328739203
 10
82.04199373525394
 20
114.5963320127734
 10
82.33833115956407
 20
114.0883311516265
 10
82.80399502697425
 20
113.5803302904797
 10
83.43899610340782
 20
113.0723294293328
 10
84.20099739512814
 20
112.6066601789609
 10
85.13233051291017
 20
112.1833333052875
 10
86.23299545675392
 20
111.7599956656906
 10
87.4183290051094
 20
111.3790004027922
 10
88.77299976248828
 20
110.9979943739703
  0
LWPOLYLINE
  5
87
330
70
100
AcDbEntity
  8
レイヤー 1
 62
    18
420
        0
370
    25
100
AcDbPolyline
 90
       61
 70
     0
 43
0.0
 10
116.2473294285391
 20
110.7016838644687
 10
117.3479943723828
 20
110.9980159058171
 10
118.4063277054516
 20
111.2943479471655
 10
119.3376554402719
 20
111.675343210064
 10
120.1843199535422
 20
112.0140068621874
 10
120.9463212452625
 20
112.4373445017843
 10
121.5813277046578
 20
112.8183505306062
 10
122.1316601765797
 20
113.2416774042796
 10
122.5973294269516
 20
113.7073466546515
 10
122.935993079075
 20
114.1730159050234
 10
123.1476618988734
 20
114.6810167661702
 10
123.2323251204235
 20
115.1890068613937
 10
123.1476618988734
 20
115.739350099239
 10
122.97832468985
 20
116.2473401944625
 10
122.6396610377266
 20
116.7130094448343
 10
122.2163233981297
 20
117.1786786952062
 10
121.6659909262078
 20
117.602016334803
 10
121.0309952327359
 20
118.0253432084765
 10
120.3113255517906
 20
118.4063492372984
 10
119.4646610385203
 20
118.7873445001968
 10
118.5333225377766
 20
119.1260081523203
 10
117.5173208154828
 20
119.4646825703671
 10
116.4166558716391
 20
119.7610146117155
 10
115.2313277062453
 20
120.057346653064
 10
113.9613255533781
 20
120.3113470836374
 10
112.6489917897359
 20
120.5230159034359
 10
111.2519948045438
 20
120.7346739573109
 10
109.8549870534282
 20
120.9040111663343
 10
108.3733268466859
 20
121.0310167645827
 10
105.3676532905797
 20
121.2426748184578
 10
102.2773272788469
 20
121.2850171951562
 10
99.18699050119066
 20
121.2426748184578
 10
96.18132771100784
 20
121.0310167645827
 10
94.69965673834222
 20
120.8616795555593
 10
93.30265975315004
 20
120.6923423465359
 10
91.90566276795783
 20
120.4806735267375
 10
90.63566061509066
 20
120.2690154728624
 10
89.36565846222348
 20
120.015015042289
 10
88.180324913868
 20
119.7186830009405
 10
87.12199158079926
 20
119.4223401936687
 10
86.10599524146721
 20
119.0836765415453
 10
85.17466212368518
 20
118.7450128894218
 10
84.37032383822817
 20
118.3640068606
 10
83.60832792946956
 20
117.9406799869265
 10
83.01565846381098
 20
117.5596739581046
 10
82.4653259918891
 20
117.0940154736562
 10
82.04199373525394
 20
116.6706778340593
 10
81.7456616939055
 20
116.1626769729124
 10
81.57632986784376
 20
115.6546761117656
 10
81.53399287410707
 20
115.1466752506187
 10
81.61866147861877
 20
114.5963427786968
 10
81.87266190919222
 20
114.1306735283249
 10
82.21132556131566
 20
113.6226834331015
 10
82.67699481168753
 20
113.1993457935046
 10
83.22732728360939
 20
112.7760081539078
 10
83.904659970818
 20
112.3526812802343
 10
84.66666126253832
 20
111.9716752514124
 10
85.55566276954534
 20
111.633011599289
 10
86.48699050436567
 20
111.2520163363905
 10
87.54532383743443
 20
110.9556735291187
 10
88.68832577501487
 20
110.6593414877703
  0
LINE
  5
88
330
70
100
AcDbEntity
  8
レイヤー 1
 62
    18
420
        0
370
    25
100
AcDbLine
 10
103.7589982515125
 20
120.9040219322577
 30
0.0
 11
103.3779922226906
 21
114.4693479463718
 31
0.0
  0
LINE
  5
89
330
70
100
AcDbEntity
  8
レイヤー 1
 62
    18
420
        0
370
    13
100
AcDbLine
 10
105.1983268474797
 20
120.8616795555593
 30
0.0
 11
104.3516623342094
 21
114.8503539751936
 31
0.0
  0
LINE
  5
8A
330
70
100
AcDbEntity
  8
レイヤー 1
 62
    18
420
        0
370
    25
100
AcDbLine
 10
105.4523272780531
 20
114.3846847248218
 30
0.0
 11
107.653667931664
 21
120.7346847232343
 31
0.0
  0
LINE
  5
8B
330
70
100
AcDbEntity
  8
レイヤー 1
 62
    18
420
        0
370
    13
100
AcDbLine
 10
108.2886636251359
 20
120.6923423465359
 30
0.0
 11
105.9603281392
 21
114.6810060002468
 31
0.0
  0
LINE
  5
8C
330
70
100
AcDbEntity
  8
レイヤー 1
 62
    18
420
        0
370
    25
100
AcDbLine
 10
107.9076575963141
 20
114.2576898924968
 30
0.0
 11
111.0826575955203
 21
120.3960103051874
 31
0.0
  0
LINE
  5
8D
330
70
100
AcDbEntity
  8
レイヤー 1
 62
    18
420
        0
370
    13
100
AcDbLine
 10
111.8023272764656
 20
120.2690154728624
 30
0.0
 11
108.2886636251359
 21
114.5116795571468
 31
0.0
  0
LINE
  5
8E
330
70
100
AcDbEntity
  8
レイヤー 1
 62
    18
420
        0
370
    25
100
AcDbLine
 10
109.9819926516766
 20
114.0036786959999
 30
0.0
 11
114.384663192975
 21
119.845688599189
 31
0.0
  0
LINE
  5
8F
330
70
100
AcDbEntity
  8
レイヤー 1
 62
    18
420
        0
370
    13
100
AcDbLine
 10
114.9349956648969
 20
119.7186722350171
 30
0.0
 11
110.193661471475
 21
114.2576898924968
 31
0.0
  0
SPLINE
  5
90
330
70
100
AcDbEntity
  8
レイヤー 1
 62
    18
420
        0
370
    25
100
AcDbSpline
210
0.0
220
0.0
230
1.0
 70
    24
 71
     3
 72
     8
 73
     4
 74
     0
 42
0.0000000001
 43
0.0000000001
 40
0.0
 40
0.0
 40
0.0
 40
0.0
 40
1.0
 40
1.0
 40
1.0
 40
1.0
 10
117.1363363185078
 20
119.1683505290187
 30
0.0
 10
117.1363363185078
 20
119.1683505290187
 30
0.0
 10
111.8023272764656
 20
113.7496782654265
 30
0.0
 10
111.8023272764656
 20
113.7496782654265
 30
0.0
  0
SPLINE
  5
91
330
70
100
AcDbEntity
  8
レイヤー 1
 62
    18
420
        0
370
    25
100
AcDbSpline
210
0.0
220
0.0
230
1.0
 70
    24
 71
     3
 72
     8
 73
     4
 74
     0
 42
0.0000000001
 43
0.0000000001
 40
0.0
 40
0.0
 40
0.0
 40
0.0
 40
1.0
 40
1.0
 40
1.0
 40
1.0
 10
119.2106606079469
 20
118.4910124588484
 30
0.0
 10
119.2106606079469
 20
118.4910124588484
 30
0.0
 10
113.3263298599062
 20
113.411014613303
 30
0.0
 10
113.3263298599062
 20
113.411014613303
 30
0.0
  0
SPLINE
  5
92
330
70
100
AcDbEntity
  8
レイヤー 1
 62
    18
420
        0
370
    25
100
AcDbSpline
210
0.0
220
0.0
230
1.0
 70
    24
 71
     3
 72
     8
 73
     4
 74
     0
 42
0.0000000001
 43
0.0000000001
 40
0.0
 40
0.0
 40
0.0
 40
0.0
 40
1.0
 40
1.0
 40
1.0
 40
1.0
 10
120.8616687896359
 20
117.6866795563531
 30
0.0
 10
120.8616687896359
 20
117.6866795563531
 30
0.0
 10
114.6809952343234
 20
113.0300085844812
 30
0.0
 10
114.6809952343234
 20
113.0300085844812
 30
0.0
  0
SPLINE
  5
93
330
70
100
AcDbEntity
  8
レイヤー 1
 62
    18
420
        0
370
    25
100
AcDbSpline
210
0.0
220
0.0
230
1.0
 70
    24
 71
     3
 72
     8
 73
     4
 74
     0
 42
0.0000000001
 43
0.0000000001
 40
0.0
 40
0.0
 40
0.0
 40
0.0
 40
1.0
 40
1.0
 40
1.0
 40
1.0
 10
121.9623337334797
 20
116.9246782646327
 30
0.0
 10
121.9623337334797
 20
116.9246782646327
 30
0.0
 10
115.5276597475938
 20
112.6490133215827
 30
0.0
 10
115.5276597475938
 20
112.6490133215827
 30
0.0
  0
SPLINE
  5
94
330
70
100
AcDbEntity
  8
レイヤー 1
 62
    18
420
        0
370
    25
100
AcDbSpline
210
0.0
220
0.0
230
1.0
 70
    24
 71
     3
 72
     8
 73
     4
 74
     0
 42
0.0000000001
 43
0.0000000001
 40
0.0
 40
0.0
 40
0.0
 40
0.0
 40
1.0
 40
1.0
 40
1.0
 40
1.0
 10
122.5973294269516
 20
116.1626769729124
 30
0.0
 10
122.5973294269516
 20
116.1626769729124
 30
0.0
 10
116.120334596214
 20
112.2680072927609
 30
0.0
 10
116.120334596214
 20
112.2680072927609
 30
0.0
  0
SPLINE
  5
95
330
70
100
AcDbEntity
  8
レイヤー 1
 62
    18
420
        0
370
    25
100
AcDbSpline
210
0.0
220
0.0
230
1.0
 70
    24
 71
     3
 72
     8
 73
     4
 74
     0
 42
0.0000000001
 43
0.0000000001
 40
0.0
 40
0.0
 40
0.0
 40
0.0
 40
1.0
 40
1.0
 40
1.0
 40
1.0
 10
116.4589982483375
 20
111.8023488083124
 30
0.0
 10
116.4589982483375
 20
111.8023488083124
 30
0.0
 10
122.851329857525
 20
115.2313492380921
 30
0.0
 10
122.851329857525
 20
115.2313492380921
 30
0.0
  0
SPLINE
  5
96
330
70
100
AcDbEntity
  8
レイヤー 1
 62
    18
420
        0
370
    25
100
AcDbSpline
210
0.0
220
0.0
230
1.0
 70
    24
 71
     3
 72
     8
 73
     4
 74
     0
 42
0.0000000001
 43
0.0000000001
 40
0.0
 40
0.0
 40
0.0
 40
0.0
 40
1.0
 40
1.0
 40
1.0
 40
1.0
 10
122.7243350252
 20
114.5540111679218
 30
0.0
 10
122.7243350252
 20
114.5540111679218
 30
0.0
 10
116.4589982483375
 20
111.4636743902656
 30
0.0
 10
116.4589982483375
 20
111.4636743902656
 30
0.0
  0
SPLINE
  5
97
330
70
100
AcDbEntity
  8
レイヤー 1
 62
    18
420
        0
370
    25
100
AcDbSpline
210
0.0
220
0.0
230
1.0
 70
    24
 71
     3
 72
     8
 73
     4
 74
     0
 42
0.0000000001
 43
0.0000000001
 40
0.0
 40
0.0
 40
0.0
 40
0.0
 40
1.0
 40
1.0
 40
1.0
 40
1.0
 10
116.3743350267875
 20
111.2520163363905
 30
0.0
 10
116.3743350267875
 20
111.2520163363905
 30
0.0
 10
121.5389960938828
 20
113.2416774042796
 30
0.0
 10
121.5389960938828
 20
113.2416774042796
 30
0.0
  0
LWPOLYLINE
  5
98
330
70
100
AcDbEntity
  8
レイヤー 1
 62
    18
420
        0
370
    25
100
AcDbPolyline
 90
        7
 70
     0
 43
0.0
 10
103.3779922226906
 20
114.4693479463718
 10
104.3516623342094
 20
114.8503539751936
 10
105.4523272780531
 20
114.3846847248218
 10
105.9603281392
 20
114.6810060002468
 10
107.9076575963141
 20
114.2576898924968
 10
108.2886636251359
 20
114.5116795571468
 10
109.9819926516766
 20
114.0036786959999
  0
LWPOLYLINE
  5
99
330
70
100
AcDbEntity
  8
レイヤー 1
 62
    18
420
        0
370
    25
100
AcDbPolyline
 90
        3
 70
     0
 43
0.0
 10
111.8023272764656
 20
113.7496674995031
 10
110.193661471475
 20
114.2576898924968
 10
109.9819926516766
 20
114.0036786959999
  0
SPLINE
  5
9A
330
70
100
AcDbEntity
  8
レイヤー 1
 62
    18
420
        0
370
    25
100
AcDbSpline
210
0.0
220
0.0
230
1.0
 70
    24
 71
     3
 72
     8
 73
     4
 74
     0
 42
0.0000000001
 43
0.0000000001
 40
0.0
 40
0.0
 40
0.0
 40
0.0
 40
1.0
 40
1.0
 40
1.0
 40
1.0
 10
113.3263298599062
 20
113.411014613303
 30
0.0
 10
113.3263298599062
 20
113.411014613303
 30
0.0
 10
111.9293221087906
 20
113.8766730977515
 30
0.0
 10
111.9293221087906
 20
113.8766730977515
 30
0.0
  0
SPLINE
  5
9B
330
70
100
AcDbEntity
  8
レイヤー 1
 62
    18
420
        0
370
    25
100
AcDbSpline
210
0.0
220
0.0
230
1.0
 70
    24
 71
     3
 72
     8
 73
     4
 74
     0
 42
0.0000000001
 43
0.0000000001
 40
0.0
 40
0.0
 40
0.0
 40
0.0
 40
1.0
 40
1.0
 40
1.0
 40
1.0
 10
114.6809952343234
 20
113.0300085844812
 30
0.0
 10
114.6809952343234
 20
113.0300085844812
 30
0.0
 10
113.4533246922313
 20
113.4956778348531
 30
0.0
 10
113.4533246922313
 20
113.4956778348531
 30
0.0
  0
SPLINE
  5
9C
330
70
100
AcDbEntity
  8
レイヤー 1
 62
    18
420
        0
370
    25
100
AcDbSpline
210
0.0
220
0.0
230
1.0
 70
    24
 71
     3
 72
     8
 73
     4
 74
     0
 42
0.0000000001
 43
0.0000000001
 40
0.0
 40
0.0
 40
0.0
 40
0.0
 40
1.0
 40
1.0
 40
1.0
 40
1.0
 10
115.5276597475938
 20
112.6490133215827
 30
0.0
 10
115.5276597475938
 20
112.6490133215827
 30
0.0
 10
114.7656584558734
 20
113.0723401952562
 30
0.0
 10
114.7656584558734
 20
113.0723401952562
 30
0.0
  0
SPLINE
  5
9D
330
70
100
AcDbEntity
  8
レイヤー 1
 62
    18
420
        0
370
    25
100
AcDbSpline
210
0.0
220
0.0
230
1.0
 70
    24
 71
     3
 72
     8
 73
     4
 74
     0
 42
0.0000000001
 43
0.0000000001
 40
0.0
 40
0.0
 40
0.0
 40
0.0
 40
1.0
 40
1.0
 40
1.0
 40
1.0
 10
116.1203238302906
 20
112.2680072927609
 30
0.0
 10
116.1203238302906
 20
112.2680072927609
 30
0.0
 10
115.5699913583688
 20
112.6913449323577
 30
0.0
 10
115.5699913583688
 20
112.6913449323577
 30
0.0
  0
LWPOLYLINE
  5
9E
330
70
100
AcDbEntity
  8
レイヤー 1
 62
    18
420
        0
370
    25
100
AcDbPolyline
 90
        3
 70
     0
 43
0.0
 10
116.162666206989
 20
112.3103281376125
 10
116.4589982483375
 20
111.8023488083124
 10
116.5013298591125
 20
111.5060060010406
  0
SPLINE
  5
9F
330
70
100
AcDbEntity
  8
レイヤー 1
 62
    18
420
        0
370
    25
100
AcDbSpline
210
0.0
220
0.0
230
1.0
 70
    24
 71
     3
 72
     8
 73
     4
 74
     0
 42
0.0000000001
 43
0.0000000001
 40
0.0
 40
0.0
 40
0.0
 40
0.0
 40
1.0
 40
1.0
 40
1.0
 40
1.0
 10
116.4589982483375
 20
111.4636743902656
 30
0.0
 10
116.4589982483375
 20
111.4636743902656
 30
0.0
 10
116.3743242608641
 20
111.2519948045438
 30
0.0
 10
116.3743242608641
 20
111.2519948045438
 30
0.0
  0
SPLINE
  5
A0
330
70
100
AcDbEntity
  8
レイヤー 1
 62
    18
420
        0
370
    25
100
AcDbSpline
210
0.0
220
0.0
230
1.0
 70
    24
 71
     3
 72
     8
 73
     4
 74
     0
 42
0.0000000001
 43
0.0000000001
 40
0.0
 40
0.0
 40
0.0
 40
0.0
 40
1.0
 40
1.0
 40
1.0
 40
1.0
 10
103.3779922226906
 20
114.4693479463718
 30
0.0
 10
103.3779922226906
 20
114.4693479463718
 30
0.0
 10
102.4466644878703
 20
114.9350171967437
 30
0.0
 10
102.4466644878703
 20
114.9350171967437
 30
0.0
  0
LWPOLYLINE
  5
A1
330
70
100
AcDbEntity
  8
レイヤー 1
 62
    18
420
        0
370
    25
100
AcDbPolyline
 90
       38
 70
     0
 43
0.0
 10
102.4466752537937
 20
109.7703453637249
 10
103.0393393364906
 20
108.8390068629812
 10
103.6320034191875
 20
109.7703453637249
 10
104.3093414893577
 20
108.8390068629812
 10
104.8173315845812
 20
109.7703453637249
 10
105.7063384745499
 20
108.9236700845312
 10
106.1296653482234
 20
109.8126769744999
 10
107.0610038489671
 20
109.0083440720046
 10
107.2726726687656
 20
109.8973401960499
 10
108.3733376126093
 20
109.0930072935546
 10
108.3733376126093
 20
109.9820034176
 10
109.6433397654765
 20
109.2200021258797
 10
109.4316709456781
 20
110.1090090158484
 10
110.9556735291187
 20
109.3893393349031
 10
110.5323358895218
 20
110.2360038481734
 10
112.1410016945125
 20
109.6010081547015
 10
111.6330008333656
 20
110.3630094464218
 10
113.2839982491312
 20
109.8550085852749
 10
112.6913341664343
 20
110.5323358895218
 10
114.299999971425
 20
110.1513406266234
 10
113.6226726671781
 20
110.7440047093203
 10
115.1466752506187
 20
110.4476726679718
 10
114.4270055696734
 20
110.9980051398937
 10
115.8663341656406
 20
110.8286786967937
 10
114.9773380415953
 20
111.2943371812421
 10
116.2473401944625
 20
111.1250107381421
 10
115.1466752506187
 20
111.633011599289
 10
116.4166666375625
 20
111.4213427794906
 10
114.9773380415953
 20
111.9716752514124
 10
116.4589982483375
 20
111.675343210064
 10
114.5963320127734
 20
112.2680072927609
 10
116.120334596214
 20
112.2680072927609
 10
114.25766836065
 20
112.5220077233343
 10
115.5276705135171
 20
112.6490025556593
 10
113.8343414869765
 20
112.8183397646828
 10
114.6810060002468
 20
113.0300085844812
 10
113.2416666383562
 20
113.1146718060312
 10
113.3263406258296
 20
113.4110038473796
  0
SPLINE
  5
A2
330
70
100
AcDbEntity
  8
レイヤー 1
 62
    18
420
        0
370
    13
100
AcDbSpline
210
0.0
220
0.0
230
1.0
 70
    24
 71
     3
 72
     8
 73
     4
 74
     0
 42
0.0000000001
 43
0.0000000001
 40
0.0
 40
0.0
 40
0.0
 40
0.0
 40
1.0
 40
1.0
 40
1.0
 40
1.0
 10
103.6320034191875
 20
109.7703453637249
 30
0.0
 10
103.6320034191875
 20
109.7703453637249
 30
0.0
 10
103.6320034191875
 20
111.633011599289
 30
0.0
 10
103.6320034191875
 20
111.633011599289
 30
0.0
  0
SPLINE
  5
A3
330
70
100
AcDbEntity
  8
レイヤー 1
 62
    18
420
        0
370
    13
100
AcDbSpline
210
0.0
220
0.0
230
1.0
 70
    24
 71
     3
 72
     8
 73
     4
 74
     0
 42
0.0000000001
 43
0.0000000001
 40
0.0
 40
0.0
 40
0.0
 40
0.0
 40
1.0
 40
1.0
 40
1.0
 40
1.0
 10
104.8173315845812
 20
109.7703453637249
 30
0.0
 10
104.8173315845812
 20
109.7703453637249
 30
0.0
 10
104.6903367522562
 20
111.675343210064
 30
0.0
 10
104.6903367522562
 20
111.675343210064
 30
0.0
  0
SPLINE
  5
A4
330
70
100
AcDbEntity
  8
レイヤー 1
 62
    18
420
        0
370
    13
100
AcDbSpline
210
0.0
220
0.0
230
1.0
 70
    24
 71
     3
 72
     8
 73
     4
 74
     0
 42
0.0000000001
 43
0.0000000001
 40
0.0
 40
0.0
 40
0.0
 40
0.0
 40
1.0
 40
1.0
 40
1.0
 40
1.0
 10
106.1296653482234
 20
109.8126769744999
 30
0.0
 10
106.1296653482234
 20
109.8126769744999
 30
0.0
 10
105.833333306875
 20
111.717674820839
 30
0.0
 10
105.833333306875
 20
111.717674820839
 30
0.0
  0
SPLINE
  5
A5
330
70
100
AcDbEntity
  8
レイヤー 1
 62
    18
420
        0
370
    13
100
AcDbSpline
210
0.0
220
0.0
230
1.0
 70
    24
 71
     3
 72
     8
 73
     4
 74
     0
 42
0.0000000001
 43
0.0000000001
 40
0.0
 40
0.0
 40
0.0
 40
0.0
 40
1.0
 40
1.0
 40
1.0
 40
1.0
 10
107.2726619028422
 20
109.8973401960499
 30
0.0
 10
107.2726619028422
 20
109.8973401960499
 30
0.0
 10
106.8916666399437
 20
111.802338042389
 30
0.0
 10
106.8916666399437
 20
111.802338042389
 30
0.0
  0
SPLINE
  5
A6
330
70
100
AcDbEntity
  8
レイヤー 1
 62
    18
420
        0
370
    13
100
AcDbSpline
210
0.0
220
0.0
230
1.0
 70
    24
 71
     3
 72
     8
 73
     4
 74
     0
 42
0.0000000001
 43
0.0000000001
 40
0.0
 40
0.0
 40
0.0
 40
0.0
 40
1.0
 40
1.0
 40
1.0
 40
1.0
 10
108.3733268466859
 20
109.9820034176
 30
0.0
 10
108.3733268466859
 20
109.9820034176
 30
0.0
 10
107.9499999730125
 20
111.8870120298624
 30
0.0
 10
107.9499999730125
 20
111.8870120298624
 30
0.0
  0
SPLINE
  5
A7
330
70
100
AcDbEntity
  8
レイヤー 1
 62
    18
420
        0
370
    13
100
AcDbSpline
210
0.0
220
0.0
230
1.0
 70
    24
 71
     3
 72
     8
 73
     4
 74
     0
 42
0.0000000001
 43
0.0000000001
 40
0.0
 40
0.0
 40
0.0
 40
0.0
 40
1.0
 40
1.0
 40
1.0
 40
1.0
 10
109.4316601797547
 20
110.1090090158484
 30
0.0
 10
109.4316601797547
 20
110.1090090158484
 30
0.0
 10
108.8813277078328
 20
111.9716752514124
 30
0.0
 10
108.8813277078328
 20
111.9716752514124
 30
0.0
  0
SPLINE
  5
A8
330
70
100
AcDbEntity
  8
レイヤー 1
 62
    18
420
        0
370
    13
100
AcDbSpline
210
0.0
220
0.0
230
1.0
 70
    24
 71
     3
 72
     8
 73
     4
 74
     0
 42
0.0000000001
 43
0.0000000001
 40
0.0
 40
0.0
 40
0.0
 40
0.0
 40
1.0
 40
1.0
 40
1.0
 40
1.0
 10
110.5323358895218
 20
110.2360038481734
 30
0.0
 10
110.5323358895218
 20
110.2360038481734
 30
0.0
 10
109.8126662085765
 20
112.0563384729625
 30
0.0
 10
109.8126662085765
 20
112.0563384729625
 30
0.0
  0
SPLINE
  5
A9
330
70
100
AcDbEntity
  8
レイヤー 1
 62
    18
420
        0
370
    13
100
AcDbSpline
210
0.0
220
0.0
230
1.0
 70
    24
 71
     3
 72
     8
 73
     4
 74
     0
 42
0.0000000001
 43
0.0000000001
 40
0.0
 40
0.0
 40
0.0
 40
0.0
 40
1.0
 40
1.0
 40
1.0
 40
1.0
 10
111.6330008333656
 20
110.3630094464218
 30
0.0
 10
111.6330008333656
 20
110.3630094464218
 30
0.0
 10
110.8286679308703
 20
112.2256756819859
 30
0.0
 10
110.8286679308703
 20
112.2256756819859
 30
0.0
  0
SPLINE
  5
AA
330
70
100
AcDbEntity
  8
レイヤー 1
 62
    18
420
        0
370
    13
100
AcDbSpline
210
0.0
220
0.0
230
1.0
 70
    24
 71
     3
 72
     8
 73
     4
 74
     0
 42
0.0000000001
 43
0.0000000001
 40
0.0
 40
0.0
 40
0.0
 40
0.0
 40
1.0
 40
1.0
 40
1.0
 40
1.0
 10
112.6913341664343
 20
110.5323358895218
 30
0.0
 10
112.6913341664343
 20
110.5323358895218
 30
0.0
 10
111.6753324441406
 20
112.3526705143109
 30
0.0
 10
111.6753324441406
 20
112.3526705143109
 30
0.0
  0
SPLINE
  5
AB
330
70
100
AcDbEntity
  8
レイヤー 1
 62
    18
420
        0
370
    13
100
AcDbSpline
210
0.0
220
0.0
230
1.0
 70
    24
 71
     3
 72
     8
 73
     4
 74
     0
 42
0.0000000001
 43
0.0000000001
 40
0.0
 40
0.0
 40
0.0
 40
0.0
 40
1.0
 40
1.0
 40
1.0
 40
1.0
 10
113.6226619012547
 20
110.7440047093203
 30
0.0
 10
113.6226619012547
 20
110.7440047093203
 30
0.0
 10
112.4373337358609
 20
112.5220077233343
 30
0.0
 10
112.4373337358609
 20
112.5220077233343
 30
0.0
  0
SPLINE
  5
AC
330
70
100
AcDbEntity
  8
レイヤー 1
 62
    18
420
        0
370
    13
100
AcDbSpline
210
0.0
220
0.0
230
1.0
 70
    24
 71
     3
 72
     8
 73
     4
 74
     0
 42
0.0000000001
 43
0.0000000001
 40
0.0
 40
0.0
 40
0.0
 40
0.0
 40
1.0
 40
1.0
 40
1.0
 40
1.0
 10
114.42699480375
 20
110.9980051398937
 30
0.0
 10
114.42699480375
 20
110.9980051398937
 30
0.0
 10
113.1570034168062
 20
112.6913449323577
 30
0.0
 10
113.1570034168062
 20
112.6913449323577
 30
0.0
  0
SPLINE
  5
AD
330
70
100
AcDbEntity
  8
レイヤー 1
 62
    18
420
        0
370
    13
100
AcDbSpline
210
0.0
220
0.0
230
1.0
 70
    24
 71
     3
 72
     8
 73
     4
 74
     0
 42
0.0000000001
 43
0.0000000001
 40
0.0
 40
0.0
 40
0.0
 40
0.0
 40
1.0
 40
1.0
 40
1.0
 40
1.0
 10
114.9773272756719
 20
111.2943371812421
 30
0.0
 10
114.9773272756719
 20
111.2943371812421
 30
0.0
 10
113.8766623318281
 20
112.4796761125593
 30
0.0
 10
113.8766623318281
 20
112.4796761125593
 30
0.0
  0
LWPOLYLINE
  5
AE
330
70
100
AcDbEntity
  8
レイヤー 1
 62
    18
420
        0
370
    25
100
AcDbPolyline
 90
        3
 70
     0
 43
0.0
 10
113.3263298599062
 20
113.411014613303
 10
112.0139960962641
 20
113.4956778348531
 10
111.8023272764656
 20
113.7496674995031
  0
LINE
  5
AF
330
70
100
AcDbEntity
  8
レイヤー 1
 62
    18
420
        0
370
    25
100
AcDbLine
 10
101.0919883475297
 20
120.9040219322577
 30
0.0
 11
101.4729943763516
 21
114.4693479463718
 31
0.0
  0
LINE
  5
B0
330
70
100
AcDbEntity
  8
レイヤー 1
 62
    18
420
        0
370
    13
100
AcDbLine
 10
99.65267051748593
 20
120.8616795555593
 30
0.0
 11
100.5416666415312
 21
114.8503539751936
 31
0.0
  0
LINE
  5
B1
330
70
100
AcDbEntity
  8
レイヤー 1
 62
    18
420
        0
370
    25
100
AcDbLine
 10
99.44099093176411
 20
114.3846847248218
 30
0.0
 11
97.23966104407658
 21
120.7346847232343
 31
0.0
  0
LINE
  5
B2
330
70
100
AcDbEntity
  8
レイヤー 1
 62
    18
420
        0
370
    13
100
AcDbLine
 10
96.5623229739063
 20
120.6923423465359
 30
0.0
 11
98.89066922576562
 21
114.6810060002468
 31
0.0
  0
LINE
  5
B3
330
70
100
AcDbEntity
  8
レイヤー 1
 62
    18
420
        0
370
    25
100
AcDbLine
 10
96.98566061350316
 20
114.2576898924968
 30
0.0
 11
93.8106606142969
 21
120.3960103051874
 31
0.0
  0
LINE
  5
B4
330
70
100
AcDbEntity
  8
レイヤー 1
 62
    18
420
        0
370
    13
100
AcDbLine
 10
93.0486593225766
 20
120.2690154728624
 30
0.0
 11
96.6046653506047
 21
114.5116795571468
 31
0.0
  0
LINE
  5
B5
330
70
100
AcDbEntity
  8
レイヤー 1
 62
    18
420
        0
370
    25
100
AcDbLine
 10
94.91132555814067
 20
114.0036786959999
 30
0.0
 11
90.46633417199062
 21
119.845688599189
 31
0.0
  0
LINE
  5
B6
330
70
100
AcDbEntity
  8
レイヤー 1
 62
    18
420
        0
370
    13
100
AcDbLine
 10
89.91599631710704
 20
119.7186722350171
 30
0.0
 11
94.65733589349062
 21
114.2576898924968
 31
0.0
  0
SPLINE
  5
B7
330
70
100
AcDbEntity
  8
レイヤー 1
 62
    18
420
        0
370
    25
100
AcDbSpline
210
0.0
220
0.0
230
1.0
 70
    24
 71
     3
 72
     8
 73
     4
 74
     0
 42
0.0000000001
 43
0.0000000001
 40
0.0
 40
0.0
 40
0.0
 40
0.0
 40
1.0
 40
1.0
 40
1.0
 40
1.0
 10
87.75699804019454
 20
119.1683505290187
 30
0.0
 10
87.75699804019454
 20
119.1683505290187
 30
0.0
 10
93.09099093335161
 20
113.7496782654265
 30
0.0
 10
93.09099093335161
 20
113.7496782654265
 30
0.0
  0
SPLINE
  5
B8
330
70
100
AcDbEntity
  8
レイヤー 1
 62
    18
420
        0
370
    25
100
AcDbSpline
210
0.0
220
0.0
230
1.0
 70
    24
 71
     3
 72
     8
 73
     4
 74
     0
 42
0.0000000001
 43
0.0000000001
 40
0.0
 40
0.0
 40
0.0
 40
0.0
 40
1.0
 40
1.0
 40
1.0
 40
1.0
 10
85.68266298483205
 20
118.4910124588484
 30
0.0
 10
85.68266298483205
 20
118.4910124588484
 30
0.0
 10
91.52465673913598
 20
113.411014613303
 30
0.0
 10
91.52465673913598
 20
113.411014613303
 30
0.0
  0
SPLINE
  5
B9
330
70
100
AcDbEntity
  8
レイヤー 1
 62
    18
420
        0
370
    25
100
AcDbSpline
210
0.0
220
0.0
230
1.0
 70
    24
 71
     3
 72
     8
 73
     4
 74
     0
 42
0.0000000001
 43
0.0000000001
 40
0.0
 40
0.0
 40
0.0
 40
0.0
 40
1.0
 40
1.0
 40
1.0
 40
1.0
 10
84.03166018610471
 20
117.6866795563531
 30
0.0
 10
84.03166018610471
 20
117.6866795563531
 30
0.0
 10
90.2123283584555
 20
113.0300085844812
 30
0.0
 10
90.2123283584555
 20
113.0300085844812
 30
0.0
  0
SPLINE
  5
BA
330
70
100
AcDbEntity
  8
レイヤー 1
 62
    18
420
        0
370
    25
100
AcDbSpline
210
0.0
220
0.0
230
1.0
 70
    24
 71
     3
 72
     8
 73
     4
 74
     0
 42
0.0000000001
 43
0.0000000001
 40
0.0
 40
0.0
 40
0.0
 40
0.0
 40
1.0
 40
1.0
 40
1.0
 40
1.0
 10
82.88866363148596
 20
116.9246782646327
 30
0.0
 10
82.88866363148596
 20
116.9246782646327
 30
0.0
 10
89.32332685144848
 20
112.6490133215827
 30
0.0
 10
89.32332685144848
 20
112.6490133215827
 30
0.0
  0
SPLINE
  5
BB
330
70
100
AcDbEntity
  8
レイヤー 1
 62
    18
420
        0
370
    25
100
AcDbSpline
210
0.0
220
0.0
230
1.0
 70
    24
 71
     3
 72
     8
 73
     4
 74
     0
 42
0.0000000001
 43
0.0000000001
 40
0.0
 40
0.0
 40
0.0
 40
0.0
 40
1.0
 40
1.0
 40
1.0
 40
1.0
 10
82.29599416582736
 20
116.1626769729124
 30
0.0
 10
82.29599416582736
 20
116.1626769729124
 30
0.0
 10
88.77299437952659
 20
112.2680072927609
 30
0.0
 10
88.77299437952659
 20
112.2680072927609
 30
0.0
  0
SPLINE
  5
BC
330
70
100
AcDbEntity
  8
レイヤー 1
 62
    18
420
        0
370
    25
100
AcDbSpline
210
0.0
220
0.0
230
1.0
 70
    24
 71
     3
 72
     8
 73
     4
 74
     0
 42
0.0000000001
 43
0.0000000001
 40
0.0
 40
0.0
 40
0.0
 40
0.0
 40
1.0
 40
1.0
 40
1.0
 40
1.0
 10
88.39199373366644
 20
111.8023488083124
 30
0.0
 10
88.39199373366644
 20
111.8023488083124
 30
0.0
 10
81.99966212447893
 20
115.2313492380921
 30
0.0
 10
81.99966212447893
 20
115.2313492380921
 30
0.0
  0
SPLINE
  5
BD
330
70
100
AcDbEntity
  8
レイヤー 1
 62
    18
420
        0
370
    25
100
AcDbSpline
210
0.0
220
0.0
230
1.0
 70
    24
 71
     3
 72
     8
 73
     4
 74
     0
 42
0.0000000001
 43
0.0000000001
 40
0.0
 40
0.0
 40
0.0
 40
0.0
 40
1.0
 40
1.0
 40
1.0
 40
1.0
 10
82.16899395054065
 20
114.5540111679218
 30
0.0
 10
82.16899395054065
 20
114.5540111679218
 30
0.0
 10
88.43433072740314
 20
111.4636743902656
 30
0.0
 10
88.43433072740314
 20
111.4636743902656
 30
0.0
  0
SPLINE
  5
BE
330
70
100
AcDbEntity
  8
レイヤー 1
 62
    18
420
        0
370
    25
100
AcDbSpline
210
0.0
220
0.0
230
1.0
 70
    24
 71
     3
 72
     8
 73
     4
 74
     0
 42
0.0000000001
 43
0.0000000001
 40
0.0
 40
0.0
 40
0.0
 40
0.0
 40
1.0
 40
1.0
 40
1.0
 40
1.0
 10
88.47666233817815
 20
111.2520163363905
 30
0.0
 10
88.47666233817815
 20
111.2520163363905
 30
0.0
 10
83.31199588812111
 20
113.2416774042796
 30
0.0
 10
83.31199588812111
 20
113.2416774042796
 30
0.0
  0
LWPOLYLINE
  5
BF
330
70
100
AcDbEntity
  8
レイヤー 1
 62
    18
420
        0
370
    25
100
AcDbPolyline
 90
        9
 70
     0
 43
0.0
 10
101.4729943763516
 20
114.4693479463718
 10
100.5416558756078
 20
114.8503432092703
 10
99.44099093176411
 20
114.3846739588984
 10
98.89065845984223
 20
114.6810060002468
 10
96.98566061350316
 20
114.2576791265734
 10
96.60465458468131
 20
114.5116795571468
 10
94.91132555814067
 20
114.0036786959999
 10
94.86899394736566
 20
114.0036786959999
 10
94.91132555814067
 20
114.0036786959999
  0
LWPOLYLINE
  5
C0
330
70
100
AcDbEntity
  8
レイヤー 1
 62
    18
420
        0
370
    25
100
AcDbPolyline
 90
        3
 70
     0
 43
0.0
 10
93.09099093335161
 20
113.7496674995031
 10
94.65733589349062
 20
114.2576898924968
 10
94.91132555814067
 20
114.0036786959999
  0
SPLINE
  5
C1
330
70
100
AcDbEntity
  8
レイヤー 1
 62
    18
420
        0
370
    25
100
AcDbSpline
210
0.0
220
0.0
230
1.0
 70
    24
 71
     3
 72
     8
 73
     4
 74
     0
 42
0.0000000001
 43
0.0000000001
 40
0.0
 40
0.0
 40
0.0
 40
0.0
 40
1.0
 40
1.0
 40
1.0
 40
1.0
 10
91.52466750505936
 20
113.411014613303
 30
0.0
 10
91.52466750505936
 20
113.411014613303
 30
0.0
 10
92.92166449025158
 20
113.8766730977515
 30
0.0
 10
92.92166449025158
 20
113.8766730977515
 30
0.0
  0
SPLINE
  5
C2
330
70
100
AcDbEntity
  8
レイヤー 1
 62
    18
420
        0
370
    25
100
AcDbSpline
210
0.0
220
0.0
230
1.0
 70
    24
 71
     3
 72
     8
 73
     4
 74
     0
 42
0.0000000001
 43
0.0000000001
 40
0.0
 40
0.0
 40
0.0
 40
0.0
 40
1.0
 40
1.0
 40
1.0
 40
1.0
 10
90.21233374141718
 20
113.0300085844812
 30
0.0
 10
90.21233374141718
 20
113.0300085844812
 30
0.0
 10
91.39766190681097
 20
113.4956778348531
 30
0.0
 10
91.39766190681097
 20
113.4956778348531
 30
0.0
  0
SPLINE
  5
C3
330
70
100
AcDbEntity
  8
レイヤー 1
 62
    18
420
        0
370
    25
100
AcDbSpline
210
0.0
220
0.0
230
1.0
 70
    24
 71
     3
 72
     8
 73
     4
 74
     0
 42
0.0000000001
 43
0.0000000001
 40
0.0
 40
0.0
 40
0.0
 40
0.0
 40
1.0
 40
1.0
 40
1.0
 40
1.0
 10
89.32333223441016
 20
112.6490133215827
 30
0.0
 10
89.32333223441016
 20
112.6490133215827
 30
0.0
 10
90.12766513690548
 20
113.0723401952562
 30
0.0
 10
90.12766513690548
 20
113.0723401952562
 30
0.0
  0
SPLINE
  5
C4
330
70
100
AcDbEntity
  8
レイヤー 1
 62
    18
420
        0
370
    25
100
AcDbSpline
210
0.0
220
0.0
230
1.0
 70
    24
 71
     3
 72
     8
 73
     4
 74
     0
 42
0.0000000001
 43
0.0000000001
 40
0.0
 40
0.0
 40
0.0
 40
0.0
 40
1.0
 40
1.0
 40
1.0
 40
1.0
 10
88.77299976248828
 20
112.2680072927609
 30
0.0
 10
88.77299976248828
 20
112.2680072927609
 30
0.0
 10
89.28100062363515
 20
112.6913449323577
 30
0.0
 10
89.28100062363515
 20
112.6913449323577
 30
0.0
  0
LWPOLYLINE
  5
C5
330
70
100
AcDbEntity
  8
レイヤー 1
 62
    18
420
        0
370
    25
100
AcDbPolyline
 90
        3
 70
     0
 43
0.0
 10
88.73066276875158
 20
112.3103281376125
 10
88.39199373366644
 20
111.8023488083124
 10
88.34966750585312
 20
111.5060060010406
  0
SPLINE
  5
C6
330
70
100
AcDbEntity
  8
レイヤー 1
 62
    18
420
        0
370
    25
100
AcDbSpline
210
0.0
220
0.0
230
1.0
 70
    24
 71
     3
 72
     8
 73
     4
 74
     0
 42
0.0000000001
 43
0.0000000001
 40
0.0
 40
0.0
 40
0.0
 40
0.0
 40
1.0
 40
1.0
 40
1.0
 40
1.0
 10
88.43433072740314
 20
111.4636743902656
 30
0.0
 10
88.43433072740314
 20
111.4636743902656
 30
0.0
 10
88.47666233817815
 20
111.2519948045438
 30
0.0
 10
88.47666233817815
 20
111.2519948045438
 30
0.0
  0
SPLINE
  5
C7
330
70
100
AcDbEntity
  8
レイヤー 1
 62
    18
420
        0
370
    25
100
AcDbSpline
210
0.0
220
0.0
230
1.0
 70
    24
 71
     3
 72
     8
 73
     4
 74
     0
 42
0.0000000001
 43
0.0000000001
 40
0.0
 40
0.0
 40
0.0
 40
0.0
 40
1.0
 40
1.0
 40
1.0
 40
1.0
 10
101.4729943763516
 20
114.4693479463718
 30
0.0
 10
101.4729943763516
 20
114.4693479463718
 30
0.0
 10
102.4466644878703
 20
114.9350171967437
 30
0.0
 10
102.4466644878703
 20
114.9350171967437
 30
0.0
  0
LWPOLYLINE
  5
C8
330
70
100
AcDbEntity
  8
レイヤー 1
 62
    18
420
        0
370
    25
100
AcDbPolyline
 90
       38
 70
     0
 43
0.0
 10
102.4466752537937
 20
109.7703453637249
 10
101.8116687943984
 20
108.8390068629812
 10
101.2613363224765
 20
109.7703453637249
 10
100.5839982523062
 20
108.8390068629812
 10
100.0336657803843
 20
109.7703453637249
 10
99.18700126711406
 20
108.9236700845312
 10
98.7213320167422
 20
109.8126769744999
 10
97.79000428192187
 20
109.0083440720046
 10
97.57833546212344
 20
109.8973401960499
 10
96.5200021290547
 20
109.0930072935546
 10
96.5200021290547
 20
109.9820034176
 10
95.24999997618751
 20
109.2200021258797
 10
95.46166879598592
 20
110.1090090158484
 10
93.89533460177032
 20
109.3893393349031
 10
94.31867224136716
 20
110.2360038481734
 10
92.75233804715155
 20
109.6010081547015
 10
93.26033890829842
 20
110.3630094464218
 10
91.56699911583437
 20
109.8550085852749
 10
92.15967396445465
 20
110.5323358895218
 10
90.55100815946403
 20
110.1513406266234
 10
91.27066707448594
 20
110.7440047093203
 10
89.70433826323201
 20
110.4476726679718
 10
90.46633417199062
 20
110.9980051398937
 10
88.98467396524841
 20
110.8286786967937
 10
89.87367008929373
 20
111.2943371812421
 10
88.64600493016325
 20
111.1250107381421
 10
89.74667525696871
 20
111.633011599289
 10
88.43434149332653
 20
111.4213427794906
 10
89.87367008929373
 20
111.9716752514124
 10
88.39200449958983
 20
111.675343210064
 10
90.2546707351539
 20
112.2680072927609
 10
88.77300514544998
 20
112.2680072927609
 10
90.63567138101404
 20
112.5220077233343
 10
89.32333761737186
 20
112.6490025556593
 10
91.05899825468751
 20
112.8183397646828
 10
90.21233912437889
 20
113.0300085844812
 10
91.65167310330778
 20
113.1146718060312
 10
91.52466750505936
 20
113.4110038473796
  0
SPLINE
  5
C9
330
70
100
AcDbEntity
  8
レイヤー 1
 62
    18
420
        0
370
    13
100
AcDbSpline
210
0.0
220
0.0
230
1.0
 70
    24
 71
     3
 72
     8
 73
     4
 74
     0
 42
0.0000000001
 43
0.0000000001
 40
0.0
 40
0.0
 40
0.0
 40
0.0
 40
1.0
 40
1.0
 40
1.0
 40
1.0
 10
101.2613363224765
 20
109.7703453637249
 30
0.0
 10
101.2613363224765
 20
109.7703453637249
 30
0.0
 10
101.2189939457781
 20
111.633011599289
 30
0.0
 10
101.2189939457781
 20
111.633011599289
 30
0.0
  0
SPLINE
  5
CA
330
70
100
AcDbEntity
  8
レイヤー 1
 62
    18
420
        0
370
    13
100
AcDbSpline
210
0.0
220
0.0
230
1.0
 70
    24
 71
     3
 72
     8
 73
     4
 74
     0
 42
0.0000000001
 43
0.0000000001
 40
0.0
 40
0.0
 40
0.0
 40
0.0
 40
1.0
 40
1.0
 40
1.0
 40
1.0
 10
100.0336657803843
 20
109.7703453637249
 30
0.0
 10
100.0336657803843
 20
109.7703453637249
 30
0.0
 10
100.1606606127094
 20
111.675343210064
 30
0.0
 10
100.1606606127094
 20
111.675343210064
 30
0.0
  0
SPLINE
  5
CB
330
70
100
AcDbEntity
  8
レイヤー 1
 62
    18
420
        0
370
    13
100
AcDbSpline
210
0.0
220
0.0
230
1.0
 70
    24
 71
     3
 72
     8
 73
     4
 74
     0
 42
0.0000000001
 43
0.0000000001
 40
0.0
 40
0.0
 40
0.0
 40
0.0
 40
1.0
 40
1.0
 40
1.0
 40
1.0
 10
98.7213320167422
 20
109.8126769744999
 30
0.0
 10
98.7213320167422
 20
109.8126769744999
 30
0.0
 10
99.01766405809064
 20
111.717674820839
 30
0.0
 10
99.01766405809064
 20
111.717674820839
 30
0.0
  0
SPLINE
  5
CC
330
70
100
AcDbEntity
  8
レイヤー 1
 62
    18
420
        0
370
    13
100
AcDbSpline
210
0.0
220
0.0
230
1.0
 70
    24
 71
     3
 72
     8
 73
     4
 74
     0
 42
0.0000000001
 43
0.0000000001
 40
0.0
 40
0.0
 40
0.0
 40
0.0
 40
1.0
 40
1.0
 40
1.0
 40
1.0
 10
97.57833546212344
 20
109.8973401960499
 30
0.0
 10
97.57833546212344
 20
109.8973401960499
 30
0.0
 10
97.95933072502188
 20
111.802338042389
 30
0.0
 10
97.95933072502188
 20
111.802338042389
 30
0.0
  0
SPLINE
  5
CD
330
70
100
AcDbEntity
  8
レイヤー 1
 62
    18
420
        0
370
    13
100
AcDbSpline
210
0.0
220
0.0
230
1.0
 70
    24
 71
     3
 72
     8
 73
     4
 74
     0
 42
0.0000000001
 43
0.0000000001
 40
0.0
 40
0.0
 40
0.0
 40
0.0
 40
1.0
 40
1.0
 40
1.0
 40
1.0
 10
96.5200021290547
 20
109.9820034176
 30
0.0
 10
96.5200021290547
 20
109.9820034176
 30
0.0
 10
96.90099739195314
 20
111.8870120298624
 30
0.0
 10
96.90099739195314
 20
111.8870120298624
 30
0.0
  0
SPLINE
  5
CE
330
70
100
AcDbEntity
  8
レイヤー 1
 62
    18
420
        0
370
    13
100
AcDbSpline
210
0.0
220
0.0
230
1.0
 70
    24
 71
     3
 72
     8
 73
     4
 74
     0
 42
0.0000000001
 43
0.0000000001
 40
0.0
 40
0.0
 40
0.0
 40
0.0
 40
1.0
 40
1.0
 40
1.0
 40
1.0
 10
95.46166879598592
 20
110.1090090158484
 30
0.0
 10
95.46166879598592
 20
110.1090090158484
 30
0.0
 10
96.0120012679078
 20
111.9716752514124
 30
0.0
 10
96.0120012679078
 20
111.9716752514124
 30
0.0
  0
SPLINE
  5
CF
330
70
100
AcDbEntity
  8
レイヤー 1
 62
    18
420
        0
370
    13
100
AcDbSpline
210
0.0
220
0.0
230
1.0
 70
    24
 71
     3
 72
     8
 73
     4
 74
     0
 42
0.0000000001
 43
0.0000000001
 40
0.0
 40
0.0
 40
0.0
 40
0.0
 40
1.0
 40
1.0
 40
1.0
 40
1.0
 10
94.31866147544377
 20
110.2360038481734
 30
0.0
 10
94.31866147544377
 20
110.2360038481734
 30
0.0
 10
95.03833115638908
 20
112.0563384729625
 30
0.0
 10
95.03833115638908
 20
112.0563384729625
 30
0.0
  0
SPLINE
  5
D0
330
70
100
AcDbEntity
  8
レイヤー 1
 62
    18
420
        0
370
    13
100
AcDbSpline
210
0.0
220
0.0
230
1.0
 70
    24
 71
     3
 72
     8
 73
     4
 74
     0
 42
0.0000000001
 43
0.0000000001
 40
0.0
 40
0.0
 40
0.0
 40
0.0
 40
1.0
 40
1.0
 40
1.0
 40
1.0
 10
93.26032814237503
 20
110.3630094464218
 30
0.0
 10
93.26032814237503
 20
110.3630094464218
 30
0.0
 10
94.02232943409535
 20
112.2256756819859
 30
0.0
 10
94.02232943409535
 20
112.2256756819859
 30
0.0
  0
SPLINE
  5
D1
330
70
100
AcDbEntity
  8
レイヤー 1
 62
    18
420
        0
370
    13
100
AcDbSpline
210
0.0
220
0.0
230
1.0
 70
    24
 71
     3
 72
     8
 73
     4
 74
     0
 42
0.0000000001
 43
0.0000000001
 40
0.0
 40
0.0
 40
0.0
 40
0.0
 40
1.0
 40
1.0
 40
1.0
 40
1.0
 10
92.15966319853126
 20
110.5323358895218
 30
0.0
 10
92.15966319853126
 20
110.5323358895218
 30
0.0
 10
93.17566492082502
 20
112.3526705143109
 30
0.0
 10
93.17566492082502
 20
112.3526705143109
 30
0.0
  0
SPLINE
  5
D2
330
70
100
AcDbEntity
  8
レイヤー 1
 62
    18
420
        0
370
    13
100
AcDbSpline
210
0.0
220
0.0
230
1.0
 70
    24
 71
     3
 72
     8
 73
     4
 74
     0
 42
0.0000000001
 43
0.0000000001
 40
0.0
 40
0.0
 40
0.0
 40
0.0
 40
1.0
 40
1.0
 40
1.0
 40
1.0
 10
91.27066707448594
 20
110.7440047093203
 30
0.0
 10
91.27066707448594
 20
110.7440047093203
 30
0.0
 10
92.4136636291047
 20
112.5220077233343
 30
0.0
 10
92.4136636291047
 20
112.5220077233343
 30
0.0
  0
SPLINE
  5
D3
330
70
100
AcDbEntity
  8
レイヤー 1
 62
    18
420
        0
370
    13
100
AcDbSpline
210
0.0
220
0.0
230
1.0
 70
    24
 71
     3
 72
     8
 73
     4
 74
     0
 42
0.0000000001
 43
0.0000000001
 40
0.0
 40
0.0
 40
0.0
 40
0.0
 40
1.0
 40
1.0
 40
1.0
 40
1.0
 10
90.46633417199062
 20
110.9980051398937
 30
0.0
 10
90.46633417199062
 20
110.9980051398937
 30
0.0
 10
91.73633632485779
 20
112.6913449323577
 30
0.0
 10
91.73633632485779
 20
112.6913449323577
 30
0.0
  0
SPLINE
  5
D4
330
70
100
AcDbEntity
  8
レイヤー 1
 62
    18
420
        0
370
    13
100
AcDbSpline
210
0.0
220
0.0
230
1.0
 70
    24
 71
     3
 72
     8
 73
     4
 74
     0
 42
0.0000000001
 43
0.0000000001
 40
0.0
 40
0.0
 40
0.0
 40
0.0
 40
1.0
 40
1.0
 40
1.0
 40
1.0
 10
89.87366470633205
 20
111.2943371812421
 30
0.0
 10
89.87366470633205
 20
111.2943371812421
 30
0.0
 10
90.9743350331375
 20
112.4796761125593
 30
0.0
 10
90.9743350331375
 20
112.4796761125593
 30
0.0
  0
LWPOLYLINE
  5
D5
330
70
100
AcDbEntity
  8
レイヤー 1
 62
    18
420
        0
370
    25
100
AcDbPolyline
 90
        3
 70
     0
 43
0.0
 10
91.52466750505936
 20
113.411014613303
 10
92.83700126870156
 20
113.4956778348531
 10
93.09099093335161
 20
113.7496674995031
  0
LWPOLYLINE
  5
D6
330
70
100
AcDbEntity
  8
レイヤー 1
 62
    18
420
        0
370
    25
100
AcDbPolyline
 90
       19
 70
     0
 43
0.0
 10
107.5266623334156
 20
226.9490240589311
 10
107.4419883459422
 20
227.1606821128062
 10
107.2303195261438
 20
227.3300085559062
 10
106.8493242632453
 20
227.499356530853
 10
106.2989917913234
 20
227.6686829739531
 10
105.6639853319282
 20
227.7956778062781
 10
104.9443264169062
 20
227.8803410278281
 10
104.1399935144109
 20
227.9650042493781
 10
103.2509866244422
 20
228.0073573919999
 10
102.3619905003969
 20
228.0496890027749
 10
101.4729943763516
 20
228.0073573919999
 10
100.6263190971578
 20
227.9650042493781
 10
99.82198619466256
 20
227.8803410278281
 10
99.05999566886565
 20
227.7956778062781
 10
98.42498920947036
 20
227.6686829739531
 10
97.91698834832349
 20
227.499356530853
 10
97.53599308542504
 20
227.3300085559062
 10
97.3243242656266
 20
227.1606821128062
 10
97.23966104407658
 20
226.9490240589311
  0
SPLINE
  5
D7
330
70
100
AcDbEntity
  8
レイヤー 1
 62
    18
420
        0
370
    25
100
AcDbSpline
210
0.0
220
0.0
230
1.0
 70
    24
 71
     3
 72
     8
 73
     4
 74
     0
 42
0.0000000001
 43
0.0000000001
 40
0.0
 40
0.0
 40
0.0
 40
0.0
 40
1.0
 40
1.0
 40
1.0
 40
1.0
 10
101.9809952374984
 20
216.9583332790938
 30
0.0
 10
101.9809952374984
 20
216.9583332790938
 30
0.0
 10
101.9809952374984
 20
184.1499999539625
 30
0.0
 10
101.9809952374984
 20
184.1499999539625
 30
0.0
  0
SPLINE
  5
D8
330
70
100
AcDbEntity
  8
レイヤー 1
 62
    18
420
        0
370
    25
100
AcDbSpline
210
0.0
220
0.0
230
1.0
 70
    24
 71
     3
 72
     8
 73
     4
 74
     0
 42
0.0000000001
 43
0.0000000001
 40
0.0
 40
0.0
 40
0.0
 40
0.0
 40
1.0
 40
1.0
 40
1.0
 40
1.0
 10
101.9809952374984
 20
178.2233483610703
 30
0.0
 10
101.9809952374984
 20
178.2233483610703
 30
0.0
 10
101.9809952374984
 20
155.2786786856812
 30
0.0
 10
101.9809952374984
 20
155.2786786856812
 30
0.0
  0
LWPOLYLINE
  5
D9
330
70
100
AcDbEntity
  8
レイヤー 1
 62
    18
420
        0
370
    25
100
AcDbPolyline
 90
        8
 70
     0
 43
0.0
 10
97.23966104407658
 20
226.9490240589311
 10
97.3666558764016
 20
225.3403367220938
 10
97.70531952852508
 20
223.7740240597249
 10
98.21332038967193
 20
222.2076898655093
 10
98.89065845984223
 20
220.7260188928437
 10
99.73732297311256
 20
219.3713427525031
 10
100.7533246954063
 20
218.1013513655593
 10
101.9386528608
 20
216.9583548109405
  0
LINE
  5
DA
330
70
100
AcDbEntity
  8
レイヤー 1
 62
    18
420
        0
370
    25
100
AcDbLine
 10
101.8963320159484
 20
155.0246782551077
 30
0.0
 11
101.8963320159484
 21
151.299356549903
 31
0.0
  0
LWPOLYLINE
  5
DB
330
70
100
AcDbEntity
  8
レイヤー 1
 62
    18
420
        0
370
    25
100
AcDbPolyline
 90
       12
 70
     0
 43
0.0
 10
102.3620012663203
 20
151.341688160678
 10
101.0496675026781
 20
151.2570141732046
 10
99.73733373903595
 20
151.0030137426312
 10
98.46733158616878
 20
150.6220184797327
 10
97.28199265485159
 20
150.0716860078108
 10
96.13899610023283
 20
149.3943479376405
 10
95.08066276716409
 20
148.5900150351452
 10
94.14932426642035
 20
147.7010189110999
 10
93.30265975315004
 20
146.6426855780311
 10
92.58300083812812
 20
145.5420206341874
 10
92.03265760028285
 20
144.3143500920952
 10
81.66099847235548
 20
115.9510189190374
  0
LWPOLYLINE
  5
DC
330
70
100
AcDbEntity
  8
レイヤー 1
 62
    18
420
        0
370
    25
100
AcDbPolyline
 90
       18
 70
     0
 43
0.0
 10
102.8276705166921
 20
155.0246782551077
 10
102.8276705166921
 20
155.0670098658827
 10
102.8276705166921
 20
155.1093414766578
 10
102.7853281399938
 20
155.1093414766578
 10
102.7006649184437
 20
155.1516730874328
 10
102.6583333076687
 20
155.1516730874328
 10
102.5736700861187
 20
155.1516730874328
 10
102.4889960986453
 20
155.1940046982078
 10
102.4043328770953
 20
155.1940046982078
 10
102.3196696555453
 20
155.1940046982078
 10
102.2349956680719
 20
155.1940046982078
 10
102.1503324465219
 20
155.1516730874328
 10
102.1080008357468
 20
155.1516730874328
 10
102.0233268482734
 20
155.1516730874328
 10
101.9809952374984
 20
155.1093414766578
 10
101.9386636267234
 20
155.1093414766578
 10
101.9386636267234
 20
155.0670098658827
 10
101.8963320159484
 20
155.0246782551077
  0
LWPOLYLINE
  5
DD
330
70
100
AcDbEntity
  8
レイヤー 1
 62
    18
420
        0
370
    25
100
AcDbPolyline
 90
       21
 70
     0
 43
0.0
 10
102.7853389059171
 20
216.8736700575437
 10
102.8276705166921
 20
216.9160016683187
 10
102.8276705166921
 20
216.9583332790938
 10
102.8276705166921
 20
217.0006648898688
 10
102.7853389059171
 20
217.0006648898688
 10
102.7429965292187
 20
217.0429965006438
 10
102.7006649184437
 20
217.0429965006438
 10
102.6160016968937
 20
217.0853281114188
 10
102.5313384753437
 20
217.0853281114188
 10
102.4466644878703
 20
217.0853281114188
 10
102.3620012663203
 20
217.0853281114188
 10
102.2773380447703
 20
217.0853281114188
 10
102.1926640572969
 20
217.0853281114188
 10
102.1503324465219
 20
217.0853281114188
 10
102.0656692249718
 20
217.0429965006438
 10
102.0233376141968
 20
217.0429965006438
 10
101.9809952374984
 20
217.0006648898688
 10
101.9386636267234
 20
217.0006648898688
 10
101.9386636267234
 20
216.9583332790938
 10
101.9386636267234
 20
216.9160016683187
 10
101.9809952374984
 20
216.8736700575437
  0
SPLINE
  5
DE
330
70
100
AcDbEntity
  8
レイヤー 1
 62
    18
420
        0
370
    13
100
AcDbSpline
210
0.0
220
0.0
230
1.0
 70
    24
 71
     3
 72
     8
 73
     4
 74
     0
 42
0.0000000001
 43
0.0000000001
 40
0.0
 40
0.0
 40
0.0
 40
0.0
 40
1.0
 40
1.0
 40
1.0
 40
1.0
 10
106.4259973895719
 20
186.097340177
 30
0.0
 10
106.4259973895719
 20
186.097340177
 30
0.0
 10
98.34032598792035
 20
182.5413341489719
 30
0.0
 10
98.34032598792035
 20
182.5413341489719
 30
0.0
  0
SPLINE
  5
DF
330
70
100
AcDbEntity
  8
レイヤー 1
 62
    18
420
        0
370
    13
100
AcDbSpline
210
0.0
220
0.0
230
1.0
 70
    24
 71
     3
 72
     8
 73
     4
 74
     0
 42
0.0000000001
 43
0.0000000001
 40
0.0
 40
0.0
 40
0.0
 40
0.0
 40
1.0
 40
1.0
 40
1.0
 40
1.0
 10
106.4259973895719
 20
180.2130094289593
 30
0.0
 10
106.4259973895719
 20
180.2130094289593
 30
0.0
 10
98.34032598792035
 20
176.6146717901562
 30
0.0
 10
98.34032598792035
 20
176.6146717901562
 30
0.0
  0
LWPOLYLINE
  5
E0
330
70
100
AcDbEntity
  8
レイヤー 1
 62
    18
420
        0
370
    13
100
AcDbPolyline
 90
        3
 70
     0
 43
0.0
 10
20.99733348957285
 20
55.88000859876872
 10
20.99733348957285
 20
60.87535398868741
 10
24.12999784078282
 20
60.87535398868741
  0
SPLINE
  5
E1
330
70
100
AcDbEntity
  8
レイヤー 1
 62
    18
420
        0
370
    13
100
AcDbSpline
210
0.0
220
0.0
230
1.0
 70
    24
 71
     3
 72
     8
 73
     4
 74
     0
 42
0.0000000001
 43
0.0000000001
 40
0.0
 40
0.0
 40
0.0
 40
0.0
 40
1.0
 40
1.0
 40
1.0
 40
1.0
 10
20.99733348957285
 20
58.50467612605308
 30
0.0
 10
20.99733348957285
 20
58.50467612605308
 30
0.0
 10
22.90233268165235
 20
58.50467612605308
 30
0.0
 10
22.90233268165235
 20
58.50467612605308
 30
0.0
  0
SPLINE
  5
E2
330
70
100
AcDbEntity
  8
レイヤー 1
 62
    18
420
        0
370
    13
100
AcDbSpline
210
0.0
220
0.0
230
1.0
 70
    24
 71
     3
 72
     8
 73
     4
 74
     0
 42
0.0000000001
 43
0.0000000001
 40
0.0
 40
0.0
 40
0.0
 40
0.0
 40
1.0
 40
1.0
 40
1.0
 40
1.0
 10
20.99733348957285
 20
55.88000859876872
 30
0.0
 10
20.99733348957285
 20
55.88000859876872
 30
0.0
 10
24.12999784078282
 20
55.88000859876872
 30
0.0
 10
24.12999784078282
 20
55.88000859876872
 30
0.0
  0
LWPOLYLINE
  5
E3
330
70
100
AcDbEntity
  8
レイヤー 1
 62
    18
420
        0
370
    13
100
AcDbPolyline
 90
        4
 70
     0
 43
0.0
 10
25.52700020893672
 20
59.90168387716868
 10
26.03499837860275
 20
60.15567354181872
 10
26.71233106581134
 20
60.87535398868741
 10
26.71233106581134
 20
55.88000859876872
  0
LWPOLYLINE
  5
E4
330
70
100
AcDbEntity
  8
レイヤー 1
 62
    18
420
        0
370
    13
100
AcDbPolyline
 90
        3
 70
     0
 43
0.0
 10
29.33699859309571
 20
60.87535398868741
 10
32.68133041836369
 20
60.87535398868741
 10
30.3106660131336
 20
55.88000859876872
  0
LWPOLYLINE
  5
E5
330
70
100
AcDbEntity
  8
レイヤー 1
 62
    18
420
        0
370
    13
100
AcDbPolyline
 90
        3
 70
     0
 43
0.0
 10
41.44433181574298
 20
55.88000859876872
 10
41.78299815934727
 20
56.21866148496877
 10
41.78299815934727
 20
56.51500429224061
  0
LWPOLYLINE
  5
E6
330
70
100
AcDbEntity
  8
レイヤー 1
 62
    18
420
        0
370
    13
100
AcDbPolyline
 90
        3
 70
     0
 43
0.0
 10
39.45466536489219
 20
56.21866148496877
 10
39.79333170849649
 20
55.88000859876872
 10
41.44433181574298
 20
55.88000859876872
  0
LINE
  5
E7
330
70
100
AcDbEntity
  8
レイヤー 1
 62
    18
420
        0
370
    13
100
AcDbLine
 10
41.78299815934727
 20
59.85933073454688
 30
0.0
 11
41.78299815934727
 21
59.18200343029998
 31
0.0
  0
LWPOLYLINE
  5
E8
330
70
100
AcDbEntity
  8
レイヤー 1
 62
    18
420
        0
370
    13
100
AcDbPolyline
 90
        4
 70
     1
 43
0.0
 10
41.10566547213868
 20
57.86965890073441
 10
41.10566547213868
 20
56.51500429224061
 10
37.7613336468707
 20
56.51500429224061
 10
37.7613336468707
 20
57.86965890073441
  0
SPLINE
  5
E9
330
70
100
AcDbEntity
  8
レイヤー 1
 62
    18
420
        0
370
    13
100
AcDbSpline
210
0.0
220
0.0
230
1.0
 70
    24
 71
     3
 72
     8
 73
     4
 74
     0
 42
0.0000000001
 43
0.0000000001
 40
0.0
 40
0.0
 40
0.0
 40
0.0
 40
1.0
 40
1.0
 40
1.0
 40
1.0
 10
39.45466536489219
 20
57.86968043258119
 30
0.0
 10
39.45466536489219
 20
57.86968043258119
 30
0.0
 10
39.45466536489219
 20
56.21867763385386
 30
0.0
 10
39.45466536489219
 20
56.21867763385386
 30
0.0
  0
SPLINE
  5
EA
330
70
100
AcDbEntity
  8
レイヤー 1
 62
    18
420
        0
370
    13
100
AcDbSpline
210
0.0
220
0.0
230
1.0
 70
    24
 71
     3
 72
     8
 73
     4
 74
     0
 42
0.0000000001
 43
0.0000000001
 40
0.0
 40
0.0
 40
0.0
 40
0.0
 40
1.0
 40
1.0
 40
1.0
 40
1.0
 10
39.45466536489219
 20
60.53667957064057
 30
0.0
 10
39.45466536489219
 20
60.53667957064057
 30
0.0
 10
39.45466536489219
 20
58.54701311978979
 30
0.0
 10
39.45466536489219
 20
58.54701311978979
 30
0.0
  0
SPLINE
  5
EB
330
70
100
AcDbEntity
  8
レイヤー 1
 62
    18
420
        0
370
    13
100
AcDbSpline
210
0.0
220
0.0
230
1.0
 70
    24
 71
     3
 72
     8
 73
     4
 74
     0
 42
0.0000000001
 43
0.0000000001
 40
0.0
 40
0.0
 40
0.0
 40
0.0
 40
1.0
 40
1.0
 40
1.0
 40
1.0
 10
37.12632987895627
 20
59.85934688343197
 30
0.0
 10
37.12632987895627
 20
59.85934688343197
 30
0.0
 10
37.12632987895627
 20
59.18200881326168
 30
0.0
 10
37.12632987895627
 20
59.18200881326168
 30
0.0
  0
SPLINE
  5
EC
330
70
100
AcDbEntity
  8
レイヤー 1
 62
    18
420
        0
370
    13
100
AcDbSpline
210
0.0
220
0.0
230
1.0
 70
    24
 71
     3
 72
     8
 73
     4
 74
     0
 42
0.0000000001
 43
0.0000000001
 40
0.0
 40
0.0
 40
0.0
 40
0.0
 40
1.0
 40
1.0
 40
1.0
 40
1.0
 10
37.76133095538986
 20
57.1923423624109
 30
0.0
 10
37.76133095538986
 20
57.1923423624109
 30
0.0
 10
41.10566278065783
 20
57.1923423624109
 30
0.0
 10
41.10566278065783
 20
57.1923423624109
 30
0.0
  0
SPLINE
  5
ED
330
70
100
AcDbEntity
  8
レイヤー 1
 62
    18
420
        0
370
    13
100
AcDbSpline
210
0.0
220
0.0
230
1.0
 70
    24
 71
     3
 72
     8
 73
     4
 74
     0
 42
0.0000000001
 43
0.0000000001
 40
0.0
 40
0.0
 40
0.0
 40
0.0
 40
1.0
 40
1.0
 40
1.0
 40
1.0
 10
40.08966374984494
 20
58.54701311978979
 30
0.0
 10
40.08966374984494
 20
58.54701311978979
 30
0.0
 10
41.10566278065783
 20
58.54701311978979
 30
0.0
 10
41.10566278065783
 20
58.54701311978979
 30
0.0
  0
SPLINE
  5
EE
330
70
100
AcDbEntity
  8
レイヤー 1
 62
    18
420
        0
370
    13
100
AcDbSpline
210
0.0
220
0.0
230
1.0
 70
    24
 71
     3
 72
     8
 73
     4
 74
     0
 42
0.0000000001
 43
0.0000000001
 40
0.0
 40
0.0
 40
0.0
 40
0.0
 40
1.0
 40
1.0
 40
1.0
 40
1.0
 10
37.76133095538986
 20
58.54701311978979
 30
0.0
 10
37.76133095538986
 20
58.54701311978979
 30
0.0
 10
38.77732998620275
 20
58.54701311978979
 30
0.0
 10
38.77732998620275
 20
58.54701311978979
 30
0.0
  0
SPLINE
  5
EF
330
70
100
AcDbEntity
  8
レイヤー 1
 62
    18
420
        0
370
    13
100
AcDbSpline
210
0.0
220
0.0
230
1.0
 70
    24
 71
     3
 72
     8
 73
     4
 74
     0
 42
0.0000000001
 43
0.0000000001
 40
0.0
 40
0.0
 40
0.0
 40
0.0
 40
1.0
 40
1.0
 40
1.0
 40
1.0
 10
40.08966374984494
 20
59.18200881326168
 30
0.0
 10
40.08966374984494
 20
59.18200881326168
 30
0.0
 10
41.10566278065783
 20
59.18200881326168
 30
0.0
 10
41.10566278065783
 20
59.18200881326168
 30
0.0
  0
SPLINE
  5
F0
330
70
100
AcDbEntity
  8
レイヤー 1
 62
    18
420
        0
370
    13
100
AcDbSpline
210
0.0
220
0.0
230
1.0
 70
    24
 71
     3
 72
     8
 73
     4
 74
     0
 42
0.0000000001
 43
0.0000000001
 40
0.0
 40
0.0
 40
0.0
 40
0.0
 40
1.0
 40
1.0
 40
1.0
 40
1.0
 10
37.76133095538986
 20
59.18200881326168
 30
0.0
 10
37.76133095538986
 20
59.18200881326168
 30
0.0
 10
38.77732998620275
 20
59.18200881326168
 30
0.0
 10
38.77732998620275
 20
59.18200881326168
 30
0.0
  0
SPLINE
  5
F1
330
70
100
AcDbEntity
  8
レイヤー 1
 62
    18
420
        0
370
    13
100
AcDbSpline
210
0.0
220
0.0
230
1.0
 70
    24
 71
     3
 72
     8
 73
     4
 74
     0
 42
0.0000000001
 43
0.0000000001
 40
0.0
 40
0.0
 40
0.0
 40
0.0
 40
1.0
 40
1.0
 40
1.0
 40
1.0
 10
37.12632987895627
 20
59.85934688343197
 30
0.0
 10
37.12632987895627
 20
59.85934688343197
 30
0.0
 10
41.78299815934727
 20
59.85934688343197
 30
0.0
 10
41.78299815934727
 20
59.85934688343197
 30
0.0
  0
SPLINE
  5
F2
330
70
100
AcDbEntity
  8
レイヤー 1
 62
    18
420
        0
370
    13
100
AcDbSpline
210
0.0
220
0.0
230
1.0
 70
    24
 71
     3
 72
     8
 73
     4
 74
     0
 42
0.0000000001
 43
0.0000000001
 40
0.0
 40
0.0
 40
0.0
 40
0.0
 40
1.0
 40
1.0
 40
1.0
 40
1.0
 10
37.42266461178556
 20
60.53667957064057
 30
0.0
 10
37.42266461178556
 20
60.53667957064057
 30
0.0
 10
41.44433181574298
 20
60.53667957064057
 30
0.0
 10
41.44433181574298
 20
60.53667957064057
 30
0.0
  0
SPLINE
  5
F3
330
70
100
AcDbEntity
  8
レイヤー 1
 62
    18
420
        0
370
    13
100
AcDbSpline
210
0.0
220
0.0
230
1.0
 70
    24
 71
     3
 72
     8
 73
     4
 74
     0
 42
0.0000000001
 43
0.0000000001
 40
0.0
 40
0.0
 40
0.0
 40
0.0
 40
1.0
 40
1.0
 40
1.0
 40
1.0
 10
46.77833009186173
 20
60.53667957064057
 30
0.0
 10
46.77833009186173
 20
60.53667957064057
 30
0.0
 10
47.45566277907033
 20
60.19801053555543
 30
0.0
 10
47.45566277907033
 20
60.19801053555543
 30
0.0
  0
LWPOLYLINE
  5
F4
330
70
100
AcDbEntity
  8
レイヤー 1
 62
    18
420
        0
370
    13
100
AcDbPolyline
 90
        4
 70
     0
 43
0.0
 10
47.75199482041877
 20
56.51500429224061
 10
47.11699912694688
 20
57.19233159648752
 10
46.77833009186173
 20
57.86965890073441
 10
46.10099740465313
 20
58.88568215487493
  0
SPLINE
  5
F5
330
70
100
AcDbEntity
  8
レイヤー 1
 62
    18
420
        0
370
    13
100
AcDbSpline
210
0.0
220
0.0
230
1.0
 70
    24
 71
     3
 72
     8
 73
     4
 74
     0
 42
0.0000000001
 43
0.0000000001
 40
0.0
 40
0.0
 40
0.0
 40
0.0
 40
1.0
 40
1.0
 40
1.0
 40
1.0
 10
47.45566277907033
 20
58.88568215487493
 30
0.0
 10
47.45566277907033
 20
58.88568215487493
 30
0.0
 10
46.77833009186173
 20
58.20833331878125
 30
0.0
 10
46.77833009186173
 20
58.20833331878125
 30
0.0
  0
SPLINE
  5
F6
330
70
100
AcDbEntity
  8
レイヤー 1
 62
    18
420
        0
370
    13
100
AcDbSpline
210
0.0
220
0.0
230
1.0
 70
    24
 71
     3
 72
     8
 73
     4
 74
     0
 42
0.0000000001
 43
0.0000000001
 40
0.0
 40
0.0
 40
0.0
 40
0.0
 40
1.0
 40
1.0
 40
1.0
 40
1.0
 10
44.7886663324918
 20
56.85367871028745
 30
0.0
 10
44.7886663324918
 20
56.85367871028745
 30
0.0
 10
45.76233375252968
 20
57.86965890073441
 30
0.0
 10
45.76233375252968
 20
57.86965890073441
 30
0.0
  0
SPLINE
  5
F7
330
70
100
AcDbEntity
  8
レイヤー 1
 62
    18
420
        0
370
    13
100
AcDbSpline
210
0.0
220
0.0
230
1.0
 70
    24
 71
     3
 72
     8
 73
     4
 74
     0
 42
0.0000000001
 43
0.0000000001
 40
0.0
 40
0.0
 40
0.0
 40
0.0
 40
1.0
 40
1.0
 40
1.0
 40
1.0
 10
45.08499837384024
 20
58.88568215487493
 30
0.0
 10
45.08499837384024
 20
58.88568215487493
 30
0.0
 10
45.42366471744454
 20
58.54700773682809
 30
0.0
 10
45.42366471744454
 20
58.54700773682809
 30
0.0
  0
LWPOLYLINE
  5
F8
330
70
100
AcDbEntity
  8
レイヤー 1
 62
    18
420
        0
370
    13
100
AcDbPolyline
 90
        3
 70
     0
 43
0.0
 10
44.4499999888875
 20
57.53100601453435
 10
43.77266730167891
 20
56.85367871028745
 10
43.0953346144703
 20
56.85367871028745
  0
LINE
  5
F9
330
70
100
AcDbEntity
  8
レイヤー 1
 62
    18
420
        0
370
    13
100
AcDbLine
 10
43.77266730167891
 20
56.85367871028745
 30
0.0
 11
43.77266730167891
 21
60.19800515259372
 31
0.0
  0
LWPOLYLINE
  5
FA
330
70
100
AcDbEntity
  8
レイヤー 1
 62
    18
420
        0
370
    13
100
AcDbPolyline
 90
        3
 70
     0
 43
0.0
 10
46.10099740465313
 20
60.87535398868741
 10
46.10099740465313
 20
55.88000859876872
 10
45.42366471744454
 20
55.88000859876872
  0
SPLINE
  5
FB
330
70
100
AcDbEntity
  8
レイヤー 1
 62
    18
420
        0
370
    13
100
AcDbSpline
210
0.0
220
0.0
230
1.0
 70
    24
 71
     3
 72
     8
 73
     4
 74
     0
 42
0.0000000001
 43
0.0000000001
 40
0.0
 40
0.0
 40
0.0
 40
0.0
 40
1.0
 40
1.0
 40
1.0
 40
1.0
 10
43.0953346144703
 20
58.54700773682809
 30
0.0
 10
43.0953346144703
 20
58.54700773682809
 30
0.0
 10
44.4499999888875
 20
58.54700773682809
 30
0.0
 10
44.4499999888875
 20
58.54700773682809
 30
0.0
  0
SPLINE
  5
FC
330
70
100
AcDbEntity
  8
レイヤー 1
 62
    18
420
        0
370
    13
100
AcDbSpline
210
0.0
220
0.0
230
1.0
 70
    24
 71
     3
 72
     8
 73
     4
 74
     0
 42
0.0000000001
 43
0.0000000001
 40
0.0
 40
0.0
 40
0.0
 40
0.0
 40
1.0
 40
1.0
 40
1.0
 40
1.0
 10
44.7886663324918
 20
59.52067784834683
 30
0.0
 10
44.7886663324918
 20
59.52067784834683
 30
0.0
 10
47.75199482041877
 20
59.52067784834683
 30
0.0
 10
47.75199482041877
 20
59.52067784834683
 30
0.0
  0
SPLINE
  5
FD
330
70
100
AcDbEntity
  8
レイヤー 1
 62
    18
420
        0
370
    13
100
AcDbSpline
210
0.0
220
0.0
230
1.0
 70
    24
 71
     3
 72
     8
 73
     4
 74
     0
 42
0.0000000001
 43
0.0000000001
 40
0.0
 40
0.0
 40
0.0
 40
0.0
 40
1.0
 40
1.0
 40
1.0
 40
1.0
 10
43.0953346144703
 20
60.19800515259372
 30
0.0
 10
43.0953346144703
 20
60.19800515259372
 30
0.0
 10
44.4499999888875
 20
60.19800515259372
 30
0.0
 10
44.4499999888875
 20
60.19800515259372
 30
0.0
  0
LWPOLYLINE
  5
FE
330
70
100
AcDbEntity
  8
レイヤー 1
 62
    18
420
        0
370
    13
100
AcDbPolyline
 90
        3
 70
     0
 43
0.0
 10
49.78399826500626
 20
58.54700773682809
 10
49.44533461288281
 20
58.20833331878125
 10
49.10666557779766
 20
58.20833331878125
  0
LINE
  5
FF
330
70
100
AcDbEntity
  8
レイヤー 1
 62
    18
420
        0
370
    13
100
AcDbLine
 10
50.12266730009141
 20
59.18200343029998
 30
0.0
 11
49.78399826500626
 21
58.54700773682809
 31
0.0
  0
LWPOLYLINE
  5
100
330
70
100
AcDbEntity
  8
レイヤー 1
 62
    18
420
        0
370
    13
100
AcDbPolyline
 90
        3
 70
     0
 43
0.0
 10
53.76333116670782
 20
60.87535398868741
 10
53.76333116670782
 20
58.20833331878125
 10
53.08599847949922
 20
58.20833331878125
  0
SPLINE
  5
101
330
70
100
AcDbEntity
  8
レイヤー 1
 62
    18
420
        0
370
    13
100
AcDbSpline
210
0.0
220
0.0
230
1.0
 70
    24
 71
     3
 72
     8
 73
     4
 74
     0
 42
0.0000000001
 43
0.0000000001
 40
0.0
 40
0.0
 40
0.0
 40
0.0
 40
1.0
 40
1.0
 40
1.0
 40
1.0
 10
52.78966643815078
 20
60.53667957064057
 30
0.0
 10
52.78966643815078
 20
60.53667957064057
 30
0.0
 10
52.78966643815078
 20
58.88567677191324
 30
0.0
 10
52.78966643815078
 20
58.88567677191324
 30
0.0
  0
SPLINE
  5
102
330
70
100
AcDbEntity
  8
レイヤー 1
 62
    18
420
        0
370
    13
100
AcDbSpline
210
0.0
220
0.0
230
1.0
 70
    24
 71
     3
 72
     8
 73
     4
 74
     0
 42
0.0000000001
 43
0.0000000001
 40
0.0
 40
0.0
 40
0.0
 40
0.0
 40
1.0
 40
1.0
 40
1.0
 40
1.0
 10
51.43499568077189
 20
57.8696750496195
 30
0.0
 10
51.43499568077189
 20
57.8696750496195
 30
0.0
 10
51.43499568077189
 20
55.88000859876872
 30
0.0
 10
51.43499568077189
 20
55.88000859876872
 30
0.0
  0
SPLINE
  5
103
330
70
100
AcDbEntity
  8
レイヤー 1
 62
    18
420
        0
370
    13
100
AcDbSpline
210
0.0
220
0.0
230
1.0
 70
    24
 71
     3
 72
     8
 73
     4
 74
     0
 42
0.0000000001
 43
0.0000000001
 40
0.0
 40
0.0
 40
0.0
 40
0.0
 40
1.0
 40
1.0
 40
1.0
 40
1.0
 10
51.09633202864845
 20
60.53667957064057
 30
0.0
 10
51.09633202864845
 20
60.53667957064057
 30
0.0
 10
51.09633202864845
 20
58.20834408470464
 30
0.0
 10
51.09633202864845
 20
58.20834408470464
 30
0.0
  0
SPLINE
  5
104
330
70
100
AcDbEntity
  8
レイヤー 1
 62
    18
420
        0
370
    13
100
AcDbSpline
210
0.0
220
0.0
230
1.0
 70
    24
 71
     3
 72
     8
 73
     4
 74
     0
 42
0.0000000001
 43
0.0000000001
 40
0.0
 40
0.0
 40
0.0
 40
0.0
 40
1.0
 40
1.0
 40
1.0
 40
1.0
 10
50.12266191712971
 20
60.53667957064057
 30
0.0
 10
50.12266191712971
 20
60.53667957064057
 30
0.0
 10
50.12266191712971
 20
59.18200881326168
 30
0.0
 10
50.12266191712971
 20
59.18200881326168
 30
0.0
  0
SPLINE
  5
105
330
70
100
AcDbEntity
  8
レイヤー 1
 62
    18
420
        0
370
    13
100
AcDbSpline
210
0.0
220
0.0
230
1.0
 70
    24
 71
     3
 72
     8
 73
     4
 74
     0
 42
0.0000000001
 43
0.0000000001
 40
0.0
 40
0.0
 40
0.0
 40
0.0
 40
1.0
 40
1.0
 40
1.0
 40
1.0
 10
49.10666557779766
 20
55.88000859876872
 30
0.0
 10
49.10666557779766
 20
55.88000859876872
 30
0.0
 10
53.76333116670782
 20
55.88000859876872
 30
0.0
 10
53.76333116670782
 20
55.88000859876872
 30
0.0
  0
SPLINE
  5
106
330
70
100
AcDbEntity
  8
レイヤー 1
 62
    18
420
        0
370
    13
100
AcDbSpline
210
0.0
220
0.0
230
1.0
 70
    24
 71
     3
 72
     8
 73
     4
 74
     0
 42
0.0000000001
 43
0.0000000001
 40
0.0
 40
0.0
 40
0.0
 40
0.0
 40
1.0
 40
1.0
 40
1.0
 40
1.0
 10
49.78399826500626
 20
57.1923423624109
 30
0.0
 10
49.78399826500626
 20
57.1923423624109
 30
0.0
 10
53.08599847949922
 20
57.1923423624109
 30
0.0
 10
53.08599847949922
 20
57.1923423624109
 30
0.0
  0
SPLINE
  5
107
330
70
100
AcDbEntity
  8
レイヤー 1
 62
    18
420
        0
370
    13
100
AcDbSpline
210
0.0
220
0.0
230
1.0
 70
    24
 71
     3
 72
     8
 73
     4
 74
     0
 42
0.0000000001
 43
0.0000000001
 40
0.0
 40
0.0
 40
0.0
 40
0.0
 40
1.0
 40
1.0
 40
1.0
 40
1.0
 10
49.10666557779766
 20
59.52067784834683
 30
0.0
 10
49.10666557779766
 20
59.52067784834683
 30
0.0
 10
52.1123283679805
 20
59.52067784834683
 30
0.0
 10
52.1123283679805
 20
59.52067784834683
 30
0.0
  0
SPLINE
  5
108
330
70
100
AcDbEntity
  8
レイヤー 1
 62
    18
420
        0
370
    13
100
AcDbSpline
210
0.0
220
0.0
230
1.0
 70
    24
 71
     3
 72
     8
 73
     4
 74
     0
 42
0.0000000001
 43
0.0000000001
 40
0.0
 40
0.0
 40
0.0
 40
0.0
 40
1.0
 40
1.0
 40
1.0
 40
1.0
 10
49.44532922992111
 20
60.53667957064057
 30
0.0
 10
49.44532922992111
 20
60.53667957064057
 30
0.0
 10
51.77366471585704
 20
60.53667957064057
 30
0.0
 10
51.77366471585704
 20
60.53667957064057
 30
0.0
  0
LWPOLYLINE
  5
109
330
70
100
AcDbEntity
  8
レイヤー 1
 62
    18
420
        0
370
    13
100
AcDbPolyline
 90
        3
 70
     0
 43
0.0
 10
55.11800192408671
 20
60.87535398868741
 10
55.11800192408671
 20
55.88000859876872
 10
57.95432750524612
 20
55.88000859876872
  0
LWPOLYLINE
  5
10A
330
70
100
AcDbEntity
  8
レイヤー 1
 62
    18
420
        0
370
    13
100
AcDbPolyline
 90
        3
 70
     0
 43
0.0
 10
59.13966643656328
 20
55.88000859876872
 10
59.13966643656328
 20
60.87535398868741
 10
62.22999783125782
 20
60.87535398868741
  0
SPLINE
  5
10B
330
70
100
AcDbEntity
  8
レイヤー 1
 62
    18
420
        0
370
    13
100
AcDbSpline
210
0.0
220
0.0
230
1.0
 70
    24
 71
     3
 72
     8
 73
     4
 74
     0
 42
0.0000000001
 43
0.0000000001
 40
0.0
 40
0.0
 40
0.0
 40
0.0
 40
1.0
 40
1.0
 40
1.0
 40
1.0
 10
59.13966643656328
 20
58.50467612605308
 30
0.0
 10
59.13966643656328
 20
58.50467612605308
 30
0.0
 10
61.04466428290235
 20
58.50467612605308
 30
0.0
 10
61.04466428290235
 20
58.50467612605308
 30
0.0
  0
SPLINE
  5
10C
330
70
100
AcDbEntity
  8
レイヤー 1
 62
    18
420
        0
370
    13
100
AcDbSpline
210
0.0
220
0.0
230
1.0
 70
    24
 71
     3
 72
     8
 73
     4
 74
     0
 42
0.0000000001
 43
0.0000000001
 40
0.0
 40
0.0
 40
0.0
 40
0.0
 40
1.0
 40
1.0
 40
1.0
 40
1.0
 10
59.13966643656328
 20
55.88000859876872
 30
0.0
 10
59.13966643656328
 20
55.88000859876872
 30
0.0
 10
62.22999783125782
 20
55.88000859876872
 30
0.0
 10
62.22999783125782
 20
55.88000859876872
 30
0.0
  0
LWPOLYLINE
  5
10D
330
70
100
AcDbEntity
  8
レイヤー 1
 62
    18
420
        0
370
    13
100
AcDbPolyline
 90
       12
 70
     1
 43
0.0
 10
63.66933181018673
 20
55.88000859876872
 10
63.66933181018673
 20
60.87533783980233
 10
65.32032922595236
 20
60.87533783980233
 10
66.03999352393596
 20
60.62133740922889
 10
66.54799438508284
 20
60.15567354181872
 10
66.75966320488126
 20
59.69000429144686
 10
67.01366363545471
 20
58.97033999346326
 10
67.01366363545471
 20
57.78500644510779
 10
66.75966320488126
 20
57.06533676416249
 10
66.54799438508284
 20
56.59967289675232
 10
66.03999352393596
 20
56.09167203560545
 10
65.32032922595236
 20
55.88000859876872
  0
LWPOLYLINE
  5
10E
330
70
100
AcDbEntity
  8
レイヤー 1
 62
    18
420
        0
370
    13
100
AcDbPolyline
 90
        3
 70
     0
 43
0.0
 10
71.33166557224142
 20
56.51500429224061
 10
70.65433288503282
 20
56.21866148496877
 10
70.01933719156092
 20
56.21866148496877
  0
LWPOLYLINE
  5
10F
330
70
100
AcDbEntity
  8
レイヤー 1
 62
    18
420
        0
370
    13
100
AcDbPolyline
 90
        6
 70
     0
 43
0.0
 10
71.33166557224142
 20
56.51500429224061
 10
72.00899825945
 20
56.85367871028745
 10
72.6863309466586
 20
57.53100601453435
 10
72.98266298800704
 20
58.20833331878125
 10
72.98266298800704
 20
58.88568215487493
 10
69.00333008630548
 20
58.88568215487493
  0
LINE
  5
110
330
70
100
AcDbEntity
  8
レイヤー 1
 62
    18
420
        0
370
    13
100
AcDbLine
 10
69.34199373842893
 20
60.19800515259372
 30
0.0
 11
72.6863309466586
 21
60.19800515259372
 31
0.0
  0
LWPOLYLINE
  5
111
330
70
100
AcDbEntity
  8
レイヤー 1
 62
    18
420
        0
370
    13
100
AcDbPolyline
 90
        3
 70
     0
 43
0.0
 10
78.65533029921095
 20
57.86965890073441
 10
78.9939993342961
 20
58.54700773682809
 10
78.9939993342961
 20
59.18200343029998
  0
LWPOLYLINE
  5
112
330
70
100
AcDbEntity
  8
レイヤー 1
 62
    18
420
        0
370
    13
100
AcDbPolyline
 90
        3
 70
     0
 43
0.0
 10
78.65533029921095
 20
57.86965890073441
 10
77.68166557065391
 20
56.85367871028745
 10
76.32700019623673
 20
56.21866148496877
  0
SPLINE
  5
113
330
70
100
AcDbEntity
  8
レイヤー 1
 62
    18
420
        0
370
    13
100
AcDbSpline
210
0.0
220
0.0
230
1.0
 70
    24
 71
     3
 72
     8
 73
     4
 74
     0
 42
0.0000000001
 43
0.0000000001
 40
0.0
 40
0.0
 40
0.0
 40
0.0
 40
1.0
 40
1.0
 40
1.0
 40
1.0
 10
75.35333008471798
 20
60.19800515259372
 30
0.0
 10
75.35333008471798
 20
60.19800515259372
 30
0.0
 10
76.66566923132187
 20
59.52067784834683
 30
0.0
 10
76.66566923132187
 20
59.52067784834683
 30
0.0
  0
SPLINE
  5
114
330
70
100
AcDbEntity
  8
レイヤー 1
 62
    18
420
        0
370
    13
100
AcDbSpline
210
0.0
220
0.0
230
1.0
 70
    24
 71
     3
 72
     8
 73
     4
 74
     0
 42
0.0000000001
 43
0.0000000001
 40
0.0
 40
0.0
 40
0.0
 40
0.0
 40
1.0
 40
1.0
 40
1.0
 40
1.0
 10
75.64966750902812
 20
56.21866148496877
 30
0.0
 10
75.64966750902812
 20
56.21866148496877
 30
0.0
 10
76.32700019623673
 20
56.21866148496877
 30
0.0
 10
76.32700019623673
 20
56.21866148496877
 30
0.0
  0
LWPOLYLINE
  5
115
330
70
100
AcDbEntity
  8
レイヤー 1
 62
    18
420
        0
370
    13
100
AcDbPolyline
 90
        9
 70
     0
 43
0.0
 10
81.32232943727032
 20
56.21868301681556
 10
81.99966212447893
 20
56.21868301681556
 10
83.35432749889612
 20
56.85367871028745
 10
83.98932857532971
 20
57.53101139749604
 10
84.32799222745316
 20
58.20834946766634
 10
84.66666126253832
 20
58.88568215487493
 10
84.66666126253832
 20
59.52067784834683
 10
83.98932857532971
 20
59.85934688343197
 10
80.98366040218518
 20
59.85934688343197
  0
LWPOLYLINE
  5
116
330
70
100
AcDbEntity
  8
レイヤー 1
 62
    18
420
        0
370
    13
100
AcDbPolyline
 90
        8
 70
     1
 43
0.0
 10
84.6666666455
 20
60.87535398868741
 10
85.00533029762346
 20
60.87535398868741
 10
85.3439993327086
 20
60.53668495360227
 10
85.3439993327086
 20
60.19801591851712
 10
85.00533029762346
 20
59.85935226639367
 10
84.6666666455
 20
59.85935226639367
 10
84.32799761041485
 20
60.19801591851712
 10
84.32799761041485
 20
60.53668495360227
  0
LWPOLYLINE
  5
117
330
70
100
AcDbEntity
  8
レイヤー 1
 62
    18
420
        0
370
    13
100
AcDbPolyline
 90
        3
 70
     0
 43
0.0
 10
89.6620012694953
 20
60.87535398868741
 10
89.6620012694953
 20
55.88000859876872
 10
92.54066922735312
 20
55.88000859876872
  0
LWPOLYLINE
  5
118
330
70
100
AcDbEntity
  8
レイヤー 1
 62
    18
420
        0
370
    13
100
AcDbPolyline
 90
       12
 70
     1
 43
0.0
 10
93.72599739274688
 20
55.88000859876872
 10
93.72599739274688
 20
60.87533783980233
 10
95.37699480851252
 20
60.87533783980233
 10
96.09665372353443
 20
60.62133740922889
 10
96.5623229739063
 20
60.15567354181872
 10
96.81632340447974
 20
59.69000429144686
 10
97.02799222427817
 20
58.97033999346326
 10
97.02799222427817
 20
57.78500644510779
 10
96.81632340447974
 20
57.06533676416249
 10
96.5623229739063
 20
56.59967289675232
 10
96.09665372353443
 20
56.09167203560545
 10
95.37699480851252
 20
55.88000859876872
  0
LWPOLYLINE
  5
119
330
70
100
AcDbEntity
  8
レイヤー 1
 62
    18
420
        0
370
    13
100
AcDbPolyline
 90
        3
 70
     0
 43
0.0
 10
98.7213320167422
 20
55.88000859876872
 10
100.6263298630812
 20
60.87535398868741
 10
102.5313277094203
 20
55.88000859876872
  0
LINE
  5
11A
330
70
100
AcDbEntity
  8
レイヤー 1
 62
    18
420
        0
370
    13
100
AcDbLine
 10
99.44099093176411
 20
57.53100601453435
 30
0.0
 11
101.811658028475
 21
57.53100601453435
 31
0.0
  0
LWPOLYLINE
  5
11B
330
70
100
AcDbEntity
  8
レイヤー 1
 62
    18
420
        0
370
    13
100
AcDbPolyline
 90
       17
 70
     0
 43
0.0
 10
106.8070034183937
 20
60.87535398868741
 10
104.4363363216828
 20
60.87535398868741
 10
104.1823358911093
 20
58.71635032881322
 10
104.4363363216828
 20
58.97035075938664
 10
105.1559952367047
 20
59.18201957918507
 10
105.833333306875
 20
59.18201957918507
 10
106.5530029878203
 20
58.97035075938664
 10
107.0609930830437
 20
58.50468689197647
 10
107.2726619028422
 20
57.78501721103118
 10
107.2726619028422
 20
57.27701634988431
 10
107.0609930830437
 20
56.59968366267571
 10
106.5530029878203
 20
56.09168280152884
 10
105.833333306875
 20
55.88001936469211
 10
105.1559952367047
 20
55.88001936469211
 10
104.4363363216828
 20
56.09168280152884
 10
104.1823358911093
 20
56.34568323210228
 10
103.9283354605359
 20
56.81135248247414
  0
LWPOLYLINE
  5
11C
330
70
100
AcDbEntity
  8
レイヤー 1
 62
    18
420
        0
370
    13
100
AcDbPolyline
 90
        3
 70
     0
 43
0.0
 10
108.7120012647328
 20
60.87535398868741
 10
108.7120012647328
 20
55.88000859876872
 10
111.5483268458922
 20
55.88000859876872
  0
SPLINE
  5
11D
330
70
100
AcDbEntity
  8
レイヤー 1
 62
    18
420
        0
370
    13
100
AcDbSpline
210
0.0
220
0.0
230
1.0
 70
    24
 71
     3
 72
     8
 73
     4
 74
     0
 42
0.0000000001
 43
0.0000000001
 40
0.0
 40
0.0
 40
0.0
 40
0.0
 40
1.0
 40
1.0
 40
1.0
 40
1.0
 10
21.20900096363086
 20
65.27799223221567
 30
0.0
 10
21.20900096363086
 20
65.27799223221567
 30
0.0
 10
21.20900096363086
 20
70.27333762213436
 30
0.0
 10
21.20900096363086
 20
70.27333762213436
 30
0.0
  0
SPLINE
  5
11E
330
70
100
AcDbEntity
  8
レイヤー 1
 62
    18
420
        0
370
    13
100
AcDbSpline
210
0.0
220
0.0
230
1.0
 70
    24
 71
     3
 72
     8
 73
     4
 74
     0
 42
0.0000000001
 43
0.0000000001
 40
0.0
 40
0.0
 40
0.0
 40
0.0
 40
1.0
 40
1.0
 40
1.0
 40
1.0
 10
24.55333278889883
 20
70.27333762213436
 30
0.0
 10
24.55333278889883
 20
70.27333762213436
 30
0.0
 10
21.20900096363086
 20
66.92901117982808
 30
0.0
 10
21.20900096363086
 20
66.92901117982808
 30
0.0
  0
SPLINE
  5
11F
330
70
100
AcDbEntity
  8
レイヤー 1
 62
    18
420
        0
370
    13
100
AcDbSpline
210
0.0
220
0.0
230
1.0
 70
    24
 71
     3
 72
     8
 73
     4
 74
     0
 42
0.0000000001
 43
0.0000000001
 40
0.0
 40
0.0
 40
0.0
 40
0.0
 40
1.0
 40
1.0
 40
1.0
 40
1.0
 10
22.3943331662459
 20
68.11433934522185
 30
0.0
 10
22.3943331662459
 20
68.11433934522185
 30
0.0
 10
24.55333278889883
 20
65.27799223221567
 30
0.0
 10
24.55333278889883
 20
65.27799223221567
 30
0.0
  0
LWPOLYLINE
  5
120
330
70
100
AcDbEntity
  8
レイヤー 1
 62
    18
420
        0
370
    13
100
AcDbPolyline
 90
       11
 70
     0
 43
0.0
 10
26.20433289614532
 20
65.27801376406245
 10
26.20433289614532
 20
70.27334300509605
 10
28.36333117305782
 20
70.27334300509605
 10
29.08299816252228
 20
70.01934257452262
 10
29.29466429083986
 20
69.80767913768588
 10
29.54866472141329
 20
69.29967827653901
 10
29.54866472141329
 20
68.58000859559371
 10
29.29466429083986
 20
68.11434472818355
 10
29.08299816252228
 20
67.90267590838512
 10
28.36333117305782
 20
67.64867547781168
 10
26.20433289614532
 20
67.64867547781168
  0
LWPOLYLINE
  5
121
330
70
100
AcDbEntity
  8
レイヤー 1
 62
    18
420
        0
370
    13
100
AcDbPolyline
 90
        4
 70
     0
 43
0.0
 10
31.19966482865978
 20
69.29966751061562
 10
31.66533138755079
 20
69.55367870711246
 10
32.38499837701525
 20
70.27333762213436
 10
32.38499837701525
 20
65.27799223221567
  0
LWPOLYLINE
  5
122
330
70
100
AcDbEntity
  8
レイヤー 1
 62
    18
420
        0
370
    13
100
AcDbPolyline
 90
       17
 70
     0
 43
0.0
 10
37.88833117067657
 20
70.27333762213436
 10
35.47532977170978
 20
70.27333762213436
 10
35.2636636433922
 20
68.11433396226016
 10
35.47532977170978
 20
68.36833439283359
 10
36.19499676117423
 20
68.58000321263202
 10
36.91466375063869
 20
68.58000321263202
 10
37.63433074010314
 20
68.36833439283359
 10
38.09999729899415
 20
67.90267052542342
 10
38.35399772956759
 20
67.18300084447813
 10
38.35399772956759
 20
66.67499998333124
 10
38.09999729899415
 20
65.99766729612266
 10
37.63433074010314
 20
65.48966643497578
 10
36.91466375063869
 20
65.27800299813906
 10
36.19499676117423
 20
65.27800299813906
 10
35.47532977170978
 20
65.48966643497578
 10
35.2636636433922
 20
65.74366686554921
 10
35.00966321281877
 20
66.20933611592109
  0
LWPOLYLINE
  5
123
330
70
100
AcDbEntity
  8
レイヤー 1
 62
    18
420
        0
370
    13
100
AcDbPolyline
 90
       17
 70
     0
 43
0.0
 10
42.62966536409844
 20
70.27333762213436
 10
40.25899826738751
 20
70.27333762213436
 10
40.00499783681408
 20
68.11433396226016
 10
40.25899826738751
 20
68.36833439283359
 10
40.97866525685196
 20
68.58000321263202
 10
41.69832955483556
 20
68.58000321263202
 10
42.37566493352501
 20
68.36833439283359
 10
42.88366310319103
 20
67.90267052542342
 10
43.09533192298945
 20
67.18300084447813
 10
43.09533192298945
 20
66.67499998333124
 10
42.88366310319103
 20
65.99766729612266
 10
42.37566493352501
 20
65.48966643497578
 10
41.69832955483556
 20
65.27800299813906
 10
40.97866525685196
 20
65.27800299813906
 10
40.25899826738751
 20
65.48966643497578
 10
40.00499783681408
 20
65.74366686554921
 10
39.79333170849649
 20
66.20933611592109
  0
SPLINE
  5
124
330
70
100
AcDbEntity
  8
レイヤー 1
 62
    18
420
        0
370
    13
100
AcDbSpline
210
0.0
220
0.0
230
1.0
 70
    24
 71
     3
 72
     8
 73
     4
 74
     0
 42
0.0000000001
 43
0.0000000001
 40
0.0
 40
0.0
 40
0.0
 40
0.0
 40
1.0
 40
1.0
 40
1.0
 40
1.0
 10
44.53466859339921
 20
65.27799223221567
 30
0.0
 10
44.53466859339921
 20
65.27799223221567
 30
0.0
 10
47.87900041866719
 20
70.27333762213436
 30
0.0
 10
47.87900041866719
 20
70.27333762213436
 30
0.0
  0
SPLINE
  5
125
330
70
100
AcDbEntity
  8
レイヤー 1
 62
    18
420
        0
370
    13
100
AcDbSpline
210
0.0
220
0.0
230
1.0
 70
    24
 71
     3
 72
     8
 73
     4
 74
     0
 42
0.0000000001
 43
0.0000000001
 40
0.0
 40
0.0
 40
0.0
 40
0.0
 40
1.0
 40
1.0
 40
1.0
 40
1.0
 10
44.53466859339921
 20
70.27333762213436
 30
0.0
 10
44.53466859339921
 20
70.27333762213436
 30
0.0
 10
47.87900041866719
 20
65.27799223221567
 30
0.0
 10
47.87900041866719
 20
65.27799223221567
 30
0.0
  0
LWPOLYLINE
  5
126
330
70
100
AcDbEntity
  8
レイヤー 1
 62
    18
420
        0
370
    13
100
AcDbPolyline
 90
       20
 70
     0
 43
0.0
 10
52.62033461208906
 20
69.55367870711246
 10
52.15466536171719
 20
70.01934257452262
 10
51.43500106373359
 20
70.27334300509605
 10
50.50366794595156
 20
70.27334300509605
 10
49.78399826500626
 20
70.01934257452262
 10
49.27599740385939
 20
69.55367870711246
 10
49.27599740385939
 20
69.08800945674059
 10
49.52999783443282
 20
68.58000859559371
 10
49.78399826500626
 20
68.36834515875698
 10
50.24966751537812
 20
68.11434472818355
 10
51.68899611134533
 20
67.64867547781168
 10
52.15466536171719
 20
67.39467504723825
 10
52.40866579229063
 20
67.18301161040152
 10
52.62033461208906
 20
66.67501074925464
 10
52.62033461208906
 20
65.99767806204605
 10
52.15466536171719
 20
65.48967720089918
 10
51.43500106373359
 20
65.27800838110074
 10
50.50366794595156
 20
65.27800838110074
 10
49.78399826500626
 20
65.48967720089918
 10
49.27599740385939
 20
65.99767806204605
  0
LWPOLYLINE
  5
127
330
70
100
AcDbEntity
  8
レイヤー 1
 62
    18
420
        0
370
    13
100
AcDbPolyline
 90
       11
 70
     0
 43
0.0
 10
54.05966859101796
 20
65.27801376406245
 10
54.05966859101796
 20
70.27334300509605
 10
56.21866686793048
 20
70.27334300509605
 10
56.89599955513907
 20
70.01934257452262
 10
57.14999998571251
 20
69.80767913768588
 10
57.40400041628594
 20
69.29967827653901
 10
57.40400041628594
 20
68.83400902616715
 10
57.14999998571251
 20
68.36834515875698
 10
56.89599955513907
 20
68.11434472818355
 10
56.21866686793048
 20
67.90267590838512
 10
54.05966859101796
 20
67.90267590838512
  0
LWPOLYLINE
  5
128
330
70
100
AcDbEntity
  8
レイヤー 1
 62
    18
420
        0
370
    13
100
AcDbPolyline
 90
        9
 70
     0
 43
0.0
 10
56.21866686793048
 20
67.9026812913468
 10
56.89599955513907
 20
67.64868086077338
 10
57.14999998571251
 20
67.39468043019994
 10
57.40399503332424
 20
66.92901117982808
 10
57.40399503332424
 20
66.20934688184448
 10
57.14999998571251
 20
65.74367763147261
 10
56.89599955513907
 20
65.48967720089918
 10
56.21866686793048
 20
65.27801376406245
 10
54.05966320805626
 20
65.27801376406245
  0
ENDSEC
  0
SECTION
  2
OBJECTS
  0
DICTIONARY
  5
C
330
0
100
AcDbDictionary
281
     1
  3
ACAD_COLOR
350
63
  3
ACAD_DETAILVIEWSTYLE
350
6A
  3
ACAD_GROUP
350
D
  3
ACAD_LAYOUT
350
62
  3
ACAD_MATERIAL
350
10
  3
ACAD_MLEADERSTYLE
350
66
  3
ACAD_MLINESTYLE
350
5F
  3
ACAD_PLOTSETTINGS
350
61
  3
ACAD_PLOTSTYLENAME
350
E
  3
ACAD_SCALELIST
350
42
  3
ACAD_SECTIONVIEWSTYLE
350
68
  3
ACAD_TABLESTYLE
350
64
  3
ACAD_VISUALSTYLE
350
29
  3
ACDB_RECOMPOSE_DATA
350
131
  3
AcDbVariableDictionary
350
129
  0
DICTIONARY
  5
63
102
{ACAD_REACTORS
330
C
102
}
330
C
100
AcDbDictionary
281
     1
  0
DICTIONARY
  5
6A
102
{ACAD_REACTORS
330
C
102
}
330
C
100
AcDbDictionary
281
     1
  3
Imperial24
350
6B
  0
DICTIONARY
  5
D
102
{ACAD_REACTORS
330
C
102
}
330
C
100
AcDbDictionary
281
     1
  0
DICTIONARY
  5
62
102
{ACAD_REACTORS
330
C
102
}
330
C
100
AcDbDictionary
281
     1
  3
Layout1
350
6F
  3
Layout2
350
77
  3
Model
350
73
  0
DICTIONARY
  5
10
102
{ACAD_REACTORS
330
C
102
}
330
C
100
AcDbDictionary
281
     1
  3
ByBlock
350
19
  3
ByLayer
350
11
  3
Global
350
21
  0
DICTIONARY
  5
66
102
{ACAD_REACTORS
330
C
102
}
330
C
100
AcDbDictionary
281
     1
  3
Standard
350
67
  0
DICTIONARY
  5
5F
102
{ACAD_REACTORS
330
C
102
}
330
C
100
AcDbDictionary
281
     1
  3
Standard
350
60
  0
DICTIONARY
  5
61
102
{ACAD_REACTORS
330
C
102
}
330
C
100
AcDbDictionary
281
     1
  0
ACDBDICTIONARYWDFLT
  5
E
102
{ACAD_REACTORS
330
C
102
}
330
C
100
AcDbDictionary
281
     1
  3
Normal
350
F
100
AcDbDictionaryWithDefault
340
F
  0
DICTIONARY
  5
42
102
{ACAD_REACTORS
330
C
102
}
330
C
100
AcDbDictionary
281
     1
  3
A0
350
43
  3
A1
350
44
  3
A2
350
45
  3
A3
350
46
  3
A4
350
47
  3
A5
350
48
  3
A6
350
49
  3
A7
350
4A
  3
A8
350
4B
  3
A9
350
4C
  3
B0
350
4D
  3
B1
350
4E
  3
B2
350
4F
  3
B3
350
50
  3
B4
350
51
  3
B5
350
52
  3
B6
350
53
  0
DICTIONARY
  5
68
102
{ACAD_REACTORS
330
C
102
}
330
C
100
AcDbDictionary
281
     1
  3
Imperial24
350
69
  0
DICTIONARY
  5
64
102
{ACAD_REACTORS
330
C
102
}
330
C
100
AcDbDictionary
281
     1
  3
Standard
350
65
  0
DICTIONARY
  5
29
102
{ACAD_REACTORS
330
C
102
}
330
C
100
AcDbDictionary
281
     1
  3
2dWireframe
350
2F
  3
Basic
350
2E
  3
Brighten
350
35
  3
ColorChange
350
39
  3
Conceptual
350
32
  3
Dim
350
34
  3
EdgeColorOff
350
41
  3
Facepattern
350
38
  3
Flat
350
2A
  3
FlatWithEdges
350
2B
  3
Gouraud
350
2C
  3
GouraudWithEdges
350
2D
  3
Hidden
350
31
  3
JitterOff
350
3F
  3
Linepattern
350
37
  3
OverhangOff
350
40
  3
Realistic
350
33
  3
Shaded
350
3E
  3
Shaded with edges
350
3D
  3
Shades of Gray
350
3A
  3
Sketchy
350
3B
  3
Thicken
350
36
  3
Wireframe
350
30
  3
X-Ray
350
3C
  0
XRECORD
  5
131
102
{ACAD_REACTORS
330
C
102
}
330
C
100
AcDbXrecord
280
     1
 90
        1
330
65
  0
DICTIONARY
  5
129
102
{ACAD_REACTORS
330
C
102
}
330
C
100
AcDbDictionary
281
     1
  3
CANNOSCALE
350
12E
  3
CMLEADERSTYLE
350
12B
  3
CTABLESTYLE
350
12A
  3
CVIEWDETAILSTYLE
350
12C
  3
CVIEWSECTIONSTYLE
350
12D
  0
ACDBDETAILVIEWSTYLE
  5
6B
102
{ACAD_REACTORS
330
6A
102
}
330
6A
100
AcDbModelDocViewStyle
 70
     0
  3
Imperial24
290
     1
300
Imperial24
 90
        0
100
AcDbDetailViewStyle
 70
     0
 71
     0
 90
        3
 71
     1
340
55
 62
   256
 40
0.24
340
0
 62
   256
 40
0.24
300

 40
0.36
280
     3
 71
     2
340
5D
 90
       25
 62
   256
 71
     3
340
55
 62
   256
 40
0.24
 90
        1
 40
0.75
 90
        1
300
%<\AcVar ViewType \f "%tc1">% %<\AcVar ViewDetailId>%\PSCALE %<\AcVar ViewScale \f "%sn">%
 71
     4
340
5D
 90
       25
 62
   256
340
5D
 90
       25
 62
   256
280
     0
  0
LAYOUT
  5
6F
102
{ACAD_REACTORS
330
62
102
}
330
62
100
AcDbPlotSettings
  1

  2

  4

  6

 40
0.0
 41
0.0
 42
0.0
 43
0.0
 44
0.0
 45
0.0
 46
0.0
 47
0.0
 48
0.0
 49
0.0
140
0.0
141
0.0
142
1.0
143
1.0
 70
   688
 72
     0
 73
     0
 74
     5
  7

 75
    16
147
1.0
 76
     0
 77
     2
 78
   300
148
0.0
149
0.0
100
AcDbLayout
  1
Layout1
 70
     1
 71
     1
 10
0.0
 20
0.0
 11
12.0
 21
9.0
 12
0.0
 22
0.0
 32
0.0
 14
0.0
 24
0.0
 34
0.0
 15
0.0
 25
0.0
 35
0.0
146
0.0
 13
0.0
 23
0.0
 33
0.0
 16
1.0
 26
0.0
 36
0.0
 17
0.0
 27
1.0
 37
0.0
 76
     0
330
6C
  0
LAYOUT
  5
77
102
{ACAD_REACTORS
330
62
102
}
330
62
100
AcDbPlotSettings
  1

  2

  4

  6

 40
0.0
 41
0.0
 42
0.0
 43
0.0
 44
0.0
 45
0.0
 46
0.0
 47
0.0
 48
0.0
 49
0.0
140
0.0
141
0.0
142
1.0
143
1.0
 70
   688
 72
     0
 73
     0
 74
     5
  7

 75
    16
147
1.0
 76
     0
 77
     2
 78
   300
148
0.0
149
0.0
100
AcDbLayout
  1
Layout2
 70
     1
 71
     2
 10
0.0
 20
0.0
 11
12.0
 21
9.0
 12
0.0
 22
0.0
 32
0.0
 14
0.0
 24
0.0
 34
0.0
 15
0.0
 25
0.0
 35
0.0
146
0.0
 13
0.0
 23
0.0
 33
0.0
 16
1.0
 26
0.0
 36
0.0
 17
0.0
 27
1.0
 37
0.0
 76
     0
330
74
  0
LAYOUT
  5
73
102
{ACAD_REACTORS
330
62
102
}
330
62
100
AcDbPlotSettings
  1

  2

  4

  6

 40
0.0
 41
0.0
 42
0.0
 43
0.0
 44
0.0
 45
0.0
 46
0.0
 47
0.0
 48
0.0
 49
0.0
140
0.0
141
0.0
142
1.0
143
1.0
 70
  1712
 72
     0
 73
     0
 74
     0
  7

 75
     0
147
1.0
 76
     0
 77
     2
 78
   300
148
0.0
149
0.0
100
AcDbLayout
  1
Model
 70
     1
 71
     0
 10
0.0
 20
0.0
 11
12.0
 21
9.0
 12
0.0
 22
0.0
 32
0.0
 14
0.0
 24
0.0
 34
0.0
 15
0.0
 25
0.0
 35
0.0
146
0.0
 13
0.0
 23
0.0
 33
0.0
 16
1.0
 26
0.0
 36
0.0
 17
0.0
 27
1.0
 37
0.0
 76
     0
330
70
  0
MATERIAL
  5
19
102
{ACAD_XDICTIONARY
360
1A
102
}
102
{ACAD_REACTORS
330
10
102
}
330
10
100
AcDbMaterial
  1
ByBlock
 72
     0
 43
0.0208333333333333
 43
0.0
 43
0.0
 43
0.0
 43
0.0
 43
0.0208333333333333
 43
0.0
 43
0.0
 43
0.0
 43
0.0
 43
1.0
 43
0.0
 43
0.0
 43
0.0
 43
0.0
 43
1.0
 77
     0
 47
0.0208333333333333
 47
0.0
 47
0.0
 47
0.0
 47
0.0
 47
0.0208333333333333
 47
0.0
 47
0.0
 47
0.0
 47
0.0
 47
1.0
 47
0.0
 47
0.0
 47
0.0
 47
0.0
 47
1.0
171
     0
 49
0.0208333333333333
 49
0.0
 49
0.0
 49
0.0
 49
0.0
 49
0.0208333333333333
 49
0.0
 49
0.0
 49
0.0
 49
0.0
 49
1.0
 49
0.0
 49
0.0
 49
0.0
 49
0.0
 49
1.0
175
     0
142
0.0208333333333333
142
0.0
142
0.0
142
0.0
142
0.0
142
0.0208333333333333
142
0.0
142
0.0
142
0.0
142
0.0
142
1.0
142
0.0
142
0.0
142
0.0
142
0.0
142
1.0
179
     0
144
0.0208333333333333
144
0.0
144
0.0
144
0.0
144
0.0
144
0.0208333333333333
144
0.0
144
0.0
144
0.0
144
0.0
144
1.0
144
0.0
144
0.0
144
0.0
144
0.0
144
1.0
147
0.0208333333333333
147
0.0
147
0.0
147
0.0
147
0.0
147
0.0208333333333333
147
0.0
147
0.0
147
0.0
147
0.0
147
1.0
147
0.0
147
0.0
147
0.0
147
0.0
147
1.0
  0
MATERIAL
  5
11
102
{ACAD_XDICTIONARY
360
12
102
}
102
{ACAD_REACTORS
330
10
102
}
330
10
100
AcDbMaterial
  1
ByLayer
 72
     0
 43
0.0208333333333333
 43
0.0
 43
0.0
 43
0.0
 43
0.0
 43
0.0208333333333333
 43
0.0
 43
0.0
 43
0.0
 43
0.0
 43
1.0
 43
0.0
 43
0.0
 43
0.0
 43
0.0
 43
1.0
 77
     0
 47
0.0208333333333333
 47
0.0
 47
0.0
 47
0.0
 47
0.0
 47
0.0208333333333333
 47
0.0
 47
0.0
 47
0.0
 47
0.0
 47
1.0
 47
0.0
 47
0.0
 47
0.0
 47
0.0
 47
1.0
171
     0
 49
0.0208333333333333
 49
0.0
 49
0.0
 49
0.0
 49
0.0
 49
0.0208333333333333
 49
0.0
 49
0.0
 49
0.0
 49
0.0
 49
1.0
 49
0.0
 49
0.0
 49
0.0
 49
0.0
 49
1.0
175
     0
142
0.0208333333333333
142
0.0
142
0.0
142
0.0
142
0.0
142
0.0208333333333333
142
0.0
142
0.0
142
0.0
142
0.0
142
1.0
142
0.0
142
0.0
142
0.0
142
0.0
142
1.0
179
     0
144
0.0208333333333333
144
0.0
144
0.0
144
0.0
144
0.0
144
0.0208333333333333
144
0.0
144
0.0
144
0.0
144
0.0
144
1.0
144
0.0
144
0.0
144
0.0
144
0.0
144
1.0
147
0.0208333333333333
147
0.0
147
0.0
147
0.0
147
0.0
147
0.0208333333333333
147
0.0
147
0.0
147
0.0
147
0.0
147
1.0
147
0.0
147
0.0
147
0.0
147
0.0
147
1.0
  0
MATERIAL
  5
21
102
{ACAD_XDICTIONARY
360
22
102
}
102
{ACAD_REACTORS
330
10
102
}
330
10
100
AcDbMaterial
  1
Global
 72
     0
 43
0.0208333333333333
 43
0.0
 43
0.0
 43
0.0
 43
0.0
 43
0.0208333333333333
 43
0.0
 43
0.0
 43
0.0
 43
0.0
 43
1.0
 43
0.0
 43
0.0
 43
0.0
 43
0.0
 43
1.0
 77
     0
 47
0.0208333333333333
 47
0.0
 47
0.0
 47
0.0
 47
0.0
 47
0.0208333333333333
 47
0.0
 47
0.0
 47
0.0
 47
0.0
 47
1.0
 47
0.0
 47
0.0
 47
0.0
 47
0.0
 47
1.0
171
     0
 49
0.0208333333333333
 49
0.0
 49
0.0
 49
0.0
 49
0.0
 49
0.0208333333333333
 49
0.0
 49
0.0
 49
0.0
 49
0.0
 49
1.0
 49
0.0
 49
0.0
 49
0.0
 49
0.0
 49
1.0
175
     0
142
0.0208333333333333
142
0.0
142
0.0
142
0.0
142
0.0
142
0.0208333333333333
142
0.0
142
0.0
142
0.0
142
0.0
142
1.0
142
0.0
142
0.0
142
0.0
142
0.0
142
1.0
179
     0
144
0.0208333333333333
144
0.0
144
0.0
144
0.0
144
0.0
144
0.0208333333333333
144
0.0
144
0.0
144
0.0
144
0.0
144
1.0
144
0.0
144
0.0
144
0.0
144
0.0
144
1.0
147
0.0208333333333333
147
0.0
147
0.0
147
0.0
147
0.0
147
0.0208333333333333
147
0.0
147
0.0
147
0.0
147
0.0
147
1.0
147
0.0
147
0.0
147
0.0
147
0.0
147
1.0
  0
MLEADERSTYLE
  5
67
102
{ACAD_REACTORS
330
66
102
}
330
66
100
AcDbMLeaderStyle
179
     2
170
     2
171
     1
172
     0
 90
        2
 40
0.0
 41
0.0
173
     1
 91
-1056964608
340
5B
 92
       -2
290
     1
 42
0.09
291
     1
 43
0.36
  3
Standard
 44
0.18
300

342
55
174
     1
178
     6
175
     1
176
     0
 93
-1056964608
 45
0.18
292
     0
297
     0
 46
0.18
 94
-1056964608
 47
1.0
 49
1.0
140
1.0
293
     1
141
0.0
294
     1
177
     0
142
1.0
295
     1
296
     0
143
0.125
271
     0
272
     9
273
     9
298
     1
  0
MLINESTYLE
  5
60
102
{ACAD_REACTORS
330
5F
102
}
330
5F
100
AcDbMlineStyle
  2
STANDARD
 70
     0
  3

 62
   256
 51
90.0
 52
90.0
 71
     2
 49
0.5
 62
   256
  6
BYLAYER
 49
-0.5
 62
   256
  6
BYLAYER
  0
ACDBPLACEHOLDER
  5
F
102
{ACAD_REACTORS
330
E
102
}
330
E
  0
SCALE
  5
43
102
{ACAD_REACTORS
330
42
102
}
330
42
100
AcDbScale
 70
     0
300
1:1
140
1.0
141
1.0
290
     1
  0
SCALE
  5
44
102
{ACAD_REACTORS
330
42
102
}
330
42
100
AcDbScale
 70
     0
300
1/128" = 1'-0"
140
0.0078125
141
12.0
290
     0
  0
SCALE
  5
45
102
{ACAD_REACTORS
330
42
102
}
330
42
100
AcDbScale
 70
     0
300
1/64" = 1'-0"
140
0.015625
141
12.0
290
     0
  0
SCALE
  5
46
102
{ACAD_REACTORS
330
42
102
}
330
42
100
AcDbScale
 70
     0
300
1/32" = 1'-0"
140
0.03125
141
12.0
290
     0
  0
SCALE
  5
47
102
{ACAD_REACTORS
330
42
102
}
330
42
100
AcDbScale
 70
     0
300
1/16" = 1'-0"
140
0.0625
141
12.0
290
     0
  0
SCALE
  5
48
102
{ACAD_REACTORS
330
42
102
}
330
42
100
AcDbScale
 70
     0
300
3/32" = 1'-0"
140
0.09375
141
12.0
290
     0
  0
SCALE
  5
49
102
{ACAD_REACTORS
330
42
102
}
330
42
100
AcDbScale
 70
     0
300
1/8" = 1'-0"
140
0.125
141
12.0
290
     0
  0
SCALE
  5
4A
102
{ACAD_REACTORS
330
42
102
}
330
42
100
AcDbScale
 70
     0
300
3/16" = 1'-0"
140
0.1875
141
12.0
290
     0
  0
SCALE
  5
4B
102
{ACAD_REACTORS
330
42
102
}
330
42
100
AcDbScale
 70
     0
300
1/4" = 1'-0"
140
0.25
141
12.0
290
     0
  0
SCALE
  5
4C
102
{ACAD_REACTORS
330
42
102
}
330
42
100
AcDbScale
 70
     0
300
3/8" = 1'-0"
140
0.375
141
12.0
290
     0
  0
SCALE
  5
4D
102
{ACAD_REACTORS
330
42
102
}
330
42
100
AcDbScale
 70
     0
300
1/2" = 1'-0"
140
0.5
141
12.0
290
     0
  0
SCALE
  5
4E
102
{ACAD_REACTORS
330
42
102
}
330
42
100
AcDbScale
 70
     0
300
3/4" = 1'-0"
140
0.75
141
12.0
290
     0
  0
SCALE
  5
4F
102
{ACAD_REACTORS
330
42
102
}
330
42
100
AcDbScale
 70
     0
300
1" = 1'-0"
140
1.0
141
12.0
290
     0
  0
SCALE
  5
50
102
{ACAD_REACTORS
330
42
102
}
330
42
100
AcDbScale
 70
     0
300
1-1/2" = 1'-0"
140
1.5
141
12.0
290
     0
  0
SCALE
  5
51
102
{ACAD_REACTORS
330
42
102
}
330
42
100
AcDbScale
 70
     0
300
3" = 1'-0"
140
3.0
141
12.0
290
     0
  0
SCALE
  5
52
102
{ACAD_REACTORS
330
42
102
}
330
42
100
AcDbScale
 70
     0
300
6" = 1'-0"
140
6.0
141
12.0
290
     0
  0
SCALE
  5
53
102
{ACAD_REACTORS
330
42
102
}
330
42
100
AcDbScale
 70
     0
300
1'-0" = 1'-0"
140
12.0
141
12.0
290
     0
  0
ACDBSECTIONVIEWSTYLE
  5
69
102
{ACAD_REACTORS
330
68
102
}
330
68
100
AcDbModelDocViewStyle
 70
     0
  3
Imperial24
290
     1
300
Imperial24
 90
        0
100
AcDbSectionViewStyle
 70
     0
 71
     0
 90
       78
 71
     1
340
55
 62
   256
 40
0.24
340
0
340
0
 62
   256
 40
0.24
300
I, O, Q, S, X, Z
 40
0.48
 90
        3
 40
0.18
 90
        1
 71
     2
340
5D
 90
       25
 62
   256
340
5D
 90
       50
 62
   256
 40
0.24
 40
0.0
 40
0.24
 71
     3
340
55
 62
   256
 40
0.24
 90
        1
 40
0.75
 90
        1
300
%<\AcVar ViewType \f "%tc1">% %<\AcVar ViewSectionStartId>%-%<\AcVar ViewSectionEndId>%\PSCALE %<\AcVar ViewScale \f "%sn">%
 71
     4
 62
   256
 62
   257
300
ANSI31
 40
1.0
 90
        0
290
     0
290
     0
 90
        6
 40
0.0
 40
1.570796326794896
 40
0.2617993877991494
 40
1.308996938995747
 40
-0.2617993877991494
 40
1.832595714594046
  0
TABLESTYLE
  5
65
102
{ACAD_XDICTIONARY
360
12F
102
}
102
{ACAD_REACTORS
330
64
102
}
330
64
100
AcDbTableStyle
280
     0
  3
Standard
 70
     0
 71
     0
 40
0.06
 41
0.06
280
     0
281
     0
  7
Standard
140
0.18
170
     2
 62
     0
 63
     7
283
     0
 90
      512
 91
        0
  1

274
    -2
284
     1
 64
     0
275
    -2
285
     1
 65
     0
276
    -2
286
     1
 66
     0
277
    -2
287
     1
 67
     0
278
    -2
288
     1
 68
     0
279
    -2
289
     1
 69
     0
  7
Standard
140
0.25
170
     5
 62
     0
 63
     7
283
     0
 90
      512
 91
        0
  1

274
    -2
284
     1
 64
     0
275
    -2
285
     1
 65
     0
276
    -2
286
     1
 66
     0
277
    -2
287
     1
 67
     0
278
    -2
288
     1
 68
     0
279
    -2
289
     1
 69
     0
  7
Standard
140
0.18
170
     5
 62
     0
 63
     7
283
     0
 90
      512
 91
        0
  1

274
    -2
284
     1
 64
     0
275
    -2
285
     1
 65
     0
276
    -2
286
     1
 66
     0
277
    -2
287
     1
 67
     0
278
    -2
288
     1
 68
     0
279
    -2
289
     1
 69
     0
  0
VISUALSTYLE
  5
2F
102
{ACAD_REACTORS
330
29
102
}
330
29
100
AcDbVisualStyle
  2
2dWireframe
 70
     4
177
     3
291
     0
 70
    58
 90
        0
176
     1
 90
        2
176
     1
 90
        0
176
     1
 90
        0
176
     1
 40
0.6
176
     1
 40
30.0
176
     1
 62
     7
420
 16777215
176
     1
 90
        1
176
     1
 90
        4
176
     1
 62
     7
176
     1
 62
   257
176
     1
 90
        1
176
     1
 90
        1
176
     1
 40
1.0
176
     1
 90
        0
176
     1
 62
   257
176
     1
 40
1.0
176
     1
 90
        1
176
     1
 90
        6
176
     1
 90
        2
176
     1
 62
     7
176
     1
 90
        5
176
     1
 90
        0
176
     1
 90
        0
176
     1
290
     0
176
     1
 90
        1
176
     1
 40
0.0
176
     1
 90
        0
176
     1
290
     1
176
     1
290
     1
176
     1
290
     0
176
     1
290
     0
176
     1
290
     0
176
     1
290
     0
176
     1
290
     0
176
     1
290
     0
176
     1
290
     0
176
     1
 90
       50
176
     1
 40
0.0
176
     1
 40
1.0
176
     1
 90
        0
176
     1
 62
    18
420
        0
176
     1
 90
       50
176
     1
 90
        3
176
     1
 62
     5
420
      255
176
     1
290
     0
176
     1
 90
       50
176
     1
 90
       50
176
     1
 90
       50
176
     1
290
     0
176
     1
 90
       50
176
     1
 62
   256
176
     0
 40
1.0
176
     0
 90
        2
176
     1
  1
strokes_ogs.tif
176
     1
290
     0
176
     1
 40
1.0
176
     1
 40
1.0
176
     1
  0
VISUALSTYLE
  5
2E
102
{ACAD_REACTORS
330
29
102
}
330
29
100
AcDbVisualStyle
  2
Basic
 70
     7
177
     3
291
     1
 70
    58
 90
        1
176
     1
 90
        0
176
     1
 90
        1
176
     1
 90
        0
176
     1
 40
0.6
176
     1
 40
30.0
176
     1
 62
     7
420
 16777215
176
     1
 90
        0
176
     1
 90
        4
176
     1
 62
     7
176
     1
 62
   257
176
     1
 90
        1
176
     1
 90
        1
176
     1
 40
1.0
176
     1
 90
        8
176
     1
 62
     7
176
     1
 40
1.0
176
     1
 90
        1
176
     1
 90
        6
176
     1
 90
        2
176
     1
 62
     7
176
     1
 90
        5
176
     1
 90
        0
176
     1
 90
        0
176
     1
290
     0
176
     1
 90
        1
176
     1
 40
0.0
176
     1
 90
        0
176
     1
290
     0
176
     1
290
     1
176
     1
290
     1
176
     1
290
     0
176
     1
290
     0
176
     1
290
     0
176
     1
290
     0
176
     1
290
     0
176
     1
290
     0
176
     1
 90
       50
176
     1
 40
0.0
176
     1
 40
1.0
176
     1
 90
        0
176
     1
 62
    18
420
        0
176
     1
 90
       50
176
     1
 90
        3
176
     1
 62
     5
420
      255
176
     1
290
     0
176
     1
 90
       50
176
     1
 90
       50
176
     1
 90
       50
176
     1
290
     0
176
     1
 90
       50
176
     1
 62
   256
176
     0
 40
1.0
176
     0
 90
        2
176
     1
  1
strokes_ogs.tif
176
     1
290
     0
176
     1
 40
1.0
176
     1
 40
1.0
176
     1
  0
VISUALSTYLE
  5
35
102
{ACAD_REACTORS
330
29
102
}
330
29
100
AcDbVisualStyle
  2
Brighten
 70
    12
177
     3
291
     1
 70
    58
 90
        2
176
     1
 90
        2
176
     1
 90
        0
176
     1
 90
        0
176
     1
 40
0.6
176
     1
 40
30.0
176
     1
 62
     7
420
 16777215
176
     1
 90
        1
176
     1
 90
        4
176
     1
 62
     7
176
     1
 62
   257
176
     1
 90
        1
176
     1
 90
        1
176
     1
 40
1.0
176
     1
 90
        8
176
     1
 62
     7
176
     1
 40
1.0
176
     1
 90
        1
176
     1
 90
        6
176
     1
 90
        2
176
     1
 62
     7
176
     1
 90
        5
176
     1
 90
        0
176
     1
 90
        0
176
     1
290
     0
176
     1
 90
        1
176
     1
 40
50.0
176
     1
 90
        0
176
     1
290
     0
176
     1
290
     1
176
     1
290
     1
176
     1
290
     0
176
     1
290
     0
176
     1
290
     0
176
     1
290
     0
176
     1
290
     0
176
     1
290
     0
176
     1
 90
       50
176
     1
 40
0.0
176
     1
 40
1.0
176
     1
 90
        0
176
     1
 62
    18
420
        0
176
     1
 90
       50
176
     1
 90
        3
176
     1
 62
     5
420
      255
176
     1
290
     0
176
     1
 90
       50
176
     1
 90
       50
176
     1
 90
       50
176
     1
290
     0
176
     1
 90
       50
176
     1
 62
   256
176
     0
 40
1.0
176
     0
 90
        2
176
     1
  1
strokes_ogs.tif
176
     1
290
     0
176
     1
 40
1.0
176
     1
 40
1.0
176
     1
  0
VISUALSTYLE
  5
39
102
{ACAD_REACTORS
330
29
102
}
330
29
100
AcDbVisualStyle
  2
ColorChange
 70
    16
177
     3
291
     1
 70
    58
 90
        2
176
     1
 90
        2
176
     1
 90
        3
176
     1
 90
        0
176
     1
 40
0.6
176
     1
 40
30.0
176
     1
 62
     8
420
  8421504
176
     1
 90
        1
176
     1
 90
        4
176
     1
 62
     7
176
     1
 62
   257
176
     1
 90
        1
176
     1
 90
        1
176
     1
 40
1.0
176
     1
 90
        8
176
     1
 62
     8
420
  8421504
176
     1
 40
1.0
176
     1
 90
        1
176
     1
 90
        6
176
     1
 90
        2
176
     1
 62
     7
176
     1
 90
        5
176
     1
 90
        0
176
     1
 90
        0
176
     1
290
     0
176
     1
 90
        1
176
     1
 40
0.0
176
     1
 90
        0
176
     1
290
     0
176
     1
290
     1
176
     1
290
     1
176
     1
290
     0
176
     1
290
     0
176
     1
290
     0
176
     1
290
     0
176
     1
290
     0
176
     1
290
     0
176
     1
 90
       50
176
     1
 40
0.0
176
     1
 40
1.0
176
     1
 90
        0
176
     1
 62
    18
420
        0
176
     1
 90
       50
176
     1
 90
        3
176
     1
 62
     5
420
      255
176
     1
290
     0
176
     1
 90
       50
176
     1
 90
       50
176
     1
 90
       50
176
     1
290
     0
176
     1
 90
       50
176
     1
 62
   256
176
     0
 40
1.0
176
     0
 90
        2
176
     1
  1
strokes_ogs.tif
176
     1
290
     0
176
     1
 40
1.0
176
     1
 40
1.0
176
     1
  0
VISUALSTYLE
  5
32
102
{ACAD_REACTORS
330
29
102
}
330
29
100
AcDbVisualStyle
  2
Conceptual
 70
     9
177
     3
291
     0
 70
    58
 90
        3
176
     1
 90
        2
176
     1
 90
        0
176
     1
 90
        0
176
     1
 40
0.6
176
     1
 40
30.0
176
     1
 62
     7
420
 16777215
176
     1
 90
        2
176
     1
 90
        2
176
     1
 62
     7
176
     1
 62
   257
176
     1
 90
        1
176
     1
 90
        1
176
     1
 40
179.0
176
     1
 90
        8
176
     1
 62
     7
176
     1
 40
1.0
176
     1
 90
        1
176
     1
 90
        6
176
     1
 90
        2
176
     1
 62
     7
176
     1
 90
        3
176
     1
 90
        0
176
     1
 90
        0
176
     1
290
     0
176
     1
 90
        1
176
     1
 40
0.0
176
     1
 90
        0
176
     1
290
     0
176
     1
290
     1
176
     1
290
     1
176
     1
290
     0
176
     1
290
     0
176
     1
290
     0
176
     1
290
     0
176
     1
290
     0
176
     1
290
     0
176
     1
 90
       50
176
     1
 40
0.0
176
     1
 40
1.0
176
     1
 90
        0
176
     1
 62
    18
420
        0
176
     1
 90
       50
176
     1
 90
        3
176
     1
 62
     5
420
      255
176
     1
290
     0
176
     1
 90
       50
176
     1
 90
       50
176
     1
 90
       50
176
     1
290
     0
176
     1
 90
       50
176
     1
 62
   256
176
     0
 40
1.0
176
     0
 90
        2
176
     1
  1
strokes_ogs.tif
176
     1
290
     0
176
     1
 40
1.0
176
     1
 40
1.0
176
     1
  0
VISUALSTYLE
  5
34
102
{ACAD_REACTORS
330
29
102
}
330
29
100
AcDbVisualStyle
  2
Dim
 70
    11
177
     3
291
     1
 70
    58
 90
        2
176
     1
 90
        2
176
     1
 90
        0
176
     1
 90
        0
176
     1
 40
0.6
176
     1
 40
30.0
176
     1
 62
     7
420
 16777215
176
     1
 90
        1
176
     1
 90
        4
176
     1
 62
     7
176
     1
 62
   257
176
     1
 90
        1
176
     1
 90
        1
176
     1
 40
1.0
176
     1
 90
        8
176
     1
 62
     7
176
     1
 40
1.0
176
     1
 90
        1
176
     1
 90
        6
176
     1
 90
        2
176
     1
 62
     7
176
     1
 90
        5
176
     1
 90
        0
176
     1
 90
        0
176
     1
290
     0
176
     1
 90
        1
176
     1
 40
-50.0
176
     1
 90
        0
176
     1
290
     0
176
     1
290
     1
176
     1
290
     1
176
     1
290
     0
176
     1
290
     0
176
     1
290
     0
176
     1
290
     0
176
     1
290
     0
176
     1
290
     0
176
     1
 90
       50
176
     1
 40
0.0
176
     1
 40
1.0
176
     1
 90
        0
176
     1
 62
    18
420
        0
176
     1
 90
       50
176
     1
 90
        3
176
     1
 62
     5
420
      255
176
     1
290
     0
176
     1
 90
       50
176
     1
 90
       50
176
     1
 90
       50
176
     1
290
     0
176
     1
 90
       50
176
     1
 62
   256
176
     0
 40
1.0
176
     0
 90
        2
176
     1
  1
strokes_ogs.tif
176
     1
290
     0
176
     1
 40
1.0
176
     1
 40
1.0
176
     1
  0
VISUALSTYLE
  5
41
102
{ACAD_REACTORS
330
29
102
}
330
29
100
AcDbVisualStyle
  2
EdgeColorOff
 70
    22
177
     3
291
     1
 70
    58
 90
        2
176
     0
 90
        2
176
     0
 90
        0
176
     0
 90
        0
176
     0
 40
0.6
176
     0
 40
30.0
176
     0
 62
     7
420
 16777215
176
     0
 90
        1
176
     0
 90
        4
176
     0
 62
     7
176
     0
 62
   257
176
     0
 90
        1
176
     0
 90
        1
176
     0
 40
1.0
176
     0
 90
        8
176
     2
 62
     7
176
     0
 40
1.0
176
     0
 90
        1
176
     0
 90
        6
176
     0
 90
        2
176
     0
 62
     7
176
     0
 90
        5
176
     0
 90
        0
176
     0
 90
        0
176
     0
290
     0
176
     0
 90
        1
176
     0
 40
0.0
176
     0
 90
        0
176
     0
290
     0
176
     0
290
     1
176
     0
290
     1
176
     0
290
     0
176
     0
290
     0
176
     0
290
     0
176
     0
290
     0
176
     0
290
     0
176
     0
290
     0
176
     0
 90
       50
176
     0
 40
0.0
176
     0
 40
1.0
176
     0
 90
        0
176
     0
 62
    18
420
        0
176
     0
 90
       50
176
     0
 90
        3
176
     0
 62
     5
420
      255
176
     0
290
     0
176
     0
 90
       50
176
     0
 90
       50
176
     0
 90
       50
176
     0
290
     0
176
     0
 90
       50
176
     0
 62
   256
176
     0
 40
1.0
176
     0
 90
        2
176
     0
  1
strokes_ogs.tif
176
     0
290
     0
176
     0
 40
1.0
176
     0
 40
1.0
176
     0
  0
VISUALSTYLE
  5
38
102
{ACAD_REACTORS
330
29
102
}
330
29
100
AcDbVisualStyle
  2
Facepattern
 70
    15
177
     3
291
     1
 70
    58
 90
        2
176
     1
 90
        2
176
     1
 90
        0
176
     1
 90
        0
176
     1
 40
0.6
176
     1
 40
30.0
176
     1
 62
     7
420
 16777215
176
     1
 90
        1
176
     1
 90
        4
176
     1
 62
     7
176
     1
 62
   257
176
     1
 90
        1
176
     1
 90
        1
176
     1
 40
1.0
176
     1
 90
        8
176
     1
 62
     7
176
     1
 40
1.0
176
     1
 90
        1
176
     1
 90
        6
176
     1
 90
        2
176
     1
 62
     7
176
     1
 90
        5
176
     1
 90
        0
176
     1
 90
        0
176
     1
290
     0
176
     1
 90
        1
176
     1
 40
0.0
176
     1
 90
        0
176
     1
290
     0
176
     1
290
     1
176
     1
290
     1
176
     1
290
     0
176
     1
290
     0
176
     1
290
     0
176
     1
290
     0
176
     1
290
     0
176
     1
290
     0
176
     1
 90
       50
176
     1
 40
0.0
176
     1
 40
1.0
176
     1
 90
        0
176
     1
 62
    18
420
        0
176
     1
 90
       50
176
     1
 90
        3
176
     1
 62
     5
420
      255
176
     1
290
     0
176
     1
 90
       50
176
     1
 90
       50
176
     1
 90
       50
176
     1
290
     0
176
     1
 90
       50
176
     1
 62
   256
176
     0
 40
1.0
176
     0
 90
        2
176
     1
  1
strokes_ogs.tif
176
     1
290
     0
176
     1
 40
1.0
176
     1
 40
1.0
176
     1
  0
VISUALSTYLE
  5
2A
102
{ACAD_REACTORS
330
29
102
}
330
29
100
AcDbVisualStyle
  2
Flat
 70
     0
177
     3
291
     1
 70
    58
 90
        2
176
     1
 90
        1
176
     1
 90
        1
176
     1
 90
        2
176
     1
 40
0.6
176
     1
 40
30.0
176
     1
 62
     7
420
 16777215
176
     1
 90
        0
176
     1
 90
        0
176
     1
 62
     7
176
     1
 62
   257
176
     1
 90
        1
176
     1
 90
        1
176
     1
 40
1.0
176
     1
 90
        8
176
     1
 62
     7
176
     1
 40
1.0
176
     1
 90
        1
176
     1
 90
        6
176
     1
 90
        2
176
     1
 62
     7
176
     1
 90
        5
176
     1
 90
        0
176
     1
 90
        0
176
     1
290
     0
176
     1
 90
       13
176
     1
 40
0.0
176
     1
 90
        0
176
     1
290
     0
176
     1
290
     1
176
     1
290
     1
176
     1
290
     0
176
     1
290
     0
176
     1
290
     0
176
     1
290
     0
176
     1
290
     0
176
     1
290
     0
176
     1
 90
       50
176
     1
 40
0.0
176
     1
 40
1.0
176
     1
 90
        0
176
     1
 62
    18
420
        0
176
     1
 90
       50
176
     1
 90
        3
176
     1
 62
     5
420
      255
176
     1
290
     0
176
     1
 90
       50
176
     1
 90
       50
176
     1
 90
       50
176
     1
290
     0
176
     1
 90
       50
176
     1
 62
   256
176
     0
 40
1.0
176
     0
 90
        2
176
     1
  1
strokes_ogs.tif
176
     1
290
     0
176
     1
 40
1.0
176
     1
 40
1.0
176
     1
  0
VISUALSTYLE
  5
2B
102
{ACAD_REACTORS
330
29
102
}
330
29
100
AcDbVisualStyle
  2
FlatWithEdges
 70
     1
177
     3
291
     1
 70
    58
 90
        2
176
     1
 90
        1
176
     1
 90
        1
176
     1
 90
        2
176
     1
 40
0.6
176
     1
 40
30.0
176
     1
 62
     7
420
 16777215
176
     1
 90
        1
176
     1
 90
        0
176
     1
 62
     7
176
     1
 62
   257
176
     1
 90
        1
176
     1
 90
        1
176
     1
 40
1.0
176
     1
 90
        0
176
     1
 62
   257
176
     1
 40
1.0
176
     1
 90
        1
176
     1
 90
        6
176
     1
 90
        2
176
     1
 62
     7
176
     1
 90
        5
176
     1
 90
        0
176
     1
 90
        0
176
     1
290
     0
176
     1
 90
       13
176
     1
 40
0.0
176
     1
 90
        0
176
     1
290
     0
176
     1
290
     1
176
     1
290
     1
176
     1
290
     0
176
     1
290
     0
176
     1
290
     0
176
     1
290
     0
176
     1
290
     0
176
     1
290
     0
176
     1
 90
       50
176
     1
 40
0.0
176
     1
 40
1.0
176
     1
 90
        0
176
     1
 62
    18
420
        0
176
     1
 90
       50
176
     1
 90
        3
176
     1
 62
     5
420
      255
176
     1
290
     0
176
     1
 90
       50
176
     1
 90
       50
176
     1
 90
       50
176
     1
290
     0
176
     1
 90
       50
176
     1
 62
   256
176
     0
 40
1.0
176
     0
 90
        2
176
     1
  1
strokes_ogs.tif
176
     1
290
     0
176
     1
 40
1.0
176
     1
 40
1.0
176
     1
  0
VISUALSTYLE
  5
2C
102
{ACAD_REACTORS
330
29
102
}
330
29
100
AcDbVisualStyle
  2
Gouraud
 70
     2
177
     3
291
     1
 70
    58
 90
        2
176
     1
 90
        2
176
     1
 90
        1
176
     1
 90
        2
176
     1
 40
0.6
176
     1
 40
30.0
176
     1
 62
     7
420
 16777215
176
     1
 90
        0
176
     1
 90
        0
176
     1
 62
     7
176
     1
 62
   257
176
     1
 90
        1
176
     1
 90
        1
176
     1
 40
1.0
176
     1
 90
        0
176
     1
 62
     7
176
     1
 40
1.0
176
     1
 90
        1
176
     1
 90
        6
176
     1
 90
        2
176
     1
 62
     7
176
     1
 90
        5
176
     1
 90
        0
176
     1
 90
        0
176
     1
290
     0
176
     1
 90
       13
176
     1
 40
0.0
176
     1
 90
        0
176
     1
290
     0
176
     1
290
     1
176
     1
290
     1
176
     1
290
     0
176
     1
290
     0
176
     1
290
     0
176
     1
290
     0
176
     1
290
     0
176
     1
290
     0
176
     1
 90
       50
176
     1
 40
0.0
176
     1
 40
1.0
176
     1
 90
        0
176
     1
 62
    18
420
        0
176
     1
 90
       50
176
     1
 90
        3
176
     1
 62
     5
420
      255
176
     1
290
     0
176
     1
 90
       50
176
     1
 90
       50
176
     1
 90
       50
176
     1
290
     0
176
     1
 90
       50
176
     1
 62
   256
176
     0
 40
1.0
176
     0
 90
        2
176
     1
  1
strokes_ogs.tif
176
     1
290
     0
176
     1
 40
1.0
176
     1
 40
1.0
176
     1
  0
VISUALSTYLE
  5
2D
102
{ACAD_REACTORS
330
29
102
}
330
29
100
AcDbVisualStyle
  2
GouraudWithEdges
 70
     3
177
     3
291
     1
 70
    58
 90
        2
176
     1
 90
        2
176
     1
 90
        1
176
     1
 90
        2
176
     1
 40
0.6
176
     1
 40
30.0
176
     1
 62
     7
420
 16777215
176
     1
 90
        1
176
     1
 90
        0
176
     1
 62
     7
176
     1
 62
   257
176
     1
 90
        1
176
     1
 90
        1
176
     1
 40
1.0
176
     1
 90
        0
176
     1
 62
   257
176
     1
 40
1.0
176
     1
 90
        1
176
     1
 90
        6
176
     1
 90
        2
176
     1
 62
     7
176
     1
 90
        5
176
     1
 90
        0
176
     1
 90
        0
176
     1
290
     0
176
     1
 90
       13
176
     1
 40
0.0
176
     1
 90
        0
176
     1
290
     0
176
     1
290
     1
176
     1
290
     1
176
     1
290
     0
176
     1
290
     0
176
     1
290
     0
176
     1
290
     0
176
     1
290
     0
176
     1
290
     0
176
     1
 90
       50
176
     1
 40
0.0
176
     1
 40
1.0
176
     1
 90
        0
176
     1
 62
    18
420
        0
176
     1
 90
       50
176
     1
 90
        3
176
     1
 62
     5
420
      255
176
     1
290
     0
176
     1
 90
       50
176
     1
 90
       50
176
     1
 90
       50
176
     1
290
     0
176
     1
 90
       50
176
     1
 62
   256
176
     0
 40
1.0
176
     0
 90
        2
176
     1
  1
strokes_ogs.tif
176
     1
290
     0
176
     1
 40
1.0
176
     1
 40
1.0
176
     1
  0
VISUALSTYLE
  5
31
102
{ACAD_REACTORS
330
29
102
}
330
29
100
AcDbVisualStyle
  2
Hidden
 70
     6
177
     3
291
     0
 70
    58
 90
        1
176
     1
 90
        2
176
     1
 90
        2
176
     1
 90
        0
176
     1
 40
0.6
176
     1
 40
30.0
176
     1
 62
     7
420
 16777215
176
     1
 90
        2
176
     1
 90
        2
176
     1
 62
     7
176
     1
 62
   257
176
     1
 90
        2
176
     1
 90
        1
176
     1
 40
40.0
176
     1
 90
        0
176
     1
 62
   257
176
     1
 40
1.0
176
     1
 90
        1
176
     1
 90
        6
176
     1
 90
        2
176
     1
 62
     7
176
     1
 90
        3
176
     1
 90
        0
176
     1
 90
        0
176
     1
290
     0
176
     1
 90
        1
176
     1
 40
0.0
176
     1
 90
        0
176
     1
290
     0
176
     1
290
     1
176
     1
290
     1
176
     1
290
     0
176
     1
290
     0
176
     1
290
     0
176
     1
290
     0
176
     1
290
     0
176
     1
290
     0
176
     1
 90
       50
176
     1
 40
0.0
176
     1
 40
1.0
176
     1
 90
        0
176
     1
 62
    18
420
        0
176
     1
 90
       50
176
     1
 90
        3
176
     1
 62
     5
420
      255
176
     1
290
     0
176
     1
 90
       50
176
     1
 90
       50
176
     1
 90
       50
176
     1
290
     0
176
     1
 90
       50
176
     1
 62
   256
176
     0
 40
1.0
176
     0
 90
        2
176
     1
  1
strokes_ogs.tif
176
     1
290
     0
176
     1
 40
1.0
176
     1
 40
1.0
176
     1
  0
VISUALSTYLE
  5
3F
102
{ACAD_REACTORS
330
29
102
}
330
29
100
AcDbVisualStyle
  2
JitterOff
 70
    20
177
     3
291
     1
 70
    58
 90
        2
176
     0
 90
        2
176
     0
 90
        0
176
     0
 90
        0
176
     0
 40
0.6
176
     0
 40
30.0
176
     0
 62
     7
420
 16777215
176
     0
 90
        1
176
     0
 90
        4
176
     0
 62
     7
176
     0
 62
   257
176
     0
 90
        1
176
     0
 90
        1
176
     0
 40
1.0
176
     0
 90
       10
176
     2
 62
     7
176
     0
 40
1.0
176
     0
 90
        1
176
     0
 90
        6
176
     0
 90
        2
176
     0
 62
     7
176
     0
 90
        5
176
     0
 90
        0
176
     0
 90
        0
176
     0
290
     0
176
     0
 90
        1
176
     0
 40
0.0
176
     0
 90
        0
176
     0
290
     0
176
     0
290
     1
176
     0
290
     1
176
     0
290
     0
176
     0
290
     0
176
     0
290
     0
176
     0
290
     0
176
     0
290
     0
176
     0
290
     0
176
     0
 90
       50
176
     0
 40
0.0
176
     0
 40
1.0
176
     0
 90
        0
176
     0
 62
    18
420
        0
176
     0
 90
       50
176
     0
 90
        3
176
     0
 62
     5
420
      255
176
     0
290
     0
176
     0
 90
       50
176
     0
 90
       50
176
     0
 90
       50
176
     0
290
     0
176
     0
 90
       50
176
     0
 62
   256
176
     0
 40
1.0
176
     0
 90
        2
176
     0
  1
strokes_ogs.tif
176
     0
290
     0
176
     0
 40
1.0
176
     0
 40
1.0
176
     0
  0
VISUALSTYLE
  5
37
102
{ACAD_REACTORS
330
29
102
}
330
29
100
AcDbVisualStyle
  2
Linepattern
 70
    14
177
     3
291
     1
 70
    58
 90
        2
176
     1
 90
        2
176
     1
 90
        0
176
     1
 90
        0
176
     1
 40
0.6
176
     1
 40
30.0
176
     1
 62
     7
420
 16777215
176
     1
 90
        1
176
     1
 90
        4
176
     1
 62
     7
176
     1
 62
   257
176
     1
 90
        7
176
     1
 90
        7
176
     1
 40
1.0
176
     1
 90
        8
176
     1
 62
     7
176
     1
 40
1.0
176
     1
 90
        1
176
     1
 90
        6
176
     1
 90
        2
176
     1
 62
     7
176
     1
 90
        5
176
     1
 90
        0
176
     1
 90
        0
176
     1
290
     0
176
     1
 90
        1
176
     1
 40
0.0
176
     1
 90
        0
176
     1
290
     0
176
     1
290
     1
176
     1
290
     1
176
     1
290
     0
176
     1
290
     0
176
     1
290
     0
176
     1
290
     0
176
     1
290
     0
176
     1
290
     0
176
     1
 90
       50
176
     1
 40
0.0
176
     1
 40
1.0
176
     1
 90
        0
176
     1
 62
    18
420
        0
176
     1
 90
       50
176
     1
 90
        3
176
     1
 62
     5
420
      255
176
     1
290
     0
176
     1
 90
       50
176
     1
 90
       50
176
     1
 90
       50
176
     1
290
     0
176
     1
 90
       50
176
     1
 62
   256
176
     0
 40
1.0
176
     0
 90
        2
176
     1
  1
strokes_ogs.tif
176
     1
290
     0
176
     1
 40
1.0
176
     1
 40
1.0
176
     1
  0
VISUALSTYLE
  5
40
102
{ACAD_REACTORS
330
29
102
}
330
29
100
AcDbVisualStyle
  2
OverhangOff
 70
    21
177
     3
291
     1
 70
    58
 90
        2
176
     0
 90
        2
176
     0
 90
        0
176
     0
 90
        0
176
     0
 40
0.6
176
     0
 40
30.0
176
     0
 62
     7
420
 16777215
176
     0
 90
        1
176
     0
 90
        4
176
     0
 62
     7
176
     0
 62
   257
176
     0
 90
        1
176
     0
 90
        1
176
     0
 40
1.0
176
     0
 90
        9
176
     2
 62
     7
176
     0
 40
1.0
176
     0
 90
        1
176
     0
 90
        6
176
     0
 90
        2
176
     0
 62
     7
176
     0
 90
        5
176
     0
 90
        0
176
     0
 90
        0
176
     0
290
     0
176
     0
 90
        1
176
     0
 40
0.0
176
     0
 90
        0
176
     0
290
     0
176
     0
290
     1
176
     0
290
     1
176
     0
290
     0
176
     0
290
     0
176
     0
290
     0
176
     0
290
     0
176
     0
290
     0
176
     0
290
     0
176
     0
 90
       50
176
     0
 40
0.0
176
     0
 40
1.0
176
     0
 90
        0
176
     0
 62
    18
420
        0
176
     0
 90
       50
176
     0
 90
        3
176
     0
 62
     5
420
      255
176
     0
290
     0
176
     0
 90
       50
176
     0
 90
       50
176
     0
 90
       50
176
     0
290
     0
176
     0
 90
       50
176
     0
 62
   256
176
     0
 40
1.0
176
     0
 90
        2
176
     0
  1
strokes_ogs.tif
176
     0
290
     0
176
     0
 40
1.0
176
     0
 40
1.0
176
     0
  0
VISUALSTYLE
  5
33
102
{ACAD_REACTORS
330
29
102
}
330
29
100
AcDbVisualStyle
  2
Realistic
 70
     8
177
     3
291
     0
 70
    58
 90
        2
176
     1
 90
        3
176
     1
 90
        0
176
     1
 90
        2
176
     1
 40
0.6
176
     1
 40
30.0
176
     1
 62
     7
420
 16777215
176
     1
 90
        0
176
     1
 90
        0
176
     1
 62
     7
176
     1
 62
   257
176
     1
 90
        1
176
     1
 90
        1
176
     1
 40
1.0
176
     1
 90
        8
176
     1
 62
   257
176
     1
 40
1.0
176
     1
 90
        1
176
     1
 90
        6
176
     1
 90
        2
176
     1
 62
     7
176
     1
 90
        3
176
     1
 90
        0
176
     1
 90
        0
176
     1
290
     0
176
     1
 90
       13
176
     1
 40
0.0
176
     1
 90
        0
176
     1
290
     0
176
     1
290
     1
176
     1
290
     1
176
     1
290
     0
176
     1
290
     0
176
     1
290
     0
176
     1
290
     0
176
     1
290
     0
176
     1
290
     0
176
     1
 90
       50
176
     1
 40
0.0
176
     1
 40
1.0
176
     1
 90
        0
176
     1
 62
    18
420
        0
176
     1
 90
       50
176
     1
 90
        3
176
     1
 62
     5
420
      255
176
     1
290
     0
176
     1
 90
       50
176
     1
 90
       50
176
     1
 90
       50
176
     1
290
     0
176
     1
 90
       50
176
     1
 62
   256
176
     0
 40
1.0
176
     0
 90
        2
176
     1
  1
strokes_ogs.tif
176
     1
290
     0
176
     1
 40
1.0
176
     1
 40
1.0
176
     1
  0
VISUALSTYLE
  5
3E
102
{ACAD_REACTORS
330
29
102
}
330
29
100
AcDbVisualStyle
  2
Shaded
 70
    27
177
     3
291
     0
 70
    58
 90
        2
176
     1
 90
        2
176
     1
 90
        1
176
     1
 90
        2
176
     1
 40
0.6
176
     1
 40
30.0
176
     1
 62
     7
420
 16777215
176
     1
 90
        0
176
     1
 90
        4
176
     1
 62
     7
176
     1
 62
   257
176
     1
 90
        1
176
     1
 90
        1
176
     1
 40
1.0
176
     1
 90
        8
176
     1
 62
   257
176
     1
 40
1.0
176
     1
 90
        1
176
     1
 90
        6
176
     1
 90
        2
176
     1
 62
     8
420
  7895160
176
     1
 90
        3
176
     1
 90
        0
176
     1
 90
        0
176
     1
290
     0
176
     1
 90
        5
176
     1
 40
0.0
176
     1
 90
        0
176
     1
290
     0
176
     1
290
     1
176
     1
290
     1
176
     1
290
     0
176
     1
290
     0
176
     1
290
     0
176
     1
290
     0
176
     1
290
     0
176
     1
290
     0
176
     1
 90
       50
176
     1
 40
0.0
176
     1
 40
1.0
176
     1
 90
        0
176
     1
 62
    18
420
        0
176
     1
 90
       50
176
     1
 90
        3
176
     1
 62
     5
420
      255
176
     1
290
     0
176
     1
 90
       50
176
     1
 90
       50
176
     1
 90
       50
176
     1
290
     0
176
     1
 90
       50
176
     1
 62
   256
176
     0
 40
1.0
176
     0
 90
        2
176
     1
  1
strokes_ogs.tif
176
     1
290
     0
176
     1
 40
1.0
176
     1
 40
1.0
176
     1
  0
VISUALSTYLE
  5
3D
102
{ACAD_REACTORS
330
29
102
}
330
29
100
AcDbVisualStyle
  2
Shaded with edges
 70
    26
177
     3
291
     0
 70
    58
 90
        2
176
     1
 90
        2
176
     1
 90
        1
176
     1
 90
        2
176
     1
 40
0.6
176
     1
 40
30.0
176
     1
 62
     7
420
 16777215
176
     1
 90
        1
176
     1
 90
        2
176
     1
 62
     7
176
     1
 62
   257
176
     1
 90
        2
176
     1
 90
        1
176
     1
 40
1.0
176
     1
 90
        8
176
     1
 62
   257
176
     1
 40
1.0
176
     1
 90
        1
176
     1
 90
        6
176
     1
 90
        2
176
     1
 62
     7
176
     1
 90
        3
176
     1
 90
        0
176
     1
 90
        0
176
     1
290
     0
176
     1
 90
        5
176
     1
 40
0.0
176
     1
 90
        0
176
     1
290
     0
176
     1
290
     1
176
     1
290
     1
176
     1
290
     0
176
     1
290
     0
176
     1
290
     0
176
     1
290
     0
176
     1
290
     0
176
     1
290
     0
176
     1
 90
       50
176
     1
 40
0.0
176
     1
 40
1.0
176
     1
 90
        0
176
     1
 62
    18
420
        0
176
     1
 90
       50
176
     1
 90
        3
176
     1
 62
     5
420
      255
176
     1
290
     0
176
     1
 90
       50
176
     1
 90
       50
176
     1
 90
       50
176
     1
290
     0
176
     1
 90
       50
176
     1
 62
   256
176
     0
 40
1.0
176
     0
 90
        2
176
     1
  1
strokes_ogs.tif
176
     1
290
     0
176
     1
 40
1.0
176
     1
 40
1.0
176
     1
  0
VISUALSTYLE
  5
3A
102
{ACAD_REACTORS
330
29
102
}
330
29
100
AcDbVisualStyle
  2
Shades of Gray
 70
    23
177
     3
291
     0
 70
    58
 90
        2
176
     1
 90
        2
176
     1
 90
        3
176
     1
 90
        0
176
     1
 40
0.6
176
     1
 40
30.0
176
     1
 62
     7
420
 16777215
176
     1
 90
        2
176
     1
 90
        2
176
     1
 62
     7
176
     1
 62
     7
176
     1
 90
        1
176
     1
 90
        1
176
     1
 40
40.0
176
     1
 90
        8
176
     1
 62
     7
176
     1
 40
1.0
176
     1
 90
        1
176
     1
 90
        6
176
     1
 90
        2
176
     1
 62
     7
176
     1
 90
        3
176
     1
 90
        0
176
     1
 90
        0
176
     1
290
     0
176
     1
 90
        1
176
     1
 40
0.0
176
     1
 90
        0
176
     1
290
     0
176
     1
290
     1
176
     1
290
     1
176
     1
290
     0
176
     1
290
     0
176
     1
290
     0
176
     1
290
     0
176
     1
290
     0
176
     1
290
     0
176
     1
 90
       50
176
     1
 40
0.0
176
     1
 40
1.0
176
     1
 90
        0
176
     1
 62
    18
420
        0
176
     1
 90
       50
176
     1
 90
        3
176
     1
 62
     5
420
      255
176
     1
290
     0
176
     1
 90
       50
176
     1
 90
       50
176
     1
 90
       50
176
     1
290
     0
176
     1
 90
       50
176
     1
 62
   256
176
     0
 40
1.0
176
     0
 90
        2
176
     1
  1
strokes_ogs.tif
176
     1
290
     0
176
     1
 40
1.0
176
     1
 40
1.0
176
     1
  0
VISUALSTYLE
  5
3B
102
{ACAD_REACTORS
330
29
102
}
330
29
100
AcDbVisualStyle
  2
Sketchy
 70
    24
177
     3
291
     0
 70
    58
 90
        1
176
     1
 90
        2
176
     1
 90
        2
176
     1
 90
        0
176
     1
 40
0.6
176
     1
 40
30.0
176
     1
 62
     7
420
 16777215
176
     1
 90
        2
176
     1
 90
        2
176
     1
 62
     7
176
     1
 62
     7
176
     1
 90
        1
176
     1
 90
        1
176
     1
 40
40.0
176
     1
 90
       11
176
     1
 62
     7
176
     1
 40
1.0
176
     1
 90
        1
176
     1
 90
        6
176
     1
 90
        2
176
     1
 62
     7
176
     1
 90
        6
176
     1
 90
        0
176
     1
 90
        0
176
     1
290
     0
176
     1
 90
        1
176
     1
 40
0.0
176
     1
 90
        0
176
     1
290
     0
176
     1
290
     1
176
     1
290
     1
176
     1
290
     0
176
     1
290
     0
176
     1
290
     0
176
     1
290
     0
176
     1
290
     0
176
     1
290
     0
176
     1
 90
       50
176
     1
 40
0.0
176
     1
 40
1.0
176
     1
 90
        0
176
     1
 62
    18
420
        0
176
     1
 90
       50
176
     1
 90
        3
176
     1
 62
     5
420
      255
176
     1
290
     0
176
     1
 90
       50
176
     1
 90
       50
176
     1
 90
       50
176
     1
290
     0
176
     1
 90
       50
176
     1
 62
   256
176
     0
 40
1.0
176
     0
 90
        2
176
     1
  1
strokes_ogs.tif
176
     1
290
     0
176
     1
 40
1.0
176
     1
 40
1.0
176
     1
  0
VISUALSTYLE
  5
36
102
{ACAD_REACTORS
330
29
102
}
330
29
100
AcDbVisualStyle
  2
Thicken
 70
    13
177
     3
291
     1
 70
    58
 90
        2
176
     1
 90
        2
176
     1
 90
        0
176
     1
 90
        0
176
     1
 40
0.6
176
     1
 40
30.0
176
     1
 62
     7
420
 16777215
176
     1
 90
        1
176
     1
 90
        4
176
     1
 62
     7
176
     1
 62
   257
176
     1
 90
        1
176
     1
 90
        1
176
     1
 40
1.0
176
     1
 90
       12
176
     1
 62
     7
176
     1
 40
1.0
176
     1
 90
        1
176
     1
 90
        6
176
     1
 90
        2
176
     1
 62
     7
176
     1
 90
        5
176
     1
 90
        0
176
     1
 90
        0
176
     1
290
     0
176
     1
 90
        1
176
     1
 40
0.0
176
     1
 90
        0
176
     1
290
     0
176
     1
290
     1
176
     1
290
     1
176
     1
290
     0
176
     1
290
     0
176
     1
290
     0
176
     1
290
     0
176
     1
290
     0
176
     1
290
     0
176
     1
 90
       50
176
     1
 40
0.0
176
     1
 40
1.0
176
     1
 90
        0
176
     1
 62
    18
420
        0
176
     1
 90
       50
176
     1
 90
        3
176
     1
 62
     5
420
      255
176
     1
290
     0
176
     1
 90
       50
176
     1
 90
       50
176
     1
 90
       50
176
     1
290
     0
176
     1
 90
       50
176
     1
 62
   256
176
     0
 40
1.0
176
     0
 90
        2
176
     1
  1
strokes_ogs.tif
176
     1
290
     0
176
     1
 40
1.0
176
     1
 40
1.0
176
     1
  0
VISUALSTYLE
  5
30
102
{ACAD_REACTORS
330
29
102
}
330
29
100
AcDbVisualStyle
  2
Wireframe
 70
     5
177
     3
291
     0
 70
    58
 90
        0
176
     1
 90
        2
176
     1
 90
        0
176
     1
 90
        0
176
     1
 40
0.6
176
     1
 40
30.0
176
     1
 62
     7
420
 16777215
176
     1
 90
        1
176
     1
 90
        4
176
     1
 62
     7
176
     1
 62
   257
176
     1
 90
        1
176
     1
 90
        1
176
     1
 40
1.0
176
     1
 90
        0
176
     1
 62
   257
176
     1
 40
1.0
176
     1
 90
        1
176
     1
 90
        6
176
     1
 90
        2
176
     1
 62
     7
176
     1
 90
        3
176
     1
 90
        0
176
     1
 90
        0
176
     1
290
     0
176
     1
 90
        1
176
     1
 40
0.0
176
     1
 90
        0
176
     1
290
     0
176
     1
290
     1
176
     1
290
     1
176
     1
290
     0
176
     1
290
     0
176
     1
290
     0
176
     1
290
     0
176
     1
290
     0
176
     1
290
     0
176
     1
 90
       50
176
     1
 40
0.0
176
     1
 40
1.0
176
     1
 90
        0
176
     1
 62
    18
420
        0
176
     1
 90
       50
176
     1
 90
        3
176
     1
 62
     5
420
      255
176
     1
290
     0
176
     1
 90
       50
176
     1
 90
       50
176
     1
 90
       50
176
     1
290
     0
176
     1
 90
       50
176
     1
 62
   256
176
     0
 40
1.0
176
     0
 90
        2
176
     1
  1
strokes_ogs.tif
176
     1
290
     0
176
     1
 40
1.0
176
     1
 40
1.0
176
     1
  0
VISUALSTYLE
  5
3C
102
{ACAD_REACTORS
330
29
102
}
330
29
100
AcDbVisualStyle
  2
X-Ray
 70
    25
177
     3
291
     0
 70
    58
 90
        2
176
     1
 90
        2
176
     1
 90
        1
176
     1
 90
        1
176
     1
 40
0.5
176
     1
 40
30.0
176
     1
 62
     7
420
 16777215
176
     1
 90
        1
176
     1
 90
        0
176
     1
 62
     7
176
     1
 62
   257
176
     1
 90
        1
176
     1
 90
        1
176
     1
 40
1.0
176
     1
 90
        8
176
     1
 62
     7
176
     1
 40
1.0
176
     1
 90
        1
176
     1
 90
        6
176
     1
 90
        2
176
     1
 62
     7
176
     1
 90
        3
176
     1
 90
        0
176
     1
 90
        0
176
     1
290
     0
176
     1
 90
       13
176
     1
 40
0.0
176
     1
 90
        0
176
     1
290
     0
176
     1
290
     1
176
     1
290
     1
176
     1
290
     0
176
     1
290
     0
176
     1
290
     0
176
     1
290
     0
176
     1
290
     0
176
     1
290
     0
176
     1
 90
       50
176
     1
 40
0.0
176
     1
 40
1.0
176
     1
 90
        0
176
     1
 62
    18
420
        0
176
     1
 90
       50
176
     1
 90
        3
176
     1
 62
     5
420
      255
176
     1
290
     0
176
     1
 90
       50
176
     1
 90
       50
176
     1
 90
       50
176
     1
290
     0
176
     1
 90
       50
176
     1
 62
   256
176
     0
 40
1.0
176
     0
 90
        2
176
     1
  1
strokes_ogs.tif
176
     1
290
     0
176
     1
 40
1.0
176
     1
 40
1.0
176
     1
  0
DICTIONARYVAR
  5
12E
102
{ACAD_REACTORS
330
129
102
}
330
129
100
DictionaryVariables
280
     0
  1
1:1
  0
DICTIONARYVAR
  5
12B
102
{ACAD_REACTORS
330
129
102
}
330
129
100
DictionaryVariables
280
     0
  1
STANDARD
  0
DICTIONARYVAR
  5
12A
102
{ACAD_REACTORS
330
129
102
}
330
129
100
DictionaryVariables
280
     0
  1
STANDARD
  0
DICTIONARYVAR
  5
12C
102
{ACAD_REACTORS
330
129
102
}
330
129
100
DictionaryVariables
280
     0
  1
Imperial24
  0
DICTIONARYVAR
  5
12D
102
{ACAD_REACTORS
330
129
102
}
330
129
100
DictionaryVariables
280
     0
  1
Imperial24
  0
DICTIONARY
  5
1A
330
19
100
AcDbDictionary
280
     1
281
     1
  3
BUMPTILE
360
1C
  3
DIFFUSETILE
360
1B
  3
OPACITYTILE
360
1F
  3
REFLECTIONTILE
360
1E
  3
REFRACTIONTILE
360
20
  3
SPECULARTILE
360
1D
  0
DICTIONARY
  5
12
330
11
100
AcDbDictionary
280
     1
281
     1
  3
BUMPTILE
360
14
  3
DIFFUSETILE
360
13
  3
OPACITYTILE
360
17
  3
REFLECTIONTILE
360
16
  3
REFRACTIONTILE
360
18
  3
SPECULARTILE
360
15
  0
DICTIONARY
  5
22
330
21
100
AcDbDictionary
280
     1
281
     1
  3
BUMPTILE
360
24
  3
DIFFUSETILE
360
23
  3
OPACITYTILE
360
27
  3
REFLECTIONTILE
360
26
  3
REFRACTIONTILE
360
28
  3
SPECULARTILE
360
25
  0
DICTIONARY
  5
12F
330
65
100
AcDbDictionary
280
     1
281
     1
  3
ACAD_ROUNDTRIP_2008_TABLESTYLE_CELLSTYLEMAP
360
130
  0
XRECORD
  5
1C
102
{ACAD_REACTORS
330
1A
102
}
330
1A
100
AcDbXrecord
280
     1
270
     1
271
     1
  0
XRECORD
  5
1B
102
{ACAD_REACTORS
330
1A
102
}
330
1A
100
AcDbXrecord
280
     1
270
     1
271
     1
  0
XRECORD
  5
1F
102
{ACAD_REACTORS
330
1A
102
}
330
1A
100
AcDbXrecord
280
     1
270
     1
271
     1
  0
XRECORD
  5
1E
102
{ACAD_REACTORS
330
1A
102
}
330
1A
100
AcDbXrecord
280
     1
270
     1
271
     1
  0
XRECORD
  5
20
102
{ACAD_REACTORS
330
1A
102
}
330
1A
100
AcDbXrecord
280
     1
270
     1
271
     1
  0
XRECORD
  5
1D
102
{ACAD_REACTORS
330
1A
102
}
330
1A
100
AcDbXrecord
280
     1
270
     1
271
     1
  0
XRECORD
  5
14
102
{ACAD_REACTORS
330
12
102
}
330
12
100
AcDbXrecord
280
     1
270
     1
271
     1
  0
XRECORD
  5
13
102
{ACAD_REACTORS
330
12
102
}
330
12
100
AcDbXrecord
280
     1
270
     1
271
     1
  0
XRECORD
  5
17
102
{ACAD_REACTORS
330
12
102
}
330
12
100
AcDbXrecord
280
     1
270
     1
271
     1
  0
XRECORD
  5
16
102
{ACAD_REACTORS
330
12
102
}
330
12
100
AcDbXrecord
280
     1
270
     1
271
     1
  0
XRECORD
  5
18
102
{ACAD_REACTORS
330
12
102
}
330
12
100
AcDbXrecord
280
     1
270
     1
271
     1
  0
XRECORD
  5
15
102
{ACAD_REACTORS
330
12
102
}
330
12
100
AcDbXrecord
280
     1
270
     1
271
     1
  0
XRECORD
  5
24
102
{ACAD_REACTORS
330
22
102
}
330
22
100
AcDbXrecord
280
     1
270
     1
271
     1
  0
XRECORD
  5
23
102
{ACAD_REACTORS
330
22
102
}
330
22
100
AcDbXrecord
280
     1
270
     1
271
     1
  0
XRECORD
  5
27
102
{ACAD_REACTORS
330
22
102
}
330
22
100
AcDbXrecord
280
     1
270
     1
271
     1
  0
XRECORD
  5
26
102
{ACAD_REACTORS
330
22
102
}
330
22
100
AcDbXrecord
280
     1
270
     1
271
     1
  0
XRECORD
  5
28
102
{ACAD_REACTORS
330
22
102
}
330
22
100
AcDbXrecord
280
     1
270
     1
271
     1
  0
XRECORD
  5
25
102
{ACAD_REACTORS
330
22
102
}
330
22
100
AcDbXrecord
280
     1
270
     1
271
     1
  0
CELLSTYLEMAP
  5
130
102
{ACAD_REACTORS
330
12F
102
}
330
12F
100
AcDbCellStyleMap
 90
        3
300
CELLSTYLE
  1
TABLEFORMAT_BEGIN
 90
        5
170
     1
 91
        0
 92
    32768
 62
   257
 93
        1
300
CONTENTFORMAT
  1
CONTENTFORMAT_BEGIN
 90
        0
 91
        0
 92
      512
 93
        0
300

 40
0.0
140
1.0
 94
        5
 62
     0
340
55
144
0.25
309
CONTENTFORMAT_END
171
     0
 94
        0
309
TABLEFORMAT_END
  1
CELLSTYLE_BEGIN
 90
        1
 91
        1
300
_TITLE
309
CELLSTYLE_END
300
CELLSTYLE
  1
TABLEFORMAT_BEGIN
 90
        5
170
     1
 91
        0
 92
        0
 62
   257
 93
        1
300
CONTENTFORMAT
  1
CONTENTFORMAT_BEGIN
 90
        0
 91
        0
 92
      512
 93
        0
300

 40
0.0
140
1.0
 94
        5
 62
     0
340
55
144
0.18
309
CONTENTFORMAT_END
171
     0
 94
        0
309
TABLEFORMAT_END
  1
CELLSTYLE_BEGIN
 90
        2
 91
        1
300
_HEADER
309
CELLSTYLE_END
300
CELLSTYLE
  1
TABLEFORMAT_BEGIN
 90
        5
170
     1
 91
        0
 92
        0
 62
   257
 93
        1
300
CONTENTFORMAT
  1
CONTENTFORMAT_BEGIN
 90
        0
 91
        0
 92
      512
 93
        0
300

 40
0.0
140
1.0
 94
        2
 62
     0
340
55
144
0.18
309
CONTENTFORMAT_END
171
     0
 94
        0
309
TABLEFORMAT_END
  1
CELLSTYLE_BEGIN
 90
        3
 91
        2
300
_DATA
309
CELLSTYLE_END
  0
ENDSEC
  0
EOF
