  0
SECTION
  2
HEADER
  9
$ACADVER
  1
AC1032
  9
$ACADMAINTVER
 90
      228
  9
$DWGCODEPAGE
  3
ANSI_932
  9
$REQUIREDVERSIONS
160
                 0
  9
$INSBASE
 10
0.0
 20
0.0
 30
0.0
  9
$EXTMIN
 10
1.000000000000000E+20
 20
1.000000000000000E+20
 30
1.000000000000000E+20
  9
$EXTMAX
 10
-1.000000000000000E+20
 20
-1.000000000000000E+20
 30
-1.000000000000000E+20
  9
$LIMMIN
 10
0.0
 20
0.0
  9
$LIMMAX
 10
12.0
 20
9.0
  9
$ORTHOMODE
 70
     0
  9
$REGENMODE
 70
     1
  9
$FILLMODE
 70
     1
  9
$QTEXTMODE
 70
     0
  9
$MIRRTEXT
 70
     0
  9
$LTSCALE
 40
1.0
  9
$ATTMODE
 70
     1
  9
$TEXTSIZE
 40
0.2
  9
$TRACEWID
 40
0.05
  9
$TEXTSTYLE
  7
Standard
  9
$CLAYER
  8
0
  9
$CELTYPE
  6
ByLayer
  9
$CECOLOR
 62
   256
  9
$CELTSCALE
 40
1.0
  9
$DISPSILH
 70
     0
  9
$DIMSCALE
 40
1.0
  9
$DIMASZ
 40
0.18
  9
$DIMEXO
 40
0.0625
  9
$DIMDLI
 40
0.38
  9
$DIMRND
 40
0.0
  9
$DIMDLE
 40
0.0
  9
$DIMEXE
 40
0.18
  9
$DIMTP
 40
0.0
  9
$DIMTM
 40
0.0
  9
$DIMTXT
 40
0.18
  9
$DIMCEN
 40
0.09
  9
$DIMTSZ
 40
0.0
  9
$DIMTOL
 70
     0
  9
$DIMLIM
 70
     0
  9
$DIMTIH
 70
     1
  9
$DIMTOH
 70
     1
  9
$DIMSE1
 70
     0
  9
$DIMSE2
 70
     0
  9
$DIMTAD
 70
     0
  9
$DIMZIN
 70
     0
  9
$DIMBLK
  1

  9
$DIMASO
 70
     1
  9
$DIMSHO
 70
     1
  9
$DIMPOST
  1

  9
$DIMAPOST
  1

  9
$DIMALT
 70
     0
  9
$DIMALTD
 70
     2
  9
$DIMALTF
 40
25.4
  9
$DIMLFAC
 40
1.0
  9
$DIMTOFL
 70
     0
  9
$DIMTVP
 40
0.0
  9
$DIMTIX
 70
     0
  9
$DIMSOXD
 70
     0
  9
$DIMSAH
 70
     0
  9
$DIMBLK1
  1

  9
$DIMBLK2
  1

  9
$DIMSTYLE
  2
Standard
  9
$DIMCLRD
 70
     0
  9
$DIMCLRE
 70
     0
  9
$DIMCLRT
 70
     0
  9
$DIMTFAC
 40
1.0
  9
$DIMGAP
 40
0.09
  9
$DIMJUST
 70
     0
  9
$DIMSD1
 70
     0
  9
$DIMSD2
 70
     0
  9
$DIMTOLJ
 70
     1
  9
$DIMTZIN
 70
     0
  9
$DIMALTZ
 70
     0
  9
$DIMALTTZ
 70
     0
  9
$DIMUPT
 70
     0
  9
$DIMDEC
 70
     4
  9
$DIMTDEC
 70
     4
  9
$DIMALTU
 70
     2
  9
$DIMALTTD
 70
     2
  9
$DIMTXSTY
  7
Standard
  9
$DIMAUNIT
 70
     0
  9
$DIMADEC
 70
     0
  9
$DIMALTRND
 40
0.0
  9
$DIMAZIN
 70
     0
  9
$DIMDSEP
 70
    46
  9
$DIMATFIT
 70
     3
  9
$DIMFRAC
 70
     0
  9
$DIMLDRBLK
  1

  9
$DIMLUNIT
 70
     2
  9
$DIMLWD
 70
    -2
  9
$DIMLWE
 70
    -2
  9
$DIMTMOVE
 70
     0
  9
$DIMFXL
 40
1.0
  9
$DIMFXLON
 70
     0
  9
$DIMJOGANG
 40
0.7853981633974483
  9
$DIMTFILL
 70
     0
  9
$DIMTFILLCLR
 70
     0
  9
$DIMARCSYM
 70
     0
  9
$DIMLTYPE
  6

  9
$DIMLTEX1
  6

  9
$DIMLTEX2
  6

  9
$DIMTXTDIRECTION
 70
     0
  9
$LUNITS
 70
     2
  9
$LUPREC
 70
     4
  9
$SKETCHINC
 40
0.1
  9
$FILLETRAD
 40
0.0
  9
$AUNITS
 70
     0
  9
$AUPREC
 70
     0
  9
$MENU
  1
.
  9
$ELEVATION
 40
0.0
  9
$PELEVATION
 40
0.0
  9
$THICKNESS
 40
0.0
  9
$LIMCHECK
 70
     0
  9
$CHAMFERA
 40
0.0
  9
$CHAMFERB
 40
0.0
  9
$CHAMFERC
 40
0.0
  9
$CHAMFERD
 40
0.0
  9
$SKPOLY
 70
     0
  9
$TDCREATE
 40
2460061.450960648
  9
$TDUCREATE
 40
2460061.075960648
  9
$TDUPDATE
 40
2460061.450960648
  9
$TDUUPDATE
 40
2460061.075960648
  9
$TDINDWG
 40
0.0000000000
  9
$TDUSRTIMER
 40
0.0000000000
  9
$USRTIMER
 70
     1
  9
$ANGBASE
 50
0.0
  9
$ANGDIR
 70
     0
  9
$PDMODE
 70
     0
  9
$PDSIZE
 40
0.0
  9
$PLINEWID
 40
0.0
  9
$SPLFRAME
 70
     0
  9
$SPLINETYPE
 70
     6
  9
$SPLINESEGS
 70
     8
  9
$HANDSEED
  5
CE
  9
$SURFTAB1
 70
     6
  9
$SURFTAB2
 70
     6
  9
$SURFTYPE
 70
     6
  9
$SURFU
 70
     6
  9
$SURFV
 70
     6
  9
$UCSBASE
  2

  9
$UCSNAME
  2

  9
$UCSORG
 10
0.0
 20
0.0
 30
0.0
  9
$UCSXDIR
 10
1.0
 20
0.0
 30
0.0
  9
$UCSYDIR
 10
0.0
 20
1.0
 30
0.0
  9
$UCSORTHOREF
  2

  9
$UCSORTHOVIEW
 70
     0
  9
$UCSORGTOP
 10
0.0
 20
0.0
 30
0.0
  9
$UCSORGBOTTOM
 10
0.0
 20
0.0
 30
0.0
  9
$UCSORGLEFT
 10
0.0
 20
0.0
 30
0.0
  9
$UCSORGRIGHT
 10
0.0
 20
0.0
 30
0.0
  9
$UCSORGFRONT
 10
0.0
 20
0.0
 30
0.0
  9
$UCSORGBACK
 10
0.0
 20
0.0
 30
0.0
  9
$PUCSBASE
  2

  9
$PUCSNAME
  2

  9
$PUCSORG
 10
0.0
 20
0.0
 30
0.0
  9
$PUCSXDIR
 10
1.0
 20
0.0
 30
0.0
  9
$PUCSYDIR
 10
0.0
 20
1.0
 30
0.0
  9
$PUCSORTHOREF
  2

  9
$PUCSORTHOVIEW
 70
     0
  9
$PUCSORGTOP
 10
0.0
 20
0.0
 30
0.0
  9
$PUCSORGBOTTOM
 10
0.0
 20
0.0
 30
0.0
  9
$PUCSORGLEFT
 10
0.0
 20
0.0
 30
0.0
  9
$PUCSORGRIGHT
 10
0.0
 20
0.0
 30
0.0
  9
$PUCSORGFRONT
 10
0.0
 20
0.0
 30
0.0
  9
$PUCSORGBACK
 10
0.0
 20
0.0
 30
0.0
  9
$USERI1
 70
     0
  9
$USERI2
 70
     0
  9
$USERI3
 70
     0
  9
$USERI4
 70
     0
  9
$USERI5
 70
     0
  9
$USERR1
 40
0.0
  9
$USERR2
 40
0.0
  9
$USERR3
 40
0.0
  9
$USERR4
 40
0.0
  9
$USERR5
 40
0.0
  9
$WORLDVIEW
 70
     1
  9
$SHADEDGE
 70
     3
  9
$SHADEDIF
 70
    70
  9
$TILEMODE
 70
     1
  9
$MAXACTVP
 70
    64
  9
$PINSBASE
 10
0.0
 20
0.0
 30
0.0
  9
$PLIMCHECK
 70
     0
  9
$PEXTMIN
 10
1.000000000000000E+20
 20
1.000000000000000E+20
 30
1.000000000000000E+20
  9
$PEXTMAX
 10
-1.000000000000000E+20
 20
-1.000000000000000E+20
 30
-1.000000000000000E+20
  9
$PLIMMIN
 10
0.0
 20
0.0
  9
$PLIMMAX
 10
12.0
 20
9.0
  9
$UNITMODE
 70
     0
  9
$VISRETAIN
 70
     1
  9
$PLINEGEN
 70
     0
  9
$PSLTSCALE
 70
     1
  9
$TREEDEPTH
 70
  3020
  9
$CMLSTYLE
  2
Standard
  9
$CMLJUST
 70
     0
  9
$CMLSCALE
 40
1.0
  9
$PROXYGRAPHICS
 70
     1
  9
$MEASUREMENT
 70
     0
  9
$CELWEIGHT
370
    -1
  9
$ENDCAPS
280
     0
  9
$JOINSTYLE
280
     0
  9
$LWDISPLAY
290
     1
  9
$INSUNITS
 70
     4
  9
$HYPERLINKBASE
  1

  9
$STYLESHEET
  1

  9
$XEDIT
290
     1
  9
$CEPSNTYPE
380
     0
  9
$PSTYLEMODE
290
     1
  9
$FINGERPRINTGUID
  2
{4E650D04-87B1-B041-B1F2-D5902D851DCB}
  9
$VERSIONGUID
  2
{DA6ED2B2-D7B5-8A44-8C95-F12C40E94FFD}
  9
$EXTNAMES
290
     1
  9
$PSVPSCALE
 40
0.0
  9
$OLESTARTUP
290
     0
  9
$SORTENTS
280
   127
  9
$INDEXCTL
280
     0
  9
$HIDETEXT
280
     1
  9
$XCLIPFRAME
280
     2
  9
$HALOGAP
280
     0
  9
$OBSCOLOR
 70
   257
  9
$OBSLTYPE
280
     0
  9
$INTERSECTIONDISPLAY
280
     0
  9
$INTERSECTIONCOLOR
 70
   257
  9
$DIMASSOC
280
     2
  9
$PROJECTNAME
  1

  9
$CAMERADISPLAY
290
     0
  9
$LENSLENGTH
 40
50.0
  9
$CAMERAHEIGHT
 40
0.0
  9
$STEPSPERSEC
 40
2.0
  9
$STEPSIZE
 40
6.0
  9
$3DDWFPREC
 40
2.0
  9
$PSOLWIDTH
 40
0.25
  9
$PSOLHEIGHT
 40
4.0
  9
$LOFTANG1
 40
1.570796326794896
  9
$LOFTANG2
 40
1.570796326794896
  9
$LOFTMAG1
 40
0.0
  9
$LOFTMAG2
 40
0.0
  9
$LOFTPARAM
 70
     7
  9
$LOFTNORMALS
280
     1
  9
$LATITUDE
 40
37.795
  9
$LONGITUDE
 40
-122.394
  9
$NORTHDIRECTION
 40
0.0
  9
$TIMEZONE
 70
 -8000
  9
$LIGHTGLYPHDISPLAY
280
     1
  9
$TILEMODELIGHTSYNCH
280
     1
  9
$CMATERIAL
347
11
  9
$SOLIDHIST
280
     0
  9
$SHOWHIST
280
     1
  9
$DWFFRAME
280
     2
  9
$DGNFRAME
280
     0
  9
$REALWORLDSCALE
290
     1
  9
$INTERFERECOLOR
 62
     1
  9
$INTERFEREOBJVS
345
33
  9
$INTERFEREVPVS
346
30
  9
$CSHADOW
280
     0
  9
$SHADOWPLANELOCATION
 40
0.0
  0
ENDSEC
  0
SECTION
  2
CLASSES
  0
CLASS
  1
ACDBDICTIONARYWDFLT
  2
AcDbDictionaryWithDefault
  3
ObjectDBX Classes
 90
        0
 91
        1
280
     0
281
     0
  0
CLASS
  1
MATERIAL
  2
AcDbMaterial
  3
ObjectDBX Classes
 90
     1153
 91
        3
280
     0
281
     0
  0
CLASS
  1
VISUALSTYLE
  2
AcDbVisualStyle
  3
ObjectDBX Classes
 90
     4095
 91
       24
280
     0
281
     0
  0
CLASS
  1
SCALE
  2
AcDbScale
  3
ObjectDBX Classes
 90
     1153
 91
       17
280
     0
281
     0
  0
CLASS
  1
TABLESTYLE
  2
AcDbTableStyle
  3
ObjectDBX Classes
 90
     4095
 91
        1
280
     0
281
     0
  0
CLASS
  1
MLEADERSTYLE
  2
AcDbMLeaderStyle
  3
ACDB_MLEADERSTYLE_CLASS
 90
     4095
 91
        1
280
     0
281
     0
  0
CLASS
  1
ACDBSECTIONVIEWSTYLE
  2
AcDbSectionViewStyle
  3
ObjectDBX Classes
 90
     1025
 91
        1
280
     0
281
     0
  0
CLASS
  1
ACDBDETAILVIEWSTYLE
  2
AcDbDetailViewStyle
  3
ObjectDBX Classes
 90
     1025
 91
        1
280
     0
281
     0
  0
CLASS
  1
DICTIONARYVAR
  2
AcDbDictionaryVar
  3
ObjectDBX Classes
 90
        0
 91
        5
280
     0
281
     0
  0
CLASS
  1
CELLSTYLEMAP
  2
AcDbCellStyleMap
  3
ObjectDBX Classes
 90
     1152
 91
        1
280
     0
281
     0
  0
ENDSEC
  0
SECTION
  2
TABLES
  0
TABLE
  2
VPORT
  5
8
330
0
100
AcDbSymbolTable
 70
     1
  0
VPORT
  5
57
330
8
100
AcDbSymbolTableRecord
100
AcDbViewportTableRecord
  2
*Active
 70
     0
 10
0.0
 20
0.0
 11
1.0
 21
1.0
 12
0.0
 22
0.0
 13
0.0
 23
0.0
 14
1.0
 24
1.0
 15
0.0
 25
0.0
 16
0.0
 26
0.0
 36
1.0
 17
338.666666582
 27
189.6804137880486
 37
0.0
 40
390.291955678071
 41
1.770162028133489
 42
50.0
 43
0.0
 44
0.0
 50
0.0
 51
0.0
 71
     0
 72
   100
 73
     1
 74
     1
 75
     0
 76
     0
 77
     0
 78
     0
281
     0
 65
     1
110
0.0
120
0.0
130
0.0
111
1.0
121
0.0
131
0.0
112
0.0
122
1.0
132
0.0
 79
     0
146
0.0
 60
     3
 61
     5
292
     1
282
     1
141
0.0
142
0.0
 63
   250
421
  3355443
  0
ENDTAB
  0
TABLE
  2
LTYPE
  5
5
330
0
100
AcDbSymbolTable
 70
     1
  0
LTYPE
  5
5B
330
5
100
AcDbSymbolTableRecord
100
AcDbLinetypeTableRecord
  2
ByBlock
 70
     0
  3

 72
    65
 73
     0
 40
0.0
  0
LTYPE
  5
5C
330
5
100
AcDbSymbolTableRecord
100
AcDbLinetypeTableRecord
  2
ByLayer
 70
     0
  3

 72
    65
 73
     0
 40
0.0
  0
LTYPE
  5
5D
330
5
100
AcDbSymbolTableRecord
100
AcDbLinetypeTableRecord
  2
Continuous
 70
     0
  3
Solid line
 72
    65
 73
     0
 40
0.0
  0
ENDTAB
  0
TABLE
  2
LAYER
  5
2
330
0
100
AcDbSymbolTable
 70
     7
  0
LAYER
  5
54
330
2
100
AcDbSymbolTableRecord
100
AcDbLayerTableRecord
  2
0
 70
     0
 62
     7
  6
Continuous
370
    -3
390
F
347
21
348
0
  0
LAYER
  5
78
330
2
100
AcDbSymbolTableRecord
100
AcDbLayerTableRecord
  2
DIM
 70
     0
 62
     7
  6
Continuous
370
     0
390
F
347
21
348
0
  0
LAYER
  5
7D
330
2
100
AcDbSymbolTableRecord
100
AcDbLayerTableRecord
  2
レイヤー_1
 70
     0
 62
     7
  6
Continuous
370
     0
390
F
347
21
348
0
  0
LAYER
  5
82
330
2
100
AcDbSymbolTableRecord
100
AcDbLayerTableRecord
  2
FLAME
 70
     0
 62
     7
  6
Continuous
370
     0
390
F
347
21
348
0
  0
LAYER
  5
83
330
2
100
AcDbSymbolTableRecord
100
AcDbLayerTableRecord
  2
Defpoints
 70
     0
 62
     7
  6
Continuous
290
     0
370
     0
390
F
347
21
348
0
  0
LAYER
  5
84
330
2
100
AcDbSymbolTableRecord
100
AcDbLayerTableRecord
  2
text
 70
     0
 62
     7
  6
Continuous
370
     0
390
F
347
21
348
0
  0
LAYER
  5
85
330
2
100
AcDbSymbolTableRecord
100
AcDbLayerTableRecord
  2
shade
 70
     0
 62
     7
  6
Continuous
370
     0
390
F
347
21
348
0
  0
ENDTAB
  0
TABLE
  2
STYLE
  5
3
330
0
100
AcDbSymbolTable
 70
     2
  0
STYLE
  5
55
330
3
100
AcDbSymbolTableRecord
100
AcDbTextStyleTableRecord
  2
Standard
 70
     0
 40
0.0
 41
1.0
 50
0.0
 71
     0
 42
0.2
  3
txt
  4

  0
STYLE
  5
5A
330
3
100
AcDbSymbolTableRecord
100
AcDbTextStyleTableRecord
  2
Annotative
 70
     0
 40
0.0
 41
1.0
 50
0.0
 71
     0
 42
0.2
  3
txt
  4

1001
AcadAnnotative
1000
AnnotativeData
1002
{
1070
     1
1070
     1
1002
}
  0
ENDTAB
  0
TABLE
  2
VIEW
  5
6
330
0
100
AcDbSymbolTable
 70
     0
  0
ENDTAB
  0
TABLE
  2
UCS
  5
7
330
0
100
AcDbSymbolTable
 70
     0
  0
ENDTAB
  0
TABLE
  2
APPID
  5
9
330
0
100
AcDbSymbolTable
 70
     2
  0
APPID
  5
56
330
9
100
AcDbSymbolTableRecord
100
AcDbRegAppTableRecord
  2
ACAD
 70
     0
  0
APPID
  5
5E
330
9
100
AcDbSymbolTableRecord
100
AcDbRegAppTableRecord
  2
AcadAnnotative
 70
     0
  0
ENDTAB
  0
TABLE
  2
DIMSTYLE
  5
A
330
0
100
AcDbSymbolTable
 70
     2
100
AcDbDimStyleTable
 71
     0
  0
DIMSTYLE
105
58
330
A
100
AcDbSymbolTableRecord
100
AcDbDimStyleTableRecord
  2
Standard
 70
     0
340
55
  0
DIMSTYLE
105
59
330
A
100
AcDbSymbolTableRecord
100
AcDbDimStyleTableRecord
  2
Annotative
 70
     0
340
55
1001
AcadAnnotative
1000
AnnotativeData
1002
{
1070
     1
1070
     1
1002
}
  0
ENDTAB
  0
TABLE
  2
BLOCK_RECORD
  5
1
330
0
100
AcDbSymbolTable
 70
     3
  0
BLOCK_RECORD
  5
70
330
1
100
AcDbSymbolTableRecord
100
AcDbBlockTableRecord
  2
*Model_Space
340
73
 70
     0
280
     1
281
     0
  0
BLOCK_RECORD
  5
6C
330
1
100
AcDbSymbolTableRecord
100
AcDbBlockTableRecord
  2
*Paper_Space
340
6F
 70
     0
280
     1
281
     0
  0
BLOCK_RECORD
  5
74
330
1
100
AcDbSymbolTableRecord
100
AcDbBlockTableRecord
  2
*Paper_Space0
340
77
 70
     0
280
     1
281
     0
  0
BLOCK_RECORD
  5
79
330
1
100
AcDbSymbolTableRecord
100
AcDbBlockTableRecord
  2
Block_0
340
0
102
{BLKREFS
331
7A
102
}
 70
     0
280
     1
281
     0
  0
BLOCK_RECORD
  5
86
330
1
100
AcDbSymbolTableRecord
100
AcDbBlockTableRecord
  2
Block_1
340
0
102
{BLKREFS
331
87
102
}
 70
     0
280
     1
281
     0
  0
ENDTAB
  0
ENDSEC
  0
SECTION
  2
BLOCKS
  0
BLOCK
  5
71
330
70
100
AcDbEntity
  8
0
100
AcDbBlockBegin
  2
*Model_Space
 70
     0
 10
0.0
 20
0.0
 30
0.0
  3
*Model_Space
  1

  0
ENDBLK
  5
72
330
70
100
AcDbEntity
  8
0
100
AcDbBlockEnd
  0
BLOCK
  5
6D
330
6C
100
AcDbEntity
 67
     1
  8
0
100
AcDbBlockBegin
  2
*Paper_Space
 70
     0
 10
0.0
 20
0.0
 30
0.0
  3
*Paper_Space
  1

  0
ENDBLK
  5
6E
330
6C
100
AcDbEntity
 67
     1
  8
0
100
AcDbBlockEnd
  0
BLOCK
  5
75
330
74
100
AcDbEntity
 67
     1
  8
0
100
AcDbBlockBegin
  2
*Paper_Space0
 70
     0
 10
0.0
 20
0.0
 30
0.0
  3
*Paper_Space0
  1

  0
ENDBLK
  5
76
330
74
100
AcDbEntity
 67
     1
  8
0
100
AcDbBlockEnd
  0
BLOCK
  5
7B
330
79
100
AcDbEntity
  8
0
100
AcDbBlockBegin
  2
Block_0
 70
     0
 10
0.0
 20
0.0
 30
0.0
  3
Block_0
  1

  0
ENDBLK
  5
7C
330
79
100
AcDbEntity
  8
0
100
AcDbBlockEnd
  0
BLOCK
  5
88
330
86
100
AcDbEntity
  8
0
100
AcDbBlockBegin
  2
Block_1
 70
     0
 10
0.0
 20
0.0
 30
0.0
  3
Block_1
  1

  0
LINE
  5
8A
330
86
100
AcDbEntity
  8
shade
 62
     2
420
 16776960
370
    25
100
AcDbLine
 10
390.3202363765649
 20
266.3700474586624
 30
0.0
 11
390.3202363765649
 21
123.8980152441158
 31
0.0
  0
LINE
  5
8B
330
86
100
AcDbEntity
  8
shade
 62
     2
420
 16776960
370
    25
100
AcDbLine
 10
268.2013516212085
 20
123.8980152441158
 30
0.0
 11
268.2013516212085
 21
266.3700474586624
 31
0.0
  0
LINE
  5
8C
330
86
100
AcDbEntity
  8
shade
 62
     2
420
 16776960
370
    25
100
AcDbLine
 10
390.3202363765649
 20
130.6823977305074
 30
0.0
 11
268.2013516212085
 21
130.6823977305074
 31
0.0
  0
LINE
  5
8D
330
86
100
AcDbEntity
  8
shade
 62
     2
420
 16776960
370
    25
100
AcDbLine
 10
390.3202363765649
 20
144.2511627033367
 30
0.0
 11
268.2013516212085
 21
144.2511627033367
 31
0.0
  0
LINE
  5
8E
330
86
100
AcDbEntity
  8
shade
 62
     2
420
 16776960
370
    25
100
AcDbLine
 10
390.3202363765649
 20
266.3700474586624
 30
0.0
 11
268.2013516212085
 21
266.3700474586624
 31
0.0
  0
LWPOLYLINE
  5
8F
330
86
100
AcDbEntity
  8
shade
 62
    18
420
        0
370
     0
100
AcDbPolyline
 90
        4
 70
     1
 43
0.0
 10
203.2767005887935
 20
380.9999999047501
 10
467.8676175587119
 20
380.9999999047501
 10
467.8676175587119
 20
-1.63917232865287
 10
203.2767005887935
 20
-1.63917232865287
  0
MTEXT
  5
90
330
86
100
AcDbEntity
  8
shade
100
AcDbMText
 10
272.8886295060237
 20
132.2256930550512
 30
0.0
 40
0.2
 41
0.0
 46
0.0
 71
     7
 72
     1
  1
\C4;\c16776960;\FMS PMincho|b0|i0|c128;\H3.392192;\W1.000000;KP172A
 73
     1
 44
1.0
  0
MTEXT
  5
91
330
86
100
AcDbEntity
  8
shade
100
AcDbMText
 10
272.8886295060237
 20
139.0139091991875
 30
0.0
 40
0.2
 41
0.0
 46
0.0
 71
     7
 72
     1
  1
\C4;\c16776960;\FMS PMincho|b0|i0|c128;\H3.392192;\W1.000000;ペンダント　172A(M)
 73
     1
 44
1.0
  0
MTEXT
  5
92
330
86
100
AcDbEntity
  8
shade
100
AcDbMText
 10
272.6736555477442
 20
125.5945732650423
 30
0.0
 40
0.2
 41
0.0
 46
0.0
 71
     7
 72
     1
  1
\C4;\c16776960;\FMS PMincho|b0|i0|c128;\H3.392192;\W0.957560;E26 LED電球(100W形相当　電球色 全方向/広配光タイプ)
 73
     1
 44
1.0
  0
LINE
  5
93
330
86
100
AcDbEntity
  8
shade
 62
     6
420
 16711935
370
    25
100
AcDbLine
 10
329.4917703867016
 20
197.9813953188443
 30
0.0
 11
329.4917703867016
 21
219.6770669381799
 31
0.0
  0
LINE
  5
94
330
86
100
AcDbEntity
  8
shade
 62
     6
420
 16711935
370
    25
100
AcDbLine
 10
329.4917703867016
 20
219.6770669381799
 30
0.0
 11
329.4917703867016
 21
233.4022289921202
 31
0.0
  0
SPLINE
  5
95
330
86
100
AcDbEntity
  8
shade
 62
     6
420
 16711935
370
    25
100
AcDbSpline
210
0.0
220
0.0
230
1.0
 70
     8
 71
     3
 72
    92
 73
    88
 74
     0
 42
0.0000000001
 43
0.0000000001
 40
0.0
 40
0.0
 40
0.0
 40
0.0
 40
1.0
 40
1.0
 40
1.0
 40
2.0
 40
2.0
 40
2.0
 40
3.0
 40
3.0
 40
3.0
 40
4.0
 40
4.0
 40
4.0
 40
5.0
 40
5.0
 40
5.0
 40
6.0
 40
6.0
 40
6.0
 40
7.0
 40
7.0
 40
7.0
 40
8.0
 40
8.0
 40
8.0
 40
9.0
 40
9.0
 40
9.0
 40
10.0
 40
10.0
 40
10.0
 40
11.0
 40
11.0
 40
11.0
 40
12.0
 40
12.0
 40
12.0
 40
13.0
 40
13.0
 40
13.0
 40
14.0
 40
14.0
 40
14.0
 40
15.0
 40
15.0
 40
15.0
 40
16.0
 40
16.0
 40
16.0
 40
17.0
 40
17.0
 40
17.0
 40
18.0
 40
18.0
 40
18.0
 40
19.0
 40
19.0
 40
19.0
 40
20.0
 40
20.0
 40
20.0
 40
21.0
 40
21.0
 40
21.0
 40
22.0
 40
22.0
 40
22.0
 40
23.0
 40
23.0
 40
23.0
 40
24.0
 40
24.0
 40
24.0
 40
25.0
 40
25.0
 40
25.0
 40
26.0
 40
26.0
 40
26.0
 40
27.0
 40
27.0
 40
27.0
 40
28.0
 40
28.0
 40
28.0
 40
29.0
 40
29.0
 40
29.0
 40
29.0
 10
320.2351508056058
 20
193.883968921647
 30
0.0
 10
320.2821769103735
 20
194.0766577476671
 30
0.0
 10
320.6943603185965
 20
195.3045565959282
 30
0.0
 10
321.6152496920817
 20
196.2978159818858
 30
0.0
 10
322.4887863429851
 20
197.2400013327967
 30
0.0
 10
323.8200580452266
 20
197.9710574388053
 30
0.0
 10
324.035739935779
 20
197.3456231507919
 30
0.0
 10
324.1070025887895
 20
197.138975728849
 30
0.0
 10
324.0564781811212
 20
196.7842425353992
 30
0.0
 10
323.9626356393649
 20
196.4772315208535
 30
0.0
 10
323.799549270429
 20
195.9436855337101
 30
0.0
 10
323.5056334431766
 20
195.5542701041066
 30
0.0
 10
323.1672979489037
 20
195.1883854793392
 30
0.0
 10
322.8294262527556
 20
194.8230024176195
 30
0.0
 10
322.4472565891447
 20
194.4810856918208
 30
0.0
 10
322.0414688814255
 20
194.1784790945744
 30
0.0
 10
321.6763412767821
 20
193.9061938087159
 30
0.0
 10
321.2920915762901
 20
193.6657355464458
 30
0.0
 10
320.9024528023399
 20
193.4337557623294
 30
0.0
 10
320.7252949974209
 20
193.3282810711905
 30
0.0
 10
320.5470231279881
 20
193.2245591065305
 30
0.0
 10
320.3651252104608
 20
193.1269487965431
 30
0.0
 10
320.0344957629219
 20
192.9495259689403
 30
0.0
 10
319.691886195348
 20
192.7922954704265
 30
0.0
 10
319.3792660964496
 20
192.5856662343216
 30
0.0
 10
319.0344410631835
 20
192.3577508396795
 30
0.0
 10
318.7261025590945
 20
192.0697347310173
 30
0.0
 10
318.4581331681322
 20
191.7547305306603
 30
0.0
 10
318.2282304872799
 20
191.4844746261096
 30
0.0
 10
318.0280422020416
 20
191.1943536621063
 30
0.0
 10
317.8440447506652
 20
190.8854438828294
 30
0.0
 10
317.65394722041
 20
190.5662927985208
 30
0.0
 10
317.4811318711986
 20
190.227086434173
 30
0.0
 10
317.4090652283435
 20
189.8755374980646
 30
0.0
 10
317.366262104522
 20
189.6667391962672
 30
0.0
 10
317.3589993410461
 20
189.4535868986213
 30
0.0
 10
317.370684664491
 20
189.223572475476
 30
0.0
 10
317.3767881247645
 20
189.1034316938472
 30
0.0
 10
317.3880609374132
 20
188.9786906447479
 30
0.0
 10
317.4474457922114
 20
188.8911983115255
 30
0.0
 10
317.5292016395244
 20
188.7707465589487
 30
0.0
 10
317.702145980438
 20
188.7208936447451
 30
0.0
 10
317.8568380705175
 20
188.6610929403085
 30
0.0
 10
318.0102181908016
 20
188.6017994157677
 30
0.0
 10
318.1456543482457
 20
188.5327261232086
 30
0.0
 10
318.2918175928393
 20
188.4949058583334
 30
0.0
 10
318.4929685569118
 20
188.4428573233858
 30
0.0
 10
318.7144360586178
 20
188.4500003753288
 30
0.0
 10
318.931493254291
 20
188.4565549141638
 30
0.0
 10
319.2050439496692
 20
188.4648154035447
 30
0.0
 10
319.4715898408891
 20
188.472141168904
 30
0.0
 10
319.7374844910357
 20
188.5076894574308
 30
0.0
 10
320.1890094050921
 20
188.5680552372569
 30
0.0
 10
320.6386563605282
 20
188.7098052129239
 30
0.0
 10
321.0424227558377
 20
188.9295491087871
 30
0.0
 10
321.4787717591532
 20
189.1670256077666
 30
0.0
 10
321.8615366123863
 20
189.4955916208007
 30
0.0
 10
322.1938390673316
 20
189.8627538989671
 30
0.0
 10
322.4266893085511
 20
190.1200310384288
 30
0.0
 10
322.6347622387749
 20
190.3962591532116
 30
0.0
 10
322.8335147287833
 20
190.6809058566692
 30
0.0
 10
323.0420849611833
 20
190.9796132041233
 30
0.0
 10
323.2403912107073
 20
191.2875913851202
 30
0.0
 10
323.3964292625302
 20
191.6141106468492
 30
0.0
 10
323.7040397649933
 20
192.2578046239794
 30
0.0
 10
323.8473814959545
 20
192.9735556256713
 30
0.0
 10
324.0693720273273
 20
193.6544856227706
 30
0.0
 10
324.1862212391703
 20
194.0129069166328
 30
0.0
 10
324.3248613313591
 20
194.3616805064954
 30
0.0
 10
324.4605508505731
 20
194.7155742831081
 30
0.0
 10
324.6018715771403
 20
195.0841548921774
 30
0.0
 10
324.7399917473542
 20
195.458289488981
 30
0.0
 10
324.9520470433152
 20
195.7859560608501
 30
0.0
 10
325.1231503198174
 20
196.0503438178028
 30
0.0
 10
325.342389510197
 20
196.2844782841177
 30
0.0
 10
325.5711637170914
 20
196.5069937299199
 30
0.0
 10
325.8432792882361
 20
196.7716648151816
 30
0.0
 10
326.1288849268148
 20
197.0198974002806
 30
0.0
 10
326.4596374528967
 20
197.2058899133806
 30
0.0
 10
326.7372951489732
 20
197.3620255392745
 30
0.0
 10
327.046768502834
 20
197.4742996956122
 30
0.0
 10
327.3355085207969
 20
197.5710789524779
 30
0.0
 10
327.6331364972523
 20
197.6708372561217
 30
0.0
 10
327.9087350706719
 20
197.7541320544855
 30
0.0
 10
328.2806935068298
 20
197.8229335229928
 30
0.0
 10
328.8898416336679
 20
197.9356081704363
 30
0.0
 10
329.7574258569761
 20
198.0094118659684
 30
0.0
 10
329.8716958059429
 20
198.0096237482251
 30
0.0
  0
LINE
  5
96
330
86
100
AcDbEntity
  8
shade
 62
     6
420
 16711935
370
    25
100
AcDbLine
 10
326.8442474451711
 20
197.3931851413022
 30
0.0
 11
323.685150834351
 21
197.5435960899711
 31
0.0
  0
SPLINE
  5
97
330
86
100
AcDbEntity
  8
shade
 62
     6
420
 16711935
370
    25
100
AcDbSpline
210
0.0
220
0.0
230
1.0
 70
     8
 71
     3
 72
   140
 73
   136
 74
     0
 42
0.0000000001
 43
0.0000000001
 40
0.0
 40
0.0
 40
0.0
 40
0.0
 40
1.0
 40
1.0
 40
1.0
 40
2.0
 40
2.0
 40
2.0
 40
3.0
 40
3.0
 40
3.0
 40
4.0
 40
4.0
 40
4.0
 40
5.0
 40
5.0
 40
5.0
 40
6.0
 40
6.0
 40
6.0
 40
7.0
 40
7.0
 40
7.0
 40
8.0
 40
8.0
 40
8.0
 40
9.0
 40
9.0
 40
9.0
 40
10.0
 40
10.0
 40
10.0
 40
11.0
 40
11.0
 40
11.0
 40
12.0
 40
12.0
 40
12.0
 40
13.0
 40
13.0
 40
13.0
 40
14.0
 40
14.0
 40
14.0
 40
15.0
 40
15.0
 40
15.0
 40
16.0
 40
16.0
 40
16.0
 40
17.0
 40
17.0
 40
17.0
 40
18.0
 40
18.0
 40
18.0
 40
19.0
 40
19.0
 40
19.0
 40
20.0
 40
20.0
 40
20.0
 40
21.0
 40
21.0
 40
21.0
 40
22.0
 40
22.0
 40
22.0
 40
23.0
 40
23.0
 40
23.0
 40
24.0
 40
24.0
 40
24.0
 40
25.0
 40
25.0
 40
25.0
 40
26.0
 40
26.0
 40
26.0
 40
27.0
 40
27.0
 40
27.0
 40
28.0
 40
28.0
 40
28.0
 40
29.0
 40
29.0
 40
29.0
 40
30.0
 40
30.0
 40
30.0
 40
31.0
 40
31.0
 40
31.0
 40
32.0
 40
32.0
 40
32.0
 40
33.0
 40
33.0
 40
33.0
 40
34.0
 40
34.0
 40
34.0
 40
35.0
 40
35.0
 40
35.0
 40
36.0
 40
36.0
 40
36.0
 40
37.0
 40
37.0
 40
37.0
 40
38.0
 40
38.0
 40
38.0
 40
39.0
 40
39.0
 40
39.0
 40
40.0
 40
40.0
 40
40.0
 40
41.0
 40
41.0
 40
41.0
 40
42.0
 40
42.0
 40
42.0
 40
43.0
 40
43.0
 40
43.0
 40
44.0
 40
44.0
 40
44.0
 40
45.0
 40
45.0
 40
45.0
 40
45.0
 10
314.7736077997822
 20
187.8740692175022
 30
0.0
 10
314.7602668883032
 20
188.1019298024116
 30
0.0
 10
314.7751975166759
 20
188.3317733148958
 30
0.0
 10
314.8079541563104
 20
188.5579596783403
 30
0.0
 10
314.8733423490059
 20
189.0094686756476
 30
0.0
 10
315.0097625605462
 20
189.4464048851151
 30
0.0
 10
315.1560701126067
 20
189.8797778913757
 30
0.0
 10
315.3173124779546
 20
190.3573888392465
 30
0.0
 10
315.4905637736632
 20
190.8306720046386
 30
0.0
 10
315.695679485015
 20
191.286235071375
 30
0.0
 10
315.844686438548
 20
191.6171802937647
 30
0.0
 10
316.0105093330683
 20
191.9387740145893
 30
0.0
 10
316.1946455480169
 20
192.2602063553233
 30
0.0
 10
316.3304284597292
 20
192.4972320764724
 30
0.0
 10
316.4761695269979
 20
192.7341700446875
 30
0.0
 10
316.6357957276517
 20
192.9359232788741
 30
0.0
 10
316.7284963645863
 20
193.0530885891228
 30
0.0
 10
316.8258798180492
 20
193.1583877078161
 30
0.0
 10
316.9432982866082
 20
193.289567556432
 30
0.0
 10
317.0232288819188
 20
193.3788659736188
 30
0.0
 10
317.1124436442876
 20
193.4801574449213
 30
0.0
 10
317.1985833615067
 20
193.4808834335269
 30
0.0
 10
317.3084771368595
 20
193.4818096221608
 30
0.0
 10
317.4133660652994
 20
193.3190585884638
 30
0.0
 10
317.4654722210527
 20
193.173618677998
 30
0.0
 10
317.5230140025929
 20
193.0130067226634
 30
0.0
 10
317.5161861943124
 20
192.873506009586
 30
0.0
 10
317.5176894029783
 20
192.7272152095512
 30
0.0
 10
317.5190757532746
 20
192.5922969532999
 30
0.0
 10
317.5275481734093
 20
192.4516032880472
 30
0.0
 10
317.523610188399
 20
192.3127501038091
 30
0.0
 10
317.5189078312266
 20
192.1469451896497
 30
0.0
 10
317.4965097202535
 20
191.983764581373
 30
0.0
 10
317.4771947476925
 20
191.8199669665178
 30
0.0
 10
317.4459626686689
 20
191.5551081872748
 30
0.0
 10
317.4227919182272
 20
191.2886361516512
 30
0.0
 10
317.3785618229278
 20
191.0257165689993
 30
0.0
 10
317.3441224188634
 20
190.8209963739635
 30
0.0
 10
317.2969150886872
 20
190.6184299713156
 30
0.0
 10
317.2451175442211
 20
190.4169845532432
 30
0.0
 10
317.0903772366653
 20
189.8151852542585
 30
0.0
 10
316.8946711207962
 20
189.2233902896134
 30
0.0
 10
316.653396739738
 20
188.6518101037081
 30
0.0
 10
316.4741406019842
 20
188.2271514386848
 30
0.0
 10
316.2697315595641
 20
187.813650986557
 30
0.0
 10
316.072902041721
 20
187.3963482004171
 30
0.0
 10
315.9361747613121
 20
187.1064695496356
 30
0.0
 10
315.8031048758163
 20
186.8147561351162
 30
0.0
 10
315.6899744293809
 20
186.5151361073269
 30
0.0
 10
315.6131206564695
 20
186.3115929383844
 30
0.0
 10
315.5454689278676
 20
186.1044008701363
 30
0.0
 10
315.4869068385711
 20
185.8948092477983
 30
0.0
 10
315.4170999149402
 20
185.6449727656481
 30
0.0
 10
315.3602084705401
 20
185.3917267542949
 30
0.0
 10
315.3067924130232
 20
185.1378930223882
 30
0.0
 10
315.268698086163
 20
184.9568683343039
 30
0.0
 10
315.2323713434809
 20
184.7755447311384
 30
0.0
 10
315.2023574448456
 20
184.5929328677662
 30
0.0
 10
315.1670339941095
 20
184.3780163971987
 30
0.0
 10
315.1404544695803
 20
184.1613155562377
 30
0.0
 10
315.1327344348751
 20
183.9436186784519
 30
0.0
 10
315.1243162978126
 20
183.706236045868
 30
0.0
 10
315.1383226945436
 20
183.4676690938603
 30
0.0
 10
315.1675880887452
 20
183.23238361435
 30
0.0
 10
315.2148629693626
 20
182.8523069653314
 30
0.0
 10
315.3019557292577
 20
182.4807932166742
 30
0.0
 10
315.4344769482757
 20
182.1134761221822
 30
0.0
 10
315.5268719593331
 20
181.8573792702363
 30
0.0
 10
315.6413497737723
 20
181.6033224145837
 30
0.0
 10
315.8232063018656
 20
181.4119849155526
 30
0.0
 10
315.9677015935263
 20
181.2599564565313
 30
0.0
 10
316.1547344198993
 20
181.1475239865517
 30
0.0
 10
316.3453802362947
 20
181.0467456473604
 30
0.0
 10
316.5648721805601
 20
180.9307187969796
 30
0.0
 10
316.789153174912
 20
180.8301395993827
 30
0.0
 10
317.024206320827
 20
180.7684682215863
 30
0.0
 10
317.2660708137172
 20
180.705009736632
 30
0.0
 10
317.5193408124582
 20
180.6827466770279
 30
0.0
 10
317.7726554153452
 20
180.6699115353648
 30
0.0
 10
318.0082993498486
 20
180.6579717448824
 30
0.0
 10
318.2439818826108
 20
180.6541904084591
 30
0.0
 10
318.4746893713046
 20
180.6873038744699
 30
0.0
 10
318.8821746206995
 20
180.7457902679312
 30
0.0
 10
319.2741396694712
 20
180.9193740817687
 30
0.0
 10
319.6321446059467
 20
181.1331136995787
 30
0.0
 10
319.8913804294805
 20
181.2878852130665
 30
0.0
 10
320.1328096482098
 20
181.4637119729265
 30
0.0
 10
320.36318787242
 20
181.6548840197938
 30
0.0
 10
320.6535184222855
 20
181.8958055985293
 30
0.0
 10
320.9262978865653
 20
182.1610984178228
 30
0.0
 10
321.1638544510116
 20
182.4549317657523
 30
0.0
 10
321.3700474206834
 20
182.7099715316854
 30
0.0
 10
321.5497041896592
 20
182.9865131387082
 30
0.0
 10
321.7037354495872
 20
183.2757333818035
 30
0.0
 10
321.9004495259631
 20
183.6450979705495
 30
0.0
 10
322.0553684760322
 20
184.0351413756577
 30
0.0
 10
322.1968997713547
 20
184.4294255521969
 30
0.0
 10
322.506818967328
 20
185.2928122307284
 30
0.0
 10
322.7525438592252
 20
186.1765335664156
 30
0.0
 10
323.0676011802038
 20
187.0352472517584
 30
0.0
 10
323.29507600867
 20
187.6552479159009
 30
0.0
 10
323.5586938170701
 20
188.2622120974472
 30
0.0
 10
323.7585301888877
 20
188.8947124390478
 30
0.0
 10
323.9826133822674
 20
189.6039561822284
 30
0.0
 10
324.1264985282571
 20
190.3453088003876
 30
0.0
 10
324.4094354831522
 20
190.8545019074866
 30
0.0
 10
324.4282167231533
 20
190.8883019388555
 30
0.0
 10
324.4476106602721
 20
190.9210790173077
 30
0.0
 10
324.4718165477703
 20
190.9584695360384
 30
0.0
 10
324.561120147873
 20
191.0964156424361
 30
0.0
 10
324.7159200915185
 20
191.2971561346522
 30
0.0
 10
324.8527100146184
 20
191.4789633534928
 30
0.0
 10
325.0951882313191
 20
191.8012406764118
 30
0.0
 10
325.2810749152852
 20
192.0640253987876
 30
0.0
 10
325.4871118896403
 20
192.3109389189379
 30
0.0
 10
325.6441798610753
 20
192.4991682687724
 30
0.0
 10
325.8129580847923
 20
192.6781741395116
 30
0.0
 10
325.989067955333
 20
192.8493785435832
 30
0.0
 10
326.2092753529791
 20
193.0634521567337
 30
0.0
 10
326.4409457415547
 20
193.265328218092
 30
0.0
 10
326.6855872054728
 20
193.4511118248582
 30
0.0
 10
326.9257236243391
 20
193.6334742474367
 30
0.0
 10
327.1783577953507
 20
193.8003314398252
 30
0.0
 10
327.4474048992332
 20
193.9368484953474
 30
0.0
 10
327.6840326795066
 20
194.0569156782032
 30
0.0
 10
327.9333562871852
 20
194.1535139817458
 30
0.0
 10
328.189612635106
 20
194.2206824049214
 30
0.0
 10
328.4904193638952
 20
194.2995281147542
 30
0.0
 10
328.8007788942627
 20
194.3378216333999
 30
0.0
 10
329.1110492166923
 20
194.3656783887002
 30
0.0
 10
329.3189495078258
 20
194.384344136319
 30
0.0
 10
329.5268097461125
 20
194.3983239565298
 30
0.0
 10
329.7350140698359
 20
194.4019273479101
 30
0.0
 10
329.7805604834478
 20
194.4027156195063
 30
0.0
 10
329.8261233633393
 20
194.4030073253144
 30
0.0
 10
329.8716958059429
 20
194.403033685161
 30
0.0
  0
SPLINE
  5
98
330
86
100
AcDbEntity
  8
shade
 62
     6
420
 16711935
370
    25
100
AcDbSpline
210
0.0
220
0.0
230
1.0
 70
     8
 71
     3
 72
    41
 73
    37
 74
     0
 42
0.0000000001
 43
0.0000000001
 40
0.0
 40
0.0
 40
0.0
 40
0.0
 40
1.0
 40
1.0
 40
1.0
 40
2.0
 40
2.0
 40
2.0
 40
3.0
 40
3.0
 40
3.0
 40
4.0
 40
4.0
 40
4.0
 40
5.0
 40
5.0
 40
5.0
 40
6.0
 40
6.0
 40
6.0
 40
7.0
 40
7.0
 40
7.0
 40
8.0
 40
8.0
 40
8.0
 40
9.0
 40
9.0
 40
9.0
 40
10.0
 40
10.0
 40
10.0
 40
11.0
 40
11.0
 40
11.0
 40
12.0
 40
12.0
 40
12.0
 40
12.0
 10
324.4385975652613
 20
190.9051489753666
 30
0.0
 10
324.4770238259911
 20
191.0848478823621
 30
0.0
 10
324.5221074093247
 20
191.2633305501756
 30
0.0
 10
324.5699826522541
 20
191.4413873199598
 30
0.0
 10
324.6390076873103
 20
191.698104028398
 30
0.0
 10
324.713835738123
 20
191.9539354236661
 30
0.0
 10
324.8201053195267
 20
192.196075987696
 30
0.0
 10
324.9124088488293
 20
192.4063942025195
 30
0.0
 10
325.0284327969953
 20
192.6063836500669
 30
0.0
 10
325.143556473001
 20
192.8062125088773
 30
0.0
 10
325.2656161438335
 20
193.0180806976882
 30
0.0
 10
325.3866637950997
 20
193.2297683645057
 30
0.0
 10
325.521192662881
 20
193.4334862582351
 30
0.0
 10
325.7161053416102
 20
193.7286437291904
 30
0.0
 10
325.9393174895309
 20
194.0070712301764
 30
0.0
 10
326.188509231245
 20
194.2581187976384
 30
0.0
 10
326.3642496201596
 20
194.4351679921048
 30
0.0
 10
326.552911369215
 20
194.59859934539
 30
0.0
 10
326.7479838720481
 20
194.7547965993101
 30
0.0
 10
326.9370330212871
 20
194.9061708705812
 30
0.0
 10
327.1321031401569
 20
195.0507508873369
 30
0.0
 10
327.3414120840832
 20
195.1713454782543
 30
0.0
 10
327.4941117132298
 20
195.2593242763109
 30
0.0
 10
327.6543896904111
 20
195.3345372805549
 30
0.0
 10
327.8178739656634
 20
195.4010454918277
 30
0.0
 10
327.9709272022083
 20
195.4633101773793
 30
0.0
 10
328.1267906370036
 20
195.5179454431321
 30
0.0
 10
328.2855380604847
 20
195.563849306282
 30
0.0
 10
328.46273321506
 20
195.6150875686071
 30
0.0
 10
328.643521590096
 20
195.6554471978737
 30
0.0
 10
328.8262436060777
 20
195.6785473039659
 30
0.0
 10
328.9983486717489
 20
195.7003051925978
 30
0.0
 10
329.1721692005026
 20
195.7067509958026
 30
0.0
 10
329.3458043096
 20
195.7117493249986
 30
0.0
 10
329.5212129075797
 20
195.7167987065689
 30
0.0
 10
329.6964322788467
 20
195.7203708944659
 30
0.0
 10
329.8716958059429
 20
195.7214554530622
 30
0.0
  0
SPLINE
  5
99
330
86
100
AcDbEntity
  8
shade
 62
     6
420
 16711935
370
    25
100
AcDbSpline
210
0.0
220
0.0
230
1.0
 70
     8
 71
     3
 72
    38
 73
    34
 74
     0
 42
0.0000000001
 43
0.0000000001
 40
0.0
 40
0.0
 40
0.0
 40
0.0
 40
1.0
 40
1.0
 40
1.0
 40
2.0
 40
2.0
 40
2.0
 40
3.0
 40
3.0
 40
3.0
 40
4.0
 40
4.0
 40
4.0
 40
5.0
 40
5.0
 40
5.0
 40
6.0
 40
6.0
 40
6.0
 40
7.0
 40
7.0
 40
7.0
 40
8.0
 40
8.0
 40
8.0
 40
9.0
 40
9.0
 40
9.0
 40
10.0
 40
10.0
 40
10.0
 40
11.0
 40
11.0
 40
11.0
 40
11.0
 10
320.3113996724985
 20
181.6123239034766
 30
0.0
 10
320.3053189001876
 20
181.609616287399
 30
0.0
 10
320.2992770971249
 20
181.6071150992698
 30
0.0
 10
320.2932708696567
 20
181.6048303519965
 30
0.0
 10
320.1843345237528
 20
181.5633913592161
 30
0.0
 10
320.0871011084321
 20
181.5931525915189
 30
0.0
 10
319.9743988715131
 20
181.6475563485884
 30
0.0
 10
319.8671017829675
 20
181.6993509260178
 30
0.0
 10
319.7457840480911
 20
181.7734810201646
 30
0.0
 10
319.6428180936645
 20
181.8658018756801
 30
0.0
 10
319.437785740866
 20
182.0496370309431
 30
0.0
 10
319.3055205935233
 20
182.3056009298604
 30
0.0
 10
319.1889978683566
 20
182.5620381199877
 30
0.0
 10
319.034888695205
 20
182.9011936219143
 30
0.0
 10
318.9083159288264
 20
183.2411769976571
 30
0.0
 10
318.7947698224901
 20
183.5880703950012
 30
0.0
 10
318.6928989049634
 20
183.8992950579765
 30
0.0
 10
318.6015134844463
 20
184.2160817768915
 30
0.0
 10
318.5137675822982
 20
184.5333298748695
 30
0.0
 10
318.3595738063337
 20
185.0908223725981
 30
0.0
 10
318.2166189331869
 20
185.6497396178401
 30
0.0
 10
318.0637594895619
 20
186.2068061130759
 30
0.0
 10
317.9166736557579
 20
186.742831810887
 30
0.0
 10
317.7604173267059
 20
187.2771439266666
 30
0.0
 10
317.6404185799746
 20
187.8268619326043
 30
0.0
 10
317.5862919883469
 20
188.0748175390113
 30
0.0
 10
317.5395421758586
 20
188.3259075477496
 30
0.0
 10
317.4892823716804
 20
188.5654625999919
 30
0.0
 10
317.471681906029
 20
188.6493523114416
 30
0.0
 10
317.4536510001818
 20
188.7318274586181
 30
0.0
 10
317.4361629125983
 20
188.8160441846674
 30
0.0
 10
317.4132626395184
 20
188.9263241691075
 30
0.0
 10
317.3912931552073
 20
189.0395904975529
 30
0.0
 10
317.3751087903801
 20
189.1537500446179
 30
0.0
  0
SPLINE
  5
9A
330
86
100
AcDbEntity
  8
shade
 62
     6
420
 16711935
370
    25
100
AcDbSpline
210
0.0
220
0.0
230
1.0
 70
     8
 71
     3
 72
     8
 73
     4
 74
     0
 42
0.0000000001
 43
0.0000000001
 40
0.0
 40
0.0
 40
0.0
 40
0.0
 40
1.0
 40
1.0
 40
1.0
 40
1.0
 10
321.7211953547961
 20
193.9502277384978
 30
0.0
 10
320.2130293494618
 20
193.9277568196279
 30
0.0
 10
318.7099649540138
 20
193.7692804936824
 30
0.0
 10
317.2302754042157
 20
193.476725408145
 30
0.0
  0
SPLINE
  5
9B
330
86
100
AcDbEntity
  8
shade
 62
     6
420
 16711935
370
    25
100
AcDbSpline
210
0.0
220
0.0
230
1.0
 70
     8
 71
     3
 72
   134
 73
   130
 74
     0
 42
0.0000000001
 43
0.0000000001
 40
0.0
 40
0.0
 40
0.0
 40
0.0
 40
1.0
 40
1.0
 40
1.0
 40
2.0
 40
2.0
 40
2.0
 40
3.0
 40
3.0
 40
3.0
 40
4.0
 40
4.0
 40
4.0
 40
5.0
 40
5.0
 40
5.0
 40
6.0
 40
6.0
 40
6.0
 40
7.0
 40
7.0
 40
7.0
 40
8.0
 40
8.0
 40
8.0
 40
9.0
 40
9.0
 40
9.0
 40
10.0
 40
10.0
 40
10.0
 40
11.0
 40
11.0
 40
11.0
 40
12.0
 40
12.0
 40
12.0
 40
13.0
 40
13.0
 40
13.0
 40
14.0
 40
14.0
 40
14.0
 40
15.0
 40
15.0
 40
15.0
 40
16.0
 40
16.0
 40
16.0
 40
17.0
 40
17.0
 40
17.0
 40
18.0
 40
18.0
 40
18.0
 40
19.0
 40
19.0
 40
19.0
 40
20.0
 40
20.0
 40
20.0
 40
21.0
 40
21.0
 40
21.0
 40
22.0
 40
22.0
 40
22.0
 40
23.0
 40
23.0
 40
23.0
 40
24.0
 40
24.0
 40
24.0
 40
25.0
 40
25.0
 40
25.0
 40
26.0
 40
26.0
 40
26.0
 40
27.0
 40
27.0
 40
27.0
 40
28.0
 40
28.0
 40
28.0
 40
29.0
 40
29.0
 40
29.0
 40
30.0
 40
30.0
 40
30.0
 40
31.0
 40
31.0
 40
31.0
 40
32.0
 40
32.0
 40
32.0
 40
33.0
 40
33.0
 40
33.0
 40
34.0
 40
34.0
 40
34.0
 40
35.0
 40
35.0
 40
35.0
 40
36.0
 40
36.0
 40
36.0
 40
37.0
 40
37.0
 40
37.0
 40
38.0
 40
38.0
 40
38.0
 40
39.0
 40
39.0
 40
39.0
 40
40.0
 40
40.0
 40
40.0
 40
41.0
 40
41.0
 40
41.0
 40
42.0
 40
42.0
 40
42.0
 40
43.0
 40
43.0
 40
43.0
 40
43.0
 10
313.7500734892843
 20
181.1238432943468
 30
0.0
 10
313.6179900521974
 20
181.4418130265148
 30
0.0
 10
313.577581688281
 20
181.5526750793154
 30
0.0
 10
313.5386224846353
 20
181.6639422941388
 30
0.0
 10
313.353363510572
 20
182.1930406364508
 30
0.0
 10
313.2008729030649
 20
182.7313004895824
 30
0.0
 10
313.0564377209909
 20
183.2738997259975
 30
0.0
 10
312.9505492300108
 20
183.6716907180164
 30
0.0
 10
312.8489902617049
 20
184.0718139838754
 30
0.0
 10
312.7793790453722
 20
184.4744389014885
 30
0.0
 10
312.7009714811289
 20
184.9279410920972
 30
0.0
 10
312.6630958936906
 20
185.3846171175869
 30
0.0
 10
312.6615618815304
 20
185.8572151180907
 30
0.0
 10
312.6607039092365
 20
186.1215389571834
 30
0.0
 10
312.6712141618093
 20
186.3908434442097
 30
0.0
 10
312.7615272549499
 20
186.6269391759518
 30
0.0
 10
312.8074255913616
 20
186.7469262226821
 30
0.0
 10
312.8739354851385
 20
186.8583360789164
 30
0.0
 10
312.9790982924483
 20
186.9559816232941
 30
0.0
 10
313.0156543051261
 20
186.989924533831
 30
0.0
 10
313.0568809485442
 20
187.0222042316401
 30
0.0
 10
313.0967042586595
 20
187.0264906457377
 30
0.0
 10
313.1684292637234
 20
187.0342108245172
 30
0.0
 10
313.2356020062932
 20
186.9511237982045
 30
0.0
 10
313.2907541029156
 20
186.8737210481817
 30
0.0
 10
313.3946636113686
 20
186.7278901151771
 30
0.0
 10
313.4559039362646
 20
186.6022364196861
 30
0.0
 10
313.5083254425619
 20
186.4624180256961
 30
0.0
 10
313.5554400784648
 20
186.3367540913373
 30
0.0
 10
313.595431055776
 20
186.1996482075917
 30
0.0
 10
313.6318117070912
 20
186.0628665558948
 30
0.0
 10
313.7501511675075
 20
185.6179414027293
 30
0.0
 10
313.83029051479
 20
185.1764468818816
 30
0.0
 10
313.9200925613004
 20
184.7334412781972
 30
0.0
 10
313.9864433660678
 20
184.406123812141
 30
0.0
 10
314.0580691212867
 20
184.0779814329602
 30
0.0
 10
314.1376635988141
 20
183.7521898593434
 30
0.0
 10
314.1972853610842
 20
183.5081494641401
 30
0.0
 10
314.2613784092563
 20
183.2654281164826
 30
0.0
 10
314.3143136578897
 20
183.0203307570867
 30
0.0
 10
314.3994180042839
 20
182.6262861250483
 30
0.0
 10
314.4556825588725
 20
182.2261001670464
 30
0.0
 10
314.5201244009147
 20
181.8275521240711
 30
0.0
 10
314.653477028951
 20
181.0028173361529
 30
0.0
 10
314.8218464629615
 20
180.18509643303
 30
0.0
 10
314.977296595684
 20
179.3648789468103
 30
0.0
 10
315.1185556637161
 20
178.6195392311791
 30
0.0
 10
315.2491465720985
 20
177.8721379530693
 30
0.0
 10
315.3834369137091
 20
177.1253176935568
 30
0.0
 10
315.4799293761976
 20
176.5887003538003
 30
0.0
 10
315.57833183448
 20
176.0523829905466
 30
0.0
 10
315.7299811244631
 20
175.5270021034673
 30
0.0
 10
315.8239509725377
 20
175.2014485703269
 30
0.0
 10
315.9383659591993
 20
174.8800943062033
 30
0.0
 10
316.0909946397695
 20
174.5800736075966
 30
0.0
 10
316.3121107043084
 20
174.1454279308736
 30
0.0
 10
316.6134291593949
 20
173.7555568565784
 30
0.0
 10
316.9333599117173
 20
173.3776245514631
 30
0.0
 10
317.1584107054497
 20
173.1117733801278
 30
0.0
 10
317.3926712759599
 20
172.8518297760806
 30
0.0
 10
317.7005140472118
 20
172.686216322147
 30
0.0
 10
317.9344385475579
 20
172.5603694675704
 30
0.0
 10
318.2108510465257
 20
172.4889909387907
 30
0.0
 10
318.4676681827218
 20
172.5208796099645
 30
0.0
 10
318.7108019383907
 20
172.551069232435
 30
0.0
 10
318.9363728102773
 20
172.6738149281352
 30
0.0
 10
319.159611181794
 20
172.7914307136816
 30
0.0
 10
319.4721716528267
 20
172.9561069074859
 30
0.0
 10
319.7801596404531
 20
173.1107267560938
 30
0.0
 10
320.0608404696335
 20
173.3109090008547
 30
0.0
 10
320.3608703649682
 20
173.5248910462834
 30
0.0
 10
320.6296984300378
 20
173.7909338051474
 30
0.0
 10
320.86363866391
 20
174.0802704398609
 30
0.0
 10
321.0851166660504
 20
174.3541938207503
 30
0.0
 10
321.2753248520893
 20
174.6489954044532
 30
0.0
 10
321.4628036565482
 20
174.945824125771
 30
0.0
 10
321.6616287365017
 20
175.2606170135152
 30
0.0
 10
321.8573840719141
 20
175.5776898297065
 30
0.0
 10
322.0325012905359
 20
175.9059389347161
 30
0.0
 10
322.2211450707656
 20
176.2595429521481
 30
0.0
 10
322.3858393016827
 20
176.6261165192601
 30
0.0
 10
322.5367370217537
 20
176.9977749993983
 30
0.0
 10
322.6893961175338
 20
177.3737717174642
 30
0.0
 10
322.8279347390702
 20
177.754972750164
 30
0.0
 10
322.9640082833412
 20
178.1369684379433
 30
0.0
 10
323.1095415143221
 20
178.5455200558304
 30
0.0
 10
323.252255015512
 20
178.9549806564494
 30
0.0
 10
323.3875178701537
 20
179.3673899610972
 30
0.0
 10
323.4960340698489
 20
179.6982501264588
 30
0.0
 10
323.5997548565497
 20
180.0310081477519
 30
0.0
 10
323.6979409390293
 20
180.3641266289113
 30
0.0
 10
323.8250291575998
 20
180.7953021405076
 30
0.0
 10
323.942844699093
 20
181.2270815557167
 30
0.0
 10
324.066650629387
 20
181.6641070808351
 30
0.0
 10
324.1490064291666
 20
181.9548167952725
 30
0.0
 10
324.2340129284186
 20
182.2478478716836
 30
0.0
 10
324.3845027792874
 20
182.5048891563317
 30
0.0
 10
324.4686937929234
 20
182.6486899919693
 30
0.0
 10
324.5733798080263
 20
182.7812267304426
 30
0.0
 10
324.6727803099318
 20
182.9169168290184
 30
0.0
 10
324.8249081555723
 20
183.1245842147411
 30
0.0
 10
324.9646558076797
 20
183.3396376776374
 30
0.0
 10
325.1221650826181
 20
183.5416963071364
 30
0.0
 10
325.3391733039284
 20
183.8200823501548
 30
0.0
 10
325.5898964934655
 20
184.07380170602
 30
0.0
 10
325.8556306259034
 20
184.3074115836321
 30
0.0
 10
325.9606917284227
 20
184.3997719856322
 30
0.0
 10
326.0680992047477
 20
184.4889890572859
 30
0.0
 10
326.1778611234995
 20
184.5755654963236
 30
0.0
 10
326.3395335582387
 20
184.7030871709473
 30
0.0
 10
326.5063140607797
 20
184.8248798754563
 30
0.0
 10
326.6814345582423
 20
184.9328992626585
 30
0.0
 10
326.9447438196535
 20
185.0953160298072
 30
0.0
 10
327.2269079748503
 20
185.2265943564581
 30
0.0
 10
327.5134254635852
 20
185.344927082207
 30
0.0
 10
327.7106917401317
 20
185.4263987448969
 30
0.0
 10
327.9100216159406
 20
185.5017338383844
 30
0.0
 10
328.1135337452486
 20
185.5650865045849
 30
0.0
 10
328.3037245274084
 20
185.6242922785943
 30
0.0
 10
328.4975679647998
 20
185.6730329586049
 30
0.0
 10
328.6937380842862
 20
185.7072908079922
 30
0.0
 10
328.8891923419941
 20
185.7414236440367
 30
0.0
 10
329.0869563317944
 20
185.7611791577321
 30
0.0
 10
329.2848893500498
 20
185.776569805002
 30
0.0
 10
329.413726414858
 20
185.7865877688443
 30
0.0
 10
329.5426350948346
 20
185.7947563954553
 30
0.0
 10
329.6716922427364
 20
185.7984473675427
 30
0.0
 10
329.7383302616446
 20
185.8003531827188
 30
0.0
 10
329.8050078638916
 20
185.8010652005251
 30
0.0
 10
329.8716958059429
 20
185.80140228751
 30
0.0
  0
SPLINE
  5
9C
330
86
100
AcDbEntity
  8
shade
 62
     6
420
 16711935
370
    25
100
AcDbSpline
210
0.0
220
0.0
230
1.0
 70
     8
 71
     3
 72
    50
 73
    46
 74
     0
 42
0.0000000001
 43
0.0000000001
 40
0.0
 40
0.0
 40
0.0
 40
0.0
 40
1.0
 40
1.0
 40
1.0
 40
2.0
 40
2.0
 40
2.0
 40
3.0
 40
3.0
 40
3.0
 40
4.0
 40
4.0
 40
4.0
 40
5.0
 40
5.0
 40
5.0
 40
6.0
 40
6.0
 40
6.0
 40
7.0
 40
7.0
 40
7.0
 40
8.0
 40
8.0
 40
8.0
 40
9.0
 40
9.0
 40
9.0
 40
10.0
 40
10.0
 40
10.0
 40
11.0
 40
11.0
 40
11.0
 40
12.0
 40
12.0
 40
12.0
 40
13.0
 40
13.0
 40
13.0
 40
14.0
 40
14.0
 40
14.0
 40
15.0
 40
15.0
 40
15.0
 40
15.0
 10
324.3161810601672
 20
182.3771488809548
 30
0.0
 10
324.3414418061869
 20
182.5508861386931
 30
0.0
 10
324.3723625066192
 20
182.724084700817
 30
0.0
 10
324.4019614822501
 20
182.8972713770679
 30
0.0
 10
324.4475767932859
 20
183.1641712929086
 30
0.0
 10
324.4900529768011
 20
183.4310429795564
 30
0.0
 10
324.5422320675846
 20
183.6961374174379
 30
0.0
 10
324.609061996252
 20
184.0356650348621
 30
0.0
 10
324.691808545422
 20
184.3722772586596
 30
0.0
 10
324.7651939324431
 20
184.7107527066613
 30
0.0
 10
324.8190672488532
 20
184.959232623895
 30
0.0
 10
324.8678956019294
 20
185.2087166790702
 30
0.0
 10
324.9124195371534
 20
185.4590232119219
 30
0.0
 10
324.9426313797724
 20
185.6288694203196
 30
0.0
 10
324.970861322295
 20
185.7990943253982
 30
0.0
 10
325.0009195072351
 20
185.9688749897063
 30
0.0
 10
325.0742880783481
 20
186.3832900573384
 30
0.0
 10
325.158549170432
 20
186.7950583743036
 30
0.0
 10
325.236644477716
 20
187.2097826447668
 30
0.0
 10
325.2805766671625
 20
187.4430840536567
 30
0.0
 10
325.3225576458563
 20
187.6773208971138
 30
0.0
 10
325.3918233807489
 20
187.9031815325396
 30
0.0
 10
325.4983097636793
 20
188.2504106805432
 30
0.0
 10
325.6692830222178
 20
188.5778428591324
 30
0.0
 10
325.8575235489813
 20
188.8913116941553
 30
0.0
 10
326.0479042204108
 20
189.2083444198449
 30
0.0
 10
326.2559470221717
 20
189.511094492947
 30
0.0
 10
326.4921192877514
 20
189.7956642737744
 30
0.0
 10
326.7050069070441
 20
190.0521778106969
 30
0.0
 10
326.9407507497911
 20
190.2939191918091
 30
0.0
 10
327.2107925360925
 20
190.4850574644338
 30
0.0
 10
327.439707759246
 20
190.6470859450226
 30
0.0
 10
327.6932694955515
 20
190.7727510157739
 30
0.0
 10
327.9467138940305
 20
190.898693349454
 30
0.0
 10
328.1515759077522
 20
191.0004939820545
 30
0.0
 10
328.3563612567605
 20
191.10247576922
 30
0.0
 10
328.5733971236975
 20
191.1687057387677
 30
0.0
 10
328.7189965110105
 20
191.2131363811364
 30
0.0
 10
328.8701091843456
 20
191.2414770918375
 30
0.0
 10
329.021849182333
 20
191.2606248406372
 30
0.0
 10
329.1899451077545
 20
191.2818365092818
 30
0.0
 10
329.3588108839799
 20
191.2917666042222
 30
0.0
 10
329.5277950403871
 20
191.2950944854978
 30
0.0
 10
329.6423939057955
 20
191.2973513326774
 30
0.0
 10
329.7570472149217
 20
191.2965717850824
 30
0.0
 10
329.8716958059429
 20
191.2958041660822
 30
0.0
  0
SPLINE
  5
9D
330
86
100
AcDbEntity
  8
shade
 62
     6
420
 16711935
370
    25
100
AcDbSpline
210
0.0
220
0.0
230
1.0
 70
     8
 71
     3
 72
     8
 73
     4
 74
     0
 42
0.0000000001
 43
0.0000000001
 40
0.0
 40
0.0
 40
0.0
 40
0.0
 40
1.0
 40
1.0
 40
1.0
 40
1.0
 10
316.6168050513298
 20
188.5660606986361
 30
0.0
 10
315.3474431785156
 20
188.1692141124295
 30
0.0
 10
314.127322268924
 20
187.6293176724035
 30
0.0
 10
312.979954207183
 20
186.9567752514037
 30
0.0
  0
LINE
  5
9E
330
86
100
AcDbEntity
  8
shade
 62
     6
420
 16711935
370
    25
100
AcDbLine
 10
314.481500478559
 20
182.0709153831037
 30
0.0
 11
312.5468794121264
 21
179.5659140074385
 31
0.0
  0
SPLINE
  5
9F
330
86
100
AcDbEntity
  8
shade
 62
     6
420
 16711935
370
    25
100
AcDbSpline
210
0.0
220
0.0
230
1.0
 70
     8
 71
     3
 72
    71
 73
    67
 74
     0
 42
0.0000000001
 43
0.0000000001
 40
0.0
 40
0.0
 40
0.0
 40
0.0
 40
1.0
 40
1.0
 40
1.0
 40
2.0
 40
2.0
 40
2.0
 40
3.0
 40
3.0
 40
3.0
 40
4.0
 40
4.0
 40
4.0
 40
5.0
 40
5.0
 40
5.0
 40
6.0
 40
6.0
 40
6.0
 40
7.0
 40
7.0
 40
7.0
 40
8.0
 40
8.0
 40
8.0
 40
9.0
 40
9.0
 40
9.0
 40
10.0
 40
10.0
 40
10.0
 40
11.0
 40
11.0
 40
11.0
 40
12.0
 40
12.0
 40
12.0
 40
13.0
 40
13.0
 40
13.0
 40
14.0
 40
14.0
 40
14.0
 40
15.0
 40
15.0
 40
15.0
 40
16.0
 40
16.0
 40
16.0
 40
17.0
 40
17.0
 40
17.0
 40
18.0
 40
18.0
 40
18.0
 40
19.0
 40
19.0
 40
19.0
 40
20.0
 40
20.0
 40
20.0
 40
21.0
 40
21.0
 40
21.0
 40
22.0
 40
22.0
 40
22.0
 40
22.0
 10
312.5468794121264
 20
179.5659140074385
 30
0.0
 10
314.1033071725495
 20
177.057988853101
 30
0.0
 10
315.4750683554005
 20
174.4391368243238
 30
0.0
 10
317.0251100292085
 20
171.9268791129741
 30
0.0
 10
317.3247624605867
 20
171.4412120859225
 30
0.0
 10
317.6310776291738
 20
170.9595287248803
 30
0.0
 10
317.939935429658
 20
170.4800108614478
 30
0.0
 10
318.2060575087144
 20
170.0668424371498
 30
0.0
 10
318.4740672668226
 20
169.6552817030834
 30
0.0
 10
318.7325641099941
 20
169.2361247090164
 30
0.0
 10
318.8379636781605
 20
169.0652175303143
 30
0.0
 10
318.9417817041041
 20
168.8930474573167
 30
0.0
 10
319.0600195586953
 20
168.7316878335796
 30
0.0
 10
319.3046161072331
 20
168.3978860475145
 30
0.0
 10
319.610921536107
 20
168.1103469969843
 30
0.0
 10
319.9332338871384
 20
167.8455149562006
 30
0.0
 10
320.1909836186454
 20
167.63373161258
 30
0.0
 10
320.4589698239451
 20
167.4364694685085
 30
0.0
 10
320.7532904638999
 20
167.2821913665756
 30
0.0
 10
321.0557726470478
 20
167.1236351161728
 30
0.0
 10
321.3860700283782
 20
167.0104798651535
 30
0.0
 10
321.7220123545857
 20
166.9549891841132
 30
0.0
 10
322.0224920036916
 20
166.9053561993034
 30
0.0
 10
322.3274877198619
 20
166.9018560059574
 30
0.0
 10
322.6361588407524
 20
166.9277222743656
 30
0.0
 10
322.9600661662563
 20
166.9548653183902
 30
0.0
 10
323.288020692181
 20
167.0143454695615
 30
0.0
 10
323.563948875878
 20
167.1731240213856
 30
0.0
 10
323.7803035697002
 20
167.2976219414532
 30
0.0
 10
323.964671977789
 20
167.4831694544782
 30
0.0
 10
324.1097077556353
 20
167.6911942782499
 30
0.0
 10
324.2331170554904
 20
167.86820024349
 30
0.0
 10
324.3280490777158
 20
168.0614800407981
 30
0.0
 10
324.3962313487916
 20
168.2637983545787
 30
0.0
 10
324.4543409831592
 20
168.4362279767469
 30
0.0
 10
324.493020603857
 20
168.6152228375322
 30
0.0
 10
324.5190269154417
 20
168.7955021397477
 30
0.0
 10
324.5729698849765
 20
169.1694421688491
 30
0.0
 10
324.572387034349
 20
169.5489083966308
 30
0.0
 10
324.5463149198492
 20
169.9270767641313
 30
0.0
 10
324.5050319199676
 20
170.5258745591558
 30
0.0
 10
324.3998420893611
 20
171.1214183513711
 30
0.0
 10
324.3962313487916
 20
171.7130559003167
 30
0.0
 10
324.3937177872008
 20
172.1249152934572
 30
0.0
 10
324.4404298020088
 20
172.5348817076764
 30
0.0
 10
324.4648603097619
 20
172.9588310780589
 30
0.0
 10
324.4824296745453
 20
173.2637171330585
 30
0.0
 10
324.4884753459135
 20
173.5758349834208
 30
0.0
 10
324.6004576562653
 20
173.8457920529128
 30
0.0
 10
324.7022283526354
 20
174.0911318647535
 30
0.0
 10
324.8914959831329
 20
174.3016495498701
 30
0.0
 10
325.0777072234728
 20
174.5069902704849
 30
0.0
 10
325.3119595787465
 20
174.7653073696024
 30
0.0
 10
325.5413750581916
 20
175.0154316879769
 30
0.0
 10
325.8033542240171
 20
175.2320766691803
 30
0.0
 10
326.1167260661018
 20
175.491221081002
 30
0.0
 10
326.476690835224
 20
175.7024624300078
 30
0.0
 10
326.8542918219002
 20
175.8654855650169
 30
0.0
 10
327.2269684927269
 20
176.0263827061021
 30
0.0
 10
327.6168243906345
 20
176.1403110656361
 30
0.0
 10
328.0136590145955
 20
176.2155273000699
 30
0.0
 10
328.3357059577697
 20
176.2765682398082
 30
0.0
 10
328.6623490636915
 20
176.3121135195006
 30
0.0
 10
328.9895295980209
 20
176.332207878426
 30
0.0
 10
329.2833061796876
 20
176.3502506757521
 30
0.0
 10
329.5775160527422
 20
176.3558364635498
 30
0.0
 10
329.8716958059429
 20
176.3569729769752
 30
0.0
  0
SPLINE
  5
A0
330
86
100
AcDbEntity
  8
shade
 62
     6
420
 16711935
370
    25
100
AcDbSpline
210
0.0
220
0.0
230
1.0
 70
     8
 71
     3
 72
    32
 73
    28
 74
     0
 42
0.0000000001
 43
0.0000000001
 40
0.0
 40
0.0
 40
0.0
 40
0.0
 40
1.0
 40
1.0
 40
1.0
 40
2.0
 40
2.0
 40
2.0
 40
3.0
 40
3.0
 40
3.0
 40
4.0
 40
4.0
 40
4.0
 40
5.0
 40
5.0
 40
5.0
 40
6.0
 40
6.0
 40
6.0
 40
7.0
 40
7.0
 40
7.0
 40
8.0
 40
8.0
 40
8.0
 40
9.0
 40
9.0
 40
9.0
 40
9.0
 10
324.5660869096653
 20
173.7518055128756
 30
0.0
 10
324.5646448947546
 20
173.8699642914229
 30
0.0
 10
324.5636679773014
 20
173.9881130292181
 30
0.0
 10
324.5645646320347
 20
174.1062347710222
 30
0.0
 10
324.5700762940602
 20
174.8323193000006
 30
0.0
 10
324.6463801064434
 20
175.5573837973435
 30
0.0
 10
324.7303454150093
 20
176.278834174863
 30
0.0
 10
324.8871050534491
 20
177.6257511606666
 30
0.0
 10
325.0705690607373
 20
178.9600710261711
 30
0.0
 10
325.2679824008739
 20
180.3110908702489
 30
0.0
 10
325.3575996186405
 20
180.9243961286233
 30
0.0
 10
325.4500914756818
 20
181.5411428716424
 30
0.0
 10
325.6759540049103
 20
182.1121335953357
 30
0.0
 10
325.9060015754713
 20
182.6937042934601
 30
0.0
 10
326.2744080994404
 20
183.2278076223081
 30
0.0
 10
326.7198417106583
 20
183.6767553010931
 30
0.0
 10
327.0256914637465
 20
183.9850179316065
 30
0.0
 10
327.3678568629027
 20
184.2531325757667
 30
0.0
 10
327.747418855118
 20
184.4590661539564
 30
0.0
 10
327.979726544769
 20
184.5851060493099
 30
0.0
 10
328.2260428034614
 20
184.6878532410748
 30
0.0
 10
328.4814025728981
 20
184.7524327237878
 30
0.0
 10
328.7617502499921
 20
184.823331550199
 30
0.0
 10
329.0529979152624
 20
184.8482274922861
 30
0.0
 10
329.3427865098006
 20
184.8576641521084
 30
0.0
 10
329.5194068171162
 20
184.8634156060637
 30
0.0
 10
329.69548512974
 20
184.8634244672242
 30
0.0
 10
329.8716958059429
 20
184.863174007746
 30
0.0
  0
SPLINE
  5
A1
330
86
100
AcDbEntity
  8
shade
 62
     6
420
 16711935
370
    25
100
AcDbSpline
210
0.0
220
0.0
230
1.0
 70
     8
 71
     3
 72
    32
 73
    28
 74
     0
 42
0.0000000001
 43
0.0000000001
 40
0.0
 40
0.0
 40
0.0
 40
0.0
 40
1.0
 40
1.0
 40
1.0
 40
2.0
 40
2.0
 40
2.0
 40
3.0
 40
3.0
 40
3.0
 40
4.0
 40
4.0
 40
4.0
 40
5.0
 40
5.0
 40
5.0
 40
6.0
 40
6.0
 40
6.0
 40
7.0
 40
7.0
 40
7.0
 40
8.0
 40
8.0
 40
8.0
 40
9.0
 40
9.0
 40
9.0
 40
9.0
 10
315.6055065472301
 20
181.7193078290971
 30
0.0
 10
315.8131275404378
 20
181.2835666900431
 30
0.0
 10
316.1122399800722
 20
180.9059997627087
 30
0.0
 10
316.4098958286073
 20
180.5285759603542
 30
0.0
 10
316.9612876932909
 20
179.8294181404092
 30
0.0
 10
317.5076811750913
 20
179.1307514628071
 30
0.0
 10
318.0805262860847
 20
178.4528913974607
 30
0.0
 10
318.441218142658
 20
178.0260768873108
 30
0.0
 10
318.8123969850033
 20
177.6075113453438
 30
0.0
 10
319.1883597432934
 20
177.1929887719721
 30
0.0
 10
319.5103909817717
 20
176.8379290892432
 30
0.0
 10
319.8359320810486
 20
176.4858356495023
 30
0.0
 10
320.1865873647282
 20
176.1592614579454
 30
0.0
 10
320.4046451331246
 20
175.9561787076119
 30
0.0
 10
320.6324147395613
 20
175.7629644364208
 30
0.0
 10
320.8762718482238
 20
175.5910138011779
 30
0.0
 10
321.0084263164045
 20
175.4978278986829
 30
0.0
 10
321.1453055634101
 20
175.4108869666542
 30
0.0
 10
321.3058122003468
 20
175.3673418667885
 30
0.0
 10
321.3866381377055
 20
175.3454139666235
 30
0.0
 10
321.4734555156612
 20
175.334490394529
 30
0.0
 10
321.5494777792027
 20
175.3573268896958
 30
0.0
 10
321.6176448006603
 20
175.3778037313983
 30
0.0
 10
321.6771323304054
 20
175.4254243543297
 30
0.0
 10
321.7349005472282
 20
175.473240960264
 30
0.0
 10
321.7722358585936
 20
175.5041445949875
 30
0.0
 10
321.8088530176692
 20
175.5351300912781
 30
0.0
 10
321.8433144877974
 20
175.5676073767586
 30
0.0
  0
SPLINE
  5
A2
330
86
100
AcDbEntity
  8
shade
 62
     6
420
 16711935
370
    25
100
AcDbSpline
210
0.0
220
0.0
230
1.0
 70
     8
 71
     3
 72
    20
 73
    16
 74
     0
 42
0.0000000001
 43
0.0000000001
 40
0.0
 40
0.0
 40
0.0
 40
0.0
 40
1.0
 40
1.0
 40
1.0
 40
2.0
 40
2.0
 40
2.0
 40
3.0
 40
3.0
 40
3.0
 40
4.0
 40
4.0
 40
4.0
 40
5.0
 40
5.0
 40
5.0
 40
5.0
 10
324.3961343443029
 20
171.7429345539799
 30
0.0
 10
324.2881958216214
 20
171.707633140847
 30
0.0
 10
324.1796522482464
 20
171.6744642834778
 30
0.0
 10
324.0699170924874
 20
171.6454460661557
 30
0.0
 10
323.6911747765474
 20
171.545291956384
 30
0.0
 10
323.2982379584789
 20
171.4945815694416
 30
0.0
 10
322.9054177064422
 20
171.4806886041608
 30
0.0
 10
322.3705670578037
 20
171.4617724167769
 30
0.0
 10
321.8359325064143
 20
171.5111106343814
 30
0.0
 10
321.3080954916152
 20
171.5939593317457
 30
0.0
 10
320.6200317278091
 20
171.7019570373337
 30
0.0
 10
319.9435186889233
 20
171.8668974794862
 30
0.0
 10
319.2768545769542
 20
172.0749975254268
 30
0.0
 10
318.8474618912384
 20
172.2090329954984
 30
0.0
 10
318.4221550708106
 20
172.3609733936318
 30
0.0
 10
318.0199219986921
 20
172.5582343132491
 30
0.0
  0
LINE
  5
A3
330
86
100
AcDbEntity
  8
shade
 62
     6
420
 16711935
370
    25
100
AcDbLine
 10
315.1224288916318
 20
175.1625289618014
 30
0.0
 11
314.0810406189558
 21
172.9439265763035
 31
0.0
  0
LINE
  5
A4
330
86
100
AcDbEntity
  8
shade
 62
     6
420
 16711935
370
    25
100
AcDbLine
 10
314.0810406189558
 20
172.9439265763035
 30
0.0
 11
317.9992759077026
 21
170.3879457887967
 31
0.0
  0
SPLINE
  5
A5
330
86
100
AcDbEntity
  8
shade
 62
     6
420
 16711935
370
    25
100
AcDbSpline
210
0.0
220
0.0
230
1.0
 70
     8
 71
     3
 72
    32
 73
    28
 74
     0
 42
0.0000000001
 43
0.0000000001
 40
0.0
 40
0.0
 40
0.0
 40
0.0
 40
1.0
 40
1.0
 40
1.0
 40
2.0
 40
2.0
 40
2.0
 40
3.0
 40
3.0
 40
3.0
 40
4.0
 40
4.0
 40
4.0
 40
5.0
 40
5.0
 40
5.0
 40
6.0
 40
6.0
 40
6.0
 40
7.0
 40
7.0
 40
7.0
 40
8.0
 40
8.0
 40
8.0
 40
9.0
 40
9.0
 40
9.0
 40
9.0
 10
323.3280868437493
 20
167.0641482732099
 30
0.0
 10
323.4877406042012
 20
166.9377967288276
 30
0.0
 10
323.649155460946
 20
166.8136311697701
 30
0.0
 10
323.8128974172239
 20
166.6918094207664
 30
0.0
 10
324.0886199700705
 20
166.4866756579022
 30
0.0
 10
324.3709409373642
 20
166.2881876915771
 30
0.0
 10
324.6716898774792
 20
166.1247406791052
 30
0.0
 10
325.1136393766422
 20
165.8845558748634
 30
0.0
 10
325.5953826053711
 20
165.7200392005817
 30
0.0
 10
326.0899757113804
 20
165.5998708417211
 30
0.0
 10
326.4364417925762
 20
165.5156920291505
 30
0.0
 10
326.7892134431694
 20
165.4532753995798
 30
0.0
 10
327.1408540893028
 20
165.4660022186462
 30
0.0
 10
327.4300096581443
 20
165.4764675350014
 30
0.0
 10
327.7184004597013
 20
165.5377436598658
 30
0.0
 10
327.9934221108685
 20
165.6448495300087
 30
0.0
 10
328.2129650486772
 20
165.7303494798873
 30
0.0
 10
328.4239885870358
 20
165.8450541208041
 30
0.0
 10
328.586879630736
 20
166.0073210574285
 30
0.0
 10
328.7086409631694
 20
166.1286158688028
 30
0.0
 10
328.8035078408938
 20
166.2764865312206
 30
0.0
 10
328.8987898452208
 20
166.4231517484146
 30
0.0
 10
329.2138376369841
 20
166.9080969710052
 30
0.0
 10
329.5334239219611
 20
167.3798633107649
 30
0.0
 10
329.806321222375
 20
167.8827618882978
 30
0.0
 10
329.828362287757
 20
167.923379440798
 30
0.0
 10
329.8500987873587
 20
167.9642000779228
 30
0.0
 10
329.8716958059429
 20
168.0051178154369
 30
0.0
  0
SPLINE
  5
A6
330
86
100
AcDbEntity
  8
shade
 62
     6
420
 16711935
370
    25
100
AcDbSpline
210
0.0
220
0.0
230
1.0
 70
     8
 71
     3
 72
    38
 73
    34
 74
     0
 42
0.0000000001
 43
0.0000000001
 40
0.0
 40
0.0
 40
0.0
 40
0.0
 40
1.0
 40
1.0
 40
1.0
 40
2.0
 40
2.0
 40
2.0
 40
3.0
 40
3.0
 40
3.0
 40
4.0
 40
4.0
 40
4.0
 40
5.0
 40
5.0
 40
5.0
 40
6.0
 40
6.0
 40
6.0
 40
7.0
 40
7.0
 40
7.0
 40
8.0
 40
8.0
 40
8.0
 40
9.0
 40
9.0
 40
9.0
 40
10.0
 40
10.0
 40
10.0
 40
11.0
 40
11.0
 40
11.0
 40
11.0
 10
328.6146758831292
 20
166.0359440386825
 30
0.0
 10
328.6495724788779
 20
166.133808285243
 30
0.0
 10
328.5899338786456
 20
166.254196950878
 30
0.0
 10
328.5133577732876
 20
166.3560885595795
 30
0.0
 10
328.2848902464384
 20
166.6600857886614
 30
0.0
 10
327.9056537899478
 20
166.7994317625711
 30
0.0
 10
327.5461191003661
 20
166.9461567938261
 30
0.0
 10
327.1668350231947
 20
167.1009414910721
 30
0.0
 10
326.8094766122901
 20
167.263938180175
 30
0.0
 10
326.4872472391356
 20
167.5006175913528
 30
0.0
 10
326.3704392996037
 20
167.5864137249541
 30
0.0
 10
326.2582475187415
 20
167.6818921942513
 30
0.0
 10
326.1978442969777
 20
167.8175768564761
 30
0.0
 10
326.1507776822219
 20
167.9233032985868
 30
0.0
 10
326.13515519489
 20
168.0534414771211
 30
0.0
 10
326.1759268246479
 20
168.1533053548467
 30
0.0
 10
326.2133070809478
 20
168.2448625814569
 30
0.0
 10
326.298089942145
 20
168.3109724601506
 30
0.0
 10
326.3804905302947
 20
168.377124304791
 30
0.0
 10
326.5894553571818
 20
168.5448829225191
 30
0.0
 10
326.7830995302345
 20
168.7129114280056
 30
0.0
 10
327.006997083881
 20
168.8358321397367
 30
0.0
 10
327.2967188249709
 20
168.9948906110466
 30
0.0
 10
327.6370973234628
 20
169.0784198515261
 30
0.0
 10
327.9691449569679
 20
169.1613870427916
 30
0.0
 10
328.1565048492868
 20
169.20820178397
 30
0.0
 10
328.3412123199105
 20
169.2548375771604
 30
0.0
 10
328.5291253844047
 20
169.2834700396409
 30
0.0
 10
328.8266031274514
 20
169.3287969589618
 30
0.0
 10
329.1321143466363
 20
169.3290060834477
 30
0.0
 10
329.4352750636832
 20
169.3292512185383
 30
0.0
 10
329.5810805689115
 20
169.3293691165373
 30
0.0
 10
329.7263423699618
 20
169.3294953443083
 30
0.0
 10
329.8716958059429
 20
169.3293956500893
 30
0.0
  0
SPLINE
  5
A7
330
86
100
AcDbEntity
  8
shade
 62
     6
420
 16711935
370
    25
100
AcDbSpline
210
0.0
220
0.0
230
1.0
 70
     8
 71
     3
 72
    14
 73
    10
 74
     0
 42
0.0000000001
 43
0.0000000001
 40
0.0
 40
0.0
 40
0.0
 40
0.0
 40
1.0
 40
1.0
 40
1.0
 40
2.0
 40
2.0
 40
2.0
 40
3.0
 40
3.0
 40
3.0
 40
3.0
 10
326.1543918378982
 20
167.9824651054109
 30
0.0
 10
326.154551486233
 20
168.3314330641671
 30
0.0
 10
326.1649799298941
 20
168.7469441992884
 30
0.0
 10
326.1717808068052
 20
169.1624544845487
 30
0.0
 10
326.185049511264
 20
169.9731268766166
 30
0.0
 10
326.1845098391788
 20
170.7837960336436
 30
0.0
 10
326.204567805637
 20
171.5940981226697
 30
0.0
 10
326.2377145424083
 20
172.9331605879464
 30
0.0
 10
326.3271116240105
 20
174.2712206227197
 30
0.0
 10
326.3481681825903
 20
175.6104906427889
 30
0.0
  0
LINE
  5
A8
330
86
100
AcDbEntity
  8
shade
 62
     6
420
 16711935
370
    25
100
AcDbLine
 10
329.8716958059429
 20
169.3293956500893
 30
0.0
 11
329.8716958059429
 21
168.0051178154369
 31
0.0
  0
LINE
  5
A9
330
86
100
AcDbEntity
  8
shade
 62
     6
420
 16711935
370
    25
100
AcDbLine
 10
329.8716958059429
 20
169.3293956500893
 30
0.0
 11
329.8716958059429
 21
168.0051178154369
 31
0.0
  0
LINE
  5
AA
330
86
100
AcDbEntity
  8
shade
 62
     6
420
 16711935
370
    25
100
AcDbLine
 10
330.2516212251843
 20
219.6770669381799
 30
0.0
 11
330.2516212251843
 21
233.4022289921202
 31
0.0
  0
LINE
  5
AB
330
86
100
AcDbEntity
  8
shade
 62
     6
420
 16711935
370
    25
100
AcDbLine
 10
329.8716958059429
 20
169.3293956500893
 30
0.0
 11
329.8716958059429
 21
168.0051178154369
 31
0.0
  0
LINE
  5
AC
330
86
100
AcDbEntity
  8
shade
 62
     6
420
 16711935
370
    25
100
AcDbLine
 10
329.8716958059429
 20
169.3293956500893
 30
0.0
 11
329.8716958059429
 21
168.0051178154369
 31
0.0
  0
SPLINE
  5
AD
330
86
100
AcDbEntity
  8
shade
 62
     6
420
 16711935
370
    25
100
AcDbSpline
210
0.0
220
0.0
230
1.0
 70
     8
 71
     3
 72
    14
 73
    10
 74
     0
 42
0.0000000001
 43
0.0000000001
 40
0.0
 40
0.0
 40
0.0
 40
0.0
 40
1.0
 40
1.0
 40
1.0
 40
2.0
 40
2.0
 40
2.0
 40
3.0
 40
3.0
 40
3.0
 40
3.0
 10
333.5889997740184
 20
167.9824651054109
 30
0.0
 10
333.5888401256836
 20
168.3314330641671
 30
0.0
 10
333.5784116820073
 20
168.7469441992884
 30
0.0
 10
333.5716108050962
 20
169.1624544845487
 30
0.0
 10
333.5583421006526
 20
169.9731268766166
 30
0.0
 10
333.5588817727379
 20
170.7837960336436
 30
0.0
 10
333.5388238062489
 20
171.5940981226697
 30
0.0
 10
333.5056770694929
 20
172.9331605879464
 30
0.0
 10
333.4162799879063
 20
174.2712206227197
 30
0.0
 10
333.3952234293263
 20
175.6104906427889
 30
0.0
  0
SPLINE
  5
AE
330
86
100
AcDbEntity
  8
shade
 62
     6
420
 16711935
370
    25
100
AcDbSpline
210
0.0
220
0.0
230
1.0
 70
     8
 71
     3
 72
    38
 73
    34
 74
     0
 42
0.0000000001
 43
0.0000000001
 40
0.0
 40
0.0
 40
0.0
 40
0.0
 40
1.0
 40
1.0
 40
1.0
 40
2.0
 40
2.0
 40
2.0
 40
3.0
 40
3.0
 40
3.0
 40
4.0
 40
4.0
 40
4.0
 40
5.0
 40
5.0
 40
5.0
 40
6.0
 40
6.0
 40
6.0
 40
7.0
 40
7.0
 40
7.0
 40
8.0
 40
8.0
 40
8.0
 40
9.0
 40
9.0
 40
9.0
 40
10.0
 40
10.0
 40
10.0
 40
11.0
 40
11.0
 40
11.0
 40
11.0
 10
331.1287157287567
 20
166.0359440386825
 30
0.0
 10
331.0938191330389
 20
166.133808285243
 30
0.0
 10
331.153457733271
 20
166.254196950878
 30
0.0
 10
331.230033838629
 20
166.3560885595795
 30
0.0
 10
331.4585013654782
 20
166.6600857886614
 30
0.0
 10
331.8377378219535
 20
166.7994317625711
 30
0.0
 10
332.1972725115352
 20
166.9461567938261
 30
0.0
 10
332.576556588722
 20
167.1009414910721
 30
0.0
 10
332.9339149996266
 20
167.263938180175
 30
0.0
 10
333.2561443727657
 20
167.5006175913528
 30
0.0
 10
333.3729523122976
 20
167.5864137249541
 30
0.0
 10
333.4851440931752
 20
167.6818921942513
 30
0.0
 10
333.5455473149236
 20
167.8175768564761
 30
0.0
 10
333.5926139296794
 20
167.9233032985868
 30
0.0
 10
333.6082364170113
 20
168.0534414771211
 30
0.0
 10
333.5674647872687
 20
168.1533053548467
 30
0.0
 10
333.5300845309535
 20
168.2448625814569
 30
0.0
 10
333.4453016697409
 20
168.3109724601506
 30
0.0
 10
333.3629010816066
 20
168.377124304791
 30
0.0
 10
333.153936254735
 20
168.5448829225191
 30
0.0
 10
332.9602920816821
 20
168.7129114280056
 30
0.0
 10
332.7363945280357
 20
168.8358321397367
 30
0.0
 10
332.4466727869459
 20
168.9948906110466
 30
0.0
 10
332.1062942884385
 20
169.0784198515261
 30
0.0
 10
331.7742466549334
 20
169.1613870427916
 30
0.0
 10
331.5868867626146
 20
169.20820178397
 30
0.0
 10
331.4021792920062
 20
169.2548375771604
 30
0.0
 10
331.2142662274967
 20
169.2834700396409
 30
0.0
 10
330.9167884844653
 20
169.3287969589618
 30
0.0
 10
330.611277265265
 20
169.3290060834477
 30
0.0
 10
330.3081165482181
 20
169.3292512185383
 30
0.0
 10
330.1623110430051
 20
169.3293691165373
 30
0.0
 10
330.0170492419395
 20
169.3294953443083
 30
0.0
 10
329.8716958059429
 20
169.3293956500893
 30
0.0
  0
SPLINE
  5
AF
330
86
100
AcDbEntity
  8
shade
 62
     6
420
 16711935
370
    25
100
AcDbSpline
210
0.0
220
0.0
230
1.0
 70
     8
 71
     3
 72
    32
 73
    28
 74
     0
 42
0.0000000001
 43
0.0000000001
 40
0.0
 40
0.0
 40
0.0
 40
0.0
 40
1.0
 40
1.0
 40
1.0
 40
2.0
 40
2.0
 40
2.0
 40
3.0
 40
3.0
 40
3.0
 40
4.0
 40
4.0
 40
4.0
 40
5.0
 40
5.0
 40
5.0
 40
6.0
 40
6.0
 40
6.0
 40
7.0
 40
7.0
 40
7.0
 40
8.0
 40
8.0
 40
8.0
 40
9.0
 40
9.0
 40
9.0
 40
9.0
 10
336.415304768152
 20
167.0641482732099
 30
0.0
 10
336.2556510077155
 20
166.9377967288276
 30
0.0
 10
336.0942361509553
 20
166.8136311697701
 30
0.0
 10
335.9304941946774
 20
166.6918094207664
 30
0.0
 10
335.6547716418309
 20
166.4866756579022
 30
0.0
 10
335.3724506745372
 20
166.2881876915771
 30
0.0
 10
335.0717017344376
 20
166.1247406791052
 30
0.0
 10
334.6297522352437
 20
165.8845558748634
 30
0.0
 10
334.1480090065456
 20
165.7200392005817
 30
0.0
 10
333.6534159005363
 20
165.5998708417211
 30
0.0
 10
333.3069498193405
 20
165.5156920291505
 30
0.0
 10
332.9541781687165
 20
165.4532753995798
 30
0.0
 10
332.6025375226139
 20
165.4660022186462
 30
0.0
 10
332.3133819537416
 20
165.4764675350014
 30
0.0
 10
332.0249911522
 20
165.5377436598658
 30
0.0
 10
331.7499695010329
 20
165.6448495300087
 30
0.0
 10
331.5304265632241
 20
165.7303494798873
 30
0.0
 10
331.3194030248501
 20
165.8450541208041
 30
0.0
 10
331.1565119811807
 20
166.0073210574285
 30
0.0
 10
331.0347506487319
 20
166.1286158688028
 30
0.0
 10
330.9398837710229
 20
166.2764865312206
 30
0.0
 10
330.8446017666804
 20
166.4231517484146
 30
0.0
 10
330.5295539749326
 20
166.9080969710052
 30
0.0
 10
330.2099676899401
 20
167.3798633107649
 30
0.0
 10
329.9370703895109
 20
167.8827618882978
 30
0.0
 10
329.9150293241444
 20
167.923379440798
 30
0.0
 10
329.8932928245272
 20
167.9642000779228
 30
0.0
 10
329.8716958059429
 20
168.0051178154369
 30
0.0
  0
LINE
  5
B0
330
86
100
AcDbEntity
  8
shade
 62
     6
420
 16711935
370
    25
100
AcDbLine
 10
345.6623509929609
 20
172.9439265763035
 30
0.0
 11
341.7441157042141
 21
170.3879457887967
 31
0.0
  0
LINE
  5
B1
330
86
100
AcDbEntity
  8
shade
 62
     6
420
 16711935
370
    25
100
AcDbLine
 10
344.6209627202849
 20
175.1625289618014
 30
0.0
 11
345.6623509929609
 21
172.9439265763035
 31
0.0
  0
SPLINE
  5
B2
330
86
100
AcDbEntity
  8
shade
 62
     6
420
 16711935
370
    25
100
AcDbSpline
210
0.0
220
0.0
230
1.0
 70
     8
 71
     3
 72
    20
 73
    16
 74
     0
 42
0.0000000001
 43
0.0000000001
 40
0.0
 40
0.0
 40
0.0
 40
0.0
 40
1.0
 40
1.0
 40
1.0
 40
2.0
 40
2.0
 40
2.0
 40
3.0
 40
3.0
 40
3.0
 40
4.0
 40
4.0
 40
4.0
 40
5.0
 40
5.0
 40
5.0
 40
5.0
 10
335.3472572676138
 20
171.7429345539799
 30
0.0
 10
335.4551957902953
 20
171.707633140847
 30
0.0
 10
335.5637393636549
 20
171.6744642834778
 30
0.0
 10
335.6734745194139
 20
171.6454460661557
 30
0.0
 10
336.0522168353692
 20
171.545291956384
 30
0.0
 10
336.445153653407
 20
171.4945815694416
 30
0.0
 10
336.8379739054591
 20
171.4806886041608
 30
0.0
 10
337.3728245540976
 20
171.4617724167769
 30
0.0
 10
337.9074591054716
 20
171.5111106343814
 30
0.0
 10
338.4352961203015
 20
171.5939593317457
 30
0.0
 10
339.1233598841076
 20
171.7019570373337
 30
0.0
 10
339.7998729229626
 20
171.8668974794862
 30
0.0
 10
340.4665370349471
 20
172.0749975254268
 30
0.0
 10
340.8959297206783
 20
172.2090329954984
 30
0.0
 10
341.3212365411061
 20
172.3609733936318
 30
0.0
 10
341.7234696132092
 20
172.5582343132491
 30
0.0
  0
SPLINE
  5
B3
330
86
100
AcDbEntity
  8
shade
 62
     6
420
 16711935
370
    25
100
AcDbSpline
210
0.0
220
0.0
230
1.0
 70
     8
 71
     3
 72
    32
 73
    28
 74
     0
 42
0.0000000001
 43
0.0000000001
 40
0.0
 40
0.0
 40
0.0
 40
0.0
 40
1.0
 40
1.0
 40
1.0
 40
2.0
 40
2.0
 40
2.0
 40
3.0
 40
3.0
 40
3.0
 40
4.0
 40
4.0
 40
4.0
 40
5.0
 40
5.0
 40
5.0
 40
6.0
 40
6.0
 40
6.0
 40
7.0
 40
7.0
 40
7.0
 40
8.0
 40
8.0
 40
8.0
 40
9.0
 40
9.0
 40
9.0
 40
9.0
 10
344.1378850646558
 20
181.7193078290971
 30
0.0
 10
343.9302640714635
 20
181.2835666900431
 30
0.0
 10
343.6311516318446
 20
180.9059997627087
 30
0.0
 10
343.3334957833094
 20
180.5285759603542
 30
0.0
 10
342.7821039186104
 20
179.8294181404092
 30
0.0
 10
342.2357104368253
 20
179.1307514628071
 30
0.0
 10
341.6628653258166
 20
178.4528913974607
 30
0.0
 10
341.3021734692587
 20
178.0260768873108
 30
0.0
 10
340.9309946269134
 20
177.6075113453438
 30
0.0
 10
340.555031868608
 20
177.1929887719721
 30
0.0
 10
340.2330006301142
 20
176.8379290892432
 30
0.0
 10
339.9074595308527
 20
176.4858356495023
 30
0.0
 10
339.5568042471885
 20
176.1592614579454
 30
0.0
 10
339.3387464787613
 20
175.9561787076119
 30
0.0
 10
339.1109768723554
 20
175.7629644364208
 30
0.0
 10
338.8671197636775
 20
175.5910138011779
 30
0.0
 10
338.7349652954813
 20
175.4978278986829
 30
0.0
 10
338.5980860484912
 20
175.4108869666542
 30
0.0
 10
338.4375794115391
 20
175.3673418667885
 30
0.0
 10
338.3567534742112
 20
175.3454139666235
 30
0.0
 10
338.2699360962401
 20
175.334490394529
 30
0.0
 10
338.1939138327139
 20
175.3573268896958
 30
0.0
 10
338.1257468112256
 20
175.3778037313983
 30
0.0
 10
338.0662592814959
 20
175.4254243543297
 30
0.0
 10
338.0084910646885
 20
175.473240960264
 30
0.0
 10
337.9711557533231
 20
175.5041445949875
 30
0.0
 10
337.9345385942476
 20
175.5351300912781
 30
0.0
 10
337.9000771241193
 20
175.5676073767586
 30
0.0
  0
SPLINE
  5
B4
330
86
100
AcDbEntity
  8
shade
 62
     6
420
 16711935
370
    25
100
AcDbSpline
210
0.0
220
0.0
230
1.0
 70
     8
 71
     3
 72
    32
 73
    28
 74
     0
 42
0.0000000001
 43
0.0000000001
 40
0.0
 40
0.0
 40
0.0
 40
0.0
 40
1.0
 40
1.0
 40
1.0
 40
2.0
 40
2.0
 40
2.0
 40
3.0
 40
3.0
 40
3.0
 40
4.0
 40
4.0
 40
4.0
 40
5.0
 40
5.0
 40
5.0
 40
6.0
 40
6.0
 40
6.0
 40
7.0
 40
7.0
 40
7.0
 40
8.0
 40
8.0
 40
8.0
 40
9.0
 40
9.0
 40
9.0
 40
9.0
 10
335.177304702236
 20
173.7518055128756
 30
0.0
 10
335.1787467171621
 20
173.8699642914229
 30
0.0
 10
335.1797236345845
 20
173.9881130292181
 30
0.0
 10
335.1788269798666
 20
174.1062347710222
 30
0.0
 10
335.1733153178411
 20
174.8323193000006
 30
0.0
 10
335.0970115054579
 20
175.5573837973435
 30
0.0
 10
335.013046196892
 20
176.278834174863
 30
0.0
 10
334.8562865584676
 20
177.6257511606666
 30
0.0
 10
334.6728225511639
 20
178.9600710261711
 30
0.0
 10
334.4754092110274
 20
180.3110908702489
 30
0.0
 10
334.3857919932608
 20
180.9243961286233
 30
0.0
 10
334.2933001362195
 20
181.5411428716424
 30
0.0
 10
334.067437606991
 20
182.1121335953357
 30
0.0
 10
333.83739003643
 20
182.6937042934601
 30
0.0
 10
333.4689835124763
 20
183.2278076223081
 30
0.0
 10
333.0235499012583
 20
183.6767553010931
 30
0.0
 10
332.7177001481702
 20
183.9850179316065
 30
0.0
 10
332.3755347489986
 20
184.2531325757667
 30
0.0
 10
331.9959727567833
 20
184.4590661539564
 30
0.0
 10
331.7636650671477
 20
184.5851060493099
 30
0.0
 10
331.5173488084553
 20
184.6878532410748
 30
0.0
 10
331.2619890390032
 20
184.7524327237878
 30
0.0
 10
330.9816413619092
 20
184.823331550199
 30
0.0
 10
330.6903936966235
 20
184.8482274922861
 30
0.0
 10
330.4006051021008
 20
184.8576641521084
 30
0.0
 10
330.2239847947697
 20
184.8634156060637
 30
0.0
 10
330.0479064821613
 20
184.8634244672242
 30
0.0
 10
329.8716958059429
 20
184.863174007746
 30
0.0
  0
SPLINE
  5
B5
330
86
100
AcDbEntity
  8
shade
 62
     6
420
 16711935
370
    25
100
AcDbSpline
210
0.0
220
0.0
230
1.0
 70
     8
 71
     3
 72
    71
 73
    67
 74
     0
 42
0.0000000001
 43
0.0000000001
 40
0.0
 40
0.0
 40
0.0
 40
0.0
 40
1.0
 40
1.0
 40
1.0
 40
2.0
 40
2.0
 40
2.0
 40
3.0
 40
3.0
 40
3.0
 40
4.0
 40
4.0
 40
4.0
 40
5.0
 40
5.0
 40
5.0
 40
6.0
 40
6.0
 40
6.0
 40
7.0
 40
7.0
 40
7.0
 40
8.0
 40
8.0
 40
8.0
 40
9.0
 40
9.0
 40
9.0
 40
10.0
 40
10.0
 40
10.0
 40
11.0
 40
11.0
 40
11.0
 40
12.0
 40
12.0
 40
12.0
 40
13.0
 40
13.0
 40
13.0
 40
14.0
 40
14.0
 40
14.0
 40
15.0
 40
15.0
 40
15.0
 40
16.0
 40
16.0
 40
16.0
 40
17.0
 40
17.0
 40
17.0
 40
18.0
 40
18.0
 40
18.0
 40
19.0
 40
19.0
 40
19.0
 40
20.0
 40
20.0
 40
20.0
 40
21.0
 40
21.0
 40
21.0
 40
22.0
 40
22.0
 40
22.0
 40
22.0
 10
347.1965121997749
 20
179.5659140074385
 30
0.0
 10
345.6400844393364
 20
177.057988853101
 30
0.0
 10
344.2683232565008
 20
174.4391368243238
 30
0.0
 10
342.7182815826928
 20
171.9268791129741
 30
0.0
 10
342.4186291513146
 20
171.4412120859225
 30
0.0
 10
342.1123139827121
 20
170.9595287248803
 30
0.0
 10
341.8034561822279
 20
170.4800108614478
 30
0.0
 10
341.5373341031715
 20
170.0668424371498
 30
0.0
 10
341.2693243450632
 20
169.6552817030834
 30
0.0
 10
341.0108275019072
 20
169.2361247090164
 30
0.0
 10
340.9054279337408
 20
169.0652175303143
 30
0.0
 10
340.8016099077818
 20
168.8930474573167
 30
0.0
 10
340.683372053206
 20
168.7316878335796
 30
0.0
 10
340.4387755046682
 20
168.3978860475145
 30
0.0
 10
340.1324700757943
 20
168.1103469969843
 30
0.0
 10
339.8101577247475
 20
167.8455149562006
 30
0.0
 10
339.5524079932713
 20
167.63373161258
 30
0.0
 10
339.2844217879408
 20
167.4364694685085
 30
0.0
 10
338.990101147986
 20
167.2821913665756
 30
0.0
 10
338.6876189648689
 20
167.1236351161728
 30
0.0
 10
338.3573215835231
 20
167.0104798651535
 30
0.0
 10
338.0213792573002
 20
166.9549891841132
 30
0.0
 10
337.7208996082097
 20
166.9053561993034
 30
0.0
 10
337.4159038920548
 20
166.9018560059574
 30
0.0
 10
337.1072327711643
 20
166.9277222743656
 30
0.0
 10
336.783325445645
 20
166.9548653183902
 30
0.0
 10
336.4553709197048
 20
167.0143454695615
 30
0.0
 10
336.1794427360079
 20
167.1731240213856
 30
0.0
 10
335.9630880422011
 20
167.2976219414532
 30
0.0
 10
335.7787196341123
 20
167.4831694544782
 30
0.0
 10
335.633683856266
 20
167.6911942782499
 30
0.0
 10
335.510274556411
 20
167.86820024349
 30
0.0
 10
335.4153425342009
 20
168.0614800407981
 30
0.0
 10
335.3471602631097
 20
168.2637983545787
 30
0.0
 10
335.2890506287575
 20
168.4362279767469
 30
0.0
 10
335.2503710080289
 20
168.6152228375322
 30
0.0
 10
335.2243646964749
 20
168.7955021397477
 30
0.0
 10
335.1704217269248
 20
169.1694421688491
 30
0.0
 10
335.1710045775523
 20
169.5489083966308
 30
0.0
 10
335.1970766920367
 20
169.9270767641313
 30
0.0
 10
335.2383596919183
 20
170.5258745591558
 30
0.0
 10
335.3435495225402
 20
171.1214183513711
 30
0.0
 10
335.3471602631097
 20
171.7130559003167
 30
0.0
 10
335.3496738247159
 20
172.1249152934572
 30
0.0
 10
335.3029618099078
 20
172.5348817076764
 30
0.0
 10
335.278531302124
 20
172.9588310780589
 30
0.0
 10
335.2609619373715
 20
173.2637171330585
 30
0.0
 10
335.2549162659877
 20
173.5758349834208
 30
0.0
 10
335.1429339556206
 20
173.8457920529128
 30
0.0
 10
335.0411632592659
 20
174.0911318647535
 30
0.0
 10
334.8518956287684
 20
174.3016495498701
 30
0.0
 10
334.6656843884131
 20
174.5069902704849
 30
0.0
 10
334.4314320331548
 20
174.7653073696024
 30
0.0
 10
334.2020165537097
 20
175.0154316879769
 30
0.0
 10
333.9400373878688
 20
175.2320766691803
 30
0.0
 10
333.6266655458149
 20
175.491221081002
 30
0.0
 10
333.2667007766927
 20
175.7024624300078
 30
0.0
 10
332.8890997900011
 20
175.8654855650169
 30
0.0
 10
332.5164231191898
 20
176.0263827061021
 30
0.0
 10
332.1265672212822
 20
176.1403110656361
 30
0.0
 10
331.7297325973057
 20
176.2155273000699
 30
0.0
 10
331.4076856541315
 20
176.2765682398082
 30
0.0
 10
331.0810425482252
 20
176.3121135195006
 30
0.0
 10
330.7538620138804
 20
176.332207878426
 30
0.0
 10
330.4600854321983
 20
176.3502506757521
 30
0.0
 10
330.1658755591437
 20
176.3558364635498
 30
0.0
 10
329.8716958059429
 20
176.3569729769752
 30
0.0
  0
LINE
  5
B6
330
86
100
AcDbEntity
  8
shade
 62
     6
420
 16711935
370
    25
100
AcDbLine
 10
345.2618911333423
 20
182.0709153831037
 30
0.0
 11
347.1965121997749
 21
179.5659140074385
 31
0.0
  0
SPLINE
  5
B7
330
86
100
AcDbEntity
  8
shade
 62
     6
420
 16711935
370
    25
100
AcDbSpline
210
0.0
220
0.0
230
1.0
 70
     8
 71
     3
 72
     8
 73
     4
 74
     0
 42
0.0000000001
 43
0.0000000001
 40
0.0
 40
0.0
 40
0.0
 40
0.0
 40
1.0
 40
1.0
 40
1.0
 40
1.0
 10
346.7634374047029
 20
186.9567752514037
 30
0.0
 10
345.6160693429773
 20
187.6293176724035
 30
0.0
 10
344.3959484334012
 20
188.1692141124295
 30
0.0
 10
343.1265865605715
 20
188.5660606986361
 30
0.0
  0
SPLINE
  5
B8
330
86
100
AcDbEntity
  8
shade
 62
     6
420
 16711935
370
    25
100
AcDbSpline
210
0.0
220
0.0
230
1.0
 70
     8
 71
     3
 72
    50
 73
    46
 74
     0
 42
0.0000000001
 43
0.0000000001
 40
0.0
 40
0.0
 40
0.0
 40
0.0
 40
1.0
 40
1.0
 40
1.0
 40
2.0
 40
2.0
 40
2.0
 40
3.0
 40
3.0
 40
3.0
 40
4.0
 40
4.0
 40
4.0
 40
5.0
 40
5.0
 40
5.0
 40
6.0
 40
6.0
 40
6.0
 40
7.0
 40
7.0
 40
7.0
 40
8.0
 40
8.0
 40
8.0
 40
9.0
 40
9.0
 40
9.0
 40
10.0
 40
10.0
 40
10.0
 40
11.0
 40
11.0
 40
11.0
 40
12.0
 40
12.0
 40
12.0
 40
13.0
 40
13.0
 40
13.0
 40
14.0
 40
14.0
 40
14.0
 40
15.0
 40
15.0
 40
15.0
 40
15.0
 10
335.4272105517341
 20
182.3771488809548
 30
0.0
 10
335.401949805699
 20
182.5508861386931
 30
0.0
 10
335.3710291052821
 20
182.724084700817
 30
0.0
 10
335.3414301296666
 20
182.8972713770679
 30
0.0
 10
335.2958148186308
 20
183.1641712929086
 30
0.0
 10
335.2533386351157
 20
183.4310429795564
 30
0.0
 10
335.2011595443167
 20
183.6961374174379
 30
0.0
 10
335.1343296156648
 20
184.0356650348621
 30
0.0
 10
335.0515830664638
 20
184.3722772586596
 30
0.0
 10
334.9781976794428
 20
184.7107527066613
 30
0.0
 10
334.9243243630635
 20
184.959232623895
 30
0.0
 10
334.8754960099873
 20
185.2087166790702
 30
0.0
 10
334.8309720747325
 20
185.4590232119219
 30
0.0
 10
334.8007602321135
 20
185.6288694203196
 30
0.0
 10
334.7725302896217
 20
185.7990943253982
 30
0.0
 10
334.7424721046816
 20
185.9688749897063
 30
0.0
 10
334.6691035335533
 20
186.3832900573384
 30
0.0
 10
334.5848424414847
 20
186.7950583743036
 30
0.0
 10
334.5067471341852
 20
187.2097826447668
 30
0.0
 10
334.4628149447542
 20
187.4430840536567
 30
0.0
 10
334.420833966045
 20
187.6773208971138
 30
0.0
 10
334.351568231137
 20
187.9031815325396
 30
0.0
 10
334.2450818482066
 20
188.2504106805432
 30
0.0
 10
334.0741085896835
 20
188.5778428591324
 30
0.0
 10
333.8858680629199
 20
188.8913116941553
 30
0.0
 10
333.6954873914751
 20
189.2083444198449
 30
0.0
 10
333.4874445897142
 20
189.511094492947
 30
0.0
 10
333.2512723241345
 20
189.7956642737744
 30
0.0
 10
333.0383847048418
 20
190.0521778106969
 30
0.0
 10
332.8026408621102
 20
190.2939191918091
 30
0.0
 10
332.5325990758088
 20
190.4850574644338
 30
0.0
 10
332.3036838526706
 20
190.6470859450226
 30
0.0
 10
332.0501221163498
 20
190.7727510157739
 30
0.0
 10
331.7966777178554
 20
190.898693349454
 30
0.0
 10
331.5918157041491
 20
191.0004939820545
 30
0.0
 10
331.3870303551254
 20
191.10247576922
 30
0.0
 10
331.1699944881884
 20
191.1687057387677
 30
0.0
 10
331.0243951009062
 20
191.2131363811364
 30
0.0
 10
330.8732824275558
 20
191.2414770918375
 30
0.0
 10
330.7215424295837
 20
191.2606248406372
 30
0.0
 10
330.5534465041468
 20
191.2818365092818
 30
0.0
 10
330.3845807279214
 20
191.2917666042222
 30
0.0
 10
330.2155965715296
 20
191.2950944854978
 30
0.0
 10
330.1009977061058
 20
191.2973513326774
 30
0.0
 10
329.9863443969949
 20
191.2965717850824
 30
0.0
 10
329.8716958059429
 20
191.2958041660822
 30
0.0
  0
SPLINE
  5
B9
330
86
100
AcDbEntity
  8
shade
 62
     6
420
 16711935
370
    25
100
AcDbSpline
210
0.0
220
0.0
230
1.0
 70
     8
 71
     3
 72
   134
 73
   130
 74
     0
 42
0.0000000001
 43
0.0000000001
 40
0.0
 40
0.0
 40
0.0
 40
0.0
 40
1.0
 40
1.0
 40
1.0
 40
2.0
 40
2.0
 40
2.0
 40
3.0
 40
3.0
 40
3.0
 40
4.0
 40
4.0
 40
4.0
 40
5.0
 40
5.0
 40
5.0
 40
6.0
 40
6.0
 40
6.0
 40
7.0
 40
7.0
 40
7.0
 40
8.0
 40
8.0
 40
8.0
 40
9.0
 40
9.0
 40
9.0
 40
10.0
 40
10.0
 40
10.0
 40
11.0
 40
11.0
 40
11.0
 40
12.0
 40
12.0
 40
12.0
 40
13.0
 40
13.0
 40
13.0
 40
14.0
 40
14.0
 40
14.0
 40
15.0
 40
15.0
 40
15.0
 40
16.0
 40
16.0
 40
16.0
 40
17.0
 40
17.0
 40
17.0
 40
18.0
 40
18.0
 40
18.0
 40
19.0
 40
19.0
 40
19.0
 40
20.0
 40
20.0
 40
20.0
 40
21.0
 40
21.0
 40
21.0
 40
22.0
 40
22.0
 40
22.0
 40
23.0
 40
23.0
 40
23.0
 40
24.0
 40
24.0
 40
24.0
 40
25.0
 40
25.0
 40
25.0
 40
26.0
 40
26.0
 40
26.0
 40
27.0
 40
27.0
 40
27.0
 40
28.0
 40
28.0
 40
28.0
 40
29.0
 40
29.0
 40
29.0
 40
30.0
 40
30.0
 40
30.0
 40
31.0
 40
31.0
 40
31.0
 40
32.0
 40
32.0
 40
32.0
 40
33.0
 40
33.0
 40
33.0
 40
34.0
 40
34.0
 40
34.0
 40
35.0
 40
35.0
 40
35.0
 40
36.0
 40
36.0
 40
36.0
 40
37.0
 40
37.0
 40
37.0
 40
38.0
 40
38.0
 40
38.0
 40
39.0
 40
39.0
 40
39.0
 40
40.0
 40
40.0
 40
40.0
 40
41.0
 40
41.0
 40
41.0
 40
42.0
 40
42.0
 40
42.0
 40
43.0
 40
43.0
 40
43.0
 40
43.0
 10
345.9933181226015
 20
181.1238432943468
 30
0.0
 10
346.1254015596885
 20
181.4418130265148
 30
0.0
 10
346.1658099236356
 20
181.5526750793154
 30
0.0
 10
346.2047691272814
 20
181.6639422941388
 30
0.0
 10
346.3900281013139
 20
182.1930406364508
 30
0.0
 10
346.5425187088364
 20
182.7313004895824
 30
0.0
 10
346.686953890895
 20
183.2738997259975
 30
0.0
 10
346.7928423818751
 20
183.6716907180164
 30
0.0
 10
346.8944013502118
 20
184.0718139838754
 30
0.0
 10
346.9640125665292
 20
184.4744389014885
 30
0.0
 10
347.042420130757
 20
184.9279410920972
 30
0.0
 10
347.0802957182107
 20
185.3846171175869
 30
0.0
 10
347.0818297303864
 20
185.8572151180907
 30
0.0
 10
347.0826877026648
 20
186.1215389571834
 30
0.0
 10
347.0721774500767
 20
186.3908434442097
 30
0.0
 10
346.9818643569667
 20
186.6269391759518
 30
0.0
 10
346.9359660205242
 20
186.7469262226821
 30
0.0
 10
346.8694561267782
 20
186.8583360789164
 30
0.0
 10
346.7642933194683
 20
186.9559816232941
 30
0.0
 10
346.7277373067598
 20
186.989924533831
 30
0.0
 10
346.6865106633571
 20
187.0222042316401
 30
0.0
 10
346.6466873532572
 20
187.0264906457377
 30
0.0
 10
346.5749623481933
 20
187.0342108245172
 30
0.0
 10
346.5077896055927
 20
186.9511237982045
 30
0.0
 10
346.4526375089703
 20
186.8737210481817
 30
0.0
 10
346.3487280005328
 20
186.7278901151771
 30
0.0
 10
346.2874876756213
 20
186.6022364196861
 30
0.0
 10
346.2350661693395
 20
186.4624180256961
 30
0.0
 10
346.1879515334365
 20
186.3367540913373
 30
0.0
 10
346.1479605561253
 20
186.1996482075917
 30
0.0
 10
346.1115799048101
 20
186.0628665558948
 30
0.0
 10
345.9932404443784
 20
185.6179414027293
 30
0.0
 10
345.9131010971268
 20
185.1764468818816
 30
0.0
 10
345.8232990505856
 20
184.7334412781972
 30
0.0
 10
345.7569482458335
 20
184.406123812141
 30
0.0
 10
345.68532249063
 20
184.0779814329602
 30
0.0
 10
345.6057280130872
 20
183.7521898593434
 30
0.0
 10
345.5461062508017
 20
183.5081494641401
 30
0.0
 10
345.4820132026449
 20
183.2654281164826
 30
0.0
 10
345.4290779540116
 20
183.0203307570867
 30
0.0
 10
345.3439736076328
 20
182.6262861250483
 30
0.0
 10
345.2877090530441
 20
182.2261001670464
 30
0.0
 10
345.2232672109865
 20
181.8275521240711
 30
0.0
 10
345.0899145829656
 20
181.0028173361529
 30
0.0
 10
344.9215451489244
 20
180.18509643303
 30
0.0
 10
344.7660950162326
 20
179.3648789468103
 30
0.0
 10
344.6248359481698
 20
178.6195392311791
 30
0.0
 10
344.4942450398027
 20
177.8721379530693
 30
0.0
 10
344.3599546981768
 20
177.1253176935568
 30
0.0
 10
344.2634622357191
 20
176.5887003538003
 30
0.0
 10
344.1650597774366
 20
176.0523829905466
 30
0.0
 10
344.0134104874535
 20
175.5270021034673
 30
0.0
 10
343.9194406393481
 20
175.2014485703269
 30
0.0
 10
343.8050256526866
 20
174.8800943062033
 30
0.0
 10
343.6523969721164
 20
174.5800736075966
 30
0.0
 10
343.4312809075775
 20
174.1454279308736
 30
0.0
 10
343.1299624525217
 20
173.7555568565784
 30
0.0
 10
342.810031700184
 20
173.3776245514631
 30
0.0
 10
342.5849809064516
 20
173.1117733801278
 30
0.0
 10
342.3507203359414
 20
172.8518297760806
 30
0.0
 10
342.0428775646741
 20
172.686216322147
 30
0.0
 10
341.808953064328
 20
172.5603694675704
 30
0.0
 10
341.5325405653911
 20
172.4889909387907
 30
0.0
 10
341.2757234291795
 20
172.5208796099645
 30
0.0
 10
341.032589673526
 20
172.551069232435
 30
0.0
 10
340.807018801624
 20
172.6738149281352
 30
0.0
 10
340.5837804301073
 20
172.7914307136816
 30
0.0
 10
340.2712199590592
 20
172.9561069074859
 30
0.0
 10
339.9632319714327
 20
173.1107267560938
 30
0.0
 10
339.6825511422678
 20
173.3109090008547
 30
0.0
 10
339.3825212469485
 20
173.5248910462834
 30
0.0
 10
339.113693181879
 20
173.7909338051474
 30
0.0
 10
338.8797529479759
 20
174.0802704398609
 30
0.0
 10
338.6582749458508
 20
174.3541938207503
 30
0.0
 10
338.4680667598274
 20
174.6489954044532
 30
0.0
 10
338.280587955353
 20
174.945824125771
 30
0.0
 10
338.0817628753842
 20
175.2606170135152
 30
0.0
 10
337.8860075400026
 20
175.5776898297065
 30
0.0
 10
337.71089032135
 20
175.9059389347161
 30
0.0
 10
337.5222465411203
 20
176.2595429521481
 30
0.0
 10
337.3575523102032
 20
176.6261165192601
 30
0.0
 10
337.2066545901322
 20
176.9977749993983
 30
0.0
 10
337.0539954943828
 20
177.3737717174642
 30
0.0
 10
336.9154568728157
 20
177.754972750164
 30
0.0
 10
336.7793833285754
 20
178.1369684379433
 30
0.0
 10
336.6338500975945
 20
178.5455200558304
 30
0.0
 10
336.4911365963894
 20
178.9549806564494
 30
0.0
 10
336.3558737417476
 20
179.3673899610972
 30
0.0
 10
336.2473575420523
 20
179.6982501264588
 30
0.0
 10
336.1436367553669
 20
180.0310081477519
 30
0.0
 10
336.0454506728721
 20
180.3641266289113
 30
0.0
 10
335.9183624543014
 20
180.7953021405076
 30
0.0
 10
335.8005469128237
 20
181.2270815557167
 30
0.0
 10
335.6767409825296
 20
181.6641070808351
 30
0.0
 10
335.59438518275
 20
181.9548167952725
 30
0.0
 10
335.5093786834981
 20
182.2478478716836
 30
0.0
 10
335.3588888326293
 20
182.5048891563317
 30
0.0
 10
335.2746978189625
 20
182.6486899919693
 30
0.0
 10
335.1700118038904
 20
182.7812267304426
 30
0.0
 10
335.0706113019695
 20
182.9169168290184
 30
0.0
 10
334.9184834563135
 20
183.1245842147411
 30
0.0
 10
334.778735804237
 20
183.3396376776374
 30
0.0
 10
334.6212265292986
 20
183.5416963071364
 30
0.0
 10
334.4042183079728
 20
183.8200823501548
 30
0.0
 10
334.1534951184512
 20
184.07380170602
 30
0.0
 10
333.8877609859979
 20
184.3074115836321
 30
0.0
 10
333.7826998834785
 20
184.3997719856322
 30
0.0
 10
333.6752924071689
 20
184.4889890572859
 30
0.0
 10
333.5655304884173
 20
184.5755654963236
 30
0.0
 10
333.403858053678
 20
184.7030871709473
 30
0.0
 10
333.2370775511216
 20
184.8248798754563
 30
0.0
 10
333.0619570536435
 20
184.9328992626585
 30
0.0
 10
332.7986477922478
 20
185.0953160298072
 30
0.0
 10
332.516483637051
 20
185.2265943564581
 30
0.0
 10
332.2299661483161
 20
185.344927082207
 30
0.0
 10
332.0326998717696
 20
185.4263987448969
 30
0.0
 10
331.8333699959453
 20
185.5017338383844
 30
0.0
 10
331.6298578666373
 20
185.5650865045849
 30
0.0
 10
331.4396670845083
 20
185.6242922785943
 30
0.0
 10
331.2458236471169
 20
185.6730329586049
 30
0.0
 10
331.049653527615
 20
185.7072908079922
 30
0.0
 10
330.8541992698918
 20
185.7414236440367
 30
0.0
 10
330.6564352801224
 20
185.7611791577321
 30
0.0
 10
330.4585022618515
 20
185.776569805002
 30
0.0
 10
330.3296651970432
 20
185.7865877688443
 30
0.0
 10
330.2007565170666
 20
185.7947563954553
 30
0.0
 10
330.0716993691649
 20
185.7984473675427
 30
0.0
 10
330.0050613502721
 20
185.8003531827188
 30
0.0
 10
329.9383837479943
 20
185.8010652005251
 30
0.0
 10
329.8716958059429
 20
185.80140228751
 30
0.0
  0
SPLINE
  5
BA
330
86
100
AcDbEntity
  8
shade
 62
     6
420
 16711935
370
    25
100
AcDbSpline
210
0.0
220
0.0
230
1.0
 70
     8
 71
     3
 72
     8
 73
     4
 74
     0
 42
0.0000000001
 43
0.0000000001
 40
0.0
 40
0.0
 40
0.0
 40
0.0
 40
1.0
 40
1.0
 40
1.0
 40
1.0
 10
342.5131162076702
 20
193.476725408145
 30
0.0
 10
341.0334266579028
 20
193.7692804936824
 30
0.0
 10
339.5303622624395
 20
193.9277568196279
 30
0.0
 10
338.0221962571206
 20
193.9502277384978
 30
0.0
  0
SPLINE
  5
BB
330
86
100
AcDbEntity
  8
shade
 62
     6
420
 16711935
370
    25
100
AcDbSpline
210
0.0
220
0.0
230
1.0
 70
     8
 71
     3
 72
    38
 73
    34
 74
     0
 42
0.0000000001
 43
0.0000000001
 40
0.0
 40
0.0
 40
0.0
 40
0.0
 40
1.0
 40
1.0
 40
1.0
 40
2.0
 40
2.0
 40
2.0
 40
3.0
 40
3.0
 40
3.0
 40
4.0
 40
4.0
 40
4.0
 40
5.0
 40
5.0
 40
5.0
 40
6.0
 40
6.0
 40
6.0
 40
7.0
 40
7.0
 40
7.0
 40
8.0
 40
8.0
 40
8.0
 40
9.0
 40
9.0
 40
9.0
 40
10.0
 40
10.0
 40
10.0
 40
11.0
 40
11.0
 40
11.0
 40
11.0
 10
339.4319919393874
 20
181.6123239034766
 30
0.0
 10
339.4380727116982
 20
181.609616287399
 30
0.0
 10
339.4441145147918
 20
181.6071150992698
 30
0.0
 10
339.45012074226
 20
181.6048303519965
 30
0.0
 10
339.5590570881485
 20
181.5633913592161
 30
0.0
 10
339.6562905034692
 20
181.5931525915189
 30
0.0
 10
339.7689927404035
 20
181.6475563485884
 30
0.0
 10
339.8762898289338
 20
181.6993509260178
 30
0.0
 10
339.9976075638102
 20
181.7734810201646
 30
0.0
 10
340.1005735182214
 20
181.8658018756801
 30
0.0
 10
340.3056058710507
 20
182.0496370309431
 30
0.0
 10
340.437871018378
 20
182.3056009298604
 30
0.0
 10
340.5543937435293
 20
182.5620381199877
 30
0.0
 10
340.7085029167117
 20
182.9011936219143
 30
0.0
 10
340.8350756830595
 20
183.2411769976571
 30
0.0
 10
340.9486217893958
 20
183.5880703950012
 30
0.0
 10
341.0504927069379
 20
183.8992950579765
 30
0.0
 10
341.1418781274396
 20
184.2160817768915
 30
0.0
 10
341.2296240295877
 20
184.5333298748695
 30
0.0
 10
341.3838178055522
 20
185.0908223725981
 30
0.0
 10
341.5267726787298
 20
185.6497396178401
 30
0.0
 10
341.6796321223394
 20
186.2068061130759
 30
0.0
 10
341.8267179561588
 20
186.742831810887
 30
0.0
 10
341.9829742851954
 20
187.2771439266666
 30
0.0
 10
342.1029730319422
 20
187.8268619326043
 30
0.0
 10
342.1570996235697
 20
188.0748175390113
 30
0.0
 10
342.2038494360581
 20
188.3259075477496
 30
0.0
 10
342.2541092402055
 20
188.5654625999919
 30
0.0
 10
342.2717097058722
 20
188.6493523114416
 30
0.0
 10
342.2897406117195
 20
188.7318274586181
 30
0.0
 10
342.3072286992876
 20
188.8160441846674
 30
0.0
 10
342.3301289723983
 20
188.9263241691075
 30
0.0
 10
342.352098456694
 20
189.0395904975529
 30
0.0
 10
342.3682828215366
 20
189.1537500446179
 30
0.0
  0
SPLINE
  5
BC
330
86
100
AcDbEntity
  8
shade
 62
     6
420
 16711935
370
    25
100
AcDbSpline
210
0.0
220
0.0
230
1.0
 70
     8
 71
     3
 72
    41
 73
    37
 74
     0
 42
0.0000000001
 43
0.0000000001
 40
0.0
 40
0.0
 40
0.0
 40
0.0
 40
1.0
 40
1.0
 40
1.0
 40
2.0
 40
2.0
 40
2.0
 40
3.0
 40
3.0
 40
3.0
 40
4.0
 40
4.0
 40
4.0
 40
5.0
 40
5.0
 40
5.0
 40
6.0
 40
6.0
 40
6.0
 40
7.0
 40
7.0
 40
7.0
 40
8.0
 40
8.0
 40
8.0
 40
9.0
 40
9.0
 40
9.0
 40
10.0
 40
10.0
 40
10.0
 40
11.0
 40
11.0
 40
11.0
 40
12.0
 40
12.0
 40
12.0
 40
12.0
 10
335.3047940466554
 20
190.9051489753666
 30
0.0
 10
335.2663677859256
 20
191.0848478823621
 30
0.0
 10
335.2212842025766
 20
191.2633305501756
 30
0.0
 10
335.1734089596626
 20
191.4413873199598
 30
0.0
 10
335.1043839246064
 20
191.698104028398
 30
0.0
 10
335.0295558737629
 20
191.9539354236661
 30
0.0
 10
334.9232862923746
 20
192.196075987696
 30
0.0
 10
334.830982763072
 20
192.4063942025195
 30
0.0
 10
334.7149588149215
 20
192.6063836500669
 30
0.0
 10
334.5998351388849
 20
192.8062125088773
 30
0.0
 10
334.4777754680678
 20
193.0180806976882
 30
0.0
 10
334.3567278168015
 20
193.2297683645057
 30
0.0
 10
334.2221989490357
 20
193.4334862582351
 30
0.0
 10
334.0272862702911
 20
193.7286437291904
 30
0.0
 10
333.8040741223858
 20
194.0070712301764
 30
0.0
 10
333.5548823806409
 20
194.2581187976384
 30
0.0
 10
333.3791419917417
 20
194.4351679921048
 30
0.0
 10
333.1904802426709
 20
194.59859934539
 30
0.0
 10
332.9954077398378
 20
194.7547965993101
 30
0.0
 10
332.8063585906297
 20
194.9061708705812
 30
0.0
 10
332.6112884717598
 20
195.0507508873369
 30
0.0
 10
332.4019795278181
 20
195.1713454782543
 30
0.0
 10
332.2492798986561
 20
195.2593242763109
 30
0.0
 10
332.0890019214902
 20
195.3345372805549
 30
0.0
 10
331.9255176462225
 20
195.4010454918277
 30
0.0
 10
331.7724644096776
 20
195.4633101773793
 30
0.0
 10
331.6166009749131
 20
195.5179454431321
 30
0.0
 10
331.457853551432
 20
195.563849306282
 30
0.0
 10
331.2806583968567
 20
195.6150875686071
 30
0.0
 10
331.0998700218207
 20
195.6554471978737
 30
0.0
 10
330.9171480058236
 20
195.6785473039659
 30
0.0
 10
330.7450429401677
 20
195.7003051925978
 30
0.0
 10
330.5712224113833
 20
195.7067509958026
 30
0.0
 10
330.3975873023166
 20
195.7117493249986
 30
0.0
 10
330.2221787043062
 20
195.7167987065689
 30
0.0
 10
330.0469593330547
 20
195.7203708944659
 30
0.0
 10
329.8716958059429
 20
195.7214554530622
 30
0.0
  0
SPLINE
  5
BD
330
86
100
AcDbEntity
  8
shade
 62
     6
420
 16711935
370
    25
100
AcDbSpline
210
0.0
220
0.0
230
1.0
 70
     8
 71
     3
 72
   140
 73
   136
 74
     0
 42
0.0000000001
 43
0.0000000001
 40
0.0
 40
0.0
 40
0.0
 40
0.0
 40
1.0
 40
1.0
 40
1.0
 40
2.0
 40
2.0
 40
2.0
 40
3.0
 40
3.0
 40
3.0
 40
4.0
 40
4.0
 40
4.0
 40
5.0
 40
5.0
 40
5.0
 40
6.0
 40
6.0
 40
6.0
 40
7.0
 40
7.0
 40
7.0
 40
8.0
 40
8.0
 40
8.0
 40
9.0
 40
9.0
 40
9.0
 40
10.0
 40
10.0
 40
10.0
 40
11.0
 40
11.0
 40
11.0
 40
12.0
 40
12.0
 40
12.0
 40
13.0
 40
13.0
 40
13.0
 40
14.0
 40
14.0
 40
14.0
 40
15.0
 40
15.0
 40
15.0
 40
16.0
 40
16.0
 40
16.0
 40
17.0
 40
17.0
 40
17.0
 40
18.0
 40
18.0
 40
18.0
 40
19.0
 40
19.0
 40
19.0
 40
20.0
 40
20.0
 40
20.0
 40
21.0
 40
21.0
 40
21.0
 40
22.0
 40
22.0
 40
22.0
 40
23.0
 40
23.0
 40
23.0
 40
24.0
 40
24.0
 40
24.0
 40
25.0
 40
25.0
 40
25.0
 40
26.0
 40
26.0
 40
26.0
 40
27.0
 40
27.0
 40
27.0
 40
28.0
 40
28.0
 40
28.0
 40
29.0
 40
29.0
 40
29.0
 40
30.0
 40
30.0
 40
30.0
 40
31.0
 40
31.0
 40
31.0
 40
32.0
 40
32.0
 40
32.0
 40
33.0
 40
33.0
 40
33.0
 40
34.0
 40
34.0
 40
34.0
 40
35.0
 40
35.0
 40
35.0
 40
36.0
 40
36.0
 40
36.0
 40
37.0
 40
37.0
 40
37.0
 40
38.0
 40
38.0
 40
38.0
 40
39.0
 40
39.0
 40
39.0
 40
40.0
 40
40.0
 40
40.0
 40
41.0
 40
41.0
 40
41.0
 40
42.0
 40
42.0
 40
42.0
 40
43.0
 40
43.0
 40
43.0
 40
44.0
 40
44.0
 40
44.0
 40
45.0
 40
45.0
 40
45.0
 40
45.0
 10
344.969783812119
 20
187.8740692175022
 30
0.0
 10
344.9831247236135
 20
188.1019298024116
 30
0.0
 10
344.9681940952254
 20
188.3317733148958
 30
0.0
 10
344.9354374555755
 20
188.5579596783403
 30
0.0
 10
344.87004926288
 20
189.0094686756476
 30
0.0
 10
344.7336290513704
 20
189.4464048851151
 30
0.0
 10
344.58732149931
 20
189.8797778913757
 30
0.0
 10
344.4260791339313
 20
190.3573888392465
 30
0.0
 10
344.2528278382381
 20
190.8306720046386
 30
0.0
 10
344.0477121268709
 20
191.286235071375
 30
0.0
 10
343.8987051733687
 20
191.6171802937647
 30
0.0
 10
343.7328822788483
 20
191.9387740145893
 30
0.0
 10
343.548746063869
 20
192.2602063553233
 30
0.0
 10
343.4129631521722
 20
192.4972320764724
 30
0.0
 10
343.2672220849034
 20
192.7341700446875
 30
0.0
 10
343.107595884265
 20
192.9359232788741
 30
0.0
 10
343.0148952472995
 20
193.0530885891228
 30
0.0
 10
342.9175117938521
 20
193.1583877078161
 30
0.0
 10
342.8000933252777
 20
193.289567556432
 30
0.0
 10
342.7201627299825
 20
193.3788659736188
 30
0.0
 10
342.6309479676291
 20
193.4801574449213
 30
0.0
 10
342.5448082503945
 20
193.4808834335269
 30
0.0
 10
342.4349144750419
 20
193.4818096221608
 30
0.0
 10
342.3300255465865
 20
193.3190585884638
 30
0.0
 10
342.277919390864
 20
193.173618677998
 30
0.0
 10
342.2203776093237
 20
193.0130067226634
 30
0.0
 10
342.2272054175888
 20
192.873506009586
 30
0.0
 10
342.2257022089076
 20
192.7272152095512
 30
0.0
 10
342.2243158586113
 20
192.5922969532999
 30
0.0
 10
342.2158434385074
 20
192.4516032880472
 30
0.0
 10
342.2197814235176
 20
192.3127501038091
 30
0.0
 10
342.2244837806748
 20
192.1469451896497
 30
0.0
 10
342.2468818916632
 20
191.983764581373
 30
0.0
 10
342.2661968641934
 20
191.8199669665178
 30
0.0
 10
342.2974289432323
 20
191.5551081872748
 30
0.0
 10
342.320599693674
 20
191.2886361516512
 30
0.0
 10
342.3648297889889
 20
191.0257165689993
 30
0.0
 10
342.3992691930225
 20
190.8209963739635
 30
0.0
 10
342.4464765231987
 20
190.6184299713156
 30
0.0
 10
342.4982740676648
 20
190.4169845532432
 30
0.0
 10
342.6530143752359
 20
189.8151852542585
 30
0.0
 10
342.8487204911051
 20
189.2233902896134
 30
0.0
 10
343.0899948721479
 20
188.6518101037081
 30
0.0
 10
343.269251009917
 20
188.2271514386848
 30
0.0
 10
343.4736600523372
 20
187.813650986557
 30
0.0
 10
343.6704895701649
 20
187.3963482004171
 30
0.0
 10
343.8072168505892
 20
187.1064695496356
 30
0.0
 10
343.9402867360696
 20
186.8147561351162
 30
0.0
 10
344.0534171825204
 20
186.5151361073269
 30
0.0
 10
344.1302709554164
 20
186.3115929383844
 30
0.0
 10
344.1979226840492
 20
186.1044008701363
 30
0.0
 10
344.2564847733148
 20
185.8948092477983
 30
0.0
 10
344.3262916969457
 20
185.6449727656481
 30
0.0
 10
344.3831831413612
 20
185.3917267542949
 30
0.0
 10
344.4365991988935
 20
185.1378930223882
 30
0.0
 10
344.4746935257383
 20
184.9568683343039
 30
0.0
 10
344.511020268405
 20
184.7755447311384
 30
0.0
 10
344.5410341670403
 20
184.5929328677662
 30
0.0
 10
344.5763576177918
 20
184.3780163971987
 30
0.0
 10
344.6029371423364
 20
184.1613155562377
 30
0.0
 10
344.6106571770263
 20
183.9436186784519
 30
0.0
 10
344.6190753141041
 20
183.706236045868
 30
0.0
 10
344.6050689173423
 20
183.4676690938603
 30
0.0
 10
344.5758035231561
 20
183.23238361435
 30
0.0
 10
344.5285286425233
 20
182.8523069653314
 30
0.0
 10
344.4414358826435
 20
182.4807932166742
 30
0.0
 10
344.3089146636256
 20
182.1134761221822
 30
0.0
 10
344.2165196525682
 20
181.8573792702363
 30
0.0
 10
344.1020418381136
 20
181.6033224145837
 30
0.0
 10
343.9201853100357
 20
181.4119849155526
 30
0.0
 10
343.7756900183596
 20
181.2599564565313
 30
0.0
 10
343.5886571920174
 20
181.1475239865517
 30
0.0
 10
343.3980113756066
 20
181.0467456473604
 30
0.0
 10
343.1785194313412
 20
180.9307187969796
 30
0.0
 10
342.9542384369893
 20
180.8301395993827
 30
0.0
 10
342.7191852910743
 20
180.7684682215863
 30
0.0
 10
342.4773207981995
 20
180.705009736632
 30
0.0
 10
342.2240507994431
 20
180.6827466770279
 30
0.0
 10
341.9707361965561
 20
180.6699115353648
 30
0.0
 10
341.7350922620373
 20
180.6579717448824
 30
0.0
 10
341.4994097293059
 20
180.6541904084591
 30
0.0
 10
341.2687022405966
 20
180.6873038744699
 30
0.0
 10
340.8612169912172
 20
180.7457902679312
 30
0.0
 10
340.4692519424147
 20
180.9193740817687
 30
0.0
 10
340.1112470059545
 20
181.1331136995787
 30
0.0
 10
339.8520111824362
 20
181.2878852130665
 30
0.0
 10
339.6105819636915
 20
181.4637119729265
 30
0.0
 10
339.3802037394813
 20
181.6548840197938
 30
0.0
 10
339.0898731896003
 20
181.8958055985293
 30
0.0
 10
338.817093725336
 20
182.1610984178228
 30
0.0
 10
338.5795371608743
 20
182.4549317657523
 30
0.0
 10
338.3733441912332
 20
182.7099715316854
 30
0.0
 10
338.1936874222421
 20
182.9865131387082
 30
0.0
 10
338.0396561622987
 20
183.2757333818035
 30
0.0
 10
337.8429420859537
 20
183.6450979705495
 30
0.0
 10
337.6880231358536
 20
184.0351413756577
 30
0.0
 10
337.5464918405466
 20
184.4294255521969
 30
0.0
 10
337.2365726445733
 20
185.2928122307284
 30
0.0
 10
336.9908477526761
 20
186.1765335664156
 30
0.0
 10
336.6757904316821
 20
187.0352472517584
 30
0.0
 10
336.4483156032313
 20
187.6552479159009
 30
0.0
 10
336.1846977948158
 20
188.2622120974472
 30
0.0
 10
335.9848614230136
 20
188.8947124390478
 30
0.0
 10
335.7607782296185
 20
189.6039561822284
 30
0.0
 10
335.6168930836442
 20
190.3453088003876
 30
0.0
 10
335.3339561287644
 20
190.8545019074866
 30
0.0
 10
335.3151748887326
 20
190.8883019388555
 30
0.0
 10
335.2957809516447
 20
190.9210790173077
 30
0.0
 10
335.2715750641464
 20
190.9584695360384
 30
0.0
 10
335.1822714640283
 20
191.0964156424361
 30
0.0
 10
335.0274715203674
 20
191.2971561346522
 30
0.0
 10
334.8906815972983
 20
191.4789633534928
 30
0.0
 10
334.6482033805667
 20
191.8012406764118
 30
0.0
 10
334.4623166966161
 20
192.0640253987876
 30
0.0
 10
334.256279722261
 20
192.3109389189379
 30
0.0
 10
334.099211750826
 20
192.4991682687724
 30
0.0
 10
333.930433527109
 20
192.6781741395116
 30
0.0
 10
333.7543236565683
 20
192.8493785435832
 30
0.0
 10
333.5341162589222
 20
193.0634521567337
 30
0.0
 10
333.3024458703466
 20
193.265328218092
 30
0.0
 10
333.0578044064439
 20
193.4511118248582
 30
0.0
 10
332.8176679875622
 20
193.6334742474367
 30
0.0
 10
332.565033816566
 20
193.8003314398252
 30
0.0
 10
332.2959867126527
 20
193.9368484953474
 30
0.0
 10
332.0593589324101
 20
194.0569156782032
 30
0.0
 10
331.8100353247161
 20
194.1535139817458
 30
0.0
 10
331.5537789768106
 20
194.2206824049214
 30
0.0
 10
331.2529722479907
 20
194.2995281147542
 30
0.0
 10
330.9426127176386
 20
194.3378216333999
 30
0.0
 10
330.6323423952243
 20
194.3656783887002
 30
0.0
 10
330.4244421040755
 20
194.384344136319
 30
0.0
 10
330.2165818657734
 20
194.3983239565298
 30
0.0
 10
330.0083775420654
 20
194.4019273479101
 30
0.0
 10
329.9628311284381
 20
194.4027156195063
 30
0.0
 10
329.9172682485773
 20
194.4030073253144
 30
0.0
 10
329.8716958059429
 20
194.403033685161
 30
0.0
  0
LINE
  5
BE
330
86
100
AcDbEntity
  8
shade
 62
     6
420
 16711935
370
    25
100
AcDbLine
 10
332.8991441667457
 20
197.3931851413022
 30
0.0
 11
336.0582407775349
 21
197.5435960899711
 31
0.0
  0
SPLINE
  5
BF
330
86
100
AcDbEntity
  8
shade
 62
     6
420
 16711935
370
    25
100
AcDbSpline
210
0.0
220
0.0
230
1.0
 70
     8
 71
     3
 72
    92
 73
    88
 74
     0
 42
0.0000000001
 43
0.0000000001
 40
0.0
 40
0.0
 40
0.0
 40
0.0
 40
1.0
 40
1.0
 40
1.0
 40
2.0
 40
2.0
 40
2.0
 40
3.0
 40
3.0
 40
3.0
 40
4.0
 40
4.0
 40
4.0
 40
5.0
 40
5.0
 40
5.0
 40
6.0
 40
6.0
 40
6.0
 40
7.0
 40
7.0
 40
7.0
 40
8.0
 40
8.0
 40
8.0
 40
9.0
 40
9.0
 40
9.0
 40
10.0
 40
10.0
 40
10.0
 40
11.0
 40
11.0
 40
11.0
 40
12.0
 40
12.0
 40
12.0
 40
13.0
 40
13.0
 40
13.0
 40
14.0
 40
14.0
 40
14.0
 40
15.0
 40
15.0
 40
15.0
 40
16.0
 40
16.0
 40
16.0
 40
17.0
 40
17.0
 40
17.0
 40
18.0
 40
18.0
 40
18.0
 40
19.0
 40
19.0
 40
19.0
 40
20.0
 40
20.0
 40
20.0
 40
21.0
 40
21.0
 40
21.0
 40
22.0
 40
22.0
 40
22.0
 40
23.0
 40
23.0
 40
23.0
 40
24.0
 40
24.0
 40
24.0
 40
25.0
 40
25.0
 40
25.0
 40
26.0
 40
26.0
 40
26.0
 40
27.0
 40
27.0
 40
27.0
 40
28.0
 40
28.0
 40
28.0
 40
29.0
 40
29.0
 40
29.0
 40
29.0
 10
339.5082408063109
 20
193.883968921647
 30
0.0
 10
339.4612147015124
 20
194.0766577476671
 30
0.0
 10
339.0490312932893
 20
195.3045565959282
 30
0.0
 10
338.1281419198042
 20
196.2978159818858
 30
0.0
 10
337.2546052689008
 20
197.2400013327967
 30
0.0
 10
335.9233335666592
 20
197.9710574387745
 30
0.0
 10
335.7076516761069
 20
197.3456231507919
 30
0.0
 10
335.6363890231118
 20
197.138975728849
 30
0.0
 10
335.68691343078
 20
196.7842425353992
 30
0.0
 10
335.7807559725364
 20
196.4772315208535
 30
0.0
 10
335.9438423414569
 20
195.9436855337101
 30
0.0
 10
336.2377581687401
 20
195.5542701041219
 30
0.0
 10
336.5760936629822
 20
195.1883854793392
 30
0.0
 10
336.9139653591457
 20
194.8230024176195
 30
0.0
 10
337.296135022772
 20
194.4810856918208
 30
0.0
 10
337.7019227304604
 20
194.1784790945744
 30
0.0
 10
338.0670503351038
 20
193.9061938087159
 30
0.0
 10
338.4513000356113
 20
193.6657355464458
 30
0.0
 10
338.8409388095769
 20
193.4337557623294
 30
0.0
 10
339.018096614465
 20
193.3282810711905
 30
0.0
 10
339.1963684839132
 20
193.2245591065458
 30
0.0
 10
339.3782664014405
 20
193.1269487965431
 30
0.0
 10
339.708895848964
 20
192.9495259689403
 30
0.0
 10
340.0515054165532
 20
192.7922954704265
 30
0.0
 10
340.3641255154363
 20
192.5856662343216
 30
0.0
 10
340.7089505487332
 20
192.3577508396795
 30
0.0
 10
341.0172890528222
 20
192.0697347310173
 30
0.0
 10
341.2852584437845
 20
191.7547305306603
 30
0.0
 10
341.5151611246214
 20
191.4844746261096
 30
0.0
 10
341.7153494098752
 20
191.1943536621063
 30
0.0
 10
341.8993468612514
 20
190.8854438828294
 30
0.0
 10
342.0894443915067
 20
190.5662927985208
 30
0.0
 10
342.2622597407027
 20
190.227086434173
 30
0.0
 10
342.3343263835424
 20
189.8755374980646
 30
0.0
 10
342.3771295073946
 20
189.6667391962672
 30
0.0
 10
342.3843922708706
 20
189.4535868986213
 30
0.0
 10
342.3727069473949
 20
189.223572475476
 30
0.0
 10
342.3666034871214
 20
189.1034316938472
 30
0.0
 10
342.3553306744882
 20
188.9786906447479
 30
0.0
 10
342.29594581969
 20
188.8911983115255
 30
0.0
 10
342.2141899723615
 20
188.7707465589487
 30
0.0
 10
342.0412456314632
 20
188.7208936447605
 30
0.0
 10
341.8865535413684
 20
188.6610929403085
 30
0.0
 10
341.7331734210997
 20
188.6017994157677
 30
0.0
 10
341.597737263671
 20
188.5327261232086
 30
0.0
 10
341.4515740190775
 20
188.4949058583334
 30
0.0
 10
341.250423054974
 20
188.4428573233858
 30
0.0
 10
341.0289555532681
 20
188.4500003753288
 30
0.0
 10
340.8118983576103
 20
188.4565549141638
 30
0.0
 10
340.5383476622321
 20
188.4648154035447
 30
0.0
 10
340.2718017709968
 20
188.472141168904
 30
0.0
 10
340.0059071208502
 20
188.5076894574308
 30
0.0
 10
339.5543822067938
 20
188.5680552372569
 30
0.0
 10
339.1047352513577
 20
188.7098052129239
 30
0.0
 10
338.700968856079
 20
188.9295491087871
 30
0.0
 10
338.2646198527481
 20
189.1670256077666
 30
0.0
 10
337.8818549995149
 20
189.4955916208007
 30
0.0
 10
337.5495525445852
 20
189.8627538989671
 30
0.0
 10
337.3167023033502
 20
190.1200310384288
 30
0.0
 10
337.1086293731417
 20
190.3962591532116
 30
0.0
 10
336.9098768831026
 20
190.6809058566692
 30
0.0
 10
336.7013066507334
 20
190.9796132041233
 30
0.0
 10
336.5030004012094
 20
191.2875913851202
 30
0.0
 10
336.3469623493712
 20
191.6141106468646
 30
0.0
 10
336.039351846908
 20
192.2578046240102
 30
0.0
 10
335.8960101159314
 20
192.9735556256713
 30
0.0
 10
335.6740195845585
 20
193.6544856227706
 30
0.0
 10
335.5571703727309
 20
194.0129069166328
 30
0.0
 10
335.4185302805421
 20
194.3616805064954
 30
0.0
 10
335.2828407613282
 20
194.7155742831081
 30
0.0
 10
335.141520034761
 20
195.0841548921774
 30
0.0
 10
335.0033998645626
 20
195.458289488981
 30
0.0
 10
334.7913445685707
 20
195.7859560608501
 30
0.0
 10
334.6202412920838
 20
196.0503438178028
 30
0.0
 10
334.4010021017043
 20
196.2844782841177
 30
0.0
 10
334.17222789481
 20
196.5069937299199
 30
0.0
 10
333.9001123236806
 20
196.7716648151816
 30
0.0
 10
333.6145066850865
 20
197.0198974002806
 30
0.0
 10
333.2837541590045
 20
197.2058899133806
 30
0.0
 10
333.0060964629281
 20
197.3620255392745
 30
0.0
 10
332.6966231090827
 20
197.4742996956122
 30
0.0
 10
332.4078830911199
 20
197.5710789524779
 30
0.0
 10
332.1102551146644
 20
197.6708372561217
 30
0.0
 10
331.8346565412294
 20
197.7541320544855
 30
0.0
 10
331.4626981050715
 20
197.8229335229928
 30
0.0
 10
330.853549978218
 20
197.9356081704363
 30
0.0
 10
329.9859657549252
 20
198.0094118659684
 30
0.0
 10
329.8716958059429
 20
198.0096237482251
 30
0.0
  0
LINE
  5
C0
330
86
100
AcDbEntity
  8
shade
 62
     6
420
 16711935
370
    25
100
AcDbLine
 10
330.2516212251843
 20
197.9813953188443
 30
0.0
 11
330.2516212251843
 21
219.6770669381799
 31
0.0
  0
SPLINE
  5
C1
330
86
100
AcDbEntity
  8
shade
 62
     6
420
 16711935
370
    25
100
AcDbSpline
210
0.0
220
0.0
230
1.0
 70
     8
 71
     3
 72
    14
 73
    10
 74
     0
 42
0.0000000001
 43
0.0000000001
 40
0.0
 40
0.0
 40
0.0
 40
0.0
 40
1.0
 40
1.0
 40
1.0
 40
2.0
 40
2.0
 40
2.0
 40
3.0
 40
3.0
 40
3.0
 40
3.0
 10
329.8716958059429
 20
243.1717397725511
 30
0.0
 10
329.8716958059429
 20
243.1717397725511
 30
0.0
 10
324.9869404157429
 20
243.1717397725511
 30
0.0
 10
324.9869404157429
 20
243.1717397725511
 30
0.0
 10
324.9869404157429
 20
239.4246612868774
 30
0.0
 10
326.6102343898647
 20
235.8613330509822
 30
0.0
 10
329.4374953268099
 20
233.4022289921202
 30
0.0
 10
329.4374953268099
 20
233.4022289921202
 30
0.0
 10
329.8716958059429
 20
233.4022289921202
 30
0.0
 10
329.8716958059429
 20
233.4022289921202
 30
0.0
  0
SPLINE
  5
C2
330
86
100
AcDbEntity
  8
shade
 62
     6
420
 16711935
370
    25
100
AcDbSpline
210
0.0
220
0.0
230
1.0
 70
     8
 71
     3
 72
    14
 73
    10
 74
     0
 42
0.0000000001
 43
0.0000000001
 40
0.0
 40
0.0
 40
0.0
 40
0.0
 40
1.0
 40
1.0
 40
1.0
 40
2.0
 40
2.0
 40
2.0
 40
3.0
 40
3.0
 40
3.0
 40
3.0
 10
329.8716958059429
 20
243.1717397725511
 30
0.0
 10
329.8716958059429
 20
243.1717397725511
 30
0.0
 10
334.7564511961738
 20
243.1717397725511
 30
0.0
 10
334.7564511961738
 20
243.1717397725511
 30
0.0
 10
334.7564511961738
 20
239.4246612868774
 30
0.0
 10
333.1331572220212
 20
235.8613330509822
 30
0.0
 10
330.305896285076
 20
233.4022289921202
 30
0.0
 10
330.305896285076
 20
233.4022289921202
 30
0.0
 10
329.8716958059429
 20
233.4022289921202
 30
0.0
 10
329.8716958059429
 20
233.4022289921202
 30
0.0
  0
LINE
  5
C3
330
86
100
AcDbEntity
  8
shade
 62
     2
420
 16776960
370
    25
100
AcDbLine
 10
390.9311381836212
 20
123.8980152441158
 30
0.0
 11
268.8122534282647
 21
123.8980152441158
 31
0.0
  0
LINE
  5
C4
330
86
100
AcDbEntity
  8
shade
 62
     2
420
 16776960
370
    25
100
AcDbLine
 10
390.5512127643798
 20
137.4667802169297
 30
0.0
 11
268.4323280090234
 21
137.4667802169297
 31
0.0
  0
ENDBLK
  5
89
330
86
100
AcDbEntity
  8
0
100
AcDbBlockEnd
  0
ENDSEC
  0
SECTION
  2
ENTITIES
  0
INSERT
  5
7A
330
70
100
AcDbEntity
  8
DIM
100
AcDbBlockReference
  2
Block_0
 10
0.0
 20
0.0
 30
0.0
  0
SPLINE
  5
7E
330
70
100
AcDbEntity
  8
レイヤー_1
100
AcDbSpline
210
0.0
220
0.0
230
1.0
 70
     9
 71
     3
 72
    11
 73
     7
 74
     0
 42
0.0000000001
 43
0.0000000001
 40
0.0
 40
0.0
 40
0.0
 40
0.0
 40
1.0
 40
1.0
 40
1.0
 40
2.0
 40
2.0
 40
2.0
 40
2.0
 10
297.9615918546223
 20
373.4389704503462
 30
0.0
 10
297.9768309498752
 20
373.4353242864512
 30
0.0
 10
297.9931451960203
 20
373.4371317865017
 30
0.0
 10
298.0085089464493
 20
373.4389704503462
 30
0.0
 10
298.0085089464493
 20
373.4389704503462
 30
0.0
 10
297.9615918546223
 20
373.4389704503462
 30
0.0
 10
297.9615918546223
 20
373.4389704503462
 30
0.0
  0
HATCH
  5
7F
330
70
100
AcDbEntity
  8
レイヤー_1
 62
    18
420
        0
440
 33554687
100
AcDbHatch
 10
0.0
 20
0.0
 30
0.0
210
0.0
220
0.0
230
1.0
  2
SOLID
 70
     1
 71
     1
 91
        1
 92
        1
 93
        1
 72
     4
 94
        3
 73
     0
 74
     0
 95
       11
 96
        7
 40
0.0
 40
0.0
 40
0.0
 40
0.0
 40
1.0
 40
1.0
 40
1.0
 40
2.0
 40
2.0
 40
2.0
 40
2.0
 10
297.9615918546223
 20
373.4389704503462
 10
297.9768309498752
 20
373.4353242864512
 10
297.9931451960203
 20
373.4371317865017
 10
298.0085089464493
 20
373.4389704503462
 10
298.0085089464493
 20
373.4389704503462
 10
297.9615918546223
 20
373.4389704503462
 10
297.9615918546223
 20
373.4389704503462
 97
        0
 97
        1
330
7E
 75
     0
 76
     1
 98
        1
 10
0.0
 20
0.0
450
        0
451
        0
460
0.0
461
0.0
452
        0
462
0.0
453
        0
470

  0
SPLINE
  5
80
330
70
100
AcDbEntity
  8
レイヤー_1
100
AcDbSpline
210
0.0
220
0.0
230
1.0
 70
     9
 71
     3
 72
    11
 73
     7
 74
     0
 42
0.0000000001
 43
0.0000000001
 40
0.0
 40
0.0
 40
0.0
 40
0.0
 40
1.0
 40
1.0
 40
1.0
 40
2.0
 40
2.0
 40
2.0
 40
2.0
 10
112.8703910867558
 20
75.24701228072621
 30
0.0
 10
112.885630182009
 20
75.24336611683162
 30
0.0
 10
112.9019444281537
 20
75.2451736168821
 30
0.0
 10
112.9172925966856
 20
75.24701228072621
 30
0.0
 10
112.9172925966856
 20
75.24701228072621
 30
0.0
 10
112.8703910867558
 20
75.24701228072621
 30
0.0
 10
112.8703910867558
 20
75.24701228072621
 30
0.0
  0
HATCH
  5
81
330
70
100
AcDbEntity
  8
レイヤー_1
 62
    18
420
        0
440
 33554687
100
AcDbHatch
 10
0.0
 20
0.0
 30
0.0
210
0.0
220
0.0
230
1.0
  2
SOLID
 70
     1
 71
     1
 91
        1
 92
        1
 93
        1
 72
     4
 94
        3
 73
     0
 74
     0
 95
       11
 96
        7
 40
0.0
 40
0.0
 40
0.0
 40
0.0
 40
1.0
 40
1.0
 40
1.0
 40
2.0
 40
2.0
 40
2.0
 40
2.0
 10
112.8703910867558
 20
75.24701228072621
 10
112.885630182009
 20
75.24336611683162
 10
112.9019444281537
 20
75.2451736168821
 10
112.9172925966856
 20
75.24701228072621
 10
112.9172925966856
 20
75.24701228072621
 10
112.8703910867558
 20
75.24701228072621
 10
112.8703910867558
 20
75.24701228072621
 97
        0
 97
        1
330
80
 75
     0
 76
     1
 98
        1
 10
0.0
 20
0.0
450
        0
451
        0
460
0.0
461
0.0
452
        0
462
0.0
453
        0
470

  0
INSERT
  5
87
330
70
100
AcDbEntity
  8
shade
100
AcDbBlockReference
  2
Block_1
 10
0.0
 20
0.0
 30
0.0
  0
ENDSEC
  0
SECTION
  2
OBJECTS
  0
DICTIONARY
  5
C
330
0
100
AcDbDictionary
281
     1
  3
ACAD_COLOR
350
63
  3
ACAD_DETAILVIEWSTYLE
350
6A
  3
ACAD_GROUP
350
D
  3
ACAD_LAYOUT
350
62
  3
ACAD_MATERIAL
350
10
  3
ACAD_MLEADERSTYLE
350
66
  3
ACAD_MLINESTYLE
350
5F
  3
ACAD_PLOTSETTINGS
350
61
  3
ACAD_PLOTSTYLENAME
350
E
  3
ACAD_SCALELIST
350
42
  3
ACAD_SECTIONVIEWSTYLE
350
68
  3
ACAD_TABLESTYLE
350
64
  3
ACAD_VISUALSTYLE
350
29
  3
ACDB_RECOMPOSE_DATA
350
CD
  3
AcDbVariableDictionary
350
C5
  0
DICTIONARY
  5
63
102
{ACAD_REACTORS
330
C
102
}
330
C
100
AcDbDictionary
281
     1
  0
DICTIONARY
  5
6A
102
{ACAD_REACTORS
330
C
102
}
330
C
100
AcDbDictionary
281
     1
  3
Imperial24
350
6B
  0
DICTIONARY
  5
D
102
{ACAD_REACTORS
330
C
102
}
330
C
100
AcDbDictionary
281
     1
  0
DICTIONARY
  5
62
102
{ACAD_REACTORS
330
C
102
}
330
C
100
AcDbDictionary
281
     1
  3
Layout1
350
6F
  3
Layout2
350
77
  3
Model
350
73
  0
DICTIONARY
  5
10
102
{ACAD_REACTORS
330
C
102
}
330
C
100
AcDbDictionary
281
     1
  3
ByBlock
350
19
  3
ByLayer
350
11
  3
Global
350
21
  0
DICTIONARY
  5
66
102
{ACAD_REACTORS
330
C
102
}
330
C
100
AcDbDictionary
281
     1
  3
Standard
350
67
  0
DICTIONARY
  5
5F
102
{ACAD_REACTORS
330
C
102
}
330
C
100
AcDbDictionary
281
     1
  3
Standard
350
60
  0
DICTIONARY
  5
61
102
{ACAD_REACTORS
330
C
102
}
330
C
100
AcDbDictionary
281
     1
  0
ACDBDICTIONARYWDFLT
  5
E
102
{ACAD_REACTORS
330
C
102
}
330
C
100
AcDbDictionary
281
     1
  3
Normal
350
F
100
AcDbDictionaryWithDefault
340
F
  0
DICTIONARY
  5
42
102
{ACAD_REACTORS
330
C
102
}
330
C
100
AcDbDictionary
281
     1
  3
A0
350
43
  3
A1
350
44
  3
A2
350
45
  3
A3
350
46
  3
A4
350
47
  3
A5
350
48
  3
A6
350
49
  3
A7
350
4A
  3
A8
350
4B
  3
A9
350
4C
  3
B0
350
4D
  3
B1
350
4E
  3
B2
350
4F
  3
B3
350
50
  3
B4
350
51
  3
B5
350
52
  3
B6
350
53
  0
DICTIONARY
  5
68
102
{ACAD_REACTORS
330
C
102
}
330
C
100
AcDbDictionary
281
     1
  3
Imperial24
350
69
  0
DICTIONARY
  5
64
102
{ACAD_REACTORS
330
C
102
}
330
C
100
AcDbDictionary
281
     1
  3
Standard
350
65
  0
DICTIONARY
  5
29
102
{ACAD_REACTORS
330
C
102
}
330
C
100
AcDbDictionary
281
     1
  3
2dWireframe
350
2F
  3
Basic
350
2E
  3
Brighten
350
35
  3
ColorChange
350
39
  3
Conceptual
350
32
  3
Dim
350
34
  3
EdgeColorOff
350
41
  3
Facepattern
350
38
  3
Flat
350
2A
  3
FlatWithEdges
350
2B
  3
Gouraud
350
2C
  3
GouraudWithEdges
350
2D
  3
Hidden
350
31
  3
JitterOff
350
3F
  3
Linepattern
350
37
  3
OverhangOff
350
40
  3
Realistic
350
33
  3
Shaded
350
3E
  3
Shaded with edges
350
3D
  3
Shades of Gray
350
3A
  3
Sketchy
350
3B
  3
Thicken
350
36
  3
Wireframe
350
30
  3
X-Ray
350
3C
  0
XRECORD
  5
CD
102
{ACAD_REACTORS
330
C
102
}
330
C
100
AcDbXrecord
280
     1
 90
        1
330
65
  0
DICTIONARY
  5
C5
102
{ACAD_REACTORS
330
C
102
}
330
C
100
AcDbDictionary
281
     1
  3
CANNOSCALE
350
CA
  3
CMLEADERSTYLE
350
C7
  3
CTABLESTYLE
350
C6
  3
CVIEWDETAILSTYLE
350
C8
  3
CVIEWSECTIONSTYLE
350
C9
  0
ACDBDETAILVIEWSTYLE
  5
6B
102
{ACAD_REACTORS
330
6A
102
}
330
6A
100
AcDbModelDocViewStyle
 70
     0
  3
Imperial24
290
     1
300
Imperial24
 90
        0
100
AcDbDetailViewStyle
 70
     0
 71
     0
 90
        3
 71
     1
340
55
 62
   256
 40
0.24
340
0
 62
   256
 40
0.24
300

 40
0.36
280
     3
 71
     2
340
5D
 90
       25
 62
   256
 71
     3
340
55
 62
   256
 40
0.24
 90
        1
 40
0.75
 90
        1
300
%<\AcVar ViewType \f "%tc1">% %<\AcVar ViewDetailId>%\PSCALE %<\AcVar ViewScale \f "%sn">%
 71
     4
340
5D
 90
       25
 62
   256
340
5D
 90
       25
 62
   256
280
     0
  0
LAYOUT
  5
6F
102
{ACAD_REACTORS
330
62
102
}
330
62
100
AcDbPlotSettings
  1

  2

  4

  6

 40
0.0
 41
0.0
 42
0.0
 43
0.0
 44
0.0
 45
0.0
 46
0.0
 47
0.0
 48
0.0
 49
0.0
140
0.0
141
0.0
142
1.0
143
1.0
 70
   688
 72
     0
 73
     0
 74
     5
  7

 75
    16
147
1.0
 76
     0
 77
     2
 78
   300
148
0.0
149
0.0
100
AcDbLayout
  1
Layout1
 70
     1
 71
     1
 10
0.0
 20
0.0
 11
12.0
 21
9.0
 12
0.0
 22
0.0
 32
0.0
 14
0.0
 24
0.0
 34
0.0
 15
0.0
 25
0.0
 35
0.0
146
0.0
 13
0.0
 23
0.0
 33
0.0
 16
1.0
 26
0.0
 36
0.0
 17
0.0
 27
1.0
 37
0.0
 76
     0
330
6C
  0
LAYOUT
  5
77
102
{ACAD_REACTORS
330
62
102
}
330
62
100
AcDbPlotSettings
  1

  2

  4

  6

 40
0.0
 41
0.0
 42
0.0
 43
0.0
 44
0.0
 45
0.0
 46
0.0
 47
0.0
 48
0.0
 49
0.0
140
0.0
141
0.0
142
1.0
143
1.0
 70
   688
 72
     0
 73
     0
 74
     5
  7

 75
    16
147
1.0
 76
     0
 77
     2
 78
   300
148
0.0
149
0.0
100
AcDbLayout
  1
Layout2
 70
     1
 71
     2
 10
0.0
 20
0.0
 11
12.0
 21
9.0
 12
0.0
 22
0.0
 32
0.0
 14
0.0
 24
0.0
 34
0.0
 15
0.0
 25
0.0
 35
0.0
146
0.0
 13
0.0
 23
0.0
 33
0.0
 16
1.0
 26
0.0
 36
0.0
 17
0.0
 27
1.0
 37
0.0
 76
     0
330
74
  0
LAYOUT
  5
73
102
{ACAD_REACTORS
330
62
102
}
330
62
100
AcDbPlotSettings
  1

  2

  4

  6

 40
0.0
 41
0.0
 42
0.0
 43
0.0
 44
0.0
 45
0.0
 46
0.0
 47
0.0
 48
0.0
 49
0.0
140
0.0
141
0.0
142
1.0
143
1.0
 70
  1712
 72
     0
 73
     0
 74
     0
  7

 75
     0
147
1.0
 76
     0
 77
     2
 78
   300
148
0.0
149
0.0
100
AcDbLayout
  1
Model
 70
     1
 71
     0
 10
0.0
 20
0.0
 11
12.0
 21
9.0
 12
0.0
 22
0.0
 32
0.0
 14
0.0
 24
0.0
 34
0.0
 15
0.0
 25
0.0
 35
0.0
146
0.0
 13
0.0
 23
0.0
 33
0.0
 16
1.0
 26
0.0
 36
0.0
 17
0.0
 27
1.0
 37
0.0
 76
     0
330
70
  0
MATERIAL
  5
19
102
{ACAD_XDICTIONARY
360
1A
102
}
102
{ACAD_REACTORS
330
10
102
}
330
10
100
AcDbMaterial
  1
ByBlock
 72
     0
 43
0.0208333333333333
 43
0.0
 43
0.0
 43
0.0
 43
0.0
 43
0.0208333333333333
 43
0.0
 43
0.0
 43
0.0
 43
0.0
 43
1.0
 43
0.0
 43
0.0
 43
0.0
 43
0.0
 43
1.0
 77
     0
 47
0.0208333333333333
 47
0.0
 47
0.0
 47
0.0
 47
0.0
 47
0.0208333333333333
 47
0.0
 47
0.0
 47
0.0
 47
0.0
 47
1.0
 47
0.0
 47
0.0
 47
0.0
 47
0.0
 47
1.0
171
     0
 49
0.0208333333333333
 49
0.0
 49
0.0
 49
0.0
 49
0.0
 49
0.0208333333333333
 49
0.0
 49
0.0
 49
0.0
 49
0.0
 49
1.0
 49
0.0
 49
0.0
 49
0.0
 49
0.0
 49
1.0
175
     0
142
0.0208333333333333
142
0.0
142
0.0
142
0.0
142
0.0
142
0.0208333333333333
142
0.0
142
0.0
142
0.0
142
0.0
142
1.0
142
0.0
142
0.0
142
0.0
142
0.0
142
1.0
179
     0
144
0.0208333333333333
144
0.0
144
0.0
144
0.0
144
0.0
144
0.0208333333333333
144
0.0
144
0.0
144
0.0
144
0.0
144
1.0
144
0.0
144
0.0
144
0.0
144
0.0
144
1.0
147
0.0208333333333333
147
0.0
147
0.0
147
0.0
147
0.0
147
0.0208333333333333
147
0.0
147
0.0
147
0.0
147
0.0
147
1.0
147
0.0
147
0.0
147
0.0
147
0.0
147
1.0
  0
MATERIAL
  5
11
102
{ACAD_XDICTIONARY
360
12
102
}
102
{ACAD_REACTORS
330
10
102
}
330
10
100
AcDbMaterial
  1
ByLayer
 72
     0
 43
0.0208333333333333
 43
0.0
 43
0.0
 43
0.0
 43
0.0
 43
0.0208333333333333
 43
0.0
 43
0.0
 43
0.0
 43
0.0
 43
1.0
 43
0.0
 43
0.0
 43
0.0
 43
0.0
 43
1.0
 77
     0
 47
0.0208333333333333
 47
0.0
 47
0.0
 47
0.0
 47
0.0
 47
0.0208333333333333
 47
0.0
 47
0.0
 47
0.0
 47
0.0
 47
1.0
 47
0.0
 47
0.0
 47
0.0
 47
0.0
 47
1.0
171
     0
 49
0.0208333333333333
 49
0.0
 49
0.0
 49
0.0
 49
0.0
 49
0.0208333333333333
 49
0.0
 49
0.0
 49
0.0
 49
0.0
 49
1.0
 49
0.0
 49
0.0
 49
0.0
 49
0.0
 49
1.0
175
     0
142
0.0208333333333333
142
0.0
142
0.0
142
0.0
142
0.0
142
0.0208333333333333
142
0.0
142
0.0
142
0.0
142
0.0
142
1.0
142
0.0
142
0.0
142
0.0
142
0.0
142
1.0
179
     0
144
0.0208333333333333
144
0.0
144
0.0
144
0.0
144
0.0
144
0.0208333333333333
144
0.0
144
0.0
144
0.0
144
0.0
144
1.0
144
0.0
144
0.0
144
0.0
144
0.0
144
1.0
147
0.0208333333333333
147
0.0
147
0.0
147
0.0
147
0.0
147
0.0208333333333333
147
0.0
147
0.0
147
0.0
147
0.0
147
1.0
147
0.0
147
0.0
147
0.0
147
0.0
147
1.0
  0
MATERIAL
  5
21
102
{ACAD_XDICTIONARY
360
22
102
}
102
{ACAD_REACTORS
330
10
102
}
330
10
100
AcDbMaterial
  1
Global
 72
     0
 43
0.0208333333333333
 43
0.0
 43
0.0
 43
0.0
 43
0.0
 43
0.0208333333333333
 43
0.0
 43
0.0
 43
0.0
 43
0.0
 43
1.0
 43
0.0
 43
0.0
 43
0.0
 43
0.0
 43
1.0
 77
     0
 47
0.0208333333333333
 47
0.0
 47
0.0
 47
0.0
 47
0.0
 47
0.0208333333333333
 47
0.0
 47
0.0
 47
0.0
 47
0.0
 47
1.0
 47
0.0
 47
0.0
 47
0.0
 47
0.0
 47
1.0
171
     0
 49
0.0208333333333333
 49
0.0
 49
0.0
 49
0.0
 49
0.0
 49
0.0208333333333333
 49
0.0
 49
0.0
 49
0.0
 49
0.0
 49
1.0
 49
0.0
 49
0.0
 49
0.0
 49
0.0
 49
1.0
175
     0
142
0.0208333333333333
142
0.0
142
0.0
142
0.0
142
0.0
142
0.0208333333333333
142
0.0
142
0.0
142
0.0
142
0.0
142
1.0
142
0.0
142
0.0
142
0.0
142
0.0
142
1.0
179
     0
144
0.0208333333333333
144
0.0
144
0.0
144
0.0
144
0.0
144
0.0208333333333333
144
0.0
144
0.0
144
0.0
144
0.0
144
1.0
144
0.0
144
0.0
144
0.0
144
0.0
144
1.0
147
0.0208333333333333
147
0.0
147
0.0
147
0.0
147
0.0
147
0.0208333333333333
147
0.0
147
0.0
147
0.0
147
0.0
147
1.0
147
0.0
147
0.0
147
0.0
147
0.0
147
1.0
  0
MLEADERSTYLE
  5
67
102
{ACAD_REACTORS
330
66
102
}
330
66
100
AcDbMLeaderStyle
179
     2
170
     2
171
     1
172
     0
 90
        2
 40
0.0
 41
0.0
173
     1
 91
-1056964608
340
5B
 92
       -2
290
     1
 42
0.09
291
     1
 43
0.36
  3
Standard
 44
0.18
300

342
55
174
     1
178
     6
175
     1
176
     0
 93
-1056964608
 45
0.18
292
     0
297
     0
 46
0.18
 94
-1056964608
 47
1.0
 49
1.0
140
1.0
293
     1
141
0.0
294
     1
177
     0
142
1.0
295
     1
296
     0
143
0.125
271
     0
272
     9
273
     9
298
     1
  0
MLINESTYLE
  5
60
102
{ACAD_REACTORS
330
5F
102
}
330
5F
100
AcDbMlineStyle
  2
STANDARD
 70
     0
  3

 62
   256
 51
90.0
 52
90.0
 71
     2
 49
0.5
 62
   256
  6
BYLAYER
 49
-0.5
 62
   256
  6
BYLAYER
  0
ACDBPLACEHOLDER
  5
F
102
{ACAD_REACTORS
330
E
102
}
330
E
  0
SCALE
  5
43
102
{ACAD_REACTORS
330
42
102
}
330
42
100
AcDbScale
 70
     0
300
1:1
140
1.0
141
1.0
290
     1
  0
SCALE
  5
44
102
{ACAD_REACTORS
330
42
102
}
330
42
100
AcDbScale
 70
     0
300
1/128" = 1'-0"
140
0.0078125
141
12.0
290
     0
  0
SCALE
  5
45
102
{ACAD_REACTORS
330
42
102
}
330
42
100
AcDbScale
 70
     0
300
1/64" = 1'-0"
140
0.015625
141
12.0
290
     0
  0
SCALE
  5
46
102
{ACAD_REACTORS
330
42
102
}
330
42
100
AcDbScale
 70
     0
300
1/32" = 1'-0"
140
0.03125
141
12.0
290
     0
  0
SCALE
  5
47
102
{ACAD_REACTORS
330
42
102
}
330
42
100
AcDbScale
 70
     0
300
1/16" = 1'-0"
140
0.0625
141
12.0
290
     0
  0
SCALE
  5
48
102
{ACAD_REACTORS
330
42
102
}
330
42
100
AcDbScale
 70
     0
300
3/32" = 1'-0"
140
0.09375
141
12.0
290
     0
  0
SCALE
  5
49
102
{ACAD_REACTORS
330
42
102
}
330
42
100
AcDbScale
 70
     0
300
1/8" = 1'-0"
140
0.125
141
12.0
290
     0
  0
SCALE
  5
4A
102
{ACAD_REACTORS
330
42
102
}
330
42
100
AcDbScale
 70
     0
300
3/16" = 1'-0"
140
0.1875
141
12.0
290
     0
  0
SCALE
  5
4B
102
{ACAD_REACTORS
330
42
102
}
330
42
100
AcDbScale
 70
     0
300
1/4" = 1'-0"
140
0.25
141
12.0
290
     0
  0
SCALE
  5
4C
102
{ACAD_REACTORS
330
42
102
}
330
42
100
AcDbScale
 70
     0
300
3/8" = 1'-0"
140
0.375
141
12.0
290
     0
  0
SCALE
  5
4D
102
{ACAD_REACTORS
330
42
102
}
330
42
100
AcDbScale
 70
     0
300
1/2" = 1'-0"
140
0.5
141
12.0
290
     0
  0
SCALE
  5
4E
102
{ACAD_REACTORS
330
42
102
}
330
42
100
AcDbScale
 70
     0
300
3/4" = 1'-0"
140
0.75
141
12.0
290
     0
  0
SCALE
  5
4F
102
{ACAD_REACTORS
330
42
102
}
330
42
100
AcDbScale
 70
     0
300
1" = 1'-0"
140
1.0
141
12.0
290
     0
  0
SCALE
  5
50
102
{ACAD_REACTORS
330
42
102
}
330
42
100
AcDbScale
 70
     0
300
1-1/2" = 1'-0"
140
1.5
141
12.0
290
     0
  0
SCALE
  5
51
102
{ACAD_REACTORS
330
42
102
}
330
42
100
AcDbScale
 70
     0
300
3" = 1'-0"
140
3.0
141
12.0
290
     0
  0
SCALE
  5
52
102
{ACAD_REACTORS
330
42
102
}
330
42
100
AcDbScale
 70
     0
300
6" = 1'-0"
140
6.0
141
12.0
290
     0
  0
SCALE
  5
53
102
{ACAD_REACTORS
330
42
102
}
330
42
100
AcDbScale
 70
     0
300
1'-0" = 1'-0"
140
12.0
141
12.0
290
     0
  0
ACDBSECTIONVIEWSTYLE
  5
69
102
{ACAD_REACTORS
330
68
102
}
330
68
100
AcDbModelDocViewStyle
 70
     0
  3
Imperial24
290
     1
300
Imperial24
 90
        0
100
AcDbSectionViewStyle
 70
     0
 71
     0
 90
       78
 71
     1
340
55
 62
   256
 40
0.24
340
0
340
0
 62
   256
 40
0.24
300
I, O, Q, S, X, Z
 40
0.48
 90
        3
 40
0.18
 90
        1
 71
     2
340
5D
 90
       25
 62
   256
340
5D
 90
       50
 62
   256
 40
0.24
 40
0.0
 40
0.24
 71
     3
340
55
 62
   256
 40
0.24
 90
        1
 40
0.75
 90
        1
300
%<\AcVar ViewType \f "%tc1">% %<\AcVar ViewSectionStartId>%-%<\AcVar ViewSectionEndId>%\PSCALE %<\AcVar ViewScale \f "%sn">%
 71
     4
 62
   256
 62
   257
300
ANSI31
 40
1.0
 90
        0
290
     0
290
     0
 90
        6
 40
0.0
 40
1.570796326794896
 40
0.2617993877991494
 40
1.308996938995747
 40
-0.2617993877991494
 40
1.832595714594046
  0
TABLESTYLE
  5
65
102
{ACAD_XDICTIONARY
360
CB
102
}
102
{ACAD_REACTORS
330
64
102
}
330
64
100
AcDbTableStyle
280
     0
  3
Standard
 70
     0
 71
     0
 40
0.06
 41
0.06
280
     0
281
     0
  7
Standard
140
0.18
170
     2
 62
     0
 63
     7
283
     0
 90
      512
 91
        0
  1

274
    -2
284
     1
 64
     0
275
    -2
285
     1
 65
     0
276
    -2
286
     1
 66
     0
277
    -2
287
     1
 67
     0
278
    -2
288
     1
 68
     0
279
    -2
289
     1
 69
     0
  7
Standard
140
0.25
170
     5
 62
     0
 63
     7
283
     0
 90
      512
 91
        0
  1

274
    -2
284
     1
 64
     0
275
    -2
285
     1
 65
     0
276
    -2
286
     1
 66
     0
277
    -2
287
     1
 67
     0
278
    -2
288
     1
 68
     0
279
    -2
289
     1
 69
     0
  7
Standard
140
0.18
170
     5
 62
     0
 63
     7
283
     0
 90
      512
 91
        0
  1

274
    -2
284
     1
 64
     0
275
    -2
285
     1
 65
     0
276
    -2
286
     1
 66
     0
277
    -2
287
     1
 67
     0
278
    -2
288
     1
 68
     0
279
    -2
289
     1
 69
     0
  0
VISUALSTYLE
  5
2F
102
{ACAD_REACTORS
330
29
102
}
330
29
100
AcDbVisualStyle
  2
2dWireframe
 70
     4
177
     3
291
     0
 70
    58
 90
        0
176
     1
 90
        2
176
     1
 90
        0
176
     1
 90
        0
176
     1
 40
0.6
176
     1
 40
30.0
176
     1
 62
     7
420
 16777215
176
     1
 90
        1
176
     1
 90
        4
176
     1
 62
     7
176
     1
 62
   257
176
     1
 90
        1
176
     1
 90
        1
176
     1
 40
1.0
176
     1
 90
        0
176
     1
 62
   257
176
     1
 40
1.0
176
     1
 90
        1
176
     1
 90
        6
176
     1
 90
        2
176
     1
 62
     7
176
     1
 90
        5
176
     1
 90
        0
176
     1
 90
        0
176
     1
290
     0
176
     1
 90
        1
176
     1
 40
0.0
176
     1
 90
        0
176
     1
290
     1
176
     1
290
     1
176
     1
290
     0
176
     1
290
     0
176
     1
290
     0
176
     1
290
     0
176
     1
290
     0
176
     1
290
     0
176
     1
290
     0
176
     1
 90
       50
176
     1
 40
0.0
176
     1
 40
1.0
176
     1
 90
        0
176
     1
 62
    18
420
        0
176
     1
 90
       50
176
     1
 90
        3
176
     1
 62
     5
420
      255
176
     1
290
     0
176
     1
 90
       50
176
     1
 90
       50
176
     1
 90
       50
176
     1
290
     0
176
     1
 90
       50
176
     1
 62
   256
176
     0
 40
1.0
176
     0
 90
        2
176
     1
  1
strokes_ogs.tif
176
     1
290
     0
176
     1
 40
1.0
176
     1
 40
1.0
176
     1
  0
VISUALSTYLE
  5
2E
102
{ACAD_REACTORS
330
29
102
}
330
29
100
AcDbVisualStyle
  2
Basic
 70
     7
177
     3
291
     1
 70
    58
 90
        1
176
     1
 90
        0
176
     1
 90
        1
176
     1
 90
        0
176
     1
 40
0.6
176
     1
 40
30.0
176
     1
 62
     7
420
 16777215
176
     1
 90
        0
176
     1
 90
        4
176
     1
 62
     7
176
     1
 62
   257
176
     1
 90
        1
176
     1
 90
        1
176
     1
 40
1.0
176
     1
 90
        8
176
     1
 62
     7
176
     1
 40
1.0
176
     1
 90
        1
176
     1
 90
        6
176
     1
 90
        2
176
     1
 62
     7
176
     1
 90
        5
176
     1
 90
        0
176
     1
 90
        0
176
     1
290
     0
176
     1
 90
        1
176
     1
 40
0.0
176
     1
 90
        0
176
     1
290
     0
176
     1
290
     1
176
     1
290
     1
176
     1
290
     0
176
     1
290
     0
176
     1
290
     0
176
     1
290
     0
176
     1
290
     0
176
     1
290
     0
176
     1
 90
       50
176
     1
 40
0.0
176
     1
 40
1.0
176
     1
 90
        0
176
     1
 62
    18
420
        0
176
     1
 90
       50
176
     1
 90
        3
176
     1
 62
     5
420
      255
176
     1
290
     0
176
     1
 90
       50
176
     1
 90
       50
176
     1
 90
       50
176
     1
290
     0
176
     1
 90
       50
176
     1
 62
   256
176
     0
 40
1.0
176
     0
 90
        2
176
     1
  1
strokes_ogs.tif
176
     1
290
     0
176
     1
 40
1.0
176
     1
 40
1.0
176
     1
  0
VISUALSTYLE
  5
35
102
{ACAD_REACTORS
330
29
102
}
330
29
100
AcDbVisualStyle
  2
Brighten
 70
    12
177
     3
291
     1
 70
    58
 90
        2
176
     1
 90
        2
176
     1
 90
        0
176
     1
 90
        0
176
     1
 40
0.6
176
     1
 40
30.0
176
     1
 62
     7
420
 16777215
176
     1
 90
        1
176
     1
 90
        4
176
     1
 62
     7
176
     1
 62
   257
176
     1
 90
        1
176
     1
 90
        1
176
     1
 40
1.0
176
     1
 90
        8
176
     1
 62
     7
176
     1
 40
1.0
176
     1
 90
        1
176
     1
 90
        6
176
     1
 90
        2
176
     1
 62
     7
176
     1
 90
        5
176
     1
 90
        0
176
     1
 90
        0
176
     1
290
     0
176
     1
 90
        1
176
     1
 40
50.0
176
     1
 90
        0
176
     1
290
     0
176
     1
290
     1
176
     1
290
     1
176
     1
290
     0
176
     1
290
     0
176
     1
290
     0
176
     1
290
     0
176
     1
290
     0
176
     1
290
     0
176
     1
 90
       50
176
     1
 40
0.0
176
     1
 40
1.0
176
     1
 90
        0
176
     1
 62
    18
420
        0
176
     1
 90
       50
176
     1
 90
        3
176
     1
 62
     5
420
      255
176
     1
290
     0
176
     1
 90
       50
176
     1
 90
       50
176
     1
 90
       50
176
     1
290
     0
176
     1
 90
       50
176
     1
 62
   256
176
     0
 40
1.0
176
     0
 90
        2
176
     1
  1
strokes_ogs.tif
176
     1
290
     0
176
     1
 40
1.0
176
     1
 40
1.0
176
     1
  0
VISUALSTYLE
  5
39
102
{ACAD_REACTORS
330
29
102
}
330
29
100
AcDbVisualStyle
  2
ColorChange
 70
    16
177
     3
291
     1
 70
    58
 90
        2
176
     1
 90
        2
176
     1
 90
        3
176
     1
 90
        0
176
     1
 40
0.6
176
     1
 40
30.0
176
     1
 62
     8
420
  8421504
176
     1
 90
        1
176
     1
 90
        4
176
     1
 62
     7
176
     1
 62
   257
176
     1
 90
        1
176
     1
 90
        1
176
     1
 40
1.0
176
     1
 90
        8
176
     1
 62
     8
420
  8421504
176
     1
 40
1.0
176
     1
 90
        1
176
     1
 90
        6
176
     1
 90
        2
176
     1
 62
     7
176
     1
 90
        5
176
     1
 90
        0
176
     1
 90
        0
176
     1
290
     0
176
     1
 90
        1
176
     1
 40
0.0
176
     1
 90
        0
176
     1
290
     0
176
     1
290
     1
176
     1
290
     1
176
     1
290
     0
176
     1
290
     0
176
     1
290
     0
176
     1
290
     0
176
     1
290
     0
176
     1
290
     0
176
     1
 90
       50
176
     1
 40
0.0
176
     1
 40
1.0
176
     1
 90
        0
176
     1
 62
    18
420
        0
176
     1
 90
       50
176
     1
 90
        3
176
     1
 62
     5
420
      255
176
     1
290
     0
176
     1
 90
       50
176
     1
 90
       50
176
     1
 90
       50
176
     1
290
     0
176
     1
 90
       50
176
     1
 62
   256
176
     0
 40
1.0
176
     0
 90
        2
176
     1
  1
strokes_ogs.tif
176
     1
290
     0
176
     1
 40
1.0
176
     1
 40
1.0
176
     1
  0
VISUALSTYLE
  5
32
102
{ACAD_REACTORS
330
29
102
}
330
29
100
AcDbVisualStyle
  2
Conceptual
 70
     9
177
     3
291
     0
 70
    58
 90
        3
176
     1
 90
        2
176
     1
 90
        0
176
     1
 90
        0
176
     1
 40
0.6
176
     1
 40
30.0
176
     1
 62
     7
420
 16777215
176
     1
 90
        2
176
     1
 90
        2
176
     1
 62
     7
176
     1
 62
   257
176
     1
 90
        1
176
     1
 90
        1
176
     1
 40
179.0
176
     1
 90
        8
176
     1
 62
     7
176
     1
 40
1.0
176
     1
 90
        1
176
     1
 90
        6
176
     1
 90
        2
176
     1
 62
     7
176
     1
 90
        3
176
     1
 90
        0
176
     1
 90
        0
176
     1
290
     0
176
     1
 90
        1
176
     1
 40
0.0
176
     1
 90
        0
176
     1
290
     0
176
     1
290
     1
176
     1
290
     1
176
     1
290
     0
176
     1
290
     0
176
     1
290
     0
176
     1
290
     0
176
     1
290
     0
176
     1
290
     0
176
     1
 90
       50
176
     1
 40
0.0
176
     1
 40
1.0
176
     1
 90
        0
176
     1
 62
    18
420
        0
176
     1
 90
       50
176
     1
 90
        3
176
     1
 62
     5
420
      255
176
     1
290
     0
176
     1
 90
       50
176
     1
 90
       50
176
     1
 90
       50
176
     1
290
     0
176
     1
 90
       50
176
     1
 62
   256
176
     0
 40
1.0
176
     0
 90
        2
176
     1
  1
strokes_ogs.tif
176
     1
290
     0
176
     1
 40
1.0
176
     1
 40
1.0
176
     1
  0
VISUALSTYLE
  5
34
102
{ACAD_REACTORS
330
29
102
}
330
29
100
AcDbVisualStyle
  2
Dim
 70
    11
177
     3
291
     1
 70
    58
 90
        2
176
     1
 90
        2
176
     1
 90
        0
176
     1
 90
        0
176
     1
 40
0.6
176
     1
 40
30.0
176
     1
 62
     7
420
 16777215
176
     1
 90
        1
176
     1
 90
        4
176
     1
 62
     7
176
     1
 62
   257
176
     1
 90
        1
176
     1
 90
        1
176
     1
 40
1.0
176
     1
 90
        8
176
     1
 62
     7
176
     1
 40
1.0
176
     1
 90
        1
176
     1
 90
        6
176
     1
 90
        2
176
     1
 62
     7
176
     1
 90
        5
176
     1
 90
        0
176
     1
 90
        0
176
     1
290
     0
176
     1
 90
        1
176
     1
 40
-50.0
176
     1
 90
        0
176
     1
290
     0
176
     1
290
     1
176
     1
290
     1
176
     1
290
     0
176
     1
290
     0
176
     1
290
     0
176
     1
290
     0
176
     1
290
     0
176
     1
290
     0
176
     1
 90
       50
176
     1
 40
0.0
176
     1
 40
1.0
176
     1
 90
        0
176
     1
 62
    18
420
        0
176
     1
 90
       50
176
     1
 90
        3
176
     1
 62
     5
420
      255
176
     1
290
     0
176
     1
 90
       50
176
     1
 90
       50
176
     1
 90
       50
176
     1
290
     0
176
     1
 90
       50
176
     1
 62
   256
176
     0
 40
1.0
176
     0
 90
        2
176
     1
  1
strokes_ogs.tif
176
     1
290
     0
176
     1
 40
1.0
176
     1
 40
1.0
176
     1
  0
VISUALSTYLE
  5
41
102
{ACAD_REACTORS
330
29
102
}
330
29
100
AcDbVisualStyle
  2
EdgeColorOff
 70
    22
177
     3
291
     1
 70
    58
 90
        2
176
     0
 90
        2
176
     0
 90
        0
176
     0
 90
        0
176
     0
 40
0.6
176
     0
 40
30.0
176
     0
 62
     7
420
 16777215
176
     0
 90
        1
176
     0
 90
        4
176
     0
 62
     7
176
     0
 62
   257
176
     0
 90
        1
176
     0
 90
        1
176
     0
 40
1.0
176
     0
 90
        8
176
     2
 62
     7
176
     0
 40
1.0
176
     0
 90
        1
176
     0
 90
        6
176
     0
 90
        2
176
     0
 62
     7
176
     0
 90
        5
176
     0
 90
        0
176
     0
 90
        0
176
     0
290
     0
176
     0
 90
        1
176
     0
 40
0.0
176
     0
 90
        0
176
     0
290
     0
176
     0
290
     1
176
     0
290
     1
176
     0
290
     0
176
     0
290
     0
176
     0
290
     0
176
     0
290
     0
176
     0
290
     0
176
     0
290
     0
176
     0
 90
       50
176
     0
 40
0.0
176
     0
 40
1.0
176
     0
 90
        0
176
     0
 62
    18
420
        0
176
     0
 90
       50
176
     0
 90
        3
176
     0
 62
     5
420
      255
176
     0
290
     0
176
     0
 90
       50
176
     0
 90
       50
176
     0
 90
       50
176
     0
290
     0
176
     0
 90
       50
176
     0
 62
   256
176
     0
 40
1.0
176
     0
 90
        2
176
     0
  1
strokes_ogs.tif
176
     0
290
     0
176
     0
 40
1.0
176
     0
 40
1.0
176
     0
  0
VISUALSTYLE
  5
38
102
{ACAD_REACTORS
330
29
102
}
330
29
100
AcDbVisualStyle
  2
Facepattern
 70
    15
177
     3
291
     1
 70
    58
 90
        2
176
     1
 90
        2
176
     1
 90
        0
176
     1
 90
        0
176
     1
 40
0.6
176
     1
 40
30.0
176
     1
 62
     7
420
 16777215
176
     1
 90
        1
176
     1
 90
        4
176
     1
 62
     7
176
     1
 62
   257
176
     1
 90
        1
176
     1
 90
        1
176
     1
 40
1.0
176
     1
 90
        8
176
     1
 62
     7
176
     1
 40
1.0
176
     1
 90
        1
176
     1
 90
        6
176
     1
 90
        2
176
     1
 62
     7
176
     1
 90
        5
176
     1
 90
        0
176
     1
 90
        0
176
     1
290
     0
176
     1
 90
        1
176
     1
 40
0.0
176
     1
 90
        0
176
     1
290
     0
176
     1
290
     1
176
     1
290
     1
176
     1
290
     0
176
     1
290
     0
176
     1
290
     0
176
     1
290
     0
176
     1
290
     0
176
     1
290
     0
176
     1
 90
       50
176
     1
 40
0.0
176
     1
 40
1.0
176
     1
 90
        0
176
     1
 62
    18
420
        0
176
     1
 90
       50
176
     1
 90
        3
176
     1
 62
     5
420
      255
176
     1
290
     0
176
     1
 90
       50
176
     1
 90
       50
176
     1
 90
       50
176
     1
290
     0
176
     1
 90
       50
176
     1
 62
   256
176
     0
 40
1.0
176
     0
 90
        2
176
     1
  1
strokes_ogs.tif
176
     1
290
     0
176
     1
 40
1.0
176
     1
 40
1.0
176
     1
  0
VISUALSTYLE
  5
2A
102
{ACAD_REACTORS
330
29
102
}
330
29
100
AcDbVisualStyle
  2
Flat
 70
     0
177
     3
291
     1
 70
    58
 90
        2
176
     1
 90
        1
176
     1
 90
        1
176
     1
 90
        2
176
     1
 40
0.6
176
     1
 40
30.0
176
     1
 62
     7
420
 16777215
176
     1
 90
        0
176
     1
 90
        0
176
     1
 62
     7
176
     1
 62
   257
176
     1
 90
        1
176
     1
 90
        1
176
     1
 40
1.0
176
     1
 90
        8
176
     1
 62
     7
176
     1
 40
1.0
176
     1
 90
        1
176
     1
 90
        6
176
     1
 90
        2
176
     1
 62
     7
176
     1
 90
        5
176
     1
 90
        0
176
     1
 90
        0
176
     1
290
     0
176
     1
 90
       13
176
     1
 40
0.0
176
     1
 90
        0
176
     1
290
     0
176
     1
290
     1
176
     1
290
     1
176
     1
290
     0
176
     1
290
     0
176
     1
290
     0
176
     1
290
     0
176
     1
290
     0
176
     1
290
     0
176
     1
 90
       50
176
     1
 40
0.0
176
     1
 40
1.0
176
     1
 90
        0
176
     1
 62
    18
420
        0
176
     1
 90
       50
176
     1
 90
        3
176
     1
 62
     5
420
      255
176
     1
290
     0
176
     1
 90
       50
176
     1
 90
       50
176
     1
 90
       50
176
     1
290
     0
176
     1
 90
       50
176
     1
 62
   256
176
     0
 40
1.0
176
     0
 90
        2
176
     1
  1
strokes_ogs.tif
176
     1
290
     0
176
     1
 40
1.0
176
     1
 40
1.0
176
     1
  0
VISUALSTYLE
  5
2B
102
{ACAD_REACTORS
330
29
102
}
330
29
100
AcDbVisualStyle
  2
FlatWithEdges
 70
     1
177
     3
291
     1
 70
    58
 90
        2
176
     1
 90
        1
176
     1
 90
        1
176
     1
 90
        2
176
     1
 40
0.6
176
     1
 40
30.0
176
     1
 62
     7
420
 16777215
176
     1
 90
        1
176
     1
 90
        0
176
     1
 62
     7
176
     1
 62
   257
176
     1
 90
        1
176
     1
 90
        1
176
     1
 40
1.0
176
     1
 90
        0
176
     1
 62
   257
176
     1
 40
1.0
176
     1
 90
        1
176
     1
 90
        6
176
     1
 90
        2
176
     1
 62
     7
176
     1
 90
        5
176
     1
 90
        0
176
     1
 90
        0
176
     1
290
     0
176
     1
 90
       13
176
     1
 40
0.0
176
     1
 90
        0
176
     1
290
     0
176
     1
290
     1
176
     1
290
     1
176
     1
290
     0
176
     1
290
     0
176
     1
290
     0
176
     1
290
     0
176
     1
290
     0
176
     1
290
     0
176
     1
 90
       50
176
     1
 40
0.0
176
     1
 40
1.0
176
     1
 90
        0
176
     1
 62
    18
420
        0
176
     1
 90
       50
176
     1
 90
        3
176
     1
 62
     5
420
      255
176
     1
290
     0
176
     1
 90
       50
176
     1
 90
       50
176
     1
 90
       50
176
     1
290
     0
176
     1
 90
       50
176
     1
 62
   256
176
     0
 40
1.0
176
     0
 90
        2
176
     1
  1
strokes_ogs.tif
176
     1
290
     0
176
     1
 40
1.0
176
     1
 40
1.0
176
     1
  0
VISUALSTYLE
  5
2C
102
{ACAD_REACTORS
330
29
102
}
330
29
100
AcDbVisualStyle
  2
Gouraud
 70
     2
177
     3
291
     1
 70
    58
 90
        2
176
     1
 90
        2
176
     1
 90
        1
176
     1
 90
        2
176
     1
 40
0.6
176
     1
 40
30.0
176
     1
 62
     7
420
 16777215
176
     1
 90
        0
176
     1
 90
        0
176
     1
 62
     7
176
     1
 62
   257
176
     1
 90
        1
176
     1
 90
        1
176
     1
 40
1.0
176
     1
 90
        0
176
     1
 62
     7
176
     1
 40
1.0
176
     1
 90
        1
176
     1
 90
        6
176
     1
 90
        2
176
     1
 62
     7
176
     1
 90
        5
176
     1
 90
        0
176
     1
 90
        0
176
     1
290
     0
176
     1
 90
       13
176
     1
 40
0.0
176
     1
 90
        0
176
     1
290
     0
176
     1
290
     1
176
     1
290
     1
176
     1
290
     0
176
     1
290
     0
176
     1
290
     0
176
     1
290
     0
176
     1
290
     0
176
     1
290
     0
176
     1
 90
       50
176
     1
 40
0.0
176
     1
 40
1.0
176
     1
 90
        0
176
     1
 62
    18
420
        0
176
     1
 90
       50
176
     1
 90
        3
176
     1
 62
     5
420
      255
176
     1
290
     0
176
     1
 90
       50
176
     1
 90
       50
176
     1
 90
       50
176
     1
290
     0
176
     1
 90
       50
176
     1
 62
   256
176
     0
 40
1.0
176
     0
 90
        2
176
     1
  1
strokes_ogs.tif
176
     1
290
     0
176
     1
 40
1.0
176
     1
 40
1.0
176
     1
  0
VISUALSTYLE
  5
2D
102
{ACAD_REACTORS
330
29
102
}
330
29
100
AcDbVisualStyle
  2
GouraudWithEdges
 70
     3
177
     3
291
     1
 70
    58
 90
        2
176
     1
 90
        2
176
     1
 90
        1
176
     1
 90
        2
176
     1
 40
0.6
176
     1
 40
30.0
176
     1
 62
     7
420
 16777215
176
     1
 90
        1
176
     1
 90
        0
176
     1
 62
     7
176
     1
 62
   257
176
     1
 90
        1
176
     1
 90
        1
176
     1
 40
1.0
176
     1
 90
        0
176
     1
 62
   257
176
     1
 40
1.0
176
     1
 90
        1
176
     1
 90
        6
176
     1
 90
        2
176
     1
 62
     7
176
     1
 90
        5
176
     1
 90
        0
176
     1
 90
        0
176
     1
290
     0
176
     1
 90
       13
176
     1
 40
0.0
176
     1
 90
        0
176
     1
290
     0
176
     1
290
     1
176
     1
290
     1
176
     1
290
     0
176
     1
290
     0
176
     1
290
     0
176
     1
290
     0
176
     1
290
     0
176
     1
290
     0
176
     1
 90
       50
176
     1
 40
0.0
176
     1
 40
1.0
176
     1
 90
        0
176
     1
 62
    18
420
        0
176
     1
 90
       50
176
     1
 90
        3
176
     1
 62
     5
420
      255
176
     1
290
     0
176
     1
 90
       50
176
     1
 90
       50
176
     1
 90
       50
176
     1
290
     0
176
     1
 90
       50
176
     1
 62
   256
176
     0
 40
1.0
176
     0
 90
        2
176
     1
  1
strokes_ogs.tif
176
     1
290
     0
176
     1
 40
1.0
176
     1
 40
1.0
176
     1
  0
VISUALSTYLE
  5
31
102
{ACAD_REACTORS
330
29
102
}
330
29
100
AcDbVisualStyle
  2
Hidden
 70
     6
177
     3
291
     0
 70
    58
 90
        1
176
     1
 90
        2
176
     1
 90
        2
176
     1
 90
        0
176
     1
 40
0.6
176
     1
 40
30.0
176
     1
 62
     7
420
 16777215
176
     1
 90
        2
176
     1
 90
        2
176
     1
 62
     7
176
     1
 62
   257
176
     1
 90
        2
176
     1
 90
        1
176
     1
 40
40.0
176
     1
 90
        0
176
     1
 62
   257
176
     1
 40
1.0
176
     1
 90
        1
176
     1
 90
        6
176
     1
 90
        2
176
     1
 62
     7
176
     1
 90
        3
176
     1
 90
        0
176
     1
 90
        0
176
     1
290
     0
176
     1
 90
        1
176
     1
 40
0.0
176
     1
 90
        0
176
     1
290
     0
176
     1
290
     1
176
     1
290
     1
176
     1
290
     0
176
     1
290
     0
176
     1
290
     0
176
     1
290
     0
176
     1
290
     0
176
     1
290
     0
176
     1
 90
       50
176
     1
 40
0.0
176
     1
 40
1.0
176
     1
 90
        0
176
     1
 62
    18
420
        0
176
     1
 90
       50
176
     1
 90
        3
176
     1
 62
     5
420
      255
176
     1
290
     0
176
     1
 90
       50
176
     1
 90
       50
176
     1
 90
       50
176
     1
290
     0
176
     1
 90
       50
176
     1
 62
   256
176
     0
 40
1.0
176
     0
 90
        2
176
     1
  1
strokes_ogs.tif
176
     1
290
     0
176
     1
 40
1.0
176
     1
 40
1.0
176
     1
  0
VISUALSTYLE
  5
3F
102
{ACAD_REACTORS
330
29
102
}
330
29
100
AcDbVisualStyle
  2
JitterOff
 70
    20
177
     3
291
     1
 70
    58
 90
        2
176
     0
 90
        2
176
     0
 90
        0
176
     0
 90
        0
176
     0
 40
0.6
176
     0
 40
30.0
176
     0
 62
     7
420
 16777215
176
     0
 90
        1
176
     0
 90
        4
176
     0
 62
     7
176
     0
 62
   257
176
     0
 90
        1
176
     0
 90
        1
176
     0
 40
1.0
176
     0
 90
       10
176
     2
 62
     7
176
     0
 40
1.0
176
     0
 90
        1
176
     0
 90
        6
176
     0
 90
        2
176
     0
 62
     7
176
     0
 90
        5
176
     0
 90
        0
176
     0
 90
        0
176
     0
290
     0
176
     0
 90
        1
176
     0
 40
0.0
176
     0
 90
        0
176
     0
290
     0
176
     0
290
     1
176
     0
290
     1
176
     0
290
     0
176
     0
290
     0
176
     0
290
     0
176
     0
290
     0
176
     0
290
     0
176
     0
290
     0
176
     0
 90
       50
176
     0
 40
0.0
176
     0
 40
1.0
176
     0
 90
        0
176
     0
 62
    18
420
        0
176
     0
 90
       50
176
     0
 90
        3
176
     0
 62
     5
420
      255
176
     0
290
     0
176
     0
 90
       50
176
     0
 90
       50
176
     0
 90
       50
176
     0
290
     0
176
     0
 90
       50
176
     0
 62
   256
176
     0
 40
1.0
176
     0
 90
        2
176
     0
  1
strokes_ogs.tif
176
     0
290
     0
176
     0
 40
1.0
176
     0
 40
1.0
176
     0
  0
VISUALSTYLE
  5
37
102
{ACAD_REACTORS
330
29
102
}
330
29
100
AcDbVisualStyle
  2
Linepattern
 70
    14
177
     3
291
     1
 70
    58
 90
        2
176
     1
 90
        2
176
     1
 90
        0
176
     1
 90
        0
176
     1
 40
0.6
176
     1
 40
30.0
176
     1
 62
     7
420
 16777215
176
     1
 90
        1
176
     1
 90
        4
176
     1
 62
     7
176
     1
 62
   257
176
     1
 90
        7
176
     1
 90
        7
176
     1
 40
1.0
176
     1
 90
        8
176
     1
 62
     7
176
     1
 40
1.0
176
     1
 90
        1
176
     1
 90
        6
176
     1
 90
        2
176
     1
 62
     7
176
     1
 90
        5
176
     1
 90
        0
176
     1
 90
        0
176
     1
290
     0
176
     1
 90
        1
176
     1
 40
0.0
176
     1
 90
        0
176
     1
290
     0
176
     1
290
     1
176
     1
290
     1
176
     1
290
     0
176
     1
290
     0
176
     1
290
     0
176
     1
290
     0
176
     1
290
     0
176
     1
290
     0
176
     1
 90
       50
176
     1
 40
0.0
176
     1
 40
1.0
176
     1
 90
        0
176
     1
 62
    18
420
        0
176
     1
 90
       50
176
     1
 90
        3
176
     1
 62
     5
420
      255
176
     1
290
     0
176
     1
 90
       50
176
     1
 90
       50
176
     1
 90
       50
176
     1
290
     0
176
     1
 90
       50
176
     1
 62
   256
176
     0
 40
1.0
176
     0
 90
        2
176
     1
  1
strokes_ogs.tif
176
     1
290
     0
176
     1
 40
1.0
176
     1
 40
1.0
176
     1
  0
VISUALSTYLE
  5
40
102
{ACAD_REACTORS
330
29
102
}
330
29
100
AcDbVisualStyle
  2
OverhangOff
 70
    21
177
     3
291
     1
 70
    58
 90
        2
176
     0
 90
        2
176
     0
 90
        0
176
     0
 90
        0
176
     0
 40
0.6
176
     0
 40
30.0
176
     0
 62
     7
420
 16777215
176
     0
 90
        1
176
     0
 90
        4
176
     0
 62
     7
176
     0
 62
   257
176
     0
 90
        1
176
     0
 90
        1
176
     0
 40
1.0
176
     0
 90
        9
176
     2
 62
     7
176
     0
 40
1.0
176
     0
 90
        1
176
     0
 90
        6
176
     0
 90
        2
176
     0
 62
     7
176
     0
 90
        5
176
     0
 90
        0
176
     0
 90
        0
176
     0
290
     0
176
     0
 90
        1
176
     0
 40
0.0
176
     0
 90
        0
176
     0
290
     0
176
     0
290
     1
176
     0
290
     1
176
     0
290
     0
176
     0
290
     0
176
     0
290
     0
176
     0
290
     0
176
     0
290
     0
176
     0
290
     0
176
     0
 90
       50
176
     0
 40
0.0
176
     0
 40
1.0
176
     0
 90
        0
176
     0
 62
    18
420
        0
176
     0
 90
       50
176
     0
 90
        3
176
     0
 62
     5
420
      255
176
     0
290
     0
176
     0
 90
       50
176
     0
 90
       50
176
     0
 90
       50
176
     0
290
     0
176
     0
 90
       50
176
     0
 62
   256
176
     0
 40
1.0
176
     0
 90
        2
176
     0
  1
strokes_ogs.tif
176
     0
290
     0
176
     0
 40
1.0
176
     0
 40
1.0
176
     0
  0
VISUALSTYLE
  5
33
102
{ACAD_REACTORS
330
29
102
}
330
29
100
AcDbVisualStyle
  2
Realistic
 70
     8
177
     3
291
     0
 70
    58
 90
        2
176
     1
 90
        3
176
     1
 90
        0
176
     1
 90
        2
176
     1
 40
0.6
176
     1
 40
30.0
176
     1
 62
     7
420
 16777215
176
     1
 90
        0
176
     1
 90
        0
176
     1
 62
     7
176
     1
 62
   257
176
     1
 90
        1
176
     1
 90
        1
176
     1
 40
1.0
176
     1
 90
        8
176
     1
 62
   257
176
     1
 40
1.0
176
     1
 90
        1
176
     1
 90
        6
176
     1
 90
        2
176
     1
 62
     7
176
     1
 90
        3
176
     1
 90
        0
176
     1
 90
        0
176
     1
290
     0
176
     1
 90
       13
176
     1
 40
0.0
176
     1
 90
        0
176
     1
290
     0
176
     1
290
     1
176
     1
290
     1
176
     1
290
     0
176
     1
290
     0
176
     1
290
     0
176
     1
290
     0
176
     1
290
     0
176
     1
290
     0
176
     1
 90
       50
176
     1
 40
0.0
176
     1
 40
1.0
176
     1
 90
        0
176
     1
 62
    18
420
        0
176
     1
 90
       50
176
     1
 90
        3
176
     1
 62
     5
420
      255
176
     1
290
     0
176
     1
 90
       50
176
     1
 90
       50
176
     1
 90
       50
176
     1
290
     0
176
     1
 90
       50
176
     1
 62
   256
176
     0
 40
1.0
176
     0
 90
        2
176
     1
  1
strokes_ogs.tif
176
     1
290
     0
176
     1
 40
1.0
176
     1
 40
1.0
176
     1
  0
VISUALSTYLE
  5
3E
102
{ACAD_REACTORS
330
29
102
}
330
29
100
AcDbVisualStyle
  2
Shaded
 70
    27
177
     3
291
     0
 70
    58
 90
        2
176
     1
 90
        2
176
     1
 90
        1
176
     1
 90
        2
176
     1
 40
0.6
176
     1
 40
30.0
176
     1
 62
     7
420
 16777215
176
     1
 90
        0
176
     1
 90
        4
176
     1
 62
     7
176
     1
 62
   257
176
     1
 90
        1
176
     1
 90
        1
176
     1
 40
1.0
176
     1
 90
        8
176
     1
 62
   257
176
     1
 40
1.0
176
     1
 90
        1
176
     1
 90
        6
176
     1
 90
        2
176
     1
 62
     8
420
  7895160
176
     1
 90
        3
176
     1
 90
        0
176
     1
 90
        0
176
     1
290
     0
176
     1
 90
        5
176
     1
 40
0.0
176
     1
 90
        0
176
     1
290
     0
176
     1
290
     1
176
     1
290
     1
176
     1
290
     0
176
     1
290
     0
176
     1
290
     0
176
     1
290
     0
176
     1
290
     0
176
     1
290
     0
176
     1
 90
       50
176
     1
 40
0.0
176
     1
 40
1.0
176
     1
 90
        0
176
     1
 62
    18
420
        0
176
     1
 90
       50
176
     1
 90
        3
176
     1
 62
     5
420
      255
176
     1
290
     0
176
     1
 90
       50
176
     1
 90
       50
176
     1
 90
       50
176
     1
290
     0
176
     1
 90
       50
176
     1
 62
   256
176
     0
 40
1.0
176
     0
 90
        2
176
     1
  1
strokes_ogs.tif
176
     1
290
     0
176
     1
 40
1.0
176
     1
 40
1.0
176
     1
  0
VISUALSTYLE
  5
3D
102
{ACAD_REACTORS
330
29
102
}
330
29
100
AcDbVisualStyle
  2
Shaded with edges
 70
    26
177
     3
291
     0
 70
    58
 90
        2
176
     1
 90
        2
176
     1
 90
        1
176
     1
 90
        2
176
     1
 40
0.6
176
     1
 40
30.0
176
     1
 62
     7
420
 16777215
176
     1
 90
        1
176
     1
 90
        2
176
     1
 62
     7
176
     1
 62
   257
176
     1
 90
        2
176
     1
 90
        1
176
     1
 40
1.0
176
     1
 90
        8
176
     1
 62
   257
176
     1
 40
1.0
176
     1
 90
        1
176
     1
 90
        6
176
     1
 90
        2
176
     1
 62
     7
176
     1
 90
        3
176
     1
 90
        0
176
     1
 90
        0
176
     1
290
     0
176
     1
 90
        5
176
     1
 40
0.0
176
     1
 90
        0
176
     1
290
     0
176
     1
290
     1
176
     1
290
     1
176
     1
290
     0
176
     1
290
     0
176
     1
290
     0
176
     1
290
     0
176
     1
290
     0
176
     1
290
     0
176
     1
 90
       50
176
     1
 40
0.0
176
     1
 40
1.0
176
     1
 90
        0
176
     1
 62
    18
420
        0
176
     1
 90
       50
176
     1
 90
        3
176
     1
 62
     5
420
      255
176
     1
290
     0
176
     1
 90
       50
176
     1
 90
       50
176
     1
 90
       50
176
     1
290
     0
176
     1
 90
       50
176
     1
 62
   256
176
     0
 40
1.0
176
     0
 90
        2
176
     1
  1
strokes_ogs.tif
176
     1
290
     0
176
     1
 40
1.0
176
     1
 40
1.0
176
     1
  0
VISUALSTYLE
  5
3A
102
{ACAD_REACTORS
330
29
102
}
330
29
100
AcDbVisualStyle
  2
Shades of Gray
 70
    23
177
     3
291
     0
 70
    58
 90
        2
176
     1
 90
        2
176
     1
 90
        3
176
     1
 90
        0
176
     1
 40
0.6
176
     1
 40
30.0
176
     1
 62
     7
420
 16777215
176
     1
 90
        2
176
     1
 90
        2
176
     1
 62
     7
176
     1
 62
     7
176
     1
 90
        1
176
     1
 90
        1
176
     1
 40
40.0
176
     1
 90
        8
176
     1
 62
     7
176
     1
 40
1.0
176
     1
 90
        1
176
     1
 90
        6
176
     1
 90
        2
176
     1
 62
     7
176
     1
 90
        3
176
     1
 90
        0
176
     1
 90
        0
176
     1
290
     0
176
     1
 90
        1
176
     1
 40
0.0
176
     1
 90
        0
176
     1
290
     0
176
     1
290
     1
176
     1
290
     1
176
     1
290
     0
176
     1
290
     0
176
     1
290
     0
176
     1
290
     0
176
     1
290
     0
176
     1
290
     0
176
     1
 90
       50
176
     1
 40
0.0
176
     1
 40
1.0
176
     1
 90
        0
176
     1
 62
    18
420
        0
176
     1
 90
       50
176
     1
 90
        3
176
     1
 62
     5
420
      255
176
     1
290
     0
176
     1
 90
       50
176
     1
 90
       50
176
     1
 90
       50
176
     1
290
     0
176
     1
 90
       50
176
     1
 62
   256
176
     0
 40
1.0
176
     0
 90
        2
176
     1
  1
strokes_ogs.tif
176
     1
290
     0
176
     1
 40
1.0
176
     1
 40
1.0
176
     1
  0
VISUALSTYLE
  5
3B
102
{ACAD_REACTORS
330
29
102
}
330
29
100
AcDbVisualStyle
  2
Sketchy
 70
    24
177
     3
291
     0
 70
    58
 90
        1
176
     1
 90
        2
176
     1
 90
        2
176
     1
 90
        0
176
     1
 40
0.6
176
     1
 40
30.0
176
     1
 62
     7
420
 16777215
176
     1
 90
        2
176
     1
 90
        2
176
     1
 62
     7
176
     1
 62
     7
176
     1
 90
        1
176
     1
 90
        1
176
     1
 40
40.0
176
     1
 90
       11
176
     1
 62
     7
176
     1
 40
1.0
176
     1
 90
        1
176
     1
 90
        6
176
     1
 90
        2
176
     1
 62
     7
176
     1
 90
        6
176
     1
 90
        0
176
     1
 90
        0
176
     1
290
     0
176
     1
 90
        1
176
     1
 40
0.0
176
     1
 90
        0
176
     1
290
     0
176
     1
290
     1
176
     1
290
     1
176
     1
290
     0
176
     1
290
     0
176
     1
290
     0
176
     1
290
     0
176
     1
290
     0
176
     1
290
     0
176
     1
 90
       50
176
     1
 40
0.0
176
     1
 40
1.0
176
     1
 90
        0
176
     1
 62
    18
420
        0
176
     1
 90
       50
176
     1
 90
        3
176
     1
 62
     5
420
      255
176
     1
290
     0
176
     1
 90
       50
176
     1
 90
       50
176
     1
 90
       50
176
     1
290
     0
176
     1
 90
       50
176
     1
 62
   256
176
     0
 40
1.0
176
     0
 90
        2
176
     1
  1
strokes_ogs.tif
176
     1
290
     0
176
     1
 40
1.0
176
     1
 40
1.0
176
     1
  0
VISUALSTYLE
  5
36
102
{ACAD_REACTORS
330
29
102
}
330
29
100
AcDbVisualStyle
  2
Thicken
 70
    13
177
     3
291
     1
 70
    58
 90
        2
176
     1
 90
        2
176
     1
 90
        0
176
     1
 90
        0
176
     1
 40
0.6
176
     1
 40
30.0
176
     1
 62
     7
420
 16777215
176
     1
 90
        1
176
     1
 90
        4
176
     1
 62
     7
176
     1
 62
   257
176
     1
 90
        1
176
     1
 90
        1
176
     1
 40
1.0
176
     1
 90
       12
176
     1
 62
     7
176
     1
 40
1.0
176
     1
 90
        1
176
     1
 90
        6
176
     1
 90
        2
176
     1
 62
     7
176
     1
 90
        5
176
     1
 90
        0
176
     1
 90
        0
176
     1
290
     0
176
     1
 90
        1
176
     1
 40
0.0
176
     1
 90
        0
176
     1
290
     0
176
     1
290
     1
176
     1
290
     1
176
     1
290
     0
176
     1
290
     0
176
     1
290
     0
176
     1
290
     0
176
     1
290
     0
176
     1
290
     0
176
     1
 90
       50
176
     1
 40
0.0
176
     1
 40
1.0
176
     1
 90
        0
176
     1
 62
    18
420
        0
176
     1
 90
       50
176
     1
 90
        3
176
     1
 62
     5
420
      255
176
     1
290
     0
176
     1
 90
       50
176
     1
 90
       50
176
     1
 90
       50
176
     1
290
     0
176
     1
 90
       50
176
     1
 62
   256
176
     0
 40
1.0
176
     0
 90
        2
176
     1
  1
strokes_ogs.tif
176
     1
290
     0
176
     1
 40
1.0
176
     1
 40
1.0
176
     1
  0
VISUALSTYLE
  5
30
102
{ACAD_REACTORS
330
29
102
}
330
29
100
AcDbVisualStyle
  2
Wireframe
 70
     5
177
     3
291
     0
 70
    58
 90
        0
176
     1
 90
        2
176
     1
 90
        0
176
     1
 90
        0
176
     1
 40
0.6
176
     1
 40
30.0
176
     1
 62
     7
420
 16777215
176
     1
 90
        1
176
     1
 90
        4
176
     1
 62
     7
176
     1
 62
   257
176
     1
 90
        1
176
     1
 90
        1
176
     1
 40
1.0
176
     1
 90
        0
176
     1
 62
   257
176
     1
 40
1.0
176
     1
 90
        1
176
     1
 90
        6
176
     1
 90
        2
176
     1
 62
     7
176
     1
 90
        3
176
     1
 90
        0
176
     1
 90
        0
176
     1
290
     0
176
     1
 90
        1
176
     1
 40
0.0
176
     1
 90
        0
176
     1
290
     0
176
     1
290
     1
176
     1
290
     1
176
     1
290
     0
176
     1
290
     0
176
     1
290
     0
176
     1
290
     0
176
     1
290
     0
176
     1
290
     0
176
     1
 90
       50
176
     1
 40
0.0
176
     1
 40
1.0
176
     1
 90
        0
176
     1
 62
    18
420
        0
176
     1
 90
       50
176
     1
 90
        3
176
     1
 62
     5
420
      255
176
     1
290
     0
176
     1
 90
       50
176
     1
 90
       50
176
     1
 90
       50
176
     1
290
     0
176
     1
 90
       50
176
     1
 62
   256
176
     0
 40
1.0
176
     0
 90
        2
176
     1
  1
strokes_ogs.tif
176
     1
290
     0
176
     1
 40
1.0
176
     1
 40
1.0
176
     1
  0
VISUALSTYLE
  5
3C
102
{ACAD_REACTORS
330
29
102
}
330
29
100
AcDbVisualStyle
  2
X-Ray
 70
    25
177
     3
291
     0
 70
    58
 90
        2
176
     1
 90
        2
176
     1
 90
        1
176
     1
 90
        1
176
     1
 40
0.5
176
     1
 40
30.0
176
     1
 62
     7
420
 16777215
176
     1
 90
        1
176
     1
 90
        0
176
     1
 62
     7
176
     1
 62
   257
176
     1
 90
        1
176
     1
 90
        1
176
     1
 40
1.0
176
     1
 90
        8
176
     1
 62
     7
176
     1
 40
1.0
176
     1
 90
        1
176
     1
 90
        6
176
     1
 90
        2
176
     1
 62
     7
176
     1
 90
        3
176
     1
 90
        0
176
     1
 90
        0
176
     1
290
     0
176
     1
 90
       13
176
     1
 40
0.0
176
     1
 90
        0
176
     1
290
     0
176
     1
290
     1
176
     1
290
     1
176
     1
290
     0
176
     1
290
     0
176
     1
290
     0
176
     1
290
     0
176
     1
290
     0
176
     1
290
     0
176
     1
 90
       50
176
     1
 40
0.0
176
     1
 40
1.0
176
     1
 90
        0
176
     1
 62
    18
420
        0
176
     1
 90
       50
176
     1
 90
        3
176
     1
 62
     5
420
      255
176
     1
290
     0
176
     1
 90
       50
176
     1
 90
       50
176
     1
 90
       50
176
     1
290
     0
176
     1
 90
       50
176
     1
 62
   256
176
     0
 40
1.0
176
     0
 90
        2
176
     1
  1
strokes_ogs.tif
176
     1
290
     0
176
     1
 40
1.0
176
     1
 40
1.0
176
     1
  0
DICTIONARYVAR
  5
CA
102
{ACAD_REACTORS
330
C5
102
}
330
C5
100
DictionaryVariables
280
     0
  1
1:1
  0
DICTIONARYVAR
  5
C7
102
{ACAD_REACTORS
330
C5
102
}
330
C5
100
DictionaryVariables
280
     0
  1
STANDARD
  0
DICTIONARYVAR
  5
C6
102
{ACAD_REACTORS
330
C5
102
}
330
C5
100
DictionaryVariables
280
     0
  1
STANDARD
  0
DICTIONARYVAR
  5
C8
102
{ACAD_REACTORS
330
C5
102
}
330
C5
100
DictionaryVariables
280
     0
  1
Imperial24
  0
DICTIONARYVAR
  5
C9
102
{ACAD_REACTORS
330
C5
102
}
330
C5
100
DictionaryVariables
280
     0
  1
Imperial24
  0
DICTIONARY
  5
1A
330
19
100
AcDbDictionary
280
     1
281
     1
  3
BUMPTILE
360
1C
  3
DIFFUSETILE
360
1B
  3
OPACITYTILE
360
1F
  3
REFLECTIONTILE
360
1E
  3
REFRACTIONTILE
360
20
  3
SPECULARTILE
360
1D
  0
DICTIONARY
  5
12
330
11
100
AcDbDictionary
280
     1
281
     1
  3
BUMPTILE
360
14
  3
DIFFUSETILE
360
13
  3
OPACITYTILE
360
17
  3
REFLECTIONTILE
360
16
  3
REFRACTIONTILE
360
18
  3
SPECULARTILE
360
15
  0
DICTIONARY
  5
22
330
21
100
AcDbDictionary
280
     1
281
     1
  3
BUMPTILE
360
24
  3
DIFFUSETILE
360
23
  3
OPACITYTILE
360
27
  3
REFLECTIONTILE
360
26
  3
REFRACTIONTILE
360
28
  3
SPECULARTILE
360
25
  0
DICTIONARY
  5
CB
330
65
100
AcDbDictionary
280
     1
281
     1
  3
ACAD_ROUNDTRIP_2008_TABLESTYLE_CELLSTYLEMAP
360
CC
  0
XRECORD
  5
1C
102
{ACAD_REACTORS
330
1A
102
}
330
1A
100
AcDbXrecord
280
     1
270
     1
271
     1
  0
XRECORD
  5
1B
102
{ACAD_REACTORS
330
1A
102
}
330
1A
100
AcDbXrecord
280
     1
270
     1
271
     1
  0
XRECORD
  5
1F
102
{ACAD_REACTORS
330
1A
102
}
330
1A
100
AcDbXrecord
280
     1
270
     1
271
     1
  0
XRECORD
  5
1E
102
{ACAD_REACTORS
330
1A
102
}
330
1A
100
AcDbXrecord
280
     1
270
     1
271
     1
  0
XRECORD
  5
20
102
{ACAD_REACTORS
330
1A
102
}
330
1A
100
AcDbXrecord
280
     1
270
     1
271
     1
  0
XRECORD
  5
1D
102
{ACAD_REACTORS
330
1A
102
}
330
1A
100
AcDbXrecord
280
     1
270
     1
271
     1
  0
XRECORD
  5
14
102
{ACAD_REACTORS
330
12
102
}
330
12
100
AcDbXrecord
280
     1
270
     1
271
     1
  0
XRECORD
  5
13
102
{ACAD_REACTORS
330
12
102
}
330
12
100
AcDbXrecord
280
     1
270
     1
271
     1
  0
XRECORD
  5
17
102
{ACAD_REACTORS
330
12
102
}
330
12
100
AcDbXrecord
280
     1
270
     1
271
     1
  0
XRECORD
  5
16
102
{ACAD_REACTORS
330
12
102
}
330
12
100
AcDbXrecord
280
     1
270
     1
271
     1
  0
XRECORD
  5
18
102
{ACAD_REACTORS
330
12
102
}
330
12
100
AcDbXrecord
280
     1
270
     1
271
     1
  0
XRECORD
  5
15
102
{ACAD_REACTORS
330
12
102
}
330
12
100
AcDbXrecord
280
     1
270
     1
271
     1
  0
XRECORD
  5
24
102
{ACAD_REACTORS
330
22
102
}
330
22
100
AcDbXrecord
280
     1
270
     1
271
     1
  0
XRECORD
  5
23
102
{ACAD_REACTORS
330
22
102
}
330
22
100
AcDbXrecord
280
     1
270
     1
271
     1
  0
XRECORD
  5
27
102
{ACAD_REACTORS
330
22
102
}
330
22
100
AcDbXrecord
280
     1
270
     1
271
     1
  0
XRECORD
  5
26
102
{ACAD_REACTORS
330
22
102
}
330
22
100
AcDbXrecord
280
     1
270
     1
271
     1
  0
XRECORD
  5
28
102
{ACAD_REACTORS
330
22
102
}
330
22
100
AcDbXrecord
280
     1
270
     1
271
     1
  0
XRECORD
  5
25
102
{ACAD_REACTORS
330
22
102
}
330
22
100
AcDbXrecord
280
     1
270
     1
271
     1
  0
CELLSTYLEMAP
  5
CC
102
{ACAD_REACTORS
330
CB
102
}
330
CB
100
AcDbCellStyleMap
 90
        3
300
CELLSTYLE
  1
TABLEFORMAT_BEGIN
 90
        5
170
     1
 91
        0
 92
    32768
 62
   257
 93
        1
300
CONTENTFORMAT
  1
CONTENTFORMAT_BEGIN
 90
        0
 91
        0
 92
      512
 93
        0
300

 40
0.0
140
1.0
 94
        5
 62
     0
340
55
144
0.25
309
CONTENTFORMAT_END
171
     0
 94
        0
309
TABLEFORMAT_END
  1
CELLSTYLE_BEGIN
 90
        1
 91
        1
300
_TITLE
309
CELLSTYLE_END
300
CELLSTYLE
  1
TABLEFORMAT_BEGIN
 90
        5
170
     1
 91
        0
 92
        0
 62
   257
 93
        1
300
CONTENTFORMAT
  1
CONTENTFORMAT_BEGIN
 90
        0
 91
        0
 92
      512
 93
        0
300

 40
0.0
140
1.0
 94
        5
 62
     0
340
55
144
0.18
309
CONTENTFORMAT_END
171
     0
 94
        0
309
TABLEFORMAT_END
  1
CELLSTYLE_BEGIN
 90
        2
 91
        1
300
_HEADER
309
CELLSTYLE_END
300
CELLSTYLE
  1
TABLEFORMAT_BEGIN
 90
        5
170
     1
 91
        0
 92
        0
 62
   257
 93
        1
300
CONTENTFORMAT
  1
CONTENTFORMAT_BEGIN
 90
        0
 91
        0
 92
      512
 93
        0
300

 40
0.0
140
1.0
 94
        2
 62
     0
340
55
144
0.18
309
CONTENTFORMAT_END
171
     0
 94
        0
309
TABLEFORMAT_END
  1
CELLSTYLE_BEGIN
 90
        3
 91
        2
300
_DATA
309
CELLSTYLE_END
  0
ENDSEC
  0
EOF
