  0
SECTION
  2
HEADER
  9
$ACADVER
  1
AC1032
  9
$ACADMAINTVER
 90
      228
  9
$DWGCODEPAGE
  3
ANSI_932
  9
$REQUIREDVERSIONS
160
                 0
  9
$INSBASE
 10
0.0
 20
0.0
 30
0.0
  9
$EXTMIN
 10
1.000000000000000E+20
 20
1.000000000000000E+20
 30
1.000000000000000E+20
  9
$EXTMAX
 10
-1.000000000000000E+20
 20
-1.000000000000000E+20
 30
-1.000000000000000E+20
  9
$LIMMIN
 10
0.0
 20
0.0
  9
$LIMMAX
 10
12.0
 20
9.0
  9
$ORTHOMODE
 70
     0
  9
$REGENMODE
 70
     1
  9
$FILLMODE
 70
     1
  9
$QTEXTMODE
 70
     0
  9
$MIRRTEXT
 70
     0
  9
$LTSCALE
 40
1.0
  9
$ATTMODE
 70
     1
  9
$TEXTSIZE
 40
0.2
  9
$TRACEWID
 40
0.05
  9
$TEXTSTYLE
  7
Standard
  9
$CLAYER
  8
0
  9
$CELTYPE
  6
ByLayer
  9
$CECOLOR
 62
   256
  9
$CELTSCALE
 40
1.0
  9
$DISPSILH
 70
     0
  9
$DIMSCALE
 40
1.0
  9
$DIMASZ
 40
0.18
  9
$DIMEXO
 40
0.0625
  9
$DIMDLI
 40
0.38
  9
$DIMRND
 40
0.0
  9
$DIMDLE
 40
0.0
  9
$DIMEXE
 40
0.18
  9
$DIMTP
 40
0.0
  9
$DIMTM
 40
0.0
  9
$DIMTXT
 40
0.18
  9
$DIMCEN
 40
0.09
  9
$DIMTSZ
 40
0.0
  9
$DIMTOL
 70
     0
  9
$DIMLIM
 70
     0
  9
$DIMTIH
 70
     1
  9
$DIMTOH
 70
     1
  9
$DIMSE1
 70
     0
  9
$DIMSE2
 70
     0
  9
$DIMTAD
 70
     0
  9
$DIMZIN
 70
     0
  9
$DIMBLK
  1

  9
$DIMASO
 70
     1
  9
$DIMSHO
 70
     1
  9
$DIMPOST
  1

  9
$DIMAPOST
  1

  9
$DIMALT
 70
     0
  9
$DIMALTD
 70
     2
  9
$DIMALTF
 40
25.4
  9
$DIMLFAC
 40
1.0
  9
$DIMTOFL
 70
     0
  9
$DIMTVP
 40
0.0
  9
$DIMTIX
 70
     0
  9
$DIMSOXD
 70
     0
  9
$DIMSAH
 70
     0
  9
$DIMBLK1
  1

  9
$DIMBLK2
  1

  9
$DIMSTYLE
  2
Standard
  9
$DIMCLRD
 70
     0
  9
$DIMCLRE
 70
     0
  9
$DIMCLRT
 70
     0
  9
$DIMTFAC
 40
1.0
  9
$DIMGAP
 40
0.09
  9
$DIMJUST
 70
     0
  9
$DIMSD1
 70
     0
  9
$DIMSD2
 70
     0
  9
$DIMTOLJ
 70
     1
  9
$DIMTZIN
 70
     0
  9
$DIMALTZ
 70
     0
  9
$DIMALTTZ
 70
     0
  9
$DIMUPT
 70
     0
  9
$DIMDEC
 70
     4
  9
$DIMTDEC
 70
     4
  9
$DIMALTU
 70
     2
  9
$DIMALTTD
 70
     2
  9
$DIMTXSTY
  7
Standard
  9
$DIMAUNIT
 70
     0
  9
$DIMADEC
 70
     0
  9
$DIMALTRND
 40
0.0
  9
$DIMAZIN
 70
     0
  9
$DIMDSEP
 70
    46
  9
$DIMATFIT
 70
     3
  9
$DIMFRAC
 70
     0
  9
$DIMLDRBLK
  1

  9
$DIMLUNIT
 70
     2
  9
$DIMLWD
 70
    -2
  9
$DIMLWE
 70
    -2
  9
$DIMTMOVE
 70
     0
  9
$DIMFXL
 40
1.0
  9
$DIMFXLON
 70
     0
  9
$DIMJOGANG
 40
0.7853981633974483
  9
$DIMTFILL
 70
     0
  9
$DIMTFILLCLR
 70
     0
  9
$DIMARCSYM
 70
     0
  9
$DIMLTYPE
  6

  9
$DIMLTEX1
  6

  9
$DIMLTEX2
  6

  9
$DIMTXTDIRECTION
 70
     0
  9
$LUNITS
 70
     2
  9
$LUPREC
 70
     4
  9
$SKETCHINC
 40
0.1
  9
$FILLETRAD
 40
0.0
  9
$AUNITS
 70
     0
  9
$AUPREC
 70
     0
  9
$MENU
  1
.
  9
$ELEVATION
 40
0.0
  9
$PELEVATION
 40
0.0
  9
$THICKNESS
 40
0.0
  9
$LIMCHECK
 70
     0
  9
$CHAMFERA
 40
0.0
  9
$CHAMFERB
 40
0.0
  9
$CHAMFERC
 40
0.0
  9
$CHAMFERD
 40
0.0
  9
$SKPOLY
 70
     0
  9
$TDCREATE
 40
2460061.508032408
  9
$TDUCREATE
 40
2460061.133032408
  9
$TDUPDATE
 40
2460061.508032408
  9
$TDUUPDATE
 40
2460061.133032408
  9
$TDINDWG
 40
0.0000000000
  9
$TDUSRTIMER
 40
0.0000000000
  9
$USRTIMER
 70
     1
  9
$ANGBASE
 50
0.0
  9
$ANGDIR
 70
     0
  9
$PDMODE
 70
     0
  9
$PDSIZE
 40
0.0
  9
$PLINEWID
 40
0.0
  9
$SPLFRAME
 70
     0
  9
$SPLINETYPE
 70
     6
  9
$SPLINESEGS
 70
     8
  9
$HANDSEED
  5
C0
  9
$SURFTAB1
 70
     6
  9
$SURFTAB2
 70
     6
  9
$SURFTYPE
 70
     6
  9
$SURFU
 70
     6
  9
$SURFV
 70
     6
  9
$UCSBASE
  2

  9
$UCSNAME
  2

  9
$UCSORG
 10
0.0
 20
0.0
 30
0.0
  9
$UCSXDIR
 10
1.0
 20
0.0
 30
0.0
  9
$UCSYDIR
 10
0.0
 20
1.0
 30
0.0
  9
$UCSORTHOREF
  2

  9
$UCSORTHOVIEW
 70
     0
  9
$UCSORGTOP
 10
0.0
 20
0.0
 30
0.0
  9
$UCSORGBOTTOM
 10
0.0
 20
0.0
 30
0.0
  9
$UCSORGLEFT
 10
0.0
 20
0.0
 30
0.0
  9
$UCSORGRIGHT
 10
0.0
 20
0.0
 30
0.0
  9
$UCSORGFRONT
 10
0.0
 20
0.0
 30
0.0
  9
$UCSORGBACK
 10
0.0
 20
0.0
 30
0.0
  9
$PUCSBASE
  2

  9
$PUCSNAME
  2

  9
$PUCSORG
 10
0.0
 20
0.0
 30
0.0
  9
$PUCSXDIR
 10
1.0
 20
0.0
 30
0.0
  9
$PUCSYDIR
 10
0.0
 20
1.0
 30
0.0
  9
$PUCSORTHOREF
  2

  9
$PUCSORTHOVIEW
 70
     0
  9
$PUCSORGTOP
 10
0.0
 20
0.0
 30
0.0
  9
$PUCSORGBOTTOM
 10
0.0
 20
0.0
 30
0.0
  9
$PUCSORGLEFT
 10
0.0
 20
0.0
 30
0.0
  9
$PUCSORGRIGHT
 10
0.0
 20
0.0
 30
0.0
  9
$PUCSORGFRONT
 10
0.0
 20
0.0
 30
0.0
  9
$PUCSORGBACK
 10
0.0
 20
0.0
 30
0.0
  9
$USERI1
 70
     0
  9
$USERI2
 70
     0
  9
$USERI3
 70
     0
  9
$USERI4
 70
     0
  9
$USERI5
 70
     0
  9
$USERR1
 40
0.0
  9
$USERR2
 40
0.0
  9
$USERR3
 40
0.0
  9
$USERR4
 40
0.0
  9
$USERR5
 40
0.0
  9
$WORLDVIEW
 70
     1
  9
$SHADEDGE
 70
     3
  9
$SHADEDIF
 70
    70
  9
$TILEMODE
 70
     1
  9
$MAXACTVP
 70
    64
  9
$PINSBASE
 10
0.0
 20
0.0
 30
0.0
  9
$PLIMCHECK
 70
     0
  9
$PEXTMIN
 10
1.000000000000000E+20
 20
1.000000000000000E+20
 30
1.000000000000000E+20
  9
$PEXTMAX
 10
-1.000000000000000E+20
 20
-1.000000000000000E+20
 30
-1.000000000000000E+20
  9
$PLIMMIN
 10
0.0
 20
0.0
  9
$PLIMMAX
 10
12.0
 20
9.0
  9
$UNITMODE
 70
     0
  9
$VISRETAIN
 70
     1
  9
$PLINEGEN
 70
     0
  9
$PSLTSCALE
 70
     1
  9
$TREEDEPTH
 70
  3020
  9
$CMLSTYLE
  2
Standard
  9
$CMLJUST
 70
     0
  9
$CMLSCALE
 40
1.0
  9
$PROXYGRAPHICS
 70
     1
  9
$MEASUREMENT
 70
     0
  9
$CELWEIGHT
370
    -1
  9
$ENDCAPS
280
     0
  9
$JOINSTYLE
280
     0
  9
$LWDISPLAY
290
     1
  9
$INSUNITS
 70
     4
  9
$HYPERLINKBASE
  1

  9
$STYLESHEET
  1

  9
$XEDIT
290
     1
  9
$CEPSNTYPE
380
     0
  9
$PSTYLEMODE
290
     1
  9
$FINGERPRINTGUID
  2
{88A5EFEA-D371-B04D-8FCB-62DFBF3143C5}
  9
$VERSIONGUID
  2
{4F7A519D-3353-324B-9CC0-09D3B50DD949}
  9
$EXTNAMES
290
     1
  9
$PSVPSCALE
 40
0.0
  9
$OLESTARTUP
290
     0
  9
$SORTENTS
280
   127
  9
$INDEXCTL
280
     0
  9
$HIDETEXT
280
     1
  9
$XCLIPFRAME
280
     2
  9
$HALOGAP
280
     0
  9
$OBSCOLOR
 70
   257
  9
$OBSLTYPE
280
     0
  9
$INTERSECTIONDISPLAY
280
     0
  9
$INTERSECTIONCOLOR
 70
   257
  9
$DIMASSOC
280
     2
  9
$PROJECTNAME
  1

  9
$CAMERADISPLAY
290
     0
  9
$LENSLENGTH
 40
50.0
  9
$CAMERAHEIGHT
 40
0.0
  9
$STEPSPERSEC
 40
2.0
  9
$STEPSIZE
 40
6.0
  9
$3DDWFPREC
 40
2.0
  9
$PSOLWIDTH
 40
0.25
  9
$PSOLHEIGHT
 40
4.0
  9
$LOFTANG1
 40
1.570796326794896
  9
$LOFTANG2
 40
1.570796326794896
  9
$LOFTMAG1
 40
0.0
  9
$LOFTMAG2
 40
0.0
  9
$LOFTPARAM
 70
     7
  9
$LOFTNORMALS
280
     1
  9
$LATITUDE
 40
37.795
  9
$LONGITUDE
 40
-122.394
  9
$NORTHDIRECTION
 40
0.0
  9
$TIMEZONE
 70
 -8000
  9
$LIGHTGLYPHDISPLAY
280
     1
  9
$TILEMODELIGHTSYNCH
280
     1
  9
$CMATERIAL
347
11
  9
$SOLIDHIST
280
     0
  9
$SHOWHIST
280
     1
  9
$DWFFRAME
280
     2
  9
$DGNFRAME
280
     0
  9
$REALWORLDSCALE
290
     1
  9
$INTERFERECOLOR
 62
     1
  9
$INTERFEREOBJVS
345
33
  9
$INTERFEREVPVS
346
30
  9
$CSHADOW
280
     0
  9
$SHADOWPLANELOCATION
 40
0.0
  0
ENDSEC
  0
SECTION
  2
CLASSES
  0
CLASS
  1
ACDBDICTIONARYWDFLT
  2
AcDbDictionaryWithDefault
  3
ObjectDBX Classes
 90
        0
 91
        1
280
     0
281
     0
  0
CLASS
  1
MATERIAL
  2
AcDbMaterial
  3
ObjectDBX Classes
 90
     1153
 91
        3
280
     0
281
     0
  0
CLASS
  1
VISUALSTYLE
  2
AcDbVisualStyle
  3
ObjectDBX Classes
 90
     4095
 91
       24
280
     0
281
     0
  0
CLASS
  1
SCALE
  2
AcDbScale
  3
ObjectDBX Classes
 90
     1153
 91
       17
280
     0
281
     0
  0
CLASS
  1
TABLESTYLE
  2
AcDbTableStyle
  3
ObjectDBX Classes
 90
     4095
 91
        1
280
     0
281
     0
  0
CLASS
  1
MLEADERSTYLE
  2
AcDbMLeaderStyle
  3
ACDB_MLEADERSTYLE_CLASS
 90
     4095
 91
        1
280
     0
281
     0
  0
CLASS
  1
ACDBSECTIONVIEWSTYLE
  2
AcDbSectionViewStyle
  3
ObjectDBX Classes
 90
     1025
 91
        1
280
     0
281
     0
  0
CLASS
  1
ACDBDETAILVIEWSTYLE
  2
AcDbDetailViewStyle
  3
ObjectDBX Classes
 90
     1025
 91
        1
280
     0
281
     0
  0
CLASS
  1
DICTIONARYVAR
  2
AcDbDictionaryVar
  3
ObjectDBX Classes
 90
        0
 91
        5
280
     0
281
     0
  0
CLASS
  1
CELLSTYLEMAP
  2
AcDbCellStyleMap
  3
ObjectDBX Classes
 90
     1152
 91
        1
280
     0
281
     0
  0
ENDSEC
  0
SECTION
  2
TABLES
  0
TABLE
  2
VPORT
  5
8
330
0
100
AcDbSymbolTable
 70
     1
  0
VPORT
  5
57
330
8
100
AcDbSymbolTableRecord
100
AcDbViewportTableRecord
  2
*Active
 70
     0
 10
0.0
 20
0.0
 11
1.0
 21
1.0
 12
0.0
 22
0.0
 13
0.0
 23
0.0
 14
1.0
 24
1.0
 15
0.0
 25
0.0
 16
0.0
 26
0.0
 36
1.0
 17
338.666666582
 27
190.4999999523751
 37
0.0
 40
388.8749999028449
 41
1.776612021857632
 42
50.0
 43
0.0
 44
0.0
 50
0.0
 51
0.0
 71
     0
 72
   100
 73
     1
 74
     1
 75
     0
 76
     0
 77
     0
 78
     0
281
     0
 65
     1
110
0.0
120
0.0
130
0.0
111
1.0
121
0.0
131
0.0
112
0.0
122
1.0
132
0.0
 79
     0
146
0.0
 60
     3
 61
     5
292
     1
282
     1
141
0.0
142
0.0
 63
   250
421
  3355443
  0
ENDTAB
  0
TABLE
  2
LTYPE
  5
5
330
0
100
AcDbSymbolTable
 70
     1
  0
LTYPE
  5
5B
330
5
100
AcDbSymbolTableRecord
100
AcDbLinetypeTableRecord
  2
ByBlock
 70
     0
  3

 72
    65
 73
     0
 40
0.0
  0
LTYPE
  5
5C
330
5
100
AcDbSymbolTableRecord
100
AcDbLinetypeTableRecord
  2
ByLayer
 70
     0
  3

 72
    65
 73
     0
 40
0.0
  0
LTYPE
  5
5D
330
5
100
AcDbSymbolTableRecord
100
AcDbLinetypeTableRecord
  2
Continuous
 70
     0
  3
Solid line
 72
    65
 73
     0
 40
0.0
  0
ENDTAB
  0
TABLE
  2
LAYER
  5
2
330
0
100
AcDbSymbolTable
 70
     5
  0
LAYER
  5
54
330
2
100
AcDbSymbolTableRecord
100
AcDbLayerTableRecord
  2
0
 70
     0
 62
     7
  6
Continuous
370
    -3
390
F
347
21
348
0
  0
LAYER
  5
78
330
2
100
AcDbSymbolTableRecord
100
AcDbLayerTableRecord
  2
FLAME
 70
     0
 62
     7
  6
Continuous
370
     0
390
F
347
21
348
0
  0
LAYER
  5
80
330
2
100
AcDbSymbolTableRecord
100
AcDbLayerTableRecord
  2
text
 70
     0
 62
     7
  6
Continuous
370
     0
390
F
347
21
348
0
  0
LAYER
  5
84
330
2
100
AcDbSymbolTableRecord
100
AcDbLayerTableRecord
  2
shade
 70
     0
 62
     7
  6
Continuous
370
     0
390
F
347
21
348
0
  0
LAYER
  5
B5
330
2
100
AcDbSymbolTableRecord
100
AcDbLayerTableRecord
  2
Defpoints
 70
     0
 62
     7
  6
Continuous
290
     0
370
     0
390
F
347
21
348
0
  0
ENDTAB
  0
TABLE
  2
STYLE
  5
3
330
0
100
AcDbSymbolTable
 70
     2
  0
STYLE
  5
55
330
3
100
AcDbSymbolTableRecord
100
AcDbTextStyleTableRecord
  2
Standard
 70
     0
 40
0.0
 41
1.0
 50
0.0
 71
     0
 42
0.2
  3
txt
  4

  0
STYLE
  5
5A
330
3
100
AcDbSymbolTableRecord
100
AcDbTextStyleTableRecord
  2
Annotative
 70
     0
 40
0.0
 41
1.0
 50
0.0
 71
     0
 42
0.2
  3
txt
  4

1001
AcadAnnotative
1000
AnnotativeData
1002
{
1070
     1
1070
     1
1002
}
  0
ENDTAB
  0
TABLE
  2
VIEW
  5
6
330
0
100
AcDbSymbolTable
 70
     0
  0
ENDTAB
  0
TABLE
  2
UCS
  5
7
330
0
100
AcDbSymbolTable
 70
     0
  0
ENDTAB
  0
TABLE
  2
APPID
  5
9
330
0
100
AcDbSymbolTable
 70
     2
  0
APPID
  5
56
330
9
100
AcDbSymbolTableRecord
100
AcDbRegAppTableRecord
  2
ACAD
 70
     0
  0
APPID
  5
5E
330
9
100
AcDbSymbolTableRecord
100
AcDbRegAppTableRecord
  2
AcadAnnotative
 70
     0
  0
ENDTAB
  0
TABLE
  2
DIMSTYLE
  5
A
330
0
100
AcDbSymbolTable
 70
     2
100
AcDbDimStyleTable
 71
     0
  0
DIMSTYLE
105
58
330
A
100
AcDbSymbolTableRecord
100
AcDbDimStyleTableRecord
  2
Standard
 70
     0
340
55
  0
DIMSTYLE
105
59
330
A
100
AcDbSymbolTableRecord
100
AcDbDimStyleTableRecord
  2
Annotative
 70
     0
340
55
1001
AcadAnnotative
1000
AnnotativeData
1002
{
1070
     1
1070
     1
1002
}
  0
ENDTAB
  0
TABLE
  2
BLOCK_RECORD
  5
1
330
0
100
AcDbSymbolTable
 70
     1
  0
BLOCK_RECORD
  5
70
330
1
100
AcDbSymbolTableRecord
100
AcDbBlockTableRecord
  2
*Model_Space
340
73
 70
     0
280
     1
281
     0
  0
BLOCK_RECORD
  5
6C
330
1
100
AcDbSymbolTableRecord
100
AcDbBlockTableRecord
  2
*Paper_Space
340
6F
 70
     0
280
     1
281
     0
  0
BLOCK_RECORD
  5
74
330
1
100
AcDbSymbolTableRecord
100
AcDbBlockTableRecord
  2
*Paper_Space0
340
77
 70
     0
280
     1
281
     0
  0
ENDTAB
  0
ENDSEC
  0
SECTION
  2
BLOCKS
  0
BLOCK
  5
71
330
70
100
AcDbEntity
  8
0
100
AcDbBlockBegin
  2
*Model_Space
 70
     0
 10
0.0
 20
0.0
 30
0.0
  3
*Model_Space
  1

  0
ENDBLK
  5
72
330
70
100
AcDbEntity
  8
0
100
AcDbBlockEnd
  0
BLOCK
  5
6D
330
6C
100
AcDbEntity
 67
     1
  8
0
100
AcDbBlockBegin
  2
*Paper_Space
 70
     0
 10
0.0
 20
0.0
 30
0.0
  3
*Paper_Space
  1

  0
ENDBLK
  5
6E
330
6C
100
AcDbEntity
 67
     1
  8
0
100
AcDbBlockEnd
  0
BLOCK
  5
75
330
74
100
AcDbEntity
 67
     1
  8
0
100
AcDbBlockBegin
  2
*Paper_Space0
 70
     0
 10
0.0
 20
0.0
 30
0.0
  3
*Paper_Space0
  1

  0
ENDBLK
  5
76
330
74
100
AcDbEntity
 67
     1
  8
0
100
AcDbBlockEnd
  0
ENDSEC
  0
SECTION
  2
ENTITIES
  0
LINE
  5
79
330
70
100
AcDbEntity
  8
FLAME
 62
     2
420
 16776960
370
    25
100
AcDbLine
 10
396.3939392948423
 20
257.8484847840211
 30
0.0
 11
396.3939392948423
 21
123.1515151207282
 31
0.0
  0
LINE
  5
7A
330
70
100
AcDbEntity
  8
FLAME
 62
     2
420
 16776960
370
    25
100
AcDbLine
 10
280.9393938691571
 20
123.1515151207282
 30
0.0
 11
280.9393938691571
 21
257.8484847840211
 31
0.0
  0
LINE
  5
7B
330
70
100
AcDbEntity
  8
FLAME
 62
     2
420
 16776960
370
    25
100
AcDbLine
 10
396.3939392948423
 20
123.1515151207282
 30
0.0
 11
280.9393938691571
 21
123.1515151207282
 31
0.0
  0
LINE
  5
7C
330
70
100
AcDbEntity
  8
FLAME
 62
     2
420
 16776960
370
    25
100
AcDbLine
 10
396.3939392948423
 20
129.5656565332635
 30
0.0
 11
280.9393938691571
 21
129.5656565332635
 31
0.0
  0
LINE
  5
7D
330
70
100
AcDbEntity
  8
FLAME
 62
     2
420
 16776960
370
    25
100
AcDbLine
 10
396.3939392948423
 20
135.9797979457993
 30
0.0
 11
280.9393938691571
 21
135.9797979457993
 31
0.0
  0
LINE
  5
7E
330
70
100
AcDbEntity
  8
FLAME
 62
     2
420
 16776960
370
    25
100
AcDbLine
 10
396.3939392948423
 20
142.3939393583359
 30
0.0
 11
280.9393938691571
 21
142.3939393583359
 31
0.0
  0
LINE
  5
7F
330
70
100
AcDbEntity
  8
FLAME
 62
     2
420
 16776960
370
    25
100
AcDbLine
 10
396.3939392948423
 20
257.8484847840211
 30
0.0
 11
280.9393938691571
 21
257.8484847840211
 31
0.0
  0
MTEXT
  5
81
330
70
100
AcDbEntity
  8
text
100
AcDbMText
 10
284.9320696648239
 20
131.0284470124631
 30
0.0
 40
0.2
 41
0.0
 46
0.0
 71
     7
 72
     1
  1
\C4;\c16776960;\FMS PMincho|b0|i0|c128;\H3.207070;\W1.000000;KP172C
 73
     1
 44
1.0
  0
MTEXT
  5
82
330
70
100
AcDbEntity
  8
text
100
AcDbMText
 10
284.9681139763383
 20
138.2693271715145
 30
0.0
 40
0.2
 41
0.0
 46
0.0
 71
     7
 72
     1
  1
\C4;\c16776960;\FMS PMincho|b0|i0|c128;\H3.207070;\W1.000000;ペンダント　172C (XL)
 73
     1
 44
1.0
  0
MTEXT
  5
83
330
70
100
AcDbEntity
  8
text
100
AcDbMText
 10
284.6812021179573
 20
125.8039166453882
 30
0.0
 40
0.2
 41
0.0
 46
0.0
 71
     7
 72
     1
  1
\C4;\c16776960;\FMS PMincho|b0|i0|c128;\H3.207070;\W0.827175;E26 LED電球(100W形相当　電球色　全方向/広配光タイプ）
 73
     1
 44
1.0
  0
SPLINE
  5
85
330
70
100
AcDbEntity
  8
shade
 62
     6
420
 16711935
370
    25
100
AcDbSpline
210
0.0
220
0.0
230
1.0
 70
     8
 71
     3
 72
    92
 73
    88
 74
     0
 42
0.0000000001
 43
0.0000000001
 40
0.0
 40
0.0
 40
0.0
 40
0.0
 40
1.0
 40
1.0
 40
1.0
 40
2.0
 40
2.0
 40
2.0
 40
3.0
 40
3.0
 40
3.0
 40
4.0
 40
4.0
 40
4.0
 40
5.0
 40
5.0
 40
5.0
 40
6.0
 40
6.0
 40
6.0
 40
7.0
 40
7.0
 40
7.0
 40
8.0
 40
8.0
 40
8.0
 40
9.0
 40
9.0
 40
9.0
 40
10.0
 40
10.0
 40
10.0
 40
11.0
 40
11.0
 40
11.0
 40
12.0
 40
12.0
 40
12.0
 40
13.0
 40
13.0
 40
13.0
 40
14.0
 40
14.0
 40
14.0
 40
15.0
 40
15.0
 40
15.0
 40
16.0
 40
16.0
 40
16.0
 40
17.0
 40
17.0
 40
17.0
 40
18.0
 40
18.0
 40
18.0
 40
19.0
 40
19.0
 40
19.0
 40
20.0
 40
20.0
 40
20.0
 40
21.0
 40
21.0
 40
21.0
 40
22.0
 40
22.0
 40
22.0
 40
23.0
 40
23.0
 40
23.0
 40
24.0
 40
24.0
 40
24.0
 40
25.0
 40
25.0
 40
25.0
 40
26.0
 40
26.0
 40
26.0
 40
27.0
 40
27.0
 40
27.0
 40
28.0
 40
28.0
 40
28.0
 40
29.0
 40
29.0
 40
29.0
 40
29.0
 10
327.5628392145826
 20
199.0716264952133
 30
0.0
 10
327.6184139272896
 20
199.2993431262327
 30
0.0
 10
328.1055258114002
 20
200.7504547175942
 30
0.0
 10
329.1938184228865
 20
201.9242730742498
 30
0.0
 10
330.2261503298729
 20
203.0377329377067
 30
0.0
 10
331.7994263380107
 20
203.9016835724444
 30
0.0
 10
332.0543158119011
 20
203.1625551448501
 30
0.0
 10
332.1385328970061
 20
202.9183424641884
 30
0.0
 10
332.0788239448104
 20
202.4991243424612
 30
0.0
 10
331.9679223014946
 20
202.1363035429187
 30
0.0
 10
331.775189389767
 20
201.5057672674207
 30
0.0
 10
331.4278442770625
 20
201.0455622232105
 30
0.0
 10
331.0280046989324
 20
200.6131655148994
 30
0.0
 10
330.6287132300935
 20
200.1813615459631
 30
0.0
 10
330.1770711184321
 20
199.777289724572
 30
0.0
 10
329.6975175728484
 20
199.4196739962933
 30
0.0
 10
329.2660154990724
 20
199.0978915180047
 30
0.0
 10
328.811915232452
 20
198.8137217167983
 30
0.0
 10
328.3514462433928
 20
198.539571648019
 30
0.0
 10
328.1420839294187
 20
198.4149233130709
 30
0.0
 10
327.9314050314565
 20
198.2923463228004
 30
0.0
 10
327.7164409267483
 20
198.1769919900989
 30
0.0
 10
327.3257082337148
 20
197.9673164764613
 30
0.0
 10
326.9208176227973
 20
197.7815039404779
 30
0.0
 10
326.5513680953865
 20
197.5373127515735
 30
0.0
 10
326.1438592818485
 20
197.267965914507
 30
0.0
 10
325.7794696759969
 20
196.9275929966636
 30
0.0
 10
325.46278765459
 20
196.5553259755583
 30
0.0
 10
325.1910922738619
 20
196.235941788288
 30
0.0
 10
324.9545128996204
 20
195.8930813854417
 30
0.0
 10
324.7370675987588
 20
195.5280166555175
 30
0.0
 10
324.5124133204157
 20
195.1508489120337
 30
0.0
 10
324.3081828524475
 20
194.7499801532558
 30
0.0
 10
324.2230156247605
 20
194.3345251369107
 30
0.0
 10
324.1724315646469
 20
194.0877705801707
 30
0.0
 10
324.1638485447242
 20
193.8358705394919
 30
0.0
 10
324.1776580766327
 20
193.5640431034981
 30
0.0
 10
324.1848710502224
 20
193.4220626129405
 30
0.0
 10
324.1981930833071
 20
193.2746455984657
 30
0.0
 10
324.2683731728823
 20
193.1712485319419
 30
0.0
 10
324.3649909503707
 20
193.0289005408052
 30
0.0
 10
324.5693738587059
 20
192.9699851490875
 30
0.0
 10
324.7521865434261
 20
192.8993136149325
 30
0.0
 10
324.9334487628094
 20
192.8292414580231
 30
0.0
 10
325.0935050884738
 20
192.7476117247444
 30
0.0
 10
325.2662385174312
 20
192.7029163291612
 30
0.0
 10
325.5039555704525
 20
192.6414061872778
 30
0.0
 10
325.7656823888179
 20
192.6498477339755
 30
0.0
 10
326.0221971767153
 20
192.6575937851362
 30
0.0
 10
326.3454750961001
 20
192.6673559018575
 30
0.0
 10
326.660474847858
 20
192.6760133764235
 30
0.0
 10
326.9747049731432
 20
192.7180237859725
 30
0.0
 10
327.5083100314883
 20
192.7893631173739
 30
0.0
 10
328.039695747813
 20
192.956881014344
 30
0.0
 10
328.5168605381077
 20
193.2165709023957
 30
0.0
 10
329.0325309432829
 20
193.4972169025181
 30
0.0
 10
329.4848764406819
 20
193.8855110610359
 30
0.0
 10
329.8775862676241
 20
194.3194176800994
 30
0.0
 10
330.1527650289548
 20
194.6234637664509
 30
0.0
 10
330.3986623529338
 20
194.9499058180935
 30
0.0
 10
330.6335449269151
 20
195.2862968257205
 30
0.0
 10
330.8800299547788
 20
195.6393044817725
 30
0.0
 10
331.1143851687462
 20
196.0032682634485
 30
0.0
 10
331.2987884899503
 20
196.389143603423
 30
0.0
 10
331.6623177549083
 20
197.1498510451116
 30
0.0
 10
331.8317167633227
 20
197.9957143477261
 30
0.0
 10
332.0940616899503
 20
198.8004267335188
 30
0.0
 10
332.2321522549689
 20
199.2240033944374
 30
0.0
 10
332.3959949404561
 20
199.6361785502004
 30
0.0
 10
332.556350685093
 20
200.0544046622905
 30
0.0
 10
332.7233613022196
 20
200.4899874425225
 30
0.0
 10
332.8865895520789
 20
200.9321338383081
 30
0.0
 10
333.1371931733898
 20
201.3193650513968
 30
0.0
 10
333.3394003406995
 20
201.6318143539232
 30
0.0
 10
333.5984937757099
 20
201.9085107923285
 30
0.0
 10
333.8688555436253
 20
202.1714760545787
 30
0.0
 10
334.1904374557158
 20
202.4842601900644
 30
0.0
 10
334.5279617178215
 20
202.7776175640084
 30
0.0
 10
334.918839863164
 20
202.9974205974915
 30
0.0
 10
335.2469713715409
 20
203.1819392301723
 30
0.0
 10
335.6127021250474
 20
203.3146230663845
 30
0.0
 10
335.9539305475248
 20
203.4289952735649
 30
0.0
 10
336.305662619888
 20
203.5468880714629
 30
0.0
 10
336.6313606894144
 20
203.6453245571268
 30
0.0
 10
337.0709353327033
 20
203.7266330530137
 30
0.0
 10
337.7908170305953
 20
203.8597901833452
 30
0.0
 10
338.8161144520381
 20
203.947010232635
 30
0.0
 10
338.9511568846718
 20
203.9472606317838
 30
0.0
  0
LINE
  5
86
330
70
100
AcDbEntity
  8
shade
 62
     6
420
 16711935
370
    25
100
AcDbLine
 10
335.3733659169494
 20
203.2187631589327
 30
0.0
 11
331.6399951130861
 21
203.3965164579107
 31
0.0
  0
SPLINE
  5
87
330
70
100
AcDbEntity
  8
shade
 62
     6
420
 16711935
370
    25
100
AcDbSpline
210
0.0
220
0.0
230
1.0
 70
     8
 71
     3
 72
   140
 73
   136
 74
     0
 42
0.0000000001
 43
0.0000000001
 40
0.0
 40
0.0
 40
0.0
 40
0.0
 40
1.0
 40
1.0
 40
1.0
 40
2.0
 40
2.0
 40
2.0
 40
3.0
 40
3.0
 40
3.0
 40
4.0
 40
4.0
 40
4.0
 40
5.0
 40
5.0
 40
5.0
 40
6.0
 40
6.0
 40
6.0
 40
7.0
 40
7.0
 40
7.0
 40
8.0
 40
8.0
 40
8.0
 40
9.0
 40
9.0
 40
9.0
 40
10.0
 40
10.0
 40
10.0
 40
11.0
 40
11.0
 40
11.0
 40
12.0
 40
12.0
 40
12.0
 40
13.0
 40
13.0
 40
13.0
 40
14.0
 40
14.0
 40
14.0
 40
15.0
 40
15.0
 40
15.0
 40
16.0
 40
16.0
 40
16.0
 40
17.0
 40
17.0
 40
17.0
 40
18.0
 40
18.0
 40
18.0
 40
19.0
 40
19.0
 40
19.0
 40
20.0
 40
20.0
 40
20.0
 40
21.0
 40
21.0
 40
21.0
 40
22.0
 40
22.0
 40
22.0
 40
23.0
 40
23.0
 40
23.0
 40
24.0
 40
24.0
 40
24.0
 40
25.0
 40
25.0
 40
25.0
 40
26.0
 40
26.0
 40
26.0
 40
27.0
 40
27.0
 40
27.0
 40
28.0
 40
28.0
 40
28.0
 40
29.0
 40
29.0
 40
29.0
 40
30.0
 40
30.0
 40
30.0
 40
31.0
 40
31.0
 40
31.0
 40
32.0
 40
32.0
 40
32.0
 40
33.0
 40
33.0
 40
33.0
 40
34.0
 40
34.0
 40
34.0
 40
35.0
 40
35.0
 40
35.0
 40
36.0
 40
36.0
 40
36.0
 40
37.0
 40
37.0
 40
37.0
 40
38.0
 40
38.0
 40
38.0
 40
39.0
 40
39.0
 40
39.0
 40
40.0
 40
40.0
 40
40.0
 40
41.0
 40
41.0
 40
41.0
 40
42.0
 40
42.0
 40
42.0
 40
43.0
 40
43.0
 40
43.0
 40
44.0
 40
44.0
 40
44.0
 40
45.0
 40
45.0
 40
45.0
 40
45.0
 10
321.1084733898027
 20
191.9692213288653
 30
0.0
 10
321.0927073099455
 20
192.23850339263
 30
0.0
 10
321.1103520922756
 20
192.5101288491187
 30
0.0
 10
321.1490633750094
 20
192.7774323442386
 30
0.0
 10
321.2263381151022
 20
193.311018592437
 30
0.0
 10
321.3875573804632
 20
193.8273829486256
 30
0.0
 10
321.5604613497021
 20
194.3395363671695
 30
0.0
 10
321.7510150469759
 20
194.903969490965
 30
0.0
 10
321.9557607096598
 20
195.4632881093217
 30
0.0
 10
322.1981632387799
 20
196.0016653931504
 30
0.0
 10
322.37425731832
 20
196.3927712639739
 30
0.0
 10
322.5702242130608
 20
196.7728256769611
 30
0.0
 10
322.787833502538
 20
197.1526893735041
 30
0.0
 10
322.9482996169709
 20
197.4328026514871
 30
0.0
 10
323.1205341233726
 20
197.712812224421
 30
0.0
 10
323.3091778625252
 20
197.9512410308082
 30
0.0
 10
323.4187300206796
 20
198.089705155952
 30
0.0
 10
323.5338162578718
 20
198.2141460021051
 30
0.0
 10
323.6725795615641
 20
198.3691722888101
 30
0.0
 10
323.7670402848706
 20
198.4747037570359
 30
0.0
 10
323.8724728911206
 20
198.5944084284084
 30
0.0
 10
323.9742714572831
 20
198.5952663903426
 30
0.0
 10
324.1041421966055
 20
198.5963609455358
 30
0.0
 10
324.2280982863832
 20
198.4040243277072
 30
0.0
 10
324.2896765235963
 20
198.2321457236628
 30
0.0
 10
324.3576784981191
 20
198.0423370350992
 30
0.0
 10
324.3496095014388
 20
197.8774772813512
 30
0.0
 10
324.3513859698612
 20
197.7045931093923
 30
0.0
 10
324.3530243368881
 20
197.5451488312081
 30
0.0
 10
324.363036910042
 20
197.3788792652967
 30
0.0
 10
324.3583830611616
 20
197.2147847509825
 30
0.0
 10
324.352825889255
 20
197.0188391051566
 30
0.0
 10
324.3263561531529
 20
196.8259948228168
 30
0.0
 10
324.3035300216678
 20
196.6324213718046
 30
0.0
 10
324.2666204407559
 20
196.3194154225086
 30
0.0
 10
324.2392376114547
 20
196.0045029521521
 30
0.0
 10
324.1869671788601
 20
195.6937887149556
 30
0.0
 10
324.1462672315531
 20
195.4518536008144
 30
0.0
 10
324.0904783495003
 20
195.2124638047406
 30
0.0
 10
324.0292648242309
 20
194.9743987706176
 30
0.0
 10
323.8463951568555
 20
194.263201802194
 30
0.0
 10
323.6151127400256
 20
193.5638277990847
 30
0.0
 10
323.3299784624575
 20
192.8883433042945
 30
0.0
 10
323.1181363716199
 20
192.3864883575022
 30
0.0
 10
322.8765689727637
 20
191.8978200115753
 30
0.0
 10
322.6439589371374
 20
191.4046581269961
 30
0.0
 10
322.4823767825872
 20
191.0620840861316
 30
0.0
 10
322.325116879986
 20
190.7173417502402
 30
0.0
 10
322.1914210935592
 20
190.3632555028906
 30
0.0
 10
322.1005965106734
 20
190.122711379715
 30
0.0
 10
322.0206467593503
 20
189.8778550445984
 30
0.0
 10
321.9514390011606
 20
189.6301629541222
 30
0.0
 10
321.868942274185
 20
189.3349101198093
 30
0.0
 10
321.8017088578872
 20
189.0356279573751
 30
0.0
 10
321.738582599286
 20
188.7356512360392
 30
0.0
 10
321.693563321568
 20
188.5217191001882
 30
0.0
 10
321.6506329470811
 20
188.3074337112119
 30
0.0
 10
321.6151629926467
 20
188.0916258765035
 30
0.0
 10
321.5734182928314
 20
187.8376409639653
 30
0.0
 10
321.54200702781
 20
187.5815473104315
 30
0.0
 10
321.5328836119466
 20
187.3242765562675
 30
0.0
 10
321.5229351896368
 20
187.0437414859591
 30
0.0
 10
321.5394877295491
 20
186.7618068055371
 30
0.0
 10
321.5740731131874
 20
186.4837501178034
 30
0.0
 10
321.6299418253021
 20
186.0345814979348
 30
0.0
 10
321.7328666823184
 20
185.5955323793805
 30
0.0
 10
321.8894781795086
 20
185.1614428008438
 30
0.0
 10
321.9986691537652
 20
184.8587915597424
 30
0.0
 10
322.1339572385482
 20
184.5585511542588
 30
0.0
 10
322.3488724298568
 20
184.3324315002429
 30
0.0
 10
322.5196346981909
 20
184.152766652932
 30
0.0
 10
322.7406671575757
 20
184.0198957241366
 30
0.0
 10
322.9659693918957
 20
183.9007974642266
 30
0.0
 10
323.2253615274888
 20
183.763678753091
 30
0.0
 10
323.4904132873003
 20
183.6448158356094
 30
0.0
 10
323.7681954068399
 20
183.571933569015
 30
0.0
 10
324.0540270693228
 20
183.4969393272697
 30
0.0
 10
324.3533375796618
 20
183.4706291927727
 30
0.0
 10
324.65270080249
 20
183.4554608237517
 30
0.0
 10
324.9311811067024
 20
183.4413505667221
 30
0.0
 10
325.2097070256975
 20
183.4368818426683
 30
0.0
 10
325.4823535157031
 20
183.4760148172037
 30
0.0
 10
325.9639131894017
 20
183.545133119256
 30
0.0
 10
326.4271313335523
 20
183.7502717466546
 30
0.0
 10
326.8502159498552
 20
184.0028658731242
 30
0.0
 10
327.1565767783206
 20
184.1857724191587
 30
0.0
 10
327.4418940406615
 20
184.3935617249749
 30
0.0
 10
327.7141514110701
 20
184.6194858502057
 30
0.0
 10
328.0572594991968
 20
184.9042031915598
 30
0.0
 10
328.3796259897614
 20
185.2177220825768
 30
0.0
 10
328.6603666100269
 20
185.5649697224858
 30
0.0
 10
328.9040422261089
 20
185.8663717159053
 30
0.0
 10
329.1163577766074
 20
186.1931842477597
 30
0.0
 10
329.2983895026363
 20
186.5349801927655
 30
0.0
 10
329.5308631113468
 20
186.9714894678906
 30
0.0
 10
329.7139438956492
 20
187.4324366436998
 30
0.0
 10
329.8812033596376
 20
187.898395496631
 30
0.0
 10
330.2474610023534
 20
188.9187323255356
 30
0.0
 10
330.5378548238258
 20
189.9631003332043
 30
0.0
 10
330.9101846220584
 20
190.9779146920832
 30
0.0
 10
331.1790108049146
 20
191.7106217482467
 30
0.0
 10
331.4905501943508
 20
192.4279224938564
 30
0.0
 10
331.7267136828365
 20
193.1754014727246
 30
0.0
 10
331.9915316845905
 20
194.0135745993286
 30
0.0
 10
332.161572892355
 20
194.8896934905975
 30
0.0
 10
332.4959433459465
 20
195.4914499145699
 30
0.0
 10
332.5181387206805
 20
195.5313942612881
 30
0.0
 10
332.5410581712369
 20
195.5701296982864
 30
0.0
 10
332.5696643092606
 20
195.6143172266148
 30
0.0
 10
332.6752019025829
 20
195.7773397705997
 30
0.0
 10
332.8581420469443
 20
196.0145717343623
 30
0.0
 10
333.0197982316051
 20
196.2294286527806
 30
0.0
 10
333.3063551832854
 20
196.6102909359944
 30
0.0
 10
333.5260331495612
 20
196.9208457974396
 30
0.0
 10
333.7695244128412
 20
197.2126443211052
 30
0.0
 10
333.955144876861
 20
197.4350908131608
 30
0.0
 10
334.1546043332794
 20
197.6466371423375
 30
0.0
 10
334.3627282148556
 20
197.8489638206369
 30
0.0
 10
334.6229658620326
 20
198.1019526575135
 30
0.0
 10
334.8967502920051
 20
198.3405266191032
 30
0.0
 10
335.1858637352596
 20
198.5600827703801
 30
0.0
 10
335.4696531870091
 20
198.775595819845
 30
0.0
 10
335.7682122861152
 20
198.9727850315858
 30
0.0
 10
336.0861679317598
 20
199.1341187456667
 30
0.0
 10
336.3658109294353
 20
199.2760122583343
 30
0.0
 10
336.660457656744
 20
199.390170617687
 30
0.0
 10
336.9632973876721
 20
199.4695492062075
 30
0.0
 10
337.3187860596836
 20
199.5627278288855
 30
0.0
 10
337.6855640826838
 20
199.6079825083505
 30
0.0
 10
338.0522366811352
 20
199.6409031846365
 30
0.0
 10
338.2979299829344
 20
199.6629620723064
 30
0.0
 10
338.5435759509313
 20
199.6794832044748
 30
0.0
 10
338.7896285536703
 20
199.6837416358558
 30
0.0
 10
338.8434545905968
 20
199.6846732028609
 30
0.0
 10
338.8973000870972
 20
199.6850179361933
 30
0.0
 10
338.9511568846718
 20
199.685049087854
 30
0.0
  0
SPLINE
  5
88
330
70
100
AcDbEntity
  8
shade
 62
     6
420
 16711935
370
    25
100
AcDbSpline
210
0.0
220
0.0
230
1.0
 70
     8
 71
     3
 72
    41
 73
    37
 74
     0
 42
0.0000000001
 43
0.0000000001
 40
0.0
 40
0.0
 40
0.0
 40
0.0
 40
1.0
 40
1.0
 40
1.0
 40
2.0
 40
2.0
 40
2.0
 40
3.0
 40
3.0
 40
3.0
 40
4.0
 40
4.0
 40
4.0
 40
5.0
 40
5.0
 40
5.0
 40
6.0
 40
6.0
 40
6.0
 40
7.0
 40
7.0
 40
7.0
 40
8.0
 40
8.0
 40
8.0
 40
9.0
 40
9.0
 40
9.0
 40
10.0
 40
10.0
 40
10.0
 40
11.0
 40
11.0
 40
11.0
 40
12.0
 40
12.0
 40
12.0
 40
12.0
 10
332.5304066369943
 20
195.5513038246943
 30
0.0
 10
332.5758181889501
 20
195.763669173246
 30
0.0
 10
332.6290972603173
 20
195.9745971894003
 30
0.0
 10
332.6856754711592
 20
196.1850218859541
 30
0.0
 10
332.7672481744987
 20
196.4884056637352
 30
0.0
 10
332.8556787908065
 20
196.790743192302
 30
0.0
 10
332.9812665145662
 20
197.0769011113317
 30
0.0
 10
333.0903493771301
 20
197.3254518774103
 30
0.0
 10
333.2274646584844
 20
197.5617962684118
 30
0.0
 10
333.3635160123449
 20
197.797950878159
 30
0.0
 10
333.5077642160263
 20
198.0483333791862
 30
0.0
 10
333.6508164308904
 20
198.2985025421186
 30
0.0
 10
333.8098005358649
 20
198.5392531523322
 30
0.0
 10
334.0401452811387
 20
198.8880656200236
 30
0.0
 10
334.3039338950149
 20
199.2171068717744
 30
0.0
 10
334.5984247852097
 20
199.5137909476899
 30
0.0
 10
334.8061120192022
 20
199.7230249075549
 30
0.0
 10
335.0290695138756
 20
199.9161655163948
 30
0.0
 10
335.2596031367553
 20
200.1007569801098
 30
0.0
 10
335.4830184548512
 20
200.2796487186368
 30
0.0
 10
335.713549260407
 20
200.450511113767
 30
0.0
 10
335.9609072859829
 20
200.5930279090087
 30
0.0
 10
336.1413653116396
 20
200.6969998720296
 30
0.0
 10
336.3307793100699
 20
200.7858854202567
 30
0.0
 10
336.5239824612606
 20
200.8644837807113
 30
0.0
 10
336.7048583745842
 20
200.9380672090737
 30
0.0
 10
336.8890553361
 20
201.0026343088484
 30
0.0
 10
337.0766605501846
 20
201.0568827740213
 30
0.0
 10
337.2860670034041
 20
201.1174353484227
 30
0.0
 10
337.4997198681989
 20
201.1651317249968
 30
0.0
 10
337.7156578795263
 20
201.1924310678919
 30
0.0
 10
337.9190489455381
 20
201.2181441992815
 30
0.0
 10
338.12446731895
 20
201.2257617483506
 30
0.0
 10
338.3296665662698
 20
201.2316686953692
 30
0.0
 10
338.5369616949759
 20
201.2376359752646
 30
0.0
 10
338.7440331984928
 20
201.2418575308719
 30
0.0
 10
338.9511568846718
 20
201.2431392452149
 30
0.0
  0
SPLINE
  5
89
330
70
100
AcDbEntity
  8
shade
 62
     6
420
 16711935
370
    25
100
AcDbSpline
210
0.0
220
0.0
230
1.0
 70
     8
 71
     3
 72
    38
 73
    34
 74
     0
 42
0.0000000001
 43
0.0000000001
 40
0.0
 40
0.0
 40
0.0
 40
0.0
 40
1.0
 40
1.0
 40
1.0
 40
2.0
 40
2.0
 40
2.0
 40
3.0
 40
3.0
 40
3.0
 40
4.0
 40
4.0
 40
4.0
 40
5.0
 40
5.0
 40
5.0
 40
6.0
 40
6.0
 40
6.0
 40
7.0
 40
7.0
 40
7.0
 40
8.0
 40
8.0
 40
8.0
 40
9.0
 40
9.0
 40
9.0
 40
10.0
 40
10.0
 40
10.0
 40
11.0
 40
11.0
 40
11.0
 40
11.0
 10
327.6529489290447
 20
184.5691889725681
 30
0.0
 10
327.6457627677361
 20
184.565989154378
 30
0.0
 10
327.6386226596557
 20
184.5630332894876
 30
0.0
 10
327.6315245942801
 20
184.5603332110328
 30
0.0
 10
327.50278533007
 20
184.5113612595774
 30
0.0
 10
327.3878764055708
 20
184.5465326169402
 30
0.0
 10
327.2546866704292
 20
184.610826123348
 30
0.0
 10
327.1278846548392
 20
184.6720361422287
 30
0.0
 10
326.9845132594251
 20
184.7596419243004
 30
0.0
 10
326.8628297101782
 20
184.8687452626981
 30
0.0
 10
326.6205256928797
 20
185.0859987645363
 30
0.0
 10
326.4642168171917
 20
185.3884928838414
 30
0.0
 10
326.3265120890038
 20
185.6915463312639
 30
0.0
 10
326.1443882863414
 20
186.0923549816
 30
0.0
 10
325.9948065771828
 20
186.4941420002002
 30
0.0
 10
325.8606195704187
 20
186.9040951739339
 30
0.0
 10
325.7402301185565
 20
187.2718955971017
 30
0.0
 10
325.6322322625825
 20
187.6462691706386
 30
0.0
 10
325.5285355322848
 20
188.0211879947745
 30
0.0
 10
325.3463117473675
 20
188.6800238807102
 30
0.0
 10
325.1773699214321
 20
189.3405435109324
 30
0.0
 10
324.9967230295411
 20
189.9988759538183
 30
0.0
 10
324.8228992991518
 20
190.6323427124837
 30
0.0
 10
324.6382380213646
 20
191.2637843867441
 30
0.0
 10
324.4964253854131
 20
191.9134325003237
 30
0.0
 10
324.4324594287528
 20
192.206462545203
 30
0.0
 10
324.3772112339408
 20
192.5031967775455
 30
0.0
 10
324.3178149860296
 20
192.7862991793221
 30
0.0
 10
324.2970150318969
 20
192.8854387239895
 30
0.0
 10
324.2757063902896
 20
192.9829065587578
 30
0.0
 10
324.2550392428
 20
193.08243256413
 30
0.0
 10
324.2279760593977
 20
193.2127597192717
 30
0.0
 10
324.2020128675735
 20
193.3466160888965
 30
0.0
 10
324.1828864391775
 20
193.4815280502962
 30
0.0
  0
SPLINE
  5
8A
330
70
100
AcDbEntity
  8
shade
 62
     6
420
 16711935
370
    25
100
AcDbSpline
210
0.0
220
0.0
230
1.0
 70
     8
 71
     3
 72
     8
 73
     4
 74
     0
 42
0.0000000001
 43
0.0000000001
 40
0.0
 40
0.0
 40
0.0
 40
0.0
 40
1.0
 40
1.0
 40
1.0
 40
1.0
 10
329.3190233446357
 20
199.149930125281
 30
0.0
 10
327.5366964248348
 20
199.1233743459462
 30
0.0
 10
325.7603985075304
 20
198.9360895106569
 30
0.0
 10
324.0117246160448
 20
198.5903525012035
 30
0.0
  0
SPLINE
  5
8B
330
70
100
AcDbEntity
  8
shade
 62
     6
420
 16711935
370
    25
100
AcDbSpline
210
0.0
220
0.0
230
1.0
 70
     8
 71
     3
 72
   134
 73
   130
 74
     0
 42
0.0000000001
 43
0.0000000001
 40
0.0
 40
0.0
 40
0.0
 40
0.0
 40
1.0
 40
1.0
 40
1.0
 40
2.0
 40
2.0
 40
2.0
 40
3.0
 40
3.0
 40
3.0
 40
4.0
 40
4.0
 40
4.0
 40
5.0
 40
5.0
 40
5.0
 40
6.0
 40
6.0
 40
6.0
 40
7.0
 40
7.0
 40
7.0
 40
8.0
 40
8.0
 40
8.0
 40
9.0
 40
9.0
 40
9.0
 40
10.0
 40
10.0
 40
10.0
 40
11.0
 40
11.0
 40
11.0
 40
12.0
 40
12.0
 40
12.0
 40
13.0
 40
13.0
 40
13.0
 40
14.0
 40
14.0
 40
14.0
 40
15.0
 40
15.0
 40
15.0
 40
16.0
 40
16.0
 40
16.0
 40
17.0
 40
17.0
 40
17.0
 40
18.0
 40
18.0
 40
18.0
 40
19.0
 40
19.0
 40
19.0
 40
20.0
 40
20.0
 40
20.0
 40
21.0
 40
21.0
 40
21.0
 40
22.0
 40
22.0
 40
22.0
 40
23.0
 40
23.0
 40
23.0
 40
24.0
 40
24.0
 40
24.0
 40
25.0
 40
25.0
 40
25.0
 40
26.0
 40
26.0
 40
26.0
 40
27.0
 40
27.0
 40
27.0
 40
28.0
 40
28.0
 40
28.0
 40
29.0
 40
29.0
 40
29.0
 40
30.0
 40
30.0
 40
30.0
 40
31.0
 40
31.0
 40
31.0
 40
32.0
 40
32.0
 40
32.0
 40
33.0
 40
33.0
 40
33.0
 40
34.0
 40
34.0
 40
34.0
 40
35.0
 40
35.0
 40
35.0
 40
36.0
 40
36.0
 40
36.0
 40
37.0
 40
37.0
 40
37.0
 40
38.0
 40
38.0
 40
38.0
 40
39.0
 40
39.0
 40
39.0
 40
40.0
 40
40.0
 40
40.0
 40
41.0
 40
41.0
 40
41.0
 40
42.0
 40
42.0
 40
42.0
 40
43.0
 40
43.0
 40
43.0
 40
43.0
 10
319.8988766024038
 20
183.9919102536775
 30
0.0
 10
319.7427824690313
 20
184.3676818937487
 30
0.0
 10
319.6950284986
 20
184.4986969281541
 30
0.0
 10
319.6489871230647
 20
184.6301907766934
 30
0.0
 10
319.4300509745091
 20
185.2554708953266
 30
0.0
 10
319.2498399673387
 20
185.8915779436822
 30
0.0
 10
319.0791487355826
 20
186.5328132071058
 30
0.0
 10
318.954011378484
 20
187.0029163595592
 30
0.0
 10
318.8339905833246
 20
187.4757757566518
 30
0.0
 10
318.7517251401825
 20
187.951591566502
 30
0.0
 10
318.6590643110849
 20
188.4875333392639
 30
0.0
 10
318.6143035361684
 20
189.0272259002792
 30
0.0
 10
318.6124906646459
 20
189.5857348015355
 30
0.0
 10
318.6114767264688
 20
189.8981085669408
 30
0.0
 10
318.6238975780589
 20
190.2163683839267
 30
0.0
 10
318.7306281743663
 20
190.4953826150087
 30
0.0
 10
318.7848701081518
 20
190.6371814240688
 30
0.0
 10
318.8634704569651
 20
190.7688438440113
 30
0.0
 10
318.9877502124798
 20
190.8842398161553
 30
0.0
 10
319.0309515346541
 20
190.9243530152118
 30
0.0
 10
319.0796725349386
 20
190.9625006555378
 30
0.0
 10
319.1267350979428
 20
190.9675662724731
 30
0.0
 10
319.2114985834539
 20
190.9766898586165
 30
0.0
 10
319.2908822765959
 20
190.8784989146758
 30
0.0
 10
319.3560601589715
 20
190.7870255592678
 30
0.0
 10
319.4788587855657
 20
190.6146848509338
 30
0.0
 10
319.5512316405959
 20
190.466189285295
 30
0.0
 10
319.6131825541471
 20
190.3009541012259
 30
0.0
 10
319.6688618915636
 20
190.1524464354456
 30
0.0
 10
319.7161226010297
 20
189.9904168534292
 30
0.0
 10
319.7591166838901
 20
189.8287704437686
 30
0.0
 10
319.8989684013022
 20
189.3029648792563
 30
0.0
 10
319.9936758244066
 20
188.781213582229
 30
0.0
 10
320.0998024738705
 20
188.2576765111872
 30
0.0
 10
320.1782148137904
 20
187.8708578658678
 30
0.0
 10
320.2628610073796
 20
187.4830643511919
 30
0.0
 10
320.3569245119839
 20
187.0980489816196
 30
0.0
 10
320.4273845750827
 20
186.8096458719227
 30
0.0
 10
320.5031287336914
 20
186.5228015919116
 30
0.0
 10
320.5656867799049
 20
186.2331493785142
 30
0.0
 10
320.666261761063
 20
185.7674736155009
 30
0.0
 10
320.7327543288071
 20
185.2945401298336
 30
0.0
 10
320.8089106865486
 20
184.8235423064215
 30
0.0
 10
320.9665047298458
 20
183.8488836753596
 30
0.0
 10
321.1654810850242
 20
182.8825139432615
 30
0.0
 10
321.3491896126202
 20
181.9131937884443
 30
0.0
 10
321.5161273626766
 20
181.0323630079763
 30
0.0
 10
321.6704576490428
 20
180.1490959053148
 30
0.0
 10
321.8291598675419
 20
179.2665154413003
 30
0.0
 10
321.9431931455953
 20
178.6323494894656
 30
0.0
 10
322.0594836267251
 20
177.9985380451738
 30
0.0
 10
322.2387003780163
 20
177.3776511568214
 30
0.0
 10
322.3497524699711
 20
176.9929170997497
 30
0.0
 10
322.4849663058697
 20
176.6131456729175
 30
0.0
 10
322.6653404856092
 20
176.2585859190807
 30
0.0
 10
322.9266519810547
 20
175.7449284785226
 30
0.0
 10
323.2827454031256
 20
175.2841849605849
 30
0.0
 10
323.6608345460598
 20
174.8375504926871
 30
0.0
 10
323.9267960427297
 20
174.5233717499852
 30
0.0
 10
324.2036415090591
 20
174.2161744776327
 30
0.0
 10
324.5674452656382
 20
174.0204550964789
 30
0.0
 10
324.8438935695402
 20
173.8717312584579
 30
0.0
 10
325.17055352348
 20
173.7873772331782
 30
0.0
 10
325.4740559852164
 20
173.8250627643929
 30
0.0
 10
325.7613876425343
 20
173.8607403865057
 30
0.0
 10
326.0279637594117
 20
174.0057993236425
 30
0.0
 10
326.2917833639296
 20
174.1447958134385
 30
0.0
 10
326.6611624240687
 20
174.3394075552674
 30
0.0
 10
327.0251377950784
 20
174.5221348661306
 30
0.0
 10
327.3568419947224
 20
174.7587071018456
 30
0.0
 10
327.7114126170953
 20
175.0115877254504
 30
0.0
 10
328.0291094061027
 20
175.3259928832713
 30
0.0
 10
328.3055763036639
 20
175.6679263780783
 30
0.0
 10
328.5673155312632
 20
175.9916447313736
 30
0.0
 10
328.7921005808859
 20
176.3400366171192
 30
0.0
 10
329.0136600901775
 20
176.690824142287
 30
0.0
 10
329.2486284498198
 20
177.0628414374782
 30
0.0
 10
329.4799690335125
 20
177.4375531163078
 30
0.0
 10
329.6869198146579
 20
177.8254727579213
 30
0.0
 10
329.9098560740384
 20
178.2433564371626
 30
0.0
 10
330.1044891318465
 20
178.6765673267123
 30
0.0
 10
330.2828176896243
 20
179.1157874866797
 30
0.0
 10
330.463227813555
 20
179.5601345081544
 30
0.0
 10
330.6269505826421
 20
180.010631906995
 30
0.0
 10
330.7877601620495
 20
180.4620684167564
 30
0.0
 10
330.9597490507826
 20
180.9448883080275
 30
0.0
 10
331.1284056271171
 20
181.4287824207882
 30
0.0
 10
331.2882571462737
 20
181.9161612657149
 30
0.0
 10
331.4164998882942
 20
182.3071666174846
 30
0.0
 10
331.5390754864903
 20
182.7004148255981
 30
0.0
 10
331.6551102580782
 20
183.0940890195189
 30
0.0
 10
331.8053011205972
 20
183.6036454733533
 30
0.0
 10
331.9445336788231
 20
184.1139156110032
 30
0.0
 10
332.0908455845606
 20
184.6303855190129
 30
0.0
 10
332.1881723764523
 20
184.9739416978732
 30
0.0
 10
332.2886317233947
 20
185.3202412259075
 30
0.0
 10
332.4664782677429
 20
185.6240085827636
 30
0.0
 10
332.5659738866035
 20
185.7939501538681
 30
0.0
 10
332.6896901765612
 20
185.9505799917248
 30
0.0
 10
332.8071601299833
 20
186.1109364210267
 30
0.0
 10
332.9869424308748
 20
186.3563544788812
 30
0.0
 10
333.1520940132493
 20
186.6105012868316
 30
0.0
 10
333.3382360028181
 20
186.8492910045741
 30
0.0
 10
333.5946929136194
 20
187.1782832619497
 30
0.0
 10
333.8909936447927
 20
187.4781248154726
 30
0.0
 10
334.2050340727632
 20
187.7542013031695
 30
0.0
 10
334.3291936351604
 20
187.8633513769907
 30
0.0
 10
334.4561261052875
 20
187.9687867123143
 30
0.0
 10
334.5858410185467
 20
188.071101389461
 30
0.0
 10
334.7769029650473
 20
188.2218045035351
 30
0.0
 10
334.9740015459442
 20
188.3657372106084
 30
0.0
 10
335.1809562019473
 20
188.4933928274312
 30
0.0
 10
335.4921309553787
 20
188.6853344142833
 30
0.0
 10
335.8255881264323
 20
188.8404770807953
 30
0.0
 10
336.1641899987401
 20
188.9803208392642
 30
0.0
 10
336.3973161889652
 20
189.0766027718376
 30
0.0
 10
336.6328811084346
 20
189.1656326031841
 30
0.0
 10
336.8733885494529
 20
189.2405017900181
 30
0.0
 10
337.0981530314172
 20
189.3104702447282
 30
0.0
 10
337.3272341640574
 20
189.3680712155444
 30
0.0
 10
337.55906493307
 20
189.4085566043907
 30
0.0
 10
337.7900497078875
 20
189.4488942544217
 30
0.0
 10
338.0237640878148
 20
189.4722410105354
 30
0.0
 10
338.2576782229407
 20
189.4904294359714
 30
0.0
 10
338.4099358444966
 20
189.5022685084264
 30
0.0
 10
338.5622780997223
 20
189.5119220631831
 30
0.0
 10
338.714795812028
 20
189.5162839960923
 30
0.0
 10
338.7935475771105
 20
189.5185362585395
 30
0.0
 10
338.8723461211835
 20
189.519377710013
 30
0.0
 10
338.9511568846718
 20
189.5197760741438
 30
0.0
  0
SPLINE
  5
8C
330
70
100
AcDbEntity
  8
shade
 62
     6
420
 16711935
370
    25
100
AcDbSpline
210
0.0
220
0.0
230
1.0
 70
     8
 71
     3
 72
    50
 73
    46
 74
     0
 42
0.0000000001
 43
0.0000000001
 40
0.0
 40
0.0
 40
0.0
 40
0.0
 40
1.0
 40
1.0
 40
1.0
 40
2.0
 40
2.0
 40
2.0
 40
3.0
 40
3.0
 40
3.0
 40
4.0
 40
4.0
 40
4.0
 40
5.0
 40
5.0
 40
5.0
 40
6.0
 40
6.0
 40
6.0
 40
7.0
 40
7.0
 40
7.0
 40
8.0
 40
8.0
 40
8.0
 40
9.0
 40
9.0
 40
9.0
 40
10.0
 40
10.0
 40
10.0
 40
11.0
 40
11.0
 40
11.0
 40
12.0
 40
12.0
 40
12.0
 40
13.0
 40
13.0
 40
13.0
 40
14.0
 40
14.0
 40
14.0
 40
15.0
 40
15.0
 40
15.0
 40
15.0
 10
332.3857367321586
 20
185.4730471297421
 30
0.0
 10
332.4155894854394
 20
185.6783670947407
 30
0.0
 10
332.4521310840208
 20
185.8830504377334
 30
0.0
 10
332.4871106889597
 20
186.0877197341966
 30
0.0
 10
332.5410181477687
 20
186.4031378666874
 30
0.0
 10
332.5912158349286
 20
186.7185226383566
 30
0.0
 10
332.6528802656556
 20
187.0318070853213
 30
0.0
 10
332.7318588266978
 20
187.4330554959151
 30
0.0
 10
332.829647400108
 20
187.8308585400662
 30
0.0
 10
332.9163730989836
 20
188.2308635133506
 30
0.0
 10
332.9800397389271
 20
188.5245131805519
 30
0.0
 10
333.0377443204085
 20
188.8193495221625
 30
0.0
 10
333.0903620084242
 20
189.115157855026
 30
0.0
 10
333.1260658899837
 20
189.3158794389947
 30
0.0
 10
333.159427593061
 20
189.5170485607302
 30
0.0
 10
333.1949498843695
 20
189.7176926856936
 30
0.0
 10
333.2816557104567
 20
190.2074419098537
 30
0.0
 10
333.3812341468804
 20
190.6940632455925
 30
0.0
 10
333.4735259556152
 20
191.1841778808313
 30
0.0
 10
333.5254443277435
 20
191.4598898249958
 30
0.0
 10
333.5750567896211
 20
191.7367072510789
 30
0.0
 10
333.6569139482405
 20
192.0036258059557
 30
0.0
 10
333.7827578846716
 20
192.4139757645417
 30
0.0
 10
333.9848113987941
 20
192.8009299753079
 30
0.0
 10
334.2072710995616
 20
193.1713825257588
 30
0.0
 10
334.432259989712
 20
193.5460468262843
 30
0.0
 10
334.6781217083377
 20
193.9038321120836
 30
0.0
 10
334.9572263859101
 20
194.2401322137596
 30
0.0
 10
335.2088136338829
 20
194.5432758866281
 30
0.0
 10
335.487412008077
 20
194.8289620575552
 30
0.0
 10
335.8065431537726
 20
195.0548462689055
 30
0.0
 10
336.0770715724822
 20
195.2463289848213
 30
0.0
 10
336.3767268537045
 20
195.3948379935429
 30
0.0
 10
336.6762434669251
 20
195.5436746672826
 30
0.0
 10
336.9183461801545
 20
195.6639810574752
 30
0.0
 10
337.1603582922328
 20
195.7845015333125
 30
0.0
 10
337.4168478741855
 20
195.8627710720869
 30
0.0
 10
337.5889149454367
 20
195.9152785080721
 30
0.0
 10
337.7674975316074
 20
195.9487711152566
 30
0.0
 10
337.9468214801964
 20
195.9713996243495
 30
0.0
 10
338.1454746071962
 20
195.9964672414897
 30
0.0
 10
338.3450375318034
 20
196.0082024718838
 30
0.0
 10
338.5447403562245
 20
196.0121353097426
 30
0.0
 10
338.6801714971658
 20
196.0148024163301
 30
0.0
 10
338.8156669787889
 20
196.0138811592092
 30
0.0
 10
338.9511568846718
 20
196.012973999135
 30
0.0
  0
SPLINE
  5
8D
330
70
100
AcDbEntity
  8
shade
 62
     6
420
 16711935
370
    25
100
AcDbSpline
210
0.0
220
0.0
230
1.0
 70
     8
 71
     3
 72
     8
 73
     4
 74
     0
 42
0.0000000001
 43
0.0000000001
 40
0.0
 40
0.0
 40
0.0
 40
0.0
 40
1.0
 40
1.0
 40
1.0
 40
1.0
 10
323.2867349792721
 20
192.7870060029191
 30
0.0
 10
321.7866230361035
 20
192.3180189344358
 30
0.0
 10
320.3447032906116
 20
191.6799777933752
 30
0.0
 10
318.98876171912
 20
190.8851777133941
 30
0.0
  0
LINE
  5
8E
330
70
100
AcDbEntity
  8
shade
 62
     6
420
 16711935
370
    25
100
AcDbLine
 10
320.7632655411755
 20
185.1111451872249
 30
0.0
 11
318.4769607218704
 21
182.1507738685558
 31
0.0
  0
SPLINE
  5
8F
330
70
100
AcDbEntity
  8
shade
 62
     6
420
 16711935
370
    25
100
AcDbSpline
210
0.0
220
0.0
230
1.0
 70
     8
 71
     3
 72
    71
 73
    67
 74
     0
 42
0.0000000001
 43
0.0000000001
 40
0.0
 40
0.0
 40
0.0
 40
0.0
 40
1.0
 40
1.0
 40
1.0
 40
2.0
 40
2.0
 40
2.0
 40
3.0
 40
3.0
 40
3.0
 40
4.0
 40
4.0
 40
4.0
 40
5.0
 40
5.0
 40
5.0
 40
6.0
 40
6.0
 40
6.0
 40
7.0
 40
7.0
 40
7.0
 40
8.0
 40
8.0
 40
8.0
 40
9.0
 40
9.0
 40
9.0
 40
10.0
 40
10.0
 40
10.0
 40
11.0
 40
11.0
 40
11.0
 40
12.0
 40
12.0
 40
12.0
 40
13.0
 40
13.0
 40
13.0
 40
14.0
 40
14.0
 40
14.0
 40
15.0
 40
15.0
 40
15.0
 40
16.0
 40
16.0
 40
16.0
 40
17.0
 40
17.0
 40
17.0
 40
18.0
 40
18.0
 40
18.0
 40
19.0
 40
19.0
 40
19.0
 40
20.0
 40
20.0
 40
20.0
 40
21.0
 40
21.0
 40
21.0
 40
22.0
 40
22.0
 40
22.0
 40
22.0
 10
318.4769607218704
 20
182.1507738685558
 30
0.0
 10
320.3163226265398
 20
179.186947274131
 30
0.0
 10
321.937448467509
 20
176.0920290401037
 30
0.0
 10
323.7692633952148
 20
173.1230822977638
 30
0.0
 10
324.1233879366441
 20
172.5491286260529
 30
0.0
 10
324.4853863963649
 20
171.9798827882585
 30
0.0
 10
324.8503896985436
 20
171.4131961015973
 30
0.0
 10
325.1648885957365
 20
170.9249201409479
 30
0.0
 10
325.4816183224025
 20
170.4385441234182
 30
0.0
 10
325.7871058354634
 20
169.9431909650119
 30
0.0
 10
325.9116653912597
 20
169.7412155430019
 30
0.0
 10
326.0343559052707
 20
169.5377476523512
 30
0.0
 10
326.1740875465053
 20
169.3470553809611
 30
0.0
 10
326.4631479094857
 20
168.95257366803
 30
0.0
 10
326.8251348589505
 20
168.6127645300045
 30
0.0
 10
327.2060385378706
 20
168.2997901798192
 30
0.0
 10
327.5106431260742
 20
168.0495079474985
 30
0.0
 10
327.8273450184158
 20
167.8163866409688
 30
0.0
 10
328.1751685323943
 20
167.6340632009555
 30
0.0
 10
328.5326372300557
 20
167.4466839122071
 30
0.0
 10
328.9229774924649
 20
167.3129588121208
 30
0.0
 10
329.3199888621791
 20
167.2473807959817
 30
0.0
 10
329.6750909965157
 20
167.188725313354
 30
0.0
 10
330.0355301480595
 20
167.1845888397859
 30
0.0
 10
330.4003128352328
 20
167.2151571899064
 30
0.0
 10
330.7831014299462
 20
167.2472344134167
 30
0.0
 10
331.170672942613
 20
167.3175271227345
 30
0.0
 10
331.4967605403875
 20
167.505169123816
 30
0.0
 10
331.7524451226211
 20
167.6522988122186
 30
0.0
 10
331.9703288143017
 20
167.8715759515987
 30
0.0
 10
332.1417298207312
 20
168.1174164241143
 30
0.0
 10
332.2875729948393
 20
168.3265992963796
 30
0.0
 10
332.3997621690706
 20
168.5550143279851
 30
0.0
 10
332.4803389071487
 20
168.7941109365434
 30
0.0
 10
332.5490119612191
 20
168.9978855583557
 30
0.0
 10
332.5947229300404
 20
169.209418876129
 30
0.0
 10
332.6254567809888
 20
169.4224701266656
 30
0.0
 10
332.6892057359326
 20
169.8643865853901
 30
0.0
 10
332.688516932206
 20
170.3128338189948
 30
0.0
 10
332.6577053164147
 20
170.7597472617082
 30
0.0
 10
332.6089177149436
 20
171.4673970998675
 30
0.0
 10
332.4846060236928
 20
172.1712014085694
 30
0.0
 10
332.4803389071487
 20
172.8703893802581
 30
0.0
 10
332.4773684195023
 20
173.3571183484117
 30
0.0
 10
332.5325719456365
 20
173.8416102237608
 30
0.0
 10
332.561443536349
 20
174.3426269373052
 30
0.0
 10
332.5822067359462
 20
174.7029364930044
 30
0.0
 10
332.589351415514
 20
175.0717924709757
 30
0.0
 10
332.7216903527296
 20
175.390823499686
 30
0.0
 10
332.8419613647714
 20
175.6807622395762
 30
0.0
 10
333.0656348806028
 20
175.9295487365338
 30
0.0
 10
333.2856964025371
 20
176.1722171780556
 30
0.0
 10
333.5625321602211
 20
176.4774922724353
 30
0.0
 10
333.8336517739581
 20
176.7730852670666
 30
0.0
 10
334.1432546413142
 20
177.0291129063802
 30
0.0
 10
334.5135925670209
 20
177.3353657059134
 30
0.0
 10
334.9389932828122
 20
177.5850074175048
 30
0.0
 10
335.3852362037479
 20
177.7776656003906
 30
0.0
 10
335.8256596454882
 20
177.9678113170003
 30
0.0
 10
336.2863852282309
 20
178.1024500646131
 30
0.0
 10
336.755358159933
 20
178.1913394302018
 30
0.0
 10
337.1359481839909
 20
178.2634766549858
 30
0.0
 10
337.5219698810685
 20
178.3054835087541
 30
0.0
 10
337.9086267026102
 20
178.3292307068143
 30
0.0
 10
338.2558072570572
 20
178.3505534015824
 30
0.0
 10
338.6034998684567
 20
178.3571545979438
 30
0.0
 10
338.9511568846718
 20
178.3584977116773
 30
0.0
  0
SPLINE
  5
90
330
70
100
AcDbEntity
  8
shade
 62
     6
420
 16711935
370
    25
100
AcDbSpline
210
0.0
220
0.0
230
1.0
 70
     8
 71
     3
 72
    32
 73
    28
 74
     0
 42
0.0000000001
 43
0.0000000001
 40
0.0
 40
0.0
 40
0.0
 40
0.0
 40
1.0
 40
1.0
 40
1.0
 40
2.0
 40
2.0
 40
2.0
 40
3.0
 40
3.0
 40
3.0
 40
4.0
 40
4.0
 40
4.0
 40
5.0
 40
5.0
 40
5.0
 40
6.0
 40
6.0
 40
6.0
 40
7.0
 40
7.0
 40
7.0
 40
8.0
 40
8.0
 40
8.0
 40
9.0
 40
9.0
 40
9.0
 40
9.0
 10
332.6810715437127
 20
175.279751681459
 30
0.0
 10
332.6793673931139
 20
175.4193898718537
 30
0.0
 10
332.6782128874144
 20
175.559016196252
 30
0.0
 10
332.6792725398929
 20
175.6986106172375
 30
0.0
 10
332.6857861355919
 20
176.5566859202445
 30
0.0
 10
332.7759607837534
 20
177.4135557658988
 30
0.0
 10
332.875189667882
 20
178.2661545014643
 30
0.0
 10
333.0604457487887
 20
179.8579198602026
 30
0.0
 10
333.2772606338101
 20
181.4347981398625
 30
0.0
 10
333.5105606214704
 20
183.0314121921308
 30
0.0
 10
333.6164688431969
 20
183.7562067228492
 30
0.0
 10
333.725774268532
 20
184.4850683461002
 30
0.0
 10
333.9926950614533
 20
185.1598562236802
 30
0.0
 10
334.2645616705667
 20
185.847147349027
 30
0.0
 10
334.6999387197621
 20
186.4783422822005
 30
0.0
 10
335.2263451719931
 20
187.0089016043602
 30
0.0
 10
335.587793610974
 20
187.3732015440129
 30
0.0
 10
335.9921593106228
 20
187.6900552233768
 30
0.0
 10
336.4407197171591
 20
187.9334242947037
 30
0.0
 10
336.7152572995331
 20
188.08237626526
 30
0.0
 10
337.0063499890071
 20
188.2038012842639
 30
0.0
 10
337.3081301575628
 20
188.2801203035796
 30
0.0
 10
337.6394406432922
 20
188.3639074241148
 30
0.0
 10
337.9836325640204
 20
188.3933290578194
 30
0.0
 10
338.3261001778283
 20
188.4044811543369
 30
0.0
 10
338.5348272856064
 20
188.4112781323796
 30
0.0
 10
338.7429138725257
 20
188.4112886043586
 30
0.0
 10
338.9511568846718
 20
188.4109926152703
 30
0.0
  0
SPLINE
  5
91
330
70
100
AcDbEntity
  8
shade
 62
     6
420
 16711935
370
    25
100
AcDbSpline
210
0.0
220
0.0
230
1.0
 70
     8
 71
     3
 72
    32
 73
    28
 74
     0
 42
0.0000000001
 43
0.0000000001
 40
0.0
 40
0.0
 40
0.0
 40
0.0
 40
1.0
 40
1.0
 40
1.0
 40
2.0
 40
2.0
 40
2.0
 40
3.0
 40
3.0
 40
3.0
 40
4.0
 40
4.0
 40
4.0
 40
5.0
 40
5.0
 40
5.0
 40
6.0
 40
6.0
 40
6.0
 40
7.0
 40
7.0
 40
7.0
 40
8.0
 40
8.0
 40
8.0
 40
9.0
 40
9.0
 40
9.0
 40
9.0
 10
322.0915982758553
 20
184.6956208971443
 30
0.0
 10
322.3369615077445
 20
184.1806688564146
 30
0.0
 10
322.6904478953926
 20
183.7344661862578
 30
0.0
 10
323.0422129065324
 20
183.288432658977
 30
0.0
 10
323.6938391600818
 20
182.4621789181627
 30
0.0
 10
324.3395584031755
 20
181.6365056016328
 30
0.0
 10
325.016537766602
 20
180.8354212130322
 30
0.0
 10
325.4427977429028
 20
180.3310185222752
 30
0.0
 10
325.8814510744468
 20
179.8363643326564
 30
0.0
 10
326.3257579628052
 20
179.3464880599139
 30
0.0
 10
326.7063294273078
 20
178.9268840982726
 30
0.0
 10
327.0910487902225
 20
178.5107855960264
 30
0.0
 10
327.5054477021827
 20
178.1248453408722
 30
0.0
 10
327.763144951232
 20
177.8848453331852
 30
0.0
 10
328.0323194980832
 20
177.6565077393171
 30
0.0
 10
328.3205060026408
 20
177.4532991767371
 30
0.0
 10
328.4766840794436
 20
177.3431735393808
 30
0.0
 10
328.6384458257023
 20
177.2404281101584
 30
0.0
 10
328.8281300506696
 20
177.1889671944245
 30
0.0
 10
328.9236488751505
 20
177.1630531460768
 30
0.0
 10
329.0262482901396
 20
177.1501438399875
 30
0.0
 10
329.1160902082852
 20
177.1771316516261
 30
0.0
 10
329.1966489246092
 20
177.2013308618365
 30
0.0
 10
329.2669503538236
 20
177.2576081667874
 30
0.0
 10
329.3352199259772
 20
177.3141170813591
 30
0.0
 10
329.3793422111138
 20
177.3506385119689
 30
0.0
 10
329.4226157951315
 20
177.3872566852793
 30
0.0
 10
329.4633418197693
 20
177.425637831645
 30
0.0
  0
SPLINE
  5
92
330
70
100
AcDbEntity
  8
shade
 62
     6
420
 16711935
370
    25
100
AcDbSpline
210
0.0
220
0.0
230
1.0
 70
     8
 71
     3
 72
    20
 73
    16
 74
     0
 42
0.0000000001
 43
0.0000000001
 40
0.0
 40
0.0
 40
0.0
 40
0.0
 40
1.0
 40
1.0
 40
1.0
 40
2.0
 40
2.0
 40
2.0
 40
3.0
 40
3.0
 40
3.0
 40
4.0
 40
4.0
 40
4.0
 40
5.0
 40
5.0
 40
5.0
 40
5.0
 10
332.4802242687623
 20
172.9056995043227
 30
0.0
 10
332.3526642163677
 20
172.8639808482048
 30
0.0
 10
332.2243891245648
 20
172.8247824130411
 30
0.0
 10
332.0947058394041
 20
172.7904891391454
 30
0.0
 10
331.6471141134349
 20
172.6721285837767
 30
0.0
 10
331.1827475476068
 20
172.612199844211
 30
0.0
 10
330.7185187376504
 20
172.5957813558435
 30
0.0
 10
330.0864406336635
 20
172.5734265024136
 30
0.0
 10
329.454617910028
 20
172.6317336338024
 30
0.0
 10
328.8308284084392
 20
172.7296429243172
 30
0.0
 10
328.0176854490922
 20
172.8572729181475
 30
0.0
 10
327.2181929552389
 20
173.0521969445394
 30
0.0
 10
326.4303397686052
 20
173.2981263134531
 30
0.0
 10
325.9228902304177
 20
173.4565273287574
 30
0.0
 10
325.4202693037157
 20
173.6360881071007
 30
0.0
 10
324.9449165707106
 20
173.8692079665792
 30
0.0
  0
LINE
  5
93
330
70
100
AcDbEntity
  8
shade
 62
     6
420
 16711935
370
    25
100
AcDbLine
 10
321.520704682631
 20
176.9469225171124
 30
0.0
 11
320.2900083628821
 21
174.3250130309896
 31
0.0
  0
LINE
  5
94
330
70
100
AcDbEntity
  8
shade
 62
     6
420
 16711935
370
    25
100
AcDbLine
 10
320.2900083628821
 20
174.3250130309896
 30
0.0
 11
324.920517344333
 21
171.3043950433481
 31
0.0
  0
SPLINE
  5
95
330
70
100
AcDbEntity
  8
shade
 62
     6
420
 16711935
370
    25
100
AcDbSpline
210
0.0
220
0.0
230
1.0
 70
     8
 71
     3
 72
    32
 73
    28
 74
     0
 42
0.0000000001
 43
0.0000000001
 40
0.0
 40
0.0
 40
0.0
 40
0.0
 40
1.0
 40
1.0
 40
1.0
 40
2.0
 40
2.0
 40
2.0
 40
3.0
 40
3.0
 40
3.0
 40
4.0
 40
4.0
 40
4.0
 40
5.0
 40
5.0
 40
5.0
 40
6.0
 40
6.0
 40
6.0
 40
7.0
 40
7.0
 40
7.0
 40
8.0
 40
8.0
 40
8.0
 40
9.0
 40
9.0
 40
9.0
 40
9.0
 10
331.2180224918366
 20
167.3763832946269
 30
0.0
 10
331.4066988007316
 20
167.2270630220889
 30
0.0
 10
331.5974563455931
 20
167.0803261127593
 30
0.0
 10
331.7909640201741
 20
166.9363590813372
 30
0.0
 10
332.1168086066354
 20
166.6939352192326
 30
0.0
 10
332.4504510957757
 20
166.4593652551862
 30
0.0
 10
332.8058714739983
 20
166.266206140584
 30
0.0
 10
333.3281604573122
 20
165.982359507782
 30
0.0
 10
333.8974770457608
 20
165.7879362836097
 30
0.0
 10
334.4819794175457
 20
165.6459232027237
 30
0.0
 10
334.8914275957535
 20
165.5464420028947
 30
0.0
 10
335.3083275969628
 20
165.4726790094992
 30
0.0
 10
335.7238909947879
 20
165.4877193645523
 30
0.0
 10
336.0656105087922
 20
165.500087111209
 30
0.0
 10
336.4064262327862
 20
165.5725022740521
 30
0.0
 10
336.7314425046529
 20
165.6990783107587
 30
0.0
 10
336.9908949036085
 20
165.8001208099009
 30
0.0
 10
337.240279209991
 20
165.9356769546416
 30
0.0
 10
337.4327812894203
 20
166.1274414741633
 30
0.0
 10
337.576676921491
 20
166.270785778955
 30
0.0
 10
337.6887891089796
 20
166.4455370074995
 30
0.0
 10
337.8013918865856
 20
166.6188636597745
 30
0.0
 10
338.1737104233204
 20
167.191964314335
 30
0.0
 10
338.5513924801539
 20
167.749490371982
 30
0.0
 10
338.8738982276318
 20
168.3438080197029
 30
0.0
 10
338.8999460128467
 20
168.3918092059067
 30
0.0
 10
338.9256338669969
 20
168.4400503943263
 30
0.0
 10
338.9511568846718
 20
168.4884063344503
 30
0.0
  0
SPLINE
  5
96
330
70
100
AcDbEntity
  8
shade
 62
     6
420
 16711935
370
    25
100
AcDbSpline
210
0.0
220
0.0
230
1.0
 70
     8
 71
     3
 72
    38
 73
    34
 74
     0
 42
0.0000000001
 43
0.0000000001
 40
0.0
 40
0.0
 40
0.0
 40
0.0
 40
1.0
 40
1.0
 40
1.0
 40
2.0
 40
2.0
 40
2.0
 40
3.0
 40
3.0
 40
3.0
 40
4.0
 40
4.0
 40
4.0
 40
5.0
 40
5.0
 40
5.0
 40
6.0
 40
6.0
 40
6.0
 40
7.0
 40
7.0
 40
7.0
 40
8.0
 40
8.0
 40
8.0
 40
9.0
 40
9.0
 40
9.0
 40
10.0
 40
10.0
 40
10.0
 40
11.0
 40
11.0
 40
11.0
 40
11.0
 10
337.4656304643465
 20
166.1612676642703
 30
0.0
 10
337.5068707136256
 20
166.2769220952197
 30
0.0
 10
337.4363907516823
 20
166.4191955312041
 30
0.0
 10
337.3458943119564
 20
166.5396094355214
 30
0.0
 10
337.0758949737151
 20
166.8988685907178
 30
0.0
 10
336.6277192802023
 20
167.0635454761352
 30
0.0
 10
336.2028268256786
 20
167.2369428157361
 30
0.0
 10
335.7545948547847
 20
167.4198649421559
 30
0.0
 10
335.3322742922419
 20
167.6124918716706
 30
0.0
 10
334.9514686753007
 20
167.8921958859785
 30
0.0
 10
334.813426885236
 20
167.9935884103959
 30
0.0
 10
334.6808403990594
 20
168.1064233671987
 30
0.0
 10
334.6094568194108
 20
168.2667733719586
 30
0.0
 10
334.5538342326376
 20
168.3917192222337
 30
0.0
 10
334.5353718222493
 20
168.545514479572
 30
0.0
 10
334.5835550945216
 20
168.6635320432561
 30
0.0
 10
334.6277304948773
 20
168.7717329370048
 30
0.0
 10
334.7279255498884
 20
168.8498605542655
 30
0.0
 10
334.8253052719634
 20
168.928037766265
 30
0.0
 10
335.0722566254037
 20
169.1262922683096
 30
0.0
 10
335.3011022705634
 20
169.3248657194797
 30
0.0
 10
335.5657008861976
 20
169.4701314877977
 30
0.0
 10
335.9080894936446
 20
169.6581042933539
 30
0.0
 10
336.3103434621497
 20
169.7568178390393
 30
0.0
 10
336.702752145123
 20
169.8548671638054
 30
0.0
 10
336.9241711259221
 20
169.9101920903467
 30
0.0
 10
337.1424555163565
 20
169.9653055389568
 30
0.0
 10
337.3645282273741
 20
169.9991429338246
 30
0.0
 10
337.7160827562474
 20
170.0527095758345
 30
0.0
 10
338.0771311211623
 20
170.0529567158863
 30
0.0
 10
338.4354016995359
 20
170.0532464126791
 30
0.0
 10
338.6077123577055
 20
170.0533857426874
 30
0.0
 10
338.7793804748373
 20
170.0535349166708
 30
0.0
 10
338.9511568846718
 20
170.0534170996343
 30
0.0
  0
SPLINE
  5
97
330
70
100
AcDbEntity
  8
shade
 62
     6
420
 16711935
370
    25
100
AcDbSpline
210
0.0
220
0.0
230
1.0
 70
     8
 71
     3
 72
    14
 73
    10
 74
     0
 42
0.0000000001
 43
0.0000000001
 40
0.0
 40
0.0
 40
0.0
 40
0.0
 40
1.0
 40
1.0
 40
1.0
 40
2.0
 40
2.0
 40
2.0
 40
3.0
 40
3.0
 40
3.0
 40
3.0
 10
334.5581053850901
 20
168.4616357172154
 30
0.0
 10
334.5582940549939
 20
168.8740405750512
 30
0.0
 10
334.5706182260712
 20
169.365085114575
 30
0.0
 10
334.5786553957147
 20
169.856128649723
 30
0.0
 10
334.594336142408
 20
170.8141685620522
 30
0.0
 10
334.5936983664133
 20
171.7722046512657
 30
0.0
 10
334.6174025564483
 20
172.7298069452503
 30
0.0
 10
334.6565748498294
 20
174.3122899549049
 30
0.0
 10
334.7622229181009
 20
175.8935883078902
 30
0.0
 10
334.7871072286285
 20
177.4763166025474
 30
0.0
  0
LINE
  5
98
330
70
100
AcDbEntity
  8
shade
 62
     6
420
 16711935
370
    25
100
AcDbLine
 10
338.9511568846718
 20
170.0534170996343
 30
0.0
 11
338.9511568846718
 21
168.4884063344503
 31
0.0
  0
LINE
  5
99
330
70
100
AcDbEntity
  8
shade
 62
     6
420
 16711935
370
    25
100
AcDbLine
 10
338.9511568846718
 20
170.0534170996343
 30
0.0
 11
338.9511568846718
 21
168.4884063344503
 31
0.0
  0
LWPOLYLINE
  5
9A
330
70
100
AcDbEntity
  8
shade
 62
     6
420
 16711935
370
    25
100
AcDbPolyline
 90
        3
 70
     0
 43
0.0
 10
338.9511568846718
 20
208.9695333578089
 10
338.5347647301788
 20
208.9695333578089
 10
338.5347647301643
 20
203.916915430645
  0
LINE
  5
9B
330
70
100
AcDbEntity
  8
shade
 62
     6
420
 16711935
370
    25
100
AcDbLine
 10
338.7290780660074
 20
208.9695333578089
 30
0.0
 11
338.7807723165424
 21
235.9377677078058
 31
0.0
  0
LINE
  5
9C
330
70
100
AcDbEntity
  8
shade
 62
     6
420
 16711935
370
    25
100
AcDbLine
 10
339.1732357033375
 20
208.9695333578089
 30
0.0
 11
339.1215414528084
 21
235.9377677078058
 31
0.0
  0
SPLINE
  5
9D
330
70
100
AcDbEntity
  8
shade
 62
     6
420
 16711935
370
    25
100
AcDbSpline
210
0.0
220
0.0
230
1.0
 70
     8
 71
     3
 72
    92
 73
    88
 74
     0
 42
0.0000000001
 43
0.0000000001
 40
0.0
 40
0.0
 40
0.0
 40
0.0
 40
1.0
 40
1.0
 40
1.0
 40
2.0
 40
2.0
 40
2.0
 40
3.0
 40
3.0
 40
3.0
 40
4.0
 40
4.0
 40
4.0
 40
5.0
 40
5.0
 40
5.0
 40
6.0
 40
6.0
 40
6.0
 40
7.0
 40
7.0
 40
7.0
 40
8.0
 40
8.0
 40
8.0
 40
9.0
 40
9.0
 40
9.0
 40
10.0
 40
10.0
 40
10.0
 40
11.0
 40
11.0
 40
11.0
 40
12.0
 40
12.0
 40
12.0
 40
13.0
 40
13.0
 40
13.0
 40
14.0
 40
14.0
 40
14.0
 40
15.0
 40
15.0
 40
15.0
 40
16.0
 40
16.0
 40
16.0
 40
17.0
 40
17.0
 40
17.0
 40
18.0
 40
18.0
 40
18.0
 40
19.0
 40
19.0
 40
19.0
 40
20.0
 40
20.0
 40
20.0
 40
21.0
 40
21.0
 40
21.0
 40
22.0
 40
22.0
 40
22.0
 40
23.0
 40
23.0
 40
23.0
 40
24.0
 40
24.0
 40
24.0
 40
25.0
 40
25.0
 40
25.0
 40
26.0
 40
26.0
 40
26.0
 40
27.0
 40
27.0
 40
27.0
 40
28.0
 40
28.0
 40
28.0
 40
29.0
 40
29.0
 40
29.0
 40
29.0
 10
350.3394745547681
 20
199.0716264952133
 30
0.0
 10
350.2838998420611
 20
199.2993431262327
 30
0.0
 10
349.7967879579579
 20
200.7504547175942
 30
0.0
 10
348.7084953464716
 20
201.9242730742498
 30
0.0
 10
347.6761634394864
 20
203.0377329377067
 30
0.0
 10
346.1028874313541
 20
203.9016835724444
 30
0.0
 10
345.8479979574495
 20
203.1625551448501
 30
0.0
 10
345.7637808723453
 20
202.9183424641884
 30
0.0
 10
345.823489824533
 20
202.4991243424612
 30
0.0
 10
345.9343914678702
 20
202.1363035429187
 30
0.0
 10
346.1271243795975
 20
201.5057672674207
 30
0.0
 10
346.4744694923033
 20
201.0455622232105
 30
0.0
 10
346.8743090704324
 20
200.6131655148994
 30
0.0
 10
347.2736005392587
 20
200.1813615459631
 30
0.0
 10
347.7252426509195
 20
199.777289724572
 30
0.0
 10
348.2047961965026
 20
199.4196739962933
 30
0.0
 10
348.6362982702853
 20
199.0978915180047
 30
0.0
 10
349.0903985368997
 20
198.8137217167983
 30
0.0
 10
349.5508675259585
 20
198.539571648019
 30
0.0
 10
349.7602298399387
 20
198.4149233130709
 30
0.0
 10
349.9709087379013
 20
198.2923463228004
 30
0.0
 10
350.1858728426039
 20
198.1769919900989
 30
0.0
 10
350.576605535651
 20
197.9673164764613
 30
0.0
 10
350.9814961465537
 20
197.7815039404779
 30
0.0
 10
351.3509456739645
 20
197.5373127515735
 30
0.0
 10
351.7584544875028
 20
197.267965914507
 30
0.0
 10
352.1228440933692
 20
196.9275929966636
 30
0.0
 10
352.4395261147762
 20
196.5553259755583
 30
0.0
 10
352.7112214954972
 20
196.235941788288
 30
0.0
 10
352.9478008697367
 20
195.8930813854417
 30
0.0
 10
353.1652461705852
 20
195.5280166555175
 30
0.0
 10
353.3899004489353
 20
195.1508489120337
 30
0.0
 10
353.5941309169109
 20
194.7499801532626
 30
0.0
 10
353.679298144603
 20
194.3345251369107
 30
0.0
 10
353.7298822047038
 20
194.0877705801707
 30
0.0
 10
353.7384652246197
 20
193.8358705394791
 30
0.0
 10
353.7246556927183
 20
193.5640431034852
 30
0.0
 10
353.7174427191347
 20
193.4220626129405
 30
0.0
 10
353.7041206860507
 20
193.2746455984657
 30
0.0
 10
353.6339405964761
 20
193.1712485319271
 30
0.0
 10
353.5373228189809
 20
193.0289005408052
 30
0.0
 10
353.3329399106461
 20
192.9699851490875
 30
0.0
 10
353.1501272259321
 20
192.8993136149325
 30
0.0
 10
352.9688650065416
 20
192.8292414580231
 30
0.0
 10
352.8088086808772
 20
192.7476117247444
 30
0.0
 10
352.6360752519207
 20
192.7029163291477
 30
0.0
 10
352.3983581988988
 20
192.6414061872778
 30
0.0
 10
352.1366313805405
 20
192.6498477339755
 30
0.0
 10
351.8801165926437
 20
192.6575937851362
 30
0.0
 10
351.5568386732515
 20
192.6673559018575
 30
0.0
 10
351.2418389214937
 20
192.6760133764235
 30
0.0
 10
350.9276087962081
 20
192.7180237859725
 30
0.0
 10
350.394003737864
 20
192.7893631173739
 30
0.0
 10
349.8626180215382
 20
192.956881014344
 30
0.0
 10
349.3854532312571
 20
193.2165709023957
 30
0.0
 10
348.8697828260687
 20
193.4972169025181
 30
0.0
 10
348.4174373286621
 20
193.8855110610359
 30
0.0
 10
348.0247275017202
 20
194.3194176800853
 30
0.0
 10
347.7495487404107
 20
194.6234637664509
 30
0.0
 10
347.5036514164314
 20
194.9499058180935
 30
0.0
 10
347.2687688424497
 20
195.2862968257205
 30
0.0
 10
347.0222838145805
 20
195.6393044817725
 30
0.0
 10
346.7879286006055
 20
196.0032682634485
 30
0.0
 10
346.6035252794078
 20
196.389143603423
 30
0.0
 10
346.239996014444
 20
197.1498510451116
 30
0.0
 10
346.070597006028
 20
197.9957143477261
 30
0.0
 10
345.808252079401
 20
198.8004267335188
 30
0.0
 10
345.670161514383
 20
199.2240033944522
 30
0.0
 10
345.5063188289013
 20
199.6361785502004
 30
0.0
 10
345.3459630842647
 20
200.0544046622969
 30
0.0
 10
345.1789524671314
 20
200.4899874425225
 30
0.0
 10
345.0157242172872
 20
200.9321338383081
 30
0.0
 10
344.7651205959621
 20
201.3193650513968
 30
0.0
 10
344.5629134286512
 20
201.6318143539232
 30
0.0
 10
344.3038199936482
 20
201.9085107923285
 30
0.0
 10
344.0334582257257
 20
202.1714760545787
 30
0.0
 10
343.7118763136348
 20
202.4842601900644
 30
0.0
 10
343.3743520515292
 20
202.7776175640084
 30
0.0
 10
342.983473906187
 20
202.9974205974915
 30
0.0
 10
342.6553423978178
 20
203.1819392301723
 30
0.0
 10
342.2896116443171
 20
203.3146230663845
 30
0.0
 10
341.9483832218266
 20
203.4289952735579
 30
0.0
 10
341.5966511494768
 20
203.5468880714565
 30
0.0
 10
341.2709530799434
 20
203.6453245571403
 30
0.0
 10
340.8313784366474
 20
203.7266330530137
 30
0.0
 10
340.1114967387631
 20
203.8597901833452
 30
0.0
 10
339.0861993173132
 20
203.947010232635
 30
0.0
 10
338.9511568846718
 20
203.9472606317838
 30
0.0
  0
LINE
  5
9E
330
70
100
AcDbEntity
  8
shade
 62
     6
420
 16711935
370
    25
100
AcDbLine
 10
342.5289478524103
 20
203.2187631589327
 30
0.0
 11
346.2623186562653
 21
203.3965164579107
 31
0.0
  0
SPLINE
  5
9F
330
70
100
AcDbEntity
  8
shade
 62
     6
420
 16711935
370
    25
100
AcDbSpline
210
0.0
220
0.0
230
1.0
 70
     8
 71
     3
 72
   140
 73
   136
 74
     0
 42
0.0000000001
 43
0.0000000001
 40
0.0
 40
0.0
 40
0.0
 40
0.0
 40
1.0
 40
1.0
 40
1.0
 40
2.0
 40
2.0
 40
2.0
 40
3.0
 40
3.0
 40
3.0
 40
4.0
 40
4.0
 40
4.0
 40
5.0
 40
5.0
 40
5.0
 40
6.0
 40
6.0
 40
6.0
 40
7.0
 40
7.0
 40
7.0
 40
8.0
 40
8.0
 40
8.0
 40
9.0
 40
9.0
 40
9.0
 40
10.0
 40
10.0
 40
10.0
 40
11.0
 40
11.0
 40
11.0
 40
12.0
 40
12.0
 40
12.0
 40
13.0
 40
13.0
 40
13.0
 40
14.0
 40
14.0
 40
14.0
 40
15.0
 40
15.0
 40
15.0
 40
16.0
 40
16.0
 40
16.0
 40
17.0
 40
17.0
 40
17.0
 40
18.0
 40
18.0
 40
18.0
 40
19.0
 40
19.0
 40
19.0
 40
20.0
 40
20.0
 40
20.0
 40
21.0
 40
21.0
 40
21.0
 40
22.0
 40
22.0
 40
22.0
 40
23.0
 40
23.0
 40
23.0
 40
24.0
 40
24.0
 40
24.0
 40
25.0
 40
25.0
 40
25.0
 40
26.0
 40
26.0
 40
26.0
 40
27.0
 40
27.0
 40
27.0
 40
28.0
 40
28.0
 40
28.0
 40
29.0
 40
29.0
 40
29.0
 40
30.0
 40
30.0
 40
30.0
 40
31.0
 40
31.0
 40
31.0
 40
32.0
 40
32.0
 40
32.0
 40
33.0
 40
33.0
 40
33.0
 40
34.0
 40
34.0
 40
34.0
 40
35.0
 40
35.0
 40
35.0
 40
36.0
 40
36.0
 40
36.0
 40
37.0
 40
37.0
 40
37.0
 40
38.0
 40
38.0
 40
38.0
 40
39.0
 40
39.0
 40
39.0
 40
40.0
 40
40.0
 40
40.0
 40
41.0
 40
41.0
 40
41.0
 40
42.0
 40
42.0
 40
42.0
 40
43.0
 40
43.0
 40
43.0
 40
44.0
 40
44.0
 40
44.0
 40
45.0
 40
45.0
 40
45.0
 40
45.0
 10
356.7938403795496
 20
191.9692213288653
 30
0.0
 10
356.8096064594135
 20
192.23850339263
 30
0.0
 10
356.7919616770768
 20
192.5101288491187
 30
0.0
 10
356.753250394349
 20
192.7774323442386
 30
0.0
 10
356.6759756542558
 20
193.311018592437
 30
0.0
 10
356.5147563889016
 20
193.8273829486256
 30
0.0
 10
356.3418524196489
 20
194.3395363671695
 30
0.0
 10
356.1512987223758
 20
194.903969490965
 30
0.0
 10
355.9465530596918
 20
195.4632881093217
 30
0.0
 10
355.7041505305708
 20
196.0016653931504
 30
0.0
 10
355.528056451032
 20
196.3927712639739
 30
0.0
 10
355.3320895562915
 20
196.7728256769611
 30
0.0
 10
355.1144802668066
 20
197.1526893735041
 30
0.0
 10
354.9540141523872
 20
197.4328026514871
 30
0.0
 10
354.781779645979
 20
197.712812224421
 30
0.0
 10
354.5931359068258
 20
197.9512410308082
 30
0.0
 10
354.4835837486711
 20
198.089705155952
 30
0.0
 10
354.3684975114792
 20
198.2141460021051
 30
0.0
 10
354.2297342077937
 20
198.3691722888101
 30
0.0
 10
354.135273484481
 20
198.4747037570359
 30
0.0
 10
354.0298408782316
 20
198.5944084284084
 30
0.0
 10
353.9280423120759
 20
198.5952663903426
 30
0.0
 10
353.7981715727459
 20
198.5963609455358
 30
0.0
 10
353.6742154829682
 20
198.4040243277072
 30
0.0
 10
353.612637245748
 20
198.2321457236628
 30
0.0
 10
353.5446352712323
 20
198.0423370350992
 30
0.0
 10
353.5527042679263
 20
197.8774772813512
 30
0.0
 10
353.5509277994969
 20
197.7045931093923
 30
0.0
 10
353.5492894324633
 20
197.5451488312081
 30
0.0
 10
353.5392768593093
 20
197.3788792652967
 30
0.0
 10
353.5439307082029
 20
197.2147847509825
 30
0.0
 10
353.5494878801096
 20
197.0188391051566
 30
0.0
 10
353.5759576162058
 20
196.8259948228168
 30
0.0
 10
353.5987837476842
 20
196.6324213718046
 30
0.0
 10
353.6356933286025
 20
196.3194154225086
 30
0.0
 10
353.6630761578967
 20
196.0045029521521
 30
0.0
 10
353.7153465904977
 20
195.6937887149556
 30
0.0
 10
353.7560465377975
 20
195.4518536008144
 30
0.0
 10
353.8118354198511
 20
195.2124638047406
 30
0.0
 10
353.8730489451268
 20
194.9743987706176
 30
0.0
 10
354.0559186125096
 20
194.263201802194
 30
0.0
 10
354.2872010293261
 20
193.5638277990847
 30
0.0
 10
354.5723353068948
 20
192.8883433042945
 30
0.0
 10
354.7841773977244
 20
192.3864883575022
 30
0.0
 10
355.0257447965874
 20
191.8978200115753
 30
0.0
 10
355.2583548322213
 20
191.4046581269961
 30
0.0
 10
355.4199369867782
 20
191.0620840861316
 30
0.0
 10
355.5771968893794
 20
190.7173417502402
 30
0.0
 10
355.7108926757989
 20
190.3632555028906
 30
0.0
 10
355.801717258685
 20
190.122711379715
 30
0.0
 10
355.8816670100011
 20
189.8778550445984
 30
0.0
 10
355.9508747681966
 20
189.6301629541222
 30
0.0
 10
356.0333714951663
 20
189.3349101198093
 30
0.0
 10
356.1006049114654
 20
189.0356279573751
 30
0.0
 10
356.1637311700579
 20
188.7356512360392
 30
0.0
 10
356.2087504477971
 20
188.5217191001882
 30
0.0
 10
356.2516808222629
 20
188.3074337112119
 30
0.0
 10
356.2871507767129
 20
188.0916258765035
 30
0.0
 10
356.32889547652
 20
187.8376409639653
 30
0.0
 10
356.3603067415554
 20
187.5815473104315
 30
0.0
 10
356.3694301574112
 20
187.3242765562675
 30
0.0
 10
356.3793785797216
 20
187.0437414859591
 30
0.0
 10
356.3628260398163
 20
186.7618068055371
 30
0.0
 10
356.3282406561643
 20
186.4837501178034
 30
0.0
 10
356.2723719440569
 20
186.0345814979348
 30
0.0
 10
356.1694470870329
 20
185.5955323793805
 30
0.0
 10
356.0128355898422
 20
185.1614428008438
 30
0.0
 10
355.9036446155865
 20
184.8587915597424
 30
0.0
 10
355.7683565308169
 20
184.5585511542588
 30
0.0
 10
355.5534413395022
 20
184.3324315002429
 30
0.0
 10
355.3826790711536
 20
184.152766652932
 30
0.0
 10
355.161646611782
 20
184.0198957241366
 30
0.0
 10
354.9363443774553
 20
183.9007974642266
 30
0.0
 10
354.6769522418686
 20
183.763678753091
 30
0.0
 10
354.4119004820434
 20
183.6448158356094
 30
0.0
 10
354.1341183625041
 20
183.571933569015
 30
0.0
 10
353.8482867000342
 20
183.4969393272697
 30
0.0
 10
353.5489761897023
 20
183.4706291927727
 30
0.0
 10
353.2496129668681
 20
183.4554608237517
 30
0.0
 10
352.971132662655
 20
183.4413505667221
 30
0.0
 10
352.6926067436554
 20
183.4368818426683
 30
0.0
 10
352.4199602536418
 20
183.4760148172037
 30
0.0
 10
351.9384005799489
 20
183.545133119256
 30
0.0
 10
351.4751824357984
 20
183.7502717466546
 30
0.0
 10
351.0520978194958
 20
184.0028658731242
 30
0.0
 10
350.7457369910381
 20
184.1857724191587
 30
0.0
 10
350.460419728703
 20
184.3935617249749
 30
0.0
 10
350.1881623582953
 20
184.6194858502057
 30
0.0
 10
349.845054270161
 20
184.9042031915598
 30
0.0
 10
349.52268777959
 20
185.2177220825768
 30
0.0
 10
349.2419471593174
 20
185.5649697224858
 30
0.0
 10
348.998271543256
 20
185.8663717159053
 30
0.0
 10
348.7859559927456
 20
186.1931842477597
 30
0.0
 10
348.6039242667151
 20
186.5349801927655
 30
0.0
 10
348.3714506580122
 20
186.9714894678906
 30
0.0
 10
348.1883698737028
 20
187.4324366436998
 30
0.0
 10
348.0211104097279
 20
187.898395496631
 30
0.0
 10
347.6548527669973
 20
188.9187323255356
 30
0.0
 10
347.3644589455314
 20
189.9631003332043
 30
0.0
 10
346.9921291472855
 20
190.9779146920832
 30
0.0
 10
346.7233029644437
 20
191.7106217482467
 30
0.0
 10
346.411763575014
 20
192.4279224938564
 30
0.0
 10
346.1756000865142
 20
193.1754014727246
 30
0.0
 10
345.9107820847604
 20
194.0135745993286
 30
0.0
 10
345.7407408769973
 20
194.8896934905975
 30
0.0
 10
345.4063704234122
 20
195.4914499145699
 30
0.0
 10
345.3841750486635
 20
195.5313942612881
 30
0.0
 10
345.3612555981202
 20
195.5701296982864
 30
0.0
 10
345.3326494600966
 20
195.6143172266148
 30
0.0
 10
345.2271118667822
 20
195.7773397705997
 30
0.0
 10
345.0441717224083
 20
196.0145717343623
 30
0.0
 10
344.8825155377392
 20
196.2294286527806
 30
0.0
 10
344.5959585860669
 20
196.6102909359944
 30
0.0
 10
344.3762806197907
 20
196.9208457974396
 30
0.0
 10
344.1327893565172
 20
197.2126443211052
 30
0.0
 10
343.94716889249
 20
197.4350908131608
 30
0.0
 10
343.7477094360776
 20
197.6466371423375
 30
0.0
 10
343.5395855545099
 20
197.8489638206369
 30
0.0
 10
343.2793479073325
 20
198.1019526575135
 30
0.0
 10
343.0055634773471
 20
198.3405266191032
 30
0.0
 10
342.7164500340981
 20
198.5600827703801
 30
0.0
 10
342.4326605823557
 20
198.775595819845
 30
0.0
 10
342.1341014832496
 20
198.9727850315858
 30
0.0
 10
341.8161458376043
 20
199.1341187456667
 30
0.0
 10
341.5365028399163
 20
199.2760122583343
 30
0.0
 10
341.2418561126074
 20
199.390170617687
 30
0.0
 10
340.9390163816793
 20
199.4695492062075
 30
0.0
 10
340.5835277096809
 20
199.5627278288855
 30
0.0
 10
340.2167496866811
 20
199.6079825083505
 30
0.0
 10
339.8500770882168
 20
199.6409031846365
 30
0.0
 10
339.604383786424
 20
199.6629620723064
 30
0.0
 10
339.3587378184277
 20
199.6794832044748
 30
0.0
 10
339.1126852156881
 20
199.6837416358558
 30
0.0
 10
339.0588591787559
 20
199.6846732028609
 30
0.0
 10
339.0050136822534
 20
199.6850179361933
 30
0.0
 10
338.9511568846718
 20
199.685049087854
 30
0.0
  0
SPLINE
  5
A0
330
70
100
AcDbEntity
  8
shade
 62
     6
420
 16711935
370
    25
100
AcDbSpline
210
0.0
220
0.0
230
1.0
 70
     8
 71
     3
 72
    41
 73
    37
 74
     0
 42
0.0000000001
 43
0.0000000001
 40
0.0
 40
0.0
 40
0.0
 40
0.0
 40
1.0
 40
1.0
 40
1.0
 40
2.0
 40
2.0
 40
2.0
 40
3.0
 40
3.0
 40
3.0
 40
4.0
 40
4.0
 40
4.0
 40
5.0
 40
5.0
 40
5.0
 40
6.0
 40
6.0
 40
6.0
 40
7.0
 40
7.0
 40
7.0
 40
8.0
 40
8.0
 40
8.0
 40
9.0
 40
9.0
 40
9.0
 40
10.0
 40
10.0
 40
10.0
 40
11.0
 40
11.0
 40
11.0
 40
12.0
 40
12.0
 40
12.0
 40
12.0
 10
345.3719071323647
 20
195.5513038246943
 30
0.0
 10
345.3264955804079
 20
195.763669173246
 30
0.0
 10
345.2732165090487
 20
195.9745971894003
 30
0.0
 10
345.2166382981928
 20
196.1850218859541
 30
0.0
 10
345.1350655948587
 20
196.4884056637352
 30
0.0
 10
345.0466349785522
 20
196.790743192302
 30
0.0
 10
344.9210472547861
 20
197.0769011113317
 30
0.0
 10
344.8119643922212
 20
197.3254518774103
 30
0.0
 10
344.674849110874
 20
197.5617962684118
 30
0.0
 10
344.5387977570068
 20
197.797950878159
 30
0.0
 10
344.3945495533324
 20
198.0483333791862
 30
0.0
 10
344.2514973384673
 20
198.2985025421186
 30
0.0
 10
344.0925132334935
 20
198.5392531523322
 30
0.0
 10
343.8621684882258
 20
198.8880656200236
 30
0.0
 10
343.5983798743434
 20
199.2171068717744
 30
0.0
 10
343.3038889841416
 20
199.5137909476899
 30
0.0
 10
343.0962017501555
 20
199.7230249075549
 30
0.0
 10
342.8732442554766
 20
199.9161655163948
 30
0.0
 10
342.6427106325976
 20
200.1007569801098
 30
0.0
 10
342.4192953145074
 20
200.2796487186368
 30
0.0
 10
342.1887645089581
 20
200.450511113767
 30
0.0
 10
341.9414064833762
 20
200.5930279090087
 30
0.0
 10
341.7609484577265
 20
200.6969998720296
 30
0.0
 10
341.5715344592824
 20
200.7858854202567
 30
0.0
 10
341.3783313080837
 20
200.8644837807113
 30
0.0
 10
341.1974553947672
 20
200.9380672090737
 30
0.0
 10
341.0132584332654
 20
201.0026343088484
 30
0.0
 10
340.825653219167
 20
201.0568827740213
 30
0.0
 10
340.6162467659543
 20
201.1174353484227
 30
0.0
 10
340.4025939011521
 20
201.1651317249968
 30
0.0
 10
340.1866558898314
 20
201.1924310678919
 30
0.0
 10
339.9832648238132
 20
201.2181441992815
 30
0.0
 10
339.7778464504142
 20
201.2257617483506
 30
0.0
 10
339.5726472030825
 20
201.2316686953692
 30
0.0
 10
339.3653520743771
 20
201.2376359752646
 30
0.0
 10
339.158280570872
 20
201.2418575308719
 30
0.0
 10
338.9511568846718
 20
201.2431392452149
 30
0.0
  0
SPLINE
  5
A1
330
70
100
AcDbEntity
  8
shade
 62
     6
420
 16711935
370
    25
100
AcDbSpline
210
0.0
220
0.0
230
1.0
 70
     8
 71
     3
 72
    38
 73
    34
 74
     0
 42
0.0000000001
 43
0.0000000001
 40
0.0
 40
0.0
 40
0.0
 40
0.0
 40
1.0
 40
1.0
 40
1.0
 40
2.0
 40
2.0
 40
2.0
 40
3.0
 40
3.0
 40
3.0
 40
4.0
 40
4.0
 40
4.0
 40
5.0
 40
5.0
 40
5.0
 40
6.0
 40
6.0
 40
6.0
 40
7.0
 40
7.0
 40
7.0
 40
8.0
 40
8.0
 40
8.0
 40
9.0
 40
9.0
 40
9.0
 40
10.0
 40
10.0
 40
10.0
 40
11.0
 40
11.0
 40
11.0
 40
11.0
 10
350.2493648403137
 20
184.5691889725681
 30
0.0
 10
350.2565510016143
 20
184.565989154378
 30
0.0
 10
350.2636911097098
 20
184.5630332894876
 30
0.0
 10
350.2707891750639
 20
184.5603332110328
 30
0.0
 10
350.3995284392877
 20
184.5113612595774
 30
0.0
 10
350.5144373637815
 20
184.5465326169402
 30
0.0
 10
350.6476270989224
 20
184.610826123348
 30
0.0
 10
350.7744291145121
 20
184.6720361422287
 30
0.0
 10
350.9178005099398
 20
184.7596419243004
 30
0.0
 10
351.0394840591873
 20
184.8687452626981
 30
0.0
 10
351.2817880764775
 20
185.0859987645363
 30
0.0
 10
351.4380969521667
 20
185.3884928838414
 30
0.0
 10
351.5758016803604
 20
185.6915463312639
 30
0.0
 10
351.757925483016
 20
186.0923549816
 30
0.0
 10
351.9075071921753
 20
186.4941420002002
 30
0.0
 10
352.041694198945
 20
186.9040951739339
 30
0.0
 10
352.1620836507955
 20
187.2718955971017
 30
0.0
 10
352.2700815067765
 20
187.6462691706386
 30
0.0
 10
352.373778237073
 20
188.0211879947745
 30
0.0
 10
352.5560020219909
 20
188.6800238807102
 30
0.0
 10
352.724943847919
 20
189.3405435109324
 30
0.0
 10
352.9055907398102
 20
189.9988759538183
 30
0.0
 10
353.0794144701986
 20
190.6323427124837
 30
0.0
 10
353.2640757479861
 20
191.2637843867441
 30
0.0
 10
353.4058883839382
 20
191.9134325003237
 30
0.0
 10
353.4698543405989
 20
192.206462545203
 30
0.0
 10
353.5251025354173
 20
192.5031967775455
 30
0.0
 10
353.5844987833284
 20
192.7862991793221
 30
0.0
 10
353.6052987374669
 20
192.8854387239895
 30
0.0
 10
353.6266073790678
 20
192.9829065587578
 30
0.0
 10
353.6472745265513
 20
193.08243256413
 30
0.0
 10
353.6743377099542
 20
193.2127597192717
 30
0.0
 10
353.7003009017846
 20
193.3466160888965
 30
0.0
 10
353.7194273301665
 20
193.4815280502962
 30
0.0
  0
SPLINE
  5
A2
330
70
100
AcDbEntity
  8
shade
 62
     6
420
 16711935
370
    25
100
AcDbSpline
210
0.0
220
0.0
230
1.0
 70
     8
 71
     3
 72
     8
 73
     4
 74
     0
 42
0.0000000001
 43
0.0000000001
 40
0.0
 40
0.0
 40
0.0
 40
0.0
 40
1.0
 40
1.0
 40
1.0
 40
1.0
 10
353.8905891533063
 20
198.5903525012035
 30
0.0
 10
352.1419152618273
 20
198.9360895106569
 30
0.0
 10
350.3656173445229
 20
199.1233743459462
 30
0.0
 10
348.5832904247368
 20
199.149930125281
 30
0.0
  0
SPLINE
  5
A3
330
70
100
AcDbEntity
  8
shade
 62
     6
420
 16711935
370
    25
100
AcDbSpline
210
0.0
220
0.0
230
1.0
 70
     8
 71
     3
 72
   134
 73
   130
 74
     0
 42
0.0000000001
 43
0.0000000001
 40
0.0
 40
0.0
 40
0.0
 40
0.0
 40
1.0
 40
1.0
 40
1.0
 40
2.0
 40
2.0
 40
2.0
 40
3.0
 40
3.0
 40
3.0
 40
4.0
 40
4.0
 40
4.0
 40
5.0
 40
5.0
 40
5.0
 40
6.0
 40
6.0
 40
6.0
 40
7.0
 40
7.0
 40
7.0
 40
8.0
 40
8.0
 40
8.0
 40
9.0
 40
9.0
 40
9.0
 40
10.0
 40
10.0
 40
10.0
 40
11.0
 40
11.0
 40
11.0
 40
12.0
 40
12.0
 40
12.0
 40
13.0
 40
13.0
 40
13.0
 40
14.0
 40
14.0
 40
14.0
 40
15.0
 40
15.0
 40
15.0
 40
16.0
 40
16.0
 40
16.0
 40
17.0
 40
17.0
 40
17.0
 40
18.0
 40
18.0
 40
18.0
 40
19.0
 40
19.0
 40
19.0
 40
20.0
 40
20.0
 40
20.0
 40
21.0
 40
21.0
 40
21.0
 40
22.0
 40
22.0
 40
22.0
 40
23.0
 40
23.0
 40
23.0
 40
24.0
 40
24.0
 40
24.0
 40
25.0
 40
25.0
 40
25.0
 40
26.0
 40
26.0
 40
26.0
 40
27.0
 40
27.0
 40
27.0
 40
28.0
 40
28.0
 40
28.0
 40
29.0
 40
29.0
 40
29.0
 40
30.0
 40
30.0
 40
30.0
 40
31.0
 40
31.0
 40
31.0
 40
32.0
 40
32.0
 40
32.0
 40
33.0
 40
33.0
 40
33.0
 40
34.0
 40
34.0
 40
34.0
 40
35.0
 40
35.0
 40
35.0
 40
36.0
 40
36.0
 40
36.0
 40
37.0
 40
37.0
 40
37.0
 40
38.0
 40
38.0
 40
38.0
 40
39.0
 40
39.0
 40
39.0
 40
40.0
 40
40.0
 40
40.0
 40
41.0
 40
41.0
 40
41.0
 40
42.0
 40
42.0
 40
42.0
 40
43.0
 40
43.0
 40
43.0
 40
43.0
 10
358.0034371669476
 20
183.9919102536775
 30
0.0
 10
358.1595313003262
 20
184.3676818937487
 30
0.0
 10
358.2072852707449
 20
184.4986969281541
 30
0.0
 10
358.2533266462867
 20
184.6301907766934
 30
0.0
 10
358.4722627948352
 20
185.2554708953266
 30
0.0
 10
358.6524738020204
 20
185.8915779436822
 30
0.0
 10
358.8231650337694
 20
186.5328132071058
 30
0.0
 10
358.9483023908738
 20
187.0029163595592
 30
0.0
 10
359.0683231860402
 20
187.4757757566518
 30
0.0
 10
359.1505886291823
 20
187.951591566502
 30
0.0
 10
359.2432494582594
 20
188.4875333392639
 30
0.0
 10
359.2880102331977
 20
189.0272259002792
 30
0.0
 10
359.2898231046984
 20
189.5857348015355
 30
0.0
 10
359.2908370428884
 20
189.8981085669408
 30
0.0
 10
359.2784161912988
 20
190.2163683839267
 30
0.0
 10
359.1716855949853
 20
190.4953826150087
 30
0.0
 10
359.1174436612056
 20
190.6371814240688
 30
0.0
 10
359.0388433123929
 20
190.7688438440113
 30
0.0
 10
358.9145635568786
 20
190.8842398161553
 30
0.0
 10
358.8713622346908
 20
190.9243530152118
 30
0.0
 10
358.8226412344134
 20
190.9625006555378
 30
0.0
 10
358.7755786714012
 20
190.9675662724731
 30
0.0
 10
358.6908151858914
 20
190.9766898586165
 30
0.0
 10
358.6114314927552
 20
190.8784989146758
 30
0.0
 10
358.5462536103943
 20
190.7870255592678
 30
0.0
 10
358.423454983785
 20
190.6146848509338
 30
0.0
 10
358.3510821287692
 20
190.466189285295
 30
0.0
 10
358.2891312152109
 20
190.3009541012259
 30
0.0
 10
358.2334518777877
 20
190.1524464354456
 30
0.0
 10
358.186191168321
 20
189.9904168534292
 30
0.0
 10
358.1431970854676
 20
189.8287704437686
 30
0.0
 10
358.0033453680427
 20
189.3029648792563
 30
0.0
 10
357.9086379449448
 20
188.781213582229
 30
0.0
 10
357.8025112954869
 20
188.2576765111872
 30
0.0
 10
357.7240989555674
 20
187.8708578658678
 30
0.0
 10
357.6394527619801
 20
187.4830643511919
 30
0.0
 10
357.5453892573667
 20
187.0980489816196
 30
0.0
 10
357.474929194269
 20
186.8096458719227
 30
0.0
 10
357.3991850356609
 20
186.5228015919116
 30
0.0
 10
357.3366269894468
 20
186.2331493785142
 30
0.0
 10
357.2360520083021
 20
185.7674736155009
 30
0.0
 10
357.1695594405501
 20
185.2945401298336
 30
0.0
 10
357.0934030828094
 20
184.8235423064215
 30
0.0
 10
356.9358090395049
 20
183.8488836753596
 30
0.0
 10
356.7368326843271
 20
182.8825139432615
 30
0.0
 10
356.5531241567452
 20
181.9131937884443
 30
0.0
 10
356.3861864066753
 20
181.0323630079763
 30
0.0
 10
356.2318561203019
 20
180.1490959053148
 30
0.0
 10
356.0731539018087
 20
179.2665154413003
 30
0.0
 10
355.959120623756
 20
178.6323494894656
 30
0.0
 10
355.8428301426265
 20
177.9985380451738
 30
0.0
 10
355.6636133913357
 20
177.3776511568214
 30
0.0
 10
355.5525612993812
 20
176.9929170997497
 30
0.0
 10
355.4173474634823
 20
176.6131456729175
 30
0.0
 10
355.2369732837562
 20
176.2585859190807
 30
0.0
 10
354.9756617882899
 20
175.7449284785226
 30
0.0
 10
354.6195683662186
 20
175.2841849605849
 30
0.0
 10
354.2414792233063
 20
174.8375504926871
 30
0.0
 10
353.9755177266354
 20
174.5233717499852
 30
0.0
 10
353.6986722602916
 20
174.2161744776327
 30
0.0
 10
353.3348685037144
 20
174.0204550964789
 30
0.0
 10
353.0584201998179
 20
173.8717312584579
 30
0.0
 10
352.7317602458723
 20
173.7873772331782
 30
0.0
 10
352.4282577841353
 20
173.8250627643929
 30
0.0
 10
352.1409261268241
 20
173.8607403865057
 30
0.0
 10
351.8743500099528
 20
174.0057993236425
 30
0.0
 10
351.6105304054213
 20
174.1447958134385
 30
0.0
 10
351.2411513452755
 20
174.3394075552674
 30
0.0
 10
350.8771759742665
 20
174.5221348661306
 30
0.0
 10
350.5454717746427
 20
174.7587071018456
 30
0.0
 10
350.190901152257
 20
175.0115877254504
 30
0.0
 10
349.8732043632563
 20
175.3259928832713
 30
0.0
 10
349.5967374656938
 20
175.6679263780783
 30
0.0
 10
349.3349982380881
 20
175.9916447313736
 30
0.0
 10
349.1102131884716
 20
176.3400366171192
 30
0.0
 10
348.8886536791738
 20
176.690824142287
 30
0.0
 10
348.6536853195322
 20
177.0628414374782
 30
0.0
 10
348.4223447358325
 20
177.4375531163078
 30
0.0
 10
348.2153939547012
 20
177.8254727579213
 30
0.0
 10
347.9924576953059
 20
178.2433564371626
 30
0.0
 10
347.7978246374984
 20
178.6765673267123
 30
0.0
 10
347.6194960797271
 20
179.1157874866797
 30
0.0
 10
347.4390859557966
 20
179.5601345081544
 30
0.0
 10
347.2753631867224
 20
180.010631906995
 30
0.0
 10
347.114553607316
 20
180.4620684167564
 30
0.0
 10
346.9425647185691
 20
180.9448883080275
 30
0.0
 10
346.7739081422342
 20
181.4287824207882
 30
0.0
 10
346.614056623084
 20
181.9161612657149
 30
0.0
 10
346.4858138810588
 20
182.3071666174846
 30
0.0
 10
346.3632382828671
 20
182.7004148255981
 30
0.0
 10
346.2472035112726
 20
183.0940890195189
 30
0.0
 10
346.097012648769
 20
183.6036454733533
 30
0.0
 10
345.9577800905276
 20
184.1139156110032
 30
0.0
 10
345.8114681847978
 20
184.6303855190129
 30
0.0
 10
345.7141413929116
 20
184.9739416978732
 30
0.0
 10
345.6136820459493
 20
185.3202412259075
 30
0.0
 10
345.4358355016145
 20
185.6240085827636
 30
0.0
 10
345.3363398827472
 20
185.7939501538681
 30
0.0
 10
345.2126235927972
 20
185.9505799917248
 30
0.0
 10
345.0951536393826
 20
186.1109364210267
 30
0.0
 10
344.9153713384833
 20
186.3563544788812
 30
0.0
 10
344.7502197560956
 20
186.6105012868316
 30
0.0
 10
344.5640777665262
 20
186.8492910045741
 30
0.0
 10
344.3076208557381
 20
187.1782832619497
 30
0.0
 10
344.0113201245715
 20
187.4781248154726
 30
0.0
 10
343.6972796965874
 20
187.7542013031695
 30
0.0
 10
343.5731201341909
 20
187.8633513769907
 30
0.0
 10
343.4461876640644
 20
187.9687867123143
 30
0.0
 10
343.3164727507972
 20
188.071101389461
 30
0.0
 10
343.1254108043102
 20
188.2218045035351
 30
0.0
 10
342.9283122234132
 20
188.3657372106084
 30
0.0
 10
342.721357567404
 20
188.4933928274312
 30
0.0
 10
342.41018281398
 20
188.6853344142833
 30
0.0
 10
342.0767256429331
 20
188.8404770807953
 30
0.0
 10
341.7381237706106
 20
188.9803208392642
 30
0.0
 10
341.5049975803861
 20
189.0766027718376
 30
0.0
 10
341.2694326609247
 20
189.1656326031841
 30
0.0
 10
341.0289252199113
 20
189.2405017900181
 30
0.0
 10
340.8041607379476
 20
189.3104702447282
 30
0.0
 10
340.5750796053067
 20
189.3680712155444
 30
0.0
 10
340.3432488362736
 20
189.4085566043907
 30
0.0
 10
340.1122640614767
 20
189.4488942544217
 30
0.0
 10
339.8785496815442
 20
189.4722410105354
 30
0.0
 10
339.6446355464113
 20
189.4904294359714
 30
0.0
 10
339.4923779248616
 20
189.5022685084264
 30
0.0
 10
339.3400356696287
 20
189.5119220631831
 30
0.0
 10
339.1875179573381
 20
189.5162839960923
 30
0.0
 10
339.1087661922473
 20
189.5185362585395
 30
0.0
 10
339.0299676481614
 20
189.519377710013
 30
0.0
 10
338.9511568846718
 20
189.5197760741438
 30
0.0
  0
SPLINE
  5
A4
330
70
100
AcDbEntity
  8
shade
 62
     6
420
 16711935
370
    25
100
AcDbSpline
210
0.0
220
0.0
230
1.0
 70
     8
 71
     3
 72
    50
 73
    46
 74
     0
 42
0.0000000001
 43
0.0000000001
 40
0.0
 40
0.0
 40
0.0
 40
0.0
 40
1.0
 40
1.0
 40
1.0
 40
2.0
 40
2.0
 40
2.0
 40
3.0
 40
3.0
 40
3.0
 40
4.0
 40
4.0
 40
4.0
 40
5.0
 40
5.0
 40
5.0
 40
6.0
 40
6.0
 40
6.0
 40
7.0
 40
7.0
 40
7.0
 40
8.0
 40
8.0
 40
8.0
 40
9.0
 40
9.0
 40
9.0
 40
10.0
 40
10.0
 40
10.0
 40
11.0
 40
11.0
 40
11.0
 40
12.0
 40
12.0
 40
12.0
 40
13.0
 40
13.0
 40
13.0
 40
14.0
 40
14.0
 40
14.0
 40
15.0
 40
15.0
 40
15.0
 40
15.0
 10
345.5165770371924
 20
185.4730471297421
 30
0.0
 10
345.4867242839116
 20
185.6783670947407
 30
0.0
 10
345.4501826853382
 20
185.8830504377334
 30
0.0
 10
345.4152030803926
 20
186.0877197341966
 30
0.0
 10
345.36129562159
 20
186.4031378666874
 30
0.0
 10
345.3110979344237
 20
186.7185226383566
 30
0.0
 10
345.2494335036957
 20
187.0318070853213
 30
0.0
 10
345.1704549426592
 20
187.4330554959151
 30
0.0
 10
345.0726663692575
 20
187.8308585400662
 30
0.0
 10
344.9859406703815
 20
188.2308635133506
 30
0.0
 10
344.9222740304248
 20
188.5245131805519
 30
0.0
 10
344.8645694489425
 20
188.8193495221625
 30
0.0
 10
344.8119517609352
 20
189.115157855026
 30
0.0
 10
344.7762478793747
 20
189.3158794389947
 30
0.0
 10
344.7428861762968
 20
189.5170485607302
 30
0.0
 10
344.7073638849956
 20
189.7176926856936
 30
0.0
 10
344.6206580588953
 20
190.2074419098537
 30
0.0
 10
344.5210796224636
 20
190.6940632455925
 30
0.0
 10
344.4287878137425
 20
191.1841778808313
 30
0.0
 10
344.3768694416159
 20
191.4598898249958
 30
0.0
 10
344.3272569797376
 20
191.7367072510789
 30
0.0
 10
344.2453998211047
 20
192.0036258059557
 30
0.0
 10
344.1195558846865
 20
192.4139757645417
 30
0.0
 10
343.917502370571
 20
192.8009299753079
 30
0.0
 10
343.69504266979
 20
193.1713825257588
 30
0.0
 10
343.470053779639
 20
193.5460468262843
 30
0.0
 10
343.2241920610214
 20
193.9038321120836
 30
0.0
 10
342.9450873834422
 20
194.2401322137596
 30
0.0
 10
342.6935001354694
 20
194.5432758866281
 30
0.0
 10
342.4149017612737
 20
194.8289620575552
 30
0.0
 10
342.0957706155784
 20
195.0548462689055
 30
0.0
 10
341.8252421968688
 20
195.2463289848213
 30
0.0
 10
341.5255869156468
 20
195.3948379935429
 30
0.0
 10
341.2260703024192
 20
195.5436746672826
 30
0.0
 10
340.9839675891972
 20
195.6639810574752
 30
0.0
 10
340.7419554771179
 20
195.7845015333125
 30
0.0
 10
340.4854658951729
 20
195.8627710720869
 30
0.0
 10
340.313398823914
 20
195.9152785080721
 30
0.0
 10
340.134816237752
 20
195.9487711152566
 30
0.0
 10
339.9554922891549
 20
195.9713996243495
 30
0.0
 10
339.7568391621552
 20
195.9964672414897
 30
0.0
 10
339.5572762375473
 20
196.0082024718838
 30
0.0
 10
339.3575734131268
 20
196.0121353097426
 30
0.0
 10
339.222142272199
 20
196.0148024163301
 30
0.0
 10
339.0866467905618
 20
196.0138811592092
 30
0.0
 10
338.9511568846718
 20
196.012973999135
 30
0.0
  0
SPLINE
  5
A5
330
70
100
AcDbEntity
  8
shade
 62
     6
420
 16711935
370
    25
100
AcDbSpline
210
0.0
220
0.0
230
1.0
 70
     8
 71
     3
 72
     8
 73
     4
 74
     0
 42
0.0000000001
 43
0.0000000001
 40
0.0
 40
0.0
 40
0.0
 40
0.0
 40
1.0
 40
1.0
 40
1.0
 40
1.0
 10
358.9135520502377
 20
190.8851777133941
 30
0.0
 10
357.5576104787401
 20
191.6799777933752
 30
0.0
 10
356.1156907332415
 20
192.3180189344358
 30
0.0
 10
354.615578790086
 20
192.7870060029191
 30
0.0
  0
LINE
  5
A6
330
70
100
AcDbEntity
  8
shade
 62
     6
420
 16711935
370
    25
100
AcDbLine
 10
357.1390482281752
 20
185.1111451872249
 30
0.0
 11
359.4253530474941
 21
182.1507738685558
 31
0.0
  0
SPLINE
  5
A7
330
70
100
AcDbEntity
  8
shade
 62
     6
420
 16711935
370
    25
100
AcDbSpline
210
0.0
220
0.0
230
1.0
 70
     8
 71
     3
 72
    71
 73
    67
 74
     0
 42
0.0000000001
 43
0.0000000001
 40
0.0
 40
0.0
 40
0.0
 40
0.0
 40
1.0
 40
1.0
 40
1.0
 40
2.0
 40
2.0
 40
2.0
 40
3.0
 40
3.0
 40
3.0
 40
4.0
 40
4.0
 40
4.0
 40
5.0
 40
5.0
 40
5.0
 40
6.0
 40
6.0
 40
6.0
 40
7.0
 40
7.0
 40
7.0
 40
8.0
 40
8.0
 40
8.0
 40
9.0
 40
9.0
 40
9.0
 40
10.0
 40
10.0
 40
10.0
 40
11.0
 40
11.0
 40
11.0
 40
12.0
 40
12.0
 40
12.0
 40
13.0
 40
13.0
 40
13.0
 40
14.0
 40
14.0
 40
14.0
 40
15.0
 40
15.0
 40
15.0
 40
16.0
 40
16.0
 40
16.0
 40
17.0
 40
17.0
 40
17.0
 40
18.0
 40
18.0
 40
18.0
 40
19.0
 40
19.0
 40
19.0
 40
20.0
 40
20.0
 40
20.0
 40
21.0
 40
21.0
 40
21.0
 40
22.0
 40
22.0
 40
22.0
 40
22.0
 10
359.4253530474941
 20
182.1507738685558
 30
0.0
 10
357.5859911428105
 20
179.186947274131
 30
0.0
 10
355.9648653018559
 20
176.0920290401037
 30
0.0
 10
354.1330503741427
 20
173.1230822977638
 30
0.0
 10
353.7789258327137
 20
172.5491286260529
 30
0.0
 10
353.4169273729922
 20
171.9798827882585
 30
0.0
 10
353.0519240708206
 20
171.4131961015973
 30
0.0
 10
352.7374251736213
 20
170.9249201409479
 30
0.0
 10
352.4206954469485
 20
170.4385441234182
 30
0.0
 10
352.1152079338806
 20
169.9431909650119
 30
0.0
 10
351.9906483780973
 20
169.7412155430019
 30
0.0
 10
351.8679578640881
 20
169.5377476523512
 30
0.0
 10
351.728226222853
 20
169.3470553809611
 30
0.0
 10
351.439165859873
 20
168.95257366803
 30
0.0
 10
351.0771789104079
 20
168.6127645300045
 30
0.0
 10
350.6962752314875
 20
168.2997901798192
 30
0.0
 10
350.3916706432839
 20
168.0495079474985
 30
0.0
 10
350.0749687509365
 20
167.8163866409688
 30
0.0
 10
349.7271452369507
 20
167.6340632009555
 30
0.0
 10
349.369676539296
 20
167.4466839122071
 30
0.0
 10
348.9793362768858
 20
167.3129588121208
 30
0.0
 10
348.5823249071716
 20
167.2473807959817
 30
0.0
 10
348.2272227728356
 20
167.188725313354
 30
0.0
 10
347.8667836212988
 20
167.1845888397859
 30
0.0
 10
347.5020009341327
 20
167.2151571899064
 30
0.0
 10
347.1192123394057
 20
167.2472344134167
 30
0.0
 10
346.731640826739
 20
167.3175271227345
 30
0.0
 10
346.4055532289638
 20
167.505169123816
 30
0.0
 10
346.1498686467367
 20
167.6522988122186
 30
0.0
 10
345.9319849550637
 20
167.8715759515987
 30
0.0
 10
345.7605839486194
 20
168.1174164241143
 30
0.0
 10
345.6147407745261
 20
168.3265992963796
 30
0.0
 10
345.5025516002801
 20
168.5550143279851
 30
0.0
 10
345.4219748622097
 20
168.7941109365434
 30
0.0
 10
345.3533018081259
 20
168.9978855583557
 30
0.0
 10
345.3075908393119
 20
169.209418876129
 30
0.0
 10
345.2768569883696
 20
169.4224701266656
 30
0.0
 10
345.2131080334188
 20
169.8643865853901
 30
0.0
 10
345.2137968371379
 20
170.3128338189948
 30
0.0
 10
345.2446084529444
 20
170.7597472617082
 30
0.0
 10
345.2933960544013
 20
171.4673970998675
 30
0.0
 10
345.4177077456591
 20
172.1712014085694
 30
0.0
 10
345.4219748622097
 20
172.8703893802581
 30
0.0
 10
345.424945349856
 20
173.3571183484117
 30
0.0
 10
345.3697418237289
 20
173.8416102237608
 30
0.0
 10
345.3408702330081
 20
174.3426269373052
 30
0.0
 10
345.3201070334115
 20
174.7029364930044
 30
0.0
 10
345.3129623538302
 20
175.0717924709757
 30
0.0
 10
345.1806234166288
 20
175.390823499686
 30
0.0
 10
345.0603524045857
 20
175.6807622395762
 30
0.0
 10
344.8366788887475
 20
175.9295487365338
 30
0.0
 10
344.616617366828
 20
176.1722171780556
 30
0.0
 10
344.339781609145
 20
176.4774922724353
 30
0.0
 10
344.0686619953923
 20
176.7730852670666
 30
0.0
 10
343.7590591280368
 20
177.0291129063802
 30
0.0
 10
343.3887212023443
 20
177.3353657059134
 30
0.0
 10
342.9633204865539
 20
177.5850074175048
 30
0.0
 10
342.5170775656092
 20
177.7776656003906
 30
0.0
 10
342.0766541238779
 20
177.9678113170003
 30
0.0
 10
341.6159285411204
 20
178.1024500646131
 30
0.0
 10
341.1469556094183
 20
178.1913394302018
 30
0.0
 10
340.7663655853675
 20
178.2634766549858
 30
0.0
 10
340.3803438882841
 20
178.3054835087541
 30
0.0
 10
339.9936870667422
 20
178.3292307068143
 30
0.0
 10
339.646506512307
 20
178.3505534015824
 30
0.0
 10
339.2988139009081
 20
178.3571545979438
 30
0.0
 10
338.9511568846718
 20
178.3584977116773
 30
0.0
  0
SPLINE
  5
A8
330
70
100
AcDbEntity
  8
shade
 62
     6
420
 16711935
370
    25
100
AcDbSpline
210
0.0
220
0.0
230
1.0
 70
     8
 71
     3
 72
    32
 73
    28
 74
     0
 42
0.0000000001
 43
0.0000000001
 40
0.0
 40
0.0
 40
0.0
 40
0.0
 40
1.0
 40
1.0
 40
1.0
 40
2.0
 40
2.0
 40
2.0
 40
3.0
 40
3.0
 40
3.0
 40
4.0
 40
4.0
 40
4.0
 40
5.0
 40
5.0
 40
5.0
 40
6.0
 40
6.0
 40
6.0
 40
7.0
 40
7.0
 40
7.0
 40
8.0
 40
8.0
 40
8.0
 40
9.0
 40
9.0
 40
9.0
 40
9.0
 10
345.2212422256386
 20
175.279751681459
 30
0.0
 10
345.2229463762445
 20
175.4193898718537
 30
0.0
 10
345.2241008819369
 20
175.559016196252
 30
0.0
 10
345.2230412294578
 20
175.6986106172375
 30
0.0
 10
345.2165276337668
 20
176.5566859202445
 30
0.0
 10
345.1263529855986
 20
177.4135557658988
 30
0.0
 10
345.0271241014693
 20
178.2661545014643
 30
0.0
 10
344.841868020564
 20
179.8579198602026
 30
0.0
 10
344.625053135547
 20
181.4347981398625
 30
0.0
 10
344.3917531478876
 20
183.0314121921308
 30
0.0
 10
344.2858449261547
 20
183.7562067228492
 30
0.0
 10
344.1765395008193
 20
184.4850683461002
 30
0.0
 10
343.9096187078984
 20
185.1598562236802
 30
0.0
 10
343.6377520987917
 20
185.847147349027
 30
0.0
 10
343.202375049596
 20
186.4783422822005
 30
0.0
 10
342.6759685973518
 20
187.0089016043602
 30
0.0
 10
342.3145201583709
 20
187.3732015440129
 30
0.0
 10
341.9101544587217
 20
187.6900552233768
 30
0.0
 10
341.4615940521983
 20
187.9334242947037
 30
0.0
 10
341.1870564698177
 20
188.08237626526
 30
0.0
 10
340.8959637803577
 20
188.2038012842639
 30
0.0
 10
340.594183611795
 20
188.2801203035796
 30
0.0
 10
340.2628731260733
 20
188.3639074241148
 30
0.0
 10
339.9186812053313
 20
188.3933290578194
 30
0.0
 10
339.576213591523
 20
188.4044811543369
 30
0.0
 10
339.3674864837584
 20
188.4112781323796
 30
0.0
 10
339.159399896825
 20
188.4112886043586
 30
0.0
 10
338.9511568846718
 20
188.4109926152703
 30
0.0
  0
SPLINE
  5
A9
330
70
100
AcDbEntity
  8
shade
 62
     6
420
 16711935
370
    25
100
AcDbSpline
210
0.0
220
0.0
230
1.0
 70
     8
 71
     3
 72
    32
 73
    28
 74
     0
 42
0.0000000001
 43
0.0000000001
 40
0.0
 40
0.0
 40
0.0
 40
0.0
 40
1.0
 40
1.0
 40
1.0
 40
2.0
 40
2.0
 40
2.0
 40
3.0
 40
3.0
 40
3.0
 40
4.0
 40
4.0
 40
4.0
 40
5.0
 40
5.0
 40
5.0
 40
6.0
 40
6.0
 40
6.0
 40
7.0
 40
7.0
 40
7.0
 40
8.0
 40
8.0
 40
8.0
 40
9.0
 40
9.0
 40
9.0
 40
9.0
 10
355.8107154934957
 20
184.6956208971443
 30
0.0
 10
355.5653522616216
 20
184.1806688564146
 30
0.0
 10
355.211865873959
 20
183.7344661862578
 30
0.0
 10
354.8601008628119
 20
183.288432658977
 30
0.0
 10
354.2084746092625
 20
182.4621789181627
 30
0.0
 10
353.5627553661829
 20
181.6365056016328
 30
0.0
 10
352.8857760027557
 20
180.8354212130322
 30
0.0
 10
352.4595160264485
 20
180.3310185222752
 30
0.0
 10
352.0208626949039
 20
179.8363643326564
 30
0.0
 10
351.5765558065397
 20
179.3464880599139
 30
0.0
 10
351.1959843420499
 20
178.9268840982726
 30
0.0
 10
350.8112649791297
 20
178.5107855960264
 30
0.0
 10
350.3968660671751
 20
178.1248453408722
 30
0.0
 10
350.1391688181194
 20
177.8848453331852
 30
0.0
 10
349.8699942712745
 20
177.6565077393171
 30
0.0
 10
349.5818077667112
 20
177.4532991767371
 30
0.0
 10
349.4256296899148
 20
177.3431735393808
 30
0.0
 10
349.263867943649
 20
177.2404281101584
 30
0.0
 10
349.0741837186807
 20
177.1889671944245
 30
0.0
 10
348.9786648942015
 20
177.1630531460768
 30
0.0
 10
348.8760654792197
 20
177.1501438399875
 30
0.0
 10
348.7862235610809
 20
177.1771316516261
 30
0.0
 10
348.7056648447411
 20
177.2013308618365
 30
0.0
 10
348.6353634155419
 20
177.2576081667874
 30
0.0
 10
348.5670938433735
 20
177.3141170813591
 30
0.0
 10
348.522971558237
 20
177.3506385119689
 30
0.0
 10
348.4796979742266
 20
177.3872566852793
 30
0.0
 10
348.438971949583
 20
177.425637831645
 30
0.0
  0
SPLINE
  5
AA
330
70
100
AcDbEntity
  8
shade
 62
     6
420
 16711935
370
    25
100
AcDbSpline
210
0.0
220
0.0
230
1.0
 70
     8
 71
     3
 72
    20
 73
    16
 74
     0
 42
0.0000000001
 43
0.0000000001
 40
0.0
 40
0.0
 40
0.0
 40
0.0
 40
1.0
 40
1.0
 40
1.0
 40
2.0
 40
2.0
 40
2.0
 40
3.0
 40
3.0
 40
3.0
 40
4.0
 40
4.0
 40
4.0
 40
5.0
 40
5.0
 40
5.0
 40
5.0
 10
345.4220895005893
 20
172.9056995043227
 30
0.0
 10
345.5496495529904
 20
172.8639808482048
 30
0.0
 10
345.6779246447936
 20
172.8247824130411
 30
0.0
 10
345.8076079299472
 20
172.7904891391454
 30
0.0
 10
346.2551996559222
 20
172.6721285837767
 30
0.0
 10
346.7195662217593
 20
172.612199844211
 30
0.0
 10
347.1837950317151
 20
172.5957813558435
 30
0.0
 10
347.8158731356878
 20
172.5734265024136
 30
0.0
 10
348.4476958593301
 20
172.6317336338024
 30
0.0
 10
349.0714853609124
 20
172.7296429243172
 30
0.0
 10
349.8846283202659
 20
172.8572729181475
 30
0.0
 10
350.6841208141265
 20
173.0521969445394
 30
0.0
 10
351.4719740007465
 20
173.2981263134531
 30
0.0
 10
351.9794235389394
 20
173.4565273287574
 30
0.0
 10
352.4820444656353
 20
173.6360881071007
 30
0.0
 10
352.95739719864
 20
173.8692079665792
 30
0.0
  0
LINE
  5
AB
330
70
100
AcDbEntity
  8
shade
 62
     6
420
 16711935
370
    25
100
AcDbLine
 10
356.3816090867277
 20
176.9469225171124
 30
0.0
 11
357.6123054064689
 21
174.3250130309896
 31
0.0
  0
LINE
  5
AC
330
70
100
AcDbEntity
  8
shade
 62
     6
420
 16711935
370
    25
100
AcDbLine
 10
357.6123054064689
 20
174.3250130309896
 30
0.0
 11
352.9817964250189
 21
171.3043950433481
 31
0.0
  0
SPLINE
  5
AD
330
70
100
AcDbEntity
  8
shade
 62
     6
420
 16711935
370
    25
100
AcDbSpline
210
0.0
220
0.0
230
1.0
 70
     8
 71
     3
 72
    32
 73
    28
 74
     0
 42
0.0000000001
 43
0.0000000001
 40
0.0
 40
0.0
 40
0.0
 40
0.0
 40
1.0
 40
1.0
 40
1.0
 40
2.0
 40
2.0
 40
2.0
 40
3.0
 40
3.0
 40
3.0
 40
4.0
 40
4.0
 40
4.0
 40
5.0
 40
5.0
 40
5.0
 40
6.0
 40
6.0
 40
6.0
 40
7.0
 40
7.0
 40
7.0
 40
8.0
 40
8.0
 40
8.0
 40
9.0
 40
9.0
 40
9.0
 40
9.0
 10
346.6842912775214
 20
167.3763832946269
 30
0.0
 10
346.495614968619
 20
167.2270630220889
 30
0.0
 10
346.3048574237586
 20
167.0803261127593
 30
0.0
 10
346.1113497491843
 20
166.9363590813372
 30
0.0
 10
345.7855051627096
 20
166.6939352192326
 30
0.0
 10
345.451862673576
 20
166.4593652551862
 30
0.0
 10
345.0964422953528
 20
166.266206140584
 30
0.0
 10
344.5741533120466
 20
165.982359507782
 30
0.0
 10
344.0048367235982
 20
165.7879362836097
 30
0.0
 10
343.4203343518057
 20
165.6459232027237
 30
0.0
 10
343.0108861735978
 20
165.5464420028947
 30
0.0
 10
342.5939861724029
 20
165.4726790094992
 30
0.0
 10
342.1784227745634
 20
165.4877193645523
 30
0.0
 10
341.8367032605591
 20
165.500087111209
 30
0.0
 10
341.4958875365655
 20
165.5725022740521
 30
0.0
 10
341.1708712646913
 20
165.6990783107587
 30
0.0
 10
340.9114188657509
 20
165.8001208099009
 30
0.0
 10
340.6620345593725
 20
165.9356769546416
 30
0.0
 10
340.4695324799445
 20
166.1274414741633
 30
0.0
 10
340.3256368478687
 20
166.270785778955
 30
0.0
 10
340.2135246603714
 20
166.4455370074995
 30
0.0
 10
340.1009218827661
 20
166.6188636597745
 30
0.0
 10
339.7286033460304
 20
167.191964314335
 30
0.0
 10
339.3509212892112
 20
167.749490371982
 30
0.0
 10
339.0284155417201
 20
168.3438080197029
 30
0.0
 10
339.0023677565117
 20
168.3918092059067
 30
0.0
 10
338.9766799023608
 20
168.4400503943263
 30
0.0
 10
338.9511568846718
 20
168.4884063344503
 30
0.0
  0
SPLINE
  5
AE
330
70
100
AcDbEntity
  8
shade
 62
     6
420
 16711935
370
    25
100
AcDbSpline
210
0.0
220
0.0
230
1.0
 70
     8
 71
     3
 72
    38
 73
    34
 74
     0
 42
0.0000000001
 43
0.0000000001
 40
0.0
 40
0.0
 40
0.0
 40
0.0
 40
1.0
 40
1.0
 40
1.0
 40
2.0
 40
2.0
 40
2.0
 40
3.0
 40
3.0
 40
3.0
 40
4.0
 40
4.0
 40
4.0
 40
5.0
 40
5.0
 40
5.0
 40
6.0
 40
6.0
 40
6.0
 40
7.0
 40
7.0
 40
7.0
 40
8.0
 40
8.0
 40
8.0
 40
9.0
 40
9.0
 40
9.0
 40
10.0
 40
10.0
 40
10.0
 40
11.0
 40
11.0
 40
11.0
 40
11.0
 10
340.4366833049984
 20
166.1612676642703
 30
0.0
 10
340.3954430557318
 20
166.2769220952197
 30
0.0
 10
340.4659230176761
 20
166.4191955312041
 30
0.0
 10
340.5564194573943
 20
166.5396094355214
 30
0.0
 10
340.8264187956373
 20
166.8988685907178
 30
0.0
 10
341.2745944891625
 20
167.0635454761352
 30
0.0
 10
341.6994869436788
 20
167.2369428157361
 30
0.0
 10
342.1477189145807
 20
167.4198649421559
 30
0.0
 10
342.5700394771091
 20
167.6124918716706
 30
0.0
 10
342.9508450940573
 20
167.8921958859785
 30
0.0
 10
343.0888868841083
 20
167.9935884103959
 30
0.0
 10
343.2214733702925
 20
168.1064233671987
 30
0.0
 10
343.2928569499399
 20
168.2667733719586
 30
0.0
 10
343.3484795367276
 20
168.3917192222337
 30
0.0
 10
343.366941947103
 20
168.545514479572
 30
0.0
 10
343.3187586748234
 20
168.6635320432561
 30
0.0
 10
343.2745832744798
 20
168.7717329370048
 30
0.0
 10
343.1743882194774
 20
168.8498605542655
 30
0.0
 10
343.0770084973874
 20
168.928037766265
 30
0.0
 10
342.8300571439553
 20
169.1262922683096
 30
0.0
 10
342.6012114987873
 20
169.3248657194797
 30
0.0
 10
342.3366128831604
 20
169.4701314877977
 30
0.0
 10
341.9942242757061
 20
169.6581042933539
 30
0.0
 10
341.5919703072025
 20
169.7568178390393
 30
0.0
 10
341.1995616242347
 20
169.8548671638054
 30
0.0
 10
340.978142643435
 20
169.9101920903467
 30
0.0
 10
340.7598582529948
 20
169.9653055389568
 30
0.0
 10
340.5377855419917
 20
169.9991429338246
 30
0.0
 10
340.1862310131181
 20
170.0527095758345
 30
0.0
 10
339.8251826481906
 20
170.0529567158863
 30
0.0
 10
339.4669120698289
 20
170.0532464126791
 30
0.0
 10
339.2946014116597
 20
170.0533857426874
 30
0.0
 10
339.1229332945077
 20
170.0535349166708
 30
0.0
 10
338.9511568846718
 20
170.0534170996343
 30
0.0
  0
SPLINE
  5
AF
330
70
100
AcDbEntity
  8
shade
 62
     6
420
 16711935
370
    25
100
AcDbSpline
210
0.0
220
0.0
230
1.0
 70
     8
 71
     3
 72
    14
 73
    10
 74
     0
 42
0.0000000001
 43
0.0000000001
 40
0.0
 40
0.0
 40
0.0
 40
0.0
 40
1.0
 40
1.0
 40
1.0
 40
2.0
 40
2.0
 40
2.0
 40
3.0
 40
3.0
 40
3.0
 40
3.0
 10
343.3442083842616
 20
168.4616357172154
 30
0.0
 10
343.3440197143574
 20
168.8740405750512
 30
0.0
 10
343.3316955432737
 20
169.365085114575
 30
0.0
 10
343.3236583736424
 20
169.856128649723
 30
0.0
 10
343.3079776269431
 20
170.8141685620522
 30
0.0
 10
343.3086154029522
 20
171.7722046512657
 30
0.0
 10
343.2849112129034
 20
172.7298069452503
 30
0.0
 10
343.2457389195229
 20
174.3122899549049
 30
0.0
 10
343.1400908512569
 20
175.8935883078902
 30
0.0
 10
343.1152065407292
 20
177.4763166025474
 30
0.0
  0
LINE
  5
B0
330
70
100
AcDbEntity
  8
shade
 62
     6
420
 16711935
370
    25
100
AcDbLine
 10
338.9511568846718
 20
170.0534170996343
 30
0.0
 11
338.9511568846718
 21
168.4884063344503
 31
0.0
  0
LINE
  5
B1
330
70
100
AcDbEntity
  8
shade
 62
     6
420
 16711935
370
    25
100
AcDbLine
 10
338.9511568846718
 20
170.0534170996343
 30
0.0
 11
338.9511568846718
 21
168.4884063344503
 31
0.0
  0
LWPOLYLINE
  5
B2
330
70
100
AcDbEntity
  8
shade
 62
     6
420
 16711935
370
    25
100
AcDbPolyline
 90
        3
 70
     0
 43
0.0
 10
338.9511568846718
 20
208.9695333578089
 10
339.3675490391803
 20
208.9695333578089
 10
339.3675490391803
 20
203.916915430645
  0
SPLINE
  5
B3
330
70
100
AcDbEntity
  8
shade
 62
     6
420
 16711935
370
    25
100
AcDbSpline
210
0.0
220
0.0
230
1.0
 70
     8
 71
     3
 72
    14
 73
    10
 74
     0
 42
0.0000000001
 43
0.0000000001
 40
0.0
 40
0.0
 40
0.0
 40
0.0
 40
1.0
 40
1.0
 40
1.0
 40
2.0
 40
2.0
 40
2.0
 40
3.0
 40
3.0
 40
3.0
 40
3.0
 10
338.9511568846718
 20
241.7104842839237
 30
0.0
 10
338.9511568846718
 20
241.7104842839237
 30
0.0
 10
336.0647985966204
 20
241.7104842839237
 30
0.0
 10
336.0647985966204
 20
241.7104842839237
 30
0.0
 10
336.0647985966204
 20
239.4963691073924
 30
0.0
 10
337.0239884929233
 20
237.3908303106176
 30
0.0
 10
338.6945917035136
 20
235.9377677078058
 30
0.0
 10
338.6945917035136
 20
235.9377677078058
 30
0.0
 10
338.9511568846718
 20
235.9377677078058
 30
0.0
 10
338.9511568846718
 20
235.9377677078058
 30
0.0
  0
SPLINE
  5
B4
330
70
100
AcDbEntity
  8
shade
 62
     6
420
 16711935
370
    25
100
AcDbSpline
210
0.0
220
0.0
230
1.0
 70
     8
 71
     3
 72
    14
 73
    10
 74
     0
 42
0.0000000001
 43
0.0000000001
 40
0.0
 40
0.0
 40
0.0
 40
0.0
 40
1.0
 40
1.0
 40
1.0
 40
2.0
 40
2.0
 40
2.0
 40
3.0
 40
3.0
 40
3.0
 40
3.0
 10
338.9511568846718
 20
241.7104842839237
 30
0.0
 10
338.9511568846718
 20
241.7104842839237
 30
0.0
 10
341.8375151727309
 20
241.7104842839237
 30
0.0
 10
341.8375151727309
 20
241.7104842839237
 30
0.0
 10
341.8375151727309
 20
239.4963691073924
 30
0.0
 10
340.8783252764281
 20
237.3908303106176
 30
0.0
 10
339.2077220658371
 20
235.9377677078058
 30
0.0
 10
339.2077220658371
 20
235.9377677078058
 30
0.0
 10
338.9511568846718
 20
235.9377677078058
 30
0.0
 10
338.9511568846718
 20
235.9377677078058
 30
0.0
  0
LWPOLYLINE
  5
B6
330
70
100
AcDbEntity
  8
Defpoints
 62
    18
420
        0
370
    25
100
AcDbPolyline
 90
        4
 70
     1
 43
0.0
 10
203.9696969187068
 20
0.0
 10
473.3636362452935
 20
0.0
 10
473.3636362452935
 20
380.9999999047501
 10
203.9696969187068
 20
380.9999999047501
  0
ENDSEC
  0
SECTION
  2
OBJECTS
  0
DICTIONARY
  5
C
330
0
100
AcDbDictionary
281
     1
  3
ACAD_COLOR
350
63
  3
ACAD_DETAILVIEWSTYLE
350
6A
  3
ACAD_GROUP
350
D
  3
ACAD_LAYOUT
350
62
  3
ACAD_MATERIAL
350
10
  3
ACAD_MLEADERSTYLE
350
66
  3
ACAD_MLINESTYLE
350
5F
  3
ACAD_PLOTSETTINGS
350
61
  3
ACAD_PLOTSTYLENAME
350
E
  3
ACAD_SCALELIST
350
42
  3
ACAD_SECTIONVIEWSTYLE
350
68
  3
ACAD_TABLESTYLE
350
64
  3
ACAD_VISUALSTYLE
350
29
  3
ACDB_RECOMPOSE_DATA
350
BF
  3
AcDbVariableDictionary
350
B7
  0
DICTIONARY
  5
63
102
{ACAD_REACTORS
330
C
102
}
330
C
100
AcDbDictionary
281
     1
  0
DICTIONARY
  5
6A
102
{ACAD_REACTORS
330
C
102
}
330
C
100
AcDbDictionary
281
     1
  3
Imperial24
350
6B
  0
DICTIONARY
  5
D
102
{ACAD_REACTORS
330
C
102
}
330
C
100
AcDbDictionary
281
     1
  0
DICTIONARY
  5
62
102
{ACAD_REACTORS
330
C
102
}
330
C
100
AcDbDictionary
281
     1
  3
Layout1
350
6F
  3
Layout2
350
77
  3
Model
350
73
  0
DICTIONARY
  5
10
102
{ACAD_REACTORS
330
C
102
}
330
C
100
AcDbDictionary
281
     1
  3
ByBlock
350
19
  3
ByLayer
350
11
  3
Global
350
21
  0
DICTIONARY
  5
66
102
{ACAD_REACTORS
330
C
102
}
330
C
100
AcDbDictionary
281
     1
  3
Standard
350
67
  0
DICTIONARY
  5
5F
102
{ACAD_REACTORS
330
C
102
}
330
C
100
AcDbDictionary
281
     1
  3
Standard
350
60
  0
DICTIONARY
  5
61
102
{ACAD_REACTORS
330
C
102
}
330
C
100
AcDbDictionary
281
     1
  0
ACDBDICTIONARYWDFLT
  5
E
102
{ACAD_REACTORS
330
C
102
}
330
C
100
AcDbDictionary
281
     1
  3
Normal
350
F
100
AcDbDictionaryWithDefault
340
F
  0
DICTIONARY
  5
42
102
{ACAD_REACTORS
330
C
102
}
330
C
100
AcDbDictionary
281
     1
  3
A0
350
43
  3
A1
350
44
  3
A2
350
45
  3
A3
350
46
  3
A4
350
47
  3
A5
350
48
  3
A6
350
49
  3
A7
350
4A
  3
A8
350
4B
  3
A9
350
4C
  3
B0
350
4D
  3
B1
350
4E
  3
B2
350
4F
  3
B3
350
50
  3
B4
350
51
  3
B5
350
52
  3
B6
350
53
  0
DICTIONARY
  5
68
102
{ACAD_REACTORS
330
C
102
}
330
C
100
AcDbDictionary
281
     1
  3
Imperial24
350
69
  0
DICTIONARY
  5
64
102
{ACAD_REACTORS
330
C
102
}
330
C
100
AcDbDictionary
281
     1
  3
Standard
350
65
  0
DICTIONARY
  5
29
102
{ACAD_REACTORS
330
C
102
}
330
C
100
AcDbDictionary
281
     1
  3
2dWireframe
350
2F
  3
Basic
350
2E
  3
Brighten
350
35
  3
ColorChange
350
39
  3
Conceptual
350
32
  3
Dim
350
34
  3
EdgeColorOff
350
41
  3
Facepattern
350
38
  3
Flat
350
2A
  3
FlatWithEdges
350
2B
  3
Gouraud
350
2C
  3
GouraudWithEdges
350
2D
  3
Hidden
350
31
  3
JitterOff
350
3F
  3
Linepattern
350
37
  3
OverhangOff
350
40
  3
Realistic
350
33
  3
Shaded
350
3E
  3
Shaded with edges
350
3D
  3
Shades of Gray
350
3A
  3
Sketchy
350
3B
  3
Thicken
350
36
  3
Wireframe
350
30
  3
X-Ray
350
3C
  0
XRECORD
  5
BF
102
{ACAD_REACTORS
330
C
102
}
330
C
100
AcDbXrecord
280
     1
 90
        1
330
65
  0
DICTIONARY
  5
B7
102
{ACAD_REACTORS
330
C
102
}
330
C
100
AcDbDictionary
281
     1
  3
CANNOSCALE
350
BC
  3
CMLEADERSTYLE
350
B9
  3
CTABLESTYLE
350
B8
  3
CVIEWDETAILSTYLE
350
BA
  3
CVIEWSECTIONSTYLE
350
BB
  0
ACDBDETAILVIEWSTYLE
  5
6B
102
{ACAD_REACTORS
330
6A
102
}
330
6A
100
AcDbModelDocViewStyle
 70
     0
  3
Imperial24
290
     1
300
Imperial24
 90
        0
100
AcDbDetailViewStyle
 70
     0
 71
     0
 90
        3
 71
     1
340
55
 62
   256
 40
0.24
340
0
 62
   256
 40
0.24
300

 40
0.36
280
     3
 71
     2
340
5D
 90
       25
 62
   256
 71
     3
340
55
 62
   256
 40
0.24
 90
        1
 40
0.75
 90
        1
300
%<\AcVar ViewType \f "%tc1">% %<\AcVar ViewDetailId>%\PSCALE %<\AcVar ViewScale \f "%sn">%
 71
     4
340
5D
 90
       25
 62
   256
340
5D
 90
       25
 62
   256
280
     0
  0
LAYOUT
  5
6F
102
{ACAD_REACTORS
330
62
102
}
330
62
100
AcDbPlotSettings
  1

  2

  4

  6

 40
0.0
 41
0.0
 42
0.0
 43
0.0
 44
0.0
 45
0.0
 46
0.0
 47
0.0
 48
0.0
 49
0.0
140
0.0
141
0.0
142
1.0
143
1.0
 70
   688
 72
     0
 73
     0
 74
     5
  7

 75
    16
147
1.0
 76
     0
 77
     2
 78
   300
148
0.0
149
0.0
100
AcDbLayout
  1
Layout1
 70
     1
 71
     1
 10
0.0
 20
0.0
 11
12.0
 21
9.0
 12
0.0
 22
0.0
 32
0.0
 14
0.0
 24
0.0
 34
0.0
 15
0.0
 25
0.0
 35
0.0
146
0.0
 13
0.0
 23
0.0
 33
0.0
 16
1.0
 26
0.0
 36
0.0
 17
0.0
 27
1.0
 37
0.0
 76
     0
330
6C
  0
LAYOUT
  5
77
102
{ACAD_REACTORS
330
62
102
}
330
62
100
AcDbPlotSettings
  1

  2

  4

  6

 40
0.0
 41
0.0
 42
0.0
 43
0.0
 44
0.0
 45
0.0
 46
0.0
 47
0.0
 48
0.0
 49
0.0
140
0.0
141
0.0
142
1.0
143
1.0
 70
   688
 72
     0
 73
     0
 74
     5
  7

 75
    16
147
1.0
 76
     0
 77
     2
 78
   300
148
0.0
149
0.0
100
AcDbLayout
  1
Layout2
 70
     1
 71
     2
 10
0.0
 20
0.0
 11
12.0
 21
9.0
 12
0.0
 22
0.0
 32
0.0
 14
0.0
 24
0.0
 34
0.0
 15
0.0
 25
0.0
 35
0.0
146
0.0
 13
0.0
 23
0.0
 33
0.0
 16
1.0
 26
0.0
 36
0.0
 17
0.0
 27
1.0
 37
0.0
 76
     0
330
74
  0
LAYOUT
  5
73
102
{ACAD_REACTORS
330
62
102
}
330
62
100
AcDbPlotSettings
  1

  2

  4

  6

 40
0.0
 41
0.0
 42
0.0
 43
0.0
 44
0.0
 45
0.0
 46
0.0
 47
0.0
 48
0.0
 49
0.0
140
0.0
141
0.0
142
1.0
143
1.0
 70
  1712
 72
     0
 73
     0
 74
     0
  7

 75
     0
147
1.0
 76
     0
 77
     2
 78
   300
148
0.0
149
0.0
100
AcDbLayout
  1
Model
 70
     1
 71
     0
 10
0.0
 20
0.0
 11
12.0
 21
9.0
 12
0.0
 22
0.0
 32
0.0
 14
0.0
 24
0.0
 34
0.0
 15
0.0
 25
0.0
 35
0.0
146
0.0
 13
0.0
 23
0.0
 33
0.0
 16
1.0
 26
0.0
 36
0.0
 17
0.0
 27
1.0
 37
0.0
 76
     0
330
70
  0
MATERIAL
  5
19
102
{ACAD_XDICTIONARY
360
1A
102
}
102
{ACAD_REACTORS
330
10
102
}
330
10
100
AcDbMaterial
  1
ByBlock
 72
     0
 43
0.0208333333333333
 43
0.0
 43
0.0
 43
0.0
 43
0.0
 43
0.0208333333333333
 43
0.0
 43
0.0
 43
0.0
 43
0.0
 43
1.0
 43
0.0
 43
0.0
 43
0.0
 43
0.0
 43
1.0
 77
     0
 47
0.0208333333333333
 47
0.0
 47
0.0
 47
0.0
 47
0.0
 47
0.0208333333333333
 47
0.0
 47
0.0
 47
0.0
 47
0.0
 47
1.0
 47
0.0
 47
0.0
 47
0.0
 47
0.0
 47
1.0
171
     0
 49
0.0208333333333333
 49
0.0
 49
0.0
 49
0.0
 49
0.0
 49
0.0208333333333333
 49
0.0
 49
0.0
 49
0.0
 49
0.0
 49
1.0
 49
0.0
 49
0.0
 49
0.0
 49
0.0
 49
1.0
175
     0
142
0.0208333333333333
142
0.0
142
0.0
142
0.0
142
0.0
142
0.0208333333333333
142
0.0
142
0.0
142
0.0
142
0.0
142
1.0
142
0.0
142
0.0
142
0.0
142
0.0
142
1.0
179
     0
144
0.0208333333333333
144
0.0
144
0.0
144
0.0
144
0.0
144
0.0208333333333333
144
0.0
144
0.0
144
0.0
144
0.0
144
1.0
144
0.0
144
0.0
144
0.0
144
0.0
144
1.0
147
0.0208333333333333
147
0.0
147
0.0
147
0.0
147
0.0
147
0.0208333333333333
147
0.0
147
0.0
147
0.0
147
0.0
147
1.0
147
0.0
147
0.0
147
0.0
147
0.0
147
1.0
  0
MATERIAL
  5
11
102
{ACAD_XDICTIONARY
360
12
102
}
102
{ACAD_REACTORS
330
10
102
}
330
10
100
AcDbMaterial
  1
ByLayer
 72
     0
 43
0.0208333333333333
 43
0.0
 43
0.0
 43
0.0
 43
0.0
 43
0.0208333333333333
 43
0.0
 43
0.0
 43
0.0
 43
0.0
 43
1.0
 43
0.0
 43
0.0
 43
0.0
 43
0.0
 43
1.0
 77
     0
 47
0.0208333333333333
 47
0.0
 47
0.0
 47
0.0
 47
0.0
 47
0.0208333333333333
 47
0.0
 47
0.0
 47
0.0
 47
0.0
 47
1.0
 47
0.0
 47
0.0
 47
0.0
 47
0.0
 47
1.0
171
     0
 49
0.0208333333333333
 49
0.0
 49
0.0
 49
0.0
 49
0.0
 49
0.0208333333333333
 49
0.0
 49
0.0
 49
0.0
 49
0.0
 49
1.0
 49
0.0
 49
0.0
 49
0.0
 49
0.0
 49
1.0
175
     0
142
0.0208333333333333
142
0.0
142
0.0
142
0.0
142
0.0
142
0.0208333333333333
142
0.0
142
0.0
142
0.0
142
0.0
142
1.0
142
0.0
142
0.0
142
0.0
142
0.0
142
1.0
179
     0
144
0.0208333333333333
144
0.0
144
0.0
144
0.0
144
0.0
144
0.0208333333333333
144
0.0
144
0.0
144
0.0
144
0.0
144
1.0
144
0.0
144
0.0
144
0.0
144
0.0
144
1.0
147
0.0208333333333333
147
0.0
147
0.0
147
0.0
147
0.0
147
0.0208333333333333
147
0.0
147
0.0
147
0.0
147
0.0
147
1.0
147
0.0
147
0.0
147
0.0
147
0.0
147
1.0
  0
MATERIAL
  5
21
102
{ACAD_XDICTIONARY
360
22
102
}
102
{ACAD_REACTORS
330
10
102
}
330
10
100
AcDbMaterial
  1
Global
 72
     0
 43
0.0208333333333333
 43
0.0
 43
0.0
 43
0.0
 43
0.0
 43
0.0208333333333333
 43
0.0
 43
0.0
 43
0.0
 43
0.0
 43
1.0
 43
0.0
 43
0.0
 43
0.0
 43
0.0
 43
1.0
 77
     0
 47
0.0208333333333333
 47
0.0
 47
0.0
 47
0.0
 47
0.0
 47
0.0208333333333333
 47
0.0
 47
0.0
 47
0.0
 47
0.0
 47
1.0
 47
0.0
 47
0.0
 47
0.0
 47
0.0
 47
1.0
171
     0
 49
0.0208333333333333
 49
0.0
 49
0.0
 49
0.0
 49
0.0
 49
0.0208333333333333
 49
0.0
 49
0.0
 49
0.0
 49
0.0
 49
1.0
 49
0.0
 49
0.0
 49
0.0
 49
0.0
 49
1.0
175
     0
142
0.0208333333333333
142
0.0
142
0.0
142
0.0
142
0.0
142
0.0208333333333333
142
0.0
142
0.0
142
0.0
142
0.0
142
1.0
142
0.0
142
0.0
142
0.0
142
0.0
142
1.0
179
     0
144
0.0208333333333333
144
0.0
144
0.0
144
0.0
144
0.0
144
0.0208333333333333
144
0.0
144
0.0
144
0.0
144
0.0
144
1.0
144
0.0
144
0.0
144
0.0
144
0.0
144
1.0
147
0.0208333333333333
147
0.0
147
0.0
147
0.0
147
0.0
147
0.0208333333333333
147
0.0
147
0.0
147
0.0
147
0.0
147
1.0
147
0.0
147
0.0
147
0.0
147
0.0
147
1.0
  0
MLEADERSTYLE
  5
67
102
{ACAD_REACTORS
330
66
102
}
330
66
100
AcDbMLeaderStyle
179
     2
170
     2
171
     1
172
     0
 90
        2
 40
0.0
 41
0.0
173
     1
 91
-1056964608
340
5B
 92
       -2
290
     1
 42
0.09
291
     1
 43
0.36
  3
Standard
 44
0.18
300

342
55
174
     1
178
     6
175
     1
176
     0
 93
-1056964608
 45
0.18
292
     0
297
     0
 46
0.18
 94
-1056964608
 47
1.0
 49
1.0
140
1.0
293
     1
141
0.0
294
     1
177
     0
142
1.0
295
     1
296
     0
143
0.125
271
     0
272
     9
273
     9
298
     1
  0
MLINESTYLE
  5
60
102
{ACAD_REACTORS
330
5F
102
}
330
5F
100
AcDbMlineStyle
  2
STANDARD
 70
     0
  3

 62
   256
 51
90.0
 52
90.0
 71
     2
 49
0.5
 62
   256
  6
BYLAYER
 49
-0.5
 62
   256
  6
BYLAYER
  0
ACDBPLACEHOLDER
  5
F
102
{ACAD_REACTORS
330
E
102
}
330
E
  0
SCALE
  5
43
102
{ACAD_REACTORS
330
42
102
}
330
42
100
AcDbScale
 70
     0
300
1:1
140
1.0
141
1.0
290
     1
  0
SCALE
  5
44
102
{ACAD_REACTORS
330
42
102
}
330
42
100
AcDbScale
 70
     0
300
1/128" = 1'-0"
140
0.0078125
141
12.0
290
     0
  0
SCALE
  5
45
102
{ACAD_REACTORS
330
42
102
}
330
42
100
AcDbScale
 70
     0
300
1/64" = 1'-0"
140
0.015625
141
12.0
290
     0
  0
SCALE
  5
46
102
{ACAD_REACTORS
330
42
102
}
330
42
100
AcDbScale
 70
     0
300
1/32" = 1'-0"
140
0.03125
141
12.0
290
     0
  0
SCALE
  5
47
102
{ACAD_REACTORS
330
42
102
}
330
42
100
AcDbScale
 70
     0
300
1/16" = 1'-0"
140
0.0625
141
12.0
290
     0
  0
SCALE
  5
48
102
{ACAD_REACTORS
330
42
102
}
330
42
100
AcDbScale
 70
     0
300
3/32" = 1'-0"
140
0.09375
141
12.0
290
     0
  0
SCALE
  5
49
102
{ACAD_REACTORS
330
42
102
}
330
42
100
AcDbScale
 70
     0
300
1/8" = 1'-0"
140
0.125
141
12.0
290
     0
  0
SCALE
  5
4A
102
{ACAD_REACTORS
330
42
102
}
330
42
100
AcDbScale
 70
     0
300
3/16" = 1'-0"
140
0.1875
141
12.0
290
     0
  0
SCALE
  5
4B
102
{ACAD_REACTORS
330
42
102
}
330
42
100
AcDbScale
 70
     0
300
1/4" = 1'-0"
140
0.25
141
12.0
290
     0
  0
SCALE
  5
4C
102
{ACAD_REACTORS
330
42
102
}
330
42
100
AcDbScale
 70
     0
300
3/8" = 1'-0"
140
0.375
141
12.0
290
     0
  0
SCALE
  5
4D
102
{ACAD_REACTORS
330
42
102
}
330
42
100
AcDbScale
 70
     0
300
1/2" = 1'-0"
140
0.5
141
12.0
290
     0
  0
SCALE
  5
4E
102
{ACAD_REACTORS
330
42
102
}
330
42
100
AcDbScale
 70
     0
300
3/4" = 1'-0"
140
0.75
141
12.0
290
     0
  0
SCALE
  5
4F
102
{ACAD_REACTORS
330
42
102
}
330
42
100
AcDbScale
 70
     0
300
1" = 1'-0"
140
1.0
141
12.0
290
     0
  0
SCALE
  5
50
102
{ACAD_REACTORS
330
42
102
}
330
42
100
AcDbScale
 70
     0
300
1-1/2" = 1'-0"
140
1.5
141
12.0
290
     0
  0
SCALE
  5
51
102
{ACAD_REACTORS
330
42
102
}
330
42
100
AcDbScale
 70
     0
300
3" = 1'-0"
140
3.0
141
12.0
290
     0
  0
SCALE
  5
52
102
{ACAD_REACTORS
330
42
102
}
330
42
100
AcDbScale
 70
     0
300
6" = 1'-0"
140
6.0
141
12.0
290
     0
  0
SCALE
  5
53
102
{ACAD_REACTORS
330
42
102
}
330
42
100
AcDbScale
 70
     0
300
1'-0" = 1'-0"
140
12.0
141
12.0
290
     0
  0
ACDBSECTIONVIEWSTYLE
  5
69
102
{ACAD_REACTORS
330
68
102
}
330
68
100
AcDbModelDocViewStyle
 70
     0
  3
Imperial24
290
     1
300
Imperial24
 90
        0
100
AcDbSectionViewStyle
 70
     0
 71
     0
 90
       78
 71
     1
340
55
 62
   256
 40
0.24
340
0
340
0
 62
   256
 40
0.24
300
I, O, Q, S, X, Z
 40
0.48
 90
        3
 40
0.18
 90
        1
 71
     2
340
5D
 90
       25
 62
   256
340
5D
 90
       50
 62
   256
 40
0.24
 40
0.0
 40
0.24
 71
     3
340
55
 62
   256
 40
0.24
 90
        1
 40
0.75
 90
        1
300
%<\AcVar ViewType \f "%tc1">% %<\AcVar ViewSectionStartId>%-%<\AcVar ViewSectionEndId>%\PSCALE %<\AcVar ViewScale \f "%sn">%
 71
     4
 62
   256
 62
   257
300
ANSI31
 40
1.0
 90
        0
290
     0
290
     0
 90
        6
 40
0.0
 40
1.570796326794896
 40
0.2617993877991494
 40
1.308996938995747
 40
-0.2617993877991494
 40
1.832595714594046
  0
TABLESTYLE
  5
65
102
{ACAD_XDICTIONARY
360
BD
102
}
102
{ACAD_REACTORS
330
64
102
}
330
64
100
AcDbTableStyle
280
     0
  3
Standard
 70
     0
 71
     0
 40
0.06
 41
0.06
280
     0
281
     0
  7
Standard
140
0.18
170
     2
 62
     0
 63
     7
283
     0
 90
      512
 91
        0
  1

274
    -2
284
     1
 64
     0
275
    -2
285
     1
 65
     0
276
    -2
286
     1
 66
     0
277
    -2
287
     1
 67
     0
278
    -2
288
     1
 68
     0
279
    -2
289
     1
 69
     0
  7
Standard
140
0.25
170
     5
 62
     0
 63
     7
283
     0
 90
      512
 91
        0
  1

274
    -2
284
     1
 64
     0
275
    -2
285
     1
 65
     0
276
    -2
286
     1
 66
     0
277
    -2
287
     1
 67
     0
278
    -2
288
     1
 68
     0
279
    -2
289
     1
 69
     0
  7
Standard
140
0.18
170
     5
 62
     0
 63
     7
283
     0
 90
      512
 91
        0
  1

274
    -2
284
     1
 64
     0
275
    -2
285
     1
 65
     0
276
    -2
286
     1
 66
     0
277
    -2
287
     1
 67
     0
278
    -2
288
     1
 68
     0
279
    -2
289
     1
 69
     0
  0
VISUALSTYLE
  5
2F
102
{ACAD_REACTORS
330
29
102
}
330
29
100
AcDbVisualStyle
  2
2dWireframe
 70
     4
177
     3
291
     0
 70
    58
 90
        0
176
     1
 90
        2
176
     1
 90
        0
176
     1
 90
        0
176
     1
 40
0.6
176
     1
 40
30.0
176
     1
 62
     7
420
 16777215
176
     1
 90
        1
176
     1
 90
        4
176
     1
 62
     7
176
     1
 62
   257
176
     1
 90
        1
176
     1
 90
        1
176
     1
 40
1.0
176
     1
 90
        0
176
     1
 62
   257
176
     1
 40
1.0
176
     1
 90
        1
176
     1
 90
        6
176
     1
 90
        2
176
     1
 62
     7
176
     1
 90
        5
176
     1
 90
        0
176
     1
 90
        0
176
     1
290
     0
176
     1
 90
        1
176
     1
 40
0.0
176
     1
 90
        0
176
     1
290
     1
176
     1
290
     1
176
     1
290
     0
176
     1
290
     0
176
     1
290
     0
176
     1
290
     0
176
     1
290
     0
176
     1
290
     0
176
     1
290
     0
176
     1
 90
       50
176
     1
 40
0.0
176
     1
 40
1.0
176
     1
 90
        0
176
     1
 62
    18
420
        0
176
     1
 90
       50
176
     1
 90
        3
176
     1
 62
     5
420
      255
176
     1
290
     0
176
     1
 90
       50
176
     1
 90
       50
176
     1
 90
       50
176
     1
290
     0
176
     1
 90
       50
176
     1
 62
   256
176
     0
 40
1.0
176
     0
 90
        2
176
     1
  1
strokes_ogs.tif
176
     1
290
     0
176
     1
 40
1.0
176
     1
 40
1.0
176
     1
  0
VISUALSTYLE
  5
2E
102
{ACAD_REACTORS
330
29
102
}
330
29
100
AcDbVisualStyle
  2
Basic
 70
     7
177
     3
291
     1
 70
    58
 90
        1
176
     1
 90
        0
176
     1
 90
        1
176
     1
 90
        0
176
     1
 40
0.6
176
     1
 40
30.0
176
     1
 62
     7
420
 16777215
176
     1
 90
        0
176
     1
 90
        4
176
     1
 62
     7
176
     1
 62
   257
176
     1
 90
        1
176
     1
 90
        1
176
     1
 40
1.0
176
     1
 90
        8
176
     1
 62
     7
176
     1
 40
1.0
176
     1
 90
        1
176
     1
 90
        6
176
     1
 90
        2
176
     1
 62
     7
176
     1
 90
        5
176
     1
 90
        0
176
     1
 90
        0
176
     1
290
     0
176
     1
 90
        1
176
     1
 40
0.0
176
     1
 90
        0
176
     1
290
     0
176
     1
290
     1
176
     1
290
     1
176
     1
290
     0
176
     1
290
     0
176
     1
290
     0
176
     1
290
     0
176
     1
290
     0
176
     1
290
     0
176
     1
 90
       50
176
     1
 40
0.0
176
     1
 40
1.0
176
     1
 90
        0
176
     1
 62
    18
420
        0
176
     1
 90
       50
176
     1
 90
        3
176
     1
 62
     5
420
      255
176
     1
290
     0
176
     1
 90
       50
176
     1
 90
       50
176
     1
 90
       50
176
     1
290
     0
176
     1
 90
       50
176
     1
 62
   256
176
     0
 40
1.0
176
     0
 90
        2
176
     1
  1
strokes_ogs.tif
176
     1
290
     0
176
     1
 40
1.0
176
     1
 40
1.0
176
     1
  0
VISUALSTYLE
  5
35
102
{ACAD_REACTORS
330
29
102
}
330
29
100
AcDbVisualStyle
  2
Brighten
 70
    12
177
     3
291
     1
 70
    58
 90
        2
176
     1
 90
        2
176
     1
 90
        0
176
     1
 90
        0
176
     1
 40
0.6
176
     1
 40
30.0
176
     1
 62
     7
420
 16777215
176
     1
 90
        1
176
     1
 90
        4
176
     1
 62
     7
176
     1
 62
   257
176
     1
 90
        1
176
     1
 90
        1
176
     1
 40
1.0
176
     1
 90
        8
176
     1
 62
     7
176
     1
 40
1.0
176
     1
 90
        1
176
     1
 90
        6
176
     1
 90
        2
176
     1
 62
     7
176
     1
 90
        5
176
     1
 90
        0
176
     1
 90
        0
176
     1
290
     0
176
     1
 90
        1
176
     1
 40
50.0
176
     1
 90
        0
176
     1
290
     0
176
     1
290
     1
176
     1
290
     1
176
     1
290
     0
176
     1
290
     0
176
     1
290
     0
176
     1
290
     0
176
     1
290
     0
176
     1
290
     0
176
     1
 90
       50
176
     1
 40
0.0
176
     1
 40
1.0
176
     1
 90
        0
176
     1
 62
    18
420
        0
176
     1
 90
       50
176
     1
 90
        3
176
     1
 62
     5
420
      255
176
     1
290
     0
176
     1
 90
       50
176
     1
 90
       50
176
     1
 90
       50
176
     1
290
     0
176
     1
 90
       50
176
     1
 62
   256
176
     0
 40
1.0
176
     0
 90
        2
176
     1
  1
strokes_ogs.tif
176
     1
290
     0
176
     1
 40
1.0
176
     1
 40
1.0
176
     1
  0
VISUALSTYLE
  5
39
102
{ACAD_REACTORS
330
29
102
}
330
29
100
AcDbVisualStyle
  2
ColorChange
 70
    16
177
     3
291
     1
 70
    58
 90
        2
176
     1
 90
        2
176
     1
 90
        3
176
     1
 90
        0
176
     1
 40
0.6
176
     1
 40
30.0
176
     1
 62
     8
420
  8421504
176
     1
 90
        1
176
     1
 90
        4
176
     1
 62
     7
176
     1
 62
   257
176
     1
 90
        1
176
     1
 90
        1
176
     1
 40
1.0
176
     1
 90
        8
176
     1
 62
     8
420
  8421504
176
     1
 40
1.0
176
     1
 90
        1
176
     1
 90
        6
176
     1
 90
        2
176
     1
 62
     7
176
     1
 90
        5
176
     1
 90
        0
176
     1
 90
        0
176
     1
290
     0
176
     1
 90
        1
176
     1
 40
0.0
176
     1
 90
        0
176
     1
290
     0
176
     1
290
     1
176
     1
290
     1
176
     1
290
     0
176
     1
290
     0
176
     1
290
     0
176
     1
290
     0
176
     1
290
     0
176
     1
290
     0
176
     1
 90
       50
176
     1
 40
0.0
176
     1
 40
1.0
176
     1
 90
        0
176
     1
 62
    18
420
        0
176
     1
 90
       50
176
     1
 90
        3
176
     1
 62
     5
420
      255
176
     1
290
     0
176
     1
 90
       50
176
     1
 90
       50
176
     1
 90
       50
176
     1
290
     0
176
     1
 90
       50
176
     1
 62
   256
176
     0
 40
1.0
176
     0
 90
        2
176
     1
  1
strokes_ogs.tif
176
     1
290
     0
176
     1
 40
1.0
176
     1
 40
1.0
176
     1
  0
VISUALSTYLE
  5
32
102
{ACAD_REACTORS
330
29
102
}
330
29
100
AcDbVisualStyle
  2
Conceptual
 70
     9
177
     3
291
     0
 70
    58
 90
        3
176
     1
 90
        2
176
     1
 90
        0
176
     1
 90
        0
176
     1
 40
0.6
176
     1
 40
30.0
176
     1
 62
     7
420
 16777215
176
     1
 90
        2
176
     1
 90
        2
176
     1
 62
     7
176
     1
 62
   257
176
     1
 90
        1
176
     1
 90
        1
176
     1
 40
179.0
176
     1
 90
        8
176
     1
 62
     7
176
     1
 40
1.0
176
     1
 90
        1
176
     1
 90
        6
176
     1
 90
        2
176
     1
 62
     7
176
     1
 90
        3
176
     1
 90
        0
176
     1
 90
        0
176
     1
290
     0
176
     1
 90
        1
176
     1
 40
0.0
176
     1
 90
        0
176
     1
290
     0
176
     1
290
     1
176
     1
290
     1
176
     1
290
     0
176
     1
290
     0
176
     1
290
     0
176
     1
290
     0
176
     1
290
     0
176
     1
290
     0
176
     1
 90
       50
176
     1
 40
0.0
176
     1
 40
1.0
176
     1
 90
        0
176
     1
 62
    18
420
        0
176
     1
 90
       50
176
     1
 90
        3
176
     1
 62
     5
420
      255
176
     1
290
     0
176
     1
 90
       50
176
     1
 90
       50
176
     1
 90
       50
176
     1
290
     0
176
     1
 90
       50
176
     1
 62
   256
176
     0
 40
1.0
176
     0
 90
        2
176
     1
  1
strokes_ogs.tif
176
     1
290
     0
176
     1
 40
1.0
176
     1
 40
1.0
176
     1
  0
VISUALSTYLE
  5
34
102
{ACAD_REACTORS
330
29
102
}
330
29
100
AcDbVisualStyle
  2
Dim
 70
    11
177
     3
291
     1
 70
    58
 90
        2
176
     1
 90
        2
176
     1
 90
        0
176
     1
 90
        0
176
     1
 40
0.6
176
     1
 40
30.0
176
     1
 62
     7
420
 16777215
176
     1
 90
        1
176
     1
 90
        4
176
     1
 62
     7
176
     1
 62
   257
176
     1
 90
        1
176
     1
 90
        1
176
     1
 40
1.0
176
     1
 90
        8
176
     1
 62
     7
176
     1
 40
1.0
176
     1
 90
        1
176
     1
 90
        6
176
     1
 90
        2
176
     1
 62
     7
176
     1
 90
        5
176
     1
 90
        0
176
     1
 90
        0
176
     1
290
     0
176
     1
 90
        1
176
     1
 40
-50.0
176
     1
 90
        0
176
     1
290
     0
176
     1
290
     1
176
     1
290
     1
176
     1
290
     0
176
     1
290
     0
176
     1
290
     0
176
     1
290
     0
176
     1
290
     0
176
     1
290
     0
176
     1
 90
       50
176
     1
 40
0.0
176
     1
 40
1.0
176
     1
 90
        0
176
     1
 62
    18
420
        0
176
     1
 90
       50
176
     1
 90
        3
176
     1
 62
     5
420
      255
176
     1
290
     0
176
     1
 90
       50
176
     1
 90
       50
176
     1
 90
       50
176
     1
290
     0
176
     1
 90
       50
176
     1
 62
   256
176
     0
 40
1.0
176
     0
 90
        2
176
     1
  1
strokes_ogs.tif
176
     1
290
     0
176
     1
 40
1.0
176
     1
 40
1.0
176
     1
  0
VISUALSTYLE
  5
41
102
{ACAD_REACTORS
330
29
102
}
330
29
100
AcDbVisualStyle
  2
EdgeColorOff
 70
    22
177
     3
291
     1
 70
    58
 90
        2
176
     0
 90
        2
176
     0
 90
        0
176
     0
 90
        0
176
     0
 40
0.6
176
     0
 40
30.0
176
     0
 62
     7
420
 16777215
176
     0
 90
        1
176
     0
 90
        4
176
     0
 62
     7
176
     0
 62
   257
176
     0
 90
        1
176
     0
 90
        1
176
     0
 40
1.0
176
     0
 90
        8
176
     2
 62
     7
176
     0
 40
1.0
176
     0
 90
        1
176
     0
 90
        6
176
     0
 90
        2
176
     0
 62
     7
176
     0
 90
        5
176
     0
 90
        0
176
     0
 90
        0
176
     0
290
     0
176
     0
 90
        1
176
     0
 40
0.0
176
     0
 90
        0
176
     0
290
     0
176
     0
290
     1
176
     0
290
     1
176
     0
290
     0
176
     0
290
     0
176
     0
290
     0
176
     0
290
     0
176
     0
290
     0
176
     0
290
     0
176
     0
 90
       50
176
     0
 40
0.0
176
     0
 40
1.0
176
     0
 90
        0
176
     0
 62
    18
420
        0
176
     0
 90
       50
176
     0
 90
        3
176
     0
 62
     5
420
      255
176
     0
290
     0
176
     0
 90
       50
176
     0
 90
       50
176
     0
 90
       50
176
     0
290
     0
176
     0
 90
       50
176
     0
 62
   256
176
     0
 40
1.0
176
     0
 90
        2
176
     0
  1
strokes_ogs.tif
176
     0
290
     0
176
     0
 40
1.0
176
     0
 40
1.0
176
     0
  0
VISUALSTYLE
  5
38
102
{ACAD_REACTORS
330
29
102
}
330
29
100
AcDbVisualStyle
  2
Facepattern
 70
    15
177
     3
291
     1
 70
    58
 90
        2
176
     1
 90
        2
176
     1
 90
        0
176
     1
 90
        0
176
     1
 40
0.6
176
     1
 40
30.0
176
     1
 62
     7
420
 16777215
176
     1
 90
        1
176
     1
 90
        4
176
     1
 62
     7
176
     1
 62
   257
176
     1
 90
        1
176
     1
 90
        1
176
     1
 40
1.0
176
     1
 90
        8
176
     1
 62
     7
176
     1
 40
1.0
176
     1
 90
        1
176
     1
 90
        6
176
     1
 90
        2
176
     1
 62
     7
176
     1
 90
        5
176
     1
 90
        0
176
     1
 90
        0
176
     1
290
     0
176
     1
 90
        1
176
     1
 40
0.0
176
     1
 90
        0
176
     1
290
     0
176
     1
290
     1
176
     1
290
     1
176
     1
290
     0
176
     1
290
     0
176
     1
290
     0
176
     1
290
     0
176
     1
290
     0
176
     1
290
     0
176
     1
 90
       50
176
     1
 40
0.0
176
     1
 40
1.0
176
     1
 90
        0
176
     1
 62
    18
420
        0
176
     1
 90
       50
176
     1
 90
        3
176
     1
 62
     5
420
      255
176
     1
290
     0
176
     1
 90
       50
176
     1
 90
       50
176
     1
 90
       50
176
     1
290
     0
176
     1
 90
       50
176
     1
 62
   256
176
     0
 40
1.0
176
     0
 90
        2
176
     1
  1
strokes_ogs.tif
176
     1
290
     0
176
     1
 40
1.0
176
     1
 40
1.0
176
     1
  0
VISUALSTYLE
  5
2A
102
{ACAD_REACTORS
330
29
102
}
330
29
100
AcDbVisualStyle
  2
Flat
 70
     0
177
     3
291
     1
 70
    58
 90
        2
176
     1
 90
        1
176
     1
 90
        1
176
     1
 90
        2
176
     1
 40
0.6
176
     1
 40
30.0
176
     1
 62
     7
420
 16777215
176
     1
 90
        0
176
     1
 90
        0
176
     1
 62
     7
176
     1
 62
   257
176
     1
 90
        1
176
     1
 90
        1
176
     1
 40
1.0
176
     1
 90
        8
176
     1
 62
     7
176
     1
 40
1.0
176
     1
 90
        1
176
     1
 90
        6
176
     1
 90
        2
176
     1
 62
     7
176
     1
 90
        5
176
     1
 90
        0
176
     1
 90
        0
176
     1
290
     0
176
     1
 90
       13
176
     1
 40
0.0
176
     1
 90
        0
176
     1
290
     0
176
     1
290
     1
176
     1
290
     1
176
     1
290
     0
176
     1
290
     0
176
     1
290
     0
176
     1
290
     0
176
     1
290
     0
176
     1
290
     0
176
     1
 90
       50
176
     1
 40
0.0
176
     1
 40
1.0
176
     1
 90
        0
176
     1
 62
    18
420
        0
176
     1
 90
       50
176
     1
 90
        3
176
     1
 62
     5
420
      255
176
     1
290
     0
176
     1
 90
       50
176
     1
 90
       50
176
     1
 90
       50
176
     1
290
     0
176
     1
 90
       50
176
     1
 62
   256
176
     0
 40
1.0
176
     0
 90
        2
176
     1
  1
strokes_ogs.tif
176
     1
290
     0
176
     1
 40
1.0
176
     1
 40
1.0
176
     1
  0
VISUALSTYLE
  5
2B
102
{ACAD_REACTORS
330
29
102
}
330
29
100
AcDbVisualStyle
  2
FlatWithEdges
 70
     1
177
     3
291
     1
 70
    58
 90
        2
176
     1
 90
        1
176
     1
 90
        1
176
     1
 90
        2
176
     1
 40
0.6
176
     1
 40
30.0
176
     1
 62
     7
420
 16777215
176
     1
 90
        1
176
     1
 90
        0
176
     1
 62
     7
176
     1
 62
   257
176
     1
 90
        1
176
     1
 90
        1
176
     1
 40
1.0
176
     1
 90
        0
176
     1
 62
   257
176
     1
 40
1.0
176
     1
 90
        1
176
     1
 90
        6
176
     1
 90
        2
176
     1
 62
     7
176
     1
 90
        5
176
     1
 90
        0
176
     1
 90
        0
176
     1
290
     0
176
     1
 90
       13
176
     1
 40
0.0
176
     1
 90
        0
176
     1
290
     0
176
     1
290
     1
176
     1
290
     1
176
     1
290
     0
176
     1
290
     0
176
     1
290
     0
176
     1
290
     0
176
     1
290
     0
176
     1
290
     0
176
     1
 90
       50
176
     1
 40
0.0
176
     1
 40
1.0
176
     1
 90
        0
176
     1
 62
    18
420
        0
176
     1
 90
       50
176
     1
 90
        3
176
     1
 62
     5
420
      255
176
     1
290
     0
176
     1
 90
       50
176
     1
 90
       50
176
     1
 90
       50
176
     1
290
     0
176
     1
 90
       50
176
     1
 62
   256
176
     0
 40
1.0
176
     0
 90
        2
176
     1
  1
strokes_ogs.tif
176
     1
290
     0
176
     1
 40
1.0
176
     1
 40
1.0
176
     1
  0
VISUALSTYLE
  5
2C
102
{ACAD_REACTORS
330
29
102
}
330
29
100
AcDbVisualStyle
  2
Gouraud
 70
     2
177
     3
291
     1
 70
    58
 90
        2
176
     1
 90
        2
176
     1
 90
        1
176
     1
 90
        2
176
     1
 40
0.6
176
     1
 40
30.0
176
     1
 62
     7
420
 16777215
176
     1
 90
        0
176
     1
 90
        0
176
     1
 62
     7
176
     1
 62
   257
176
     1
 90
        1
176
     1
 90
        1
176
     1
 40
1.0
176
     1
 90
        0
176
     1
 62
     7
176
     1
 40
1.0
176
     1
 90
        1
176
     1
 90
        6
176
     1
 90
        2
176
     1
 62
     7
176
     1
 90
        5
176
     1
 90
        0
176
     1
 90
        0
176
     1
290
     0
176
     1
 90
       13
176
     1
 40
0.0
176
     1
 90
        0
176
     1
290
     0
176
     1
290
     1
176
     1
290
     1
176
     1
290
     0
176
     1
290
     0
176
     1
290
     0
176
     1
290
     0
176
     1
290
     0
176
     1
290
     0
176
     1
 90
       50
176
     1
 40
0.0
176
     1
 40
1.0
176
     1
 90
        0
176
     1
 62
    18
420
        0
176
     1
 90
       50
176
     1
 90
        3
176
     1
 62
     5
420
      255
176
     1
290
     0
176
     1
 90
       50
176
     1
 90
       50
176
     1
 90
       50
176
     1
290
     0
176
     1
 90
       50
176
     1
 62
   256
176
     0
 40
1.0
176
     0
 90
        2
176
     1
  1
strokes_ogs.tif
176
     1
290
     0
176
     1
 40
1.0
176
     1
 40
1.0
176
     1
  0
VISUALSTYLE
  5
2D
102
{ACAD_REACTORS
330
29
102
}
330
29
100
AcDbVisualStyle
  2
GouraudWithEdges
 70
     3
177
     3
291
     1
 70
    58
 90
        2
176
     1
 90
        2
176
     1
 90
        1
176
     1
 90
        2
176
     1
 40
0.6
176
     1
 40
30.0
176
     1
 62
     7
420
 16777215
176
     1
 90
        1
176
     1
 90
        0
176
     1
 62
     7
176
     1
 62
   257
176
     1
 90
        1
176
     1
 90
        1
176
     1
 40
1.0
176
     1
 90
        0
176
     1
 62
   257
176
     1
 40
1.0
176
     1
 90
        1
176
     1
 90
        6
176
     1
 90
        2
176
     1
 62
     7
176
     1
 90
        5
176
     1
 90
        0
176
     1
 90
        0
176
     1
290
     0
176
     1
 90
       13
176
     1
 40
0.0
176
     1
 90
        0
176
     1
290
     0
176
     1
290
     1
176
     1
290
     1
176
     1
290
     0
176
     1
290
     0
176
     1
290
     0
176
     1
290
     0
176
     1
290
     0
176
     1
290
     0
176
     1
 90
       50
176
     1
 40
0.0
176
     1
 40
1.0
176
     1
 90
        0
176
     1
 62
    18
420
        0
176
     1
 90
       50
176
     1
 90
        3
176
     1
 62
     5
420
      255
176
     1
290
     0
176
     1
 90
       50
176
     1
 90
       50
176
     1
 90
       50
176
     1
290
     0
176
     1
 90
       50
176
     1
 62
   256
176
     0
 40
1.0
176
     0
 90
        2
176
     1
  1
strokes_ogs.tif
176
     1
290
     0
176
     1
 40
1.0
176
     1
 40
1.0
176
     1
  0
VISUALSTYLE
  5
31
102
{ACAD_REACTORS
330
29
102
}
330
29
100
AcDbVisualStyle
  2
Hidden
 70
     6
177
     3
291
     0
 70
    58
 90
        1
176
     1
 90
        2
176
     1
 90
        2
176
     1
 90
        0
176
     1
 40
0.6
176
     1
 40
30.0
176
     1
 62
     7
420
 16777215
176
     1
 90
        2
176
     1
 90
        2
176
     1
 62
     7
176
     1
 62
   257
176
     1
 90
        2
176
     1
 90
        1
176
     1
 40
40.0
176
     1
 90
        0
176
     1
 62
   257
176
     1
 40
1.0
176
     1
 90
        1
176
     1
 90
        6
176
     1
 90
        2
176
     1
 62
     7
176
     1
 90
        3
176
     1
 90
        0
176
     1
 90
        0
176
     1
290
     0
176
     1
 90
        1
176
     1
 40
0.0
176
     1
 90
        0
176
     1
290
     0
176
     1
290
     1
176
     1
290
     1
176
     1
290
     0
176
     1
290
     0
176
     1
290
     0
176
     1
290
     0
176
     1
290
     0
176
     1
290
     0
176
     1
 90
       50
176
     1
 40
0.0
176
     1
 40
1.0
176
     1
 90
        0
176
     1
 62
    18
420
        0
176
     1
 90
       50
176
     1
 90
        3
176
     1
 62
     5
420
      255
176
     1
290
     0
176
     1
 90
       50
176
     1
 90
       50
176
     1
 90
       50
176
     1
290
     0
176
     1
 90
       50
176
     1
 62
   256
176
     0
 40
1.0
176
     0
 90
        2
176
     1
  1
strokes_ogs.tif
176
     1
290
     0
176
     1
 40
1.0
176
     1
 40
1.0
176
     1
  0
VISUALSTYLE
  5
3F
102
{ACAD_REACTORS
330
29
102
}
330
29
100
AcDbVisualStyle
  2
JitterOff
 70
    20
177
     3
291
     1
 70
    58
 90
        2
176
     0
 90
        2
176
     0
 90
        0
176
     0
 90
        0
176
     0
 40
0.6
176
     0
 40
30.0
176
     0
 62
     7
420
 16777215
176
     0
 90
        1
176
     0
 90
        4
176
     0
 62
     7
176
     0
 62
   257
176
     0
 90
        1
176
     0
 90
        1
176
     0
 40
1.0
176
     0
 90
       10
176
     2
 62
     7
176
     0
 40
1.0
176
     0
 90
        1
176
     0
 90
        6
176
     0
 90
        2
176
     0
 62
     7
176
     0
 90
        5
176
     0
 90
        0
176
     0
 90
        0
176
     0
290
     0
176
     0
 90
        1
176
     0
 40
0.0
176
     0
 90
        0
176
     0
290
     0
176
     0
290
     1
176
     0
290
     1
176
     0
290
     0
176
     0
290
     0
176
     0
290
     0
176
     0
290
     0
176
     0
290
     0
176
     0
290
     0
176
     0
 90
       50
176
     0
 40
0.0
176
     0
 40
1.0
176
     0
 90
        0
176
     0
 62
    18
420
        0
176
     0
 90
       50
176
     0
 90
        3
176
     0
 62
     5
420
      255
176
     0
290
     0
176
     0
 90
       50
176
     0
 90
       50
176
     0
 90
       50
176
     0
290
     0
176
     0
 90
       50
176
     0
 62
   256
176
     0
 40
1.0
176
     0
 90
        2
176
     0
  1
strokes_ogs.tif
176
     0
290
     0
176
     0
 40
1.0
176
     0
 40
1.0
176
     0
  0
VISUALSTYLE
  5
37
102
{ACAD_REACTORS
330
29
102
}
330
29
100
AcDbVisualStyle
  2
Linepattern
 70
    14
177
     3
291
     1
 70
    58
 90
        2
176
     1
 90
        2
176
     1
 90
        0
176
     1
 90
        0
176
     1
 40
0.6
176
     1
 40
30.0
176
     1
 62
     7
420
 16777215
176
     1
 90
        1
176
     1
 90
        4
176
     1
 62
     7
176
     1
 62
   257
176
     1
 90
        7
176
     1
 90
        7
176
     1
 40
1.0
176
     1
 90
        8
176
     1
 62
     7
176
     1
 40
1.0
176
     1
 90
        1
176
     1
 90
        6
176
     1
 90
        2
176
     1
 62
     7
176
     1
 90
        5
176
     1
 90
        0
176
     1
 90
        0
176
     1
290
     0
176
     1
 90
        1
176
     1
 40
0.0
176
     1
 90
        0
176
     1
290
     0
176
     1
290
     1
176
     1
290
     1
176
     1
290
     0
176
     1
290
     0
176
     1
290
     0
176
     1
290
     0
176
     1
290
     0
176
     1
290
     0
176
     1
 90
       50
176
     1
 40
0.0
176
     1
 40
1.0
176
     1
 90
        0
176
     1
 62
    18
420
        0
176
     1
 90
       50
176
     1
 90
        3
176
     1
 62
     5
420
      255
176
     1
290
     0
176
     1
 90
       50
176
     1
 90
       50
176
     1
 90
       50
176
     1
290
     0
176
     1
 90
       50
176
     1
 62
   256
176
     0
 40
1.0
176
     0
 90
        2
176
     1
  1
strokes_ogs.tif
176
     1
290
     0
176
     1
 40
1.0
176
     1
 40
1.0
176
     1
  0
VISUALSTYLE
  5
40
102
{ACAD_REACTORS
330
29
102
}
330
29
100
AcDbVisualStyle
  2
OverhangOff
 70
    21
177
     3
291
     1
 70
    58
 90
        2
176
     0
 90
        2
176
     0
 90
        0
176
     0
 90
        0
176
     0
 40
0.6
176
     0
 40
30.0
176
     0
 62
     7
420
 16777215
176
     0
 90
        1
176
     0
 90
        4
176
     0
 62
     7
176
     0
 62
   257
176
     0
 90
        1
176
     0
 90
        1
176
     0
 40
1.0
176
     0
 90
        9
176
     2
 62
     7
176
     0
 40
1.0
176
     0
 90
        1
176
     0
 90
        6
176
     0
 90
        2
176
     0
 62
     7
176
     0
 90
        5
176
     0
 90
        0
176
     0
 90
        0
176
     0
290
     0
176
     0
 90
        1
176
     0
 40
0.0
176
     0
 90
        0
176
     0
290
     0
176
     0
290
     1
176
     0
290
     1
176
     0
290
     0
176
     0
290
     0
176
     0
290
     0
176
     0
290
     0
176
     0
290
     0
176
     0
290
     0
176
     0
 90
       50
176
     0
 40
0.0
176
     0
 40
1.0
176
     0
 90
        0
176
     0
 62
    18
420
        0
176
     0
 90
       50
176
     0
 90
        3
176
     0
 62
     5
420
      255
176
     0
290
     0
176
     0
 90
       50
176
     0
 90
       50
176
     0
 90
       50
176
     0
290
     0
176
     0
 90
       50
176
     0
 62
   256
176
     0
 40
1.0
176
     0
 90
        2
176
     0
  1
strokes_ogs.tif
176
     0
290
     0
176
     0
 40
1.0
176
     0
 40
1.0
176
     0
  0
VISUALSTYLE
  5
33
102
{ACAD_REACTORS
330
29
102
}
330
29
100
AcDbVisualStyle
  2
Realistic
 70
     8
177
     3
291
     0
 70
    58
 90
        2
176
     1
 90
        3
176
     1
 90
        0
176
     1
 90
        2
176
     1
 40
0.6
176
     1
 40
30.0
176
     1
 62
     7
420
 16777215
176
     1
 90
        0
176
     1
 90
        0
176
     1
 62
     7
176
     1
 62
   257
176
     1
 90
        1
176
     1
 90
        1
176
     1
 40
1.0
176
     1
 90
        8
176
     1
 62
   257
176
     1
 40
1.0
176
     1
 90
        1
176
     1
 90
        6
176
     1
 90
        2
176
     1
 62
     7
176
     1
 90
        3
176
     1
 90
        0
176
     1
 90
        0
176
     1
290
     0
176
     1
 90
       13
176
     1
 40
0.0
176
     1
 90
        0
176
     1
290
     0
176
     1
290
     1
176
     1
290
     1
176
     1
290
     0
176
     1
290
     0
176
     1
290
     0
176
     1
290
     0
176
     1
290
     0
176
     1
290
     0
176
     1
 90
       50
176
     1
 40
0.0
176
     1
 40
1.0
176
     1
 90
        0
176
     1
 62
    18
420
        0
176
     1
 90
       50
176
     1
 90
        3
176
     1
 62
     5
420
      255
176
     1
290
     0
176
     1
 90
       50
176
     1
 90
       50
176
     1
 90
       50
176
     1
290
     0
176
     1
 90
       50
176
     1
 62
   256
176
     0
 40
1.0
176
     0
 90
        2
176
     1
  1
strokes_ogs.tif
176
     1
290
     0
176
     1
 40
1.0
176
     1
 40
1.0
176
     1
  0
VISUALSTYLE
  5
3E
102
{ACAD_REACTORS
330
29
102
}
330
29
100
AcDbVisualStyle
  2
Shaded
 70
    27
177
     3
291
     0
 70
    58
 90
        2
176
     1
 90
        2
176
     1
 90
        1
176
     1
 90
        2
176
     1
 40
0.6
176
     1
 40
30.0
176
     1
 62
     7
420
 16777215
176
     1
 90
        0
176
     1
 90
        4
176
     1
 62
     7
176
     1
 62
   257
176
     1
 90
        1
176
     1
 90
        1
176
     1
 40
1.0
176
     1
 90
        8
176
     1
 62
   257
176
     1
 40
1.0
176
     1
 90
        1
176
     1
 90
        6
176
     1
 90
        2
176
     1
 62
     8
420
  7895160
176
     1
 90
        3
176
     1
 90
        0
176
     1
 90
        0
176
     1
290
     0
176
     1
 90
        5
176
     1
 40
0.0
176
     1
 90
        0
176
     1
290
     0
176
     1
290
     1
176
     1
290
     1
176
     1
290
     0
176
     1
290
     0
176
     1
290
     0
176
     1
290
     0
176
     1
290
     0
176
     1
290
     0
176
     1
 90
       50
176
     1
 40
0.0
176
     1
 40
1.0
176
     1
 90
        0
176
     1
 62
    18
420
        0
176
     1
 90
       50
176
     1
 90
        3
176
     1
 62
     5
420
      255
176
     1
290
     0
176
     1
 90
       50
176
     1
 90
       50
176
     1
 90
       50
176
     1
290
     0
176
     1
 90
       50
176
     1
 62
   256
176
     0
 40
1.0
176
     0
 90
        2
176
     1
  1
strokes_ogs.tif
176
     1
290
     0
176
     1
 40
1.0
176
     1
 40
1.0
176
     1
  0
VISUALSTYLE
  5
3D
102
{ACAD_REACTORS
330
29
102
}
330
29
100
AcDbVisualStyle
  2
Shaded with edges
 70
    26
177
     3
291
     0
 70
    58
 90
        2
176
     1
 90
        2
176
     1
 90
        1
176
     1
 90
        2
176
     1
 40
0.6
176
     1
 40
30.0
176
     1
 62
     7
420
 16777215
176
     1
 90
        1
176
     1
 90
        2
176
     1
 62
     7
176
     1
 62
   257
176
     1
 90
        2
176
     1
 90
        1
176
     1
 40
1.0
176
     1
 90
        8
176
     1
 62
   257
176
     1
 40
1.0
176
     1
 90
        1
176
     1
 90
        6
176
     1
 90
        2
176
     1
 62
     7
176
     1
 90
        3
176
     1
 90
        0
176
     1
 90
        0
176
     1
290
     0
176
     1
 90
        5
176
     1
 40
0.0
176
     1
 90
        0
176
     1
290
     0
176
     1
290
     1
176
     1
290
     1
176
     1
290
     0
176
     1
290
     0
176
     1
290
     0
176
     1
290
     0
176
     1
290
     0
176
     1
290
     0
176
     1
 90
       50
176
     1
 40
0.0
176
     1
 40
1.0
176
     1
 90
        0
176
     1
 62
    18
420
        0
176
     1
 90
       50
176
     1
 90
        3
176
     1
 62
     5
420
      255
176
     1
290
     0
176
     1
 90
       50
176
     1
 90
       50
176
     1
 90
       50
176
     1
290
     0
176
     1
 90
       50
176
     1
 62
   256
176
     0
 40
1.0
176
     0
 90
        2
176
     1
  1
strokes_ogs.tif
176
     1
290
     0
176
     1
 40
1.0
176
     1
 40
1.0
176
     1
  0
VISUALSTYLE
  5
3A
102
{ACAD_REACTORS
330
29
102
}
330
29
100
AcDbVisualStyle
  2
Shades of Gray
 70
    23
177
     3
291
     0
 70
    58
 90
        2
176
     1
 90
        2
176
     1
 90
        3
176
     1
 90
        0
176
     1
 40
0.6
176
     1
 40
30.0
176
     1
 62
     7
420
 16777215
176
     1
 90
        2
176
     1
 90
        2
176
     1
 62
     7
176
     1
 62
     7
176
     1
 90
        1
176
     1
 90
        1
176
     1
 40
40.0
176
     1
 90
        8
176
     1
 62
     7
176
     1
 40
1.0
176
     1
 90
        1
176
     1
 90
        6
176
     1
 90
        2
176
     1
 62
     7
176
     1
 90
        3
176
     1
 90
        0
176
     1
 90
        0
176
     1
290
     0
176
     1
 90
        1
176
     1
 40
0.0
176
     1
 90
        0
176
     1
290
     0
176
     1
290
     1
176
     1
290
     1
176
     1
290
     0
176
     1
290
     0
176
     1
290
     0
176
     1
290
     0
176
     1
290
     0
176
     1
290
     0
176
     1
 90
       50
176
     1
 40
0.0
176
     1
 40
1.0
176
     1
 90
        0
176
     1
 62
    18
420
        0
176
     1
 90
       50
176
     1
 90
        3
176
     1
 62
     5
420
      255
176
     1
290
     0
176
     1
 90
       50
176
     1
 90
       50
176
     1
 90
       50
176
     1
290
     0
176
     1
 90
       50
176
     1
 62
   256
176
     0
 40
1.0
176
     0
 90
        2
176
     1
  1
strokes_ogs.tif
176
     1
290
     0
176
     1
 40
1.0
176
     1
 40
1.0
176
     1
  0
VISUALSTYLE
  5
3B
102
{ACAD_REACTORS
330
29
102
}
330
29
100
AcDbVisualStyle
  2
Sketchy
 70
    24
177
     3
291
     0
 70
    58
 90
        1
176
     1
 90
        2
176
     1
 90
        2
176
     1
 90
        0
176
     1
 40
0.6
176
     1
 40
30.0
176
     1
 62
     7
420
 16777215
176
     1
 90
        2
176
     1
 90
        2
176
     1
 62
     7
176
     1
 62
     7
176
     1
 90
        1
176
     1
 90
        1
176
     1
 40
40.0
176
     1
 90
       11
176
     1
 62
     7
176
     1
 40
1.0
176
     1
 90
        1
176
     1
 90
        6
176
     1
 90
        2
176
     1
 62
     7
176
     1
 90
        6
176
     1
 90
        0
176
     1
 90
        0
176
     1
290
     0
176
     1
 90
        1
176
     1
 40
0.0
176
     1
 90
        0
176
     1
290
     0
176
     1
290
     1
176
     1
290
     1
176
     1
290
     0
176
     1
290
     0
176
     1
290
     0
176
     1
290
     0
176
     1
290
     0
176
     1
290
     0
176
     1
 90
       50
176
     1
 40
0.0
176
     1
 40
1.0
176
     1
 90
        0
176
     1
 62
    18
420
        0
176
     1
 90
       50
176
     1
 90
        3
176
     1
 62
     5
420
      255
176
     1
290
     0
176
     1
 90
       50
176
     1
 90
       50
176
     1
 90
       50
176
     1
290
     0
176
     1
 90
       50
176
     1
 62
   256
176
     0
 40
1.0
176
     0
 90
        2
176
     1
  1
strokes_ogs.tif
176
     1
290
     0
176
     1
 40
1.0
176
     1
 40
1.0
176
     1
  0
VISUALSTYLE
  5
36
102
{ACAD_REACTORS
330
29
102
}
330
29
100
AcDbVisualStyle
  2
Thicken
 70
    13
177
     3
291
     1
 70
    58
 90
        2
176
     1
 90
        2
176
     1
 90
        0
176
     1
 90
        0
176
     1
 40
0.6
176
     1
 40
30.0
176
     1
 62
     7
420
 16777215
176
     1
 90
        1
176
     1
 90
        4
176
     1
 62
     7
176
     1
 62
   257
176
     1
 90
        1
176
     1
 90
        1
176
     1
 40
1.0
176
     1
 90
       12
176
     1
 62
     7
176
     1
 40
1.0
176
     1
 90
        1
176
     1
 90
        6
176
     1
 90
        2
176
     1
 62
     7
176
     1
 90
        5
176
     1
 90
        0
176
     1
 90
        0
176
     1
290
     0
176
     1
 90
        1
176
     1
 40
0.0
176
     1
 90
        0
176
     1
290
     0
176
     1
290
     1
176
     1
290
     1
176
     1
290
     0
176
     1
290
     0
176
     1
290
     0
176
     1
290
     0
176
     1
290
     0
176
     1
290
     0
176
     1
 90
       50
176
     1
 40
0.0
176
     1
 40
1.0
176
     1
 90
        0
176
     1
 62
    18
420
        0
176
     1
 90
       50
176
     1
 90
        3
176
     1
 62
     5
420
      255
176
     1
290
     0
176
     1
 90
       50
176
     1
 90
       50
176
     1
 90
       50
176
     1
290
     0
176
     1
 90
       50
176
     1
 62
   256
176
     0
 40
1.0
176
     0
 90
        2
176
     1
  1
strokes_ogs.tif
176
     1
290
     0
176
     1
 40
1.0
176
     1
 40
1.0
176
     1
  0
VISUALSTYLE
  5
30
102
{ACAD_REACTORS
330
29
102
}
330
29
100
AcDbVisualStyle
  2
Wireframe
 70
     5
177
     3
291
     0
 70
    58
 90
        0
176
     1
 90
        2
176
     1
 90
        0
176
     1
 90
        0
176
     1
 40
0.6
176
     1
 40
30.0
176
     1
 62
     7
420
 16777215
176
     1
 90
        1
176
     1
 90
        4
176
     1
 62
     7
176
     1
 62
   257
176
     1
 90
        1
176
     1
 90
        1
176
     1
 40
1.0
176
     1
 90
        0
176
     1
 62
   257
176
     1
 40
1.0
176
     1
 90
        1
176
     1
 90
        6
176
     1
 90
        2
176
     1
 62
     7
176
     1
 90
        3
176
     1
 90
        0
176
     1
 90
        0
176
     1
290
     0
176
     1
 90
        1
176
     1
 40
0.0
176
     1
 90
        0
176
     1
290
     0
176
     1
290
     1
176
     1
290
     1
176
     1
290
     0
176
     1
290
     0
176
     1
290
     0
176
     1
290
     0
176
     1
290
     0
176
     1
290
     0
176
     1
 90
       50
176
     1
 40
0.0
176
     1
 40
1.0
176
     1
 90
        0
176
     1
 62
    18
420
        0
176
     1
 90
       50
176
     1
 90
        3
176
     1
 62
     5
420
      255
176
     1
290
     0
176
     1
 90
       50
176
     1
 90
       50
176
     1
 90
       50
176
     1
290
     0
176
     1
 90
       50
176
     1
 62
   256
176
     0
 40
1.0
176
     0
 90
        2
176
     1
  1
strokes_ogs.tif
176
     1
290
     0
176
     1
 40
1.0
176
     1
 40
1.0
176
     1
  0
VISUALSTYLE
  5
3C
102
{ACAD_REACTORS
330
29
102
}
330
29
100
AcDbVisualStyle
  2
X-Ray
 70
    25
177
     3
291
     0
 70
    58
 90
        2
176
     1
 90
        2
176
     1
 90
        1
176
     1
 90
        1
176
     1
 40
0.5
176
     1
 40
30.0
176
     1
 62
     7
420
 16777215
176
     1
 90
        1
176
     1
 90
        0
176
     1
 62
     7
176
     1
 62
   257
176
     1
 90
        1
176
     1
 90
        1
176
     1
 40
1.0
176
     1
 90
        8
176
     1
 62
     7
176
     1
 40
1.0
176
     1
 90
        1
176
     1
 90
        6
176
     1
 90
        2
176
     1
 62
     7
176
     1
 90
        3
176
     1
 90
        0
176
     1
 90
        0
176
     1
290
     0
176
     1
 90
       13
176
     1
 40
0.0
176
     1
 90
        0
176
     1
290
     0
176
     1
290
     1
176
     1
290
     1
176
     1
290
     0
176
     1
290
     0
176
     1
290
     0
176
     1
290
     0
176
     1
290
     0
176
     1
290
     0
176
     1
 90
       50
176
     1
 40
0.0
176
     1
 40
1.0
176
     1
 90
        0
176
     1
 62
    18
420
        0
176
     1
 90
       50
176
     1
 90
        3
176
     1
 62
     5
420
      255
176
     1
290
     0
176
     1
 90
       50
176
     1
 90
       50
176
     1
 90
       50
176
     1
290
     0
176
     1
 90
       50
176
     1
 62
   256
176
     0
 40
1.0
176
     0
 90
        2
176
     1
  1
strokes_ogs.tif
176
     1
290
     0
176
     1
 40
1.0
176
     1
 40
1.0
176
     1
  0
DICTIONARYVAR
  5
BC
102
{ACAD_REACTORS
330
B7
102
}
330
B7
100
DictionaryVariables
280
     0
  1
1:1
  0
DICTIONARYVAR
  5
B9
102
{ACAD_REACTORS
330
B7
102
}
330
B7
100
DictionaryVariables
280
     0
  1
STANDARD
  0
DICTIONARYVAR
  5
B8
102
{ACAD_REACTORS
330
B7
102
}
330
B7
100
DictionaryVariables
280
     0
  1
STANDARD
  0
DICTIONARYVAR
  5
BA
102
{ACAD_REACTORS
330
B7
102
}
330
B7
100
DictionaryVariables
280
     0
  1
Imperial24
  0
DICTIONARYVAR
  5
BB
102
{ACAD_REACTORS
330
B7
102
}
330
B7
100
DictionaryVariables
280
     0
  1
Imperial24
  0
DICTIONARY
  5
1A
330
19
100
AcDbDictionary
280
     1
281
     1
  3
BUMPTILE
360
1C
  3
DIFFUSETILE
360
1B
  3
OPACITYTILE
360
1F
  3
REFLECTIONTILE
360
1E
  3
REFRACTIONTILE
360
20
  3
SPECULARTILE
360
1D
  0
DICTIONARY
  5
12
330
11
100
AcDbDictionary
280
     1
281
     1
  3
BUMPTILE
360
14
  3
DIFFUSETILE
360
13
  3
OPACITYTILE
360
17
  3
REFLECTIONTILE
360
16
  3
REFRACTIONTILE
360
18
  3
SPECULARTILE
360
15
  0
DICTIONARY
  5
22
330
21
100
AcDbDictionary
280
     1
281
     1
  3
BUMPTILE
360
24
  3
DIFFUSETILE
360
23
  3
OPACITYTILE
360
27
  3
REFLECTIONTILE
360
26
  3
REFRACTIONTILE
360
28
  3
SPECULARTILE
360
25
  0
DICTIONARY
  5
BD
330
65
100
AcDbDictionary
280
     1
281
     1
  3
ACAD_ROUNDTRIP_2008_TABLESTYLE_CELLSTYLEMAP
360
BE
  0
XRECORD
  5
1C
102
{ACAD_REACTORS
330
1A
102
}
330
1A
100
AcDbXrecord
280
     1
270
     1
271
     1
  0
XRECORD
  5
1B
102
{ACAD_REACTORS
330
1A
102
}
330
1A
100
AcDbXrecord
280
     1
270
     1
271
     1
  0
XRECORD
  5
1F
102
{ACAD_REACTORS
330
1A
102
}
330
1A
100
AcDbXrecord
280
     1
270
     1
271
     1
  0
XRECORD
  5
1E
102
{ACAD_REACTORS
330
1A
102
}
330
1A
100
AcDbXrecord
280
     1
270
     1
271
     1
  0
XRECORD
  5
20
102
{ACAD_REACTORS
330
1A
102
}
330
1A
100
AcDbXrecord
280
     1
270
     1
271
     1
  0
XRECORD
  5
1D
102
{ACAD_REACTORS
330
1A
102
}
330
1A
100
AcDbXrecord
280
     1
270
     1
271
     1
  0
XRECORD
  5
14
102
{ACAD_REACTORS
330
12
102
}
330
12
100
AcDbXrecord
280
     1
270
     1
271
     1
  0
XRECORD
  5
13
102
{ACAD_REACTORS
330
12
102
}
330
12
100
AcDbXrecord
280
     1
270
     1
271
     1
  0
XRECORD
  5
17
102
{ACAD_REACTORS
330
12
102
}
330
12
100
AcDbXrecord
280
     1
270
     1
271
     1
  0
XRECORD
  5
16
102
{ACAD_REACTORS
330
12
102
}
330
12
100
AcDbXrecord
280
     1
270
     1
271
     1
  0
XRECORD
  5
18
102
{ACAD_REACTORS
330
12
102
}
330
12
100
AcDbXrecord
280
     1
270
     1
271
     1
  0
XRECORD
  5
15
102
{ACAD_REACTORS
330
12
102
}
330
12
100
AcDbXrecord
280
     1
270
     1
271
     1
  0
XRECORD
  5
24
102
{ACAD_REACTORS
330
22
102
}
330
22
100
AcDbXrecord
280
     1
270
     1
271
     1
  0
XRECORD
  5
23
102
{ACAD_REACTORS
330
22
102
}
330
22
100
AcDbXrecord
280
     1
270
     1
271
     1
  0
XRECORD
  5
27
102
{ACAD_REACTORS
330
22
102
}
330
22
100
AcDbXrecord
280
     1
270
     1
271
     1
  0
XRECORD
  5
26
102
{ACAD_REACTORS
330
22
102
}
330
22
100
AcDbXrecord
280
     1
270
     1
271
     1
  0
XRECORD
  5
28
102
{ACAD_REACTORS
330
22
102
}
330
22
100
AcDbXrecord
280
     1
270
     1
271
     1
  0
XRECORD
  5
25
102
{ACAD_REACTORS
330
22
102
}
330
22
100
AcDbXrecord
280
     1
270
     1
271
     1
  0
CELLSTYLEMAP
  5
BE
102
{ACAD_REACTORS
330
BD
102
}
330
BD
100
AcDbCellStyleMap
 90
        3
300
CELLSTYLE
  1
TABLEFORMAT_BEGIN
 90
        5
170
     1
 91
        0
 92
    32768
 62
   257
 93
        1
300
CONTENTFORMAT
  1
CONTENTFORMAT_BEGIN
 90
        0
 91
        0
 92
      512
 93
        0
300

 40
0.0
140
1.0
 94
        5
 62
     0
340
55
144
0.25
309
CONTENTFORMAT_END
171
     0
 94
        0
309
TABLEFORMAT_END
  1
CELLSTYLE_BEGIN
 90
        1
 91
        1
300
_TITLE
309
CELLSTYLE_END
300
CELLSTYLE
  1
TABLEFORMAT_BEGIN
 90
        5
170
     1
 91
        0
 92
        0
 62
   257
 93
        1
300
CONTENTFORMAT
  1
CONTENTFORMAT_BEGIN
 90
        0
 91
        0
 92
      512
 93
        0
300

 40
0.0
140
1.0
 94
        5
 62
     0
340
55
144
0.18
309
CONTENTFORMAT_END
171
     0
 94
        0
309
TABLEFORMAT_END
  1
CELLSTYLE_BEGIN
 90
        2
 91
        1
300
_HEADER
309
CELLSTYLE_END
300
CELLSTYLE
  1
TABLEFORMAT_BEGIN
 90
        5
170
     1
 91
        0
 92
        0
 62
   257
 93
        1
300
CONTENTFORMAT
  1
CONTENTFORMAT_BEGIN
 90
        0
 91
        0
 92
      512
 93
        0
300

 40
0.0
140
1.0
 94
        2
 62
     0
340
55
144
0.18
309
CONTENTFORMAT_END
171
     0
 94
        0
309
TABLEFORMAT_END
  1
CELLSTYLE_BEGIN
 90
        3
 91
        2
300
_DATA
309
CELLSTYLE_END
  0
ENDSEC
  0
EOF
