  0
SECTION
  2
HEADER
  9
$ACADVER
  1
AC1032
  9
$ACADMAINTVER
 90
      228
  9
$DWGCODEPAGE
  3
ANSI_932
  9
$REQUIREDVERSIONS
160
                 0
  9
$INSBASE
 10
0.0
 20
0.0
 30
0.0
  9
$EXTMIN
 10
1.000000000000000E+20
 20
1.000000000000000E+20
 30
1.000000000000000E+20
  9
$EXTMAX
 10
-1.000000000000000E+20
 20
-1.000000000000000E+20
 30
-1.000000000000000E+20
  9
$LIMMIN
 10
0.0
 20
0.0
  9
$LIMMAX
 10
12.0
 20
9.0
  9
$ORTHOMODE
 70
     0
  9
$REGENMODE
 70
     1
  9
$FILLMODE
 70
     1
  9
$QTEXTMODE
 70
     0
  9
$MIRRTEXT
 70
     0
  9
$LTSCALE
 40
1.0
  9
$ATTMODE
 70
     1
  9
$TEXTSIZE
 40
0.2
  9
$TRACEWID
 40
0.05
  9
$TEXTSTYLE
  7
Standard
  9
$CLAYER
  8
0
  9
$CELTYPE
  6
ByLayer
  9
$CECOLOR
 62
   256
  9
$CELTSCALE
 40
1.0
  9
$DISPSILH
 70
     0
  9
$DIMSCALE
 40
1.0
  9
$DIMASZ
 40
0.18
  9
$DIMEXO
 40
0.0625
  9
$DIMDLI
 40
0.38
  9
$DIMRND
 40
0.0
  9
$DIMDLE
 40
0.0
  9
$DIMEXE
 40
0.18
  9
$DIMTP
 40
0.0
  9
$DIMTM
 40
0.0
  9
$DIMTXT
 40
0.18
  9
$DIMCEN
 40
0.09
  9
$DIMTSZ
 40
0.0
  9
$DIMTOL
 70
     0
  9
$DIMLIM
 70
     0
  9
$DIMTIH
 70
     1
  9
$DIMTOH
 70
     1
  9
$DIMSE1
 70
     0
  9
$DIMSE2
 70
     0
  9
$DIMTAD
 70
     0
  9
$DIMZIN
 70
     0
  9
$DIMBLK
  1

  9
$DIMASO
 70
     1
  9
$DIMSHO
 70
     1
  9
$DIMPOST
  1

  9
$DIMAPOST
  1

  9
$DIMALT
 70
     0
  9
$DIMALTD
 70
     2
  9
$DIMALTF
 40
25.4
  9
$DIMLFAC
 40
1.0
  9
$DIMTOFL
 70
     0
  9
$DIMTVP
 40
0.0
  9
$DIMTIX
 70
     0
  9
$DIMSOXD
 70
     0
  9
$DIMSAH
 70
     0
  9
$DIMBLK1
  1

  9
$DIMBLK2
  1

  9
$DIMSTYLE
  2
Standard
  9
$DIMCLRD
 70
     0
  9
$DIMCLRE
 70
     0
  9
$DIMCLRT
 70
     0
  9
$DIMTFAC
 40
1.0
  9
$DIMGAP
 40
0.09
  9
$DIMJUST
 70
     0
  9
$DIMSD1
 70
     0
  9
$DIMSD2
 70
     0
  9
$DIMTOLJ
 70
     1
  9
$DIMTZIN
 70
     0
  9
$DIMALTZ
 70
     0
  9
$DIMALTTZ
 70
     0
  9
$DIMUPT
 70
     0
  9
$DIMDEC
 70
     4
  9
$DIMTDEC
 70
     4
  9
$DIMALTU
 70
     2
  9
$DIMALTTD
 70
     2
  9
$DIMTXSTY
  7
Standard
  9
$DIMAUNIT
 70
     0
  9
$DIMADEC
 70
     0
  9
$DIMALTRND
 40
0.0
  9
$DIMAZIN
 70
     0
  9
$DIMDSEP
 70
    46
  9
$DIMATFIT
 70
     3
  9
$DIMFRAC
 70
     0
  9
$DIMLDRBLK
  1

  9
$DIMLUNIT
 70
     2
  9
$DIMLWD
 70
    -2
  9
$DIMLWE
 70
    -2
  9
$DIMTMOVE
 70
     0
  9
$DIMFXL
 40
1.0
  9
$DIMFXLON
 70
     0
  9
$DIMJOGANG
 40
0.7853981633974483
  9
$DIMTFILL
 70
     0
  9
$DIMTFILLCLR
 70
     0
  9
$DIMARCSYM
 70
     0
  9
$DIMLTYPE
  6

  9
$DIMLTEX1
  6

  9
$DIMLTEX2
  6

  9
$DIMTXTDIRECTION
 70
     0
  9
$LUNITS
 70
     2
  9
$LUPREC
 70
     4
  9
$SKETCHINC
 40
0.1
  9
$FILLETRAD
 40
0.0
  9
$AUNITS
 70
     0
  9
$AUPREC
 70
     0
  9
$MENU
  1
.
  9
$ELEVATION
 40
0.0
  9
$PELEVATION
 40
0.0
  9
$THICKNESS
 40
0.0
  9
$LIMCHECK
 70
     0
  9
$CHAMFERA
 40
0.0
  9
$CHAMFERB
 40
0.0
  9
$CHAMFERC
 40
0.0
  9
$CHAMFERD
 40
0.0
  9
$SKPOLY
 70
     0
  9
$TDCREATE
 40
2460061.508425926
  9
$TDUCREATE
 40
2460061.133425926
  9
$TDUPDATE
 40
2460061.508425926
  9
$TDUUPDATE
 40
2460061.133425926
  9
$TDINDWG
 40
0.0000000000
  9
$TDUSRTIMER
 40
0.0000000000
  9
$USRTIMER
 70
     1
  9
$ANGBASE
 50
0.0
  9
$ANGDIR
 70
     0
  9
$PDMODE
 70
     0
  9
$PDSIZE
 40
0.0
  9
$PLINEWID
 40
0.0
  9
$SPLFRAME
 70
     0
  9
$SPLINETYPE
 70
     6
  9
$SPLINESEGS
 70
     8
  9
$HANDSEED
  5
B8
  9
$SURFTAB1
 70
     6
  9
$SURFTAB2
 70
     6
  9
$SURFTYPE
 70
     6
  9
$SURFU
 70
     6
  9
$SURFV
 70
     6
  9
$UCSBASE
  2

  9
$UCSNAME
  2

  9
$UCSORG
 10
0.0
 20
0.0
 30
0.0
  9
$UCSXDIR
 10
1.0
 20
0.0
 30
0.0
  9
$UCSYDIR
 10
0.0
 20
1.0
 30
0.0
  9
$UCSORTHOREF
  2

  9
$UCSORTHOVIEW
 70
     0
  9
$UCSORGTOP
 10
0.0
 20
0.0
 30
0.0
  9
$UCSORGBOTTOM
 10
0.0
 20
0.0
 30
0.0
  9
$UCSORGLEFT
 10
0.0
 20
0.0
 30
0.0
  9
$UCSORGRIGHT
 10
0.0
 20
0.0
 30
0.0
  9
$UCSORGFRONT
 10
0.0
 20
0.0
 30
0.0
  9
$UCSORGBACK
 10
0.0
 20
0.0
 30
0.0
  9
$PUCSBASE
  2

  9
$PUCSNAME
  2

  9
$PUCSORG
 10
0.0
 20
0.0
 30
0.0
  9
$PUCSXDIR
 10
1.0
 20
0.0
 30
0.0
  9
$PUCSYDIR
 10
0.0
 20
1.0
 30
0.0
  9
$PUCSORTHOREF
  2

  9
$PUCSORTHOVIEW
 70
     0
  9
$PUCSORGTOP
 10
0.0
 20
0.0
 30
0.0
  9
$PUCSORGBOTTOM
 10
0.0
 20
0.0
 30
0.0
  9
$PUCSORGLEFT
 10
0.0
 20
0.0
 30
0.0
  9
$PUCSORGRIGHT
 10
0.0
 20
0.0
 30
0.0
  9
$PUCSORGFRONT
 10
0.0
 20
0.0
 30
0.0
  9
$PUCSORGBACK
 10
0.0
 20
0.0
 30
0.0
  9
$USERI1
 70
     0
  9
$USERI2
 70
     0
  9
$USERI3
 70
     0
  9
$USERI4
 70
     0
  9
$USERI5
 70
     0
  9
$USERR1
 40
0.0
  9
$USERR2
 40
0.0
  9
$USERR3
 40
0.0
  9
$USERR4
 40
0.0
  9
$USERR5
 40
0.0
  9
$WORLDVIEW
 70
     1
  9
$SHADEDGE
 70
     3
  9
$SHADEDIF
 70
    70
  9
$TILEMODE
 70
     1
  9
$MAXACTVP
 70
    64
  9
$PINSBASE
 10
0.0
 20
0.0
 30
0.0
  9
$PLIMCHECK
 70
     0
  9
$PEXTMIN
 10
1.000000000000000E+20
 20
1.000000000000000E+20
 30
1.000000000000000E+20
  9
$PEXTMAX
 10
-1.000000000000000E+20
 20
-1.000000000000000E+20
 30
-1.000000000000000E+20
  9
$PLIMMIN
 10
0.0
 20
0.0
  9
$PLIMMAX
 10
12.0
 20
9.0
  9
$UNITMODE
 70
     0
  9
$VISRETAIN
 70
     1
  9
$PLINEGEN
 70
     0
  9
$PSLTSCALE
 70
     1
  9
$TREEDEPTH
 70
  3020
  9
$CMLSTYLE
  2
Standard
  9
$CMLJUST
 70
     0
  9
$CMLSCALE
 40
1.0
  9
$PROXYGRAPHICS
 70
     1
  9
$MEASUREMENT
 70
     0
  9
$CELWEIGHT
370
    -1
  9
$ENDCAPS
280
     0
  9
$JOINSTYLE
280
     0
  9
$LWDISPLAY
290
     1
  9
$INSUNITS
 70
     4
  9
$HYPERLINKBASE
  1

  9
$STYLESHEET
  1

  9
$XEDIT
290
     1
  9
$CEPSNTYPE
380
     0
  9
$PSTYLEMODE
290
     1
  9
$FINGERPRINTGUID
  2
{D8ADCBD0-A804-EB4D-B32C-2C19722EE912}
  9
$VERSIONGUID
  2
{E6EF39BB-A3BF-9C48-A0FF-2815EBDB4F26}
  9
$EXTNAMES
290
     1
  9
$PSVPSCALE
 40
0.0
  9
$OLESTARTUP
290
     0
  9
$SORTENTS
280
   127
  9
$INDEXCTL
280
     0
  9
$HIDETEXT
280
     1
  9
$XCLIPFRAME
280
     2
  9
$HALOGAP
280
     0
  9
$OBSCOLOR
 70
   257
  9
$OBSLTYPE
280
     0
  9
$INTERSECTIONDISPLAY
280
     0
  9
$INTERSECTIONCOLOR
 70
   257
  9
$DIMASSOC
280
     2
  9
$PROJECTNAME
  1

  9
$CAMERADISPLAY
290
     0
  9
$LENSLENGTH
 40
50.0
  9
$CAMERAHEIGHT
 40
0.0
  9
$STEPSPERSEC
 40
2.0
  9
$STEPSIZE
 40
6.0
  9
$3DDWFPREC
 40
2.0
  9
$PSOLWIDTH
 40
0.25
  9
$PSOLHEIGHT
 40
4.0
  9
$LOFTANG1
 40
1.570796326794896
  9
$LOFTANG2
 40
1.570796326794896
  9
$LOFTMAG1
 40
0.0
  9
$LOFTMAG2
 40
0.0
  9
$LOFTPARAM
 70
     7
  9
$LOFTNORMALS
280
     1
  9
$LATITUDE
 40
37.795
  9
$LONGITUDE
 40
-122.394
  9
$NORTHDIRECTION
 40
0.0
  9
$TIMEZONE
 70
 -8000
  9
$LIGHTGLYPHDISPLAY
280
     1
  9
$TILEMODELIGHTSYNCH
280
     1
  9
$CMATERIAL
347
11
  9
$SOLIDHIST
280
     0
  9
$SHOWHIST
280
     1
  9
$DWFFRAME
280
     2
  9
$DGNFRAME
280
     0
  9
$REALWORLDSCALE
290
     1
  9
$INTERFERECOLOR
 62
     1
  9
$INTERFEREOBJVS
345
33
  9
$INTERFEREVPVS
346
30
  9
$CSHADOW
280
     0
  9
$SHADOWPLANELOCATION
 40
0.0
  0
ENDSEC
  0
SECTION
  2
CLASSES
  0
CLASS
  1
ACDBDICTIONARYWDFLT
  2
AcDbDictionaryWithDefault
  3
ObjectDBX Classes
 90
        0
 91
        1
280
     0
281
     0
  0
CLASS
  1
MATERIAL
  2
AcDbMaterial
  3
ObjectDBX Classes
 90
     1153
 91
        3
280
     0
281
     0
  0
CLASS
  1
VISUALSTYLE
  2
AcDbVisualStyle
  3
ObjectDBX Classes
 90
     4095
 91
       24
280
     0
281
     0
  0
CLASS
  1
SCALE
  2
AcDbScale
  3
ObjectDBX Classes
 90
     1153
 91
       17
280
     0
281
     0
  0
CLASS
  1
TABLESTYLE
  2
AcDbTableStyle
  3
ObjectDBX Classes
 90
     4095
 91
        1
280
     0
281
     0
  0
CLASS
  1
MLEADERSTYLE
  2
AcDbMLeaderStyle
  3
ACDB_MLEADERSTYLE_CLASS
 90
     4095
 91
        1
280
     0
281
     0
  0
CLASS
  1
ACDBSECTIONVIEWSTYLE
  2
AcDbSectionViewStyle
  3
ObjectDBX Classes
 90
     1025
 91
        1
280
     0
281
     0
  0
CLASS
  1
ACDBDETAILVIEWSTYLE
  2
AcDbDetailViewStyle
  3
ObjectDBX Classes
 90
     1025
 91
        1
280
     0
281
     0
  0
CLASS
  1
DICTIONARYVAR
  2
AcDbDictionaryVar
  3
ObjectDBX Classes
 90
        0
 91
        5
280
     0
281
     0
  0
CLASS
  1
CELLSTYLEMAP
  2
AcDbCellStyleMap
  3
ObjectDBX Classes
 90
     1152
 91
        1
280
     0
281
     0
  0
ENDSEC
  0
SECTION
  2
TABLES
  0
TABLE
  2
VPORT
  5
8
330
0
100
AcDbSymbolTable
 70
     1
  0
VPORT
  5
57
330
8
100
AcDbSymbolTableRecord
100
AcDbViewportTableRecord
  2
*Active
 70
     0
 10
0.0
 20
0.0
 11
1.0
 21
1.0
 12
0.0
 22
0.0
 13
0.0
 23
0.0
 14
1.0
 24
1.0
 15
0.0
 25
0.0
 16
0.0
 26
0.0
 36
1.0
 17
338.666666582
 27
190.4999999523751
 37
0.0
 40
388.8749999028449
 41
1.776612021857632
 42
50.0
 43
0.0
 44
0.0
 50
0.0
 51
0.0
 71
     0
 72
   100
 73
     1
 74
     1
 75
     0
 76
     0
 77
     0
 78
     0
281
     0
 65
     1
110
0.0
120
0.0
130
0.0
111
1.0
121
0.0
131
0.0
112
0.0
122
1.0
132
0.0
 79
     0
146
0.0
 60
     3
 61
     5
292
     1
282
     1
141
0.0
142
0.0
 63
   250
421
  3355443
  0
ENDTAB
  0
TABLE
  2
LTYPE
  5
5
330
0
100
AcDbSymbolTable
 70
     1
  0
LTYPE
  5
5B
330
5
100
AcDbSymbolTableRecord
100
AcDbLinetypeTableRecord
  2
ByBlock
 70
     0
  3

 72
    65
 73
     0
 40
0.0
  0
LTYPE
  5
5C
330
5
100
AcDbSymbolTableRecord
100
AcDbLinetypeTableRecord
  2
ByLayer
 70
     0
  3

 72
    65
 73
     0
 40
0.0
  0
LTYPE
  5
5D
330
5
100
AcDbSymbolTableRecord
100
AcDbLinetypeTableRecord
  2
Continuous
 70
     0
  3
Solid line
 72
    65
 73
     0
 40
0.0
  0
ENDTAB
  0
TABLE
  2
LAYER
  5
2
330
0
100
AcDbSymbolTable
 70
     5
  0
LAYER
  5
54
330
2
100
AcDbSymbolTableRecord
100
AcDbLayerTableRecord
  2
0
 70
     0
 62
     7
  6
Continuous
370
    -3
390
F
347
21
348
0
  0
LAYER
  5
78
330
2
100
AcDbSymbolTableRecord
100
AcDbLayerTableRecord
  2
FLAME
 70
     0
 62
     7
  6
Continuous
370
     0
390
F
347
21
348
0
  0
LAYER
  5
7D
330
2
100
AcDbSymbolTableRecord
100
AcDbLayerTableRecord
  2
text
 70
     0
 62
     7
  6
Continuous
370
     0
390
F
347
21
348
0
  0
LAYER
  5
81
330
2
100
AcDbSymbolTableRecord
100
AcDbLayerTableRecord
  2
shade
 70
     0
 62
     7
  6
Continuous
370
     0
390
F
347
21
348
0
  0
LAYER
  5
AD
330
2
100
AcDbSymbolTableRecord
100
AcDbLayerTableRecord
  2
Defpoints
 70
     0
 62
     7
  6
Continuous
290
     0
370
     0
390
F
347
21
348
0
  0
ENDTAB
  0
TABLE
  2
STYLE
  5
3
330
0
100
AcDbSymbolTable
 70
     2
  0
STYLE
  5
55
330
3
100
AcDbSymbolTableRecord
100
AcDbTextStyleTableRecord
  2
Standard
 70
     0
 40
0.0
 41
1.0
 50
0.0
 71
     0
 42
0.2
  3
txt
  4

  0
STYLE
  5
5A
330
3
100
AcDbSymbolTableRecord
100
AcDbTextStyleTableRecord
  2
Annotative
 70
     0
 40
0.0
 41
1.0
 50
0.0
 71
     0
 42
0.2
  3
txt
  4

1001
AcadAnnotative
1000
AnnotativeData
1002
{
1070
     1
1070
     1
1002
}
  0
ENDTAB
  0
TABLE
  2
VIEW
  5
6
330
0
100
AcDbSymbolTable
 70
     0
  0
ENDTAB
  0
TABLE
  2
UCS
  5
7
330
0
100
AcDbSymbolTable
 70
     0
  0
ENDTAB
  0
TABLE
  2
APPID
  5
9
330
0
100
AcDbSymbolTable
 70
     2
  0
APPID
  5
56
330
9
100
AcDbSymbolTableRecord
100
AcDbRegAppTableRecord
  2
ACAD
 70
     0
  0
APPID
  5
5E
330
9
100
AcDbSymbolTableRecord
100
AcDbRegAppTableRecord
  2
AcadAnnotative
 70
     0
  0
ENDTAB
  0
TABLE
  2
DIMSTYLE
  5
A
330
0
100
AcDbSymbolTable
 70
     2
100
AcDbDimStyleTable
 71
     0
  0
DIMSTYLE
105
58
330
A
100
AcDbSymbolTableRecord
100
AcDbDimStyleTableRecord
  2
Standard
 70
     0
340
55
  0
DIMSTYLE
105
59
330
A
100
AcDbSymbolTableRecord
100
AcDbDimStyleTableRecord
  2
Annotative
 70
     0
340
55
1001
AcadAnnotative
1000
AnnotativeData
1002
{
1070
     1
1070
     1
1002
}
  0
ENDTAB
  0
TABLE
  2
BLOCK_RECORD
  5
1
330
0
100
AcDbSymbolTable
 70
     1
  0
BLOCK_RECORD
  5
70
330
1
100
AcDbSymbolTableRecord
100
AcDbBlockTableRecord
  2
*Model_Space
340
73
 70
     0
280
     1
281
     0
  0
BLOCK_RECORD
  5
6C
330
1
100
AcDbSymbolTableRecord
100
AcDbBlockTableRecord
  2
*Paper_Space
340
6F
 70
     0
280
     1
281
     0
  0
BLOCK_RECORD
  5
74
330
1
100
AcDbSymbolTableRecord
100
AcDbBlockTableRecord
  2
*Paper_Space0
340
77
 70
     0
280
     1
281
     0
  0
ENDTAB
  0
ENDSEC
  0
SECTION
  2
BLOCKS
  0
BLOCK
  5
71
330
70
100
AcDbEntity
  8
0
100
AcDbBlockBegin
  2
*Model_Space
 70
     0
 10
0.0
 20
0.0
 30
0.0
  3
*Model_Space
  1

  0
ENDBLK
  5
72
330
70
100
AcDbEntity
  8
0
100
AcDbBlockEnd
  0
BLOCK
  5
6D
330
6C
100
AcDbEntity
 67
     1
  8
0
100
AcDbBlockBegin
  2
*Paper_Space
 70
     0
 10
0.0
 20
0.0
 30
0.0
  3
*Paper_Space
  1

  0
ENDBLK
  5
6E
330
6C
100
AcDbEntity
 67
     1
  8
0
100
AcDbBlockEnd
  0
BLOCK
  5
75
330
74
100
AcDbEntity
 67
     1
  8
0
100
AcDbBlockBegin
  2
*Paper_Space0
 70
     0
 10
0.0
 20
0.0
 30
0.0
  3
*Paper_Space0
  1

  0
ENDBLK
  5
76
330
74
100
AcDbEntity
 67
     1
  8
0
100
AcDbBlockEnd
  0
ENDSEC
  0
SECTION
  2
ENTITIES
  0
LINE
  5
79
330
70
100
AcDbEntity
  8
FLAME
 62
     2
420
 16776960
370
    25
100
AcDbLine
 10
397.3682488181085
 20
132.0924915387343
 30
0.0
 11
281.9137033924271
 21
132.0924915387343
 31
0.0
  0
LINE
  5
7A
330
70
100
AcDbEntity
  8
FLAME
 62
     2
420
 16776960
370
    25
100
AcDbLine
 10
397.3682488181085
 20
138.5066329512722
 30
0.0
 11
281.9137033924271
 21
138.5066329512722
 31
0.0
  0
LINE
  5
7B
330
70
100
AcDbEntity
  8
FLAME
 62
     2
420
 16776960
370
    25
100
AcDbLine
 10
397.3682488181085
 20
144.92077436381
 30
0.0
 11
281.9137033924271
 21
144.92077436381
 31
0.0
  0
LWPOLYLINE
  5
7C
330
70
100
AcDbEntity
  8
FLAME
 62
     2
420
 16776960
370
    25
100
AcDbPolyline
 90
        4
 70
     1
 43
0.0
 10
397.3682488181085
 20
125.6783501261965
 10
397.3682488181085
 20
260.3753197894921
 10
281.9137033924271
 20
260.3753197894921
 10
281.9137033924271
 20
125.6783501261965
  0
MTEXT
  5
7E
330
70
100
AcDbEntity
  8
text
100
AcDbMText
 10
286.1218333906549
 20
133.554574042946
 30
0.0
 40
0.2
 41
0.0
 46
0.0
 71
     7
 72
     1
  1
\C4;\c16776960;\FMS PMincho|b0|i0|c128;\H3.207071;\W1.000000;KP172G
 73
     1
 44
1.0
  0
MTEXT
  5
7F
330
70
100
AcDbEntity
  8
text
100
AcDbMText
 10
286.1398555464121
 20
140.3831193361065
 30
0.0
 40
0.2
 41
0.0
 46
0.0
 71
     7
 72
     1
  1
\C4;\c16776960;\FMS PMincho|b0|i0|c128;\H3.207071;\W1.000000;ペンダント　172G (XXL)
 73
     1
 44
1.0
  0
MTEXT
  5
80
330
70
100
AcDbEntity
  8
text
100
AcDbMText
 10
285.8344047679511
 20
127.8081440076259
 30
0.0
 40
0.2
 41
0.0
 46
0.0
 71
     7
 72
     1
  1
\C4;\c16776960;\FMS PMincho|b0|i0|c128;\H3.207071;\W0.827175;E26 LED電球(100W形相当　電球色　全方向/広配光タイプ）
 73
     1
 44
1.0
  0
SPLINE
  5
82
330
70
100
AcDbEntity
  8
shade
 62
     6
420
 16711935
370
    25
100
AcDbSpline
210
0.0
220
0.0
230
1.0
 70
     8
 71
     3
 72
    92
 73
    88
 74
     0
 42
0.0000000001
 43
0.0000000001
 40
0.0
 40
0.0
 40
0.0
 40
0.0
 40
1.0
 40
1.0
 40
1.0
 40
2.0
 40
2.0
 40
2.0
 40
3.0
 40
3.0
 40
3.0
 40
4.0
 40
4.0
 40
4.0
 40
5.0
 40
5.0
 40
5.0
 40
6.0
 40
6.0
 40
6.0
 40
7.0
 40
7.0
 40
7.0
 40
8.0
 40
8.0
 40
8.0
 40
9.0
 40
9.0
 40
9.0
 40
10.0
 40
10.0
 40
10.0
 40
11.0
 40
11.0
 40
11.0
 40
12.0
 40
12.0
 40
12.0
 40
13.0
 40
13.0
 40
13.0
 40
14.0
 40
14.0
 40
14.0
 40
15.0
 40
15.0
 40
15.0
 40
16.0
 40
16.0
 40
16.0
 40
17.0
 40
17.0
 40
17.0
 40
18.0
 40
18.0
 40
18.0
 40
19.0
 40
19.0
 40
19.0
 40
20.0
 40
20.0
 40
20.0
 40
21.0
 40
21.0
 40
21.0
 40
22.0
 40
22.0
 40
22.0
 40
23.0
 40
23.0
 40
23.0
 40
24.0
 40
24.0
 40
24.0
 40
25.0
 40
25.0
 40
25.0
 40
26.0
 40
26.0
 40
26.0
 40
27.0
 40
27.0
 40
27.0
 40
28.0
 40
28.0
 40
28.0
 40
29.0
 40
29.0
 40
29.0
 40
29.0
 10
328.1563951120562
 20
194.3252785421655
 30
0.0
 10
328.2119698247677
 20
194.5529951731881
 30
0.0
 10
328.6990817088696
 20
196.0041067645554
 30
0.0
 10
329.7873743203606
 20
197.1779251212085
 30
0.0
 10
330.819706227351
 20
198.2913849846577
 30
0.0
 10
332.3929822354833
 20
199.1553356193985
 30
0.0
 10
332.647871709376
 20
198.4162071918061
 30
0.0
 10
332.7320887944835
 20
198.1719945111445
 30
0.0
 10
332.6723798422881
 20
197.7527763894121
 30
0.0
 10
332.5614781989612
 20
197.3899555898754
 30
0.0
 10
332.3687452872326
 20
196.7594193143724
 30
0.0
 10
332.0214001745322
 20
196.2992142701617
 30
0.0
 10
331.6215605963999
 20
195.8668175618568
 30
0.0
 10
331.2222691275684
 20
195.4350135929169
 30
0.0
 10
330.7706270159034
 20
195.0309417715249
 30
0.0
 10
330.2910734703252
 20
194.6733260432462
 30
0.0
 10
329.859571396546
 20
194.3515435649576
 30
0.0
 10
329.4054711299297
 20
194.0673737637512
 30
0.0
 10
328.9450021408677
 20
193.7932236949702
 30
0.0
 10
328.7356398268897
 20
193.6685753600322
 30
0.0
 10
328.5249609289294
 20
193.5459983697526
 30
0.0
 10
328.3099968242222
 20
193.4306440370556
 30
0.0
 10
327.9192641311825
 20
193.2209685234161
 30
0.0
 10
327.5143735202699
 20
193.0351559874378
 30
0.0
 10
327.1449239928559
 20
192.7909647985283
 30
0.0
 10
326.7374151793279
 20
192.5216179614566
 30
0.0
 10
326.3730255734667
 20
192.1812450436178
 30
0.0
 10
326.0563435520599
 20
191.8089780225125
 30
0.0
 10
325.7846481713348
 20
191.4895938352402
 30
0.0
 10
325.5480687970859
 20
191.146733432401
 30
0.0
 10
325.3306234962362
 20
190.7816687024742
 30
0.0
 10
325.1059692178857
 20
190.4045009589892
 30
0.0
 10
324.9017387499185
 20
190.0036322002176
 30
0.0
 10
324.816571522228
 20
189.5881771838642
 30
0.0
 10
324.7659874621238
 20
189.341422627121
 30
0.0
 10
324.7574044421981
 20
189.0895225864371
 30
0.0
 10
324.7712139741089
 20
188.8176951504432
 30
0.0
 10
324.7784269476917
 20
188.675714659896
 30
0.0
 10
324.7917489807823
 20
188.5282976454237
 30
0.0
 10
324.8619290703565
 20
188.4249005788916
 30
0.0
 10
324.9585468478501
 20
188.2825525877677
 30
0.0
 10
325.1629297561804
 20
188.2236371960417
 30
0.0
 10
325.3457424409012
 20
188.152965661888
 30
0.0
 10
325.5270046602881
 20
188.0828935049811
 30
0.0
 10
325.6870609859522
 20
188.001263771694
 30
0.0
 10
325.8597944149049
 20
187.9565683761109
 30
0.0
 10
326.097511467927
 20
187.8950582342345
 30
0.0
 10
326.3592382862892
 20
187.9034997809303
 30
0.0
 10
326.6157530741876
 20
187.9112458320878
 30
0.0
 10
326.9390309935734
 20
187.9210079488162
 30
0.0
 10
327.2540307453335
 20
187.9296654233731
 30
0.0
 10
327.568260870621
 20
187.9716758329305
 30
0.0
 10
328.1018659289654
 20
188.0430151643271
 30
0.0
 10
328.6332516452892
 20
188.2105330612994
 30
0.0
 10
329.1104164355762
 20
188.4702229493473
 30
0.0
 10
329.6260868407603
 20
188.7508689494665
 30
0.0
 10
330.0784323381622
 20
189.1391631079919
 30
0.0
 10
330.4711421651057
 20
189.5730697270452
 30
0.0
 10
330.7463209264238
 20
189.8771158134088
 30
0.0
 10
330.9922182504045
 20
190.2035578650482
 30
0.0
 10
331.2271008243884
 20
190.5399488726753
 30
0.0
 10
331.4735858522572
 20
190.8929565287285
 30
0.0
 10
331.7079410662265
 20
191.256920310402
 30
0.0
 10
331.8923443874235
 20
191.6427956503733
 30
0.0
 10
332.2558736523854
 20
192.4035030920619
 30
0.0
 10
332.4252726607988
 20
193.2493663946742
 30
0.0
 10
332.6876175874248
 20
194.0540787804759
 30
0.0
 10
332.8257081524412
 20
194.4776554414012
 30
0.0
 10
332.9895508379303
 20
194.8898305971539
 30
0.0
 10
333.1499065825701
 20
195.3080567092459
 30
0.0
 10
333.3169171996919
 20
195.7436394894811
 30
0.0
 10
333.4801454495492
 20
196.1857858852648
 30
0.0
 10
333.7307490708667
 20
196.5730170983526
 30
0.0
 10
333.932956238174
 20
196.8854664008799
 30
0.0
 10
334.1920496731867
 20
197.1621628392801
 30
0.0
 10
334.4624114411047
 20
197.4251281015322
 30
0.0
 10
334.7839933531894
 20
197.7379122370185
 30
0.0
 10
335.121517615295
 20
198.031269610962
 30
0.0
 10
335.5123957606431
 20
198.2510726444489
 30
0.0
 10
335.84052726901
 20
198.4355912771235
 30
0.0
 10
336.2062580225167
 20
198.5682751133438
 30
0.0
 10
336.5474864450006
 20
198.6826473205152
 30
0.0
 10
336.8992185173603
 20
198.8005401184132
 30
0.0
 10
337.2249165868873
 20
198.8989766040886
 30
0.0
 10
337.66449123018
 20
198.9802850999681
 30
0.0
 10
338.3843729280721
 20
199.1134422302981
 30
0.0
 10
339.4096703495136
 20
199.2006622795962
 30
0.0
 10
339.5447127821512
 20
199.2009126787398
 30
0.0
  0
LINE
  5
83
330
70
100
AcDbEntity
  8
shade
 62
     6
420
 16711935
370
    25
100
AcDbLine
 10
335.9669218144181
 20
198.4724152058849
 30
0.0
 11
332.2335510105609
 21
198.6501685048616
 31
0.0
  0
SPLINE
  5
84
330
70
100
AcDbEntity
  8
shade
 62
     6
420
 16711935
370
    25
100
AcDbSpline
210
0.0
220
0.0
230
1.0
 70
     8
 71
     3
 72
   140
 73
   136
 74
     0
 42
0.0000000001
 43
0.0000000001
 40
0.0
 40
0.0
 40
0.0
 40
0.0
 40
1.0
 40
1.0
 40
1.0
 40
2.0
 40
2.0
 40
2.0
 40
3.0
 40
3.0
 40
3.0
 40
4.0
 40
4.0
 40
4.0
 40
5.0
 40
5.0
 40
5.0
 40
6.0
 40
6.0
 40
6.0
 40
7.0
 40
7.0
 40
7.0
 40
8.0
 40
8.0
 40
8.0
 40
9.0
 40
9.0
 40
9.0
 40
10.0
 40
10.0
 40
10.0
 40
11.0
 40
11.0
 40
11.0
 40
12.0
 40
12.0
 40
12.0
 40
13.0
 40
13.0
 40
13.0
 40
14.0
 40
14.0
 40
14.0
 40
15.0
 40
15.0
 40
15.0
 40
16.0
 40
16.0
 40
16.0
 40
17.0
 40
17.0
 40
17.0
 40
18.0
 40
18.0
 40
18.0
 40
19.0
 40
19.0
 40
19.0
 40
20.0
 40
20.0
 40
20.0
 40
21.0
 40
21.0
 40
21.0
 40
22.0
 40
22.0
 40
22.0
 40
23.0
 40
23.0
 40
23.0
 40
24.0
 40
24.0
 40
24.0
 40
25.0
 40
25.0
 40
25.0
 40
26.0
 40
26.0
 40
26.0
 40
27.0
 40
27.0
 40
27.0
 40
28.0
 40
28.0
 40
28.0
 40
29.0
 40
29.0
 40
29.0
 40
30.0
 40
30.0
 40
30.0
 40
31.0
 40
31.0
 40
31.0
 40
32.0
 40
32.0
 40
32.0
 40
33.0
 40
33.0
 40
33.0
 40
34.0
 40
34.0
 40
34.0
 40
35.0
 40
35.0
 40
35.0
 40
36.0
 40
36.0
 40
36.0
 40
37.0
 40
37.0
 40
37.0
 40
38.0
 40
38.0
 40
38.0
 40
39.0
 40
39.0
 40
39.0
 40
40.0
 40
40.0
 40
40.0
 40
41.0
 40
41.0
 40
41.0
 40
42.0
 40
42.0
 40
42.0
 40
43.0
 40
43.0
 40
43.0
 40
44.0
 40
44.0
 40
44.0
 40
45.0
 40
45.0
 40
45.0
 40
45.0
 10
321.7020292872776
 20
187.2228733758163
 30
0.0
 10
321.6862632074165
 20
187.4921554395861
 30
0.0
 10
321.7039079897546
 20
187.7637808960709
 30
0.0
 10
321.7426192724804
 20
188.031084391194
 30
0.0
 10
321.8198940125771
 20
188.5646706393938
 30
0.0
 10
321.9811132779316
 20
189.0810349955835
 30
0.0
 10
322.1540172471732
 20
189.5931884141262
 30
0.0
 10
322.3445709444466
 20
190.1576215379166
 30
0.0
 10
322.5493166071318
 20
190.716940156279
 30
0.0
 10
322.7917191362528
 20
191.2553174401033
 30
0.0
 10
322.9678132157936
 20
191.646423310923
 30
0.0
 10
323.1637801105367
 20
192.026477723913
 30
0.0
 10
323.3813894000183
 20
192.4063414204608
 30
0.0
 10
323.5418555144463
 20
192.6864546984483
 30
0.0
 10
323.7140900208516
 20
192.9664642713752
 30
0.0
 10
323.9027337599968
 20
193.2048930777546
 30
0.0
 10
324.0122859181519
 20
193.3433572029023
 30
0.0
 10
324.1273721553483
 20
193.4677980490637
 30
0.0
 10
324.2661354590386
 20
193.6228243357693
 30
0.0
 10
324.3605961823487
 20
193.7283558039952
 30
0.0
 10
324.4660287885955
 20
193.8480604753619
 30
0.0
 10
324.567827354757
 20
193.848918437291
 30
0.0
 10
324.6976980940819
 20
193.8500129924919
 30
0.0
 10
324.8216541838567
 20
193.6576763746646
 30
0.0
 10
324.8832324210814
 20
193.4857977706214
 30
0.0
 10
324.9512343955981
 20
193.2959890820521
 30
0.0
 10
324.9431653989095
 20
193.1311293283041
 30
0.0
 10
324.9449418673361
 20
192.9582451563496
 30
0.0
 10
324.9465802343585
 20
192.7988008781628
 30
0.0
 10
324.9565928075136
 20
192.632531312256
 30
0.0
 10
324.9519389586309
 20
192.4684367979431
 30
0.0
 10
324.9463817867247
 20
192.2724911521069
 30
0.0
 10
324.9199120506262
 20
192.0796468697773
 30
0.0
 10
324.8970859191433
 20
191.8860734187587
 30
0.0
 10
324.8601763382282
 20
191.5730674694673
 30
0.0
 10
324.8327935089346
 20
191.2581549991024
 30
0.0
 10
324.7805230763307
 20
190.9474407619111
 30
0.0
 10
324.7398231290329
 20
190.7055056477673
 30
0.0
 10
324.6840342469789
 20
190.4661158516954
 30
0.0
 10
324.6228207217026
 20
190.2280508175801
 30
0.0
 10
324.4399510543214
 20
189.5168538491462
 30
0.0
 10
324.2086686375023
 20
188.8174798460357
 30
0.0
 10
323.923534359932
 20
188.1419953512493
 30
0.0
 10
323.7116922691019
 20
187.640140404456
 30
0.0
 10
323.4701248702443
 20
187.1514720585269
 30
0.0
 10
323.2375148346081
 20
186.6583101739509
 30
0.0
 10
323.0759326800562
 20
186.3157361330902
 30
0.0
 10
322.9186727774561
 20
185.9709937971957
 30
0.0
 10
322.7849769910295
 20
185.6169075498518
 30
0.0
 10
322.6941524081483
 20
185.376363426671
 30
0.0
 10
322.6142026568248
 20
185.1315070915513
 30
0.0
 10
322.5449948986354
 20
184.8838150010757
 30
0.0
 10
322.4624981716599
 20
184.5885621667603
 30
0.0
 10
322.3952647553611
 20
184.2892800043254
 30
0.0
 10
322.3321384967666
 20
183.9893032829902
 30
0.0
 10
322.287119219041
 20
183.7753711471443
 30
0.0
 10
322.244188844562
 20
183.5610857581615
 30
0.0
 10
322.2087188901178
 20
183.3452779234544
 30
0.0
 10
322.1669741903046
 20
183.0912930109182
 30
0.0
 10
322.1355629252794
 20
182.8351993573806
 30
0.0
 10
322.1264395094175
 20
182.5779286032165
 30
0.0
 10
322.1164910871082
 20
182.2973935329132
 30
0.0
 10
322.133043627015
 20
182.0154588524906
 30
0.0
 10
322.1676290106568
 20
181.7374021647588
 30
0.0
 10
322.2234977227711
 20
181.2882335448845
 30
0.0
 10
322.326422579792
 20
180.8491844263308
 30
0.0
 10
322.4830340769802
 20
180.4150948477928
 30
0.0
 10
322.5922250512346
 20
180.1124436066946
 30
0.0
 10
322.727513136015
 20
179.8122032012072
 30
0.0
 10
322.9424283273271
 20
179.5860835472034
 30
0.0
 10
323.1131905956706
 20
179.4064186998791
 30
0.0
 10
323.3342230550464
 20
179.2735477710946
 30
0.0
 10
323.5595252893702
 20
179.1544495111775
 30
0.0
 10
323.8189174249634
 20
179.0173308000471
 30
0.0
 10
324.0839691847835
 20
178.898467882568
 30
0.0
 10
324.3617513043163
 20
178.8255856159711
 30
0.0
 10
324.6475829667945
 20
178.75059137422
 30
0.0
 10
324.9468934771322
 20
178.7242812397275
 30
0.0
 10
325.2462566999603
 20
178.7091128707078
 30
0.0
 10
325.5247370041737
 20
178.6950026136789
 30
0.0
 10
325.8032629231705
 20
178.6905338896218
 30
0.0
 10
326.075909413185
 20
178.7296668641585
 30
0.0
 10
326.5574690868808
 20
178.7987851662044
 30
0.0
 10
327.02068723103
 20
179.0039237936081
 30
0.0
 10
327.4437718473349
 20
179.2565179200784
 30
0.0
 10
327.7501326757951
 20
179.4394244661154
 30
0.0
 10
328.0354499381305
 20
179.6472137719355
 30
0.0
 10
328.3077073085388
 20
179.8731378971579
 30
0.0
 10
328.6508153966697
 20
180.1578552385153
 30
0.0
 10
328.9731818872378
 20
180.4713741295335
 30
0.0
 10
329.2539225075075
 20
180.8186217694431
 30
0.0
 10
329.4975981235785
 20
181.1200237628672
 30
0.0
 10
329.7099136740883
 20
181.4468362947113
 30
0.0
 10
329.8919454001137
 20
181.7886322397191
 30
0.0
 10
330.1244190088188
 20
182.2251415148422
 30
0.0
 10
330.3074997931305
 20
182.686088690654
 30
0.0
 10
330.4747592571086
 20
183.1520475435858
 30
0.0
 10
330.8410168998289
 20
184.1723843724891
 30
0.0
 10
331.1314107212981
 20
185.216752380154
 30
0.0
 10
331.5037405195393
 20
186.2315667390303
 30
0.0
 10
331.7725667023882
 20
186.9642737952092
 30
0.0
 10
332.0841060918189
 20
187.6815745408068
 30
0.0
 10
332.3202695803085
 20
188.4290535196807
 30
0.0
 10
332.5850875820606
 20
189.2672266462866
 30
0.0
 10
332.7551287898267
 20
190.1433455375516
 30
0.0
 10
333.0894992434173
 20
190.745101961527
 30
0.0
 10
333.1116946181576
 20
190.7850463082512
 30
0.0
 10
333.1346140687053
 20
190.8237817452399
 30
0.0
 10
333.1632202067318
 20
190.8679692735689
 30
0.0
 10
333.2687578000488
 20
191.0309918175494
 30
0.0
 10
333.4516979444146
 20
191.2682237813171
 30
0.0
 10
333.6133541290815
 20
191.4830806997328
 30
0.0
 10
333.8999110807628
 20
191.8639429829524
 30
0.0
 10
334.1195890470322
 20
192.1744978443944
 30
0.0
 10
334.3630803103141
 20
192.4662963680593
 30
0.0
 10
334.5487007743317
 20
192.6887428601111
 30
0.0
 10
334.7481602307533
 20
192.9002891892885
 30
0.0
 10
334.9562841123212
 20
193.1026158675937
 30
0.0
 10
335.2165217594997
 20
193.3556047044682
 30
0.0
 10
335.490306189479
 20
193.5941786660625
 30
0.0
 10
335.7794196327365
 20
193.8137348173394
 30
0.0
 10
336.0632090844804
 20
194.0292478668049
 30
0.0
 10
336.3617681835869
 20
194.2264370785335
 30
0.0
 10
336.6797238292317
 20
194.3877707926196
 30
0.0
 10
336.9593668269137
 20
194.5296643052904
 30
0.0
 10
337.2540135542172
 20
194.643822664645
 30
0.0
 10
337.5568532851472
 20
194.7232012531667
 30
0.0
 10
337.9123419571494
 20
194.8163798758403
 30
0.0
 10
338.27911998015
 20
194.8616345552989
 30
0.0
 10
338.6457925786078
 20
194.8945552315984
 30
0.0
 10
338.8914858804085
 20
194.9166141192593
 30
0.0
 10
339.1371318484011
 20
194.9331352514303
 30
0.0
 10
339.383184451142
 20
194.9373936828147
 30
0.0
 10
339.4370104880697
 20
194.9383252498144
 30
0.0
 10
339.4908559845734
 20
194.9386699831568
 30
0.0
 10
339.5447127821512
 20
194.9387011348075
 30
0.0
  0
SPLINE
  5
85
330
70
100
AcDbEntity
  8
shade
 62
     6
420
 16711935
370
    25
100
AcDbSpline
210
0.0
220
0.0
230
1.0
 70
     8
 71
     3
 72
    41
 73
    37
 74
     0
 42
0.0000000001
 43
0.0000000001
 40
0.0
 40
0.0
 40
0.0
 40
0.0
 40
1.0
 40
1.0
 40
1.0
 40
2.0
 40
2.0
 40
2.0
 40
3.0
 40
3.0
 40
3.0
 40
4.0
 40
4.0
 40
4.0
 40
5.0
 40
5.0
 40
5.0
 40
6.0
 40
6.0
 40
6.0
 40
7.0
 40
7.0
 40
7.0
 40
8.0
 40
8.0
 40
8.0
 40
9.0
 40
9.0
 40
9.0
 40
10.0
 40
10.0
 40
10.0
 40
11.0
 40
11.0
 40
11.0
 40
12.0
 40
12.0
 40
12.0
 40
12.0
 10
333.1239625344663
 20
190.8049558716562
 30
0.0
 10
333.1693740864228
 20
191.0173212202002
 30
0.0
 10
333.2226531577838
 20
191.2282492363589
 30
0.0
 10
333.279231368635
 20
191.4386739329127
 30
0.0
 10
333.3608040719768
 20
191.7420577106875
 30
0.0
 10
333.4492346882804
 20
192.0443952392638
 30
0.0
 10
333.5748224120434
 20
192.3305531582936
 30
0.0
 10
333.6839052746018
 20
192.5791039243734
 30
0.0
 10
333.8210205559528
 20
192.8154483153673
 30
0.0
 10
333.9570719098181
 20
193.0516029251174
 30
0.0
 10
334.1013201135006
 20
193.3019854261359
 30
0.0
 10
334.2443723283621
 20
193.5521545890747
 30
0.0
 10
334.4033564333384
 20
193.7929051992819
 30
0.0
 10
334.6337011786097
 20
194.1417176669822
 30
0.0
 10
334.8974897924869
 20
194.4707589187292
 30
0.0
 10
335.1919806826849
 20
194.767442994653
 30
0.0
 10
335.3996679166768
 20
194.9766769545103
 30
0.0
 10
335.6226254113524
 20
195.1698175633521
 30
0.0
 10
335.8531590342288
 20
195.3544090270684
 30
0.0
 10
336.0765743523261
 20
195.5333007655912
 30
0.0
 10
336.307105157878
 20
195.7041631607237
 30
0.0
 10
336.5544631834554
 20
195.8466799559584
 30
0.0
 10
336.7349212091074
 20
195.950651918987
 30
0.0
 10
336.9243352075431
 20
196.0395374672172
 30
0.0
 10
337.1175383587389
 20
196.1181358276747
 30
0.0
 10
337.2984142720607
 20
196.1917192560266
 30
0.0
 10
337.4826112335711
 20
196.2562863558013
 30
0.0
 10
337.6702164476649
 20
196.3105348209761
 30
0.0
 10
337.8796229008789
 20
196.3710873953781
 30
0.0
 10
338.0932757656747
 20
196.4187837719483
 30
0.0
 10
338.3092137769986
 20
196.4460831148518
 30
0.0
 10
338.5126048430149
 20
196.4717962462299
 30
0.0
 10
338.7180232164204
 20
196.4794137953041
 30
0.0
 10
338.9232224637475
 20
196.4853207423285
 30
0.0
 10
339.1305175924523
 20
196.4912880222258
 30
0.0
 10
339.3375890959618
 20
196.495509577834
 30
0.0
 10
339.5447127821512
 20
196.4967912921665
 30
0.0
  0
SPLINE
  5
86
330
70
100
AcDbEntity
  8
shade
 62
     6
420
 16711935
370
    25
100
AcDbSpline
210
0.0
220
0.0
230
1.0
 70
     8
 71
     3
 72
    38
 73
    34
 74
     0
 42
0.0000000001
 43
0.0000000001
 40
0.0
 40
0.0
 40
0.0
 40
0.0
 40
1.0
 40
1.0
 40
1.0
 40
2.0
 40
2.0
 40
2.0
 40
3.0
 40
3.0
 40
3.0
 40
4.0
 40
4.0
 40
4.0
 40
5.0
 40
5.0
 40
5.0
 40
6.0
 40
6.0
 40
6.0
 40
7.0
 40
7.0
 40
7.0
 40
8.0
 40
8.0
 40
8.0
 40
9.0
 40
9.0
 40
9.0
 40
10.0
 40
10.0
 40
10.0
 40
11.0
 40
11.0
 40
11.0
 40
11.0
 10
328.246504826518
 20
179.8228410195261
 30
0.0
 10
328.2393186652129
 20
179.8196412013347
 30
0.0
 10
328.2321785571257
 20
179.8166853364392
 30
0.0
 10
328.2250804917575
 20
179.8139852579915
 30
0.0
 10
328.0963412275439
 20
179.7650133065303
 30
0.0
 10
327.9814323030501
 20
179.8001846638918
 30
0.0
 10
327.8482425679102
 20
179.8644781703015
 30
0.0
 10
327.7214405523179
 20
179.925688189179
 30
0.0
 10
327.5780691568983
 20
180.0132939712584
 30
0.0
 10
327.4563856076469
 20
180.1223973096445
 30
0.0
 10
327.2140815903493
 20
180.3396508114879
 30
0.0
 10
327.0577727146649
 20
180.6421449307975
 30
0.0
 10
326.9200679864719
 20
180.9451983782174
 30
0.0
 10
326.7379441838169
 20
181.3460070285516
 30
0.0
 10
326.588362474649
 20
181.7477940471582
 30
0.0
 10
326.4541754678843
 20
182.1577472208906
 30
0.0
 10
326.3337860160326
 20
182.5255476440501
 30
0.0
 10
326.2257881600496
 20
182.8999212176005
 30
0.0
 10
326.1220914297587
 20
183.2748400417268
 30
0.0
 10
325.9398676448391
 20
183.9336759276638
 30
0.0
 10
325.7709258189047
 20
184.5941955578807
 30
0.0
 10
325.5902789270211
 20
185.2525280007679
 30
0.0
 10
325.416455196624
 20
185.8859947594315
 30
0.0
 10
325.2317939188381
 20
186.5174364337047
 30
0.0
 10
325.0899812828899
 20
187.1670845472817
 30
0.0
 10
325.0260153262318
 20
187.460114592161
 30
0.0
 10
324.9707671314173
 20
187.7568488245029
 30
0.0
 10
324.9113708835045
 20
188.0399512262755
 30
0.0
 10
324.8905709293682
 20
188.1390907709386
 30
0.0
 10
324.8692622877632
 20
188.2365586057113
 30
0.0
 10
324.8485951402761
 20
188.3360846110803
 30
0.0
 10
324.82153195687
 20
188.4664117662259
 30
0.0
 10
324.7955687650489
 20
188.6002681358587
 30
0.0
 10
324.7764423366545
 20
188.7351800972503
 30
0.0
  0
SPLINE
  5
87
330
70
100
AcDbEntity
  8
shade
 62
     6
420
 16711935
370
    25
100
AcDbSpline
210
0.0
220
0.0
230
1.0
 70
     8
 71
     3
 72
     8
 73
     4
 74
     0
 42
0.0000000001
 43
0.0000000001
 40
0.0
 40
0.0
 40
0.0
 40
0.0
 40
1.0
 40
1.0
 40
1.0
 40
1.0
 10
329.9125792421023
 20
194.4035821722313
 30
0.0
 10
328.1302523222956
 20
194.3770263928978
 30
0.0
 10
326.3539544049819
 20
194.1897415576072
 30
0.0
 10
324.6052805134923
 20
193.8440045481518
 30
0.0
  0
SPLINE
  5
88
330
70
100
AcDbEntity
  8
shade
 62
     6
420
 16711935
370
    25
100
AcDbSpline
210
0.0
220
0.0
230
1.0
 70
     8
 71
     3
 72
   134
 73
   130
 74
     0
 42
0.0000000001
 43
0.0000000001
 40
0.0
 40
0.0
 40
0.0
 40
0.0
 40
1.0
 40
1.0
 40
1.0
 40
2.0
 40
2.0
 40
2.0
 40
3.0
 40
3.0
 40
3.0
 40
4.0
 40
4.0
 40
4.0
 40
5.0
 40
5.0
 40
5.0
 40
6.0
 40
6.0
 40
6.0
 40
7.0
 40
7.0
 40
7.0
 40
8.0
 40
8.0
 40
8.0
 40
9.0
 40
9.0
 40
9.0
 40
10.0
 40
10.0
 40
10.0
 40
11.0
 40
11.0
 40
11.0
 40
12.0
 40
12.0
 40
12.0
 40
13.0
 40
13.0
 40
13.0
 40
14.0
 40
14.0
 40
14.0
 40
15.0
 40
15.0
 40
15.0
 40
16.0
 40
16.0
 40
16.0
 40
17.0
 40
17.0
 40
17.0
 40
18.0
 40
18.0
 40
18.0
 40
19.0
 40
19.0
 40
19.0
 40
20.0
 40
20.0
 40
20.0
 40
21.0
 40
21.0
 40
21.0
 40
22.0
 40
22.0
 40
22.0
 40
23.0
 40
23.0
 40
23.0
 40
24.0
 40
24.0
 40
24.0
 40
25.0
 40
25.0
 40
25.0
 40
26.0
 40
26.0
 40
26.0
 40
27.0
 40
27.0
 40
27.0
 40
28.0
 40
28.0
 40
28.0
 40
29.0
 40
29.0
 40
29.0
 40
30.0
 40
30.0
 40
30.0
 40
31.0
 40
31.0
 40
31.0
 40
32.0
 40
32.0
 40
32.0
 40
33.0
 40
33.0
 40
33.0
 40
34.0
 40
34.0
 40
34.0
 40
35.0
 40
35.0
 40
35.0
 40
36.0
 40
36.0
 40
36.0
 40
37.0
 40
37.0
 40
37.0
 40
38.0
 40
38.0
 40
38.0
 40
39.0
 40
39.0
 40
39.0
 40
40.0
 40
40.0
 40
40.0
 40
41.0
 40
41.0
 40
41.0
 40
42.0
 40
42.0
 40
42.0
 40
43.0
 40
43.0
 40
43.0
 40
43.0
 10
320.4924324998773
 20
179.2455623006278
 30
0.0
 10
320.3363383665023
 20
179.6213339406996
 30
0.0
 10
320.2885843960745
 20
179.7523489751134
 30
0.0
 10
320.2425430205392
 20
179.8838428236495
 30
0.0
 10
320.0236068719897
 20
180.5091229422763
 30
0.0
 10
319.8433958648103
 20
181.1452299906408
 30
0.0
 10
319.6727046330567
 20
181.7864652540644
 30
0.0
 10
319.5475672759579
 20
182.2565684065173
 30
0.0
 10
319.4275464807931
 20
182.7294278036066
 30
0.0
 10
319.3452810376516
 20
183.2052436134613
 30
0.0
 10
319.2526202085655
 20
183.7411853862123
 30
0.0
 10
319.2078594336375
 20
184.2808779472334
 30
0.0
 10
319.2060465621252
 20
184.8393868484891
 30
0.0
 10
319.205032623942
 20
185.1517606138891
 30
0.0
 10
319.2174534755296
 20
185.4700204308815
 30
0.0
 10
319.3241840718402
 20
185.7490346619706
 30
0.0
 10
319.3784260056209
 20
185.8908334710256
 30
0.0
 10
319.4570263544333
 20
186.0224958909686
 30
0.0
 10
319.5813061099537
 20
186.1378918631121
 30
0.0
 10
319.6245074321325
 20
186.1780050621596
 30
0.0
 10
319.673228432416
 20
186.2161527024964
 30
0.0
 10
319.7202909954208
 20
186.2212183194305
 30
0.0
 10
319.8050544809316
 20
186.2303419055713
 30
0.0
 10
319.8844381740701
 20
186.1321509616299
 30
0.0
 10
319.9496160564408
 20
186.0406776062187
 30
0.0
 10
320.0724146830415
 20
185.8683368978899
 30
0.0
 10
320.1447875380624
 20
185.7198413322505
 30
0.0
 10
320.2067384516229
 20
185.5546061481832
 30
0.0
 10
320.2624177890359
 20
185.4060984823972
 30
0.0
 10
320.3096784985107
 20
185.2440689003833
 30
0.0
 10
320.3526725813643
 20
185.0824224907234
 30
0.0
 10
320.4925242987828
 20
184.5566169262156
 30
0.0
 10
320.5872317218823
 20
184.0348656291845
 30
0.0
 10
320.6933583713434
 20
183.5113285581394
 30
0.0
 10
320.7717707112652
 20
183.1245099128232
 30
0.0
 10
320.8564169048515
 20
182.736716398148
 30
0.0
 10
320.9504804094576
 20
182.3517010285693
 30
0.0
 10
321.0209404725639
 20
182.063297918873
 30
0.0
 10
321.0966846311723
 20
181.7764536388658
 30
0.0
 10
321.1592426773833
 20
181.4868014254684
 30
0.0
 10
321.2598176585315
 20
181.0211256624538
 30
0.0
 10
321.3263102262771
 20
180.5481921767903
 30
0.0
 10
321.4024665840161
 20
180.077194353377
 30
0.0
 10
321.5600606273245
 20
179.1025357223099
 30
0.0
 10
321.759036982501
 20
178.1361659902124
 30
0.0
 10
321.9427455100893
 20
177.1668458353991
 30
0.0
 10
322.1096832601515
 20
176.2860150549318
 30
0.0
 10
322.2640135465195
 20
175.4027479522664
 30
0.0
 10
322.4227157650223
 20
174.5201674882557
 30
0.0
 10
322.5367490430727
 20
173.8860015364242
 30
0.0
 10
322.6530395242022
 20
173.252190092128
 30
0.0
 10
322.832256275493
 20
172.6313032037678
 30
0.0
 10
322.9433083674459
 20
172.2465691467
 30
0.0
 10
323.078522203344
 20
171.8667977198716
 30
0.0
 10
323.2588963830751
 20
171.5122379660323
 30
0.0
 10
323.5202078785289
 20
170.9985805254735
 30
0.0
 10
323.8763013006062
 20
170.5378370075417
 30
0.0
 10
324.2543904435275
 20
170.0912025396388
 30
0.0
 10
324.5203519401985
 20
169.7770237969477
 30
0.0
 10
324.7971974065358
 20
169.4698265245907
 30
0.0
 10
325.1610011631108
 20
169.2741071434279
 30
0.0
 10
325.4374494670141
 20
169.1253833054089
 30
0.0
 10
325.7641094209523
 20
169.0410292801369
 30
0.0
 10
326.0676118826925
 20
169.0787148113515
 30
0.0
 10
326.3549435400027
 20
169.114392433465
 30
0.0
 10
326.6215196568798
 20
169.2594513705954
 30
0.0
 10
326.8853392614045
 20
169.3984478603952
 30
0.0
 10
327.2547183215497
 20
169.5930596022261
 30
0.0
 10
327.6186936925597
 20
169.7757869130841
 30
0.0
 10
327.9503978921905
 20
170.0123591487979
 30
0.0
 10
328.3049685145763
 20
170.2652397724058
 30
0.0
 10
328.6226653035766
 20
170.5796449302313
 30
0.0
 10
328.8991322011356
 20
170.9215784250273
 30
0.0
 10
329.1608714287403
 20
171.245296778329
 30
0.0
 10
329.3856564783582
 20
171.5936886640733
 30
0.0
 10
329.6072159876546
 20
171.9444761892482
 30
0.0
 10
329.8421843472921
 20
172.3164934844356
 30
0.0
 10
330.0735249309909
 20
172.6912051632664
 30
0.0
 10
330.2804757121295
 20
173.0791248048806
 30
0.0
 10
330.5034119715158
 20
173.4970084841213
 30
0.0
 10
330.6980450293258
 20
173.9302193736645
 30
0.0
 10
330.876373587104
 20
174.3694395336339
 30
0.0
 10
331.0567837110334
 20
174.8137865551086
 30
0.0
 10
331.2205064801134
 20
175.2642839539511
 30
0.0
 10
331.381316059525
 20
175.7157204637041
 30
0.0
 10
331.5533049482614
 20
176.1985403549784
 30
0.0
 10
331.7219615245938
 20
176.6824344677392
 30
0.0
 10
331.8818130437498
 20
177.169813312671
 30
0.0
 10
332.0100557857722
 20
177.5608186644362
 30
0.0
 10
332.1326313839626
 20
177.9540668725541
 30
0.0
 10
332.2486661555517
 20
178.3477410664698
 30
0.0
 10
332.3988570180643
 20
178.857297520312
 30
0.0
 10
332.5380895762957
 20
179.3675676579535
 30
0.0
 10
332.6844014820291
 20
179.8840375659722
 30
0.0
 10
332.78172827392
 20
180.2275937448344
 30
0.0
 10
332.8821876208725
 20
180.5738932728629
 30
0.0
 10
333.060034165213
 20
180.8776606297152
 30
0.0
 10
333.159529784078
 20
181.047602200821
 30
0.0
 10
333.2832460740334
 20
181.2042320386738
 30
0.0
 10
333.4007160274523
 20
181.364588467984
 30
0.0
 10
333.5804983283452
 20
181.6100065258386
 30
0.0
 10
333.745649910727
 20
181.8641533337863
 30
0.0
 10
333.931791900299
 20
182.1029430515295
 30
0.0
 10
334.1882488110913
 20
182.4319353089032
 30
0.0
 10
334.4845495422598
 20
182.7317768624312
 30
0.0
 10
334.798589970241
 20
183.0078533501166
 30
0.0
 10
334.9227495326372
 20
183.1170034239436
 30
0.0
 10
335.049682002763
 20
183.2224387592678
 30
0.0
 10
335.1793969160254
 20
183.3247534364165
 30
0.0
 10
335.3704588625199
 20
183.4754565504943
 30
0.0
 10
335.5675574434156
 20
183.6193892575696
 30
0.0
 10
335.7745120994228
 20
183.7470448743777
 30
0.0
 10
336.0856868528462
 20
183.9389864612425
 30
0.0
 10
336.4191440238982
 20
184.0941291277469
 30
0.0
 10
336.7577458962146
 20
184.2339728862139
 30
0.0
 10
336.9908720864434
 20
184.3302548187847
 30
0.0
 10
337.2264370059053
 20
184.4192846501447
 30
0.0
 10
337.4669444469239
 20
184.4941538369742
 30
0.0
 10
337.6917089288898
 20
184.5641222916785
 30
0.0
 10
337.9207900615281
 20
184.6217232624922
 30
0.0
 10
338.1526208305494
 20
184.6622086513436
 30
0.0
 10
338.3836056053604
 20
184.7025463013733
 30
0.0
 10
338.6173199852864
 20
184.7258930574934
 30
0.0
 10
338.8512341204156
 20
184.7440814829236
 30
0.0
 10
339.0034917419666
 20
184.7559205553857
 30
0.0
 10
339.155833997202
 20
184.765574110138
 30
0.0
 10
339.3083517094984
 20
184.7699360430471
 30
0.0
 10
339.3871034745841
 20
184.772188305493
 30
0.0
 10
339.4659020186635
 20
184.7730297569665
 30
0.0
 10
339.5447127821512
 20
184.7734281210973
 30
0.0
  0
SPLINE
  5
89
330
70
100
AcDbEntity
  8
shade
 62
     6
420
 16711935
370
    25
100
AcDbSpline
210
0.0
220
0.0
230
1.0
 70
     8
 71
     3
 72
    50
 73
    46
 74
     0
 42
0.0000000001
 43
0.0000000001
 40
0.0
 40
0.0
 40
0.0
 40
0.0
 40
1.0
 40
1.0
 40
1.0
 40
2.0
 40
2.0
 40
2.0
 40
3.0
 40
3.0
 40
3.0
 40
4.0
 40
4.0
 40
4.0
 40
5.0
 40
5.0
 40
5.0
 40
6.0
 40
6.0
 40
6.0
 40
7.0
 40
7.0
 40
7.0
 40
8.0
 40
8.0
 40
8.0
 40
9.0
 40
9.0
 40
9.0
 40
10.0
 40
10.0
 40
10.0
 40
11.0
 40
11.0
 40
11.0
 40
12.0
 40
12.0
 40
12.0
 40
13.0
 40
13.0
 40
13.0
 40
14.0
 40
14.0
 40
14.0
 40
15.0
 40
15.0
 40
15.0
 40
15.0
 10
332.9792926296292
 20
180.7266991767008
 30
0.0
 10
333.0091453829187
 20
180.9320191417006
 30
0.0
 10
333.0456869814928
 20
181.1367024846876
 30
0.0
 10
333.0806665864381
 20
181.341371781147
 30
0.0
 10
333.1345740452419
 20
181.6567899136448
 30
0.0
 10
333.1847717324054
 20
181.9721746853095
 30
0.0
 10
333.2464361631327
 20
182.2854591322812
 30
0.0
 10
333.3254147241766
 20
182.6867075428718
 30
0.0
 10
333.4232032975764
 20
183.0845105870242
 30
0.0
 10
333.5099289964536
 20
183.4845155603086
 30
0.0
 10
333.5735956364042
 20
183.7781652275023
 30
0.0
 10
333.6313002178889
 20
184.0730015691173
 30
0.0
 10
333.6839179058949
 20
184.3688099019788
 30
0.0
 10
333.7196217874554
 20
184.5695314859449
 30
0.0
 10
333.7529834905339
 20
184.7707006076844
 30
0.0
 10
333.7885057818382
 20
184.9713447326529
 30
0.0
 10
333.8752116079328
 20
185.461093956804
 30
0.0
 10
333.9747900443607
 20
185.9477152925492
 30
0.0
 10
334.0670818530904
 20
186.4378299277778
 30
0.0
 10
334.1190002252164
 20
186.7135418719499
 30
0.0
 10
334.168612687094
 20
186.9903592980292
 30
0.0
 10
334.2504698457205
 20
187.2572778529086
 30
0.0
 10
334.3763137821499
 20
187.667627811492
 30
0.0
 10
334.5783672962632
 20
188.0545820222563
 30
0.0
 10
334.8008269970323
 20
188.4250345727174
 30
0.0
 10
335.0258158871865
 20
188.7996988732391
 30
0.0
 10
335.2716776058112
 20
189.1574841590391
 30
0.0
 10
335.550782283384
 20
189.4937842607164
 30
0.0
 10
335.8023695313546
 20
189.7969279335823
 30
0.0
 10
336.0809679055506
 20
190.0826141045087
 30
0.0
 10
336.4000990512478
 20
190.3084983158635
 30
0.0
 10
336.6706274699605
 20
190.4999810317749
 30
0.0
 10
336.9702827511781
 20
190.6484900404984
 30
0.0
 10
337.2697993644063
 20
190.7973267142387
 30
0.0
 10
337.5119020776335
 20
190.9176331044307
 30
0.0
 10
337.7539141897125
 20
191.0381535802711
 30
0.0
 10
338.0104037716581
 20
191.1164231190391
 30
0.0
 10
338.1824708429106
 20
191.1689305550211
 30
0.0
 10
338.3610534290822
 20
191.2024231622107
 30
0.0
 10
338.5403773776748
 20
191.2250516712966
 30
0.0
 10
338.7390305046691
 20
191.2501192884464
 30
0.0
 10
338.9385934292763
 20
191.261854518836
 30
0.0
 10
339.1382962537032
 20
191.2657873566968
 30
0.0
 10
339.2737273946323
 20
191.2684544632843
 30
0.0
 10
339.4092228762657
 20
191.2675332061666
 30
0.0
 10
339.5447127821512
 20
191.2666260460904
 30
0.0
  0
SPLINE
  5
8A
330
70
100
AcDbEntity
  8
shade
 62
     6
420
 16711935
370
    25
100
AcDbSpline
210
0.0
220
0.0
230
1.0
 70
     8
 71
     3
 72
     8
 73
     4
 74
     0
 42
0.0000000001
 43
0.0000000001
 40
0.0
 40
0.0
 40
0.0
 40
0.0
 40
1.0
 40
1.0
 40
1.0
 40
1.0
 10
323.8802908767568
 20
188.040658049872
 30
0.0
 10
322.3801789335918
 20
187.5716709813995
 30
0.0
 10
320.9382591880992
 20
186.9336298403313
 30
0.0
 10
319.5823176166077
 20
186.1388297603605
 30
0.0
  0
LINE
  5
8B
330
70
100
AcDbEntity
  8
shade
 62
     6
420
 16711935
370
    25
100
AcDbLine
 10
321.3568214386516
 20
180.3647972341791
 30
0.0
 11
319.0705166193366
 21
177.4044259155099
 31
0.0
  0
SPLINE
  5
8C
330
70
100
AcDbEntity
  8
shade
 62
     6
420
 16711935
370
    25
100
AcDbSpline
210
0.0
220
0.0
230
1.0
 70
     8
 71
     3
 72
    71
 73
    67
 74
     0
 42
0.0000000001
 43
0.0000000001
 40
0.0
 40
0.0
 40
0.0
 40
0.0
 40
1.0
 40
1.0
 40
1.0
 40
2.0
 40
2.0
 40
2.0
 40
3.0
 40
3.0
 40
3.0
 40
4.0
 40
4.0
 40
4.0
 40
5.0
 40
5.0
 40
5.0
 40
6.0
 40
6.0
 40
6.0
 40
7.0
 40
7.0
 40
7.0
 40
8.0
 40
8.0
 40
8.0
 40
9.0
 40
9.0
 40
9.0
 40
10.0
 40
10.0
 40
10.0
 40
11.0
 40
11.0
 40
11.0
 40
12.0
 40
12.0
 40
12.0
 40
13.0
 40
13.0
 40
13.0
 40
14.0
 40
14.0
 40
14.0
 40
15.0
 40
15.0
 40
15.0
 40
16.0
 40
16.0
 40
16.0
 40
17.0
 40
17.0
 40
17.0
 40
18.0
 40
18.0
 40
18.0
 40
19.0
 40
19.0
 40
19.0
 40
20.0
 40
20.0
 40
20.0
 40
21.0
 40
21.0
 40
21.0
 40
22.0
 40
22.0
 40
22.0
 40
22.0
 10
319.0705166193372
 20
177.4044259155106
 30
0.0
 10
320.9098785240144
 20
174.4405993210884
 30
0.0
 10
322.5310043649771
 20
171.3456810870611
 30
0.0
 10
324.3628192926835
 20
168.3767343447224
 30
0.0
 10
324.7169438341183
 20
167.8027806729994
 30
0.0
 10
325.0789422938363
 20
167.2335348352076
 30
0.0
 10
325.4439455960117
 20
166.6668481485489
 30
0.0
 10
325.7584444932078
 20
166.1785721878995
 30
0.0
 10
326.0751742198783
 20
165.6921961703782
 30
0.0
 10
326.3806617329404
 20
165.196843011968
 30
0.0
 10
326.5052212887292
 20
164.9948675899561
 30
0.0
 10
326.6279118027426
 20
164.7913996992964
 30
0.0
 10
326.7676434439712
 20
164.6007074279185
 30
0.0
 10
327.0567038069586
 20
164.2062257149809
 30
0.0
 10
327.4186907564204
 20
163.8664165769567
 30
0.0
 10
327.7995944353412
 20
163.5534422267695
 30
0.0
 10
328.104199023541
 20
163.3031599944578
 30
0.0
 10
328.4209009158877
 20
163.0700386879236
 30
0.0
 10
328.7687244298736
 20
162.8877152479007
 30
0.0
 10
329.1261931275299
 20
162.7003359591619
 30
0.0
 10
329.5165333899433
 20
162.5666108590737
 30
0.0
 10
329.9135447596504
 20
162.5010328429346
 30
0.0
 10
330.2686468939932
 20
162.442377360312
 30
0.0
 10
330.6290860455324
 20
162.4382408867395
 30
0.0
 10
330.9938687327005
 20
162.4688092368682
 30
0.0
 10
331.3766573274185
 20
162.5008864603773
 30
0.0
 10
331.764228840085
 20
162.5711791696938
 30
0.0
 10
332.0903164378649
 20
162.7588211707682
 30
0.0
 10
332.3460010200978
 20
162.9059508591727
 30
0.0
 10
332.5638847117708
 20
163.1252279985522
 30
0.0
 10
332.7352857182049
 20
163.3710684710672
 30
0.0
 10
332.8811288923071
 20
163.5802513433286
 30
0.0
 10
332.9933180665481
 20
163.8086663749431
 30
0.0
 10
333.0738948046228
 20
164.0477629834995
 30
0.0
 10
333.1425678586981
 20
164.2515376053169
 30
0.0
 10
333.1882788275168
 20
164.4630709230837
 30
0.0
 10
333.2190126784585
 20
164.6761221736153
 30
0.0
 10
333.2827616334048
 20
165.1180386323442
 30
0.0
 10
333.2820728296886
 20
165.5664858659522
 30
0.0
 10
333.2512612138902
 20
166.0133993086643
 30
0.0
 10
333.2024736124232
 20
166.7210491468242
 30
0.0
 10
333.0781619211718
 20
167.424853455521
 30
0.0
 10
333.0738948046238
 20
168.1240414272116
 30
0.0
 10
333.0709243169746
 20
168.6107703953614
 30
0.0
 10
333.126127843104
 20
169.0952622707207
 30
0.0
 10
333.1549994338232
 20
169.5962789842568
 30
0.0
 10
333.1757626334198
 20
169.9565885399516
 30
0.0
 10
333.1829073129937
 20
170.3254445179305
 30
0.0
 10
333.315246250206
 20
170.6444755466408
 30
0.0
 10
333.4355172622431
 20
170.9344142865342
 30
0.0
 10
333.659190778079
 20
171.1832007834803
 30
0.0
 10
333.8792523000055
 20
171.4258692250085
 30
0.0
 10
334.156088057686
 20
171.7311443193882
 30
0.0
 10
334.4272076714351
 20
172.0267373140131
 30
0.0
 10
334.7368105387923
 20
172.2827649533408
 30
0.0
 10
335.1071484644894
 20
172.5890177528669
 30
0.0
 10
335.5325491802813
 20
172.8386594644641
 30
0.0
 10
335.9787921012266
 20
173.0313176473493
 30
0.0
 10
336.4192155429602
 20
173.221463363957
 30
0.0
 10
336.8799411257068
 20
173.3561021115647
 30
0.0
 10
337.3489140574076
 20
173.4449914771592
 30
0.0
 10
337.7295040814658
 20
173.5171287019407
 30
0.0
 10
338.115525778542
 20
173.5591355557076
 30
0.0
 10
338.5021826000853
 20
173.5828827537627
 30
0.0
 10
338.849363154525
 20
173.6042054485346
 30
0.0
 10
339.1970557659258
 20
173.6108066449018
 30
0.0
 10
339.5447127821512
 20
173.6121497586365
 30
0.0
  0
SPLINE
  5
8D
330
70
100
AcDbEntity
  8
shade
 62
     6
420
 16711935
370
    25
100
AcDbSpline
210
0.0
220
0.0
230
1.0
 70
     8
 71
     3
 72
    32
 73
    28
 74
     0
 42
0.0000000001
 43
0.0000000001
 40
0.0
 40
0.0
 40
0.0
 40
0.0
 40
1.0
 40
1.0
 40
1.0
 40
2.0
 40
2.0
 40
2.0
 40
3.0
 40
3.0
 40
3.0
 40
4.0
 40
4.0
 40
4.0
 40
5.0
 40
5.0
 40
5.0
 40
6.0
 40
6.0
 40
6.0
 40
7.0
 40
7.0
 40
7.0
 40
8.0
 40
8.0
 40
8.0
 40
9.0
 40
9.0
 40
9.0
 40
9.0
 10
333.274627441185
 20
170.5334037284138
 30
0.0
 10
333.2729232905897
 20
170.673041918813
 30
0.0
 10
333.2717687848928
 20
170.81266824321
 30
0.0
 10
333.2728284373687
 20
170.9522626641924
 30
0.0
 10
333.2793420330633
 20
171.8103379672012
 30
0.0
 10
333.3695166812315
 20
172.667207812853
 30
0.0
 10
333.4687455653562
 20
173.519806548412
 30
0.0
 10
333.6540016462631
 20
175.1115719071561
 30
0.0
 10
333.8708165312818
 20
176.6884501868128
 30
0.0
 10
334.1041165189408
 20
178.2850642390921
 30
0.0
 10
334.2100247406737
 20
179.0098587698053
 30
0.0
 10
334.3193301660089
 20
179.7387203930512
 30
0.0
 10
334.5862509589275
 20
180.4135082706305
 30
0.0
 10
334.8581175680361
 20
181.1007993959825
 30
0.0
 10
335.2934946172318
 20
181.7319943291515
 30
0.0
 10
335.8199010694719
 20
182.2625536513137
 30
0.0
 10
336.1813495084546
 20
182.6268535909658
 30
0.0
 10
336.585715208105
 20
182.9437072703361
 30
0.0
 10
337.0342756146311
 20
183.1870763416553
 30
0.0
 10
337.3088131970143
 20
183.3360283122149
 30
0.0
 10
337.5999058864787
 20
183.4574533312199
 30
0.0
 10
337.9016860550383
 20
183.5337723505338
 30
0.0
 10
338.2329965407594
 20
183.6175594710709
 30
0.0
 10
338.5771884615004
 20
183.6469811047756
 30
0.0
 10
338.9196560753109
 20
183.6581332012885
 30
0.0
 10
339.1283831830781
 20
183.6649301793292
 30
0.0
 10
339.3364697699993
 20
183.664940651314
 30
0.0
 10
339.5447127821512
 20
183.6646446622271
 30
0.0
  0
SPLINE
  5
8E
330
70
100
AcDbEntity
  8
shade
 62
     6
420
 16711935
370
    25
100
AcDbSpline
210
0.0
220
0.0
230
1.0
 70
     8
 71
     3
 72
    32
 73
    28
 74
     0
 42
0.0000000001
 43
0.0000000001
 40
0.0
 40
0.0
 40
0.0
 40
0.0
 40
1.0
 40
1.0
 40
1.0
 40
2.0
 40
2.0
 40
2.0
 40
3.0
 40
3.0
 40
3.0
 40
4.0
 40
4.0
 40
4.0
 40
5.0
 40
5.0
 40
5.0
 40
6.0
 40
6.0
 40
6.0
 40
7.0
 40
7.0
 40
7.0
 40
8.0
 40
8.0
 40
8.0
 40
9.0
 40
9.0
 40
9.0
 40
9.0
 10
322.6851541733276
 20
179.9492729441036
 30
0.0
 10
322.9305174052135
 20
179.4343209033713
 30
0.0
 10
323.2840037928675
 20
178.9881182332133
 30
0.0
 10
323.6357688040091
 20
178.5420847059292
 30
0.0
 10
324.2873950575606
 20
177.7158309651181
 30
0.0
 10
324.9331143006424
 20
176.8901576485928
 30
0.0
 10
325.6100936640704
 20
176.089073259994
 30
0.0
 10
326.036353640377
 20
175.5846705692319
 30
0.0
 10
326.475006971921
 20
175.0900163796048
 30
0.0
 10
326.9193138602846
 20
174.6001401068643
 30
0.0
 10
327.2998853247859
 20
174.1805361452236
 30
0.0
 10
327.6846046877003
 20
173.7644376429774
 30
0.0
 10
328.0990035996531
 20
173.3784973878271
 30
0.0
 10
328.356700848711
 20
173.1384973801425
 30
0.0
 10
328.6258753955539
 20
172.9101597862693
 30
0.0
 10
328.9140619001157
 20
172.7069512236919
 30
0.0
 10
329.0702399769133
 20
172.5968255863363
 30
0.0
 10
329.2320017231816
 20
172.494080157108
 30
0.0
 10
329.4216859481448
 20
172.44261924138
 30
0.0
 10
329.5172047726318
 20
172.4167051930277
 30
0.0
 10
329.6198041876126
 20
172.4037958869378
 30
0.0
 10
329.7096461057565
 20
172.4307836985841
 30
0.0
 10
329.7902048220882
 20
172.4549829087938
 30
0.0
 10
329.8605062512933
 20
172.5112602137409
 30
0.0
 10
329.9287758234537
 20
172.5677691283203
 30
0.0
 10
329.9728981085937
 20
172.6042905589244
 30
0.0
 10
330.0161716926035
 20
172.640908732238
 30
0.0
 10
330.0568977172406
 20
172.6792898785927
 30
0.0
  0
SPLINE
  5
8F
330
70
100
AcDbEntity
  8
shade
 62
     6
420
 16711935
370
    25
100
AcDbSpline
210
0.0
220
0.0
230
1.0
 70
     8
 71
     3
 72
    20
 73
    16
 74
     0
 42
0.0000000001
 43
0.0000000001
 40
0.0
 40
0.0
 40
0.0
 40
0.0
 40
1.0
 40
1.0
 40
1.0
 40
2.0
 40
2.0
 40
2.0
 40
3.0
 40
3.0
 40
3.0
 40
4.0
 40
4.0
 40
4.0
 40
5.0
 40
5.0
 40
5.0
 40
5.0
 10
333.0737801662388
 20
168.1593515512832
 30
0.0
 10
332.9462201138408
 20
168.1176328951596
 30
0.0
 10
332.8179450220367
 20
168.0784344599953
 30
0.0
 10
332.6882617368764
 20
168.0441411860976
 30
0.0
 10
332.2406700109092
 20
167.9257806307347
 30
0.0
 10
331.7763034450739
 20
167.8658518911684
 30
0.0
 10
331.3120746351176
 20
167.8494334027932
 30
0.0
 10
330.67999653114
 20
167.8270785493684
 30
0.0
 10
330.0481738075
 20
167.8853856807533
 30
0.0
 10
329.4243843059151
 20
167.9832949712707
 30
0.0
 10
328.6112413465655
 20
168.1109249651023
 30
0.0
 10
327.8117488527064
 20
168.3058489914955
 30
0.0
 10
327.0238956660833
 20
168.5517783604015
 30
0.0
 10
326.5164461278945
 20
168.7101793757135
 30
0.0
 10
326.0138252011964
 20
168.889740154053
 30
0.0
 10
325.5384724681929
 20
169.1228600135417
 30
0.0
  0
LINE
  5
90
330
70
100
AcDbEntity
  8
shade
 62
     6
420
 16711935
370
    25
100
AcDbLine
 10
322.1142605801052
 20
172.2005745640633
 30
0.0
 11
320.8835642603576
 21
169.5786650779469
 31
0.0
  0
LINE
  5
91
330
70
100
AcDbEntity
  8
shade
 62
     6
420
 16711935
370
    25
100
AcDbLine
 10
320.8835642603576
 20
169.5786650779469
 30
0.0
 11
325.5140732418114
 21
166.5580470903035
 31
0.0
  0
SPLINE
  5
92
330
70
100
AcDbEntity
  8
shade
 62
     6
420
 16711935
370
    25
100
AcDbSpline
210
0.0
220
0.0
230
1.0
 70
     8
 71
     3
 72
    32
 73
    28
 74
     0
 42
0.0000000001
 43
0.0000000001
 40
0.0
 40
0.0
 40
0.0
 40
0.0
 40
1.0
 40
1.0
 40
1.0
 40
2.0
 40
2.0
 40
2.0
 40
3.0
 40
3.0
 40
3.0
 40
4.0
 40
4.0
 40
4.0
 40
5.0
 40
5.0
 40
5.0
 40
6.0
 40
6.0
 40
6.0
 40
7.0
 40
7.0
 40
7.0
 40
8.0
 40
8.0
 40
8.0
 40
9.0
 40
9.0
 40
9.0
 40
9.0
 10
331.8115783893076
 20
162.6300353415759
 30
0.0
 10
332.0002546982069
 20
162.4807150690481
 30
0.0
 10
332.1910122430747
 20
162.3339781597128
 30
0.0
 10
332.3845199176515
 20
162.190011128294
 30
0.0
 10
332.7103645041185
 20
161.9475872661899
 30
0.0
 10
333.0440069932508
 20
161.7130173021461
 30
0.0
 10
333.3994273714757
 20
161.5198581875343
 30
0.0
 10
333.9217163547876
 20
161.2360115547336
 30
0.0
 10
334.4910329432344
 20
161.04158833056
 30
0.0
 10
335.0755353150228
 20
160.899575249681
 30
0.0
 10
335.4849834932326
 20
160.8000940498534
 30
0.0
 10
335.9018834944316
 20
160.7263310564476
 30
0.0
 10
336.3174468922612
 20
160.7413714115096
 30
0.0
 10
336.6591664062661
 20
160.7537391581612
 30
0.0
 10
336.9999821302652
 20
160.8261543210101
 30
0.0
 10
337.3249984021332
 20
160.9527303577122
 30
0.0
 10
337.5844508010824
 20
161.0537728568557
 30
0.0
 10
337.833835107463
 20
161.1893290016015
 30
0.0
 10
338.0263371868903
 20
161.3810935211175
 30
0.0
 10
338.1702328189671
 20
161.5244378259053
 30
0.0
 10
338.2823450064538
 20
161.6991890544485
 30
0.0
 10
338.3949477840643
 20
161.8725157067273
 30
0.0
 10
338.7672663207997
 20
162.445616361286
 30
0.0
 10
339.1449483776278
 20
163.0031424189323
 30
0.0
 10
339.4674541251048
 20
163.5974600666545
 30
0.0
 10
339.4935019103202
 20
163.6454612528628
 30
0.0
 10
339.5191897644686
 20
163.693702441283
 30
0.0
 10
339.5447127821512
 20
163.7420583814057
 30
0.0
  0
SPLINE
  5
93
330
70
100
AcDbEntity
  8
shade
 62
     6
420
 16711935
370
    25
100
AcDbSpline
210
0.0
220
0.0
230
1.0
 70
     8
 71
     3
 72
    38
 73
    34
 74
     0
 42
0.0000000001
 43
0.0000000001
 40
0.0
 40
0.0
 40
0.0
 40
0.0
 40
1.0
 40
1.0
 40
1.0
 40
2.0
 40
2.0
 40
2.0
 40
3.0
 40
3.0
 40
3.0
 40
4.0
 40
4.0
 40
4.0
 40
5.0
 40
5.0
 40
5.0
 40
6.0
 40
6.0
 40
6.0
 40
7.0
 40
7.0
 40
7.0
 40
8.0
 40
8.0
 40
8.0
 40
9.0
 40
9.0
 40
9.0
 40
10.0
 40
10.0
 40
10.0
 40
11.0
 40
11.0
 40
11.0
 40
11.0
 10
338.059186361821
 20
161.4149197112219
 30
0.0
 10
338.1004266110969
 20
161.5305741421713
 30
0.0
 10
338.0299466491552
 20
161.6728475781583
 30
0.0
 10
337.9394502094325
 20
161.7932614824826
 30
0.0
 10
337.6694508711898
 20
162.1525206376759
 30
0.0
 10
337.2212751776733
 20
162.3171975230855
 30
0.0
 10
336.7963827231518
 20
162.4905948626941
 30
0.0
 10
336.3481507522532
 20
162.6735169891152
 30
0.0
 10
335.9258301897165
 20
162.8661439186305
 30
0.0
 10
335.5450245727713
 20
163.1458479329256
 30
0.0
 10
335.4069827827173
 20
163.2472404573539
 30
0.0
 10
335.274396296532
 20
163.3600754141573
 30
0.0
 10
335.2030127168911
 20
163.5204254189057
 30
0.0
 10
335.1473901301085
 20
163.6453712691917
 30
0.0
 10
335.1289277197238
 20
163.7991665265222
 30
0.0
 10
335.1771109920002
 20
163.9171840902077
 30
0.0
 10
335.2212863923528
 20
164.0253849839641
 30
0.0
 10
335.3214814473581
 20
164.103512601219
 30
0.0
 10
335.4188611694433
 20
164.1816898132192
 30
0.0
 10
335.665812522878
 20
164.3799443152638
 30
0.0
 10
335.8946581680446
 20
164.5785177664396
 30
0.0
 10
336.159256783669
 20
164.7237835347551
 30
0.0
 10
336.5016453911246
 20
164.9117563403074
 30
0.0
 10
336.9038993596281
 20
165.0104698859942
 30
0.0
 10
337.2963080425931
 20
165.1085192107576
 30
0.0
 10
337.5177270233937
 20
165.1638441372944
 30
0.0
 10
337.736011413833
 20
165.2189575859115
 30
0.0
 10
337.95808412484
 20
165.2527949807794
 30
0.0
 10
338.3096386537171
 20
165.3063616227919
 30
0.0
 10
338.6706870186394
 20
165.3066087628353
 30
0.0
 10
339.028957597005
 20
165.3068984596255
 30
0.0
 10
339.2012682551736
 20
165.307037789639
 30
0.0
 10
339.3729363723133
 20
165.307186963625
 30
0.0
 10
339.5447127821512
 20
165.3070691465815
 30
0.0
  0
SPLINE
  5
94
330
70
100
AcDbEntity
  8
shade
 62
     6
420
 16711935
370
    25
100
AcDbSpline
210
0.0
220
0.0
230
1.0
 70
     8
 71
     3
 72
    14
 73
    10
 74
     0
 42
0.0000000001
 43
0.0000000001
 40
0.0
 40
0.0
 40
0.0
 40
0.0
 40
1.0
 40
1.0
 40
1.0
 40
2.0
 40
2.0
 40
2.0
 40
3.0
 40
3.0
 40
3.0
 40
3.0
 10
335.1516612825678
 20
163.7152877641695
 30
0.0
 10
335.1518499524694
 20
164.1276926220028
 30
0.0
 10
335.1641741235543
 20
164.6187371615247
 30
0.0
 10
335.1722112931879
 20
165.1097806966803
 30
0.0
 10
335.1878920398838
 20
166.0678206090141
 30
0.0
 10
335.1872542638842
 20
167.025856698214
 30
0.0
 10
335.2109584539276
 20
167.9834589922121
 30
0.0
 10
335.2501307473066
 20
169.5659420018565
 30
0.0
 10
335.3557788155764
 20
171.1472403548399
 30
0.0
 10
335.380663126096
 20
172.7299686494958
 30
0.0
  0
LINE
  5
95
330
70
100
AcDbEntity
  8
shade
 62
     6
420
 16711935
370
    25
100
AcDbLine
 10
339.5447127821518
 20
165.3070691465821
 30
0.0
 11
339.5447127821518
 21
163.7420583814057
 31
0.0
  0
LINE
  5
96
330
70
100
AcDbEntity
  8
shade
 62
     6
420
 16711935
370
    25
100
AcDbLine
 10
339.4135166646846
 20
199.1940792403883
 30
0.0
 11
339.4135166646846
 21
232.5191445672676
 31
0.0
  0
SPLINE
  5
97
330
70
100
AcDbEntity
  8
shade
 62
     6
420
 16711935
370
    25
100
AcDbSpline
210
0.0
220
0.0
230
1.0
 70
     8
 71
     3
 72
    92
 73
    88
 74
     0
 42
0.0000000001
 43
0.0000000001
 40
0.0
 40
0.0
 40
0.0
 40
0.0
 40
1.0
 40
1.0
 40
1.0
 40
2.0
 40
2.0
 40
2.0
 40
3.0
 40
3.0
 40
3.0
 40
4.0
 40
4.0
 40
4.0
 40
5.0
 40
5.0
 40
5.0
 40
6.0
 40
6.0
 40
6.0
 40
7.0
 40
7.0
 40
7.0
 40
8.0
 40
8.0
 40
8.0
 40
9.0
 40
9.0
 40
9.0
 40
10.0
 40
10.0
 40
10.0
 40
11.0
 40
11.0
 40
11.0
 40
12.0
 40
12.0
 40
12.0
 40
13.0
 40
13.0
 40
13.0
 40
14.0
 40
14.0
 40
14.0
 40
15.0
 40
15.0
 40
15.0
 40
16.0
 40
16.0
 40
16.0
 40
17.0
 40
17.0
 40
17.0
 40
18.0
 40
18.0
 40
18.0
 40
19.0
 40
19.0
 40
19.0
 40
20.0
 40
20.0
 40
20.0
 40
21.0
 40
21.0
 40
21.0
 40
22.0
 40
22.0
 40
22.0
 40
23.0
 40
23.0
 40
23.0
 40
24.0
 40
24.0
 40
24.0
 40
25.0
 40
25.0
 40
25.0
 40
26.0
 40
26.0
 40
26.0
 40
27.0
 40
27.0
 40
27.0
 40
28.0
 40
28.0
 40
28.0
 40
29.0
 40
29.0
 40
29.0
 40
29.0
 10
350.9330304522468
 20
194.3252785421655
 30
0.0
 10
350.8774557395353
 20
194.5529951731881
 30
0.0
 10
350.390343855436
 20
196.0041067645557
 30
0.0
 10
349.3020512439465
 20
197.1779251212085
 30
0.0
 10
348.2697193369561
 20
198.2913849846595
 30
0.0
 10
346.69644332882
 20
199.1553356194004
 30
0.0
 10
346.4415538549269
 20
198.4162071918061
 30
0.0
 10
346.3573367698194
 20
198.1719945111438
 30
0.0
 10
346.4170457220149
 20
197.7527763894121
 30
0.0
 10
346.5279473653418
 20
197.3899555898754
 30
0.0
 10
346.7206802770704
 20
196.7594193143724
 30
0.0
 10
347.0680253897704
 20
196.2992142701617
 30
0.0
 10
347.4678649679028
 20
195.8668175618568
 30
0.0
 10
347.8671564367342
 20
195.4350135929169
 30
0.0
 10
348.3187985483995
 20
195.0309417715249
 30
0.0
 10
348.7983520939775
 20
194.6733260432462
 30
0.0
 10
349.229854167757
 20
194.3515435649576
 30
0.0
 10
349.6839544343733
 20
194.0673737637512
 30
0.0
 10
350.1444234234353
 20
193.7932236949702
 30
0.0
 10
350.3537857374129
 20
193.6685753600322
 30
0.0
 10
350.5644646353735
 20
193.5459983697526
 30
0.0
 10
350.7794287400807
 20
193.4306440370556
 30
0.0
 10
351.1701614331201
 20
193.2209685234161
 30
0.0
 10
351.575052044033
 20
193.0351559874378
 30
0.0
 10
351.944501571447
 20
192.7909647985283
 30
0.0
 10
352.3520103849751
 20
192.5216179614566
 30
0.0
 10
352.7163999908363
 20
192.1812450436178
 30
0.0
 10
353.0330820122427
 20
191.8089780225125
 30
0.0
 10
353.3047773929681
 20
191.4895938352402
 30
0.0
 10
353.5413567672167
 20
191.146733432401
 30
0.0
 10
353.7588020680665
 20
190.7816687024742
 30
0.0
 10
353.9834563464172
 20
190.4045009589892
 30
0.0
 10
354.1876868143851
 20
190.003632200217
 30
0.0
 10
354.2728540420746
 20
189.5881771838642
 30
0.0
 10
354.3234381021779
 20
189.341422627121
 30
0.0
 10
354.3320211221023
 20
189.0895225864378
 30
0.0
 10
354.3182115901938
 20
188.8176951504432
 30
0.0
 10
354.3109986166121
 20
188.675714659896
 30
0.0
 10
354.2976765835242
 20
188.5282976454237
 30
0.0
 10
354.227496493951
 20
188.4249005788916
 30
0.0
 10
354.1308787164577
 20
188.2825525877665
 30
0.0
 10
353.9264958081241
 20
188.2236371960417
 30
0.0
 10
353.7436831234018
 20
188.152965661888
 30
0.0
 10
353.5624209040139
 20
188.0828935049818
 30
0.0
 10
353.4023645783508
 20
188.0012637716946
 30
0.0
 10
353.2296311493981
 20
187.9565683761109
 30
0.0
 10
352.9919140963763
 20
187.8950582342339
 30
0.0
 10
352.7301872780134
 20
187.9034997809297
 30
0.0
 10
352.4736724901154
 20
187.9112458320878
 30
0.0
 10
352.1503945707289
 20
187.9210079488162
 30
0.0
 10
351.8353948189692
 20
187.9296654233731
 30
0.0
 10
351.5211646936817
 20
187.9716758329305
 30
0.0
 10
350.9875596353375
 20
188.0430151643271
 30
0.0
 10
350.4561739190131
 20
188.2105330612994
 30
0.0
 10
349.9790091287262
 20
188.4702229493473
 30
0.0
 10
349.4633387235423
 20
188.7508689494665
 30
0.0
 10
349.0109932261408
 20
189.1391631079919
 30
0.0
 10
348.618283399197
 20
189.5730697270452
 30
0.0
 10
348.3431046378791
 20
189.8771158134088
 30
0.0
 10
348.0972073138985
 20
190.2035578650482
 30
0.0
 10
347.8623247399142
 20
190.5399488726753
 30
0.0
 10
347.6158397120458
 20
190.8929565287285
 30
0.0
 10
347.3814844980765
 20
191.256920310402
 30
0.0
 10
347.1970811768794
 20
191.6427956503733
 30
0.0
 10
346.8335519119175
 20
192.4035030920619
 30
0.0
 10
346.6641529035047
 20
193.2493663946745
 30
0.0
 10
346.4018079768778
 20
194.0540787804759
 30
0.0
 10
346.2637174118611
 20
194.4776554414012
 30
0.0
 10
346.0998747263716
 20
194.8898305971536
 30
0.0
 10
345.9395189817325
 20
195.3080567092453
 30
0.0
 10
345.772508364612
 20
195.7436394894805
 30
0.0
 10
345.6092801147576
 20
196.1857858852654
 30
0.0
 10
345.3586764934408
 20
196.5730170983526
 30
0.0
 10
345.1564693261331
 20
196.8854664008805
 30
0.0
 10
344.8973758911179
 20
197.1621628392801
 30
0.0
 10
344.627014123198
 20
197.4251281015315
 30
0.0
 10
344.3054322111123
 20
197.7379122370178
 30
0.0
 10
343.9679079490073
 20
198.0312696109613
 30
0.0
 10
343.5770298036599
 20
198.2510726444489
 30
0.0
 10
343.2488982952946
 20
198.4355912771235
 30
0.0
 10
342.8831675417894
 20
198.5682751133444
 30
0.0
 10
342.5419391193072
 20
198.6826473205152
 30
0.0
 10
342.1902070469459
 20
198.8005401184132
 30
0.0
 10
341.8645089774176
 20
198.8989766040886
 30
0.0
 10
341.4249343341229
 20
198.9802850999681
 30
0.0
 10
340.7050526362302
 20
199.1134422302974
 30
0.0
 10
339.6797552147887
 20
199.2006622795962
 30
0.0
 10
339.5447127821512
 20
199.2009126787398
 30
0.0
  0
LINE
  5
98
330
70
100
AcDbEntity
  8
shade
 62
     6
420
 16711935
370
    25
100
AcDbLine
 10
343.1225037498838
 20
198.4724152058849
 30
0.0
 11
346.8558745537427
 21
198.6501685048616
 31
0.0
  0
SPLINE
  5
99
330
70
100
AcDbEntity
  8
shade
 62
     6
420
 16711935
370
    25
100
AcDbSpline
210
0.0
220
0.0
230
1.0
 70
     8
 71
     3
 72
   140
 73
   136
 74
     0
 42
0.0000000001
 43
0.0000000001
 40
0.0
 40
0.0
 40
0.0
 40
0.0
 40
1.0
 40
1.0
 40
1.0
 40
2.0
 40
2.0
 40
2.0
 40
3.0
 40
3.0
 40
3.0
 40
4.0
 40
4.0
 40
4.0
 40
5.0
 40
5.0
 40
5.0
 40
6.0
 40
6.0
 40
6.0
 40
7.0
 40
7.0
 40
7.0
 40
8.0
 40
8.0
 40
8.0
 40
9.0
 40
9.0
 40
9.0
 40
10.0
 40
10.0
 40
10.0
 40
11.0
 40
11.0
 40
11.0
 40
12.0
 40
12.0
 40
12.0
 40
13.0
 40
13.0
 40
13.0
 40
14.0
 40
14.0
 40
14.0
 40
15.0
 40
15.0
 40
15.0
 40
16.0
 40
16.0
 40
16.0
 40
17.0
 40
17.0
 40
17.0
 40
18.0
 40
18.0
 40
18.0
 40
19.0
 40
19.0
 40
19.0
 40
20.0
 40
20.0
 40
20.0
 40
21.0
 40
21.0
 40
21.0
 40
22.0
 40
22.0
 40
22.0
 40
23.0
 40
23.0
 40
23.0
 40
24.0
 40
24.0
 40
24.0
 40
25.0
 40
25.0
 40
25.0
 40
26.0
 40
26.0
 40
26.0
 40
27.0
 40
27.0
 40
27.0
 40
28.0
 40
28.0
 40
28.0
 40
29.0
 40
29.0
 40
29.0
 40
30.0
 40
30.0
 40
30.0
 40
31.0
 40
31.0
 40
31.0
 40
32.0
 40
32.0
 40
32.0
 40
33.0
 40
33.0
 40
33.0
 40
34.0
 40
34.0
 40
34.0
 40
35.0
 40
35.0
 40
35.0
 40
36.0
 40
36.0
 40
36.0
 40
37.0
 40
37.0
 40
37.0
 40
38.0
 40
38.0
 40
38.0
 40
39.0
 40
39.0
 40
39.0
 40
40.0
 40
40.0
 40
40.0
 40
41.0
 40
41.0
 40
41.0
 40
42.0
 40
42.0
 40
42.0
 40
43.0
 40
43.0
 40
43.0
 40
44.0
 40
44.0
 40
44.0
 40
45.0
 40
45.0
 40
45.0
 40
45.0
 10
357.387396277025
 20
187.2228733758163
 30
0.0
 10
357.4031623568865
 20
187.4921554395861
 30
0.0
 10
357.3855175745497
 20
187.7637808960709
 30
0.0
 10
357.3468062918245
 20
188.031084391194
 30
0.0
 10
357.2695315517294
 20
188.5646706393938
 30
0.0
 10
357.1083122863733
 20
189.0810349955835
 30
0.0
 10
356.9354083171308
 20
189.5931884141262
 30
0.0
 10
356.7448546198564
 20
190.1576215379166
 30
0.0
 10
356.5401089571712
 20
190.716940156279
 30
0.0
 10
356.2977064280502
 20
191.2553174401033
 30
0.0
 10
356.1216123485094
 20
191.646423310923
 30
0.0
 10
355.9256454537663
 20
192.026477723913
 30
0.0
 10
355.7080361642847
 20
192.4063414204608
 30
0.0
 10
355.5475700498563
 20
192.6864546984483
 30
0.0
 10
355.3753355434513
 20
192.9664642713752
 30
0.0
 10
355.1866918043058
 20
193.2048930777546
 30
0.0
 10
355.0771396461504
 20
193.3433572029023
 30
0.0
 10
354.9620534089541
 20
193.4677980490637
 30
0.0
 10
354.823290105264
 20
193.6228243357693
 30
0.0
 10
354.7288293819539
 20
193.7283558039952
 30
0.0
 10
354.6233967757071
 20
193.8480604753619
 30
0.0
 10
354.5215982095462
 20
193.848918437291
 30
0.0
 10
354.391727470222
 20
193.8500129924919
 30
0.0
 10
354.2677713804494
 20
193.6576763746646
 30
0.0
 10
354.2061931432241
 20
193.4857977706214
 30
0.0
 10
354.1381911687078
 20
193.2959890820521
 30
0.0
 10
354.1462601653948
 20
193.1311293283041
 30
0.0
 10
354.1444836969672
 20
192.9582451563496
 30
0.0
 10
354.1428453299445
 20
192.7988008781628
 30
0.0
 10
354.1328327567893
 20
192.632531312256
 30
0.0
 10
354.137486605672
 20
192.4684367979431
 30
0.0
 10
354.143043777578
 20
192.2724911521069
 30
0.0
 10
354.1695135136767
 20
192.0796468697773
 30
0.0
 10
354.1923396451596
 20
191.8860734187587
 30
0.0
 10
354.2292492260748
 20
191.5730674694673
 30
0.0
 10
354.2566320553683
 20
191.2581549991024
 30
0.0
 10
354.3089024879719
 20
190.9474407619111
 30
0.0
 10
354.3496024352698
 20
190.7055056477673
 30
0.0
 10
354.405391317324
 20
190.4661158516954
 30
0.0
 10
354.4666048426004
 20
190.2280508175801
 30
0.0
 10
354.6494745099812
 20
189.5168538491462
 30
0.0
 10
354.8807569268003
 20
188.8174798460357
 30
0.0
 10
355.1658912043722
 20
188.1419953512493
 30
0.0
 10
355.3777332952031
 20
187.640140404456
 30
0.0
 10
355.6193006940623
 20
187.1514720585269
 30
0.0
 10
355.8519107296981
 20
186.6583101739509
 30
0.0
 10
356.0134928842492
 20
186.3157361330902
 30
0.0
 10
356.1707527868478
 20
185.9709937971957
 30
0.0
 10
356.3044485732738
 20
185.6169075498518
 30
0.0
 10
356.3952731561547
 20
185.376363426671
 30
0.0
 10
356.4752229074779
 20
185.1315070915513
 30
0.0
 10
356.5444306656676
 20
184.8838150010757
 30
0.0
 10
356.6269273926424
 20
184.5885621667603
 30
0.0
 10
356.6941608089416
 20
184.2892800043254
 30
0.0
 10
356.7572870675359
 20
183.9893032829902
 30
0.0
 10
356.8023063452617
 20
183.7753711471443
 30
0.0
 10
356.8452367197409
 20
183.5610857581615
 30
0.0
 10
356.8807066741852
 20
183.3452779234544
 30
0.0
 10
356.922451373998
 20
183.0912930109182
 30
0.0
 10
356.9538626390233
 20
182.8351993573806
 30
0.0
 10
356.9629860548854
 20
182.5779286032165
 30
0.0
 10
356.9729344771945
 20
182.2973935329132
 30
0.0
 10
356.956381937288
 20
182.0154588524906
 30
0.0
 10
356.9217965536456
 20
181.7374021647588
 30
0.0
 10
356.8659278415312
 20
181.2882335448845
 30
0.0
 10
356.7630029845109
 20
180.8491844263308
 30
0.0
 10
356.6063914873228
 20
180.4150948477928
 30
0.0
 10
356.4972005130684
 20
180.1124436066946
 30
0.0
 10
356.3619124282873
 20
179.8122032012072
 30
0.0
 10
356.1469972369764
 20
179.5860835472034
 30
0.0
 10
355.9762349686342
 20
179.4064186998791
 30
0.0
 10
355.7552025092594
 20
179.2735477710946
 30
0.0
 10
355.5299002749359
 20
179.1544495111775
 30
0.0
 10
355.2705081393428
 20
179.0173308000471
 30
0.0
 10
355.0054563795214
 20
178.898467882568
 30
0.0
 10
354.7276742599873
 20
178.8255856159711
 30
0.0
 10
354.4418425975085
 20
178.75059137422
 30
0.0
 10
354.1425320871708
 20
178.7242812397275
 30
0.0
 10
353.8431688643423
 20
178.7091128707078
 30
0.0
 10
353.5646885601293
 20
178.6950026136789
 30
0.0
 10
353.2861626411322
 20
178.6905338896218
 30
0.0
 10
353.0135161511179
 20
178.7296668641585
 30
0.0
 10
352.5319564774218
 20
178.7987851662044
 30
0.0
 10
352.0687383332726
 20
179.0039237936081
 30
0.0
 10
351.6456537169693
 20
179.2565179200784
 30
0.0
 10
351.3392928885098
 20
179.4394244661154
 30
0.0
 10
351.0539756261753
 20
179.6472137719355
 30
0.0
 10
350.781718255767
 20
179.8731378971579
 30
0.0
 10
350.4386101676364
 20
180.1578552385153
 30
0.0
 10
350.1162436770667
 20
180.4713741295335
 30
0.0
 10
349.8355030567961
 20
180.8186217694431
 30
0.0
 10
349.5918274407244
 20
181.1200237628672
 30
0.0
 10
349.379511890214
 20
181.4468362947113
 30
0.0
 10
349.1974801641892
 20
181.7886322397191
 30
0.0
 10
348.9650065554838
 20
182.2251415148422
 30
0.0
 10
348.7819257711725
 20
182.686088690654
 30
0.0
 10
348.6146663071944
 20
183.1520475435858
 30
0.0
 10
348.2484086644747
 20
184.1723843724891
 30
0.0
 10
347.9580148430081
 20
185.216752380154
 30
0.0
 10
347.5856850447661
 20
186.2315667390303
 30
0.0
 10
347.3168588619173
 20
186.9642737952092
 30
0.0
 10
347.005319472485
 20
187.6815745408068
 30
0.0
 10
346.7691559839948
 20
188.4290535196807
 30
0.0
 10
346.5043379822424
 20
189.2672266462866
 30
0.0
 10
346.3342967744759
 20
190.1433455375516
 30
0.0
 10
345.9999263208857
 20
190.745101961527
 30
0.0
 10
345.9777309461454
 20
190.7850463082512
 30
0.0
 10
345.9548114955977
 20
190.8237817452399
 30
0.0
 10
345.9262053575708
 20
190.8679692735689
 30
0.0
 10
345.8206677642539
 20
191.0309918175494
 30
0.0
 10
345.6377276198883
 20
191.2682237813171
 30
0.0
 10
345.4760714352211
 20
191.4830806997328
 30
0.0
 10
345.1895144835398
 20
191.8639429829524
 30
0.0
 10
344.9698365172707
 20
192.1744978443944
 30
0.0
 10
344.7263452539888
 20
192.4662963680593
 30
0.0
 10
344.5407247899713
 20
192.6887428601111
 30
0.0
 10
344.3412653335493
 20
192.9002891892885
 30
0.0
 10
344.1331414519815
 20
193.1026158675937
 30
0.0
 10
343.8729038048029
 20
193.3556047044682
 30
0.0
 10
343.5991193748233
 20
193.5941786660625
 30
0.0
 10
343.3100059315671
 20
193.8137348173394
 30
0.0
 10
343.0262164798242
 20
194.0292478668049
 30
0.0
 10
342.7276573807193
 20
194.2264370785335
 30
0.0
 10
342.4097017350741
 20
194.3877707926196
 30
0.0
 10
342.1300587373918
 20
194.5296643052904
 30
0.0
 10
341.8354120100874
 20
194.643822664645
 30
0.0
 10
341.5325722791567
 20
194.7232012531667
 30
0.0
 10
341.1770836071532
 20
194.8163798758403
 30
0.0
 10
340.8103055841527
 20
194.8616345552989
 30
0.0
 10
340.4436329856948
 20
194.8945552315984
 30
0.0
 10
340.1979396838944
 20
194.9166141192593
 30
0.0
 10
339.9522937159019
 20
194.9331352514303
 30
0.0
 10
339.7062411131642
 20
194.9373936828147
 30
0.0
 10
339.6524150762372
 20
194.9383252498144
 30
0.0
 10
339.5985695797341
 20
194.9386699831568
 30
0.0
 10
339.5447127821512
 20
194.9387011348075
 30
0.0
  0
SPLINE
  5
9A
330
70
100
AcDbEntity
  8
shade
 62
     6
420
 16711935
370
    25
100
AcDbSpline
210
0.0
220
0.0
230
1.0
 70
     8
 71
     3
 72
    41
 73
    37
 74
     0
 42
0.0000000001
 43
0.0000000001
 40
0.0
 40
0.0
 40
0.0
 40
0.0
 40
1.0
 40
1.0
 40
1.0
 40
2.0
 40
2.0
 40
2.0
 40
3.0
 40
3.0
 40
3.0
 40
4.0
 40
4.0
 40
4.0
 40
5.0
 40
5.0
 40
5.0
 40
6.0
 40
6.0
 40
6.0
 40
7.0
 40
7.0
 40
7.0
 40
8.0
 40
8.0
 40
8.0
 40
9.0
 40
9.0
 40
9.0
 40
10.0
 40
10.0
 40
10.0
 40
11.0
 40
11.0
 40
11.0
 40
12.0
 40
12.0
 40
12.0
 40
12.0
 10
345.9654630298363
 20
190.8049558716562
 30
0.0
 10
345.9200514778802
 20
191.0173212202002
 30
0.0
 10
345.8667724065191
 20
191.2282492363589
 30
0.0
 10
345.8101941956683
 20
191.4386739329127
 30
0.0
 10
345.7286214923271
 20
191.7420577106875
 30
0.0
 10
345.6401908760251
 20
192.0443952392638
 30
0.0
 10
345.5146031522622
 20
192.3305531582936
 30
0.0
 10
345.4055202897044
 20
192.5791039243734
 30
0.0
 10
345.2684050083514
 20
192.8154483153673
 30
0.0
 10
345.1323536544855
 20
193.0516029251174
 30
0.0
 10
344.9881054508021
 20
193.3019854261359
 30
0.0
 10
344.8450532359409
 20
193.5521545890747
 30
0.0
 10
344.6860691309646
 20
193.7929051992819
 30
0.0
 10
344.4557243856929
 20
194.1417176669822
 30
0.0
 10
344.1919357718157
 20
194.4707589187292
 30
0.0
 10
343.8974448816177
 20
194.767442994653
 30
0.0
 10
343.6897576476259
 20
194.9766769545103
 30
0.0
 10
343.4668001529502
 20
195.1698175633521
 30
0.0
 10
343.2362665300751
 20
195.3544090270684
 30
0.0
 10
343.0128512119785
 20
195.5333007655912
 30
0.0
 10
342.7823204064278
 20
195.7041631607237
 30
0.0
 10
342.5349623808504
 20
195.8466799559584
 30
0.0
 10
342.3545043551981
 20
195.950651918987
 30
0.0
 10
342.1650903567611
 20
196.0395374672172
 30
0.0
 10
341.9718872055656
 20
196.1181358276747
 30
0.0
 10
341.7910112922438
 20
196.1917192560266
 30
0.0
 10
341.6068143307351
 20
196.2562863558013
 30
0.0
 10
341.4192091166412
 20
196.3105348209761
 30
0.0
 10
341.2098026634272
 20
196.3710873953781
 30
0.0
 10
340.9961497986295
 20
196.4187837719483
 30
0.0
 10
340.780211787305
 20
196.4460831148518
 30
0.0
 10
340.576820721288
 20
196.4717962462299
 30
0.0
 10
340.3714023478826
 20
196.4794137953041
 30
0.0
 10
340.1662031005554
 20
196.4853207423285
 30
0.0
 10
339.9589079718507
 20
196.4912880222258
 30
0.0
 10
339.7518364683411
 20
196.495509577834
 30
0.0
 10
339.5447127821512
 20
196.4967912921665
 30
0.0
  0
SPLINE
  5
9B
330
70
100
AcDbEntity
  8
shade
 62
     6
420
 16711935
370
    25
100
AcDbSpline
210
0.0
220
0.0
230
1.0
 70
     8
 71
     3
 72
    38
 73
    34
 74
     0
 42
0.0000000001
 43
0.0000000001
 40
0.0
 40
0.0
 40
0.0
 40
0.0
 40
1.0
 40
1.0
 40
1.0
 40
2.0
 40
2.0
 40
2.0
 40
3.0
 40
3.0
 40
3.0
 40
4.0
 40
4.0
 40
4.0
 40
5.0
 40
5.0
 40
5.0
 40
6.0
 40
6.0
 40
6.0
 40
7.0
 40
7.0
 40
7.0
 40
8.0
 40
8.0
 40
8.0
 40
9.0
 40
9.0
 40
9.0
 40
10.0
 40
10.0
 40
10.0
 40
11.0
 40
11.0
 40
11.0
 40
11.0
 10
350.8429207377898
 20
179.8228410195261
 30
0.0
 10
350.8501068990898
 20
179.8196412013347
 30
0.0
 10
350.8572470071769
 20
179.8166853364392
 30
0.0
 10
350.8643450725458
 20
179.8139852579915
 30
0.0
 10
350.9930843367594
 20
179.7650133065303
 30
0.0
 10
351.1079932612525
 20
179.8001846638918
 30
0.0
 10
351.2411829963927
 20
179.8644781703015
 30
0.0
 10
351.367985011985
 20
179.925688189179
 30
0.0
 10
351.5113564074043
 20
180.0132939712584
 30
0.0
 10
351.6330399566557
 20
180.1223973096445
 30
0.0
 10
351.8753439739536
 20
180.3396508114879
 30
0.0
 10
352.0316528496377
 20
180.6421449307975
 30
0.0
 10
352.1693575778314
 20
180.9451983782174
 30
0.0
 10
352.3514813804857
 20
181.3460070285516
 30
0.0
 10
352.501063089654
 20
181.7477940471582
 30
0.0
 10
352.6352500964193
 20
182.1577472208906
 30
0.0
 10
352.7556395482716
 20
182.5255476440501
 30
0.0
 10
352.8636374042553
 20
182.8999212176005
 30
0.0
 10
352.9673341345472
 20
183.2748400417268
 30
0.0
 10
353.1495579194677
 20
183.9336759276638
 30
0.0
 10
353.3184997453996
 20
184.5941955578807
 30
0.0
 10
353.4991466372832
 20
185.2525280007679
 30
0.0
 10
353.6729703676805
 20
185.8859947594315
 30
0.0
 10
353.8576316454686
 20
186.5174364337047
 30
0.0
 10
353.999444281415
 20
187.1670845472817
 30
0.0
 10
354.0634102380731
 20
187.460114592161
 30
0.0
 10
354.1186584328864
 20
187.7568488245029
 30
0.0
 10
354.1780546807988
 20
188.0399512262755
 30
0.0
 10
354.1988546349347
 20
188.1390907709386
 30
0.0
 10
354.2201632765401
 20
188.2365586057113
 30
0.0
 10
354.2408304240268
 20
188.3360846110803
 30
0.0
 10
354.2678936074329
 20
188.4664117662259
 30
0.0
 10
354.2938567992537
 20
188.6002681358587
 30
0.0
 10
354.3129832276484
 20
188.7351800972503
 30
0.0
  0
SPLINE
  5
9C
330
70
100
AcDbEntity
  8
shade
 62
     6
420
 16711935
370
    25
100
AcDbSpline
210
0.0
220
0.0
230
1.0
 70
     8
 71
     3
 72
     8
 73
     4
 74
     0
 42
0.0000000001
 43
0.0000000001
 40
0.0
 40
0.0
 40
0.0
 40
0.0
 40
1.0
 40
1.0
 40
1.0
 40
1.0
 10
354.48414505081
 20
193.8440045481531
 30
0.0
 10
352.735471159324
 20
194.1897415576072
 30
0.0
 10
350.9591732420132
 20
194.3770263928978
 30
0.0
 10
349.1768463222097
 20
194.4035821722313
 30
0.0
  0
SPLINE
  5
9D
330
70
100
AcDbEntity
  8
shade
 62
     6
420
 16711935
370
    25
100
AcDbSpline
210
0.0
220
0.0
230
1.0
 70
     8
 71
     3
 72
   134
 73
   130
 74
     0
 42
0.0000000001
 43
0.0000000001
 40
0.0
 40
0.0
 40
0.0
 40
0.0
 40
1.0
 40
1.0
 40
1.0
 40
2.0
 40
2.0
 40
2.0
 40
3.0
 40
3.0
 40
3.0
 40
4.0
 40
4.0
 40
4.0
 40
5.0
 40
5.0
 40
5.0
 40
6.0
 40
6.0
 40
6.0
 40
7.0
 40
7.0
 40
7.0
 40
8.0
 40
8.0
 40
8.0
 40
9.0
 40
9.0
 40
9.0
 40
10.0
 40
10.0
 40
10.0
 40
11.0
 40
11.0
 40
11.0
 40
12.0
 40
12.0
 40
12.0
 40
13.0
 40
13.0
 40
13.0
 40
14.0
 40
14.0
 40
14.0
 40
15.0
 40
15.0
 40
15.0
 40
16.0
 40
16.0
 40
16.0
 40
17.0
 40
17.0
 40
17.0
 40
18.0
 40
18.0
 40
18.0
 40
19.0
 40
19.0
 40
19.0
 40
20.0
 40
20.0
 40
20.0
 40
21.0
 40
21.0
 40
21.0
 40
22.0
 40
22.0
 40
22.0
 40
23.0
 40
23.0
 40
23.0
 40
24.0
 40
24.0
 40
24.0
 40
25.0
 40
25.0
 40
25.0
 40
26.0
 40
26.0
 40
26.0
 40
27.0
 40
27.0
 40
27.0
 40
28.0
 40
28.0
 40
28.0
 40
29.0
 40
29.0
 40
29.0
 40
30.0
 40
30.0
 40
30.0
 40
31.0
 40
31.0
 40
31.0
 40
32.0
 40
32.0
 40
32.0
 40
33.0
 40
33.0
 40
33.0
 40
34.0
 40
34.0
 40
34.0
 40
35.0
 40
35.0
 40
35.0
 40
36.0
 40
36.0
 40
36.0
 40
37.0
 40
37.0
 40
37.0
 40
38.0
 40
38.0
 40
38.0
 40
39.0
 40
39.0
 40
39.0
 40
40.0
 40
40.0
 40
40.0
 40
41.0
 40
41.0
 40
41.0
 40
42.0
 40
42.0
 40
42.0
 40
43.0
 40
43.0
 40
43.0
 40
43.0
 10
358.5969930644256
 20
179.2455623006278
 30
0.0
 10
358.7530871978004
 20
179.6213339406996
 30
0.0
 10
358.8008411682287
 20
179.7523489751134
 30
0.0
 10
358.8468825437647
 20
179.8838428236495
 30
0.0
 10
359.0658186923171
 20
180.5091229422763
 30
0.0
 10
359.2460296994939
 20
181.1452299906408
 30
0.0
 10
359.4167209312468
 20
181.7864652540644
 30
0.0
 10
359.5418582883448
 20
182.2565684065173
 30
0.0
 10
359.6618790835099
 20
182.7294278036066
 30
0.0
 10
359.7441445266513
 20
183.2052436134613
 30
0.0
 10
359.8368053557374
 20
183.7411853862123
 30
0.0
 10
359.8815661306655
 20
184.2808779472334
 30
0.0
 10
359.8833790021778
 20
184.8393868484891
 30
0.0
 10
359.8843929403606
 20
185.1517606138891
 30
0.0
 10
359.871972088773
 20
185.4700204308815
 30
0.0
 10
359.7652414924628
 20
185.7490346619706
 30
0.0
 10
359.7109995586824
 20
185.8908334710256
 30
0.0
 10
359.6323992098697
 20
186.0224958909686
 30
0.0
 10
359.508119454349
 20
186.1378918631121
 30
0.0
 10
359.4649181321701
 20
186.1780050621596
 30
0.0
 10
359.416197131887
 20
186.2161527024964
 30
0.0
 10
359.3691345688819
 20
186.2212183194305
 30
0.0
 10
359.2843710833713
 20
186.2303419055713
 30
0.0
 10
359.2049873902326
 20
186.1321509616299
 30
0.0
 10
359.1398095078621
 20
186.0406776062187
 30
0.0
 10
359.0170108812618
 20
185.8683368978899
 30
0.0
 10
358.9446380262402
 20
185.7198413322505
 30
0.0
 10
358.88268711268
 20
185.5546061481832
 30
0.0
 10
358.8270077752671
 20
185.4060984823972
 30
0.0
 10
358.779747065792
 20
185.2440689003833
 30
0.0
 10
358.7367529829386
 20
185.0824224907234
 30
0.0
 10
358.5969012655201
 20
184.5566169262156
 30
0.0
 10
358.5021938424203
 20
184.0348656291845
 30
0.0
 10
358.3960671929605
 20
183.5113285581394
 30
0.0
 10
358.3176548530397
 20
183.1245099128232
 30
0.0
 10
358.233008659455
 20
182.736716398148
 30
0.0
 10
358.1389451548486
 20
182.3517010285693
 30
0.0
 10
358.0684850917419
 20
182.063297918873
 30
0.0
 10
357.9927409331326
 20
181.7764536388658
 30
0.0
 10
357.9301828869209
 20
181.4868014254684
 30
0.0
 10
357.8296079057712
 20
181.0211256624538
 30
0.0
 10
357.7631153380256
 20
180.5481921767903
 30
0.0
 10
357.6869589802868
 20
180.077194353377
 30
0.0
 10
357.5293649369778
 20
179.1025357223099
 30
0.0
 10
357.330388581802
 20
178.1361659902124
 30
0.0
 10
357.1466800542137
 20
177.1668458353991
 30
0.0
 10
356.9797423041515
 20
176.2860150549318
 30
0.0
 10
356.8254120177831
 20
175.4027479522664
 30
0.0
 10
356.6667097992816
 20
174.5201674882557
 30
0.0
 10
356.5526765212322
 20
173.8860015364242
 30
0.0
 10
356.4363860401046
 20
173.252190092128
 30
0.0
 10
356.2571692888131
 20
172.6313032037678
 30
0.0
 10
356.14611719686
 20
172.2465691467
 30
0.0
 10
356.0109033609603
 20
171.8667977198716
 30
0.0
 10
355.8305291812292
 20
171.5122379660323
 30
0.0
 10
355.5692176857738
 20
170.9985805254735
 30
0.0
 10
355.2131242636968
 20
170.5378370075417
 30
0.0
 10
354.8350351207767
 20
170.0912025396388
 30
0.0
 10
354.5690736241064
 20
169.7770237969477
 30
0.0
 10
354.2922281577703
 20
169.4698265245907
 30
0.0
 10
353.9284244011963
 20
169.2741071434279
 30
0.0
 10
353.6519760972934
 20
169.1253833054089
 30
0.0
 10
353.3253161433555
 20
169.0410292801369
 30
0.0
 10
353.021813681614
 20
169.0787148113515
 30
0.0
 10
352.7344820243035
 20
169.114392433465
 30
0.0
 10
352.4679059074251
 20
169.2594513705954
 30
0.0
 10
352.2040863029
 20
169.3984478603952
 30
0.0
 10
351.8347072427542
 20
169.5930596022261
 30
0.0
 10
351.4707318717459
 20
169.7757869130841
 30
0.0
 10
351.139027672115
 20
170.0123591487979
 30
0.0
 10
350.7844570497299
 20
170.2652397724058
 30
0.0
 10
350.466760260728
 20
170.5796449302313
 30
0.0
 10
350.190293363168
 20
170.9215784250273
 30
0.0
 10
349.9285541355624
 20
171.245296778329
 30
0.0
 10
349.7037690859445
 20
171.5936886640733
 30
0.0
 10
349.482209576648
 20
171.9444761892482
 30
0.0
 10
349.2472412170109
 20
172.3164934844356
 30
0.0
 10
349.0159006333118
 20
172.6912051632664
 30
0.0
 10
348.8089498521741
 20
173.0791248048806
 30
0.0
 10
348.5860135927885
 20
173.4970084841213
 30
0.0
 10
348.3913805349797
 20
173.9302193736645
 30
0.0
 10
348.2130519772026
 20
174.3694395336339
 30
0.0
 10
348.032641853274
 20
174.8137865551086
 30
0.0
 10
347.868919084194
 20
175.2642839539511
 30
0.0
 10
347.7081095047818
 20
175.7157204637041
 30
0.0
 10
347.5361206160445
 20
176.1985403549784
 30
0.0
 10
347.3674640397104
 20
176.6824344677392
 30
0.0
 10
347.2076125205537
 20
177.169813312671
 30
0.0
 10
347.0793697785305
 20
177.5608186644362
 30
0.0
 10
346.95679418034
 20
177.9540668725541
 30
0.0
 10
346.8407594087512
 20
178.3477410664698
 30
0.0
 10
346.6905685462386
 20
178.857297520312
 30
0.0
 10
346.5513359880069
 20
179.3675676579535
 30
0.0
 10
346.4050240822739
 20
179.8840375659722
 30
0.0
 10
346.3076972903826
 20
180.2275937448344
 30
0.0
 10
346.2072379434305
 20
180.5738932728629
 30
0.0
 10
346.0293913990913
 20
180.8776606297152
 30
0.0
 10
345.9298957802265
 20
181.047602200821
 30
0.0
 10
345.8061794902721
 20
181.2042320386738
 30
0.0
 10
345.6887095368541
 20
181.364588467984
 30
0.0
 10
345.5089272359619
 20
181.6100065258386
 30
0.0
 10
345.3437756535801
 20
181.8641533337863
 30
0.0
 10
345.1576336640075
 20
182.1029430515295
 30
0.0
 10
344.9011767532142
 20
182.4319353089032
 30
0.0
 10
344.6048760220438
 20
182.7317768624312
 30
0.0
 10
344.2908355940617
 20
183.0078533501166
 30
0.0
 10
344.1666760316657
 20
183.1170034239436
 30
0.0
 10
344.0397435615399
 20
183.2224387592678
 30
0.0
 10
343.9100286482773
 20
183.3247534364165
 30
0.0
 10
343.7189667017831
 20
183.4754565504943
 30
0.0
 10
343.5218681208874
 20
183.6193892575696
 30
0.0
 10
343.3149134648801
 20
183.7470448743777
 30
0.0
 10
343.0037387114568
 20
183.9389864612425
 30
0.0
 10
342.6702815404048
 20
184.0941291277469
 30
0.0
 10
342.331679668088
 20
184.2339728862139
 30
0.0
 10
342.0985534778596
 20
184.3302548187847
 30
0.0
 10
341.8629885583976
 20
184.4192846501447
 30
0.0
 10
341.6224811173797
 20
184.4941538369742
 30
0.0
 10
341.3977166354147
 20
184.5641222916785
 30
0.0
 10
341.1686355027777
 20
184.6217232624922
 30
0.0
 10
340.9368047337568
 20
184.6622086513436
 30
0.0
 10
340.7058199589451
 20
184.7025463013733
 30
0.0
 10
340.4721055790171
 20
184.7258930574934
 30
0.0
 10
340.2381914438874
 20
184.7440814829236
 30
0.0
 10
340.0859338223364
 20
184.7559205553857
 30
0.0
 10
339.933591567101
 20
184.765574110138
 30
0.0
 10
339.7810738548046
 20
184.7699360430471
 30
0.0
 10
339.7023220897188
 20
184.772188305493
 30
0.0
 10
339.6235235456395
 20
184.7730297569665
 30
0.0
 10
339.5447127821512
 20
184.7734281210973
 30
0.0
  0
SPLINE
  5
9E
330
70
100
AcDbEntity
  8
shade
 62
     6
420
 16711935
370
    25
100
AcDbSpline
210
0.0
220
0.0
230
1.0
 70
     8
 71
     3
 72
    50
 73
    46
 74
     0
 42
0.0000000001
 43
0.0000000001
 40
0.0
 40
0.0
 40
0.0
 40
0.0
 40
1.0
 40
1.0
 40
1.0
 40
2.0
 40
2.0
 40
2.0
 40
3.0
 40
3.0
 40
3.0
 40
4.0
 40
4.0
 40
4.0
 40
5.0
 40
5.0
 40
5.0
 40
6.0
 40
6.0
 40
6.0
 40
7.0
 40
7.0
 40
7.0
 40
8.0
 40
8.0
 40
8.0
 40
9.0
 40
9.0
 40
9.0
 40
10.0
 40
10.0
 40
10.0
 40
11.0
 40
11.0
 40
11.0
 40
12.0
 40
12.0
 40
12.0
 40
13.0
 40
13.0
 40
13.0
 40
14.0
 40
14.0
 40
14.0
 40
15.0
 40
15.0
 40
15.0
 40
15.0
 10
346.1101329346737
 20
180.7266991767008
 30
0.0
 10
346.0802801813839
 20
180.9320191417006
 30
0.0
 10
346.0437385828099
 20
181.1367024846876
 30
0.0
 10
346.0087589778655
 20
181.341371781147
 30
0.0
 10
345.9548515190617
 20
181.6567899136448
 30
0.0
 10
345.9046538318998
 20
181.9721746853095
 30
0.0
 10
345.8429894011731
 20
182.2854591322812
 30
0.0
 10
345.7640108401296
 20
182.6867075428718
 30
0.0
 10
345.6662222667278
 20
183.0845105870242
 30
0.0
 10
345.5794965678493
 20
183.4845155603086
 30
0.0
 10
345.5158299278984
 20
183.7781652275023
 30
0.0
 10
345.4581253464141
 20
184.0730015691173
 30
0.0
 10
345.4055076584081
 20
184.3688099019788
 30
0.0
 10
345.3698037768476
 20
184.5695314859449
 30
0.0
 10
345.3364420737691
 20
184.7707006076844
 30
0.0
 10
345.3009197824647
 20
184.9713447326529
 30
0.0
 10
345.2142139563715
 20
185.461093956804
 30
0.0
 10
345.1146355199455
 20
185.9477152925492
 30
0.0
 10
345.0223437112154
 20
186.4378299277778
 30
0.0
 10
344.9704253390895
 20
186.7135418719499
 30
0.0
 10
344.9208128772105
 20
186.9903592980292
 30
0.0
 10
344.8389557185834
 20
187.2572778529086
 30
0.0
 10
344.713111782153
 20
187.667627811492
 30
0.0
 10
344.5110582680395
 20
188.0545820222563
 30
0.0
 10
344.2885985672707
 20
188.4250345727174
 30
0.0
 10
344.0636096771165
 20
188.7996988732391
 30
0.0
 10
343.8177479584918
 20
189.1574841590391
 30
0.0
 10
343.5386432809196
 20
189.4937842607164
 30
0.0
 10
343.28705603295
 20
189.7969279335823
 30
0.0
 10
343.0084576587556
 20
190.0826141045087
 30
0.0
 10
342.6893265130577
 20
190.3084983158635
 30
0.0
 10
342.4187980943449
 20
190.4999810317749
 30
0.0
 10
342.1191428131262
 20
190.6484900404984
 30
0.0
 10
341.8196261998966
 20
190.7973267142387
 30
0.0
 10
341.5775234866694
 20
190.9176331044307
 30
0.0
 10
341.3355113745902
 20
191.0381535802711
 30
0.0
 10
341.0790217926445
 20
191.1164231190391
 30
0.0
 10
340.906954721392
 20
191.1689305550211
 30
0.0
 10
340.7283721352204
 20
191.2024231622107
 30
0.0
 10
340.5490481866278
 20
191.2250516712966
 30
0.0
 10
340.3503950596339
 20
191.2501192884464
 30
0.0
 10
340.150832135026
 20
191.261854518836
 30
0.0
 10
339.9511293105991
 20
191.2657873566968
 30
0.0
 10
339.8156981696707
 20
191.2684544632843
 30
0.0
 10
339.6802026880373
 20
191.2675332061666
 30
0.0
 10
339.5447127821512
 20
191.2666260460904
 30
0.0
  0
SPLINE
  5
9F
330
70
100
AcDbEntity
  8
shade
 62
     6
420
 16711935
370
    25
100
AcDbSpline
210
0.0
220
0.0
230
1.0
 70
     8
 71
     3
 72
     8
 73
     4
 74
     0
 42
0.0000000001
 43
0.0000000001
 40
0.0
 40
0.0
 40
0.0
 40
0.0
 40
1.0
 40
1.0
 40
1.0
 40
1.0
 10
359.5071079476952
 20
186.1388297603631
 30
0.0
 10
358.1511663762035
 20
186.9336298403338
 30
0.0
 10
356.7092466307105
 20
187.5716709814008
 30
0.0
 10
355.2091346875461
 20
188.0406580498733
 30
0.0
  0
LINE
  5
A0
330
70
100
AcDbEntity
  8
shade
 62
     6
420
 16711935
370
    25
100
AcDbLine
 10
357.7326041256506
 20
180.3647972341791
 30
0.0
 11
360.0189089449657
 21
177.4044259155099
 31
0.0
  0
SPLINE
  5
A1
330
70
100
AcDbEntity
  8
shade
 62
     6
420
 16711935
370
    25
100
AcDbSpline
210
0.0
220
0.0
230
1.0
 70
     8
 71
     3
 72
    71
 73
    67
 74
     0
 42
0.0000000001
 43
0.0000000001
 40
0.0
 40
0.0
 40
0.0
 40
0.0
 40
1.0
 40
1.0
 40
1.0
 40
2.0
 40
2.0
 40
2.0
 40
3.0
 40
3.0
 40
3.0
 40
4.0
 40
4.0
 40
4.0
 40
5.0
 40
5.0
 40
5.0
 40
6.0
 40
6.0
 40
6.0
 40
7.0
 40
7.0
 40
7.0
 40
8.0
 40
8.0
 40
8.0
 40
9.0
 40
9.0
 40
9.0
 40
10.0
 40
10.0
 40
10.0
 40
11.0
 40
11.0
 40
11.0
 40
12.0
 40
12.0
 40
12.0
 40
13.0
 40
13.0
 40
13.0
 40
14.0
 40
14.0
 40
14.0
 40
15.0
 40
15.0
 40
15.0
 40
16.0
 40
16.0
 40
16.0
 40
17.0
 40
17.0
 40
17.0
 40
18.0
 40
18.0
 40
18.0
 40
19.0
 40
19.0
 40
19.0
 40
20.0
 40
20.0
 40
20.0
 40
21.0
 40
21.0
 40
21.0
 40
22.0
 40
22.0
 40
22.0
 40
22.0
 10
360.0189089449657
 20
177.4044259155106
 30
0.0
 10
358.1795470402931
 20
174.4405993210884
 30
0.0
 10
356.5584211993301
 20
171.3456810870611
 30
0.0
 10
354.7266062716207
 20
168.3767343447224
 30
0.0
 10
354.372481730186
 20
167.8027806729994
 30
0.0
 10
354.010483270467
 20
167.2335348352076
 30
0.0
 10
353.6454799682916
 20
166.6668481485489
 30
0.0
 10
353.3309810710948
 20
166.1785721878995
 30
0.0
 10
353.0142513444246
 20
165.6921961703782
 30
0.0
 10
352.7087638313625
 20
165.196843011968
 30
0.0
 10
352.5842042755735
 20
164.9948675899561
 30
0.0
 10
352.4615137615604
 20
164.7913996992964
 30
0.0
 10
352.3217821203318
 20
164.6007074279185
 30
0.0
 10
352.032721757344
 20
164.2062257149809
 30
0.0
 10
351.6707348078822
 20
163.8664165769567
 30
0.0
 10
351.2898311289617
 20
163.5534422267695
 30
0.0
 10
350.9852265407613
 20
163.3031599944578
 30
0.0
 10
350.6685246484152
 20
163.0700386879236
 30
0.0
 10
350.3207011344294
 20
162.8877152479007
 30
0.0
 10
349.9632324367727
 20
162.7003359591619
 30
0.0
 10
349.5728921743594
 20
162.5666108590737
 30
0.0
 10
349.1758808046522
 20
162.5010328429346
 30
0.0
 10
348.8207786703098
 20
162.442377360312
 30
0.0
 10
348.4603395187705
 20
162.4382408867395
 30
0.0
 10
348.0955568316024
 20
162.4688092368682
 30
0.0
 10
347.7127682368845
 20
162.5008864603773
 30
0.0
 10
347.3251967242183
 20
162.5711791696938
 30
0.0
 10
346.9991091264393
 20
162.7588211707682
 30
0.0
 10
346.7434245442071
 20
162.9059508591727
 30
0.0
 10
346.5255408525353
 20
163.1252279985522
 30
0.0
 10
346.3541398461013
 20
163.3710684710672
 30
0.0
 10
346.2082966719984
 20
163.5802513433286
 30
0.0
 10
346.0961074977562
 20
163.8086663749431
 30
0.0
 10
346.0155307596807
 20
164.0477629834995
 30
0.0
 10
345.9468577056045
 20
164.2515376053169
 30
0.0
 10
345.9011467367862
 20
164.4630709230837
 30
0.0
 10
345.8704128858445
 20
164.6761221736153
 30
0.0
 10
345.8066639308988
 20
165.1180386323442
 30
0.0
 10
345.8073527346166
 20
165.5664858659522
 30
0.0
 10
345.838164350416
 20
166.0133993086643
 30
0.0
 10
345.8869519518839
 20
166.7210491468242
 30
0.0
 10
346.0112636431353
 20
167.424853455521
 30
0.0
 10
346.0155307596826
 20
168.1240414272116
 30
0.0
 10
346.0185012473309
 20
168.6107703953614
 30
0.0
 10
345.9632977211999
 20
169.0952622707207
 30
0.0
 10
345.9344261304797
 20
169.5962789842568
 30
0.0
 10
345.9136629308832
 20
169.9565885399516
 30
0.0
 10
345.906518251309
 20
170.3254445179305
 30
0.0
 10
345.7741793140966
 20
170.6444755466408
 30
0.0
 10
345.6539083020599
 20
170.9344142865342
 30
0.0
 10
345.4302347862236
 20
171.1832007834803
 30
0.0
 10
345.2101732642972
 20
171.4258692250085
 30
0.0
 10
344.9333375066166
 20
171.7311443193882
 30
0.0
 10
344.6622178928678
 20
172.0267373140131
 30
0.0
 10
344.352615025511
 20
172.2827649533408
 30
0.0
 10
343.9822770998146
 20
172.5890177528669
 30
0.0
 10
343.5568763840243
 20
172.8386594644641
 30
0.0
 10
343.1106334630802
 20
173.0313176473493
 30
0.0
 10
342.6702100213476
 20
173.221463363957
 30
0.0
 10
342.2094844386004
 20
173.3561021115647
 30
0.0
 10
341.7405115068989
 20
173.4449914771592
 30
0.0
 10
341.3599214828398
 20
173.5171287019407
 30
0.0
 10
340.9738997857622
 20
173.5591355557076
 30
0.0
 10
340.5872429642183
 20
173.5828827537627
 30
0.0
 10
340.240062409778
 20
173.6042054485346
 30
0.0
 10
339.8923697983766
 20
173.6108066449018
 30
0.0
 10
339.5447127821512
 20
173.6121497586365
 30
0.0
  0
SPLINE
  5
A2
330
70
100
AcDbEntity
  8
shade
 62
     6
420
 16711935
370
    25
100
AcDbSpline
210
0.0
220
0.0
230
1.0
 70
     8
 71
     3
 72
    32
 73
    28
 74
     0
 42
0.0000000001
 43
0.0000000001
 40
0.0
 40
0.0
 40
0.0
 40
0.0
 40
1.0
 40
1.0
 40
1.0
 40
2.0
 40
2.0
 40
2.0
 40
3.0
 40
3.0
 40
3.0
 40
4.0
 40
4.0
 40
4.0
 40
5.0
 40
5.0
 40
5.0
 40
6.0
 40
6.0
 40
6.0
 40
7.0
 40
7.0
 40
7.0
 40
8.0
 40
8.0
 40
8.0
 40
9.0
 40
9.0
 40
9.0
 40
9.0
 10
345.814798123118
 20
170.5334037284138
 30
0.0
 10
345.816502273713
 20
170.673041918813
 30
0.0
 10
345.8176567794098
 20
170.81266824321
 30
0.0
 10
345.8165971269339
 20
170.9522626641924
 30
0.0
 10
345.8100835312397
 20
171.8103379672012
 30
0.0
 10
345.7199088830728
 20
172.667207812853
 30
0.0
 10
345.6206799989494
 20
173.519806548412
 30
0.0
 10
345.4354239180433
 20
175.1115719071561
 30
0.0
 10
345.2186090330225
 20
176.6884501868128
 30
0.0
 10
344.9853090453625
 20
178.2850642390921
 30
0.0
 10
344.8794008236289
 20
179.0098587698053
 30
0.0
 10
344.7700953982941
 20
179.7387203930512
 30
0.0
 10
344.5031746053751
 20
180.4135082706305
 30
0.0
 10
344.2313079962666
 20
181.1007993959825
 30
0.0
 10
343.7959309470709
 20
181.7319943291515
 30
0.0
 10
343.2695244948304
 20
182.2625536513137
 30
0.0
 10
342.9080760558483
 20
182.6268535909658
 30
0.0
 10
342.5037103561979
 20
182.9437072703361
 30
0.0
 10
342.0551499496718
 20
183.1870763416553
 30
0.0
 10
341.7806123672887
 20
183.3360283122149
 30
0.0
 10
341.4895196778242
 20
183.4574533312199
 30
0.0
 10
341.1877395092653
 20
183.5337723505338
 30
0.0
 10
340.8564290235449
 20
183.6175594710709
 30
0.0
 10
340.5122371028062
 20
183.6469811047756
 30
0.0
 10
340.169769488994
 20
183.6581332012885
 30
0.0
 10
339.9610423812262
 20
183.6649301793292
 30
0.0
 10
339.752955794303
 20
183.664940651314
 30
0.0
 10
339.5447127821512
 20
183.6646446622271
 30
0.0
  0
SPLINE
  5
A3
330
70
100
AcDbEntity
  8
shade
 62
     6
420
 16711935
370
    25
100
AcDbSpline
210
0.0
220
0.0
230
1.0
 70
     8
 71
     3
 72
    32
 73
    28
 74
     0
 42
0.0000000001
 43
0.0000000001
 40
0.0
 40
0.0
 40
0.0
 40
0.0
 40
1.0
 40
1.0
 40
1.0
 40
2.0
 40
2.0
 40
2.0
 40
3.0
 40
3.0
 40
3.0
 40
4.0
 40
4.0
 40
4.0
 40
5.0
 40
5.0
 40
5.0
 40
6.0
 40
6.0
 40
6.0
 40
7.0
 40
7.0
 40
7.0
 40
8.0
 40
8.0
 40
8.0
 40
9.0
 40
9.0
 40
9.0
 40
9.0
 10
356.4042713909757
 20
179.9492729441036
 30
0.0
 10
356.1589081590887
 20
179.4343209033713
 30
0.0
 10
355.8054217714351
 20
178.9881182332133
 30
0.0
 10
355.4536567602938
 20
178.5420847059292
 30
0.0
 10
354.8020305067424
 20
177.7158309651181
 30
0.0
 10
354.1563112636603
 20
176.8901576485928
 30
0.0
 10
353.4793319002325
 20
176.089073259994
 30
0.0
 10
353.0530719239259
 20
175.5846705692319
 30
0.0
 10
352.6144185923819
 20
175.0900163796048
 30
0.0
 10
352.1701117040184
 20
174.6001401068643
 30
0.0
 10
351.7895402395164
 20
174.1805361452236
 30
0.0
 10
351.4048208766026
 20
173.7644376429774
 30
0.0
 10
350.9904219646499
 20
173.3784973878271
 30
0.0
 10
350.7327247155917
 20
173.1384973801425
 30
0.0
 10
350.4635501687488
 20
172.9101597862693
 30
0.0
 10
350.1753636641873
 20
172.7069512236919
 30
0.0
 10
350.0191855873891
 20
172.5968255863363
 30
0.0
 10
349.8574238411213
 20
172.494080157108
 30
0.0
 10
349.6677396161575
 20
172.44261924138
 30
0.0
 10
349.5722207916706
 20
172.4167051930277
 30
0.0
 10
349.46962137669
 20
172.4037958869378
 30
0.0
 10
349.3797794585461
 20
172.4307836985841
 30
0.0
 10
349.2992207422147
 20
172.4549829087938
 30
0.0
 10
349.2289193130097
 20
172.5112602137409
 30
0.0
 10
349.1606497408509
 20
172.5677691283203
 30
0.0
 10
349.1165274557118
 20
172.6042905589244
 30
0.0
 10
349.073253871704
 20
172.640908732238
 30
0.0
 10
349.0325278470623
 20
172.6792898785927
 30
0.0
  0
SPLINE
  5
A4
330
70
100
AcDbEntity
  8
shade
 62
     6
420
 16711935
370
    25
100
AcDbSpline
210
0.0
220
0.0
230
1.0
 70
     8
 71
     3
 72
    20
 73
    16
 74
     0
 42
0.0000000001
 43
0.0000000001
 40
0.0
 40
0.0
 40
0.0
 40
0.0
 40
1.0
 40
1.0
 40
1.0
 40
2.0
 40
2.0
 40
2.0
 40
3.0
 40
3.0
 40
3.0
 40
4.0
 40
4.0
 40
4.0
 40
5.0
 40
5.0
 40
5.0
 40
5.0
 10
346.0156453980687
 20
168.1593515512832
 30
0.0
 10
346.1432054504621
 20
168.1176328951596
 30
0.0
 10
346.2714805422659
 20
168.0784344599953
 30
0.0
 10
346.4011638274266
 20
168.0441411860976
 30
0.0
 10
346.8487555533938
 20
167.9257806307347
 30
0.0
 10
347.313122119229
 20
167.8658518911684
 30
0.0
 10
347.7773509291854
 20
167.8494334027932
 30
0.0
 10
348.4094290331626
 20
167.8270785493684
 30
0.0
 10
349.041251756803
 20
167.8853856807533
 30
0.0
 10
349.6650412583879
 20
167.9832949712707
 30
0.0
 10
350.4781842177369
 20
168.1109249651023
 30
0.0
 10
351.2776767115962
 20
168.3058489914955
 30
0.0
 10
352.0655298982213
 20
168.5517783604015
 30
0.0
 10
352.572979436411
 20
168.7101793757135
 30
0.0
 10
353.0756003631114
 20
168.889740154053
 30
0.0
 10
353.5509530961097
 20
169.1228600135417
 30
0.0
  0
LINE
  5
A5
330
70
100
AcDbEntity
  8
shade
 62
     6
420
 16711935
370
    25
100
AcDbLine
 10
356.9751649842019
 20
172.2005745640633
 30
0.0
 11
358.2058613039495
 21
169.5786650779469
 31
0.0
  0
LINE
  5
A6
330
70
100
AcDbEntity
  8
shade
 62
     6
420
 16711935
370
    25
100
AcDbLine
 10
358.2058613039495
 20
169.5786650779469
 30
0.0
 11
353.5753523224919
 21
166.5580470903035
 31
0.0
  0
SPLINE
  5
A7
330
70
100
AcDbEntity
  8
shade
 62
     6
420
 16711935
370
    25
100
AcDbSpline
210
0.0
220
0.0
230
1.0
 70
     8
 71
     3
 72
    32
 73
    28
 74
     0
 42
0.0000000001
 43
0.0000000001
 40
0.0
 40
0.0
 40
0.0
 40
0.0
 40
1.0
 40
1.0
 40
1.0
 40
2.0
 40
2.0
 40
2.0
 40
3.0
 40
3.0
 40
3.0
 40
4.0
 40
4.0
 40
4.0
 40
5.0
 40
5.0
 40
5.0
 40
6.0
 40
6.0
 40
6.0
 40
7.0
 40
7.0
 40
7.0
 40
8.0
 40
8.0
 40
8.0
 40
9.0
 40
9.0
 40
9.0
 40
9.0
 10
347.277847174995
 20
162.6300353415759
 30
0.0
 10
347.0891708660964
 20
162.4807150690481
 30
0.0
 10
346.8984133212302
 20
162.3339781597128
 30
0.0
 10
346.704905646654
 20
162.190011128294
 30
0.0
 10
346.3790610601876
 20
161.9475872661899
 30
0.0
 10
346.045418571054
 20
161.7130173021461
 30
0.0
 10
345.6899981928282
 20
161.5198581875343
 30
0.0
 10
345.167709209515
 20
161.2360115547336
 30
0.0
 10
344.5983926210686
 20
161.04158833056
 30
0.0
 10
344.0138902492799
 20
160.899575249681
 30
0.0
 10
343.6044420710701
 20
160.8000940498534
 30
0.0
 10
343.1875420698714
 20
160.7263310564476
 30
0.0
 10
342.7719786720415
 20
160.7413714115096
 30
0.0
 10
342.4302591580365
 20
160.7537391581612
 30
0.0
 10
342.0894434340378
 20
160.8261543210101
 30
0.0
 10
341.7644271621707
 20
160.9527303577122
 30
0.0
 10
341.5049747632225
 20
161.0537728568557
 30
0.0
 10
341.2555904568435
 20
161.1893290016015
 30
0.0
 10
341.0630883774162
 20
161.3810935211175
 30
0.0
 10
340.9191927453397
 20
161.5244378259053
 30
0.0
 10
340.8070805578521
 20
161.6991890544485
 30
0.0
 10
340.6944777802409
 20
161.8725157067273
 30
0.0
 10
340.3221592435046
 20
162.445616361286
 30
0.0
 10
339.9444771866797
 20
163.0031424189323
 30
0.0
 10
339.6219714391988
 20
163.5974600666545
 30
0.0
 10
339.5959236539827
 20
163.6454612528628
 30
0.0
 10
339.5702357998344
 20
163.693702441283
 30
0.0
 10
339.5447127821512
 20
163.7420583814057
 30
0.0
  0
SPLINE
  5
A8
330
70
100
AcDbEntity
  8
shade
 62
     6
420
 16711935
370
    25
100
AcDbSpline
210
0.0
220
0.0
230
1.0
 70
     8
 71
     3
 72
    38
 73
    34
 74
     0
 42
0.0000000001
 43
0.0000000001
 40
0.0
 40
0.0
 40
0.0
 40
0.0
 40
1.0
 40
1.0
 40
1.0
 40
2.0
 40
2.0
 40
2.0
 40
3.0
 40
3.0
 40
3.0
 40
4.0
 40
4.0
 40
4.0
 40
5.0
 40
5.0
 40
5.0
 40
6.0
 40
6.0
 40
6.0
 40
7.0
 40
7.0
 40
7.0
 40
8.0
 40
8.0
 40
8.0
 40
9.0
 40
9.0
 40
9.0
 40
10.0
 40
10.0
 40
10.0
 40
11.0
 40
11.0
 40
11.0
 40
11.0
 10
341.0302392024817
 20
161.4149197112219
 30
0.0
 10
340.988998953206
 20
161.5305741421713
 30
0.0
 10
341.0594789151478
 20
161.6728475781583
 30
0.0
 10
341.1499753548704
 20
161.7932614824826
 30
0.0
 10
341.4199746931128
 20
162.1525206376759
 30
0.0
 10
341.8681503866297
 20
162.3171975230855
 30
0.0
 10
342.2930428411512
 20
162.4905948626941
 30
0.0
 10
342.7412748120498
 20
162.6735169891152
 30
0.0
 10
343.1635953745859
 20
162.8661439186305
 30
0.0
 10
343.5444009915309
 20
163.1458479329256
 30
0.0
 10
343.682442781585
 20
163.2472404573539
 30
0.0
 10
343.8150292677706
 20
163.3600754141573
 30
0.0
 10
343.8864128474115
 20
163.5204254189057
 30
0.0
 10
343.9420354341941
 20
163.6453712691917
 30
0.0
 10
343.9604978445792
 20
163.7991665265222
 30
0.0
 10
343.9123145723027
 20
163.9171840902077
 30
0.0
 10
343.8681391719502
 20
164.0253849839641
 30
0.0
 10
343.7679441169446
 20
164.103512601219
 30
0.0
 10
343.6705643948596
 20
164.1816898132192
 30
0.0
 10
343.423613041425
 20
164.3799443152638
 30
0.0
 10
343.1947673962583
 20
164.5785177664396
 30
0.0
 10
342.9301687806333
 20
164.7237835347551
 30
0.0
 10
342.5877801731784
 20
164.9117563403074
 30
0.0
 10
342.1855262046748
 20
165.0104698859942
 30
0.0
 10
341.7931175217096
 20
165.1085192107576
 30
0.0
 10
341.5716985409093
 20
165.1638441372944
 30
0.0
 10
341.3534141504702
 20
165.2189575859115
 30
0.0
 10
341.1313414394627
 20
165.2527949807794
 30
0.0
 10
340.7797869105852
 20
165.3063616227919
 30
0.0
 10
340.4187385456629
 20
165.3066087628353
 30
0.0
 10
340.060467967298
 20
165.3068984596255
 30
0.0
 10
339.8881573091288
 20
165.307037789639
 30
0.0
 10
339.7164891919896
 20
165.307186963625
 30
0.0
 10
339.5447127821512
 20
165.3070691465815
 30
0.0
  0
SPLINE
  5
A9
330
70
100
AcDbEntity
  8
shade
 62
     6
420
 16711935
370
    25
100
AcDbSpline
210
0.0
220
0.0
230
1.0
 70
     8
 71
     3
 72
    14
 73
    10
 74
     0
 42
0.0000000001
 43
0.0000000001
 40
0.0
 40
0.0
 40
0.0
 40
0.0
 40
1.0
 40
1.0
 40
1.0
 40
2.0
 40
2.0
 40
2.0
 40
3.0
 40
3.0
 40
3.0
 40
3.0
 10
343.9377642817352
 20
163.7152877641695
 30
0.0
 10
343.9375756118336
 20
164.1276926220028
 30
0.0
 10
343.9252514407499
 20
164.6187371615247
 30
0.0
 10
343.9172142711172
 20
165.1097806966803
 30
0.0
 10
343.901533524423
 20
166.0678206090141
 30
0.0
 10
343.9021713004212
 20
167.025856698214
 30
0.0
 10
343.8784671103769
 20
167.9834589922121
 30
0.0
 10
343.8392948169964
 20
169.5659420018565
 30
0.0
 10
343.7336467487266
 20
171.1472403548399
 30
0.0
 10
343.7087624382073
 20
172.7299686494958
 30
0.0
  0
SPLINE
  5
AA
330
70
100
AcDbEntity
  8
shade
 62
     6
420
 16711935
370
    25
100
AcDbSpline
210
0.0
220
0.0
230
1.0
 70
     8
 71
     3
 72
    14
 73
    10
 74
     0
 42
0.0000000001
 43
0.0000000001
 40
0.0
 40
0.0
 40
0.0
 40
0.0
 40
1.0
 40
1.0
 40
1.0
 40
2.0
 40
2.0
 40
2.0
 40
3.0
 40
3.0
 40
3.0
 40
3.0
 10
341.7672086639531
 20
236.9641363308746
 30
0.0
 10
341.7672086639531
 20
236.9641363308746
 30
0.0
 10
337.3222169003502
 20
236.9641363308746
 30
0.0
 10
337.3222169003502
 20
236.9641363308746
 30
0.0
 10
337.3222169003499
 20
235.2592676449476
 30
0.0
 10
338.0607931205044
 20
233.6380027714358
 30
0.0
 10
339.3471575926581
 20
232.5191445672676
 30
0.0
 10
339.3471575926581
 20
232.5191445672676
 30
0.0
 10
339.7422679716455
 20
232.5191445672676
 30
0.0
 10
339.7422679716455
 20
232.5191445672676
 30
0.0
  0
SPLINE
  5
AB
330
70
100
AcDbEntity
  8
shade
 62
     6
420
 16711935
370
    25
100
AcDbSpline
210
0.0
220
0.0
230
1.0
 70
     8
 71
     3
 72
     8
 73
     4
 74
     0
 42
0.0000000001
 43
0.0000000001
 40
0.0
 40
0.0
 40
0.0
 40
0.0
 40
1.0
 40
1.0
 40
1.0
 40
1.0
 10
341.7672086639531
 20
236.9641363308746
 30
0.0
 10
341.7672086639537
 20
235.2592676449476
 30
0.0
 10
341.0286324437992
 20
233.6380027714358
 30
0.0
 10
339.7422679716455
 20
232.5191445672676
 30
0.0
  0
LINE
  5
AC
330
70
100
AcDbEntity
  8
shade
 62
     6
420
 16711935
370
    25
100
AcDbLine
 10
339.6759088996171
 20
199.1940792403883
 30
0.0
 11
339.6759088996171
 21
232.5191445672676
 31
0.0
  0
LWPOLYLINE
  5
AE
330
70
100
AcDbEntity
  8
Defpoints
 62
    18
420
        0
370
    25
100
AcDbPolyline
 90
        4
 70
     1
 43
0.0
 10
203.9696969187045
 20
0.0
 10
473.3636362452955
 20
0.0
 10
473.3636362452955
 20
380.9999999047501
 10
203.9696969187045
 20
380.9999999047501
  0
ENDSEC
  0
SECTION
  2
OBJECTS
  0
DICTIONARY
  5
C
330
0
100
AcDbDictionary
281
     1
  3
ACAD_COLOR
350
63
  3
ACAD_DETAILVIEWSTYLE
350
6A
  3
ACAD_GROUP
350
D
  3
ACAD_LAYOUT
350
62
  3
ACAD_MATERIAL
350
10
  3
ACAD_MLEADERSTYLE
350
66
  3
ACAD_MLINESTYLE
350
5F
  3
ACAD_PLOTSETTINGS
350
61
  3
ACAD_PLOTSTYLENAME
350
E
  3
ACAD_SCALELIST
350
42
  3
ACAD_SECTIONVIEWSTYLE
350
68
  3
ACAD_TABLESTYLE
350
64
  3
ACAD_VISUALSTYLE
350
29
  3
ACDB_RECOMPOSE_DATA
350
B7
  3
AcDbVariableDictionary
350
AF
  0
DICTIONARY
  5
63
102
{ACAD_REACTORS
330
C
102
}
330
C
100
AcDbDictionary
281
     1
  0
DICTIONARY
  5
6A
102
{ACAD_REACTORS
330
C
102
}
330
C
100
AcDbDictionary
281
     1
  3
Imperial24
350
6B
  0
DICTIONARY
  5
D
102
{ACAD_REACTORS
330
C
102
}
330
C
100
AcDbDictionary
281
     1
  0
DICTIONARY
  5
62
102
{ACAD_REACTORS
330
C
102
}
330
C
100
AcDbDictionary
281
     1
  3
Layout1
350
6F
  3
Layout2
350
77
  3
Model
350
73
  0
DICTIONARY
  5
10
102
{ACAD_REACTORS
330
C
102
}
330
C
100
AcDbDictionary
281
     1
  3
ByBlock
350
19
  3
ByLayer
350
11
  3
Global
350
21
  0
DICTIONARY
  5
66
102
{ACAD_REACTORS
330
C
102
}
330
C
100
AcDbDictionary
281
     1
  3
Standard
350
67
  0
DICTIONARY
  5
5F
102
{ACAD_REACTORS
330
C
102
}
330
C
100
AcDbDictionary
281
     1
  3
Standard
350
60
  0
DICTIONARY
  5
61
102
{ACAD_REACTORS
330
C
102
}
330
C
100
AcDbDictionary
281
     1
  0
ACDBDICTIONARYWDFLT
  5
E
102
{ACAD_REACTORS
330
C
102
}
330
C
100
AcDbDictionary
281
     1
  3
Normal
350
F
100
AcDbDictionaryWithDefault
340
F
  0
DICTIONARY
  5
42
102
{ACAD_REACTORS
330
C
102
}
330
C
100
AcDbDictionary
281
     1
  3
A0
350
43
  3
A1
350
44
  3
A2
350
45
  3
A3
350
46
  3
A4
350
47
  3
A5
350
48
  3
A6
350
49
  3
A7
350
4A
  3
A8
350
4B
  3
A9
350
4C
  3
B0
350
4D
  3
B1
350
4E
  3
B2
350
4F
  3
B3
350
50
  3
B4
350
51
  3
B5
350
52
  3
B6
350
53
  0
DICTIONARY
  5
68
102
{ACAD_REACTORS
330
C
102
}
330
C
100
AcDbDictionary
281
     1
  3
Imperial24
350
69
  0
DICTIONARY
  5
64
102
{ACAD_REACTORS
330
C
102
}
330
C
100
AcDbDictionary
281
     1
  3
Standard
350
65
  0
DICTIONARY
  5
29
102
{ACAD_REACTORS
330
C
102
}
330
C
100
AcDbDictionary
281
     1
  3
2dWireframe
350
2F
  3
Basic
350
2E
  3
Brighten
350
35
  3
ColorChange
350
39
  3
Conceptual
350
32
  3
Dim
350
34
  3
EdgeColorOff
350
41
  3
Facepattern
350
38
  3
Flat
350
2A
  3
FlatWithEdges
350
2B
  3
Gouraud
350
2C
  3
GouraudWithEdges
350
2D
  3
Hidden
350
31
  3
JitterOff
350
3F
  3
Linepattern
350
37
  3
OverhangOff
350
40
  3
Realistic
350
33
  3
Shaded
350
3E
  3
Shaded with edges
350
3D
  3
Shades of Gray
350
3A
  3
Sketchy
350
3B
  3
Thicken
350
36
  3
Wireframe
350
30
  3
X-Ray
350
3C
  0
XRECORD
  5
B7
102
{ACAD_REACTORS
330
C
102
}
330
C
100
AcDbXrecord
280
     1
 90
        1
330
65
  0
DICTIONARY
  5
AF
102
{ACAD_REACTORS
330
C
102
}
330
C
100
AcDbDictionary
281
     1
  3
CANNOSCALE
350
B4
  3
CMLEADERSTYLE
350
B1
  3
CTABLESTYLE
350
B0
  3
CVIEWDETAILSTYLE
350
B2
  3
CVIEWSECTIONSTYLE
350
B3
  0
ACDBDETAILVIEWSTYLE
  5
6B
102
{ACAD_REACTORS
330
6A
102
}
330
6A
100
AcDbModelDocViewStyle
 70
     0
  3
Imperial24
290
     1
300
Imperial24
 90
        0
100
AcDbDetailViewStyle
 70
     0
 71
     0
 90
        3
 71
     1
340
55
 62
   256
 40
0.24
340
0
 62
   256
 40
0.24
300

 40
0.36
280
     3
 71
     2
340
5D
 90
       25
 62
   256
 71
     3
340
55
 62
   256
 40
0.24
 90
        1
 40
0.75
 90
        1
300
%<\AcVar ViewType \f "%tc1">% %<\AcVar ViewDetailId>%\PSCALE %<\AcVar ViewScale \f "%sn">%
 71
     4
340
5D
 90
       25
 62
   256
340
5D
 90
       25
 62
   256
280
     0
  0
LAYOUT
  5
6F
102
{ACAD_REACTORS
330
62
102
}
330
62
100
AcDbPlotSettings
  1

  2

  4

  6

 40
0.0
 41
0.0
 42
0.0
 43
0.0
 44
0.0
 45
0.0
 46
0.0
 47
0.0
 48
0.0
 49
0.0
140
0.0
141
0.0
142
1.0
143
1.0
 70
   688
 72
     0
 73
     0
 74
     5
  7

 75
    16
147
1.0
 76
     0
 77
     2
 78
   300
148
0.0
149
0.0
100
AcDbLayout
  1
Layout1
 70
     1
 71
     1
 10
0.0
 20
0.0
 11
12.0
 21
9.0
 12
0.0
 22
0.0
 32
0.0
 14
0.0
 24
0.0
 34
0.0
 15
0.0
 25
0.0
 35
0.0
146
0.0
 13
0.0
 23
0.0
 33
0.0
 16
1.0
 26
0.0
 36
0.0
 17
0.0
 27
1.0
 37
0.0
 76
     0
330
6C
  0
LAYOUT
  5
77
102
{ACAD_REACTORS
330
62
102
}
330
62
100
AcDbPlotSettings
  1

  2

  4

  6

 40
0.0
 41
0.0
 42
0.0
 43
0.0
 44
0.0
 45
0.0
 46
0.0
 47
0.0
 48
0.0
 49
0.0
140
0.0
141
0.0
142
1.0
143
1.0
 70
   688
 72
     0
 73
     0
 74
     5
  7

 75
    16
147
1.0
 76
     0
 77
     2
 78
   300
148
0.0
149
0.0
100
AcDbLayout
  1
Layout2
 70
     1
 71
     2
 10
0.0
 20
0.0
 11
12.0
 21
9.0
 12
0.0
 22
0.0
 32
0.0
 14
0.0
 24
0.0
 34
0.0
 15
0.0
 25
0.0
 35
0.0
146
0.0
 13
0.0
 23
0.0
 33
0.0
 16
1.0
 26
0.0
 36
0.0
 17
0.0
 27
1.0
 37
0.0
 76
     0
330
74
  0
LAYOUT
  5
73
102
{ACAD_REACTORS
330
62
102
}
330
62
100
AcDbPlotSettings
  1

  2

  4

  6

 40
0.0
 41
0.0
 42
0.0
 43
0.0
 44
0.0
 45
0.0
 46
0.0
 47
0.0
 48
0.0
 49
0.0
140
0.0
141
0.0
142
1.0
143
1.0
 70
  1712
 72
     0
 73
     0
 74
     0
  7

 75
     0
147
1.0
 76
     0
 77
     2
 78
   300
148
0.0
149
0.0
100
AcDbLayout
  1
Model
 70
     1
 71
     0
 10
0.0
 20
0.0
 11
12.0
 21
9.0
 12
0.0
 22
0.0
 32
0.0
 14
0.0
 24
0.0
 34
0.0
 15
0.0
 25
0.0
 35
0.0
146
0.0
 13
0.0
 23
0.0
 33
0.0
 16
1.0
 26
0.0
 36
0.0
 17
0.0
 27
1.0
 37
0.0
 76
     0
330
70
  0
MATERIAL
  5
19
102
{ACAD_XDICTIONARY
360
1A
102
}
102
{ACAD_REACTORS
330
10
102
}
330
10
100
AcDbMaterial
  1
ByBlock
 72
     0
 43
0.0208333333333333
 43
0.0
 43
0.0
 43
0.0
 43
0.0
 43
0.0208333333333333
 43
0.0
 43
0.0
 43
0.0
 43
0.0
 43
1.0
 43
0.0
 43
0.0
 43
0.0
 43
0.0
 43
1.0
 77
     0
 47
0.0208333333333333
 47
0.0
 47
0.0
 47
0.0
 47
0.0
 47
0.0208333333333333
 47
0.0
 47
0.0
 47
0.0
 47
0.0
 47
1.0
 47
0.0
 47
0.0
 47
0.0
 47
0.0
 47
1.0
171
     0
 49
0.0208333333333333
 49
0.0
 49
0.0
 49
0.0
 49
0.0
 49
0.0208333333333333
 49
0.0
 49
0.0
 49
0.0
 49
0.0
 49
1.0
 49
0.0
 49
0.0
 49
0.0
 49
0.0
 49
1.0
175
     0
142
0.0208333333333333
142
0.0
142
0.0
142
0.0
142
0.0
142
0.0208333333333333
142
0.0
142
0.0
142
0.0
142
0.0
142
1.0
142
0.0
142
0.0
142
0.0
142
0.0
142
1.0
179
     0
144
0.0208333333333333
144
0.0
144
0.0
144
0.0
144
0.0
144
0.0208333333333333
144
0.0
144
0.0
144
0.0
144
0.0
144
1.0
144
0.0
144
0.0
144
0.0
144
0.0
144
1.0
147
0.0208333333333333
147
0.0
147
0.0
147
0.0
147
0.0
147
0.0208333333333333
147
0.0
147
0.0
147
0.0
147
0.0
147
1.0
147
0.0
147
0.0
147
0.0
147
0.0
147
1.0
  0
MATERIAL
  5
11
102
{ACAD_XDICTIONARY
360
12
102
}
102
{ACAD_REACTORS
330
10
102
}
330
10
100
AcDbMaterial
  1
ByLayer
 72
     0
 43
0.0208333333333333
 43
0.0
 43
0.0
 43
0.0
 43
0.0
 43
0.0208333333333333
 43
0.0
 43
0.0
 43
0.0
 43
0.0
 43
1.0
 43
0.0
 43
0.0
 43
0.0
 43
0.0
 43
1.0
 77
     0
 47
0.0208333333333333
 47
0.0
 47
0.0
 47
0.0
 47
0.0
 47
0.0208333333333333
 47
0.0
 47
0.0
 47
0.0
 47
0.0
 47
1.0
 47
0.0
 47
0.0
 47
0.0
 47
0.0
 47
1.0
171
     0
 49
0.0208333333333333
 49
0.0
 49
0.0
 49
0.0
 49
0.0
 49
0.0208333333333333
 49
0.0
 49
0.0
 49
0.0
 49
0.0
 49
1.0
 49
0.0
 49
0.0
 49
0.0
 49
0.0
 49
1.0
175
     0
142
0.0208333333333333
142
0.0
142
0.0
142
0.0
142
0.0
142
0.0208333333333333
142
0.0
142
0.0
142
0.0
142
0.0
142
1.0
142
0.0
142
0.0
142
0.0
142
0.0
142
1.0
179
     0
144
0.0208333333333333
144
0.0
144
0.0
144
0.0
144
0.0
144
0.0208333333333333
144
0.0
144
0.0
144
0.0
144
0.0
144
1.0
144
0.0
144
0.0
144
0.0
144
0.0
144
1.0
147
0.0208333333333333
147
0.0
147
0.0
147
0.0
147
0.0
147
0.0208333333333333
147
0.0
147
0.0
147
0.0
147
0.0
147
1.0
147
0.0
147
0.0
147
0.0
147
0.0
147
1.0
  0
MATERIAL
  5
21
102
{ACAD_XDICTIONARY
360
22
102
}
102
{ACAD_REACTORS
330
10
102
}
330
10
100
AcDbMaterial
  1
Global
 72
     0
 43
0.0208333333333333
 43
0.0
 43
0.0
 43
0.0
 43
0.0
 43
0.0208333333333333
 43
0.0
 43
0.0
 43
0.0
 43
0.0
 43
1.0
 43
0.0
 43
0.0
 43
0.0
 43
0.0
 43
1.0
 77
     0
 47
0.0208333333333333
 47
0.0
 47
0.0
 47
0.0
 47
0.0
 47
0.0208333333333333
 47
0.0
 47
0.0
 47
0.0
 47
0.0
 47
1.0
 47
0.0
 47
0.0
 47
0.0
 47
0.0
 47
1.0
171
     0
 49
0.0208333333333333
 49
0.0
 49
0.0
 49
0.0
 49
0.0
 49
0.0208333333333333
 49
0.0
 49
0.0
 49
0.0
 49
0.0
 49
1.0
 49
0.0
 49
0.0
 49
0.0
 49
0.0
 49
1.0
175
     0
142
0.0208333333333333
142
0.0
142
0.0
142
0.0
142
0.0
142
0.0208333333333333
142
0.0
142
0.0
142
0.0
142
0.0
142
1.0
142
0.0
142
0.0
142
0.0
142
0.0
142
1.0
179
     0
144
0.0208333333333333
144
0.0
144
0.0
144
0.0
144
0.0
144
0.0208333333333333
144
0.0
144
0.0
144
0.0
144
0.0
144
1.0
144
0.0
144
0.0
144
0.0
144
0.0
144
1.0
147
0.0208333333333333
147
0.0
147
0.0
147
0.0
147
0.0
147
0.0208333333333333
147
0.0
147
0.0
147
0.0
147
0.0
147
1.0
147
0.0
147
0.0
147
0.0
147
0.0
147
1.0
  0
MLEADERSTYLE
  5
67
102
{ACAD_REACTORS
330
66
102
}
330
66
100
AcDbMLeaderStyle
179
     2
170
     2
171
     1
172
     0
 90
        2
 40
0.0
 41
0.0
173
     1
 91
-1056964608
340
5B
 92
       -2
290
     1
 42
0.09
291
     1
 43
0.36
  3
Standard
 44
0.18
300

342
55
174
     1
178
     6
175
     1
176
     0
 93
-1056964608
 45
0.18
292
     0
297
     0
 46
0.18
 94
-1056964608
 47
1.0
 49
1.0
140
1.0
293
     1
141
0.0
294
     1
177
     0
142
1.0
295
     1
296
     0
143
0.125
271
     0
272
     9
273
     9
298
     1
  0
MLINESTYLE
  5
60
102
{ACAD_REACTORS
330
5F
102
}
330
5F
100
AcDbMlineStyle
  2
STANDARD
 70
     0
  3

 62
   256
 51
90.0
 52
90.0
 71
     2
 49
0.5
 62
   256
  6
BYLAYER
 49
-0.5
 62
   256
  6
BYLAYER
  0
ACDBPLACEHOLDER
  5
F
102
{ACAD_REACTORS
330
E
102
}
330
E
  0
SCALE
  5
43
102
{ACAD_REACTORS
330
42
102
}
330
42
100
AcDbScale
 70
     0
300
1:1
140
1.0
141
1.0
290
     1
  0
SCALE
  5
44
102
{ACAD_REACTORS
330
42
102
}
330
42
100
AcDbScale
 70
     0
300
1/128" = 1'-0"
140
0.0078125
141
12.0
290
     0
  0
SCALE
  5
45
102
{ACAD_REACTORS
330
42
102
}
330
42
100
AcDbScale
 70
     0
300
1/64" = 1'-0"
140
0.015625
141
12.0
290
     0
  0
SCALE
  5
46
102
{ACAD_REACTORS
330
42
102
}
330
42
100
AcDbScale
 70
     0
300
1/32" = 1'-0"
140
0.03125
141
12.0
290
     0
  0
SCALE
  5
47
102
{ACAD_REACTORS
330
42
102
}
330
42
100
AcDbScale
 70
     0
300
1/16" = 1'-0"
140
0.0625
141
12.0
290
     0
  0
SCALE
  5
48
102
{ACAD_REACTORS
330
42
102
}
330
42
100
AcDbScale
 70
     0
300
3/32" = 1'-0"
140
0.09375
141
12.0
290
     0
  0
SCALE
  5
49
102
{ACAD_REACTORS
330
42
102
}
330
42
100
AcDbScale
 70
     0
300
1/8" = 1'-0"
140
0.125
141
12.0
290
     0
  0
SCALE
  5
4A
102
{ACAD_REACTORS
330
42
102
}
330
42
100
AcDbScale
 70
     0
300
3/16" = 1'-0"
140
0.1875
141
12.0
290
     0
  0
SCALE
  5
4B
102
{ACAD_REACTORS
330
42
102
}
330
42
100
AcDbScale
 70
     0
300
1/4" = 1'-0"
140
0.25
141
12.0
290
     0
  0
SCALE
  5
4C
102
{ACAD_REACTORS
330
42
102
}
330
42
100
AcDbScale
 70
     0
300
3/8" = 1'-0"
140
0.375
141
12.0
290
     0
  0
SCALE
  5
4D
102
{ACAD_REACTORS
330
42
102
}
330
42
100
AcDbScale
 70
     0
300
1/2" = 1'-0"
140
0.5
141
12.0
290
     0
  0
SCALE
  5
4E
102
{ACAD_REACTORS
330
42
102
}
330
42
100
AcDbScale
 70
     0
300
3/4" = 1'-0"
140
0.75
141
12.0
290
     0
  0
SCALE
  5
4F
102
{ACAD_REACTORS
330
42
102
}
330
42
100
AcDbScale
 70
     0
300
1" = 1'-0"
140
1.0
141
12.0
290
     0
  0
SCALE
  5
50
102
{ACAD_REACTORS
330
42
102
}
330
42
100
AcDbScale
 70
     0
300
1-1/2" = 1'-0"
140
1.5
141
12.0
290
     0
  0
SCALE
  5
51
102
{ACAD_REACTORS
330
42
102
}
330
42
100
AcDbScale
 70
     0
300
3" = 1'-0"
140
3.0
141
12.0
290
     0
  0
SCALE
  5
52
102
{ACAD_REACTORS
330
42
102
}
330
42
100
AcDbScale
 70
     0
300
6" = 1'-0"
140
6.0
141
12.0
290
     0
  0
SCALE
  5
53
102
{ACAD_REACTORS
330
42
102
}
330
42
100
AcDbScale
 70
     0
300
1'-0" = 1'-0"
140
12.0
141
12.0
290
     0
  0
ACDBSECTIONVIEWSTYLE
  5
69
102
{ACAD_REACTORS
330
68
102
}
330
68
100
AcDbModelDocViewStyle
 70
     0
  3
Imperial24
290
     1
300
Imperial24
 90
        0
100
AcDbSectionViewStyle
 70
     0
 71
     0
 90
       78
 71
     1
340
55
 62
   256
 40
0.24
340
0
340
0
 62
   256
 40
0.24
300
I, O, Q, S, X, Z
 40
0.48
 90
        3
 40
0.18
 90
        1
 71
     2
340
5D
 90
       25
 62
   256
340
5D
 90
       50
 62
   256
 40
0.24
 40
0.0
 40
0.24
 71
     3
340
55
 62
   256
 40
0.24
 90
        1
 40
0.75
 90
        1
300
%<\AcVar ViewType \f "%tc1">% %<\AcVar ViewSectionStartId>%-%<\AcVar ViewSectionEndId>%\PSCALE %<\AcVar ViewScale \f "%sn">%
 71
     4
 62
   256
 62
   257
300
ANSI31
 40
1.0
 90
        0
290
     0
290
     0
 90
        6
 40
0.0
 40
1.570796326794896
 40
0.2617993877991494
 40
1.308996938995747
 40
-0.2617993877991494
 40
1.832595714594046
  0
TABLESTYLE
  5
65
102
{ACAD_XDICTIONARY
360
B5
102
}
102
{ACAD_REACTORS
330
64
102
}
330
64
100
AcDbTableStyle
280
     0
  3
Standard
 70
     0
 71
     0
 40
0.06
 41
0.06
280
     0
281
     0
  7
Standard
140
0.18
170
     2
 62
     0
 63
     7
283
     0
 90
      512
 91
        0
  1

274
    -2
284
     1
 64
     0
275
    -2
285
     1
 65
     0
276
    -2
286
     1
 66
     0
277
    -2
287
     1
 67
     0
278
    -2
288
     1
 68
     0
279
    -2
289
     1
 69
     0
  7
Standard
140
0.25
170
     5
 62
     0
 63
     7
283
     0
 90
      512
 91
        0
  1

274
    -2
284
     1
 64
     0
275
    -2
285
     1
 65
     0
276
    -2
286
     1
 66
     0
277
    -2
287
     1
 67
     0
278
    -2
288
     1
 68
     0
279
    -2
289
     1
 69
     0
  7
Standard
140
0.18
170
     5
 62
     0
 63
     7
283
     0
 90
      512
 91
        0
  1

274
    -2
284
     1
 64
     0
275
    -2
285
     1
 65
     0
276
    -2
286
     1
 66
     0
277
    -2
287
     1
 67
     0
278
    -2
288
     1
 68
     0
279
    -2
289
     1
 69
     0
  0
VISUALSTYLE
  5
2F
102
{ACAD_REACTORS
330
29
102
}
330
29
100
AcDbVisualStyle
  2
2dWireframe
 70
     4
177
     3
291
     0
 70
    58
 90
        0
176
     1
 90
        2
176
     1
 90
        0
176
     1
 90
        0
176
     1
 40
0.6
176
     1
 40
30.0
176
     1
 62
     7
420
 16777215
176
     1
 90
        1
176
     1
 90
        4
176
     1
 62
     7
176
     1
 62
   257
176
     1
 90
        1
176
     1
 90
        1
176
     1
 40
1.0
176
     1
 90
        0
176
     1
 62
   257
176
     1
 40
1.0
176
     1
 90
        1
176
     1
 90
        6
176
     1
 90
        2
176
     1
 62
     7
176
     1
 90
        5
176
     1
 90
        0
176
     1
 90
        0
176
     1
290
     0
176
     1
 90
        1
176
     1
 40
0.0
176
     1
 90
        0
176
     1
290
     1
176
     1
290
     1
176
     1
290
     0
176
     1
290
     0
176
     1
290
     0
176
     1
290
     0
176
     1
290
     0
176
     1
290
     0
176
     1
290
     0
176
     1
 90
       50
176
     1
 40
0.0
176
     1
 40
1.0
176
     1
 90
        0
176
     1
 62
    18
420
        0
176
     1
 90
       50
176
     1
 90
        3
176
     1
 62
     5
420
      255
176
     1
290
     0
176
     1
 90
       50
176
     1
 90
       50
176
     1
 90
       50
176
     1
290
     0
176
     1
 90
       50
176
     1
 62
   256
176
     0
 40
1.0
176
     0
 90
        2
176
     1
  1
strokes_ogs.tif
176
     1
290
     0
176
     1
 40
1.0
176
     1
 40
1.0
176
     1
  0
VISUALSTYLE
  5
2E
102
{ACAD_REACTORS
330
29
102
}
330
29
100
AcDbVisualStyle
  2
Basic
 70
     7
177
     3
291
     1
 70
    58
 90
        1
176
     1
 90
        0
176
     1
 90
        1
176
     1
 90
        0
176
     1
 40
0.6
176
     1
 40
30.0
176
     1
 62
     7
420
 16777215
176
     1
 90
        0
176
     1
 90
        4
176
     1
 62
     7
176
     1
 62
   257
176
     1
 90
        1
176
     1
 90
        1
176
     1
 40
1.0
176
     1
 90
        8
176
     1
 62
     7
176
     1
 40
1.0
176
     1
 90
        1
176
     1
 90
        6
176
     1
 90
        2
176
     1
 62
     7
176
     1
 90
        5
176
     1
 90
        0
176
     1
 90
        0
176
     1
290
     0
176
     1
 90
        1
176
     1
 40
0.0
176
     1
 90
        0
176
     1
290
     0
176
     1
290
     1
176
     1
290
     1
176
     1
290
     0
176
     1
290
     0
176
     1
290
     0
176
     1
290
     0
176
     1
290
     0
176
     1
290
     0
176
     1
 90
       50
176
     1
 40
0.0
176
     1
 40
1.0
176
     1
 90
        0
176
     1
 62
    18
420
        0
176
     1
 90
       50
176
     1
 90
        3
176
     1
 62
     5
420
      255
176
     1
290
     0
176
     1
 90
       50
176
     1
 90
       50
176
     1
 90
       50
176
     1
290
     0
176
     1
 90
       50
176
     1
 62
   256
176
     0
 40
1.0
176
     0
 90
        2
176
     1
  1
strokes_ogs.tif
176
     1
290
     0
176
     1
 40
1.0
176
     1
 40
1.0
176
     1
  0
VISUALSTYLE
  5
35
102
{ACAD_REACTORS
330
29
102
}
330
29
100
AcDbVisualStyle
  2
Brighten
 70
    12
177
     3
291
     1
 70
    58
 90
        2
176
     1
 90
        2
176
     1
 90
        0
176
     1
 90
        0
176
     1
 40
0.6
176
     1
 40
30.0
176
     1
 62
     7
420
 16777215
176
     1
 90
        1
176
     1
 90
        4
176
     1
 62
     7
176
     1
 62
   257
176
     1
 90
        1
176
     1
 90
        1
176
     1
 40
1.0
176
     1
 90
        8
176
     1
 62
     7
176
     1
 40
1.0
176
     1
 90
        1
176
     1
 90
        6
176
     1
 90
        2
176
     1
 62
     7
176
     1
 90
        5
176
     1
 90
        0
176
     1
 90
        0
176
     1
290
     0
176
     1
 90
        1
176
     1
 40
50.0
176
     1
 90
        0
176
     1
290
     0
176
     1
290
     1
176
     1
290
     1
176
     1
290
     0
176
     1
290
     0
176
     1
290
     0
176
     1
290
     0
176
     1
290
     0
176
     1
290
     0
176
     1
 90
       50
176
     1
 40
0.0
176
     1
 40
1.0
176
     1
 90
        0
176
     1
 62
    18
420
        0
176
     1
 90
       50
176
     1
 90
        3
176
     1
 62
     5
420
      255
176
     1
290
     0
176
     1
 90
       50
176
     1
 90
       50
176
     1
 90
       50
176
     1
290
     0
176
     1
 90
       50
176
     1
 62
   256
176
     0
 40
1.0
176
     0
 90
        2
176
     1
  1
strokes_ogs.tif
176
     1
290
     0
176
     1
 40
1.0
176
     1
 40
1.0
176
     1
  0
VISUALSTYLE
  5
39
102
{ACAD_REACTORS
330
29
102
}
330
29
100
AcDbVisualStyle
  2
ColorChange
 70
    16
177
     3
291
     1
 70
    58
 90
        2
176
     1
 90
        2
176
     1
 90
        3
176
     1
 90
        0
176
     1
 40
0.6
176
     1
 40
30.0
176
     1
 62
     8
420
  8421504
176
     1
 90
        1
176
     1
 90
        4
176
     1
 62
     7
176
     1
 62
   257
176
     1
 90
        1
176
     1
 90
        1
176
     1
 40
1.0
176
     1
 90
        8
176
     1
 62
     8
420
  8421504
176
     1
 40
1.0
176
     1
 90
        1
176
     1
 90
        6
176
     1
 90
        2
176
     1
 62
     7
176
     1
 90
        5
176
     1
 90
        0
176
     1
 90
        0
176
     1
290
     0
176
     1
 90
        1
176
     1
 40
0.0
176
     1
 90
        0
176
     1
290
     0
176
     1
290
     1
176
     1
290
     1
176
     1
290
     0
176
     1
290
     0
176
     1
290
     0
176
     1
290
     0
176
     1
290
     0
176
     1
290
     0
176
     1
 90
       50
176
     1
 40
0.0
176
     1
 40
1.0
176
     1
 90
        0
176
     1
 62
    18
420
        0
176
     1
 90
       50
176
     1
 90
        3
176
     1
 62
     5
420
      255
176
     1
290
     0
176
     1
 90
       50
176
     1
 90
       50
176
     1
 90
       50
176
     1
290
     0
176
     1
 90
       50
176
     1
 62
   256
176
     0
 40
1.0
176
     0
 90
        2
176
     1
  1
strokes_ogs.tif
176
     1
290
     0
176
     1
 40
1.0
176
     1
 40
1.0
176
     1
  0
VISUALSTYLE
  5
32
102
{ACAD_REACTORS
330
29
102
}
330
29
100
AcDbVisualStyle
  2
Conceptual
 70
     9
177
     3
291
     0
 70
    58
 90
        3
176
     1
 90
        2
176
     1
 90
        0
176
     1
 90
        0
176
     1
 40
0.6
176
     1
 40
30.0
176
     1
 62
     7
420
 16777215
176
     1
 90
        2
176
     1
 90
        2
176
     1
 62
     7
176
     1
 62
   257
176
     1
 90
        1
176
     1
 90
        1
176
     1
 40
179.0
176
     1
 90
        8
176
     1
 62
     7
176
     1
 40
1.0
176
     1
 90
        1
176
     1
 90
        6
176
     1
 90
        2
176
     1
 62
     7
176
     1
 90
        3
176
     1
 90
        0
176
     1
 90
        0
176
     1
290
     0
176
     1
 90
        1
176
     1
 40
0.0
176
     1
 90
        0
176
     1
290
     0
176
     1
290
     1
176
     1
290
     1
176
     1
290
     0
176
     1
290
     0
176
     1
290
     0
176
     1
290
     0
176
     1
290
     0
176
     1
290
     0
176
     1
 90
       50
176
     1
 40
0.0
176
     1
 40
1.0
176
     1
 90
        0
176
     1
 62
    18
420
        0
176
     1
 90
       50
176
     1
 90
        3
176
     1
 62
     5
420
      255
176
     1
290
     0
176
     1
 90
       50
176
     1
 90
       50
176
     1
 90
       50
176
     1
290
     0
176
     1
 90
       50
176
     1
 62
   256
176
     0
 40
1.0
176
     0
 90
        2
176
     1
  1
strokes_ogs.tif
176
     1
290
     0
176
     1
 40
1.0
176
     1
 40
1.0
176
     1
  0
VISUALSTYLE
  5
34
102
{ACAD_REACTORS
330
29
102
}
330
29
100
AcDbVisualStyle
  2
Dim
 70
    11
177
     3
291
     1
 70
    58
 90
        2
176
     1
 90
        2
176
     1
 90
        0
176
     1
 90
        0
176
     1
 40
0.6
176
     1
 40
30.0
176
     1
 62
     7
420
 16777215
176
     1
 90
        1
176
     1
 90
        4
176
     1
 62
     7
176
     1
 62
   257
176
     1
 90
        1
176
     1
 90
        1
176
     1
 40
1.0
176
     1
 90
        8
176
     1
 62
     7
176
     1
 40
1.0
176
     1
 90
        1
176
     1
 90
        6
176
     1
 90
        2
176
     1
 62
     7
176
     1
 90
        5
176
     1
 90
        0
176
     1
 90
        0
176
     1
290
     0
176
     1
 90
        1
176
     1
 40
-50.0
176
     1
 90
        0
176
     1
290
     0
176
     1
290
     1
176
     1
290
     1
176
     1
290
     0
176
     1
290
     0
176
     1
290
     0
176
     1
290
     0
176
     1
290
     0
176
     1
290
     0
176
     1
 90
       50
176
     1
 40
0.0
176
     1
 40
1.0
176
     1
 90
        0
176
     1
 62
    18
420
        0
176
     1
 90
       50
176
     1
 90
        3
176
     1
 62
     5
420
      255
176
     1
290
     0
176
     1
 90
       50
176
     1
 90
       50
176
     1
 90
       50
176
     1
290
     0
176
     1
 90
       50
176
     1
 62
   256
176
     0
 40
1.0
176
     0
 90
        2
176
     1
  1
strokes_ogs.tif
176
     1
290
     0
176
     1
 40
1.0
176
     1
 40
1.0
176
     1
  0
VISUALSTYLE
  5
41
102
{ACAD_REACTORS
330
29
102
}
330
29
100
AcDbVisualStyle
  2
EdgeColorOff
 70
    22
177
     3
291
     1
 70
    58
 90
        2
176
     0
 90
        2
176
     0
 90
        0
176
     0
 90
        0
176
     0
 40
0.6
176
     0
 40
30.0
176
     0
 62
     7
420
 16777215
176
     0
 90
        1
176
     0
 90
        4
176
     0
 62
     7
176
     0
 62
   257
176
     0
 90
        1
176
     0
 90
        1
176
     0
 40
1.0
176
     0
 90
        8
176
     2
 62
     7
176
     0
 40
1.0
176
     0
 90
        1
176
     0
 90
        6
176
     0
 90
        2
176
     0
 62
     7
176
     0
 90
        5
176
     0
 90
        0
176
     0
 90
        0
176
     0
290
     0
176
     0
 90
        1
176
     0
 40
0.0
176
     0
 90
        0
176
     0
290
     0
176
     0
290
     1
176
     0
290
     1
176
     0
290
     0
176
     0
290
     0
176
     0
290
     0
176
     0
290
     0
176
     0
290
     0
176
     0
290
     0
176
     0
 90
       50
176
     0
 40
0.0
176
     0
 40
1.0
176
     0
 90
        0
176
     0
 62
    18
420
        0
176
     0
 90
       50
176
     0
 90
        3
176
     0
 62
     5
420
      255
176
     0
290
     0
176
     0
 90
       50
176
     0
 90
       50
176
     0
 90
       50
176
     0
290
     0
176
     0
 90
       50
176
     0
 62
   256
176
     0
 40
1.0
176
     0
 90
        2
176
     0
  1
strokes_ogs.tif
176
     0
290
     0
176
     0
 40
1.0
176
     0
 40
1.0
176
     0
  0
VISUALSTYLE
  5
38
102
{ACAD_REACTORS
330
29
102
}
330
29
100
AcDbVisualStyle
  2
Facepattern
 70
    15
177
     3
291
     1
 70
    58
 90
        2
176
     1
 90
        2
176
     1
 90
        0
176
     1
 90
        0
176
     1
 40
0.6
176
     1
 40
30.0
176
     1
 62
     7
420
 16777215
176
     1
 90
        1
176
     1
 90
        4
176
     1
 62
     7
176
     1
 62
   257
176
     1
 90
        1
176
     1
 90
        1
176
     1
 40
1.0
176
     1
 90
        8
176
     1
 62
     7
176
     1
 40
1.0
176
     1
 90
        1
176
     1
 90
        6
176
     1
 90
        2
176
     1
 62
     7
176
     1
 90
        5
176
     1
 90
        0
176
     1
 90
        0
176
     1
290
     0
176
     1
 90
        1
176
     1
 40
0.0
176
     1
 90
        0
176
     1
290
     0
176
     1
290
     1
176
     1
290
     1
176
     1
290
     0
176
     1
290
     0
176
     1
290
     0
176
     1
290
     0
176
     1
290
     0
176
     1
290
     0
176
     1
 90
       50
176
     1
 40
0.0
176
     1
 40
1.0
176
     1
 90
        0
176
     1
 62
    18
420
        0
176
     1
 90
       50
176
     1
 90
        3
176
     1
 62
     5
420
      255
176
     1
290
     0
176
     1
 90
       50
176
     1
 90
       50
176
     1
 90
       50
176
     1
290
     0
176
     1
 90
       50
176
     1
 62
   256
176
     0
 40
1.0
176
     0
 90
        2
176
     1
  1
strokes_ogs.tif
176
     1
290
     0
176
     1
 40
1.0
176
     1
 40
1.0
176
     1
  0
VISUALSTYLE
  5
2A
102
{ACAD_REACTORS
330
29
102
}
330
29
100
AcDbVisualStyle
  2
Flat
 70
     0
177
     3
291
     1
 70
    58
 90
        2
176
     1
 90
        1
176
     1
 90
        1
176
     1
 90
        2
176
     1
 40
0.6
176
     1
 40
30.0
176
     1
 62
     7
420
 16777215
176
     1
 90
        0
176
     1
 90
        0
176
     1
 62
     7
176
     1
 62
   257
176
     1
 90
        1
176
     1
 90
        1
176
     1
 40
1.0
176
     1
 90
        8
176
     1
 62
     7
176
     1
 40
1.0
176
     1
 90
        1
176
     1
 90
        6
176
     1
 90
        2
176
     1
 62
     7
176
     1
 90
        5
176
     1
 90
        0
176
     1
 90
        0
176
     1
290
     0
176
     1
 90
       13
176
     1
 40
0.0
176
     1
 90
        0
176
     1
290
     0
176
     1
290
     1
176
     1
290
     1
176
     1
290
     0
176
     1
290
     0
176
     1
290
     0
176
     1
290
     0
176
     1
290
     0
176
     1
290
     0
176
     1
 90
       50
176
     1
 40
0.0
176
     1
 40
1.0
176
     1
 90
        0
176
     1
 62
    18
420
        0
176
     1
 90
       50
176
     1
 90
        3
176
     1
 62
     5
420
      255
176
     1
290
     0
176
     1
 90
       50
176
     1
 90
       50
176
     1
 90
       50
176
     1
290
     0
176
     1
 90
       50
176
     1
 62
   256
176
     0
 40
1.0
176
     0
 90
        2
176
     1
  1
strokes_ogs.tif
176
     1
290
     0
176
     1
 40
1.0
176
     1
 40
1.0
176
     1
  0
VISUALSTYLE
  5
2B
102
{ACAD_REACTORS
330
29
102
}
330
29
100
AcDbVisualStyle
  2
FlatWithEdges
 70
     1
177
     3
291
     1
 70
    58
 90
        2
176
     1
 90
        1
176
     1
 90
        1
176
     1
 90
        2
176
     1
 40
0.6
176
     1
 40
30.0
176
     1
 62
     7
420
 16777215
176
     1
 90
        1
176
     1
 90
        0
176
     1
 62
     7
176
     1
 62
   257
176
     1
 90
        1
176
     1
 90
        1
176
     1
 40
1.0
176
     1
 90
        0
176
     1
 62
   257
176
     1
 40
1.0
176
     1
 90
        1
176
     1
 90
        6
176
     1
 90
        2
176
     1
 62
     7
176
     1
 90
        5
176
     1
 90
        0
176
     1
 90
        0
176
     1
290
     0
176
     1
 90
       13
176
     1
 40
0.0
176
     1
 90
        0
176
     1
290
     0
176
     1
290
     1
176
     1
290
     1
176
     1
290
     0
176
     1
290
     0
176
     1
290
     0
176
     1
290
     0
176
     1
290
     0
176
     1
290
     0
176
     1
 90
       50
176
     1
 40
0.0
176
     1
 40
1.0
176
     1
 90
        0
176
     1
 62
    18
420
        0
176
     1
 90
       50
176
     1
 90
        3
176
     1
 62
     5
420
      255
176
     1
290
     0
176
     1
 90
       50
176
     1
 90
       50
176
     1
 90
       50
176
     1
290
     0
176
     1
 90
       50
176
     1
 62
   256
176
     0
 40
1.0
176
     0
 90
        2
176
     1
  1
strokes_ogs.tif
176
     1
290
     0
176
     1
 40
1.0
176
     1
 40
1.0
176
     1
  0
VISUALSTYLE
  5
2C
102
{ACAD_REACTORS
330
29
102
}
330
29
100
AcDbVisualStyle
  2
Gouraud
 70
     2
177
     3
291
     1
 70
    58
 90
        2
176
     1
 90
        2
176
     1
 90
        1
176
     1
 90
        2
176
     1
 40
0.6
176
     1
 40
30.0
176
     1
 62
     7
420
 16777215
176
     1
 90
        0
176
     1
 90
        0
176
     1
 62
     7
176
     1
 62
   257
176
     1
 90
        1
176
     1
 90
        1
176
     1
 40
1.0
176
     1
 90
        0
176
     1
 62
     7
176
     1
 40
1.0
176
     1
 90
        1
176
     1
 90
        6
176
     1
 90
        2
176
     1
 62
     7
176
     1
 90
        5
176
     1
 90
        0
176
     1
 90
        0
176
     1
290
     0
176
     1
 90
       13
176
     1
 40
0.0
176
     1
 90
        0
176
     1
290
     0
176
     1
290
     1
176
     1
290
     1
176
     1
290
     0
176
     1
290
     0
176
     1
290
     0
176
     1
290
     0
176
     1
290
     0
176
     1
290
     0
176
     1
 90
       50
176
     1
 40
0.0
176
     1
 40
1.0
176
     1
 90
        0
176
     1
 62
    18
420
        0
176
     1
 90
       50
176
     1
 90
        3
176
     1
 62
     5
420
      255
176
     1
290
     0
176
     1
 90
       50
176
     1
 90
       50
176
     1
 90
       50
176
     1
290
     0
176
     1
 90
       50
176
     1
 62
   256
176
     0
 40
1.0
176
     0
 90
        2
176
     1
  1
strokes_ogs.tif
176
     1
290
     0
176
     1
 40
1.0
176
     1
 40
1.0
176
     1
  0
VISUALSTYLE
  5
2D
102
{ACAD_REACTORS
330
29
102
}
330
29
100
AcDbVisualStyle
  2
GouraudWithEdges
 70
     3
177
     3
291
     1
 70
    58
 90
        2
176
     1
 90
        2
176
     1
 90
        1
176
     1
 90
        2
176
     1
 40
0.6
176
     1
 40
30.0
176
     1
 62
     7
420
 16777215
176
     1
 90
        1
176
     1
 90
        0
176
     1
 62
     7
176
     1
 62
   257
176
     1
 90
        1
176
     1
 90
        1
176
     1
 40
1.0
176
     1
 90
        0
176
     1
 62
   257
176
     1
 40
1.0
176
     1
 90
        1
176
     1
 90
        6
176
     1
 90
        2
176
     1
 62
     7
176
     1
 90
        5
176
     1
 90
        0
176
     1
 90
        0
176
     1
290
     0
176
     1
 90
       13
176
     1
 40
0.0
176
     1
 90
        0
176
     1
290
     0
176
     1
290
     1
176
     1
290
     1
176
     1
290
     0
176
     1
290
     0
176
     1
290
     0
176
     1
290
     0
176
     1
290
     0
176
     1
290
     0
176
     1
 90
       50
176
     1
 40
0.0
176
     1
 40
1.0
176
     1
 90
        0
176
     1
 62
    18
420
        0
176
     1
 90
       50
176
     1
 90
        3
176
     1
 62
     5
420
      255
176
     1
290
     0
176
     1
 90
       50
176
     1
 90
       50
176
     1
 90
       50
176
     1
290
     0
176
     1
 90
       50
176
     1
 62
   256
176
     0
 40
1.0
176
     0
 90
        2
176
     1
  1
strokes_ogs.tif
176
     1
290
     0
176
     1
 40
1.0
176
     1
 40
1.0
176
     1
  0
VISUALSTYLE
  5
31
102
{ACAD_REACTORS
330
29
102
}
330
29
100
AcDbVisualStyle
  2
Hidden
 70
     6
177
     3
291
     0
 70
    58
 90
        1
176
     1
 90
        2
176
     1
 90
        2
176
     1
 90
        0
176
     1
 40
0.6
176
     1
 40
30.0
176
     1
 62
     7
420
 16777215
176
     1
 90
        2
176
     1
 90
        2
176
     1
 62
     7
176
     1
 62
   257
176
     1
 90
        2
176
     1
 90
        1
176
     1
 40
40.0
176
     1
 90
        0
176
     1
 62
   257
176
     1
 40
1.0
176
     1
 90
        1
176
     1
 90
        6
176
     1
 90
        2
176
     1
 62
     7
176
     1
 90
        3
176
     1
 90
        0
176
     1
 90
        0
176
     1
290
     0
176
     1
 90
        1
176
     1
 40
0.0
176
     1
 90
        0
176
     1
290
     0
176
     1
290
     1
176
     1
290
     1
176
     1
290
     0
176
     1
290
     0
176
     1
290
     0
176
     1
290
     0
176
     1
290
     0
176
     1
290
     0
176
     1
 90
       50
176
     1
 40
0.0
176
     1
 40
1.0
176
     1
 90
        0
176
     1
 62
    18
420
        0
176
     1
 90
       50
176
     1
 90
        3
176
     1
 62
     5
420
      255
176
     1
290
     0
176
     1
 90
       50
176
     1
 90
       50
176
     1
 90
       50
176
     1
290
     0
176
     1
 90
       50
176
     1
 62
   256
176
     0
 40
1.0
176
     0
 90
        2
176
     1
  1
strokes_ogs.tif
176
     1
290
     0
176
     1
 40
1.0
176
     1
 40
1.0
176
     1
  0
VISUALSTYLE
  5
3F
102
{ACAD_REACTORS
330
29
102
}
330
29
100
AcDbVisualStyle
  2
JitterOff
 70
    20
177
     3
291
     1
 70
    58
 90
        2
176
     0
 90
        2
176
     0
 90
        0
176
     0
 90
        0
176
     0
 40
0.6
176
     0
 40
30.0
176
     0
 62
     7
420
 16777215
176
     0
 90
        1
176
     0
 90
        4
176
     0
 62
     7
176
     0
 62
   257
176
     0
 90
        1
176
     0
 90
        1
176
     0
 40
1.0
176
     0
 90
       10
176
     2
 62
     7
176
     0
 40
1.0
176
     0
 90
        1
176
     0
 90
        6
176
     0
 90
        2
176
     0
 62
     7
176
     0
 90
        5
176
     0
 90
        0
176
     0
 90
        0
176
     0
290
     0
176
     0
 90
        1
176
     0
 40
0.0
176
     0
 90
        0
176
     0
290
     0
176
     0
290
     1
176
     0
290
     1
176
     0
290
     0
176
     0
290
     0
176
     0
290
     0
176
     0
290
     0
176
     0
290
     0
176
     0
290
     0
176
     0
 90
       50
176
     0
 40
0.0
176
     0
 40
1.0
176
     0
 90
        0
176
     0
 62
    18
420
        0
176
     0
 90
       50
176
     0
 90
        3
176
     0
 62
     5
420
      255
176
     0
290
     0
176
     0
 90
       50
176
     0
 90
       50
176
     0
 90
       50
176
     0
290
     0
176
     0
 90
       50
176
     0
 62
   256
176
     0
 40
1.0
176
     0
 90
        2
176
     0
  1
strokes_ogs.tif
176
     0
290
     0
176
     0
 40
1.0
176
     0
 40
1.0
176
     0
  0
VISUALSTYLE
  5
37
102
{ACAD_REACTORS
330
29
102
}
330
29
100
AcDbVisualStyle
  2
Linepattern
 70
    14
177
     3
291
     1
 70
    58
 90
        2
176
     1
 90
        2
176
     1
 90
        0
176
     1
 90
        0
176
     1
 40
0.6
176
     1
 40
30.0
176
     1
 62
     7
420
 16777215
176
     1
 90
        1
176
     1
 90
        4
176
     1
 62
     7
176
     1
 62
   257
176
     1
 90
        7
176
     1
 90
        7
176
     1
 40
1.0
176
     1
 90
        8
176
     1
 62
     7
176
     1
 40
1.0
176
     1
 90
        1
176
     1
 90
        6
176
     1
 90
        2
176
     1
 62
     7
176
     1
 90
        5
176
     1
 90
        0
176
     1
 90
        0
176
     1
290
     0
176
     1
 90
        1
176
     1
 40
0.0
176
     1
 90
        0
176
     1
290
     0
176
     1
290
     1
176
     1
290
     1
176
     1
290
     0
176
     1
290
     0
176
     1
290
     0
176
     1
290
     0
176
     1
290
     0
176
     1
290
     0
176
     1
 90
       50
176
     1
 40
0.0
176
     1
 40
1.0
176
     1
 90
        0
176
     1
 62
    18
420
        0
176
     1
 90
       50
176
     1
 90
        3
176
     1
 62
     5
420
      255
176
     1
290
     0
176
     1
 90
       50
176
     1
 90
       50
176
     1
 90
       50
176
     1
290
     0
176
     1
 90
       50
176
     1
 62
   256
176
     0
 40
1.0
176
     0
 90
        2
176
     1
  1
strokes_ogs.tif
176
     1
290
     0
176
     1
 40
1.0
176
     1
 40
1.0
176
     1
  0
VISUALSTYLE
  5
40
102
{ACAD_REACTORS
330
29
102
}
330
29
100
AcDbVisualStyle
  2
OverhangOff
 70
    21
177
     3
291
     1
 70
    58
 90
        2
176
     0
 90
        2
176
     0
 90
        0
176
     0
 90
        0
176
     0
 40
0.6
176
     0
 40
30.0
176
     0
 62
     7
420
 16777215
176
     0
 90
        1
176
     0
 90
        4
176
     0
 62
     7
176
     0
 62
   257
176
     0
 90
        1
176
     0
 90
        1
176
     0
 40
1.0
176
     0
 90
        9
176
     2
 62
     7
176
     0
 40
1.0
176
     0
 90
        1
176
     0
 90
        6
176
     0
 90
        2
176
     0
 62
     7
176
     0
 90
        5
176
     0
 90
        0
176
     0
 90
        0
176
     0
290
     0
176
     0
 90
        1
176
     0
 40
0.0
176
     0
 90
        0
176
     0
290
     0
176
     0
290
     1
176
     0
290
     1
176
     0
290
     0
176
     0
290
     0
176
     0
290
     0
176
     0
290
     0
176
     0
290
     0
176
     0
290
     0
176
     0
 90
       50
176
     0
 40
0.0
176
     0
 40
1.0
176
     0
 90
        0
176
     0
 62
    18
420
        0
176
     0
 90
       50
176
     0
 90
        3
176
     0
 62
     5
420
      255
176
     0
290
     0
176
     0
 90
       50
176
     0
 90
       50
176
     0
 90
       50
176
     0
290
     0
176
     0
 90
       50
176
     0
 62
   256
176
     0
 40
1.0
176
     0
 90
        2
176
     0
  1
strokes_ogs.tif
176
     0
290
     0
176
     0
 40
1.0
176
     0
 40
1.0
176
     0
  0
VISUALSTYLE
  5
33
102
{ACAD_REACTORS
330
29
102
}
330
29
100
AcDbVisualStyle
  2
Realistic
 70
     8
177
     3
291
     0
 70
    58
 90
        2
176
     1
 90
        3
176
     1
 90
        0
176
     1
 90
        2
176
     1
 40
0.6
176
     1
 40
30.0
176
     1
 62
     7
420
 16777215
176
     1
 90
        0
176
     1
 90
        0
176
     1
 62
     7
176
     1
 62
   257
176
     1
 90
        1
176
     1
 90
        1
176
     1
 40
1.0
176
     1
 90
        8
176
     1
 62
   257
176
     1
 40
1.0
176
     1
 90
        1
176
     1
 90
        6
176
     1
 90
        2
176
     1
 62
     7
176
     1
 90
        3
176
     1
 90
        0
176
     1
 90
        0
176
     1
290
     0
176
     1
 90
       13
176
     1
 40
0.0
176
     1
 90
        0
176
     1
290
     0
176
     1
290
     1
176
     1
290
     1
176
     1
290
     0
176
     1
290
     0
176
     1
290
     0
176
     1
290
     0
176
     1
290
     0
176
     1
290
     0
176
     1
 90
       50
176
     1
 40
0.0
176
     1
 40
1.0
176
     1
 90
        0
176
     1
 62
    18
420
        0
176
     1
 90
       50
176
     1
 90
        3
176
     1
 62
     5
420
      255
176
     1
290
     0
176
     1
 90
       50
176
     1
 90
       50
176
     1
 90
       50
176
     1
290
     0
176
     1
 90
       50
176
     1
 62
   256
176
     0
 40
1.0
176
     0
 90
        2
176
     1
  1
strokes_ogs.tif
176
     1
290
     0
176
     1
 40
1.0
176
     1
 40
1.0
176
     1
  0
VISUALSTYLE
  5
3E
102
{ACAD_REACTORS
330
29
102
}
330
29
100
AcDbVisualStyle
  2
Shaded
 70
    27
177
     3
291
     0
 70
    58
 90
        2
176
     1
 90
        2
176
     1
 90
        1
176
     1
 90
        2
176
     1
 40
0.6
176
     1
 40
30.0
176
     1
 62
     7
420
 16777215
176
     1
 90
        0
176
     1
 90
        4
176
     1
 62
     7
176
     1
 62
   257
176
     1
 90
        1
176
     1
 90
        1
176
     1
 40
1.0
176
     1
 90
        8
176
     1
 62
   257
176
     1
 40
1.0
176
     1
 90
        1
176
     1
 90
        6
176
     1
 90
        2
176
     1
 62
     8
420
  7895160
176
     1
 90
        3
176
     1
 90
        0
176
     1
 90
        0
176
     1
290
     0
176
     1
 90
        5
176
     1
 40
0.0
176
     1
 90
        0
176
     1
290
     0
176
     1
290
     1
176
     1
290
     1
176
     1
290
     0
176
     1
290
     0
176
     1
290
     0
176
     1
290
     0
176
     1
290
     0
176
     1
290
     0
176
     1
 90
       50
176
     1
 40
0.0
176
     1
 40
1.0
176
     1
 90
        0
176
     1
 62
    18
420
        0
176
     1
 90
       50
176
     1
 90
        3
176
     1
 62
     5
420
      255
176
     1
290
     0
176
     1
 90
       50
176
     1
 90
       50
176
     1
 90
       50
176
     1
290
     0
176
     1
 90
       50
176
     1
 62
   256
176
     0
 40
1.0
176
     0
 90
        2
176
     1
  1
strokes_ogs.tif
176
     1
290
     0
176
     1
 40
1.0
176
     1
 40
1.0
176
     1
  0
VISUALSTYLE
  5
3D
102
{ACAD_REACTORS
330
29
102
}
330
29
100
AcDbVisualStyle
  2
Shaded with edges
 70
    26
177
     3
291
     0
 70
    58
 90
        2
176
     1
 90
        2
176
     1
 90
        1
176
     1
 90
        2
176
     1
 40
0.6
176
     1
 40
30.0
176
     1
 62
     7
420
 16777215
176
     1
 90
        1
176
     1
 90
        2
176
     1
 62
     7
176
     1
 62
   257
176
     1
 90
        2
176
     1
 90
        1
176
     1
 40
1.0
176
     1
 90
        8
176
     1
 62
   257
176
     1
 40
1.0
176
     1
 90
        1
176
     1
 90
        6
176
     1
 90
        2
176
     1
 62
     7
176
     1
 90
        3
176
     1
 90
        0
176
     1
 90
        0
176
     1
290
     0
176
     1
 90
        5
176
     1
 40
0.0
176
     1
 90
        0
176
     1
290
     0
176
     1
290
     1
176
     1
290
     1
176
     1
290
     0
176
     1
290
     0
176
     1
290
     0
176
     1
290
     0
176
     1
290
     0
176
     1
290
     0
176
     1
 90
       50
176
     1
 40
0.0
176
     1
 40
1.0
176
     1
 90
        0
176
     1
 62
    18
420
        0
176
     1
 90
       50
176
     1
 90
        3
176
     1
 62
     5
420
      255
176
     1
290
     0
176
     1
 90
       50
176
     1
 90
       50
176
     1
 90
       50
176
     1
290
     0
176
     1
 90
       50
176
     1
 62
   256
176
     0
 40
1.0
176
     0
 90
        2
176
     1
  1
strokes_ogs.tif
176
     1
290
     0
176
     1
 40
1.0
176
     1
 40
1.0
176
     1
  0
VISUALSTYLE
  5
3A
102
{ACAD_REACTORS
330
29
102
}
330
29
100
AcDbVisualStyle
  2
Shades of Gray
 70
    23
177
     3
291
     0
 70
    58
 90
        2
176
     1
 90
        2
176
     1
 90
        3
176
     1
 90
        0
176
     1
 40
0.6
176
     1
 40
30.0
176
     1
 62
     7
420
 16777215
176
     1
 90
        2
176
     1
 90
        2
176
     1
 62
     7
176
     1
 62
     7
176
     1
 90
        1
176
     1
 90
        1
176
     1
 40
40.0
176
     1
 90
        8
176
     1
 62
     7
176
     1
 40
1.0
176
     1
 90
        1
176
     1
 90
        6
176
     1
 90
        2
176
     1
 62
     7
176
     1
 90
        3
176
     1
 90
        0
176
     1
 90
        0
176
     1
290
     0
176
     1
 90
        1
176
     1
 40
0.0
176
     1
 90
        0
176
     1
290
     0
176
     1
290
     1
176
     1
290
     1
176
     1
290
     0
176
     1
290
     0
176
     1
290
     0
176
     1
290
     0
176
     1
290
     0
176
     1
290
     0
176
     1
 90
       50
176
     1
 40
0.0
176
     1
 40
1.0
176
     1
 90
        0
176
     1
 62
    18
420
        0
176
     1
 90
       50
176
     1
 90
        3
176
     1
 62
     5
420
      255
176
     1
290
     0
176
     1
 90
       50
176
     1
 90
       50
176
     1
 90
       50
176
     1
290
     0
176
     1
 90
       50
176
     1
 62
   256
176
     0
 40
1.0
176
     0
 90
        2
176
     1
  1
strokes_ogs.tif
176
     1
290
     0
176
     1
 40
1.0
176
     1
 40
1.0
176
     1
  0
VISUALSTYLE
  5
3B
102
{ACAD_REACTORS
330
29
102
}
330
29
100
AcDbVisualStyle
  2
Sketchy
 70
    24
177
     3
291
     0
 70
    58
 90
        1
176
     1
 90
        2
176
     1
 90
        2
176
     1
 90
        0
176
     1
 40
0.6
176
     1
 40
30.0
176
     1
 62
     7
420
 16777215
176
     1
 90
        2
176
     1
 90
        2
176
     1
 62
     7
176
     1
 62
     7
176
     1
 90
        1
176
     1
 90
        1
176
     1
 40
40.0
176
     1
 90
       11
176
     1
 62
     7
176
     1
 40
1.0
176
     1
 90
        1
176
     1
 90
        6
176
     1
 90
        2
176
     1
 62
     7
176
     1
 90
        6
176
     1
 90
        0
176
     1
 90
        0
176
     1
290
     0
176
     1
 90
        1
176
     1
 40
0.0
176
     1
 90
        0
176
     1
290
     0
176
     1
290
     1
176
     1
290
     1
176
     1
290
     0
176
     1
290
     0
176
     1
290
     0
176
     1
290
     0
176
     1
290
     0
176
     1
290
     0
176
     1
 90
       50
176
     1
 40
0.0
176
     1
 40
1.0
176
     1
 90
        0
176
     1
 62
    18
420
        0
176
     1
 90
       50
176
     1
 90
        3
176
     1
 62
     5
420
      255
176
     1
290
     0
176
     1
 90
       50
176
     1
 90
       50
176
     1
 90
       50
176
     1
290
     0
176
     1
 90
       50
176
     1
 62
   256
176
     0
 40
1.0
176
     0
 90
        2
176
     1
  1
strokes_ogs.tif
176
     1
290
     0
176
     1
 40
1.0
176
     1
 40
1.0
176
     1
  0
VISUALSTYLE
  5
36
102
{ACAD_REACTORS
330
29
102
}
330
29
100
AcDbVisualStyle
  2
Thicken
 70
    13
177
     3
291
     1
 70
    58
 90
        2
176
     1
 90
        2
176
     1
 90
        0
176
     1
 90
        0
176
     1
 40
0.6
176
     1
 40
30.0
176
     1
 62
     7
420
 16777215
176
     1
 90
        1
176
     1
 90
        4
176
     1
 62
     7
176
     1
 62
   257
176
     1
 90
        1
176
     1
 90
        1
176
     1
 40
1.0
176
     1
 90
       12
176
     1
 62
     7
176
     1
 40
1.0
176
     1
 90
        1
176
     1
 90
        6
176
     1
 90
        2
176
     1
 62
     7
176
     1
 90
        5
176
     1
 90
        0
176
     1
 90
        0
176
     1
290
     0
176
     1
 90
        1
176
     1
 40
0.0
176
     1
 90
        0
176
     1
290
     0
176
     1
290
     1
176
     1
290
     1
176
     1
290
     0
176
     1
290
     0
176
     1
290
     0
176
     1
290
     0
176
     1
290
     0
176
     1
290
     0
176
     1
 90
       50
176
     1
 40
0.0
176
     1
 40
1.0
176
     1
 90
        0
176
     1
 62
    18
420
        0
176
     1
 90
       50
176
     1
 90
        3
176
     1
 62
     5
420
      255
176
     1
290
     0
176
     1
 90
       50
176
     1
 90
       50
176
     1
 90
       50
176
     1
290
     0
176
     1
 90
       50
176
     1
 62
   256
176
     0
 40
1.0
176
     0
 90
        2
176
     1
  1
strokes_ogs.tif
176
     1
290
     0
176
     1
 40
1.0
176
     1
 40
1.0
176
     1
  0
VISUALSTYLE
  5
30
102
{ACAD_REACTORS
330
29
102
}
330
29
100
AcDbVisualStyle
  2
Wireframe
 70
     5
177
     3
291
     0
 70
    58
 90
        0
176
     1
 90
        2
176
     1
 90
        0
176
     1
 90
        0
176
     1
 40
0.6
176
     1
 40
30.0
176
     1
 62
     7
420
 16777215
176
     1
 90
        1
176
     1
 90
        4
176
     1
 62
     7
176
     1
 62
   257
176
     1
 90
        1
176
     1
 90
        1
176
     1
 40
1.0
176
     1
 90
        0
176
     1
 62
   257
176
     1
 40
1.0
176
     1
 90
        1
176
     1
 90
        6
176
     1
 90
        2
176
     1
 62
     7
176
     1
 90
        3
176
     1
 90
        0
176
     1
 90
        0
176
     1
290
     0
176
     1
 90
        1
176
     1
 40
0.0
176
     1
 90
        0
176
     1
290
     0
176
     1
290
     1
176
     1
290
     1
176
     1
290
     0
176
     1
290
     0
176
     1
290
     0
176
     1
290
     0
176
     1
290
     0
176
     1
290
     0
176
     1
 90
       50
176
     1
 40
0.0
176
     1
 40
1.0
176
     1
 90
        0
176
     1
 62
    18
420
        0
176
     1
 90
       50
176
     1
 90
        3
176
     1
 62
     5
420
      255
176
     1
290
     0
176
     1
 90
       50
176
     1
 90
       50
176
     1
 90
       50
176
     1
290
     0
176
     1
 90
       50
176
     1
 62
   256
176
     0
 40
1.0
176
     0
 90
        2
176
     1
  1
strokes_ogs.tif
176
     1
290
     0
176
     1
 40
1.0
176
     1
 40
1.0
176
     1
  0
VISUALSTYLE
  5
3C
102
{ACAD_REACTORS
330
29
102
}
330
29
100
AcDbVisualStyle
  2
X-Ray
 70
    25
177
     3
291
     0
 70
    58
 90
        2
176
     1
 90
        2
176
     1
 90
        1
176
     1
 90
        1
176
     1
 40
0.5
176
     1
 40
30.0
176
     1
 62
     7
420
 16777215
176
     1
 90
        1
176
     1
 90
        0
176
     1
 62
     7
176
     1
 62
   257
176
     1
 90
        1
176
     1
 90
        1
176
     1
 40
1.0
176
     1
 90
        8
176
     1
 62
     7
176
     1
 40
1.0
176
     1
 90
        1
176
     1
 90
        6
176
     1
 90
        2
176
     1
 62
     7
176
     1
 90
        3
176
     1
 90
        0
176
     1
 90
        0
176
     1
290
     0
176
     1
 90
       13
176
     1
 40
0.0
176
     1
 90
        0
176
     1
290
     0
176
     1
290
     1
176
     1
290
     1
176
     1
290
     0
176
     1
290
     0
176
     1
290
     0
176
     1
290
     0
176
     1
290
     0
176
     1
290
     0
176
     1
 90
       50
176
     1
 40
0.0
176
     1
 40
1.0
176
     1
 90
        0
176
     1
 62
    18
420
        0
176
     1
 90
       50
176
     1
 90
        3
176
     1
 62
     5
420
      255
176
     1
290
     0
176
     1
 90
       50
176
     1
 90
       50
176
     1
 90
       50
176
     1
290
     0
176
     1
 90
       50
176
     1
 62
   256
176
     0
 40
1.0
176
     0
 90
        2
176
     1
  1
strokes_ogs.tif
176
     1
290
     0
176
     1
 40
1.0
176
     1
 40
1.0
176
     1
  0
DICTIONARYVAR
  5
B4
102
{ACAD_REACTORS
330
AF
102
}
330
AF
100
DictionaryVariables
280
     0
  1
1:1
  0
DICTIONARYVAR
  5
B1
102
{ACAD_REACTORS
330
AF
102
}
330
AF
100
DictionaryVariables
280
     0
  1
STANDARD
  0
DICTIONARYVAR
  5
B0
102
{ACAD_REACTORS
330
AF
102
}
330
AF
100
DictionaryVariables
280
     0
  1
STANDARD
  0
DICTIONARYVAR
  5
B2
102
{ACAD_REACTORS
330
AF
102
}
330
AF
100
DictionaryVariables
280
     0
  1
Imperial24
  0
DICTIONARYVAR
  5
B3
102
{ACAD_REACTORS
330
AF
102
}
330
AF
100
DictionaryVariables
280
     0
  1
Imperial24
  0
DICTIONARY
  5
1A
330
19
100
AcDbDictionary
280
     1
281
     1
  3
BUMPTILE
360
1C
  3
DIFFUSETILE
360
1B
  3
OPACITYTILE
360
1F
  3
REFLECTIONTILE
360
1E
  3
REFRACTIONTILE
360
20
  3
SPECULARTILE
360
1D
  0
DICTIONARY
  5
12
330
11
100
AcDbDictionary
280
     1
281
     1
  3
BUMPTILE
360
14
  3
DIFFUSETILE
360
13
  3
OPACITYTILE
360
17
  3
REFLECTIONTILE
360
16
  3
REFRACTIONTILE
360
18
  3
SPECULARTILE
360
15
  0
DICTIONARY
  5
22
330
21
100
AcDbDictionary
280
     1
281
     1
  3
BUMPTILE
360
24
  3
DIFFUSETILE
360
23
  3
OPACITYTILE
360
27
  3
REFLECTIONTILE
360
26
  3
REFRACTIONTILE
360
28
  3
SPECULARTILE
360
25
  0
DICTIONARY
  5
B5
330
65
100
AcDbDictionary
280
     1
281
     1
  3
ACAD_ROUNDTRIP_2008_TABLESTYLE_CELLSTYLEMAP
360
B6
  0
XRECORD
  5
1C
102
{ACAD_REACTORS
330
1A
102
}
330
1A
100
AcDbXrecord
280
     1
270
     1
271
     1
  0
XRECORD
  5
1B
102
{ACAD_REACTORS
330
1A
102
}
330
1A
100
AcDbXrecord
280
     1
270
     1
271
     1
  0
XRECORD
  5
1F
102
{ACAD_REACTORS
330
1A
102
}
330
1A
100
AcDbXrecord
280
     1
270
     1
271
     1
  0
XRECORD
  5
1E
102
{ACAD_REACTORS
330
1A
102
}
330
1A
100
AcDbXrecord
280
     1
270
     1
271
     1
  0
XRECORD
  5
20
102
{ACAD_REACTORS
330
1A
102
}
330
1A
100
AcDbXrecord
280
     1
270
     1
271
     1
  0
XRECORD
  5
1D
102
{ACAD_REACTORS
330
1A
102
}
330
1A
100
AcDbXrecord
280
     1
270
     1
271
     1
  0
XRECORD
  5
14
102
{ACAD_REACTORS
330
12
102
}
330
12
100
AcDbXrecord
280
     1
270
     1
271
     1
  0
XRECORD
  5
13
102
{ACAD_REACTORS
330
12
102
}
330
12
100
AcDbXrecord
280
     1
270
     1
271
     1
  0
XRECORD
  5
17
102
{ACAD_REACTORS
330
12
102
}
330
12
100
AcDbXrecord
280
     1
270
     1
271
     1
  0
XRECORD
  5
16
102
{ACAD_REACTORS
330
12
102
}
330
12
100
AcDbXrecord
280
     1
270
     1
271
     1
  0
XRECORD
  5
18
102
{ACAD_REACTORS
330
12
102
}
330
12
100
AcDbXrecord
280
     1
270
     1
271
     1
  0
XRECORD
  5
15
102
{ACAD_REACTORS
330
12
102
}
330
12
100
AcDbXrecord
280
     1
270
     1
271
     1
  0
XRECORD
  5
24
102
{ACAD_REACTORS
330
22
102
}
330
22
100
AcDbXrecord
280
     1
270
     1
271
     1
  0
XRECORD
  5
23
102
{ACAD_REACTORS
330
22
102
}
330
22
100
AcDbXrecord
280
     1
270
     1
271
     1
  0
XRECORD
  5
27
102
{ACAD_REACTORS
330
22
102
}
330
22
100
AcDbXrecord
280
     1
270
     1
271
     1
  0
XRECORD
  5
26
102
{ACAD_REACTORS
330
22
102
}
330
22
100
AcDbXrecord
280
     1
270
     1
271
     1
  0
XRECORD
  5
28
102
{ACAD_REACTORS
330
22
102
}
330
22
100
AcDbXrecord
280
     1
270
     1
271
     1
  0
XRECORD
  5
25
102
{ACAD_REACTORS
330
22
102
}
330
22
100
AcDbXrecord
280
     1
270
     1
271
     1
  0
CELLSTYLEMAP
  5
B6
102
{ACAD_REACTORS
330
B5
102
}
330
B5
100
AcDbCellStyleMap
 90
        3
300
CELLSTYLE
  1
TABLEFORMAT_BEGIN
 90
        5
170
     1
 91
        0
 92
    32768
 62
   257
 93
        1
300
CONTENTFORMAT
  1
CONTENTFORMAT_BEGIN
 90
        0
 91
        0
 92
      512
 93
        0
300

 40
0.0
140
1.0
 94
        5
 62
     0
340
55
144
0.25
309
CONTENTFORMAT_END
171
     0
 94
        0
309
TABLEFORMAT_END
  1
CELLSTYLE_BEGIN
 90
        1
 91
        1
300
_TITLE
309
CELLSTYLE_END
300
CELLSTYLE
  1
TABLEFORMAT_BEGIN
 90
        5
170
     1
 91
        0
 92
        0
 62
   257
 93
        1
300
CONTENTFORMAT
  1
CONTENTFORMAT_BEGIN
 90
        0
 91
        0
 92
      512
 93
        0
300

 40
0.0
140
1.0
 94
        5
 62
     0
340
55
144
0.18
309
CONTENTFORMAT_END
171
     0
 94
        0
309
TABLEFORMAT_END
  1
CELLSTYLE_BEGIN
 90
        2
 91
        1
300
_HEADER
309
CELLSTYLE_END
300
CELLSTYLE
  1
TABLEFORMAT_BEGIN
 90
        5
170
     1
 91
        0
 92
        0
 62
   257
 93
        1
300
CONTENTFORMAT
  1
CONTENTFORMAT_BEGIN
 90
        0
 91
        0
 92
      512
 93
        0
300

 40
0.0
140
1.0
 94
        2
 62
     0
340
55
144
0.18
309
CONTENTFORMAT_END
171
     0
 94
        0
309
TABLEFORMAT_END
  1
CELLSTYLE_BEGIN
 90
        3
 91
        2
300
_DATA
309
CELLSTYLE_END
  0
ENDSEC
  0
EOF
