  0
SECTION
  2
HEADER
  9
$ACADVER
  1
AC1032
  9
$ACADMAINTVER
 90
      228
  9
$DWGCODEPAGE
  3
ANSI_932
  9
$REQUIREDVERSIONS
160
                 0
  9
$INSBASE
 10
0.0
 20
0.0
 30
0.0
  9
$EXTMIN
 10
1.000000000000000E+20
 20
1.000000000000000E+20
 30
1.000000000000000E+20
  9
$EXTMAX
 10
-1.000000000000000E+20
 20
-1.000000000000000E+20
 30
-1.000000000000000E+20
  9
$LIMMIN
 10
0.0
 20
0.0
  9
$LIMMAX
 10
12.0
 20
9.0
  9
$ORTHOMODE
 70
     0
  9
$REGENMODE
 70
     1
  9
$FILLMODE
 70
     1
  9
$QTEXTMODE
 70
     0
  9
$MIRRTEXT
 70
     0
  9
$LTSCALE
 40
1.0
  9
$ATTMODE
 70
     1
  9
$TEXTSIZE
 40
0.2
  9
$TRACEWID
 40
0.05
  9
$TEXTSTYLE
  7
Standard
  9
$CLAYER
  8
0
  9
$CELTYPE
  6
ByLayer
  9
$CECOLOR
 62
   256
  9
$CELTSCALE
 40
1.0
  9
$DISPSILH
 70
     0
  9
$DIMSCALE
 40
1.0
  9
$DIMASZ
 40
0.18
  9
$DIMEXO
 40
0.0625
  9
$DIMDLI
 40
0.38
  9
$DIMRND
 40
0.0
  9
$DIMDLE
 40
0.0
  9
$DIMEXE
 40
0.18
  9
$DIMTP
 40
0.0
  9
$DIMTM
 40
0.0
  9
$DIMTXT
 40
0.18
  9
$DIMCEN
 40
0.09
  9
$DIMTSZ
 40
0.0
  9
$DIMTOL
 70
     0
  9
$DIMLIM
 70
     0
  9
$DIMTIH
 70
     1
  9
$DIMTOH
 70
     1
  9
$DIMSE1
 70
     0
  9
$DIMSE2
 70
     0
  9
$DIMTAD
 70
     0
  9
$DIMZIN
 70
     0
  9
$DIMBLK
  1

  9
$DIMASO
 70
     1
  9
$DIMSHO
 70
     1
  9
$DIMPOST
  1

  9
$DIMAPOST
  1

  9
$DIMALT
 70
     0
  9
$DIMALTD
 70
     2
  9
$DIMALTF
 40
25.4
  9
$DIMLFAC
 40
1.0
  9
$DIMTOFL
 70
     0
  9
$DIMTVP
 40
0.0
  9
$DIMTIX
 70
     0
  9
$DIMSOXD
 70
     0
  9
$DIMSAH
 70
     0
  9
$DIMBLK1
  1

  9
$DIMBLK2
  1

  9
$DIMSTYLE
  2
Standard
  9
$DIMCLRD
 70
     0
  9
$DIMCLRE
 70
     0
  9
$DIMCLRT
 70
     0
  9
$DIMTFAC
 40
1.0
  9
$DIMGAP
 40
0.09
  9
$DIMJUST
 70
     0
  9
$DIMSD1
 70
     0
  9
$DIMSD2
 70
     0
  9
$DIMTOLJ
 70
     1
  9
$DIMTZIN
 70
     0
  9
$DIMALTZ
 70
     0
  9
$DIMALTTZ
 70
     0
  9
$DIMUPT
 70
     0
  9
$DIMDEC
 70
     4
  9
$DIMTDEC
 70
     4
  9
$DIMALTU
 70
     2
  9
$DIMALTTD
 70
     2
  9
$DIMTXSTY
  7
Standard
  9
$DIMAUNIT
 70
     0
  9
$DIMADEC
 70
     0
  9
$DIMALTRND
 40
0.0
  9
$DIMAZIN
 70
     0
  9
$DIMDSEP
 70
    46
  9
$DIMATFIT
 70
     3
  9
$DIMFRAC
 70
     0
  9
$DIMLDRBLK
  1

  9
$DIMLUNIT
 70
     2
  9
$DIMLWD
 70
    -2
  9
$DIMLWE
 70
    -2
  9
$DIMTMOVE
 70
     0
  9
$DIMFXL
 40
1.0
  9
$DIMFXLON
 70
     0
  9
$DIMJOGANG
 40
0.7853981633974483
  9
$DIMTFILL
 70
     0
  9
$DIMTFILLCLR
 70
     0
  9
$DIMARCSYM
 70
     0
  9
$DIMLTYPE
  6

  9
$DIMLTEX1
  6

  9
$DIMLTEX2
  6

  9
$DIMTXTDIRECTION
 70
     0
  9
$LUNITS
 70
     2
  9
$LUPREC
 70
     4
  9
$SKETCHINC
 40
0.1
  9
$FILLETRAD
 40
0.0
  9
$AUNITS
 70
     0
  9
$AUPREC
 70
     0
  9
$MENU
  1
.
  9
$ELEVATION
 40
0.0
  9
$PELEVATION
 40
0.0
  9
$THICKNESS
 40
0.0
  9
$LIMCHECK
 70
     0
  9
$CHAMFERA
 40
0.0
  9
$CHAMFERB
 40
0.0
  9
$CHAMFERC
 40
0.0
  9
$CHAMFERD
 40
0.0
  9
$SKPOLY
 70
     0
  9
$TDCREATE
 40
2460061.680115741
  9
$TDUCREATE
 40
2460061.305115741
  9
$TDUPDATE
 40
2460061.680115741
  9
$TDUUPDATE
 40
2460061.305115741
  9
$TDINDWG
 40
0.0000000000
  9
$TDUSRTIMER
 40
0.0000000000
  9
$USRTIMER
 70
     1
  9
$ANGBASE
 50
0.0
  9
$ANGDIR
 70
     0
  9
$PDMODE
 70
     0
  9
$PDSIZE
 40
0.0
  9
$PLINEWID
 40
0.0
  9
$SPLFRAME
 70
     0
  9
$SPLINETYPE
 70
     6
  9
$SPLINESEGS
 70
     8
  9
$HANDSEED
  5
132
  9
$SURFTAB1
 70
     6
  9
$SURFTAB2
 70
     6
  9
$SURFTYPE
 70
     6
  9
$SURFU
 70
     6
  9
$SURFV
 70
     6
  9
$UCSBASE
  2

  9
$UCSNAME
  2

  9
$UCSORG
 10
0.0
 20
0.0
 30
0.0
  9
$UCSXDIR
 10
1.0
 20
0.0
 30
0.0
  9
$UCSYDIR
 10
0.0
 20
1.0
 30
0.0
  9
$UCSORTHOREF
  2

  9
$UCSORTHOVIEW
 70
     0
  9
$UCSORGTOP
 10
0.0
 20
0.0
 30
0.0
  9
$UCSORGBOTTOM
 10
0.0
 20
0.0
 30
0.0
  9
$UCSORGLEFT
 10
0.0
 20
0.0
 30
0.0
  9
$UCSORGRIGHT
 10
0.0
 20
0.0
 30
0.0
  9
$UCSORGFRONT
 10
0.0
 20
0.0
 30
0.0
  9
$UCSORGBACK
 10
0.0
 20
0.0
 30
0.0
  9
$PUCSBASE
  2

  9
$PUCSNAME
  2

  9
$PUCSORG
 10
0.0
 20
0.0
 30
0.0
  9
$PUCSXDIR
 10
1.0
 20
0.0
 30
0.0
  9
$PUCSYDIR
 10
0.0
 20
1.0
 30
0.0
  9
$PUCSORTHOREF
  2

  9
$PUCSORTHOVIEW
 70
     0
  9
$PUCSORGTOP
 10
0.0
 20
0.0
 30
0.0
  9
$PUCSORGBOTTOM
 10
0.0
 20
0.0
 30
0.0
  9
$PUCSORGLEFT
 10
0.0
 20
0.0
 30
0.0
  9
$PUCSORGRIGHT
 10
0.0
 20
0.0
 30
0.0
  9
$PUCSORGFRONT
 10
0.0
 20
0.0
 30
0.0
  9
$PUCSORGBACK
 10
0.0
 20
0.0
 30
0.0
  9
$USERI1
 70
     0
  9
$USERI2
 70
     0
  9
$USERI3
 70
     0
  9
$USERI4
 70
     0
  9
$USERI5
 70
     0
  9
$USERR1
 40
0.0
  9
$USERR2
 40
0.0
  9
$USERR3
 40
0.0
  9
$USERR4
 40
0.0
  9
$USERR5
 40
0.0
  9
$WORLDVIEW
 70
     1
  9
$SHADEDGE
 70
     3
  9
$SHADEDIF
 70
    70
  9
$TILEMODE
 70
     1
  9
$MAXACTVP
 70
    64
  9
$PINSBASE
 10
0.0
 20
0.0
 30
0.0
  9
$PLIMCHECK
 70
     0
  9
$PEXTMIN
 10
1.000000000000000E+20
 20
1.000000000000000E+20
 30
1.000000000000000E+20
  9
$PEXTMAX
 10
-1.000000000000000E+20
 20
-1.000000000000000E+20
 30
-1.000000000000000E+20
  9
$PLIMMIN
 10
0.0
 20
0.0
  9
$PLIMMAX
 10
12.0
 20
9.0
  9
$UNITMODE
 70
     0
  9
$VISRETAIN
 70
     1
  9
$PLINEGEN
 70
     0
  9
$PSLTSCALE
 70
     1
  9
$TREEDEPTH
 70
  3020
  9
$CMLSTYLE
  2
Standard
  9
$CMLJUST
 70
     0
  9
$CMLSCALE
 40
1.0
  9
$PROXYGRAPHICS
 70
     1
  9
$MEASUREMENT
 70
     0
  9
$CELWEIGHT
370
    -1
  9
$ENDCAPS
280
     0
  9
$JOINSTYLE
280
     0
  9
$LWDISPLAY
290
     1
  9
$INSUNITS
 70
     4
  9
$HYPERLINKBASE
  1

  9
$STYLESHEET
  1

  9
$XEDIT
290
     1
  9
$CEPSNTYPE
380
     0
  9
$PSTYLEMODE
290
     1
  9
$FINGERPRINTGUID
  2
{5616D965-56E2-8343-B2E0-215383FA1AB2}
  9
$VERSIONGUID
  2
{98CB4EA2-9451-F644-9018-80F63D7EF10E}
  9
$EXTNAMES
290
     1
  9
$PSVPSCALE
 40
0.0
  9
$OLESTARTUP
290
     0
  9
$SORTENTS
280
   127
  9
$INDEXCTL
280
     0
  9
$HIDETEXT
280
     1
  9
$XCLIPFRAME
280
     2
  9
$HALOGAP
280
     0
  9
$OBSCOLOR
 70
   257
  9
$OBSLTYPE
280
     0
  9
$INTERSECTIONDISPLAY
280
     0
  9
$INTERSECTIONCOLOR
 70
   257
  9
$DIMASSOC
280
     2
  9
$PROJECTNAME
  1

  9
$CAMERADISPLAY
290
     0
  9
$LENSLENGTH
 40
50.0
  9
$CAMERAHEIGHT
 40
0.0
  9
$STEPSPERSEC
 40
2.0
  9
$STEPSIZE
 40
6.0
  9
$3DDWFPREC
 40
2.0
  9
$PSOLWIDTH
 40
0.25
  9
$PSOLHEIGHT
 40
4.0
  9
$LOFTANG1
 40
1.570796326794896
  9
$LOFTANG2
 40
1.570796326794896
  9
$LOFTMAG1
 40
0.0
  9
$LOFTMAG2
 40
0.0
  9
$LOFTPARAM
 70
     7
  9
$LOFTNORMALS
280
     1
  9
$LATITUDE
 40
37.795
  9
$LONGITUDE
 40
-122.394
  9
$NORTHDIRECTION
 40
0.0
  9
$TIMEZONE
 70
 -8000
  9
$LIGHTGLYPHDISPLAY
280
     1
  9
$TILEMODELIGHTSYNCH
280
     1
  9
$CMATERIAL
347
11
  9
$SOLIDHIST
280
     0
  9
$SHOWHIST
280
     1
  9
$DWFFRAME
280
     2
  9
$DGNFRAME
280
     0
  9
$REALWORLDSCALE
290
     1
  9
$INTERFERECOLOR
 62
     1
  9
$INTERFEREOBJVS
345
33
  9
$INTERFEREVPVS
346
30
  9
$CSHADOW
280
     0
  9
$SHADOWPLANELOCATION
 40
0.0
  0
ENDSEC
  0
SECTION
  2
CLASSES
  0
CLASS
  1
ACDBDICTIONARYWDFLT
  2
AcDbDictionaryWithDefault
  3
ObjectDBX Classes
 90
        0
 91
        1
280
     0
281
     0
  0
CLASS
  1
MATERIAL
  2
AcDbMaterial
  3
ObjectDBX Classes
 90
     1153
 91
        3
280
     0
281
     0
  0
CLASS
  1
VISUALSTYLE
  2
AcDbVisualStyle
  3
ObjectDBX Classes
 90
     4095
 91
       24
280
     0
281
     0
  0
CLASS
  1
SCALE
  2
AcDbScale
  3
ObjectDBX Classes
 90
     1153
 91
       17
280
     0
281
     0
  0
CLASS
  1
TABLESTYLE
  2
AcDbTableStyle
  3
ObjectDBX Classes
 90
     4095
 91
        1
280
     0
281
     0
  0
CLASS
  1
MLEADERSTYLE
  2
AcDbMLeaderStyle
  3
ACDB_MLEADERSTYLE_CLASS
 90
     4095
 91
        1
280
     0
281
     0
  0
CLASS
  1
ACDBSECTIONVIEWSTYLE
  2
AcDbSectionViewStyle
  3
ObjectDBX Classes
 90
     1025
 91
        1
280
     0
281
     0
  0
CLASS
  1
ACDBDETAILVIEWSTYLE
  2
AcDbDetailViewStyle
  3
ObjectDBX Classes
 90
     1025
 91
        1
280
     0
281
     0
  0
CLASS
  1
DICTIONARYVAR
  2
AcDbDictionaryVar
  3
ObjectDBX Classes
 90
        0
 91
        5
280
     0
281
     0
  0
CLASS
  1
CELLSTYLEMAP
  2
AcDbCellStyleMap
  3
ObjectDBX Classes
 90
     1152
 91
        1
280
     0
281
     0
  0
ENDSEC
  0
SECTION
  2
TABLES
  0
TABLE
  2
VPORT
  5
8
330
0
100
AcDbSymbolTable
 70
     1
  0
VPORT
  5
57
330
8
100
AcDbSymbolTableRecord
100
AcDbViewportTableRecord
  2
*Active
 70
     0
 10
0.0
 20
0.0
 11
1.0
 21
1.0
 12
0.0
 22
0.0
 13
0.0
 23
0.0
 14
1.0
 24
1.0
 15
0.0
 25
0.0
 16
0.0
 26
0.0
 36
1.0
 17
338.666666582
 27
190.499999952375
 37
0.0
 40
388.619999902845
 41
1.777777777777777
 42
50.0
 43
0.0
 44
0.0
 50
0.0
 51
0.0
 71
     0
 72
   100
 73
     1
 74
     1
 75
     0
 76
     0
 77
     0
 78
     0
281
     0
 65
     1
110
0.0
120
0.0
130
0.0
111
1.0
121
0.0
131
0.0
112
0.0
122
1.0
132
0.0
 79
     0
146
0.0
 60
     3
 61
     5
292
     1
282
     1
141
0.0
142
0.0
 63
   250
421
  3355443
  0
ENDTAB
  0
TABLE
  2
LTYPE
  5
5
330
0
100
AcDbSymbolTable
 70
     1
  0
LTYPE
  5
5B
330
5
100
AcDbSymbolTableRecord
100
AcDbLinetypeTableRecord
  2
ByBlock
 70
     0
  3

 72
    65
 73
     0
 40
0.0
  0
LTYPE
  5
5C
330
5
100
AcDbSymbolTableRecord
100
AcDbLinetypeTableRecord
  2
ByLayer
 70
     0
  3

 72
    65
 73
     0
 40
0.0
  0
LTYPE
  5
5D
330
5
100
AcDbSymbolTableRecord
100
AcDbLinetypeTableRecord
  2
Continuous
 70
     0
  3
Solid line
 72
    65
 73
     0
 40
0.0
  0
ENDTAB
  0
TABLE
  2
LAYER
  5
2
330
0
100
AcDbSymbolTable
 70
     7
  0
LAYER
  5
54
330
2
100
AcDbSymbolTableRecord
100
AcDbLayerTableRecord
  2
0
 70
     0
 62
     7
  6
Continuous
370
    -3
390
F
347
21
348
0
  0
LAYER
  5
78
330
2
100
AcDbSymbolTableRecord
100
AcDbLayerTableRecord
  2
レイヤー_1
 70
     0
 62
     7
  6
Continuous
370
     0
390
F
347
21
348
0
  0
LAYER
  5
94
330
2
100
AcDbSymbolTableRecord
100
AcDbLayerTableRecord
  2
_U+30EC_U+30A4_U+30E4_U+30FC 1
 70
     0
 62
     7
  6
Continuous
370
     0
390
F
347
21
348
0
  0
LAYER
  5
9E
330
2
100
AcDbSymbolTableRecord
100
AcDbLayerTableRecord
  2
FLAME
 70
     0
 62
     7
  6
Continuous
370
     0
390
F
347
21
348
0
  0
LAYER
  5
A6
330
2
100
AcDbSymbolTableRecord
100
AcDbLayerTableRecord
  2
Defpoints
 70
     0
 62
     7
  6
Continuous
290
     0
370
     0
390
F
347
21
348
0
  0
LAYER
  5
A8
330
2
100
AcDbSymbolTableRecord
100
AcDbLayerTableRecord
  2
text
 70
     0
 62
     7
  6
Continuous
370
     0
390
F
347
21
348
0
  0
LAYER
  5
AC
330
2
100
AcDbSymbolTableRecord
100
AcDbLayerTableRecord
  2
shade
 70
     0
 62
     7
  6
Continuous
370
     0
390
F
347
21
348
0
  0
ENDTAB
  0
TABLE
  2
STYLE
  5
3
330
0
100
AcDbSymbolTable
 70
     2
  0
STYLE
  5
55
330
3
100
AcDbSymbolTableRecord
100
AcDbTextStyleTableRecord
  2
Standard
 70
     0
 40
0.0
 41
1.0
 50
0.0
 71
     0
 42
0.2
  3
txt
  4

  0
STYLE
  5
5A
330
3
100
AcDbSymbolTableRecord
100
AcDbTextStyleTableRecord
  2
Annotative
 70
     0
 40
0.0
 41
1.0
 50
0.0
 71
     0
 42
0.2
  3
txt
  4

1001
AcadAnnotative
1000
AnnotativeData
1002
{
1070
     1
1070
     1
1002
}
  0
ENDTAB
  0
TABLE
  2
VIEW
  5
6
330
0
100
AcDbSymbolTable
 70
     0
  0
ENDTAB
  0
TABLE
  2
UCS
  5
7
330
0
100
AcDbSymbolTable
 70
     0
  0
ENDTAB
  0
TABLE
  2
APPID
  5
9
330
0
100
AcDbSymbolTable
 70
     2
  0
APPID
  5
56
330
9
100
AcDbSymbolTableRecord
100
AcDbRegAppTableRecord
  2
ACAD
 70
     0
  0
APPID
  5
5E
330
9
100
AcDbSymbolTableRecord
100
AcDbRegAppTableRecord
  2
AcadAnnotative
 70
     0
  0
ENDTAB
  0
TABLE
  2
DIMSTYLE
  5
A
330
0
100
AcDbSymbolTable
 70
     2
100
AcDbDimStyleTable
 71
     0
  0
DIMSTYLE
105
58
330
A
100
AcDbSymbolTableRecord
100
AcDbDimStyleTableRecord
  2
Standard
 70
     0
340
55
  0
DIMSTYLE
105
59
330
A
100
AcDbSymbolTableRecord
100
AcDbDimStyleTableRecord
  2
Annotative
 70
     0
340
55
1001
AcadAnnotative
1000
AnnotativeData
1002
{
1070
     1
1070
     1
1002
}
  0
ENDTAB
  0
TABLE
  2
BLOCK_RECORD
  5
1
330
0
100
AcDbSymbolTable
 70
     1
  0
BLOCK_RECORD
  5
70
330
1
100
AcDbSymbolTableRecord
100
AcDbBlockTableRecord
  2
*Model_Space
340
73
 70
     0
280
     1
281
     0
  0
BLOCK_RECORD
  5
6C
330
1
100
AcDbSymbolTableRecord
100
AcDbBlockTableRecord
  2
*Paper_Space
340
6F
 70
     0
280
     1
281
     0
  0
BLOCK_RECORD
  5
74
330
1
100
AcDbSymbolTableRecord
100
AcDbBlockTableRecord
  2
*Paper_Space0
340
77
 70
     0
280
     1
281
     0
  0
ENDTAB
  0
ENDSEC
  0
SECTION
  2
BLOCKS
  0
BLOCK
  5
71
330
70
100
AcDbEntity
  8
0
100
AcDbBlockBegin
  2
*Model_Space
 70
     0
 10
0.0
 20
0.0
 30
0.0
  3
*Model_Space
  1

  0
ENDBLK
  5
72
330
70
100
AcDbEntity
  8
0
100
AcDbBlockEnd
  0
BLOCK
  5
6D
330
6C
100
AcDbEntity
 67
     1
  8
0
100
AcDbBlockBegin
  2
*Paper_Space
 70
     0
 10
0.0
 20
0.0
 30
0.0
  3
*Paper_Space
  1

  0
ENDBLK
  5
6E
330
6C
100
AcDbEntity
 67
     1
  8
0
100
AcDbBlockEnd
  0
BLOCK
  5
75
330
74
100
AcDbEntity
 67
     1
  8
0
100
AcDbBlockBegin
  2
*Paper_Space0
 70
     0
 10
0.0
 20
0.0
 30
0.0
  3
*Paper_Space0
  1

  0
ENDBLK
  5
76
330
74
100
AcDbEntity
 67
     1
  8
0
100
AcDbBlockEnd
  0
ENDSEC
  0
SECTION
  2
ENTITIES
  0
SPLINE
  5
79
330
70
100
AcDbEntity
  8
レイヤー_1
 62
    18
420
        0
370
     0
100
AcDbSpline
210
0.0
220
0.0
230
1.0
 70
     9
 71
     3
 72
    11
 73
     7
 74
     0
 42
0.0000000001
 43
0.0000000001
 40
0.0
 40
0.0
 40
0.0
 40
0.0
 40
1.0
 40
1.0
 40
1.0
 40
2.0
 40
2.0
 40
2.0
 40
2.0
 10
539.7708986953757
 20
380.9999645530324
 30
0.0
 10
539.7803508698824
 20
380.9977029898067
 30
0.0
 10
539.7904699155967
 20
380.9988241066198
 30
0.0
 10
539.799999408504
 20
380.9999645530324
 30
0.0
 10
539.799999408504
 20
380.9999645530324
 30
0.0
 10
539.7708986953757
 20
380.9999645530324
 30
0.0
 10
539.7708986953757
 20
380.9999645530324
 30
0.0
  0
SPLINE
  5
7A
330
70
100
AcDbEntity
  8
レイヤー_1
100
AcDbSpline
210
0.0
220
0.0
230
1.0
 70
     9
 71
     3
 72
    11
 73
     7
 74
     0
 42
0.0000000001
 43
0.0000000001
 40
0.0
 40
0.0
 40
0.0
 40
0.0
 40
1.0
 40
1.0
 40
1.0
 40
2.0
 40
2.0
 40
2.0
 40
2.0
 10
539.7708986953751
 20
380.9999645530327
 30
0.0
 10
539.7803508698824
 20
380.9977029898077
 30
0.0
 10
539.7904699155967
 20
380.9988241066198
 30
0.0
 10
539.7999994085047
 20
380.9999645530327
 30
0.0
 10
539.7999994085047
 20
380.9999645530327
 30
0.0
 10
539.7708986953751
 20
380.9999645530327
 30
0.0
 10
539.7708986953751
 20
380.9999645530327
 30
0.0
  0
HATCH
  5
7B
330
70
100
AcDbEntity
  8
レイヤー_1
 62
    18
420
        0
440
 33554687
100
AcDbHatch
 10
0.0
 20
0.0
 30
0.0
210
0.0
220
0.0
230
1.0
  2
SOLID
 70
     1
 71
     1
 91
        1
 92
        1
 93
        1
 72
     4
 94
        3
 73
     0
 74
     0
 95
       11
 96
        7
 40
0.0
 40
0.0
 40
0.0
 40
0.0
 40
1.0
 40
1.0
 40
1.0
 40
2.0
 40
2.0
 40
2.0
 40
2.0
 10
539.7708986953751
 20
380.9999645530327
 10
539.7803508698824
 20
380.9977029898077
 10
539.7904699155967
 20
380.9988241066198
 10
539.7999994085047
 20
380.9999645530327
 10
539.7999994085047
 20
380.9999645530327
 10
539.7708986953751
 20
380.9999645530327
 10
539.7708986953751
 20
380.9999645530327
 97
        0
 97
        1
330
7A
 75
     0
 76
     1
 98
        1
 10
0.0
 20
0.0
450
        0
451
        0
460
0.0
461
0.0
452
        0
462
0.0
453
        0
470

  0
SPLINE
  5
7C
330
70
100
AcDbEntity
  8
レイヤー_1
 62
    18
420
        0
370
     0
100
AcDbSpline
210
0.0
220
0.0
230
1.0
 70
    11
 71
     3
 72
    20
 73
    16
 74
     0
 42
0.0000000001
 43
0.0000000001
 40
0.0
 40
0.0
 40
0.0
 40
0.0
 40
1.0
 40
1.0
 40
1.0
 40
2.0
 40
2.0
 40
2.0
 40
3.0
 40
3.0
 40
3.0
 40
4.0
 40
4.0
 40
4.0
 40
5.0
 40
5.0
 40
5.0
 40
5.0
 10
357.4758417733543
 20
189.8891342392014
 30
0.0
 10
357.4758417733543
 20
189.8891342392014
 30
0.0
 10
357.4432230729866
 20
189.8861864751686
 30
0.0
 10
357.4432230729866
 20
189.8861864751686
 30
0.0
 10
357.4544825651139
 20
189.8764250270585
 30
0.0
 10
357.4564155251354
 20
189.8662769869438
 30
0.0
 10
357.4728940093208
 20
189.8683549189674
 30
0.0
 10
357.4728940093208
 20
189.8683549189674
 30
0.0
 10
357.4758417733543
 20
189.8772465350682
 30
0.0
 10
357.4758417733543
 20
189.8772465350682
 30
0.0
 10
357.4758417733543
 20
189.8772465350682
 30
0.0
 10
357.4758417733543
 20
189.8802426231019
 30
0.0
 10
357.4758417733543
 20
189.8802426231019
 30
0.0
 10
357.4758417733543
 20
189.8802426231019
 30
0.0
 10
357.4758417733543
 20
189.8891342392014
 30
0.0
 10
357.4758417733543
 20
189.8891342392014
 30
0.0
  0
SPLINE
  5
7D
330
70
100
AcDbEntity
  8
レイヤー_1
100
AcDbSpline
210
0.0
220
0.0
230
1.0
 70
    11
 71
     3
 72
    20
 73
    16
 74
     0
 42
0.0000000001
 43
0.0000000001
 40
0.0
 40
0.0
 40
0.0
 40
0.0
 40
1.0
 40
1.0
 40
1.0
 40
2.0
 40
2.0
 40
2.0
 40
3.0
 40
3.0
 40
3.0
 40
4.0
 40
4.0
 40
4.0
 40
5.0
 40
5.0
 40
5.0
 40
5.0
 10
357.475841773355
 20
189.8891342392027
 30
0.0
 10
357.475841773355
 20
189.8891342392027
 30
0.0
 10
357.4432230729866
 20
189.8861864751686
 30
0.0
 10
357.4432230729866
 20
189.8861864751686
 30
0.0
 10
357.4544825651132
 20
189.8764250270592
 30
0.0
 10
357.4564155251347
 20
189.8662769869438
 30
0.0
 10
357.4728940093208
 20
189.868354918968
 30
0.0
 10
357.4728940093208
 20
189.868354918968
 30
0.0
 10
357.475841773355
 20
189.8772465350675
 30
0.0
 10
357.475841773355
 20
189.8772465350675
 30
0.0
 10
357.475841773355
 20
189.8772465350675
 30
0.0
 10
357.475841773355
 20
189.8802426231006
 30
0.0
 10
357.475841773355
 20
189.8802426231006
 30
0.0
 10
357.475841773355
 20
189.8802426231006
 30
0.0
 10
357.475841773355
 20
189.8891342392027
 30
0.0
 10
357.475841773355
 20
189.8891342392027
 30
0.0
  0
HATCH
  5
7E
330
70
100
AcDbEntity
  8
レイヤー_1
 62
    18
420
        0
440
 33554687
100
AcDbHatch
 10
0.0
 20
0.0
 30
0.0
210
0.0
220
0.0
230
1.0
  2
SOLID
 70
     1
 71
     1
 91
        1
 92
        1
 93
        1
 72
     4
 94
        3
 73
     0
 74
     0
 95
       20
 96
       16
 40
0.0
 40
0.0
 40
0.0
 40
0.0
 40
1.0
 40
1.0
 40
1.0
 40
2.0
 40
2.0
 40
2.0
 40
3.0
 40
3.0
 40
3.0
 40
4.0
 40
4.0
 40
4.0
 40
5.0
 40
5.0
 40
5.0
 40
5.0
 10
357.475841773355
 20
189.8891342392027
 10
357.475841773355
 20
189.8891342392027
 10
357.4432230729866
 20
189.8861864751686
 10
357.4432230729866
 20
189.8861864751686
 10
357.4544825651132
 20
189.8764250270592
 10
357.4564155251347
 20
189.8662769869438
 10
357.4728940093208
 20
189.868354918968
 10
357.4728940093208
 20
189.868354918968
 10
357.475841773355
 20
189.8772465350675
 10
357.475841773355
 20
189.8772465350675
 10
357.475841773355
 20
189.8772465350675
 10
357.475841773355
 20
189.8802426231006
 10
357.475841773355
 20
189.8802426231006
 10
357.475841773355
 20
189.8802426231006
 10
357.475841773355
 20
189.8891342392027
 10
357.475841773355
 20
189.8891342392027
 97
        0
 97
        1
330
7D
 75
     0
 76
     1
 98
        1
 10
0.0
 20
0.0
450
        0
451
        0
460
0.0
461
0.0
452
        0
462
0.0
453
        0
470

  0
SPLINE
  5
7F
330
70
100
AcDbEntity
  8
レイヤー_1
 62
    18
420
        0
370
     0
100
AcDbSpline
210
0.0
220
0.0
230
1.0
 70
     9
 71
     3
 72
    17
 73
    13
 74
     0
 42
0.0000000001
 43
0.0000000001
 40
0.0
 40
0.0
 40
0.0
 40
0.0
 40
1.0
 40
1.0
 40
1.0
 40
2.0
 40
2.0
 40
2.0
 40
3.0
 40
3.0
 40
3.0
 40
4.0
 40
4.0
 40
4.0
 40
4.0
 10
357.8796371219083
 20
186.4718058926602
 30
0.0
 10
357.866734613763
 20
186.4609813165386
 30
0.0
 10
357.8513192575893
 20
186.4450827203595
 30
0.0
 10
357.8380784814395
 20
186.4361911042594
 30
0.0
 10
357.8380784814395
 20
186.4361911042594
 30
0.0
 10
357.8499661855741
 20
186.4302472521921
 30
0.0
 10
357.8499661855741
 20
186.4302472521921
 30
0.0
 10
357.8703105898032
 20
186.4434397043409
 30
0.0
 10
357.8898818100242
 20
186.4574053404984
 30
0.0
 10
357.9093563822434
 20
186.4718058926602
 30
0.0
 10
357.9093563822434
 20
186.4718058926602
 30
0.0
 10
357.8796371219083
 20
186.4718058926602
 30
0.0
 10
357.8796371219083
 20
186.4718058926602
 30
0.0
  0
SPLINE
  5
80
330
70
100
AcDbEntity
  8
レイヤー_1
100
AcDbSpline
210
0.0
220
0.0
230
1.0
 70
     9
 71
     3
 72
    17
 73
    13
 74
     0
 42
0.0000000001
 43
0.0000000001
 40
0.0
 40
0.0
 40
0.0
 40
0.0
 40
1.0
 40
1.0
 40
1.0
 40
2.0
 40
2.0
 40
2.0
 40
3.0
 40
3.0
 40
3.0
 40
4.0
 40
4.0
 40
4.0
 40
4.0
 10
357.8796371219083
 20
186.4718058926602
 30
0.0
 10
357.866734613763
 20
186.4609813165379
 30
0.0
 10
357.8513192575893
 20
186.4450827203582
 30
0.0
 10
357.8380784814402
 20
186.4361911042587
 30
0.0
 10
357.8380784814402
 20
186.4361911042587
 30
0.0
 10
357.8499661855741
 20
186.4302472521915
 30
0.0
 10
357.8499661855741
 20
186.4302472521915
 30
0.0
 10
357.8703105898032
 20
186.4434397043409
 30
0.0
 10
357.8898818100236
 20
186.4574053404977
 30
0.0
 10
357.909356382244
 20
186.4718058926602
 30
0.0
 10
357.909356382244
 20
186.4718058926602
 30
0.0
 10
357.8796371219083
 20
186.4718058926602
 30
0.0
 10
357.8796371219083
 20
186.4718058926602
 30
0.0
  0
HATCH
  5
81
330
70
100
AcDbEntity
  8
レイヤー_1
 62
    18
420
        0
440
 33554687
100
AcDbHatch
 10
0.0
 20
0.0
 30
0.0
210
0.0
220
0.0
230
1.0
  2
SOLID
 70
     1
 71
     1
 91
        1
 92
        1
 93
        1
 72
     4
 94
        3
 73
     0
 74
     0
 95
       17
 96
       13
 40
0.0
 40
0.0
 40
0.0
 40
0.0
 40
1.0
 40
1.0
 40
1.0
 40
2.0
 40
2.0
 40
2.0
 40
3.0
 40
3.0
 40
3.0
 40
4.0
 40
4.0
 40
4.0
 40
4.0
 10
357.8796371219083
 20
186.4718058926602
 10
357.866734613763
 20
186.4609813165379
 10
357.8513192575893
 20
186.4450827203582
 10
357.8380784814402
 20
186.4361911042587
 10
357.8380784814402
 20
186.4361911042587
 10
357.8499661855741
 20
186.4302472521915
 10
357.8499661855741
 20
186.4302472521915
 10
357.8703105898032
 20
186.4434397043409
 10
357.8898818100236
 20
186.4574053404977
 10
357.909356382244
 20
186.4718058926602
 10
357.909356382244
 20
186.4718058926602
 10
357.8796371219083
 20
186.4718058926602
 10
357.8796371219083
 20
186.4718058926602
 97
        0
 97
        1
330
80
 75
     0
 76
     1
 98
        1
 10
0.0
 20
0.0
450
        0
451
        0
460
0.0
461
0.0
452
        0
462
0.0
453
        0
470

  0
SPLINE
  5
82
330
70
100
AcDbEntity
  8
レイヤー_1
 62
    18
420
        0
370
     0
100
AcDbSpline
210
0.0
220
0.0
230
1.0
 70
     9
 71
     3
 72
    11
 73
     7
 74
     0
 42
0.0000000001
 43
0.0000000001
 40
0.0
 40
0.0
 40
0.0
 40
0.0
 40
1.0
 40
1.0
 40
1.0
 40
2.0
 40
2.0
 40
2.0
 40
2.0
 10
361.3474543842187
 20
185.7117273528882
 30
0.0
 10
361.3569065587254
 20
185.7094657896634
 30
0.0
 10
361.3670256044391
 20
185.7105869064759
 30
0.0
 10
361.3765550973471
 20
185.7117273528882
 30
0.0
 10
361.3765550973471
 20
185.7117273528882
 30
0.0
 10
361.3474543842187
 20
185.7117273528882
 30
0.0
 10
361.3474543842187
 20
185.7117273528882
 30
0.0
  0
SPLINE
  5
83
330
70
100
AcDbEntity
  8
レイヤー_1
100
AcDbSpline
210
0.0
220
0.0
230
1.0
 70
     9
 71
     3
 72
    11
 73
     7
 74
     0
 42
0.0000000001
 43
0.0000000001
 40
0.0
 40
0.0
 40
0.0
 40
0.0
 40
1.0
 40
1.0
 40
1.0
 40
2.0
 40
2.0
 40
2.0
 40
2.0
 10
361.3474543842194
 20
185.7117273528888
 30
0.0
 10
361.3569065587248
 20
185.7094657896634
 30
0.0
 10
361.3670256044397
 20
185.7105869064753
 30
0.0
 10
361.3765550973464
 20
185.7117273528888
 30
0.0
 10
361.3765550973464
 20
185.7117273528888
 30
0.0
 10
361.3474543842194
 20
185.7117273528888
 30
0.0
 10
361.3474543842194
 20
185.7117273528888
 30
0.0
  0
HATCH
  5
84
330
70
100
AcDbEntity
  8
レイヤー_1
 62
    18
420
        0
440
 33554687
100
AcDbHatch
 10
0.0
 20
0.0
 30
0.0
210
0.0
220
0.0
230
1.0
  2
SOLID
 70
     1
 71
     1
 91
        1
 92
        1
 93
        1
 72
     4
 94
        3
 73
     0
 74
     0
 95
       11
 96
        7
 40
0.0
 40
0.0
 40
0.0
 40
0.0
 40
1.0
 40
1.0
 40
1.0
 40
2.0
 40
2.0
 40
2.0
 40
2.0
 10
361.3474543842194
 20
185.7117273528888
 10
361.3569065587248
 20
185.7094657896634
 10
361.3670256044397
 20
185.7105869064753
 10
361.3765550973464
 20
185.7117273528888
 10
361.3765550973464
 20
185.7117273528888
 10
361.3474543842194
 20
185.7117273528888
 10
361.3474543842194
 20
185.7117273528888
 97
        0
 97
        1
330
83
 75
     0
 76
     1
 98
        1
 10
0.0
 20
0.0
450
        0
451
        0
460
0.0
461
0.0
452
        0
462
0.0
453
        0
470

  0
SPLINE
  5
85
330
70
100
AcDbEntity
  8
レイヤー_1
 62
    18
420
        0
370
     0
100
AcDbSpline
210
0.0
220
0.0
230
1.0
 70
    11
 71
     3
 72
    32
 73
    28
 74
     0
 42
0.0000000001
 43
0.0000000001
 40
0.0
 40
0.0
 40
0.0
 40
0.0
 40
1.0
 40
1.0
 40
1.0
 40
2.0
 40
2.0
 40
2.0
 40
3.0
 40
3.0
 40
3.0
 40
4.0
 40
4.0
 40
4.0
 40
5.0
 40
5.0
 40
5.0
 40
6.0
 40
6.0
 40
6.0
 40
7.0
 40
7.0
 40
7.0
 40
8.0
 40
8.0
 40
8.0
 40
9.0
 40
9.0
 40
9.0
 40
9.0
 10
351.9386361709054
 20
187.4486272396775
 30
0.0
 10
351.9386361709054
 20
187.4486272396775
 30
0.0
 10
351.9326923188381
 20
187.4456311516437
 30
0.0
 10
351.9326923188381
 20
187.4456311516437
 30
0.0
 10
351.9326923188381
 20
187.4456311516437
 30
0.0
 10
351.9356400828717
 20
187.4396872995765
 30
0.0
 10
351.9356400828717
 20
187.4396872995765
 30
0.0
 10
351.9356400828717
 20
187.4396872995765
 30
0.0
 10
351.9386361709054
 20
187.4396872995765
 30
0.0
 10
351.9386361709054
 20
187.4396872995765
 30
0.0
 10
351.9386361709054
 20
187.4396872995765
 30
0.0
 10
351.9505238750393
 20
187.4367395355436
 30
0.0
 10
351.9505238750393
 20
187.4367395355436
 30
0.0
 10
351.9505238750393
 20
187.4367395355436
 30
0.0
 10
351.9594154911394
 20
187.4337434475092
 30
0.0
 10
351.9594154911394
 20
187.4337434475092
 30
0.0
 10
351.9594154911394
 20
187.4337434475092
 30
0.0
 10
351.9713031952734
 20
187.4277995954432
 30
0.0
 10
351.9713031952734
 20
187.4277995954432
 30
0.0
 10
351.9713031952734
 20
187.4277995954432
 30
0.0
 10
352.0098657477083
 20
187.4307956834763
 30
0.0
 10
352.0098657477083
 20
187.4307956834763
 30
0.0
 10
351.9927107275154
 20
187.4310856274799
 30
0.0
 10
351.9722213512842
 20
187.4488205356799
 30
0.0
 10
351.9475277870055
 20
187.4456311516437
 30
0.0
 10
351.9475277870055
 20
187.4456311516437
 30
0.0
 10
351.9386361709054
 20
187.4486272396775
 30
0.0
 10
351.9386361709054
 20
187.4486272396775
 30
0.0
  0
SPLINE
  5
86
330
70
100
AcDbEntity
  8
レイヤー_1
100
AcDbSpline
210
0.0
220
0.0
230
1.0
 70
    11
 71
     3
 72
    32
 73
    28
 74
     0
 42
0.0000000001
 43
0.0000000001
 40
0.0
 40
0.0
 40
0.0
 40
0.0
 40
1.0
 40
1.0
 40
1.0
 40
2.0
 40
2.0
 40
2.0
 40
3.0
 40
3.0
 40
3.0
 40
4.0
 40
4.0
 40
4.0
 40
5.0
 40
5.0
 40
5.0
 40
6.0
 40
6.0
 40
6.0
 40
7.0
 40
7.0
 40
7.0
 40
8.0
 40
8.0
 40
8.0
 40
9.0
 40
9.0
 40
9.0
 40
9.0
 10
351.9386361709054
 20
187.4486272396769
 30
0.0
 10
351.9386361709054
 20
187.4486272396769
 30
0.0
 10
351.9326923188381
 20
187.4456311516437
 30
0.0
 10
351.9326923188381
 20
187.4456311516437
 30
0.0
 10
351.9326923188381
 20
187.4456311516437
 30
0.0
 10
351.9356400828717
 20
187.4396872995765
 30
0.0
 10
351.9356400828717
 20
187.4396872995765
 30
0.0
 10
351.9356400828717
 20
187.4396872995765
 30
0.0
 10
351.9386361709054
 20
187.4396872995765
 30
0.0
 10
351.9386361709054
 20
187.4396872995765
 30
0.0
 10
351.9386361709054
 20
187.4396872995765
 30
0.0
 10
351.9505238750393
 20
187.4367395355443
 30
0.0
 10
351.9505238750393
 20
187.4367395355443
 30
0.0
 10
351.9505238750393
 20
187.4367395355443
 30
0.0
 10
351.9594154911401
 20
187.4337434475092
 30
0.0
 10
351.9594154911401
 20
187.4337434475092
 30
0.0
 10
351.9594154911401
 20
187.4337434475092
 30
0.0
 10
351.9713031952734
 20
187.4277995954438
 30
0.0
 10
351.9713031952734
 20
187.4277995954438
 30
0.0
 10
351.9713031952734
 20
187.4277995954438
 30
0.0
 10
352.0098657477083
 20
187.430795683477
 30
0.0
 10
352.0098657477083
 20
187.430795683477
 30
0.0
 10
351.9927107275147
 20
187.4310856274792
 30
0.0
 10
351.9722213512842
 20
187.4488205356799
 30
0.0
 10
351.9475277870049
 20
187.4456311516437
 30
0.0
 10
351.9475277870049
 20
187.4456311516437
 30
0.0
 10
351.9386361709054
 20
187.4486272396769
 30
0.0
 10
351.9386361709054
 20
187.4486272396769
 30
0.0
  0
HATCH
  5
87
330
70
100
AcDbEntity
  8
レイヤー_1
 62
    18
420
        0
440
 33554687
100
AcDbHatch
 10
0.0
 20
0.0
 30
0.0
210
0.0
220
0.0
230
1.0
  2
SOLID
 70
     1
 71
     1
 91
        1
 92
        1
 93
        1
 72
     4
 94
        3
 73
     0
 74
     0
 95
       32
 96
       28
 40
0.0
 40
0.0
 40
0.0
 40
0.0
 40
1.0
 40
1.0
 40
1.0
 40
2.0
 40
2.0
 40
2.0
 40
3.0
 40
3.0
 40
3.0
 40
4.0
 40
4.0
 40
4.0
 40
5.0
 40
5.0
 40
5.0
 40
6.0
 40
6.0
 40
6.0
 40
7.0
 40
7.0
 40
7.0
 40
8.0
 40
8.0
 40
8.0
 40
9.0
 40
9.0
 40
9.0
 40
9.0
 10
351.9386361709054
 20
187.4486272396769
 10
351.9386361709054
 20
187.4486272396769
 10
351.9326923188381
 20
187.4456311516437
 10
351.9326923188381
 20
187.4456311516437
 10
351.9326923188381
 20
187.4456311516437
 10
351.9356400828717
 20
187.4396872995765
 10
351.9356400828717
 20
187.4396872995765
 10
351.9356400828717
 20
187.4396872995765
 10
351.9386361709054
 20
187.4396872995765
 10
351.9386361709054
 20
187.4396872995765
 10
351.9386361709054
 20
187.4396872995765
 10
351.9505238750393
 20
187.4367395355443
 10
351.9505238750393
 20
187.4367395355443
 10
351.9505238750393
 20
187.4367395355443
 10
351.9594154911401
 20
187.4337434475092
 10
351.9594154911401
 20
187.4337434475092
 10
351.9594154911401
 20
187.4337434475092
 10
351.9713031952734
 20
187.4277995954438
 10
351.9713031952734
 20
187.4277995954438
 10
351.9713031952734
 20
187.4277995954438
 10
352.0098657477083
 20
187.430795683477
 10
352.0098657477083
 20
187.430795683477
 10
351.9927107275147
 20
187.4310856274792
 10
351.9722213512842
 20
187.4488205356799
 10
351.9475277870049
 20
187.4456311516437
 10
351.9475277870049
 20
187.4456311516437
 10
351.9386361709054
 20
187.4486272396769
 10
351.9386361709054
 20
187.4486272396769
 97
        0
 97
        1
330
86
 75
     0
 76
     1
 98
        1
 10
0.0
 20
0.0
450
        0
451
        0
460
0.0
461
0.0
452
        0
462
0.0
453
        0
470

  0
SPLINE
  5
88
330
70
100
AcDbEntity
  8
レイヤー_1
 62
    18
420
        0
370
     0
100
AcDbSpline
210
0.0
220
0.0
230
1.0
 70
     9
 71
     3
 72
    35
 73
    31
 74
     0
 42
0.0000000001
 43
0.0000000001
 40
0.0
 40
0.0
 40
0.0
 40
0.0
 40
1.0
 40
1.0
 40
1.0
 40
2.0
 40
2.0
 40
2.0
 40
3.0
 40
3.0
 40
3.0
 40
4.0
 40
4.0
 40
4.0
 40
5.0
 40
5.0
 40
5.0
 40
6.0
 40
6.0
 40
6.0
 40
7.0
 40
7.0
 40
7.0
 40
8.0
 40
8.0
 40
8.0
 40
9.0
 40
9.0
 40
9.0
 40
10.0
 40
10.0
 40
10.0
 40
10.0
 10
339.7774906797508
 20
190.1177550857807
 30
0.0
 10
339.7169648690685
 20
190.1125360937212
 30
0.0
 10
339.6535879423534
 20
190.1014215735955
 30
0.0
 10
339.5934003996742
 20
190.1029196176127
 30
0.0
 10
339.5934003996742
 20
190.1029196176127
 30
0.0
 10
339.8249931722868
 20
190.0999235295789
 30
0.0
 10
339.8249931722868
 20
190.0999235295789
 30
0.0
 10
339.8249931722868
 20
190.0999235295789
 30
0.0
 10
339.8398528024541
 20
190.1029196176127
 30
0.0
 10
339.8398528024541
 20
190.1029196176127
 30
0.0
 10
339.8398528024541
 20
190.1029196176127
 30
0.0
 10
339.8546882706215
 20
190.1029196176127
 30
0.0
 10
339.8546882706215
 20
190.1029196176127
 30
0.0
 10
339.8546882706215
 20
190.1029196176127
 30
0.0
 10
339.8665518127549
 20
190.1058673816462
 30
0.0
 10
339.8665518127549
 20
190.1058673816462
 30
0.0
 10
339.8665518127549
 20
190.1058673816462
 30
0.0
 10
339.8784395168894
 20
190.1058673816462
 30
0.0
 10
339.8784395168894
 20
190.1058673816462
 30
0.0
 10
339.8784395168894
 20
190.1058673816462
 30
0.0
 10
339.8903030590229
 20
190.1088634696799
 30
0.0
 10
339.8903030590229
 20
190.1088634696799
 30
0.0
 10
339.8903030590229
 20
190.1088634696799
 30
0.0
 10
339.9021907631575
 20
190.1088634696799
 30
0.0
 10
339.9021907631575
 20
190.1088634696799
 30
0.0
 10
339.9148033272992
 20
190.1116179377105
 30
0.0
 10
339.9455373916463
 20
190.1153388857527
 30
0.0
 10
339.9586090337934
 20
190.1148073217472
 30
0.0
 10
339.9586090337934
 20
190.1148073217472
 30
0.0
 10
339.7774906797508
 20
190.1177550857807
 30
0.0
 10
339.7774906797508
 20
190.1177550857807
 30
0.0
  0
SPLINE
  5
89
330
70
100
AcDbEntity
  8
レイヤー_1
100
AcDbSpline
210
0.0
220
0.0
230
1.0
 70
     9
 71
     3
 72
    35
 73
    31
 74
     0
 42
0.0000000001
 43
0.0000000001
 40
0.0
 40
0.0
 40
0.0
 40
0.0
 40
1.0
 40
1.0
 40
1.0
 40
2.0
 40
2.0
 40
2.0
 40
3.0
 40
3.0
 40
3.0
 40
4.0
 40
4.0
 40
4.0
 40
5.0
 40
5.0
 40
5.0
 40
6.0
 40
6.0
 40
6.0
 40
7.0
 40
7.0
 40
7.0
 40
8.0
 40
8.0
 40
8.0
 40
9.0
 40
9.0
 40
9.0
 40
10.0
 40
10.0
 40
10.0
 40
10.0
 10
339.7774906797508
 20
190.1177550857801
 30
0.0
 10
339.7169648690685
 20
190.1125360937219
 30
0.0
 10
339.6535879423534
 20
190.1014215735955
 30
0.0
 10
339.5934003996749
 20
190.1029196176127
 30
0.0
 10
339.5934003996749
 20
190.1029196176127
 30
0.0
 10
339.8249931722868
 20
190.0999235295795
 30
0.0
 10
339.8249931722868
 20
190.0999235295795
 30
0.0
 10
339.8249931722868
 20
190.0999235295795
 30
0.0
 10
339.8398528024541
 20
190.1029196176127
 30
0.0
 10
339.8398528024541
 20
190.1029196176127
 30
0.0
 10
339.8398528024541
 20
190.1029196176127
 30
0.0
 10
339.8546882706215
 20
190.1029196176127
 30
0.0
 10
339.8546882706215
 20
190.1029196176127
 30
0.0
 10
339.8546882706215
 20
190.1029196176127
 30
0.0
 10
339.8665518127549
 20
190.1058673816475
 30
0.0
 10
339.8665518127549
 20
190.1058673816475
 30
0.0
 10
339.8665518127549
 20
190.1058673816475
 30
0.0
 10
339.8784395168894
 20
190.1058673816475
 30
0.0
 10
339.8784395168894
 20
190.1058673816475
 30
0.0
 10
339.8784395168894
 20
190.1058673816475
 30
0.0
 10
339.8903030590229
 20
190.1088634696806
 30
0.0
 10
339.8903030590229
 20
190.1088634696806
 30
0.0
 10
339.8903030590229
 20
190.1088634696806
 30
0.0
 10
339.9021907631575
 20
190.1088634696806
 30
0.0
 10
339.9021907631575
 20
190.1088634696806
 30
0.0
 10
339.9148033272999
 20
190.1116179377098
 30
0.0
 10
339.9455373916463
 20
190.115338885752
 30
0.0
 10
339.9586090337934
 20
190.1148073217478
 30
0.0
 10
339.9586090337934
 20
190.1148073217478
 30
0.0
 10
339.7774906797508
 20
190.1177550857801
 30
0.0
 10
339.7774906797508
 20
190.1177550857801
 30
0.0
  0
HATCH
  5
8A
330
70
100
AcDbEntity
  8
レイヤー_1
 62
    18
420
        0
440
 33554687
100
AcDbHatch
 10
0.0
 20
0.0
 30
0.0
210
0.0
220
0.0
230
1.0
  2
SOLID
 70
     1
 71
     1
 91
        1
 92
        1
 93
        1
 72
     4
 94
        3
 73
     0
 74
     0
 95
       35
 96
       31
 40
0.0
 40
0.0
 40
0.0
 40
0.0
 40
1.0
 40
1.0
 40
1.0
 40
2.0
 40
2.0
 40
2.0
 40
3.0
 40
3.0
 40
3.0
 40
4.0
 40
4.0
 40
4.0
 40
5.0
 40
5.0
 40
5.0
 40
6.0
 40
6.0
 40
6.0
 40
7.0
 40
7.0
 40
7.0
 40
8.0
 40
8.0
 40
8.0
 40
9.0
 40
9.0
 40
9.0
 40
10.0
 40
10.0
 40
10.0
 40
10.0
 10
339.7774906797508
 20
190.1177550857801
 10
339.7169648690685
 20
190.1125360937219
 10
339.6535879423534
 20
190.1014215735955
 10
339.5934003996749
 20
190.1029196176127
 10
339.5934003996749
 20
190.1029196176127
 10
339.8249931722868
 20
190.0999235295795
 10
339.8249931722868
 20
190.0999235295795
 10
339.8249931722868
 20
190.0999235295795
 10
339.8398528024541
 20
190.1029196176127
 10
339.8398528024541
 20
190.1029196176127
 10
339.8398528024541
 20
190.1029196176127
 10
339.8546882706215
 20
190.1029196176127
 10
339.8546882706215
 20
190.1029196176127
 10
339.8546882706215
 20
190.1029196176127
 10
339.8665518127549
 20
190.1058673816475
 10
339.8665518127549
 20
190.1058673816475
 10
339.8665518127549
 20
190.1058673816475
 10
339.8784395168894
 20
190.1058673816475
 10
339.8784395168894
 20
190.1058673816475
 10
339.8784395168894
 20
190.1058673816475
 10
339.8903030590229
 20
190.1088634696806
 10
339.8903030590229
 20
190.1088634696806
 10
339.8903030590229
 20
190.1088634696806
 10
339.9021907631575
 20
190.1088634696806
 10
339.9021907631575
 20
190.1088634696806
 10
339.9148033272999
 20
190.1116179377098
 10
339.9455373916463
 20
190.115338885752
 10
339.9586090337934
 20
190.1148073217478
 10
339.9586090337934
 20
190.1148073217478
 10
339.7774906797508
 20
190.1177550857801
 10
339.7774906797508
 20
190.1177550857801
 97
        0
 97
        1
330
89
 75
     0
 76
     1
 98
        1
 10
0.0
 20
0.0
450
        0
451
        0
460
0.0
461
0.0
452
        0
462
0.0
453
        0
470

  0
SPLINE
  5
8B
330
70
100
AcDbEntity
  8
レイヤー_1
 62
    18
420
        0
370
     0
100
AcDbSpline
210
0.0
220
0.0
230
1.0
 70
    11
 71
     3
 72
    20
 73
    16
 74
     0
 42
0.0000000001
 43
0.0000000001
 40
0.0
 40
0.0
 40
0.0
 40
0.0
 40
1.0
 40
1.0
 40
1.0
 40
2.0
 40
2.0
 40
2.0
 40
3.0
 40
3.0
 40
3.0
 40
4.0
 40
4.0
 40
4.0
 40
5.0
 40
5.0
 40
5.0
 40
5.0
 10
340.8196219135042
 20
189.182540703233
 30
0.0
 10
340.8196219135042
 20
189.182540703233
 30
0.0
 10
340.8344573816716
 20
189.1676569110647
 30
0.0
 10
340.8344573816716
 20
189.1676569110647
 30
0.0
 10
340.8344573816716
 20
189.1676569110647
 30
0.0
 10
340.8463450858055
 20
189.1647091470312
 30
0.0
 10
340.8463450858055
 20
189.1647091470312
 30
0.0
 10
340.8463450858055
 20
189.1647091470312
 30
0.0
 10
340.858208627939
 20
189.1706529990985
 30
0.0
 10
340.858208627939
 20
189.1706529990985
 30
0.0
 10
340.8790604341744
 20
189.1728275791232
 30
0.0
 10
340.8996464584068
 20
189.1777083031783
 30
0.0
 10
340.9235426766762
 20
189.1795446151993
 30
0.0
 10
340.9235426766762
 20
189.1795446151993
 30
0.0
 10
340.8196219135042
 20
189.182540703233
 30
0.0
 10
340.8196219135042
 20
189.182540703233
 30
0.0
  0
SPLINE
  5
8C
330
70
100
AcDbEntity
  8
レイヤー_1
100
AcDbSpline
210
0.0
220
0.0
230
1.0
 70
    11
 71
     3
 72
    20
 73
    16
 74
     0
 42
0.0000000001
 43
0.0000000001
 40
0.0
 40
0.0
 40
0.0
 40
0.0
 40
1.0
 40
1.0
 40
1.0
 40
2.0
 40
2.0
 40
2.0
 40
3.0
 40
3.0
 40
3.0
 40
4.0
 40
4.0
 40
4.0
 40
5.0
 40
5.0
 40
5.0
 40
5.0
 10
340.8196219135042
 20
189.182540703233
 30
0.0
 10
340.8196219135042
 20
189.182540703233
 30
0.0
 10
340.8344573816716
 20
189.1676569110647
 30
0.0
 10
340.8344573816716
 20
189.1676569110647
 30
0.0
 10
340.8344573816716
 20
189.1676569110647
 30
0.0
 10
340.8463450858049
 20
189.1647091470306
 30
0.0
 10
340.8463450858049
 20
189.1647091470306
 30
0.0
 10
340.8463450858049
 20
189.1647091470306
 30
0.0
 10
340.8582086279396
 20
189.1706529990978
 30
0.0
 10
340.8582086279396
 20
189.1706529990978
 30
0.0
 10
340.8790604341738
 20
189.172827579122
 30
0.0
 10
340.8996464584061
 20
189.1777083031789
 30
0.0
 10
340.9235426766755
 20
189.1795446151999
 30
0.0
 10
340.9235426766755
 20
189.1795446151999
 30
0.0
 10
340.8196219135042
 20
189.182540703233
 30
0.0
 10
340.8196219135042
 20
189.182540703233
 30
0.0
  0
HATCH
  5
8D
330
70
100
AcDbEntity
  8
レイヤー_1
 62
    18
420
        0
440
 33554687
100
AcDbHatch
 10
0.0
 20
0.0
 30
0.0
210
0.0
220
0.0
230
1.0
  2
SOLID
 70
     1
 71
     1
 91
        1
 92
        1
 93
        1
 72
     4
 94
        3
 73
     0
 74
     0
 95
       20
 96
       16
 40
0.0
 40
0.0
 40
0.0
 40
0.0
 40
1.0
 40
1.0
 40
1.0
 40
2.0
 40
2.0
 40
2.0
 40
3.0
 40
3.0
 40
3.0
 40
4.0
 40
4.0
 40
4.0
 40
5.0
 40
5.0
 40
5.0
 40
5.0
 10
340.8196219135042
 20
189.182540703233
 10
340.8196219135042
 20
189.182540703233
 10
340.8344573816716
 20
189.1676569110647
 10
340.8344573816716
 20
189.1676569110647
 10
340.8344573816716
 20
189.1676569110647
 10
340.8463450858049
 20
189.1647091470306
 10
340.8463450858049
 20
189.1647091470306
 10
340.8463450858049
 20
189.1647091470306
 10
340.8582086279396
 20
189.1706529990978
 10
340.8582086279396
 20
189.1706529990978
 10
340.8790604341738
 20
189.172827579122
 10
340.8996464584061
 20
189.1777083031789
 10
340.9235426766755
 20
189.1795446151999
 10
340.9235426766755
 20
189.1795446151999
 10
340.8196219135042
 20
189.182540703233
 10
340.8196219135042
 20
189.182540703233
 97
        0
 97
        1
330
8C
 75
     0
 76
     1
 98
        1
 10
0.0
 20
0.0
450
        0
451
        0
460
0.0
461
0.0
452
        0
462
0.0
453
        0
470

  0
SPLINE
  5
8E
330
70
100
AcDbEntity
  8
レイヤー_1
 62
    18
420
        0
370
     0
100
AcDbSpline
210
0.0
220
0.0
230
1.0
 70
    11
 71
     3
 72
    14
 73
    10
 74
     0
 42
0.0000000001
 43
0.0000000001
 40
0.0
 40
0.0
 40
0.0
 40
0.0
 40
1.0
 40
1.0
 40
1.0
 40
2.0
 40
2.0
 40
2.0
 40
3.0
 40
3.0
 40
3.0
 40
3.0
 10
340.4752167616195
 20
188.271005080952
 30
0.0
 10
340.4752167616195
 20
188.271005080952
 30
0.0
 10
340.3950472447156
 20
188.271005080952
 30
0.0
 10
340.3950472447156
 20
188.271005080952
 30
0.0
 10
340.4211180430098
 20
188.2747743529945
 30
0.0
 10
340.4437819992651
 20
188.2632249168644
 30
0.0
 10
340.4692729095529
 20
188.2651095528863
 30
0.0
 10
340.4692729095529
 20
188.2651095528863
 30
0.0
 10
340.4752167616195
 20
188.271005080952
 30
0.0
 10
340.4752167616195
 20
188.271005080952
 30
0.0
  0
SPLINE
  5
8F
330
70
100
AcDbEntity
  8
レイヤー_1
100
AcDbSpline
210
0.0
220
0.0
230
1.0
 70
    11
 71
     3
 72
    14
 73
    10
 74
     0
 42
0.0000000001
 43
0.0000000001
 40
0.0
 40
0.0
 40
0.0
 40
0.0
 40
1.0
 40
1.0
 40
1.0
 40
2.0
 40
2.0
 40
2.0
 40
3.0
 40
3.0
 40
3.0
 40
3.0
 10
340.4752167616202
 20
188.2710050809514
 30
0.0
 10
340.4752167616202
 20
188.2710050809514
 30
0.0
 10
340.3950472447156
 20
188.2710050809514
 30
0.0
 10
340.3950472447156
 20
188.2710050809514
 30
0.0
 10
340.4211180430104
 20
188.2747743529952
 30
0.0
 10
340.4437819992651
 20
188.2632249168637
 30
0.0
 10
340.4692729095529
 20
188.265109552885
 30
0.0
 10
340.4692729095529
 20
188.265109552885
 30
0.0
 10
340.4752167616202
 20
188.2710050809514
 30
0.0
 10
340.4752167616202
 20
188.2710050809514
 30
0.0
  0
HATCH
  5
90
330
70
100
AcDbEntity
  8
レイヤー_1
 62
    18
420
        0
440
 33554687
100
AcDbHatch
 10
0.0
 20
0.0
 30
0.0
210
0.0
220
0.0
230
1.0
  2
SOLID
 70
     1
 71
     1
 91
        1
 92
        1
 93
        1
 72
     4
 94
        3
 73
     0
 74
     0
 95
       14
 96
       10
 40
0.0
 40
0.0
 40
0.0
 40
0.0
 40
1.0
 40
1.0
 40
1.0
 40
2.0
 40
2.0
 40
2.0
 40
3.0
 40
3.0
 40
3.0
 40
3.0
 10
340.4752167616202
 20
188.2710050809514
 10
340.4752167616202
 20
188.2710050809514
 10
340.3950472447156
 20
188.2710050809514
 10
340.3950472447156
 20
188.2710050809514
 10
340.4211180430104
 20
188.2747743529952
 10
340.4437819992651
 20
188.2632249168637
 10
340.4692729095529
 20
188.265109552885
 10
340.4692729095529
 20
188.265109552885
 10
340.4752167616202
 20
188.2710050809514
 10
340.4752167616202
 20
188.2710050809514
 97
        0
 97
        1
330
8F
 75
     0
 76
     1
 98
        1
 10
0.0
 20
0.0
450
        0
451
        0
460
0.0
461
0.0
452
        0
462
0.0
453
        0
470

  0
SPLINE
  5
91
330
70
100
AcDbEntity
  8
レイヤー_1
 62
    18
420
        0
370
     0
100
AcDbSpline
210
0.0
220
0.0
230
1.0
 70
     9
 71
     3
 72
    14
 73
    10
 74
     0
 42
0.0000000001
 43
0.0000000001
 40
0.0
 40
0.0
 40
0.0
 40
0.0
 40
1.0
 40
1.0
 40
1.0
 40
2.0
 40
2.0
 40
2.0
 40
3.0
 40
3.0
 40
3.0
 40
3.0
 10
343.5362764141426
 20
186.5579192616321
 30
0.0
 10
343.5014831337501
 20
186.5558896536088
 30
0.0
 10
343.4671972553633
 20
186.5508639575523
 30
0.0
 10
343.4323556509706
 20
186.5519754095655
 30
0.0
 10
343.5056873217976
 20
186.5524103255698
 30
0.0
 10
343.6273188311698
 20
186.5448717814848
 30
0.0
 10
343.7144228421519
 20
186.5579192616321
 30
0.0
 10
343.7144228421519
 20
186.5579192616321
 30
0.0
 10
343.5362764141426
 20
186.5579192616321
 30
0.0
 10
343.5362764141426
 20
186.5579192616321
 30
0.0
  0
SPLINE
  5
92
330
70
100
AcDbEntity
  8
レイヤー_1
100
AcDbSpline
210
0.0
220
0.0
230
1.0
 70
     9
 71
     3
 72
    14
 73
    10
 74
     0
 42
0.0000000001
 43
0.0000000001
 40
0.0
 40
0.0
 40
0.0
 40
0.0
 40
1.0
 40
1.0
 40
1.0
 40
2.0
 40
2.0
 40
2.0
 40
3.0
 40
3.0
 40
3.0
 40
3.0
 10
343.5362764141426
 20
186.5579192616308
 30
0.0
 10
343.5014831337501
 20
186.5558896536094
 30
0.0
 10
343.467197255364
 20
186.5508639575523
 30
0.0
 10
343.4323556509706
 20
186.5519754095655
 30
0.0
 10
343.5056873217976
 20
186.5524103255704
 30
0.0
 10
343.6273188311698
 20
186.544871781486
 30
0.0
 10
343.7144228421526
 20
186.5579192616308
 30
0.0
 10
343.7144228421526
 20
186.5579192616308
 30
0.0
 10
343.5362764141426
 20
186.5579192616308
 30
0.0
 10
343.5362764141426
 20
186.5579192616308
 30
0.0
  0
HATCH
  5
93
330
70
100
AcDbEntity
  8
レイヤー_1
 62
    18
420
        0
440
 33554687
100
AcDbHatch
 10
0.0
 20
0.0
 30
0.0
210
0.0
220
0.0
230
1.0
  2
SOLID
 70
     1
 71
     1
 91
        1
 92
        1
 93
        1
 72
     4
 94
        3
 73
     0
 74
     0
 95
       14
 96
       10
 40
0.0
 40
0.0
 40
0.0
 40
0.0
 40
1.0
 40
1.0
 40
1.0
 40
2.0
 40
2.0
 40
2.0
 40
3.0
 40
3.0
 40
3.0
 40
3.0
 10
343.5362764141426
 20
186.5579192616308
 10
343.5014831337501
 20
186.5558896536094
 10
343.467197255364
 20
186.5508639575523
 10
343.4323556509706
 20
186.5519754095655
 10
343.5056873217976
 20
186.5524103255704
 10
343.6273188311698
 20
186.544871781486
 10
343.7144228421526
 20
186.5579192616308
 10
343.7144228421526
 20
186.5579192616308
 10
343.5362764141426
 20
186.5579192616308
 10
343.5362764141426
 20
186.5579192616308
 97
        0
 97
        1
330
92
 75
     0
 76
     1
 98
        1
 10
0.0
 20
0.0
450
        0
451
        0
460
0.0
461
0.0
452
        0
462
0.0
453
        0
470

  0
SPLINE
  5
95
330
70
100
AcDbEntity
  8
_U+30EC_U+30A4_U+30E4_U+30FC 1
 62
    18
420
        0
370
     0
100
AcDbSpline
210
0.0
220
0.0
230
1.0
 70
    11
 71
     3
 72
    20
 73
    16
 74
     0
 42
0.0000000001
 43
0.0000000001
 40
0.0
 40
0.0
 40
0.0
 40
0.0
 40
1.0
 40
1.0
 40
1.0
 40
2.0
 40
2.0
 40
2.0
 40
3.0
 40
3.0
 40
3.0
 40
4.0
 40
4.0
 40
4.0
 40
5.0
 40
5.0
 40
5.0
 40
5.0
 10
324.4653669207519
 20
5.143928346675913
 30
0.0
 10
324.4653669207519
 20
5.143928346675913
 30
0.0
 10
324.4623975590612
 20
5.140958796190623
 30
0.0
 10
324.4623975590612
 20
5.140958796190623
 30
0.0
 10
324.4789276602942
 20
5.127893076126697
 30
0.0
 10
324.4924883998363
 20
5.09146742086959
 30
0.0
 10
324.5010007713973
 20
5.072660645385702
 30
0.0
 10
324.5010007713973
 20
5.072660645385702
 30
0.0
 10
324.5217874359997
 20
5.072660645385702
 30
0.0
 10
324.5217874359997
 20
5.072660645385702
 30
0.0
 10
324.537970910321
 20
5.108343960219252
 30
0.0
 10
324.4924883998363
 20
5.133337157619152
 30
0.0
 10
324.4653669207519
 20
5.143928346675913
 30
0.0
 10
324.4653669207519
 20
5.143928346675913
 30
0.0
 10
324.4653669207519
 20
5.143928346675913
 30
0.0
 10
324.4653669207519
 20
5.143928346675913
 30
0.0
  0
SPLINE
  5
96
330
70
100
AcDbEntity
  8
_U+30EC_U+30A4_U+30E4_U+30FC 1
 62
    18
420
        0
370
     0
100
AcDbSpline
210
0.0
220
0.0
230
1.0
 70
     9
 71
     3
 72
    35
 73
    31
 74
     0
 42
0.0000000001
 43
0.0000000001
 40
0.0
 40
0.0
 40
0.0
 40
0.0
 40
1.0
 40
1.0
 40
1.0
 40
2.0
 40
2.0
 40
2.0
 40
3.0
 40
3.0
 40
3.0
 40
4.0
 40
4.0
 40
4.0
 40
5.0
 40
5.0
 40
5.0
 40
6.0
 40
6.0
 40
6.0
 40
7.0
 40
7.0
 40
7.0
 40
8.0
 40
8.0
 40
8.0
 40
9.0
 40
9.0
 40
9.0
 40
10.0
 40
10.0
 40
10.0
 40
10.0
 10
325.4868692547493
 20
9.607060776975306
 30
0.0
 10
325.4263413238771
 20
9.601814552237911
 30
0.0
 10
325.3629425821031
 20
9.590728532497939
 30
0.0
 10
325.3027612781427
 20
9.592213213343768
 30
0.0
 10
325.3027612781427
 20
9.592213213343768
 30
0.0
 10
325.5343809297457
 20
9.589243851652753
 30
0.0
 10
325.5343809297457
 20
9.589243851652753
 30
0.0
 10
325.5343809297457
 20
9.589243851652753
 30
0.0
 10
325.5492281157887
 20
9.592213213343768
 30
0.0
 10
325.5492281157887
 20
9.592213213343768
 30
0.0
 10
325.5492281157887
 20
9.592213213343768
 30
0.0
 10
325.5640756794206
 20
9.592213213343768
 30
0.0
 10
325.5640756794206
 20
9.592213213343768
 30
0.0
 10
325.5640756794206
 20
9.592213213343768
 30
0.0
 10
325.5759535037722
 20
9.595182575034144
 30
0.0
 10
325.5759535037722
 20
9.595182575034144
 30
0.0
 10
325.5759535037722
 20
9.595182575034144
 30
0.0
 10
325.5878313281242
 20
9.595182575034144
 30
0.0
 10
325.5878313281242
 20
9.595182575034144
 30
0.0
 10
325.5878313281242
 20
9.595182575034144
 30
0.0
 10
325.5997095300657
 20
9.598151936724518
 30
0.0
 10
325.5997095300657
 20
9.598151936724518
 30
0.0
 10
325.5997095300657
 20
9.598151936724518
 30
0.0
 10
325.6115873544173
 20
9.598151936724518
 30
0.0
 10
325.6115873544173
 20
9.598151936724518
 30
0.0
 10
325.6242075191922
 20
9.600923441659832
 30
0.0
 10
325.6549417720117
 20
9.604635143773121
 30
0.0
 10
325.6680074920757
 20
9.60409141528493
 30
0.0
 10
325.6680074920757
 20
9.60409141528493
 30
0.0
 10
325.486869254749
 20
9.607060776975306
 30
0.0
 10
325.4868692547493
 20
9.607060776975306
 30
0.0
  0
SPLINE
  5
97
330
70
100
AcDbEntity
  8
_U+30EC_U+30A4_U+30E4_U+30FC 1
 62
    18
420
        0
370
     0
100
AcDbSpline
210
0.0
220
0.0
230
1.0
 70
     9
 71
     3
 72
    32
 73
    28
 74
     0
 42
0.0000000001
 43
0.0000000001
 40
0.0
 40
0.0
 40
0.0
 40
0.0
 40
1.0
 40
1.0
 40
1.0
 40
2.0
 40
2.0
 40
2.0
 40
3.0
 40
3.0
 40
3.0
 40
4.0
 40
4.0
 40
4.0
 40
5.0
 40
5.0
 40
5.0
 40
6.0
 40
6.0
 40
6.0
 40
7.0
 40
7.0
 40
7.0
 40
8.0
 40
8.0
 40
8.0
 40
9.0
 40
9.0
 40
9.0
 40
9.0
 10
337.6498690040588
 20
6.937495871358797
 30
0.0
 10
337.6498690040588
 20
6.937495871358797
 30
0.0
 10
337.6439302806771
 20
6.934526132079875
 30
0.0
 10
337.6439302806771
 20
6.934526132079875
 30
0.0
 10
337.6439302806771
 20
6.934526132079875
 30
0.0
 10
337.6468996423678
 20
6.928587408699125
 30
0.0
 10
337.6468996423678
 20
6.928587408699125
 30
0.0
 10
337.6468996423678
 20
6.928587408699125
 30
0.0
 10
337.6498690040588
 20
6.928587408699125
 30
0.0
 10
337.6498690040588
 20
6.928587408699125
 30
0.0
 10
337.6498690040588
 20
6.928587408699125
 30
0.0
 10
337.6617479611784
 20
6.925617669418919
 30
0.0
 10
337.6617479611784
 20
6.925617669418919
 30
0.0
 10
337.6617479611784
 20
6.925617669418919
 30
0.0
 10
337.6706560462504
 20
6.922648307727903
 30
0.0
 10
337.6706560462504
 20
6.922648307727903
 30
0.0
 10
337.6706560462504
 20
6.922648307727903
 30
0.0
 10
337.6825334930132
 20
6.916709206757321
 30
0.0
 10
337.6825334930132
 20
6.916709206757321
 30
0.0
 10
337.6825334930132
 20
6.916709206757321
 30
0.0
 10
337.7211367053487
 20
6.919678946037528
 30
0.0
 10
337.7211367053487
 20
6.919678946037528
 30
0.0
 10
337.7039639472496
 20
6.919975731170761
 30
0.0
 10
337.6834744453699
 20
6.937693728115141
 30
0.0
 10
337.6587785994877
 20
6.934526132079875
 30
0.0
 10
337.6587785994877
 20
6.934526132079875
 30
0.0
 10
337.6498690040585
 20
6.937495871359439
 30
0.0
 10
337.6498690040588
 20
6.937495871358797
 30
0.0
  0
SPLINE
  5
98
330
70
100
AcDbEntity
  8
_U+30EC_U+30A4_U+30E4_U+30FC 1
 62
    18
420
        0
370
     0
100
AcDbSpline
210
0.0
220
0.0
230
1.0
 70
    11
 71
     3
 72
    65
 73
    61
 74
     0
 42
0.0000000001
 43
0.0000000001
 40
0.0
 40
0.0
 40
0.0
 40
0.0
 40
1.0
 40
1.0
 40
1.0
 40
2.0
 40
2.0
 40
2.0
 40
3.0
 40
3.0
 40
3.0
 40
4.0
 40
4.0
 40
4.0
 40
5.0
 40
5.0
 40
5.0
 40
6.0
 40
6.0
 40
6.0
 40
7.0
 40
7.0
 40
7.0
 40
8.0
 40
8.0
 40
8.0
 40
9.0
 40
9.0
 40
9.0
 40
10.0
 40
10.0
 40
10.0
 40
11.0
 40
11.0
 40
11.0
 40
12.0
 40
12.0
 40
12.0
 40
13.0
 40
13.0
 40
13.0
 40
14.0
 40
14.0
 40
14.0
 40
15.0
 40
15.0
 40
15.0
 40
16.0
 40
16.0
 40
16.0
 40
17.0
 40
17.0
 40
17.0
 40
18.0
 40
18.0
 40
18.0
 40
19.0
 40
19.0
 40
19.0
 40
20.0
 40
20.0
 40
20.0
 40
20.0
 10
344.7469334333019
 20
7.902577690108986
 30
0.0
 10
344.7469334333019
 20
7.902577690108986
 30
0.0
 10
344.7469334333019
 20
7.899607950829421
 30
0.0
 10
344.7469334333019
 20
7.899607950829421
 30
0.0
 10
344.7469334333019
 20
7.899607950829421
 30
0.0
 10
344.7528721566833
 20
7.893669227448031
 30
0.0
 10
344.7528721566833
 20
7.893669227448031
 30
0.0
 10
344.7528721566833
 20
7.893669227448031
 30
0.0
 10
344.7647496034461
 20
7.884760764786434
 30
0.0
 10
344.7647496034461
 20
7.884760764786434
 30
0.0
 10
344.7647496034461
 20
7.884760764786434
 30
0.0
 10
344.7736576885185
 20
7.878821663815852
 30
0.0
 10
344.7736576885185
 20
7.878821663815852
 30
0.0
 10
344.7736576885185
 20
7.878821663815852
 30
0.0
 10
344.7825657735903
 20
7.869913201154896
 30
0.0
 10
344.7825657735903
 20
7.869913201154896
 30
0.0
 10
344.7825657735903
 20
7.869913201154896
 30
0.0
 10
344.7885060073291
 20
7.861004738493299
 30
0.0
 10
344.7885060073291
 20
7.861004738493299
 30
0.0
 10
344.7885060073291
 20
7.861004738493299
 30
0.0
 10
344.7974140924009
 20
7.852096275831702
 30
0.0
 10
344.7974140924009
 20
7.852096275831702
 30
0.0
 10
344.7974140924009
 20
7.852096275831702
 30
0.0
 10
344.8033528157822
 20
7.843187813171388
 30
0.0
 10
344.8033528157822
 20
7.843187813171388
 30
0.0
 10
344.8033528157822
 20
7.843187813171388
 30
0.0
 10
344.8063221774726
 20
7.834279350509791
 30
0.0
 10
344.8063221774726
 20
7.834279350509791
 30
0.0
 10
344.8063221774726
 20
7.834279350509791
 30
0.0
 10
344.8092915391636
 20
7.8283406271284
 30
0.0
 10
344.8092915391636
 20
7.8283406271284
 30
0.0
 10
344.8092915391636
 20
7.8283406271284
 30
0.0
 10
344.8181996242354
 20
7.822401526157819
 30
0.0
 10
344.8181996242354
 20
7.822401526157819
 30
0.0
 10
344.8181996242354
 20
7.822401526157819
 30
0.0
 10
344.8271092196646
 20
7.822401526157819
 30
0.0
 10
344.8271092196646
 20
7.822401526157819
 30
0.0
 10
344.8271092196646
 20
7.822401526157819
 30
0.0
 10
344.8330479430453
 20
7.825370887848835
 30
0.0
 10
344.8330479430453
 20
7.825370887848835
 30
0.0
 10
344.8330479430453
 20
7.825370887848835
 30
0.0
 10
344.8389866664273
 20
7.834279350509791
 30
0.0
 10
344.8389866664273
 20
7.834279350509791
 30
0.0
 10
344.8389866664273
 20
7.834279350509791
 30
0.0
 10
344.8360173047364
 20
7.846157552450953
 30
0.0
 10
344.8360173047364
 20
7.846157552450953
 30
0.0
 10
344.8360173047364
 20
7.846157552450953
 30
0.0
 10
344.8330479430453
 20
7.855066015111908
 30
0.0
 10
344.8330479430453
 20
7.855066015111908
 30
0.0
 10
344.8330479430453
 20
7.855066015111908
 30
0.0
 10
344.8271092196646
 20
7.863974477773506
 30
0.0
 10
344.8271092196646
 20
7.863974477773506
 30
0.0
 10
344.8271092196646
 20
7.863974477773506
 30
0.0
 10
344.8181996242354
 20
7.872882562845913
 30
0.0
 10
344.8181996242354
 20
7.872882562845913
 30
0.0
 10
344.7811807763017
 20
7.895450693426451
 30
0.0
 10
344.7908817987524
 20
7.892184546602844
 30
0.0
 10
344.7469334333019
 20
7.902577690108986
 30
0.0
 10
344.7469334333019
 20
7.902577690108986
 30
0.0
 10
344.7469334333019
 20
7.902577690108986
 30
0.0
 10
344.7469334333019
 20
7.902577690108986
 30
0.0
  0
SPLINE
  5
99
330
70
100
AcDbEntity
  8
_U+30EC_U+30A4_U+30E4_U+30FC 1
 62
    18
420
        0
370
     0
100
AcDbSpline
210
0.0
220
0.0
230
1.0
 70
    11
 71
     3
 72
    41
 73
    37
 74
     0
 42
0.0000000001
 43
0.0000000001
 40
0.0
 40
0.0
 40
0.0
 40
0.0
 40
1.0
 40
1.0
 40
1.0
 40
2.0
 40
2.0
 40
2.0
 40
3.0
 40
3.0
 40
3.0
 40
4.0
 40
4.0
 40
4.0
 40
5.0
 40
5.0
 40
5.0
 40
6.0
 40
6.0
 40
6.0
 40
7.0
 40
7.0
 40
7.0
 40
8.0
 40
8.0
 40
8.0
 40
9.0
 40
9.0
 40
9.0
 40
10.0
 40
10.0
 40
10.0
 40
11.0
 40
11.0
 40
11.0
 40
12.0
 40
12.0
 40
12.0
 40
12.0
 10
344.7974140924009
 20
7.941180902445108
 30
0.0
 10
344.7974140924009
 20
7.941180902445108
 30
0.0
 10
344.7944447307098
 20
7.935241801473885
 30
0.0
 10
344.7944447307098
 20
7.935241801473885
 30
0.0
 10
344.7944447307098
 20
7.935241801473885
 30
0.0
 10
344.8033528157822
 20
7.932272439783511
 30
0.0
 10
344.8033528157822
 20
7.932272439783511
 30
0.0
 10
344.8033528157822
 20
7.932272439783511
 30
0.0
 10
344.8211704962832
 20
7.914455514460958
 30
0.0
 10
344.8211704962832
 20
7.914455514460958
 30
0.0
 10
344.8211704962832
 20
7.914455514460958
 30
0.0
 10
344.8300785813549
 20
7.908516413490377
 30
0.0
 10
344.8300785813549
 20
7.908516413490377
 30
0.0
 10
344.8300785813549
 20
7.908516413490377
 30
0.0
 10
344.8389866664273
 20
7.899607950829421
 30
0.0
 10
344.8389866664273
 20
7.899607950829421
 30
0.0
 10
344.8389866664273
 20
7.899607950829421
 30
0.0
 10
344.8508641131895
 20
7.881791025506227
 30
0.0
 10
344.8508641131895
 20
7.881791025506227
 30
0.0
 10
344.8508641131895
 20
7.881791025506227
 30
0.0
 10
344.8597737086187
 20
7.863974477773506
 30
0.0
 10
344.8597737086187
 20
7.863974477773506
 30
0.0
 10
344.8597737086187
 20
7.863974477773506
 30
0.0
 10
344.8657124320001
 20
7.858035376802924
 30
0.0
 10
344.8657124320001
 20
7.858035376802924
 30
0.0
 10
344.8657124320001
 20
7.858035376802924
 30
0.0
 10
344.8775898787628
 20
7.858035376802924
 30
0.0
 10
344.8775898787628
 20
7.858035376802924
 30
0.0
 10
344.8775898787628
 20
7.858035376802924
 30
0.0
 10
344.8805592404532
 20
7.861004738493299
 30
0.0
 10
344.8805592404532
 20
7.861004738493299
 30
0.0
 10
344.911095636518
 20
7.900548525596587
 30
0.0
 10
344.8288899304646
 20
7.938508325887325
 30
0.0
 10
344.7974140924009
 20
7.941180902445108
 30
0.0
 10
344.7974140924009
 20
7.941180902445108
 30
0.0
 10
344.7974140924009
 20
7.941180902445108
 30
0.0
 10
344.7974140924009
 20
7.941180902445108
 30
0.0
  0
SPLINE
  5
9A
330
70
100
AcDbEntity
  8
_U+30EC_U+30A4_U+30E4_U+30FC 1
 62
    18
420
        0
370
     0
100
AcDbSpline
210
0.0
220
0.0
230
1.0
 70
    11
 71
     3
 72
    20
 73
    16
 74
     0
 42
0.0000000001
 43
0.0000000001
 40
0.0
 40
0.0
 40
0.0
 40
0.0
 40
1.0
 40
1.0
 40
1.0
 40
2.0
 40
2.0
 40
2.0
 40
3.0
 40
3.0
 40
3.0
 40
4.0
 40
4.0
 40
4.0
 40
5.0
 40
5.0
 40
5.0
 40
5.0
 10
339.0574038390018
 20
11.02647305868077
 30
0.0
 10
339.0574038390018
 20
11.02647305868077
 30
0.0
 10
339.0484957539301
 20
11.01756497360901
 30
0.0
 10
339.0484957539301
 20
11.01756497360901
 30
0.0
 10
339.0785367529269
 20
10.99910463624171
 30
0.0
 10
339.117685204108
 20
10.9193736499904
 30
0.0
 10
339.1227328169107
 20
10.88393765610099
 30
0.0
 10
339.1227328169107
 20
10.88393765610099
 30
0.0
 10
339.1672747526275
 20
10.88393765610099
 30
0.0
 10
339.1672747526275
 20
10.88393765610099
 30
0.0
 10
339.2071647890531
 20
10.94387239429564
 30
0.0
 10
339.1020454582752
 20
11.00915153042618
 30
0.0
 10
339.0574038390018
 20
11.02647305868077
 30
0.0
 10
339.0574038390018
 20
11.02647305868077
 30
0.0
 10
339.0574038390018
 20
11.02647305868077
 30
0.0
 10
339.0574038390018
 20
11.02647305868077
 30
0.0
  0
SPLINE
  5
9B
330
70
100
AcDbEntity
  8
_U+30EC_U+30A4_U+30E4_U+30FC 1
 62
    18
420
        0
370
     0
100
AcDbSpline
210
0.0
220
0.0
230
1.0
 70
    11
 71
     3
 72
    20
 73
    16
 74
     0
 42
0.0000000001
 43
0.0000000001
 40
0.0
 40
0.0
 40
0.0
 40
0.0
 40
1.0
 40
1.0
 40
1.0
 40
2.0
 40
2.0
 40
2.0
 40
3.0
 40
3.0
 40
3.0
 40
4.0
 40
4.0
 40
4.0
 40
5.0
 40
5.0
 40
5.0
 40
5.0
 10
343.1879551107071
 20
9.378410109473774
 30
0.0
 10
343.1879551107071
 20
9.378410109473774
 30
0.0
 10
343.1552906217523
 20
9.3754407477834
 30
0.0
 10
343.1552906217523
 20
9.3754407477834
 30
0.0
 10
343.1665744982487
 20
9.365691393909907
 30
0.0
 10
343.1685047343835
 20
9.355545571348553
 30
0.0
 10
343.1849842386593
 20
9.357623822460206
 30
0.0
 10
343.1849842386593
 20
9.357623822460206
 30
0.0
 10
343.1879551107071
 20
9.366532662710351
 30
0.0
 10
343.1879551107071
 20
9.366532662710351
 30
0.0
 10
343.1879551107071
 20
9.366532662710351
 30
0.0
 10
343.1879551107071
 20
9.369502024402009
 30
0.0
 10
343.1879551107071
 20
9.369502024402009
 30
0.0
 10
343.1879551107071
 20
9.369502024402009
 30
0.0
 10
343.1879551107071
 20
9.378410109473774
 30
0.0
 10
343.1879551107071
 20
9.378410109473774
 30
0.0
  0
SPLINE
  5
9C
330
70
100
AcDbEntity
  8
_U+30EC_U+30A4_U+30E4_U+30FC 1
 62
    18
420
        0
370
     0
100
AcDbSpline
210
0.0
220
0.0
230
1.0
 70
    11
 71
     3
 72
    59
 73
    55
 74
     0
 42
0.0000000001
 43
0.0000000001
 40
0.0
 40
0.0
 40
0.0
 40
0.0
 40
1.0
 40
1.0
 40
1.0
 40
2.0
 40
2.0
 40
2.0
 40
3.0
 40
3.0
 40
3.0
 40
4.0
 40
4.0
 40
4.0
 40
5.0
 40
5.0
 40
5.0
 40
6.0
 40
6.0
 40
6.0
 40
7.0
 40
7.0
 40
7.0
 40
8.0
 40
8.0
 40
8.0
 40
9.0
 40
9.0
 40
9.0
 40
10.0
 40
10.0
 40
10.0
 40
11.0
 40
11.0
 40
11.0
 40
12.0
 40
12.0
 40
12.0
 40
13.0
 40
13.0
 40
13.0
 40
14.0
 40
14.0
 40
14.0
 40
15.0
 40
15.0
 40
15.0
 40
16.0
 40
16.0
 40
16.0
 40
17.0
 40
17.0
 40
17.0
 40
18.0
 40
18.0
 40
18.0
 40
18.0
 10
344.5568852229575
 20
9.319020610124084
 30
0.0
 10
344.5568852229575
 20
9.319020610124084
 30
0.0
 10
344.5539158612672
 20
9.319020610124084
 30
0.0
 10
344.5539158612672
 20
9.319020610124084
 30
0.0
 10
344.5539158612672
 20
9.319020610124084
 30
0.0
 10
344.5420384145044
 20
9.25666174908466
 30
0.0
 10
344.5420384145044
 20
9.25666174908466
 30
0.0
 10
344.5420384145044
 20
9.25666174908466
 30
0.0
 10
344.5390690528134
 20
9.253692387394284
 30
0.0
 10
344.5390690528134
 20
9.253692387394284
 30
0.0
 10
344.5390690528134
 20
9.253692387394284
 30
0.0
 10
344.5360996911229
 20
9.244783547143498
 30
0.0
 10
344.5360996911229
 20
9.244783547143498
 30
0.0
 10
344.5360996911229
 20
9.244783547143498
 30
0.0
 10
344.5301609677416
 20
9.241814185453122
 30
0.0
 10
344.5301609677416
 20
9.241814185453122
 30
0.0
 10
344.5301609677416
 20
9.241814185453122
 30
0.0
 10
344.3727772463512
 20
9.241814185453122
 30
0.0
 10
344.3727772463512
 20
9.241814185453122
 30
0.0
 10
344.3727772463512
 20
9.241814185453122
 30
0.0
 10
344.3460529911353
 20
9.238844823762107
 30
0.0
 10
344.3460529911353
 20
9.238844823762107
 30
0.0
 10
344.3460529911353
 20
9.238844823762107
 30
0.0
 10
344.3460529911353
 20
9.22993598351196
 30
0.0
 10
344.3460529911353
 20
9.22993598351196
 30
0.0
 10
344.3460529911353
 20
9.22993598351196
 30
0.0
 10
344.3490223528257
 20
9.22399726013057
 30
0.0
 10
344.3490223528257
 20
9.22399726013057
 30
0.0
 10
344.3490223528257
 20
9.22399726013057
 30
0.0
 10
344.3579304378975
 20
9.221027898440196
 30
0.0
 10
344.3579304378975
 20
9.221027898440196
 30
0.0
 10
344.3579304378975
 20
9.221027898440196
 30
0.0
 10
344.5301609677416
 20
9.221027898440196
 30
0.0
 10
344.5301609677416
 20
9.221027898440196
 30
0.0
 10
344.5466903137957
 20
9.219840002728242
 30
0.0
 10
344.5535201477558
 20
9.222958134574422
 30
0.0
 10
344.568764180077
 20
9.22993598351196
 30
0.0
 10
344.568764180077
 20
9.22993598351196
 30
0.0
 10
344.568764180077
 20
9.235875462071732
 30
0.0
 10
344.568764180077
 20
9.235875462071732
 30
0.0
 10
344.568764180077
 20
9.235875462071732
 30
0.0
 10
344.5657948183867
 20
9.241814185453122
 30
0.0
 10
344.5657948183867
 20
9.241814185453122
 30
0.0
 10
344.5657948183867
 20
9.241814185453122
 30
0.0
 10
344.5598545846485
 20
9.247752908834513
 30
0.0
 10
344.5598545846485
 20
9.247752908834513
 30
0.0
 10
344.5598545846485
 20
9.247752908834513
 30
0.0
 10
344.5568852229575
 20
9.253692387394284
 30
0.0
 10
344.5568852229575
 20
9.253692387394284
 30
0.0
 10
344.5568852229575
 20
9.253692387394284
 30
0.0
 10
344.5568852229575
 20
9.319020610124084
 30
0.0
 10
344.5568852229575
 20
9.319020610124084
 30
0.0
 10
344.5568852229575
 20
9.319020610124084
 30
0.0
 10
344.5568852229575
 20
9.319020610124084
 30
0.0
 10
344.5568852229575
 20
9.319020610124084
 30
0.0
  0
SPLINE
  5
9D
330
70
100
AcDbEntity
  8
_U+30EC_U+30A4_U+30E4_U+30FC 1
 62
    18
420
        0
370
     0
100
AcDbSpline
210
0.0
220
0.0
230
1.0
 70
    11
 71
     3
 72
    23
 73
    19
 74
     0
 42
0.0000000001
 43
0.0000000001
 40
0.0
 40
0.0
 40
0.0
 40
0.0
 40
1.0
 40
1.0
 40
1.0
 40
2.0
 40
2.0
 40
2.0
 40
3.0
 40
3.0
 40
3.0
 40
4.0
 40
4.0
 40
4.0
 40
5.0
 40
5.0
 40
5.0
 40
6.0
 40
6.0
 40
6.0
 40
6.0
 10
342.6118747770053
 20
8.728093845558316
 30
0.0
 10
342.6118747770053
 20
8.728093845558316
 30
0.0
 10
342.6089054153143
 20
8.722154744587735
 30
0.0
 10
342.6089054153143
 20
8.722154744587735
 30
0.0
 10
342.641817602803
 20
8.704486211831799
 30
0.0
 10
342.6615640090814
 20
8.676028822058315
 30
0.0
 10
342.6801731166045
 20
8.644948319916775
 30
0.0
 10
342.6801731166045
 20
8.644948319916775
 30
0.0
 10
342.6890812016769
 20
8.647917681607149
 30
0.0
 10
342.6890812016769
 20
8.647917681607149
 30
0.0
 10
342.6890812016769
 20
8.647917681607149
 30
0.0
 10
342.6950199250577
 20
8.647917681607149
 30
0.0
 10
342.6950199250577
 20
8.647917681607149
 30
0.0
 10
342.7203108515641
 20
8.690579222967429
 30
0.0
 10
342.6442417256478
 20
8.72309494176571
 30
0.0
 10
342.6118747770053
 20
8.728093845558316
 30
0.0
 10
342.6118747770053
 20
8.728093845558316
 30
0.0
 10
342.6118747770053
 20
8.728093845558316
 30
0.0
 10
342.6118747770053
 20
8.728093845558316
 30
0.0
  0
LINE
  5
9F
330
70
100
AcDbEntity
  8
FLAME
 62
     2
420
 16776960
370
    25
100
AcDbLine
 10
329.4212887108054
 20
265.9758861281556
 30
0.0
 11
329.4212887108054
 21
124.5847614242707
 31
0.0
  0
LINE
  5
A0
330
70
100
AcDbEntity
  8
FLAME
 62
     2
420
 16776960
370
    25
100
AcDbLine
 10
208.2288961074535
 20
124.5847614242707
 30
0.0
 11
208.2288961074535
 21
265.9758861281556
 31
0.0
  0
LINE
  5
A1
330
70
100
AcDbEntity
  8
FLAME
 62
     2
420
 16776960
370
    25
100
AcDbLine
 10
329.4212887108054
 20
124.5847614242707
 30
0.0
 11
208.2288961074535
 21
124.5847614242707
 31
0.0
  0
LINE
  5
A2
330
70
100
AcDbEntity
  8
FLAME
 62
     2
420
 16776960
370
    25
100
AcDbLine
 10
329.4212887108054
 20
131.3176721244383
 30
0.0
 11
208.2288961074535
 21
131.3176721244383
 31
0.0
  0
LINE
  5
A3
330
70
100
AcDbEntity
  8
FLAME
 62
     2
420
 16776960
370
    25
100
AcDbLine
 10
329.4212887108054
 20
138.050582824636
 30
0.0
 11
208.2288961074535
 21
138.050582824636
 31
0.0
  0
LINE
  5
A4
330
70
100
AcDbEntity
  8
FLAME
 62
     2
420
 16776960
370
    25
100
AcDbLine
 10
329.4212887108054
 20
144.7834935248036
 30
0.0
 11
208.2288961074535
 21
144.7834935248036
 31
0.0
  0
LINE
  5
A5
330
70
100
AcDbEntity
  8
FLAME
 62
     2
420
 16776960
370
    25
100
AcDbLine
 10
329.4212887108054
 20
265.9758861281556
 30
0.0
 11
208.2288961074535
 21
265.9758861281556
 31
0.0
  0
LWPOLYLINE
  5
A7
330
70
100
AcDbEntity
  8
Defpoints
 62
    18
420
        0
370
     0
100
AcDbPolyline
 90
        4
 70
     1
 43
0.0
 10
137.5333337554956
 20
379.7361634905009
 10
400.1168510627629
 20
379.7361634905009
 10
400.1168510627636
 20
0.0
 10
137.5333337554956
 20
0.0
  0
MTEXT
  5
A9
330
70
100
AcDbEntity
  8
text
100
AcDbMText
 10
212.6497461423128
 20
132.8506441419989
 30
0.0
 40
0.2
 41
0.0
 46
0.0
 71
     7
 72
     1
  1
\C4;\c16776960;\FMS PMincho|b0|i0|c128;\H3.366455;\W1.000000;KP47
 73
     1
 44
1.0
  0
MTEXT
  5
AA
330
70
100
AcDbEntity
  8
text
100
AcDbMText
 10
212.6686511037881
 20
139.8663442473956
 30
0.0
 40
0.2
 41
0.0
 46
0.0
 71
     7
 72
     1
  1
\C4;\c16776960;\FMS PMincho|b0|i0|c128;\H3.366455;\W1.000000;ペンダント 047
 73
     1
 44
1.0
  0
MTEXT
  5
AB
330
70
100
AcDbEntity
  8
text
100
AcDbMText
 10
212.6867593869325
 20
126.8157842530996
 30
0.0
 40
0.2
 41
0.0
 46
0.0
 71
     7
 72
     1
  1
\C4;\c16776960;\FMS PMincho|b0|i0|c128;\H3.366455;\W0.836900;E26 LED電球(100W相当　電球色　全方向/広配光タイプ）
 73
     1
 44
1.0
  0
LINE
  5
AD
330
70
100
AcDbEntity
  8
shade
 62
     6
420
 16711935
370
    25
100
AcDbLine
 10
265.9255102935206
 20
201.5042114363003
 30
0.0
 11
265.9255102935206
 21
232.515703739515
 31
0.0
  0
LINE
  5
AE
330
70
100
AcDbEntity
  8
shade
 62
     6
420
 16711935
370
    25
100
AcDbLine
 10
266.6310578176529
 20
201.5042114363003
 30
0.0
 11
266.6310578176529
 21
232.515703739515
 31
0.0
  0
LINE
  5
AF
330
70
100
AcDbEntity
  8
shade
 62
     6
420
 16711935
370
    25
100
AcDbLine
 10
266.2675916348586
 20
191.0064890046149
 30
0.0
 11
266.2675916348586
 21
196.0522458808211
 31
0.0
  0
LWPOLYLINE
  5
B0
330
70
100
AcDbEntity
  8
shade
 62
     6
420
 16711935
370
    25
100
AcDbPolyline
 90
        3
 70
     0
 43
0.0
 10
266.2675916348586
 20
191.0064890046149
 10
266.2675916348586
 20
196.0522458808211
 10
266.2675916348586
 20
189.9802341060305
  0
LINE
  5
B1
330
70
100
AcDbEntity
  8
shade
 62
     6
420
 16711935
370
    25
100
AcDbLine
 10
279.8654472918586
 20
173.1967276070316
 30
0.0
 11
279.6088835672048
 21
173.2608658195375
 31
0.0
  0
LINE
  5
B2
330
70
100
AcDbEntity
  8
shade
 62
     6
420
 16711935
370
    25
100
AcDbLine
 10
282.6662634214859
 20
177.7079558806108
 30
0.0
 11
279.5661247588781
 21
173.1967276070316
 31
0.0
  0
LINE
  5
B3
330
70
100
AcDbEntity
  8
shade
 62
     6
420
 16711935
370
    25
100
AcDbLine
 10
266.8876215422913
 20
201.5897290529845
 30
0.0
 11
266.2675916348586
 21
201.4186938196161
 31
0.0
  0
LINE
  5
B4
330
70
100
AcDbEntity
  8
shade
 62
     6
420
 16711935
370
    25
100
AcDbLine
 10
277.7274198780213
 20
198.1902732946739
 30
0.0
 11
273.2375601340351
 21
200.9483251786663
 31
0.0
  0
LINE
  5
B5
330
70
100
AcDbEntity
  8
shade
 62
     6
420
 16711935
370
    25
100
AcDbLine
 10
273.8362106372893
 20
200.7131299836207
 30
0.0
 11
273.622405720993
 21
200.7131299836207
 31
0.0
  0
LWPOLYLINE
  5
B6
330
70
100
AcDbEntity
  8
shade
 62
     6
420
 16711935
370
    25
100
AcDbPolyline
 90
        3
 70
     0
 43
0.0
 10
278.6253929142709
 20
197.8268016745866
 10
273.2375601340351
 20
200.9483251786663
 10
272.9810018466745
 20
200.9483251786663
  0
LINE
  5
B7
330
70
100
AcDbEntity
  8
shade
 62
     6
420
 16711935
370
    25
100
AcDbLine
 10
278.9674742555936
 20
197.8268016745866
 30
0.0
 11
273.8362106372893
 21
200.7131299836207
 31
0.0
  0
LWPOLYLINE
  5
B8
330
70
100
AcDbEntity
  8
shade
 62
     6
420
 16711935
370
    25
100
AcDbPolyline
 90
        3
 70
     0
 43
0.0
 10
276.957728704091
 20
198.5751025697679
 10
272.7458175261996
 20
201.0979810078866
 10
272.3823513434053
 20
201.0979810078866
  0
LWPOLYLINE
  5
B9
330
70
100
AcDbEntity
  8
shade
 62
     6
420
 16711935
370
    25
100
AcDbPolyline
 90
        3
 70
     0
 43
0.0
 10
275.8459561888073
 20
198.9385741898552
 10
272.2113106727442
 20
201.2262574328972
 10
271.7837062774289
 20
201.2262574328972
  0
LWPOLYLINE
  5
BA
330
70
100
AcDbEntity
  8
shade
 62
     6
420
 16711935
370
    25
100
AcDbPolyline
 90
        3
 70
     0
 43
0.0
 10
274.6914194279192
 20
199.1951270399383
 10
271.6340395736382
 20
201.3117750496121
 10
271.0567739118252
 20
201.3331544537911
  0
LWPOLYLINE
  5
BB
330
70
100
AcDbEntity
  8
shade
 62
     6
420
 16711935
370
    25
100
AcDbPolyline
 90
        3
 70
     0
 43
0.0
 10
270.1801857170472
 20
201.4828320321214
 10
270.8429744328217
 20
201.5042114363003
 10
273.6437905624492
 20
199.3448046182689
  0
LWPOLYLINE
  5
BC
330
70
100
AcDbEntity
  8
shade
 62
     6
420
 16711935
370
    25
100
AcDbPolyline
 90
        3
 70
     0
 43
0.0
 10
272.2113106727442
 20
199.5799780642042
 10
270.0732832588914
 20
201.5683496488056
 10
269.2394538724401
 20
201.5042114363003
  0
LWPOLYLINE
  5
BD
330
70
100
AcDbEntity
  8
shade
 62
     6
420
 16711935
370
    25
100
AcDbPolyline
 90
        3
 70
     0
 43
0.0
 10
268.2773371863766
 20
201.5255908404792
 10
269.111172010121
 20
201.6752466696687
 10
270.8215895913657
 20
199.7082544892151
  0
LWPOLYLINE
  5
BE
330
70
100
AcDbEntity
  8
shade
 62
     6
420
 16711935
370
    25
100
AcDbPolyline
 90
        4
 70
     0
 43
0.0
 10
269.1539308184631
 20
200.0075878967968
 10
268.1704401655139
 20
201.7180054780259
 10
267.8711121952403
 20
201.7393848822048
 10
267.1014264585873
 20
201.5897290529845
  0
LWPOLYLINE
  5
BF
330
70
100
AcDbEntity
  8
shade
 62
     6
420
 16711935
370
    25
100
AcDbPolyline
 90
        4
 70
     0
 43
0.0
 10
267.5717896622447
 20
199.9434496842607
 10
267.080041617131
 20
201.6538672654898
 10
266.8876215422913
 20
201.5897290529845
 10
266.2675916348586
 20
200.9483251786663
  0
LWPOLYLINE
  5
C0
330
70
100
AcDbEntity
  8
shade
 62
     6
420
 16711935
370
    25
100
AcDbPolyline
 90
       24
 70
     0
 43
0.0
 10
266.2675916348586
 20
196.0522458808211
 10
267.5717896622447
 20
199.9434496842607
 10
268.8973670938093
 20
196.1591429016842
 10
269.1539308184631
 20
200.0075878967968
 10
271.120917561639
 20
195.859809494133
 10
270.8215895913657
 20
199.7082544892151
 10
273.0451400591952
 20
195.8170506857755
 10
272.2113106727442
 20
199.5799780642042
 10
274.8410806944018
 20
195.581877239871
 10
273.6437905624492
 20
199.3448046182689
 10
276.5728831171181
 20
195.2611644281415
 10
274.6914194279192
 20
199.1951270399383
 10
277.8129429319986
 20
195.0046115780585
 10
275.8459561888073
 20
198.9385741898552
 10
279.2026585760685
 20
194.7694163830436
 10
276.957728704091
 20
198.5751025697679
 10
280.357195336972
 20
194.4914841287816
 10
277.7274198780216
 20
198.1902732946739
 10
281.2337835317654
 20
194.3418065504202
 10
277.7274198780216
 20
198.1902732946739
 10
281.8965722475555
 20
193.9783566795048
 10
278.6253929142709
 20
197.8268016745866
 10
282.3455614843268
 20
193.5507468468814
 10
278.9674742555936
 20
197.8268016745866
  0
LWPOLYLINE
  5
C1
330
70
100
AcDbEntity
  8
shade
 62
     6
420
 16711935
370
    25
100
AcDbPolyline
 90
        3
 70
     0
 43
0.0
 10
285.3174182846152
 20
188.0560224830759
 10
283.0724884126222
 20
193.0803782059621
 10
278.967474255609
 20
197.8268016745866
  0
LINE
  5
C2
330
70
100
AcDbEntity
  8
shade
 62
     6
420
 16711935
370
    25
100
AcDbLine
 10
284.9111932934791
 20
188.3339547373375
 30
0.0
 11
282.3455614843268
 21
193.5507468468814
 31
0.0
  0
LINE
  5
C3
330
70
100
AcDbEntity
  8
shade
 62
     6
420
 16711935
370
    25
100
AcDbLine
 10
284.312542790225
 20
188.6546675490677
 30
0.0
 11
281.8965722475555
 21
193.9783566795048
 31
0.0
  0
LINE
  5
C4
330
70
100
AcDbEntity
  8
shade
 62
     6
420
 16711935
370
    25
100
AcDbLine
 10
283.3504315414392
 20
189.1036567858078
 30
0.0
 11
281.2337835317654
 21
194.3418065504202
 31
0.0
  0
LINE
  5
C5
330
70
100
AcDbEntity
  8
shade
 62
     6
420
 16711935
370
    25
100
AcDbLine
 10
282.3455614843268
 20
189.2105538067017
 30
0.0
 11
280.357195336972
 21
194.4914841287816
 31
0.0
  0
LINE
  5
C6
330
70
100
AcDbEntity
  8
shade
 62
     6
420
 16711935
370
    25
100
AcDbLine
 10
280.9986046485832
 20
189.5953830817957
 30
0.0
 11
279.2026585760839
 21
194.7694163830436
 31
0.0
  0
LINE
  5
C7
330
70
100
AcDbEntity
  8
shade
 62
     6
420
 16711935
370
    25
100
AcDbLine
 10
279.6302629713837
 20
189.9160958935252
 30
0.0
 11
277.8129429319986
 21
195.0046115780889
 31
0.0
  0
LINE
  5
C8
330
70
100
AcDbEntity
  8
shade
 62
     6
420
 16711935
370
    25
100
AcDbLine
 10
278.0053630068386
 20
190.3437057261178
 30
0.0
 11
276.5728831171181
 21
195.2611644281415
 31
0.0
  0
LINE
  5
C9
330
70
100
AcDbEntity
  8
shade
 62
     6
420
 16711935
370
    25
100
AcDbLine
 10
276.2094223716015
 20
190.2795675136125
 30
0.0
 11
274.8410806944018
 21
195.5818772399019
 31
0.0
  0
LINE
  5
CA
330
70
100
AcDbEntity
  8
shade
 62
     6
420
 16711935
370
    25
100
AcDbLine
 10
274.0072513079658
 20
190.6643967887373
 30
0.0
 11
273.0451400591954
 21
195.8170506857755
 31
0.0
  0
LINE
  5
CB
330
70
100
AcDbEntity
  8
shade
 62
     6
420
 16711935
370
    25
100
AcDbLine
 10
271.6126601694747
 20
190.7499361545627
 30
0.0
 11
271.120917561639
 21
195.859809494133
 31
0.0
  0
LINE
  5
CC
330
70
100
AcDbEntity
  8
shade
 62
     6
420
 16711935
370
    25
100
AcDbLine
 10
269.0256489561438
 20
190.9423507921096
 30
0.0
 11
268.8973670938093
 21
196.1591429016842
 31
0.0
  0
LINE
  5
CD
330
70
100
AcDbEntity
  8
shade
 62
     6
420
 16711935
370
    25
100
AcDbLine
 10
266.2675916348586
 20
189.9802341060305
 30
0.0
 11
266.2675916348586
 21
196.0522458808211
 31
0.0
  0
LINE
  5
CE
330
70
100
AcDbEntity
  8
shade
 62
     6
420
 16711935
370
    25
100
AcDbLine
 10
267.9780146533961
 20
184.3144745088569
 30
0.0
 11
266.2675916348586
 21
191.0064890046149
 31
0.0
  0
LWPOLYLINE
  5
CF
330
70
100
AcDbEntity
  8
shade
 62
     6
420
 16711935
370
    25
100
AcDbPolyline
 90
       25
 70
     0
 43
0.0
 10
267.9780146533961
 20
184.3144745088569
 10
269.0256489561438
 20
190.9423507921096
 10
270.5008876542063
 20
184.3358539130358
 10
271.6126601694747
 20
190.7499361545627
 10
272.9382376010393
 20
184.0792793138109
 10
274.0072513079658
 20
190.6643967887373
 10
275.2045468772114
 20
183.6302900770401
 10
276.2094223716012
 20
190.2795675136125
 10
277.235671832908
 20
183.6944282895453
 10
278.0053630068386
 20
190.3437057261178
 10
279.0316179054074
 20
183.5661518645348
 10
279.6302629713837
 20
189.9160958935252
 10
280.4427129536716
 20
183.523393056177
 10
280.9986046485832
 20
189.5953830817957
 10
281.7469109810576
 20
183.2668402060935
 10
282.3455614843268
 20
189.2105538067017
 10
283.0083502001166
 20
183.0744038194054
 10
283.3504315414392
 20
189.1036567858386
 10
283.9918408530504
 20
182.9247479901851
 10
284.3125427902096
 20
188.6546675490677
 10
284.7615320269811
 20
182.8178509693227
 10
284.9111932934791
 20
188.3339547373375
 10
285.2318952306536
 20
182.2192059033617
 10
285.3174182846152
 20
188.0560224830759
 10
285.467079551113
 20
182.090907729148
  0
LINE
  5
D0
330
70
100
AcDbEntity
  8
shade
 62
     6
420
 16711935
370
    25
100
AcDbLine
 10
283.5214722121158
 20
177.7720940931161
 30
0.0
 11
285.467079551113
 21
182.090907729148
 31
0.0
  0
LINE
  5
D1
330
70
100
AcDbEntity
  8
shade
 62
     6
420
 16711935
370
    25
100
AcDbLine
 10
283.1580114665992
 20
177.7079558806108
 30
0.0
 11
285.2318952306536
 21
182.2192059033617
 31
0.0
  0
LINE
  5
D2
330
70
100
AcDbEntity
  8
shade
 62
     6
420
 16711935
370
    25
100
AcDbLine
 10
282.6662634214859
 20
177.7079558806108
 30
0.0
 11
284.7615320269811
 21
182.8178509693227
 31
0.0
  0
LINE
  5
D3
330
70
100
AcDbEntity
  8
shade
 62
     6
420
 16711935
370
    25
100
AcDbLine
 10
281.9179516517187
 20
177.8362323056522
 30
0.0
 11
283.9918408530504
 21
182.9247479901851
 31
0.0
  0
LINE
  5
D4
330
70
100
AcDbEntity
  8
shade
 62
     6
420
 16711935
370
    25
100
AcDbLine
 10
280.9986046485832
 20
177.87901286312
 30
0.0
 11
283.0083502001166
 21
183.0744038194054
 31
0.0
  0
LINE
  5
D5
330
70
100
AcDbEntity
  8
shade
 62
     6
420
 16711935
370
    25
100
AcDbLine
 10
280.0578728039761
 20
178.0714275006982
 30
0.0
 11
281.7469109810576
 21
183.2668402060935
 31
0.0
  0
LINE
  5
D6
330
70
100
AcDbEntity
  8
shade
 62
     6
420
 16711935
370
    25
100
AcDbLine
 10
278.7536747765904
 20
178.0714275006982
 30
0.0
 11
280.4427129536716
 21
183.523393056177
 31
0.0
  0
LINE
  5
D7
330
70
100
AcDbEntity
  8
shade
 62
     6
420
 16711935
370
    25
100
AcDbLine
 10
277.6205174198655
 20
178.4990373332908
 30
0.0
 11
279.0316179054074
 21
183.5661518645341
 31
0.0
  0
LINE
  5
D8
330
70
100
AcDbEntity
  8
shade
 62
     6
420
 16711935
370
    25
100
AcDbLine
 10
276.0169968594838
 20
178.6914519708374
 30
0.0
 11
277.235671832908
 21
183.6944282895453
 31
0.0
  0
LINE
  5
D9
330
70
100
AcDbEntity
  8
shade
 62
     6
420
 16711935
370
    25
100
AcDbLine
 10
274.1782974159201
 20
178.7342107791953
 30
0.0
 11
275.2045468772114
 21
183.6302900770401
 31
0.0
  0
LINE
  5
DA
330
70
100
AcDbEntity
  8
shade
 62
     6
420
 16711935
370
    25
100
AcDbLine
 10
272.1471670229304
 20
178.7342107791953
 30
0.0
 11
272.9382376010393
 21
184.0792793138109
 31
0.0
  0
LINE
  5
DB
330
70
100
AcDbEntity
  8
shade
 62
     6
420
 16711935
370
    25
100
AcDbLine
 10
269.8808577467586
 20
178.8624872042366
 30
0.0
 11
270.5008876542063
 21
184.3358539130358
 31
0.0
  0
LINE
  5
DC
330
70
100
AcDbEntity
  8
shade
 62
     6
420
 16711935
370
    25
100
AcDbLine
 10
280.3144310913371
 20
173.1753482028534
 30
0.0
 11
279.9295909416724
 21
173.2822452237158
 31
0.0
  0
LINE
  5
DD
330
70
100
AcDbEntity
  8
shade
 62
     6
420
 16711935
370
    25
100
AcDbLine
 10
279.5661247588781
 20
173.1967276070316
 30
0.0
 11
278.7750541807689
 21
173.5601774779473
 31
0.0
  0
LINE
  5
DE
330
70
100
AcDbEntity
  8
shade
 62
     6
420
 16711935
370
    25
100
AcDbLine
 10
278.6040135100924
 20
173.1967276070316
 30
0.0
 11
277.8557017403406
 21
173.496039265442
 31
0.0
  0
LINE
  5
DF
330
70
100
AcDbEntity
  8
shade
 62
     6
420
 16711935
370
    25
100
AcDbLine
 10
277.6205174198655
 20
173.1753482028534
 30
0.0
 11
276.89359049157
 21
173.602958035446
 31
0.0
  0
LINE
  5
E0
330
70
100
AcDbEntity
  8
shade
 62
     6
420
 16711935
370
    25
100
AcDbLine
 10
276.5515037129392
 20
173.1325893944955
 30
0.0
 11
275.7390537306668
 21
173.602958035446
 31
0.0
  0
LINE
  5
E1
330
70
100
AcDbEntity
  8
shade
 62
     6
420
 16711935
370
    25
100
AcDbLine
 10
275.5466336558268
 20
173.3036246278947
 30
0.0
 11
274.7128042693755
 21
173.7098550563084
 31
0.0
  0
LINE
  5
E2
330
70
100
AcDbEntity
  8
shade
 62
     6
420
 16711935
370
    25
100
AcDbLine
 10
274.4348557032808
 20
173.2181070111797
 30
0.0
 11
273.4299856461529
 21
173.9664079063918
 31
0.0
  0
LINE
  5
E3
330
70
100
AcDbEntity
  8
shade
 62
     6
420
 16711935
370
    25
100
AcDbLine
 10
273.0665194633587
 20
173.3036246278947
 30
0.0
 11
271.8478444899345
 21
174.0946843314332
 31
0.0
  0
LINE
  5
E4
330
70
100
AcDbEntity
  8
shade
 62
     6
420
 16711935
370
    25
100
AcDbLine
 10
271.4416194987981
 20
173.2394864153586
 30
0.0
 11
270.0946626630549
 21
174.3085001223002
 31
0.0
  0
LINE
  5
E5
330
70
100
AcDbEntity
  8
shade
 62
     6
420
 16711935
370
    25
100
AcDbLine
 10
269.667058267755
 20
173.3463834362211
 30
0.0
 11
268.405619048696
 21
174.5650529723528
 31
0.0
  0
LWPOLYLINE
  5
E6
330
70
100
AcDbEntity
  8
shade
 62
     6
420
 16711935
370
    25
100
AcDbPolyline
 90
        3
 70
     0
 43
0.0
 10
267.9566352492175
 20
173.2822452237158
 10
266.7165808716299
 20
174.5222941640258
 10
266.2675916348586
 20
173.1753482028534
  0
LWPOLYLINE
  5
E7
330
70
100
AcDbEntity
  8
shade
 62
     6
420
 16711935
370
    25
100
AcDbPolyline
 90
        6
 70
     0
 43
0.0
 10
279.8654472918586
 20
173.1967276070316
 10
282.6662634214859
 20
177.7079558806108
 10
279.8654472918586
 20
173.1967276070316
 10
283.1580114665992
 20
177.7079558806108
 10
280.3144310913371
 20
173.1753482028534
 10
283.5214722121158
 20
177.7720940931161
  0
LWPOLYLINE
  5
E8
330
70
100
AcDbEntity
  8
shade
 62
     6
420
 16711935
370
    25
100
AcDbPolyline
 90
       19
 70
     0
 43
0.0
 10
267.9566352492175
 20
173.2822452237158
 10
269.8808577467586
 20
178.8624872042366
 10
269.667058267755
 20
173.3463834362211
 10
272.1471670229304
 20
178.7342107791953
 10
271.4416194987981
 20
173.2394864153586
 10
274.1782974159201
 20
178.7342107791953
 10
273.0665194633587
 20
173.3036246278947
 10
276.0169968594838
 20
178.6914519708682
 10
274.4348557032808
 20
173.2181070111797
 10
277.6205174198655
 20
178.4990373332908
 10
275.5466336558268
 20
173.3036246278947
 10
278.7536747765904
 20
178.0714275006982
 10
276.5515037129392
 20
173.1325893944955
 10
280.0578728039915
 20
178.0714275006982
 10
277.6205174198655
 20
173.1753482028534
 10
280.9986046485832
 20
177.87901286312
 10
278.6040135100924
 20
173.1967276070316
 10
281.9179516517341
 20
177.8362323056522
 10
279.5661247588627
 20
173.1967276070316
  0
LINE
  5
E9
330
70
100
AcDbEntity
  8
shade
 62
     6
420
 16711935
370
    25
100
AcDbLine
 10
267.4435077999253
 20
179.0335441867459
 30
0.0
 11
266.2675916348586
 21
173.1753482028534
 31
0.0
  0
LWPOLYLINE
  5
EA
330
70
100
AcDbEntity
  8
shade
 62
     6
420
 16711935
370
    25
100
AcDbPolyline
 90
        3
 70
     0
 43
0.0
 10
267.9780146533961
 20
184.3144745088569
 10
267.4435077999253
 20
179.0335441867459
 10
267.9566352492175
 20
173.2822452237158
  0
LINE
  5
EB
330
70
100
AcDbEntity
  8
shade
 62
     6
420
 16711935
370
    25
100
AcDbLine
 10
266.2675916348586
 20
191.0064890046149
 30
0.0
 11
266.2675916348586
 21
196.0522458808211
 31
0.0
  0
LWPOLYLINE
  5
EC
330
70
100
AcDbEntity
  8
shade
 62
     6
420
 16711935
370
    25
100
AcDbPolyline
 90
        3
 70
     0
 43
0.0
 10
266.2675916348586
 20
191.0064890046149
 10
266.2675916348586
 20
196.0522458808211
 10
266.2675916348586
 20
189.9802341060305
  0
LINE
  5
ED
330
70
100
AcDbEntity
  8
shade
 62
     6
420
 16711935
370
    25
100
AcDbLine
 10
252.6911181006607
 20
173.1967276070316
 30
0.0
 11
252.9263024211359
 21
173.2608658195375
 31
0.0
  0
LINE
  5
EE
330
70
100
AcDbEntity
  8
shade
 62
     6
420
 16711935
370
    25
100
AcDbLine
 10
249.8689225668702
 20
177.7079558806108
 30
0.0
 11
252.9904433522954
 21
173.1967276070316
 31
0.0
  0
LINE
  5
EF
330
70
100
AcDbEntity
  8
shade
 62
     6
420
 16711935
370
    25
100
AcDbLine
 10
265.6475671647036
 20
201.5897290529845
 30
0.0
 11
266.2675916348586
 21
201.4186938196161
 31
0.0
  0
LINE
  5
F0
330
70
100
AcDbEntity
  8
shade
 62
     6
420
 16711935
370
    25
100
AcDbLine
 10
254.8077661103345
 20
198.1902732946739
 30
0.0
 11
259.2976231356975
 21
200.9483251786663
 31
0.0
  0
LINE
  5
F1
330
70
100
AcDbEntity
  8
shade
 62
     6
420
 16711935
370
    25
100
AcDbLine
 10
258.6989780697057
 20
200.7131299836207
 30
0.0
 11
258.9341569529032
 21
200.7131299836207
 31
0.0
  0
LWPOLYLINE
  5
F2
330
70
100
AcDbEntity
  8
shade
 62
     6
420
 16711935
370
    25
100
AcDbPolyline
 90
        3
 70
     0
 43
0.0
 10
253.9097957927391
 20
197.8268016745866
 10
259.2976231356975
 20
200.9483251786663
 10
259.5755662644991
 20
200.9483251786663
  0
LINE
  5
F3
330
70
100
AcDbEntity
  8
shade
 62
     6
420
 16711935
370
    25
100
AcDbLine
 10
253.5677117327471
 20
197.8268016745866
 30
0.0
 11
258.6989780697057
 21
200.7131299836207
 31
0.0
  0
LWPOLYLINE
  5
F4
330
70
100
AcDbEntity
  8
shade
 62
     6
420
 16711935
370
    25
100
AcDbPolyline
 90
        3
 70
     0
 43
0.0
 10
255.5774572842806
 20
198.5751025697679
 10
259.810750584974
 20
201.0979810078866
 10
260.1528373636051
 20
201.0979810078866
  0
LWPOLYLINE
  5
F5
330
70
100
AcDbEntity
  8
shade
 62
     6
420
 16711935
370
    25
100
AcDbPolyline
 90
        3
 70
     0
 43
0.0
 10
256.6892325181877
 20
198.9385741898552
 10
260.3452574384294
 20
201.2262574328972
 10
260.7514824295812
 20
201.2262574328972
  0
LWPOLYLINE
  5
F6
330
70
100
AcDbEntity
  8
shade
 62
     6
420
 16711935
370
    25
100
AcDbPolyline
 90
        3
 70
     0
 43
0.0
 10
257.8437638417981
 20
199.1951270399383
 10
260.9011436960638
 20
201.3117750496121
 10
261.4784093578766
 20
201.3331544537911
  0
LWPOLYLINE
  5
F7
330
70
100
AcDbEntity
  8
shade
 62
     6
420
 16711935
370
    25
100
AcDbPolyline
 90
        3
 70
     0
 43
0.0
 10
262.3763823941263
 20
201.4828320321214
 10
261.692214274173
 20
201.5042114363003
 10
258.9127775487243
 20
199.3448046182689
  0
LWPOLYLINE
  5
F8
330
70
100
AcDbEntity
  8
shade
 62
     6
420
 16711935
370
    25
100
AcDbPolyline
 90
        3
 70
     0
 43
0.0
 10
260.3452574384294
 20
199.5799780642042
 10
262.4619054481036
 20
201.5683496488056
 10
263.29573483457
 20
201.5042114363003
  0
LWPOLYLINE
  5
F9
330
70
100
AcDbEntity
  8
shade
 62
     6
420
 16711935
370
    25
100
AcDbPolyline
 90
        3
 70
     0
 43
0.0
 10
264.2578460833407
 20
201.5255908404792
 10
263.4453961010525
 20
201.6752466696687
 10
261.734973082515
 20
199.7082544892151
  0
LWPOLYLINE
  5
FA
330
70
100
AcDbEntity
  8
shade
 62
     6
420
 16711935
370
    25
100
AcDbPolyline
 90
        4
 70
     0
 43
0.0
 10
263.3812578885472
 20
200.0075878967968
 10
264.3861279456597
 20
201.7180054780259
 10
264.6640710744767
 20
201.7393848822048
 10
265.4551416525862
 20
201.5897290529845
  0
LWPOLYLINE
  5
FB
330
70
100
AcDbEntity
  8
shade
 62
     6
420
 16711935
370
    25
100
AcDbPolyline
 90
        4
 70
     0
 43
0.0
 10
264.9633990447502
 20
199.9434496842607
 10
265.4551416525859
 20
201.6538672654898
 10
265.6475671647036
 20
201.5897290529845
 10
266.2675916348586
 20
200.9483251786663
  0
LWPOLYLINE
  5
FC
330
70
100
AcDbEntity
  8
shade
 62
     6
420
 16711935
370
    25
100
AcDbPolyline
 90
       24
 70
     0
 43
0.0
 10
266.2675916348586
 20
196.0522458808211
 10
264.9633990447502
 20
199.9434496842607
 10
263.6378216131856
 20
196.1591429016842
 10
263.3812578885472
 20
200.0075878967968
 10
261.4142711453713
 20
195.859809494133
 10
261.734973082515
 20
199.7082544892151
 10
259.5114280519784
 20
195.8170506857755
 10
260.3452574384294
 20
199.5799780642042
 10
257.6941025753001
 20
195.581877239871
 10
258.9127775487243
 20
199.3448046182689
 10
255.9623001525991
 20
195.2611644281415
 10
257.8437638417981
 20
199.1951270399383
 10
254.7222457750118
 20
195.0046115780585
 10
256.6892325181877
 20
198.9385741898552
 10
253.3325274122719
 20
194.7694163830436
 10
255.5774572842806
 20
198.5751025697679
 10
252.1779933700227
 20
194.4914841287816
 10
254.8077661103345
 20
198.1902732946739
 10
251.3227818607539
 20
194.3418065504202
 10
254.8077661103345
 20
198.1902732946739
 10
250.6386137408006
 20
193.9783566795048
 10
253.9097957927391
 20
197.8268016745866
 10
250.1896272226682
 20
193.5507468468814
 10
253.5677117327471
 20
197.8268016745866
  0
LWPOLYLINE
  5
FD
330
70
100
AcDbEntity
  8
shade
 62
     6
420
 16711935
370
    25
100
AcDbPolyline
 90
        3
 70
     0
 43
0.0
 10
247.2391498265584
 20
188.0560224830759
 10
249.4840769798971
 20
193.0803782059621
 10
253.5677117327471
 20
197.8268016745866
  0
LINE
  5
FE
330
70
100
AcDbEntity
  8
shade
 62
     6
420
 16711935
370
    25
100
AcDbLine
 10
247.6239954135159
 20
188.3339547373375
 30
0.0
 11
250.1896272226682
 21
193.5507468468814
 31
0.0
  0
LINE
  5
FF
330
70
100
AcDbEntity
  8
shade
 62
     6
420
 16711935
370
    25
100
AcDbLine
 10
248.2440226023097
 20
188.6546675490677
 30
0.0
 11
250.6386137408006
 21
193.9783566795048
 31
0.0
  0
LINE
  5
100
330
70
100
AcDbEntity
  8
shade
 62
     6
420
 16711935
370
    25
100
AcDbLine
 10
249.1847544469015
 20
189.1036567858078
 30
0.0
 11
251.3227818607539
 21
194.3418065504202
 31
0.0
  0
LINE
  5
101
330
70
100
AcDbEntity
  8
shade
 62
     6
420
 16711935
370
    25
100
AcDbLine
 10
250.1896272226682
 20
189.2105538067017
 30
0.0
 11
252.177993370023
 21
194.4914841287816
 31
0.0
  0
LINE
  5
102
330
70
100
AcDbEntity
  8
shade
 62
     6
420
 16711935
370
    25
100
AcDbLine
 10
251.5579634625903
 20
189.5953830817957
 30
0.0
 11
253.3325274122719
 21
194.7694163830436
 31
0.0
  0
LINE
  5
103
330
70
100
AcDbEntity
  8
shade
 62
     6
420
 16711935
370
    25
100
AcDbLine
 10
252.9049230169724
 20
189.9160958935252
 30
0.0
 11
254.7222457750118
 21
195.0046115780889
 31
0.0
  0
LINE
  5
104
330
70
100
AcDbEntity
  8
shade
 62
     6
420
 16711935
370
    25
100
AcDbLine
 10
254.5298229815329
 20
190.3437057261178
 30
0.0
 11
255.9623001525991
 21
195.2611644281415
 31
0.0
  0
LINE
  5
105
330
70
100
AcDbEntity
  8
shade
 62
     6
420
 16711935
370
    25
100
AcDbLine
 10
256.3257663353935
 20
190.2795675136125
 30
0.0
 11
257.6941025753001
 21
195.5818772399019
 31
0.0
  0
LINE
  5
106
330
70
100
AcDbEntity
  8
shade
 62
     6
420
 16711935
370
    25
100
AcDbLine
 10
258.5279319617515
 20
190.6643967887373
 30
0.0
 11
259.5114280519784
 21
195.8170506857755
 31
0.0
  0
LINE
  5
107
330
70
100
AcDbEntity
  8
shade
 62
     6
420
 16711935
370
    25
100
AcDbLine
 10
260.9225231002426
 20
190.7499361545627
 30
0.0
 11
261.4142711453713
 21
195.859809494133
 31
0.0
  0
LINE
  5
108
330
70
100
AcDbEntity
  8
shade
 62
     6
420
 16711935
370
    25
100
AcDbLine
 10
263.5309191550298
 20
190.9423507921096
 30
0.0
 11
263.6378216131856
 21
196.1591429016842
 31
0.0
  0
LINE
  5
109
330
70
100
AcDbEntity
  8
shade
 62
     6
420
 16711935
370
    25
100
AcDbLine
 10
266.2675916348586
 20
189.9802341060305
 30
0.0
 11
266.2675916348586
 21
196.0522458808211
 31
0.0
  0
LINE
  5
10A
330
70
100
AcDbEntity
  8
shade
 62
     6
420
 16711935
370
    25
100
AcDbLine
 10
264.5785534577774
 20
184.3144745088569
 30
0.0
 11
266.2675916348586
 21
191.0064890046149
 31
0.0
  0
LWPOLYLINE
  5
10B
330
70
100
AcDbEntity
  8
shade
 62
     6
420
 16711935
370
    25
100
AcDbPolyline
 90
       25
 70
     0
 43
0.0
 10
264.5785534577774
 20
184.3144745088569
 10
263.5309191550298
 20
190.9423507921096
 10
262.0343010528037
 20
184.3358539130358
 10
260.9225231002426
 20
190.7499361545627
 10
259.596945668678
 20
184.0792793138109
 10
258.5279319617515
 20
190.6643967887373
 10
257.3306363925059
 20
183.6302900770401
 10
256.3257663353935
 20
190.2795675136125
 10
255.2995114368093
 20
183.6944282895453
 10
254.5298229815329
 20
190.3437057261178
 10
253.5249502057662
 20
183.5661518645348
 10
252.9049230169724
 20
189.9160958935252
 10
252.0924703160457
 20
183.523393056177
 10
251.5579634625903
 20
189.5953830817957
 10
250.8096544114774
 20
183.2668402060935
 10
250.1896272226682
 20
189.2105538067017
 10
249.5482179110569
 20
183.0744038194054
 10
249.1847544469015
 20
189.1036567858386
 10
248.5433451353053
 20
182.9247479901851
 10
248.2440226023097
 20
188.6546675490677
 10
247.7736566800138
 20
182.8178509693227
 10
247.6239954135159
 20
188.3339547373375
 10
247.3246701618811
 20
182.2192059033617
 10
247.2391498265584
 20
188.0560224830759
 10
247.0894885600605
 20
182.090907729148
  0
LINE
  5
10C
330
70
100
AcDbEntity
  8
shade
 62
     6
420
 16711935
370
    25
100
AcDbLine
 10
249.035093180419
 20
177.7720940931161
 30
0.0
 11
247.0894885600605
 21
182.090907729148
 31
0.0
  0
LINE
  5
10D
330
70
100
AcDbEntity
  8
shade
 62
     6
420
 16711935
370
    25
100
AcDbLine
 10
249.3771772403955
 20
177.7079558806108
 30
0.0
 11
247.3246701618811
 21
182.2192059033617
 31
0.0
  0
LINE
  5
10E
330
70
100
AcDbEntity
  8
shade
 62
     6
420
 16711935
370
    25
100
AcDbLine
 10
249.8689225668702
 20
177.7079558806108
 30
0.0
 11
247.7736566800138
 21
182.8178509693227
 31
0.0
  0
LINE
  5
10F
330
70
100
AcDbEntity
  8
shade
 62
     6
420
 16711935
370
    25
100
AcDbLine
 10
250.6172316179831
 20
177.8362323056522
 30
0.0
 11
248.5433451353053
 21
182.9247479901851
 31
0.0
  0
LINE
  5
110
330
70
100
AcDbEntity
  8
shade
 62
     6
420
 16711935
370
    25
100
AcDbLine
 10
251.5365840584114
 20
177.87901286312
 30
0.0
 11
249.5482179110569
 21
183.0744038194054
 31
0.0
  0
LINE
  5
111
330
70
100
AcDbEntity
  8
shade
 62
     6
420
 16711935
370
    25
100
AcDbLine
 10
252.4773159030186
 20
178.0714275006982
 30
0.0
 11
250.8096544114621
 21
183.2668402060935
 31
0.0
  0
LINE
  5
112
330
70
100
AcDbEntity
  8
shade
 62
     6
420
 16711935
370
    25
100
AcDbLine
 10
253.8028933345832
 20
178.0714275006982
 30
0.0
 11
252.0924703160457
 21
183.523393056177
 31
0.0
  0
LINE
  5
113
330
70
100
AcDbEntity
  8
shade
 62
     6
420
 16711935
370
    25
100
AcDbLine
 10
254.9146685684903
 20
178.4990373332908
 30
0.0
 11
253.5249502057662
 21
183.5661518645341
 31
0.0
  0
LINE
  5
114
330
70
100
AcDbEntity
  8
shade
 62
     6
420
 16711935
370
    25
100
AcDbLine
 10
256.5181864102334
 20
178.6914519708374
 30
0.0
 11
255.2995114368093
 21
183.6944282895453
 31
0.0
  0
LINE
  5
115
330
70
100
AcDbEntity
  8
shade
 62
     6
420
 16711935
370
    25
100
AcDbLine
 10
258.3568912910903
 20
178.7342107791953
 30
0.0
 11
257.3306363925059
 21
183.6302900770401
 31
0.0
  0
LINE
  5
116
330
70
100
AcDbEntity
  8
shade
 62
     6
420
 16711935
370
    25
100
AcDbLine
 10
260.3880162467869
 20
178.7342107791953
 30
0.0
 11
259.5969456686777
 21
184.0792793138109
 31
0.0
  0
LINE
  5
117
330
70
100
AcDbEntity
  8
shade
 62
     6
420
 16711935
370
    25
100
AcDbLine
 10
262.6543255229433
 20
178.8624872042366
 30
0.0
 11
262.034301052804
 21
184.3358539130358
 31
0.0
  0
LINE
  5
118
330
70
100
AcDbEntity
  8
shade
 62
     6
420
 16711935
370
    25
100
AcDbLine
 10
252.2207521783648
 20
173.1753482028534
 30
0.0
 11
252.6269771695011
 21
173.2822452237158
 31
0.0
  0
LINE
  5
119
330
70
100
AcDbEntity
  8
shade
 62
     6
420
 16711935
370
    25
100
AcDbLine
 10
252.9904433522954
 20
173.1967276070316
 30
0.0
 11
253.7601318075872
 21
173.5601774779473
 31
0.0
  0
LINE
  5
11A
330
70
100
AcDbEntity
  8
shade
 62
     6
420
 16711935
370
    25
100
AcDbLine
 10
253.9311751969026
 20
173.1967276070316
 30
0.0
 11
254.7008663708329
 21
173.496039265442
 31
0.0
  0
LINE
  5
11B
330
70
100
AcDbEntity
  8
shade
 62
     6
420
 16711935
370
    25
100
AcDbLine
 10
254.9146685684903
 20
173.1753482028534
 30
0.0
 11
255.6415982154401
 21
173.602958035446
 31
0.0
  0
LINE
  5
11C
330
70
100
AcDbEntity
  8
shade
 62
     6
420
 16711935
370
    25
100
AcDbLine
 10
255.9836795567627
 20
173.1325893944955
 30
0.0
 11
256.7961295390505
 21
173.602958035446
 31
0.0
  0
LINE
  5
11D
330
70
100
AcDbEntity
  8
shade
 62
     6
420
 16711935
370
    25
100
AcDbLine
 10
257.0099344553468
 20
173.3036246278947
 30
0.0
 11
257.8223844376195
 21
173.7098550563084
 31
0.0
  0
LINE
  5
11E
330
70
100
AcDbEntity
  8
shade
 62
     6
420
 16711935
370
    25
100
AcDbLine
 10
258.1217069706151
 20
173.2181070111797
 30
0.0
 11
259.1052030608574
 21
173.9664079063918
 31
0.0
  0
LINE
  5
11F
330
70
100
AcDbEntity
  8
shade
 62
     6
420
 16711935
370
    25
100
AcDbLine
 10
259.4686638063586
 20
173.3036246278947
 30
0.0
 11
260.6873442170605
 21
174.0946843314332
 31
0.0
  0
LINE
  5
120
330
70
100
AcDbEntity
  8
shade
 62
     6
420
 16711935
370
    25
100
AcDbLine
 10
261.1149486123754
 20
173.2394864153586
 30
0.0
 11
262.4405260439401
 21
174.3085001223002
 31
0.0
  0
LINE
  5
121
330
70
100
AcDbEntity
  8
shade
 62
     6
420
 16711935
370
    25
100
AcDbLine
 10
262.8895098434185
 20
173.3463834362211
 30
0.0
 11
264.1509436251848
 21
174.5650529723528
 31
0.0
  0
LWPOLYLINE
  5
122
330
70
100
AcDbEntity
  8
shade
 62
     6
420
 16711935
370
    25
100
AcDbPolyline
 90
        3
 70
     0
 43
0.0
 10
264.599932861956
 20
173.2822452237158
 10
265.8186078353648
 20
174.5222941640258
 10
266.2675916348586
 20
173.1753482028534
  0
LWPOLYLINE
  5
123
330
70
100
AcDbEntity
  8
shade
 62
     6
420
 16711935
370
    25
100
AcDbPolyline
 90
        6
 70
     0
 43
0.0
 10
252.6911181006607
 20
173.1967276070316
 10
249.8689225668702
 20
177.7079558806108
 10
252.6911181006607
 20
173.1967276070316
 10
249.3771772403955
 20
177.7079558806108
 10
252.2207521783648
 20
173.1753482028534
 10
249.035093180419
 20
177.7720940931161
  0
LWPOLYLINE
  5
124
330
70
100
AcDbEntity
  8
shade
 62
     6
420
 16711935
370
    25
100
AcDbPolyline
 90
       19
 70
     0
 43
0.0
 10
264.599932861956
 20
173.2822452237158
 10
262.6543255229433
 20
178.8624872042366
 10
262.8895098434185
 20
173.3463834362211
 10
260.3880162467869
 20
178.7342107791953
 10
261.1149486123754
 20
173.2394864153586
 10
258.3568912910903
 20
178.7342107791953
 10
259.4686638063586
 20
173.3036246278947
 10
256.5181864102334
 20
178.6914519708682
 10
258.1217069706151
 20
173.2181070111797
 10
254.9146685684903
 20
178.4990373332908
 10
257.0099344553468
 20
173.3036246278947
 10
253.8028933345832
 20
178.0714275006982
 10
255.9836795567627
 20
173.1325893944955
 10
252.4773159030186
 20
178.0714275006982
 10
254.9146685684903
 20
173.1753482028534
 10
251.5365840584114
 20
177.87901286312
 10
253.9311751969026
 20
173.1967276070316
 10
250.6172316179831
 20
177.8362323056522
 10
252.9904433522954
 20
173.1967276070316
  0
LINE
  5
125
330
70
100
AcDbEntity
  8
shade
 62
     6
420
 16711935
370
    25
100
AcDbLine
 10
265.0916809070693
 20
179.0335441867459
 30
0.0
 11
266.2675916348586
 21
173.1753482028534
 31
0.0
  0
LWPOLYLINE
  5
126
330
70
100
AcDbEntity
  8
shade
 62
     6
420
 16711935
370
    25
100
AcDbPolyline
 90
        3
 70
     0
 43
0.0
 10
264.5785534577774
 20
184.3144745088569
 10
265.0916809070693
 20
179.0335441867459
 10
264.599932861956
 20
173.2822452237158
  0
SPLINE
  5
127
330
70
100
AcDbEntity
  8
shade
 62
     6
420
 16711935
370
    25
100
AcDbSpline
210
0.0
220
0.0
230
1.0
 70
     8
 71
     3
 72
    14
 73
    10
 74
     0
 42
0.0000000001
 43
0.0000000001
 40
0.0
 40
0.0
 40
0.0
 40
0.0
 40
1.0
 40
1.0
 40
1.0
 40
2.0
 40
2.0
 40
2.0
 40
3.0
 40
3.0
 40
3.0
 40
3.0
 10
266.2815172359736
 20
241.3142714425184
 30
0.0
 10
266.2815172359736
 20
241.3142714425184
 30
0.0
 10
261.8822333844718
 20
241.3142714425184
 30
0.0
 10
261.8822333844718
 20
241.3142714425184
 30
0.0
 10
261.8822333844718
 20
237.939596447459
 30
0.0
 10
263.3441962456907
 20
234.7304096789071
 30
0.0
 10
265.890469782507
 20
232.515703739515
 30
0.0
 10
265.890469782507
 20
232.515703739515
 30
0.0
 10
266.2815172359736
 20
232.515703739515
 30
0.0
 10
266.2815172359736
 20
232.515703739515
 30
0.0
  0
SPLINE
  5
128
330
70
100
AcDbEntity
  8
shade
 62
     6
420
 16711935
370
    25
100
AcDbSpline
210
0.0
220
0.0
230
1.0
 70
     8
 71
     3
 72
    14
 73
    10
 74
     0
 42
0.0000000001
 43
0.0000000001
 40
0.0
 40
0.0
 40
0.0
 40
0.0
 40
1.0
 40
1.0
 40
1.0
 40
2.0
 40
2.0
 40
2.0
 40
3.0
 40
3.0
 40
3.0
 40
3.0
 10
266.2815172359736
 20
241.3142714425184
 30
0.0
 10
266.2815172359736
 20
241.3142714425184
 30
0.0
 10
270.680801087475
 20
241.3142714425184
 30
0.0
 10
270.680801087475
 20
241.3142714425184
 30
0.0
 10
270.680801087475
 20
237.939596447459
 30
0.0
 10
269.2188382262407
 20
234.7304096789071
 30
0.0
 10
266.6725646894398
 20
232.515703739515
 30
0.0
 10
266.6725646894398
 20
232.515703739515
 30
0.0
 10
266.2815172359736
 20
232.515703739515
 30
0.0
 10
266.2815172359736
 20
232.515703739515
 30
0.0
  0
ENDSEC
  0
SECTION
  2
OBJECTS
  0
DICTIONARY
  5
C
330
0
100
AcDbDictionary
281
     1
  3
ACAD_COLOR
350
63
  3
ACAD_DETAILVIEWSTYLE
350
6A
  3
ACAD_GROUP
350
D
  3
ACAD_LAYOUT
350
62
  3
ACAD_MATERIAL
350
10
  3
ACAD_MLEADERSTYLE
350
66
  3
ACAD_MLINESTYLE
350
5F
  3
ACAD_PLOTSETTINGS
350
61
  3
ACAD_PLOTSTYLENAME
350
E
  3
ACAD_SCALELIST
350
42
  3
ACAD_SECTIONVIEWSTYLE
350
68
  3
ACAD_TABLESTYLE
350
64
  3
ACAD_VISUALSTYLE
350
29
  3
ACDB_RECOMPOSE_DATA
350
131
  3
AcDbVariableDictionary
350
129
  0
DICTIONARY
  5
63
102
{ACAD_REACTORS
330
C
102
}
330
C
100
AcDbDictionary
281
     1
  0
DICTIONARY
  5
6A
102
{ACAD_REACTORS
330
C
102
}
330
C
100
AcDbDictionary
281
     1
  3
Imperial24
350
6B
  0
DICTIONARY
  5
D
102
{ACAD_REACTORS
330
C
102
}
330
C
100
AcDbDictionary
281
     1
  0
DICTIONARY
  5
62
102
{ACAD_REACTORS
330
C
102
}
330
C
100
AcDbDictionary
281
     1
  3
Layout1
350
6F
  3
Layout2
350
77
  3
Model
350
73
  0
DICTIONARY
  5
10
102
{ACAD_REACTORS
330
C
102
}
330
C
100
AcDbDictionary
281
     1
  3
ByBlock
350
19
  3
ByLayer
350
11
  3
Global
350
21
  0
DICTIONARY
  5
66
102
{ACAD_REACTORS
330
C
102
}
330
C
100
AcDbDictionary
281
     1
  3
Standard
350
67
  0
DICTIONARY
  5
5F
102
{ACAD_REACTORS
330
C
102
}
330
C
100
AcDbDictionary
281
     1
  3
Standard
350
60
  0
DICTIONARY
  5
61
102
{ACAD_REACTORS
330
C
102
}
330
C
100
AcDbDictionary
281
     1
  0
ACDBDICTIONARYWDFLT
  5
E
102
{ACAD_REACTORS
330
C
102
}
330
C
100
AcDbDictionary
281
     1
  3
Normal
350
F
100
AcDbDictionaryWithDefault
340
F
  0
DICTIONARY
  5
42
102
{ACAD_REACTORS
330
C
102
}
330
C
100
AcDbDictionary
281
     1
  3
A0
350
43
  3
A1
350
44
  3
A2
350
45
  3
A3
350
46
  3
A4
350
47
  3
A5
350
48
  3
A6
350
49
  3
A7
350
4A
  3
A8
350
4B
  3
A9
350
4C
  3
B0
350
4D
  3
B1
350
4E
  3
B2
350
4F
  3
B3
350
50
  3
B4
350
51
  3
B5
350
52
  3
B6
350
53
  0
DICTIONARY
  5
68
102
{ACAD_REACTORS
330
C
102
}
330
C
100
AcDbDictionary
281
     1
  3
Imperial24
350
69
  0
DICTIONARY
  5
64
102
{ACAD_REACTORS
330
C
102
}
330
C
100
AcDbDictionary
281
     1
  3
Standard
350
65
  0
DICTIONARY
  5
29
102
{ACAD_REACTORS
330
C
102
}
330
C
100
AcDbDictionary
281
     1
  3
2dWireframe
350
2F
  3
Basic
350
2E
  3
Brighten
350
35
  3
ColorChange
350
39
  3
Conceptual
350
32
  3
Dim
350
34
  3
EdgeColorOff
350
41
  3
Facepattern
350
38
  3
Flat
350
2A
  3
FlatWithEdges
350
2B
  3
Gouraud
350
2C
  3
GouraudWithEdges
350
2D
  3
Hidden
350
31
  3
JitterOff
350
3F
  3
Linepattern
350
37
  3
OverhangOff
350
40
  3
Realistic
350
33
  3
Shaded
350
3E
  3
Shaded with edges
350
3D
  3
Shades of Gray
350
3A
  3
Sketchy
350
3B
  3
Thicken
350
36
  3
Wireframe
350
30
  3
X-Ray
350
3C
  0
XRECORD
  5
131
102
{ACAD_REACTORS
330
C
102
}
330
C
100
AcDbXrecord
280
     1
 90
        1
330
65
  0
DICTIONARY
  5
129
102
{ACAD_REACTORS
330
C
102
}
330
C
100
AcDbDictionary
281
     1
  3
CANNOSCALE
350
12E
  3
CMLEADERSTYLE
350
12B
  3
CTABLESTYLE
350
12A
  3
CVIEWDETAILSTYLE
350
12C
  3
CVIEWSECTIONSTYLE
350
12D
  0
ACDBDETAILVIEWSTYLE
  5
6B
102
{ACAD_REACTORS
330
6A
102
}
330
6A
100
AcDbModelDocViewStyle
 70
     0
  3
Imperial24
290
     1
300
Imperial24
 90
        0
100
AcDbDetailViewStyle
 70
     0
 71
     0
 90
        3
 71
     1
340
55
 62
   256
 40
0.24
340
0
 62
   256
 40
0.24
300

 40
0.36
280
     3
 71
     2
340
5D
 90
       25
 62
   256
 71
     3
340
55
 62
   256
 40
0.24
 90
        1
 40
0.75
 90
        1
300
%<\AcVar ViewType \f "%tc1">% %<\AcVar ViewDetailId>%\PSCALE %<\AcVar ViewScale \f "%sn">%
 71
     4
340
5D
 90
       25
 62
   256
340
5D
 90
       25
 62
   256
280
     0
  0
LAYOUT
  5
6F
102
{ACAD_REACTORS
330
62
102
}
330
62
100
AcDbPlotSettings
  1

  2

  4

  6

 40
0.0
 41
0.0
 42
0.0
 43
0.0
 44
0.0
 45
0.0
 46
0.0
 47
0.0
 48
0.0
 49
0.0
140
0.0
141
0.0
142
1.0
143
1.0
 70
   688
 72
     0
 73
     0
 74
     5
  7

 75
    16
147
1.0
 76
     0
 77
     2
 78
   300
148
0.0
149
0.0
100
AcDbLayout
  1
Layout1
 70
     1
 71
     1
 10
0.0
 20
0.0
 11
12.0
 21
9.0
 12
0.0
 22
0.0
 32
0.0
 14
0.0
 24
0.0
 34
0.0
 15
0.0
 25
0.0
 35
0.0
146
0.0
 13
0.0
 23
0.0
 33
0.0
 16
1.0
 26
0.0
 36
0.0
 17
0.0
 27
1.0
 37
0.0
 76
     0
330
6C
  0
LAYOUT
  5
77
102
{ACAD_REACTORS
330
62
102
}
330
62
100
AcDbPlotSettings
  1

  2

  4

  6

 40
0.0
 41
0.0
 42
0.0
 43
0.0
 44
0.0
 45
0.0
 46
0.0
 47
0.0
 48
0.0
 49
0.0
140
0.0
141
0.0
142
1.0
143
1.0
 70
   688
 72
     0
 73
     0
 74
     5
  7

 75
    16
147
1.0
 76
     0
 77
     2
 78
   300
148
0.0
149
0.0
100
AcDbLayout
  1
Layout2
 70
     1
 71
     2
 10
0.0
 20
0.0
 11
12.0
 21
9.0
 12
0.0
 22
0.0
 32
0.0
 14
0.0
 24
0.0
 34
0.0
 15
0.0
 25
0.0
 35
0.0
146
0.0
 13
0.0
 23
0.0
 33
0.0
 16
1.0
 26
0.0
 36
0.0
 17
0.0
 27
1.0
 37
0.0
 76
     0
330
74
  0
LAYOUT
  5
73
102
{ACAD_REACTORS
330
62
102
}
330
62
100
AcDbPlotSettings
  1

  2

  4

  6

 40
0.0
 41
0.0
 42
0.0
 43
0.0
 44
0.0
 45
0.0
 46
0.0
 47
0.0
 48
0.0
 49
0.0
140
0.0
141
0.0
142
1.0
143
1.0
 70
  1712
 72
     0
 73
     0
 74
     0
  7

 75
     0
147
1.0
 76
     0
 77
     2
 78
   300
148
0.0
149
0.0
100
AcDbLayout
  1
Model
 70
     1
 71
     0
 10
0.0
 20
0.0
 11
12.0
 21
9.0
 12
0.0
 22
0.0
 32
0.0
 14
0.0
 24
0.0
 34
0.0
 15
0.0
 25
0.0
 35
0.0
146
0.0
 13
0.0
 23
0.0
 33
0.0
 16
1.0
 26
0.0
 36
0.0
 17
0.0
 27
1.0
 37
0.0
 76
     0
330
70
  0
MATERIAL
  5
19
102
{ACAD_XDICTIONARY
360
1A
102
}
102
{ACAD_REACTORS
330
10
102
}
330
10
100
AcDbMaterial
  1
ByBlock
 72
     0
 43
0.0208333333333333
 43
0.0
 43
0.0
 43
0.0
 43
0.0
 43
0.0208333333333333
 43
0.0
 43
0.0
 43
0.0
 43
0.0
 43
1.0
 43
0.0
 43
0.0
 43
0.0
 43
0.0
 43
1.0
 77
     0
 47
0.0208333333333333
 47
0.0
 47
0.0
 47
0.0
 47
0.0
 47
0.0208333333333333
 47
0.0
 47
0.0
 47
0.0
 47
0.0
 47
1.0
 47
0.0
 47
0.0
 47
0.0
 47
0.0
 47
1.0
171
     0
 49
0.0208333333333333
 49
0.0
 49
0.0
 49
0.0
 49
0.0
 49
0.0208333333333333
 49
0.0
 49
0.0
 49
0.0
 49
0.0
 49
1.0
 49
0.0
 49
0.0
 49
0.0
 49
0.0
 49
1.0
175
     0
142
0.0208333333333333
142
0.0
142
0.0
142
0.0
142
0.0
142
0.0208333333333333
142
0.0
142
0.0
142
0.0
142
0.0
142
1.0
142
0.0
142
0.0
142
0.0
142
0.0
142
1.0
179
     0
144
0.0208333333333333
144
0.0
144
0.0
144
0.0
144
0.0
144
0.0208333333333333
144
0.0
144
0.0
144
0.0
144
0.0
144
1.0
144
0.0
144
0.0
144
0.0
144
0.0
144
1.0
147
0.0208333333333333
147
0.0
147
0.0
147
0.0
147
0.0
147
0.0208333333333333
147
0.0
147
0.0
147
0.0
147
0.0
147
1.0
147
0.0
147
0.0
147
0.0
147
0.0
147
1.0
  0
MATERIAL
  5
11
102
{ACAD_XDICTIONARY
360
12
102
}
102
{ACAD_REACTORS
330
10
102
}
330
10
100
AcDbMaterial
  1
ByLayer
 72
     0
 43
0.0208333333333333
 43
0.0
 43
0.0
 43
0.0
 43
0.0
 43
0.0208333333333333
 43
0.0
 43
0.0
 43
0.0
 43
0.0
 43
1.0
 43
0.0
 43
0.0
 43
0.0
 43
0.0
 43
1.0
 77
     0
 47
0.0208333333333333
 47
0.0
 47
0.0
 47
0.0
 47
0.0
 47
0.0208333333333333
 47
0.0
 47
0.0
 47
0.0
 47
0.0
 47
1.0
 47
0.0
 47
0.0
 47
0.0
 47
0.0
 47
1.0
171
     0
 49
0.0208333333333333
 49
0.0
 49
0.0
 49
0.0
 49
0.0
 49
0.0208333333333333
 49
0.0
 49
0.0
 49
0.0
 49
0.0
 49
1.0
 49
0.0
 49
0.0
 49
0.0
 49
0.0
 49
1.0
175
     0
142
0.0208333333333333
142
0.0
142
0.0
142
0.0
142
0.0
142
0.0208333333333333
142
0.0
142
0.0
142
0.0
142
0.0
142
1.0
142
0.0
142
0.0
142
0.0
142
0.0
142
1.0
179
     0
144
0.0208333333333333
144
0.0
144
0.0
144
0.0
144
0.0
144
0.0208333333333333
144
0.0
144
0.0
144
0.0
144
0.0
144
1.0
144
0.0
144
0.0
144
0.0
144
0.0
144
1.0
147
0.0208333333333333
147
0.0
147
0.0
147
0.0
147
0.0
147
0.0208333333333333
147
0.0
147
0.0
147
0.0
147
0.0
147
1.0
147
0.0
147
0.0
147
0.0
147
0.0
147
1.0
  0
MATERIAL
  5
21
102
{ACAD_XDICTIONARY
360
22
102
}
102
{ACAD_REACTORS
330
10
102
}
330
10
100
AcDbMaterial
  1
Global
 72
     0
 43
0.0208333333333333
 43
0.0
 43
0.0
 43
0.0
 43
0.0
 43
0.0208333333333333
 43
0.0
 43
0.0
 43
0.0
 43
0.0
 43
1.0
 43
0.0
 43
0.0
 43
0.0
 43
0.0
 43
1.0
 77
     0
 47
0.0208333333333333
 47
0.0
 47
0.0
 47
0.0
 47
0.0
 47
0.0208333333333333
 47
0.0
 47
0.0
 47
0.0
 47
0.0
 47
1.0
 47
0.0
 47
0.0
 47
0.0
 47
0.0
 47
1.0
171
     0
 49
0.0208333333333333
 49
0.0
 49
0.0
 49
0.0
 49
0.0
 49
0.0208333333333333
 49
0.0
 49
0.0
 49
0.0
 49
0.0
 49
1.0
 49
0.0
 49
0.0
 49
0.0
 49
0.0
 49
1.0
175
     0
142
0.0208333333333333
142
0.0
142
0.0
142
0.0
142
0.0
142
0.0208333333333333
142
0.0
142
0.0
142
0.0
142
0.0
142
1.0
142
0.0
142
0.0
142
0.0
142
0.0
142
1.0
179
     0
144
0.0208333333333333
144
0.0
144
0.0
144
0.0
144
0.0
144
0.0208333333333333
144
0.0
144
0.0
144
0.0
144
0.0
144
1.0
144
0.0
144
0.0
144
0.0
144
0.0
144
1.0
147
0.0208333333333333
147
0.0
147
0.0
147
0.0
147
0.0
147
0.0208333333333333
147
0.0
147
0.0
147
0.0
147
0.0
147
1.0
147
0.0
147
0.0
147
0.0
147
0.0
147
1.0
  0
MLEADERSTYLE
  5
67
102
{ACAD_REACTORS
330
66
102
}
330
66
100
AcDbMLeaderStyle
179
     2
170
     2
171
     1
172
     0
 90
        2
 40
0.0
 41
0.0
173
     1
 91
-1056964608
340
5B
 92
       -2
290
     1
 42
0.09
291
     1
 43
0.36
  3
Standard
 44
0.18
300

342
55
174
     1
178
     6
175
     1
176
     0
 93
-1056964608
 45
0.18
292
     0
297
     0
 46
0.18
 94
-1056964608
 47
1.0
 49
1.0
140
1.0
293
     1
141
0.0
294
     1
177
     0
142
1.0
295
     1
296
     0
143
0.125
271
     0
272
     9
273
     9
298
     1
  0
MLINESTYLE
  5
60
102
{ACAD_REACTORS
330
5F
102
}
330
5F
100
AcDbMlineStyle
  2
STANDARD
 70
     0
  3

 62
   256
 51
90.0
 52
90.0
 71
     2
 49
0.5
 62
   256
  6
BYLAYER
 49
-0.5
 62
   256
  6
BYLAYER
  0
ACDBPLACEHOLDER
  5
F
102
{ACAD_REACTORS
330
E
102
}
330
E
  0
SCALE
  5
43
102
{ACAD_REACTORS
330
42
102
}
330
42
100
AcDbScale
 70
     0
300
1:1
140
1.0
141
1.0
290
     1
  0
SCALE
  5
44
102
{ACAD_REACTORS
330
42
102
}
330
42
100
AcDbScale
 70
     0
300
1/128" = 1'-0"
140
0.0078125
141
12.0
290
     0
  0
SCALE
  5
45
102
{ACAD_REACTORS
330
42
102
}
330
42
100
AcDbScale
 70
     0
300
1/64" = 1'-0"
140
0.015625
141
12.0
290
     0
  0
SCALE
  5
46
102
{ACAD_REACTORS
330
42
102
}
330
42
100
AcDbScale
 70
     0
300
1/32" = 1'-0"
140
0.03125
141
12.0
290
     0
  0
SCALE
  5
47
102
{ACAD_REACTORS
330
42
102
}
330
42
100
AcDbScale
 70
     0
300
1/16" = 1'-0"
140
0.0625
141
12.0
290
     0
  0
SCALE
  5
48
102
{ACAD_REACTORS
330
42
102
}
330
42
100
AcDbScale
 70
     0
300
3/32" = 1'-0"
140
0.09375
141
12.0
290
     0
  0
SCALE
  5
49
102
{ACAD_REACTORS
330
42
102
}
330
42
100
AcDbScale
 70
     0
300
1/8" = 1'-0"
140
0.125
141
12.0
290
     0
  0
SCALE
  5
4A
102
{ACAD_REACTORS
330
42
102
}
330
42
100
AcDbScale
 70
     0
300
3/16" = 1'-0"
140
0.1875
141
12.0
290
     0
  0
SCALE
  5
4B
102
{ACAD_REACTORS
330
42
102
}
330
42
100
AcDbScale
 70
     0
300
1/4" = 1'-0"
140
0.25
141
12.0
290
     0
  0
SCALE
  5
4C
102
{ACAD_REACTORS
330
42
102
}
330
42
100
AcDbScale
 70
     0
300
3/8" = 1'-0"
140
0.375
141
12.0
290
     0
  0
SCALE
  5
4D
102
{ACAD_REACTORS
330
42
102
}
330
42
100
AcDbScale
 70
     0
300
1/2" = 1'-0"
140
0.5
141
12.0
290
     0
  0
SCALE
  5
4E
102
{ACAD_REACTORS
330
42
102
}
330
42
100
AcDbScale
 70
     0
300
3/4" = 1'-0"
140
0.75
141
12.0
290
     0
  0
SCALE
  5
4F
102
{ACAD_REACTORS
330
42
102
}
330
42
100
AcDbScale
 70
     0
300
1" = 1'-0"
140
1.0
141
12.0
290
     0
  0
SCALE
  5
50
102
{ACAD_REACTORS
330
42
102
}
330
42
100
AcDbScale
 70
     0
300
1-1/2" = 1'-0"
140
1.5
141
12.0
290
     0
  0
SCALE
  5
51
102
{ACAD_REACTORS
330
42
102
}
330
42
100
AcDbScale
 70
     0
300
3" = 1'-0"
140
3.0
141
12.0
290
     0
  0
SCALE
  5
52
102
{ACAD_REACTORS
330
42
102
}
330
42
100
AcDbScale
 70
     0
300
6" = 1'-0"
140
6.0
141
12.0
290
     0
  0
SCALE
  5
53
102
{ACAD_REACTORS
330
42
102
}
330
42
100
AcDbScale
 70
     0
300
1'-0" = 1'-0"
140
12.0
141
12.0
290
     0
  0
ACDBSECTIONVIEWSTYLE
  5
69
102
{ACAD_REACTORS
330
68
102
}
330
68
100
AcDbModelDocViewStyle
 70
     0
  3
Imperial24
290
     1
300
Imperial24
 90
        0
100
AcDbSectionViewStyle
 70
     0
 71
     0
 90
       78
 71
     1
340
55
 62
   256
 40
0.24
340
0
340
0
 62
   256
 40
0.24
300
I, O, Q, S, X, Z
 40
0.48
 90
        3
 40
0.18
 90
        1
 71
     2
340
5D
 90
       25
 62
   256
340
5D
 90
       50
 62
   256
 40
0.24
 40
0.0
 40
0.24
 71
     3
340
55
 62
   256
 40
0.24
 90
        1
 40
0.75
 90
        1
300
%<\AcVar ViewType \f "%tc1">% %<\AcVar ViewSectionStartId>%-%<\AcVar ViewSectionEndId>%\PSCALE %<\AcVar ViewScale \f "%sn">%
 71
     4
 62
   256
 62
   257
300
ANSI31
 40
1.0
 90
        0
290
     0
290
     0
 90
        6
 40
0.0
 40
1.570796326794896
 40
0.2617993877991494
 40
1.308996938995747
 40
-0.2617993877991494
 40
1.832595714594046
  0
TABLESTYLE
  5
65
102
{ACAD_XDICTIONARY
360
12F
102
}
102
{ACAD_REACTORS
330
64
102
}
330
64
100
AcDbTableStyle
280
     0
  3
Standard
 70
     0
 71
     0
 40
0.06
 41
0.06
280
     0
281
     0
  7
Standard
140
0.18
170
     2
 62
     0
 63
     7
283
     0
 90
      512
 91
        0
  1

274
    -2
284
     1
 64
     0
275
    -2
285
     1
 65
     0
276
    -2
286
     1
 66
     0
277
    -2
287
     1
 67
     0
278
    -2
288
     1
 68
     0
279
    -2
289
     1
 69
     0
  7
Standard
140
0.25
170
     5
 62
     0
 63
     7
283
     0
 90
      512
 91
        0
  1

274
    -2
284
     1
 64
     0
275
    -2
285
     1
 65
     0
276
    -2
286
     1
 66
     0
277
    -2
287
     1
 67
     0
278
    -2
288
     1
 68
     0
279
    -2
289
     1
 69
     0
  7
Standard
140
0.18
170
     5
 62
     0
 63
     7
283
     0
 90
      512
 91
        0
  1

274
    -2
284
     1
 64
     0
275
    -2
285
     1
 65
     0
276
    -2
286
     1
 66
     0
277
    -2
287
     1
 67
     0
278
    -2
288
     1
 68
     0
279
    -2
289
     1
 69
     0
  0
VISUALSTYLE
  5
2F
102
{ACAD_REACTORS
330
29
102
}
330
29
100
AcDbVisualStyle
  2
2dWireframe
 70
     4
177
     3
291
     0
 70
    58
 90
        0
176
     1
 90
        2
176
     1
 90
        0
176
     1
 90
        0
176
     1
 40
0.6
176
     1
 40
30.0
176
     1
 62
     7
420
 16777215
176
     1
 90
        1
176
     1
 90
        4
176
     1
 62
     7
176
     1
 62
   257
176
     1
 90
        1
176
     1
 90
        1
176
     1
 40
1.0
176
     1
 90
        0
176
     1
 62
   257
176
     1
 40
1.0
176
     1
 90
        1
176
     1
 90
        6
176
     1
 90
        2
176
     1
 62
     7
176
     1
 90
        5
176
     1
 90
        0
176
     1
 90
        0
176
     1
290
     0
176
     1
 90
        1
176
     1
 40
0.0
176
     1
 90
        0
176
     1
290
     1
176
     1
290
     1
176
     1
290
     0
176
     1
290
     0
176
     1
290
     0
176
     1
290
     0
176
     1
290
     0
176
     1
290
     0
176
     1
290
     0
176
     1
 90
       50
176
     1
 40
0.0
176
     1
 40
1.0
176
     1
 90
        0
176
     1
 62
    18
420
        0
176
     1
 90
       50
176
     1
 90
        3
176
     1
 62
     5
420
      255
176
     1
290
     0
176
     1
 90
       50
176
     1
 90
       50
176
     1
 90
       50
176
     1
290
     0
176
     1
 90
       50
176
     1
 62
   256
176
     0
 40
1.0
176
     0
 90
        2
176
     1
  1
strokes_ogs.tif
176
     1
290
     0
176
     1
 40
1.0
176
     1
 40
1.0
176
     1
  0
VISUALSTYLE
  5
2E
102
{ACAD_REACTORS
330
29
102
}
330
29
100
AcDbVisualStyle
  2
Basic
 70
     7
177
     3
291
     1
 70
    58
 90
        1
176
     1
 90
        0
176
     1
 90
        1
176
     1
 90
        0
176
     1
 40
0.6
176
     1
 40
30.0
176
     1
 62
     7
420
 16777215
176
     1
 90
        0
176
     1
 90
        4
176
     1
 62
     7
176
     1
 62
   257
176
     1
 90
        1
176
     1
 90
        1
176
     1
 40
1.0
176
     1
 90
        8
176
     1
 62
     7
176
     1
 40
1.0
176
     1
 90
        1
176
     1
 90
        6
176
     1
 90
        2
176
     1
 62
     7
176
     1
 90
        5
176
     1
 90
        0
176
     1
 90
        0
176
     1
290
     0
176
     1
 90
        1
176
     1
 40
0.0
176
     1
 90
        0
176
     1
290
     0
176
     1
290
     1
176
     1
290
     1
176
     1
290
     0
176
     1
290
     0
176
     1
290
     0
176
     1
290
     0
176
     1
290
     0
176
     1
290
     0
176
     1
 90
       50
176
     1
 40
0.0
176
     1
 40
1.0
176
     1
 90
        0
176
     1
 62
    18
420
        0
176
     1
 90
       50
176
     1
 90
        3
176
     1
 62
     5
420
      255
176
     1
290
     0
176
     1
 90
       50
176
     1
 90
       50
176
     1
 90
       50
176
     1
290
     0
176
     1
 90
       50
176
     1
 62
   256
176
     0
 40
1.0
176
     0
 90
        2
176
     1
  1
strokes_ogs.tif
176
     1
290
     0
176
     1
 40
1.0
176
     1
 40
1.0
176
     1
  0
VISUALSTYLE
  5
35
102
{ACAD_REACTORS
330
29
102
}
330
29
100
AcDbVisualStyle
  2
Brighten
 70
    12
177
     3
291
     1
 70
    58
 90
        2
176
     1
 90
        2
176
     1
 90
        0
176
     1
 90
        0
176
     1
 40
0.6
176
     1
 40
30.0
176
     1
 62
     7
420
 16777215
176
     1
 90
        1
176
     1
 90
        4
176
     1
 62
     7
176
     1
 62
   257
176
     1
 90
        1
176
     1
 90
        1
176
     1
 40
1.0
176
     1
 90
        8
176
     1
 62
     7
176
     1
 40
1.0
176
     1
 90
        1
176
     1
 90
        6
176
     1
 90
        2
176
     1
 62
     7
176
     1
 90
        5
176
     1
 90
        0
176
     1
 90
        0
176
     1
290
     0
176
     1
 90
        1
176
     1
 40
50.0
176
     1
 90
        0
176
     1
290
     0
176
     1
290
     1
176
     1
290
     1
176
     1
290
     0
176
     1
290
     0
176
     1
290
     0
176
     1
290
     0
176
     1
290
     0
176
     1
290
     0
176
     1
 90
       50
176
     1
 40
0.0
176
     1
 40
1.0
176
     1
 90
        0
176
     1
 62
    18
420
        0
176
     1
 90
       50
176
     1
 90
        3
176
     1
 62
     5
420
      255
176
     1
290
     0
176
     1
 90
       50
176
     1
 90
       50
176
     1
 90
       50
176
     1
290
     0
176
     1
 90
       50
176
     1
 62
   256
176
     0
 40
1.0
176
     0
 90
        2
176
     1
  1
strokes_ogs.tif
176
     1
290
     0
176
     1
 40
1.0
176
     1
 40
1.0
176
     1
  0
VISUALSTYLE
  5
39
102
{ACAD_REACTORS
330
29
102
}
330
29
100
AcDbVisualStyle
  2
ColorChange
 70
    16
177
     3
291
     1
 70
    58
 90
        2
176
     1
 90
        2
176
     1
 90
        3
176
     1
 90
        0
176
     1
 40
0.6
176
     1
 40
30.0
176
     1
 62
     8
420
  8421504
176
     1
 90
        1
176
     1
 90
        4
176
     1
 62
     7
176
     1
 62
   257
176
     1
 90
        1
176
     1
 90
        1
176
     1
 40
1.0
176
     1
 90
        8
176
     1
 62
     8
420
  8421504
176
     1
 40
1.0
176
     1
 90
        1
176
     1
 90
        6
176
     1
 90
        2
176
     1
 62
     7
176
     1
 90
        5
176
     1
 90
        0
176
     1
 90
        0
176
     1
290
     0
176
     1
 90
        1
176
     1
 40
0.0
176
     1
 90
        0
176
     1
290
     0
176
     1
290
     1
176
     1
290
     1
176
     1
290
     0
176
     1
290
     0
176
     1
290
     0
176
     1
290
     0
176
     1
290
     0
176
     1
290
     0
176
     1
 90
       50
176
     1
 40
0.0
176
     1
 40
1.0
176
     1
 90
        0
176
     1
 62
    18
420
        0
176
     1
 90
       50
176
     1
 90
        3
176
     1
 62
     5
420
      255
176
     1
290
     0
176
     1
 90
       50
176
     1
 90
       50
176
     1
 90
       50
176
     1
290
     0
176
     1
 90
       50
176
     1
 62
   256
176
     0
 40
1.0
176
     0
 90
        2
176
     1
  1
strokes_ogs.tif
176
     1
290
     0
176
     1
 40
1.0
176
     1
 40
1.0
176
     1
  0
VISUALSTYLE
  5
32
102
{ACAD_REACTORS
330
29
102
}
330
29
100
AcDbVisualStyle
  2
Conceptual
 70
     9
177
     3
291
     0
 70
    58
 90
        3
176
     1
 90
        2
176
     1
 90
        0
176
     1
 90
        0
176
     1
 40
0.6
176
     1
 40
30.0
176
     1
 62
     7
420
 16777215
176
     1
 90
        2
176
     1
 90
        2
176
     1
 62
     7
176
     1
 62
   257
176
     1
 90
        1
176
     1
 90
        1
176
     1
 40
179.0
176
     1
 90
        8
176
     1
 62
     7
176
     1
 40
1.0
176
     1
 90
        1
176
     1
 90
        6
176
     1
 90
        2
176
     1
 62
     7
176
     1
 90
        3
176
     1
 90
        0
176
     1
 90
        0
176
     1
290
     0
176
     1
 90
        1
176
     1
 40
0.0
176
     1
 90
        0
176
     1
290
     0
176
     1
290
     1
176
     1
290
     1
176
     1
290
     0
176
     1
290
     0
176
     1
290
     0
176
     1
290
     0
176
     1
290
     0
176
     1
290
     0
176
     1
 90
       50
176
     1
 40
0.0
176
     1
 40
1.0
176
     1
 90
        0
176
     1
 62
    18
420
        0
176
     1
 90
       50
176
     1
 90
        3
176
     1
 62
     5
420
      255
176
     1
290
     0
176
     1
 90
       50
176
     1
 90
       50
176
     1
 90
       50
176
     1
290
     0
176
     1
 90
       50
176
     1
 62
   256
176
     0
 40
1.0
176
     0
 90
        2
176
     1
  1
strokes_ogs.tif
176
     1
290
     0
176
     1
 40
1.0
176
     1
 40
1.0
176
     1
  0
VISUALSTYLE
  5
34
102
{ACAD_REACTORS
330
29
102
}
330
29
100
AcDbVisualStyle
  2
Dim
 70
    11
177
     3
291
     1
 70
    58
 90
        2
176
     1
 90
        2
176
     1
 90
        0
176
     1
 90
        0
176
     1
 40
0.6
176
     1
 40
30.0
176
     1
 62
     7
420
 16777215
176
     1
 90
        1
176
     1
 90
        4
176
     1
 62
     7
176
     1
 62
   257
176
     1
 90
        1
176
     1
 90
        1
176
     1
 40
1.0
176
     1
 90
        8
176
     1
 62
     7
176
     1
 40
1.0
176
     1
 90
        1
176
     1
 90
        6
176
     1
 90
        2
176
     1
 62
     7
176
     1
 90
        5
176
     1
 90
        0
176
     1
 90
        0
176
     1
290
     0
176
     1
 90
        1
176
     1
 40
-50.0
176
     1
 90
        0
176
     1
290
     0
176
     1
290
     1
176
     1
290
     1
176
     1
290
     0
176
     1
290
     0
176
     1
290
     0
176
     1
290
     0
176
     1
290
     0
176
     1
290
     0
176
     1
 90
       50
176
     1
 40
0.0
176
     1
 40
1.0
176
     1
 90
        0
176
     1
 62
    18
420
        0
176
     1
 90
       50
176
     1
 90
        3
176
     1
 62
     5
420
      255
176
     1
290
     0
176
     1
 90
       50
176
     1
 90
       50
176
     1
 90
       50
176
     1
290
     0
176
     1
 90
       50
176
     1
 62
   256
176
     0
 40
1.0
176
     0
 90
        2
176
     1
  1
strokes_ogs.tif
176
     1
290
     0
176
     1
 40
1.0
176
     1
 40
1.0
176
     1
  0
VISUALSTYLE
  5
41
102
{ACAD_REACTORS
330
29
102
}
330
29
100
AcDbVisualStyle
  2
EdgeColorOff
 70
    22
177
     3
291
     1
 70
    58
 90
        2
176
     0
 90
        2
176
     0
 90
        0
176
     0
 90
        0
176
     0
 40
0.6
176
     0
 40
30.0
176
     0
 62
     7
420
 16777215
176
     0
 90
        1
176
     0
 90
        4
176
     0
 62
     7
176
     0
 62
   257
176
     0
 90
        1
176
     0
 90
        1
176
     0
 40
1.0
176
     0
 90
        8
176
     2
 62
     7
176
     0
 40
1.0
176
     0
 90
        1
176
     0
 90
        6
176
     0
 90
        2
176
     0
 62
     7
176
     0
 90
        5
176
     0
 90
        0
176
     0
 90
        0
176
     0
290
     0
176
     0
 90
        1
176
     0
 40
0.0
176
     0
 90
        0
176
     0
290
     0
176
     0
290
     1
176
     0
290
     1
176
     0
290
     0
176
     0
290
     0
176
     0
290
     0
176
     0
290
     0
176
     0
290
     0
176
     0
290
     0
176
     0
 90
       50
176
     0
 40
0.0
176
     0
 40
1.0
176
     0
 90
        0
176
     0
 62
    18
420
        0
176
     0
 90
       50
176
     0
 90
        3
176
     0
 62
     5
420
      255
176
     0
290
     0
176
     0
 90
       50
176
     0
 90
       50
176
     0
 90
       50
176
     0
290
     0
176
     0
 90
       50
176
     0
 62
   256
176
     0
 40
1.0
176
     0
 90
        2
176
     0
  1
strokes_ogs.tif
176
     0
290
     0
176
     0
 40
1.0
176
     0
 40
1.0
176
     0
  0
VISUALSTYLE
  5
38
102
{ACAD_REACTORS
330
29
102
}
330
29
100
AcDbVisualStyle
  2
Facepattern
 70
    15
177
     3
291
     1
 70
    58
 90
        2
176
     1
 90
        2
176
     1
 90
        0
176
     1
 90
        0
176
     1
 40
0.6
176
     1
 40
30.0
176
     1
 62
     7
420
 16777215
176
     1
 90
        1
176
     1
 90
        4
176
     1
 62
     7
176
     1
 62
   257
176
     1
 90
        1
176
     1
 90
        1
176
     1
 40
1.0
176
     1
 90
        8
176
     1
 62
     7
176
     1
 40
1.0
176
     1
 90
        1
176
     1
 90
        6
176
     1
 90
        2
176
     1
 62
     7
176
     1
 90
        5
176
     1
 90
        0
176
     1
 90
        0
176
     1
290
     0
176
     1
 90
        1
176
     1
 40
0.0
176
     1
 90
        0
176
     1
290
     0
176
     1
290
     1
176
     1
290
     1
176
     1
290
     0
176
     1
290
     0
176
     1
290
     0
176
     1
290
     0
176
     1
290
     0
176
     1
290
     0
176
     1
 90
       50
176
     1
 40
0.0
176
     1
 40
1.0
176
     1
 90
        0
176
     1
 62
    18
420
        0
176
     1
 90
       50
176
     1
 90
        3
176
     1
 62
     5
420
      255
176
     1
290
     0
176
     1
 90
       50
176
     1
 90
       50
176
     1
 90
       50
176
     1
290
     0
176
     1
 90
       50
176
     1
 62
   256
176
     0
 40
1.0
176
     0
 90
        2
176
     1
  1
strokes_ogs.tif
176
     1
290
     0
176
     1
 40
1.0
176
     1
 40
1.0
176
     1
  0
VISUALSTYLE
  5
2A
102
{ACAD_REACTORS
330
29
102
}
330
29
100
AcDbVisualStyle
  2
Flat
 70
     0
177
     3
291
     1
 70
    58
 90
        2
176
     1
 90
        1
176
     1
 90
        1
176
     1
 90
        2
176
     1
 40
0.6
176
     1
 40
30.0
176
     1
 62
     7
420
 16777215
176
     1
 90
        0
176
     1
 90
        0
176
     1
 62
     7
176
     1
 62
   257
176
     1
 90
        1
176
     1
 90
        1
176
     1
 40
1.0
176
     1
 90
        8
176
     1
 62
     7
176
     1
 40
1.0
176
     1
 90
        1
176
     1
 90
        6
176
     1
 90
        2
176
     1
 62
     7
176
     1
 90
        5
176
     1
 90
        0
176
     1
 90
        0
176
     1
290
     0
176
     1
 90
       13
176
     1
 40
0.0
176
     1
 90
        0
176
     1
290
     0
176
     1
290
     1
176
     1
290
     1
176
     1
290
     0
176
     1
290
     0
176
     1
290
     0
176
     1
290
     0
176
     1
290
     0
176
     1
290
     0
176
     1
 90
       50
176
     1
 40
0.0
176
     1
 40
1.0
176
     1
 90
        0
176
     1
 62
    18
420
        0
176
     1
 90
       50
176
     1
 90
        3
176
     1
 62
     5
420
      255
176
     1
290
     0
176
     1
 90
       50
176
     1
 90
       50
176
     1
 90
       50
176
     1
290
     0
176
     1
 90
       50
176
     1
 62
   256
176
     0
 40
1.0
176
     0
 90
        2
176
     1
  1
strokes_ogs.tif
176
     1
290
     0
176
     1
 40
1.0
176
     1
 40
1.0
176
     1
  0
VISUALSTYLE
  5
2B
102
{ACAD_REACTORS
330
29
102
}
330
29
100
AcDbVisualStyle
  2
FlatWithEdges
 70
     1
177
     3
291
     1
 70
    58
 90
        2
176
     1
 90
        1
176
     1
 90
        1
176
     1
 90
        2
176
     1
 40
0.6
176
     1
 40
30.0
176
     1
 62
     7
420
 16777215
176
     1
 90
        1
176
     1
 90
        0
176
     1
 62
     7
176
     1
 62
   257
176
     1
 90
        1
176
     1
 90
        1
176
     1
 40
1.0
176
     1
 90
        0
176
     1
 62
   257
176
     1
 40
1.0
176
     1
 90
        1
176
     1
 90
        6
176
     1
 90
        2
176
     1
 62
     7
176
     1
 90
        5
176
     1
 90
        0
176
     1
 90
        0
176
     1
290
     0
176
     1
 90
       13
176
     1
 40
0.0
176
     1
 90
        0
176
     1
290
     0
176
     1
290
     1
176
     1
290
     1
176
     1
290
     0
176
     1
290
     0
176
     1
290
     0
176
     1
290
     0
176
     1
290
     0
176
     1
290
     0
176
     1
 90
       50
176
     1
 40
0.0
176
     1
 40
1.0
176
     1
 90
        0
176
     1
 62
    18
420
        0
176
     1
 90
       50
176
     1
 90
        3
176
     1
 62
     5
420
      255
176
     1
290
     0
176
     1
 90
       50
176
     1
 90
       50
176
     1
 90
       50
176
     1
290
     0
176
     1
 90
       50
176
     1
 62
   256
176
     0
 40
1.0
176
     0
 90
        2
176
     1
  1
strokes_ogs.tif
176
     1
290
     0
176
     1
 40
1.0
176
     1
 40
1.0
176
     1
  0
VISUALSTYLE
  5
2C
102
{ACAD_REACTORS
330
29
102
}
330
29
100
AcDbVisualStyle
  2
Gouraud
 70
     2
177
     3
291
     1
 70
    58
 90
        2
176
     1
 90
        2
176
     1
 90
        1
176
     1
 90
        2
176
     1
 40
0.6
176
     1
 40
30.0
176
     1
 62
     7
420
 16777215
176
     1
 90
        0
176
     1
 90
        0
176
     1
 62
     7
176
     1
 62
   257
176
     1
 90
        1
176
     1
 90
        1
176
     1
 40
1.0
176
     1
 90
        0
176
     1
 62
     7
176
     1
 40
1.0
176
     1
 90
        1
176
     1
 90
        6
176
     1
 90
        2
176
     1
 62
     7
176
     1
 90
        5
176
     1
 90
        0
176
     1
 90
        0
176
     1
290
     0
176
     1
 90
       13
176
     1
 40
0.0
176
     1
 90
        0
176
     1
290
     0
176
     1
290
     1
176
     1
290
     1
176
     1
290
     0
176
     1
290
     0
176
     1
290
     0
176
     1
290
     0
176
     1
290
     0
176
     1
290
     0
176
     1
 90
       50
176
     1
 40
0.0
176
     1
 40
1.0
176
     1
 90
        0
176
     1
 62
    18
420
        0
176
     1
 90
       50
176
     1
 90
        3
176
     1
 62
     5
420
      255
176
     1
290
     0
176
     1
 90
       50
176
     1
 90
       50
176
     1
 90
       50
176
     1
290
     0
176
     1
 90
       50
176
     1
 62
   256
176
     0
 40
1.0
176
     0
 90
        2
176
     1
  1
strokes_ogs.tif
176
     1
290
     0
176
     1
 40
1.0
176
     1
 40
1.0
176
     1
  0
VISUALSTYLE
  5
2D
102
{ACAD_REACTORS
330
29
102
}
330
29
100
AcDbVisualStyle
  2
GouraudWithEdges
 70
     3
177
     3
291
     1
 70
    58
 90
        2
176
     1
 90
        2
176
     1
 90
        1
176
     1
 90
        2
176
     1
 40
0.6
176
     1
 40
30.0
176
     1
 62
     7
420
 16777215
176
     1
 90
        1
176
     1
 90
        0
176
     1
 62
     7
176
     1
 62
   257
176
     1
 90
        1
176
     1
 90
        1
176
     1
 40
1.0
176
     1
 90
        0
176
     1
 62
   257
176
     1
 40
1.0
176
     1
 90
        1
176
     1
 90
        6
176
     1
 90
        2
176
     1
 62
     7
176
     1
 90
        5
176
     1
 90
        0
176
     1
 90
        0
176
     1
290
     0
176
     1
 90
       13
176
     1
 40
0.0
176
     1
 90
        0
176
     1
290
     0
176
     1
290
     1
176
     1
290
     1
176
     1
290
     0
176
     1
290
     0
176
     1
290
     0
176
     1
290
     0
176
     1
290
     0
176
     1
290
     0
176
     1
 90
       50
176
     1
 40
0.0
176
     1
 40
1.0
176
     1
 90
        0
176
     1
 62
    18
420
        0
176
     1
 90
       50
176
     1
 90
        3
176
     1
 62
     5
420
      255
176
     1
290
     0
176
     1
 90
       50
176
     1
 90
       50
176
     1
 90
       50
176
     1
290
     0
176
     1
 90
       50
176
     1
 62
   256
176
     0
 40
1.0
176
     0
 90
        2
176
     1
  1
strokes_ogs.tif
176
     1
290
     0
176
     1
 40
1.0
176
     1
 40
1.0
176
     1
  0
VISUALSTYLE
  5
31
102
{ACAD_REACTORS
330
29
102
}
330
29
100
AcDbVisualStyle
  2
Hidden
 70
     6
177
     3
291
     0
 70
    58
 90
        1
176
     1
 90
        2
176
     1
 90
        2
176
     1
 90
        0
176
     1
 40
0.6
176
     1
 40
30.0
176
     1
 62
     7
420
 16777215
176
     1
 90
        2
176
     1
 90
        2
176
     1
 62
     7
176
     1
 62
   257
176
     1
 90
        2
176
     1
 90
        1
176
     1
 40
40.0
176
     1
 90
        0
176
     1
 62
   257
176
     1
 40
1.0
176
     1
 90
        1
176
     1
 90
        6
176
     1
 90
        2
176
     1
 62
     7
176
     1
 90
        3
176
     1
 90
        0
176
     1
 90
        0
176
     1
290
     0
176
     1
 90
        1
176
     1
 40
0.0
176
     1
 90
        0
176
     1
290
     0
176
     1
290
     1
176
     1
290
     1
176
     1
290
     0
176
     1
290
     0
176
     1
290
     0
176
     1
290
     0
176
     1
290
     0
176
     1
290
     0
176
     1
 90
       50
176
     1
 40
0.0
176
     1
 40
1.0
176
     1
 90
        0
176
     1
 62
    18
420
        0
176
     1
 90
       50
176
     1
 90
        3
176
     1
 62
     5
420
      255
176
     1
290
     0
176
     1
 90
       50
176
     1
 90
       50
176
     1
 90
       50
176
     1
290
     0
176
     1
 90
       50
176
     1
 62
   256
176
     0
 40
1.0
176
     0
 90
        2
176
     1
  1
strokes_ogs.tif
176
     1
290
     0
176
     1
 40
1.0
176
     1
 40
1.0
176
     1
  0
VISUALSTYLE
  5
3F
102
{ACAD_REACTORS
330
29
102
}
330
29
100
AcDbVisualStyle
  2
JitterOff
 70
    20
177
     3
291
     1
 70
    58
 90
        2
176
     0
 90
        2
176
     0
 90
        0
176
     0
 90
        0
176
     0
 40
0.6
176
     0
 40
30.0
176
     0
 62
     7
420
 16777215
176
     0
 90
        1
176
     0
 90
        4
176
     0
 62
     7
176
     0
 62
   257
176
     0
 90
        1
176
     0
 90
        1
176
     0
 40
1.0
176
     0
 90
       10
176
     2
 62
     7
176
     0
 40
1.0
176
     0
 90
        1
176
     0
 90
        6
176
     0
 90
        2
176
     0
 62
     7
176
     0
 90
        5
176
     0
 90
        0
176
     0
 90
        0
176
     0
290
     0
176
     0
 90
        1
176
     0
 40
0.0
176
     0
 90
        0
176
     0
290
     0
176
     0
290
     1
176
     0
290
     1
176
     0
290
     0
176
     0
290
     0
176
     0
290
     0
176
     0
290
     0
176
     0
290
     0
176
     0
290
     0
176
     0
 90
       50
176
     0
 40
0.0
176
     0
 40
1.0
176
     0
 90
        0
176
     0
 62
    18
420
        0
176
     0
 90
       50
176
     0
 90
        3
176
     0
 62
     5
420
      255
176
     0
290
     0
176
     0
 90
       50
176
     0
 90
       50
176
     0
 90
       50
176
     0
290
     0
176
     0
 90
       50
176
     0
 62
   256
176
     0
 40
1.0
176
     0
 90
        2
176
     0
  1
strokes_ogs.tif
176
     0
290
     0
176
     0
 40
1.0
176
     0
 40
1.0
176
     0
  0
VISUALSTYLE
  5
37
102
{ACAD_REACTORS
330
29
102
}
330
29
100
AcDbVisualStyle
  2
Linepattern
 70
    14
177
     3
291
     1
 70
    58
 90
        2
176
     1
 90
        2
176
     1
 90
        0
176
     1
 90
        0
176
     1
 40
0.6
176
     1
 40
30.0
176
     1
 62
     7
420
 16777215
176
     1
 90
        1
176
     1
 90
        4
176
     1
 62
     7
176
     1
 62
   257
176
     1
 90
        7
176
     1
 90
        7
176
     1
 40
1.0
176
     1
 90
        8
176
     1
 62
     7
176
     1
 40
1.0
176
     1
 90
        1
176
     1
 90
        6
176
     1
 90
        2
176
     1
 62
     7
176
     1
 90
        5
176
     1
 90
        0
176
     1
 90
        0
176
     1
290
     0
176
     1
 90
        1
176
     1
 40
0.0
176
     1
 90
        0
176
     1
290
     0
176
     1
290
     1
176
     1
290
     1
176
     1
290
     0
176
     1
290
     0
176
     1
290
     0
176
     1
290
     0
176
     1
290
     0
176
     1
290
     0
176
     1
 90
       50
176
     1
 40
0.0
176
     1
 40
1.0
176
     1
 90
        0
176
     1
 62
    18
420
        0
176
     1
 90
       50
176
     1
 90
        3
176
     1
 62
     5
420
      255
176
     1
290
     0
176
     1
 90
       50
176
     1
 90
       50
176
     1
 90
       50
176
     1
290
     0
176
     1
 90
       50
176
     1
 62
   256
176
     0
 40
1.0
176
     0
 90
        2
176
     1
  1
strokes_ogs.tif
176
     1
290
     0
176
     1
 40
1.0
176
     1
 40
1.0
176
     1
  0
VISUALSTYLE
  5
40
102
{ACAD_REACTORS
330
29
102
}
330
29
100
AcDbVisualStyle
  2
OverhangOff
 70
    21
177
     3
291
     1
 70
    58
 90
        2
176
     0
 90
        2
176
     0
 90
        0
176
     0
 90
        0
176
     0
 40
0.6
176
     0
 40
30.0
176
     0
 62
     7
420
 16777215
176
     0
 90
        1
176
     0
 90
        4
176
     0
 62
     7
176
     0
 62
   257
176
     0
 90
        1
176
     0
 90
        1
176
     0
 40
1.0
176
     0
 90
        9
176
     2
 62
     7
176
     0
 40
1.0
176
     0
 90
        1
176
     0
 90
        6
176
     0
 90
        2
176
     0
 62
     7
176
     0
 90
        5
176
     0
 90
        0
176
     0
 90
        0
176
     0
290
     0
176
     0
 90
        1
176
     0
 40
0.0
176
     0
 90
        0
176
     0
290
     0
176
     0
290
     1
176
     0
290
     1
176
     0
290
     0
176
     0
290
     0
176
     0
290
     0
176
     0
290
     0
176
     0
290
     0
176
     0
290
     0
176
     0
 90
       50
176
     0
 40
0.0
176
     0
 40
1.0
176
     0
 90
        0
176
     0
 62
    18
420
        0
176
     0
 90
       50
176
     0
 90
        3
176
     0
 62
     5
420
      255
176
     0
290
     0
176
     0
 90
       50
176
     0
 90
       50
176
     0
 90
       50
176
     0
290
     0
176
     0
 90
       50
176
     0
 62
   256
176
     0
 40
1.0
176
     0
 90
        2
176
     0
  1
strokes_ogs.tif
176
     0
290
     0
176
     0
 40
1.0
176
     0
 40
1.0
176
     0
  0
VISUALSTYLE
  5
33
102
{ACAD_REACTORS
330
29
102
}
330
29
100
AcDbVisualStyle
  2
Realistic
 70
     8
177
     3
291
     0
 70
    58
 90
        2
176
     1
 90
        3
176
     1
 90
        0
176
     1
 90
        2
176
     1
 40
0.6
176
     1
 40
30.0
176
     1
 62
     7
420
 16777215
176
     1
 90
        0
176
     1
 90
        0
176
     1
 62
     7
176
     1
 62
   257
176
     1
 90
        1
176
     1
 90
        1
176
     1
 40
1.0
176
     1
 90
        8
176
     1
 62
   257
176
     1
 40
1.0
176
     1
 90
        1
176
     1
 90
        6
176
     1
 90
        2
176
     1
 62
     7
176
     1
 90
        3
176
     1
 90
        0
176
     1
 90
        0
176
     1
290
     0
176
     1
 90
       13
176
     1
 40
0.0
176
     1
 90
        0
176
     1
290
     0
176
     1
290
     1
176
     1
290
     1
176
     1
290
     0
176
     1
290
     0
176
     1
290
     0
176
     1
290
     0
176
     1
290
     0
176
     1
290
     0
176
     1
 90
       50
176
     1
 40
0.0
176
     1
 40
1.0
176
     1
 90
        0
176
     1
 62
    18
420
        0
176
     1
 90
       50
176
     1
 90
        3
176
     1
 62
     5
420
      255
176
     1
290
     0
176
     1
 90
       50
176
     1
 90
       50
176
     1
 90
       50
176
     1
290
     0
176
     1
 90
       50
176
     1
 62
   256
176
     0
 40
1.0
176
     0
 90
        2
176
     1
  1
strokes_ogs.tif
176
     1
290
     0
176
     1
 40
1.0
176
     1
 40
1.0
176
     1
  0
VISUALSTYLE
  5
3E
102
{ACAD_REACTORS
330
29
102
}
330
29
100
AcDbVisualStyle
  2
Shaded
 70
    27
177
     3
291
     0
 70
    58
 90
        2
176
     1
 90
        2
176
     1
 90
        1
176
     1
 90
        2
176
     1
 40
0.6
176
     1
 40
30.0
176
     1
 62
     7
420
 16777215
176
     1
 90
        0
176
     1
 90
        4
176
     1
 62
     7
176
     1
 62
   257
176
     1
 90
        1
176
     1
 90
        1
176
     1
 40
1.0
176
     1
 90
        8
176
     1
 62
   257
176
     1
 40
1.0
176
     1
 90
        1
176
     1
 90
        6
176
     1
 90
        2
176
     1
 62
     8
420
  7895160
176
     1
 90
        3
176
     1
 90
        0
176
     1
 90
        0
176
     1
290
     0
176
     1
 90
        5
176
     1
 40
0.0
176
     1
 90
        0
176
     1
290
     0
176
     1
290
     1
176
     1
290
     1
176
     1
290
     0
176
     1
290
     0
176
     1
290
     0
176
     1
290
     0
176
     1
290
     0
176
     1
290
     0
176
     1
 90
       50
176
     1
 40
0.0
176
     1
 40
1.0
176
     1
 90
        0
176
     1
 62
    18
420
        0
176
     1
 90
       50
176
     1
 90
        3
176
     1
 62
     5
420
      255
176
     1
290
     0
176
     1
 90
       50
176
     1
 90
       50
176
     1
 90
       50
176
     1
290
     0
176
     1
 90
       50
176
     1
 62
   256
176
     0
 40
1.0
176
     0
 90
        2
176
     1
  1
strokes_ogs.tif
176
     1
290
     0
176
     1
 40
1.0
176
     1
 40
1.0
176
     1
  0
VISUALSTYLE
  5
3D
102
{ACAD_REACTORS
330
29
102
}
330
29
100
AcDbVisualStyle
  2
Shaded with edges
 70
    26
177
     3
291
     0
 70
    58
 90
        2
176
     1
 90
        2
176
     1
 90
        1
176
     1
 90
        2
176
     1
 40
0.6
176
     1
 40
30.0
176
     1
 62
     7
420
 16777215
176
     1
 90
        1
176
     1
 90
        2
176
     1
 62
     7
176
     1
 62
   257
176
     1
 90
        2
176
     1
 90
        1
176
     1
 40
1.0
176
     1
 90
        8
176
     1
 62
   257
176
     1
 40
1.0
176
     1
 90
        1
176
     1
 90
        6
176
     1
 90
        2
176
     1
 62
     7
176
     1
 90
        3
176
     1
 90
        0
176
     1
 90
        0
176
     1
290
     0
176
     1
 90
        5
176
     1
 40
0.0
176
     1
 90
        0
176
     1
290
     0
176
     1
290
     1
176
     1
290
     1
176
     1
290
     0
176
     1
290
     0
176
     1
290
     0
176
     1
290
     0
176
     1
290
     0
176
     1
290
     0
176
     1
 90
       50
176
     1
 40
0.0
176
     1
 40
1.0
176
     1
 90
        0
176
     1
 62
    18
420
        0
176
     1
 90
       50
176
     1
 90
        3
176
     1
 62
     5
420
      255
176
     1
290
     0
176
     1
 90
       50
176
     1
 90
       50
176
     1
 90
       50
176
     1
290
     0
176
     1
 90
       50
176
     1
 62
   256
176
     0
 40
1.0
176
     0
 90
        2
176
     1
  1
strokes_ogs.tif
176
     1
290
     0
176
     1
 40
1.0
176
     1
 40
1.0
176
     1
  0
VISUALSTYLE
  5
3A
102
{ACAD_REACTORS
330
29
102
}
330
29
100
AcDbVisualStyle
  2
Shades of Gray
 70
    23
177
     3
291
     0
 70
    58
 90
        2
176
     1
 90
        2
176
     1
 90
        3
176
     1
 90
        0
176
     1
 40
0.6
176
     1
 40
30.0
176
     1
 62
     7
420
 16777215
176
     1
 90
        2
176
     1
 90
        2
176
     1
 62
     7
176
     1
 62
     7
176
     1
 90
        1
176
     1
 90
        1
176
     1
 40
40.0
176
     1
 90
        8
176
     1
 62
     7
176
     1
 40
1.0
176
     1
 90
        1
176
     1
 90
        6
176
     1
 90
        2
176
     1
 62
     7
176
     1
 90
        3
176
     1
 90
        0
176
     1
 90
        0
176
     1
290
     0
176
     1
 90
        1
176
     1
 40
0.0
176
     1
 90
        0
176
     1
290
     0
176
     1
290
     1
176
     1
290
     1
176
     1
290
     0
176
     1
290
     0
176
     1
290
     0
176
     1
290
     0
176
     1
290
     0
176
     1
290
     0
176
     1
 90
       50
176
     1
 40
0.0
176
     1
 40
1.0
176
     1
 90
        0
176
     1
 62
    18
420
        0
176
     1
 90
       50
176
     1
 90
        3
176
     1
 62
     5
420
      255
176
     1
290
     0
176
     1
 90
       50
176
     1
 90
       50
176
     1
 90
       50
176
     1
290
     0
176
     1
 90
       50
176
     1
 62
   256
176
     0
 40
1.0
176
     0
 90
        2
176
     1
  1
strokes_ogs.tif
176
     1
290
     0
176
     1
 40
1.0
176
     1
 40
1.0
176
     1
  0
VISUALSTYLE
  5
3B
102
{ACAD_REACTORS
330
29
102
}
330
29
100
AcDbVisualStyle
  2
Sketchy
 70
    24
177
     3
291
     0
 70
    58
 90
        1
176
     1
 90
        2
176
     1
 90
        2
176
     1
 90
        0
176
     1
 40
0.6
176
     1
 40
30.0
176
     1
 62
     7
420
 16777215
176
     1
 90
        2
176
     1
 90
        2
176
     1
 62
     7
176
     1
 62
     7
176
     1
 90
        1
176
     1
 90
        1
176
     1
 40
40.0
176
     1
 90
       11
176
     1
 62
     7
176
     1
 40
1.0
176
     1
 90
        1
176
     1
 90
        6
176
     1
 90
        2
176
     1
 62
     7
176
     1
 90
        6
176
     1
 90
        0
176
     1
 90
        0
176
     1
290
     0
176
     1
 90
        1
176
     1
 40
0.0
176
     1
 90
        0
176
     1
290
     0
176
     1
290
     1
176
     1
290
     1
176
     1
290
     0
176
     1
290
     0
176
     1
290
     0
176
     1
290
     0
176
     1
290
     0
176
     1
290
     0
176
     1
 90
       50
176
     1
 40
0.0
176
     1
 40
1.0
176
     1
 90
        0
176
     1
 62
    18
420
        0
176
     1
 90
       50
176
     1
 90
        3
176
     1
 62
     5
420
      255
176
     1
290
     0
176
     1
 90
       50
176
     1
 90
       50
176
     1
 90
       50
176
     1
290
     0
176
     1
 90
       50
176
     1
 62
   256
176
     0
 40
1.0
176
     0
 90
        2
176
     1
  1
strokes_ogs.tif
176
     1
290
     0
176
     1
 40
1.0
176
     1
 40
1.0
176
     1
  0
VISUALSTYLE
  5
36
102
{ACAD_REACTORS
330
29
102
}
330
29
100
AcDbVisualStyle
  2
Thicken
 70
    13
177
     3
291
     1
 70
    58
 90
        2
176
     1
 90
        2
176
     1
 90
        0
176
     1
 90
        0
176
     1
 40
0.6
176
     1
 40
30.0
176
     1
 62
     7
420
 16777215
176
     1
 90
        1
176
     1
 90
        4
176
     1
 62
     7
176
     1
 62
   257
176
     1
 90
        1
176
     1
 90
        1
176
     1
 40
1.0
176
     1
 90
       12
176
     1
 62
     7
176
     1
 40
1.0
176
     1
 90
        1
176
     1
 90
        6
176
     1
 90
        2
176
     1
 62
     7
176
     1
 90
        5
176
     1
 90
        0
176
     1
 90
        0
176
     1
290
     0
176
     1
 90
        1
176
     1
 40
0.0
176
     1
 90
        0
176
     1
290
     0
176
     1
290
     1
176
     1
290
     1
176
     1
290
     0
176
     1
290
     0
176
     1
290
     0
176
     1
290
     0
176
     1
290
     0
176
     1
290
     0
176
     1
 90
       50
176
     1
 40
0.0
176
     1
 40
1.0
176
     1
 90
        0
176
     1
 62
    18
420
        0
176
     1
 90
       50
176
     1
 90
        3
176
     1
 62
     5
420
      255
176
     1
290
     0
176
     1
 90
       50
176
     1
 90
       50
176
     1
 90
       50
176
     1
290
     0
176
     1
 90
       50
176
     1
 62
   256
176
     0
 40
1.0
176
     0
 90
        2
176
     1
  1
strokes_ogs.tif
176
     1
290
     0
176
     1
 40
1.0
176
     1
 40
1.0
176
     1
  0
VISUALSTYLE
  5
30
102
{ACAD_REACTORS
330
29
102
}
330
29
100
AcDbVisualStyle
  2
Wireframe
 70
     5
177
     3
291
     0
 70
    58
 90
        0
176
     1
 90
        2
176
     1
 90
        0
176
     1
 90
        0
176
     1
 40
0.6
176
     1
 40
30.0
176
     1
 62
     7
420
 16777215
176
     1
 90
        1
176
     1
 90
        4
176
     1
 62
     7
176
     1
 62
   257
176
     1
 90
        1
176
     1
 90
        1
176
     1
 40
1.0
176
     1
 90
        0
176
     1
 62
   257
176
     1
 40
1.0
176
     1
 90
        1
176
     1
 90
        6
176
     1
 90
        2
176
     1
 62
     7
176
     1
 90
        3
176
     1
 90
        0
176
     1
 90
        0
176
     1
290
     0
176
     1
 90
        1
176
     1
 40
0.0
176
     1
 90
        0
176
     1
290
     0
176
     1
290
     1
176
     1
290
     1
176
     1
290
     0
176
     1
290
     0
176
     1
290
     0
176
     1
290
     0
176
     1
290
     0
176
     1
290
     0
176
     1
 90
       50
176
     1
 40
0.0
176
     1
 40
1.0
176
     1
 90
        0
176
     1
 62
    18
420
        0
176
     1
 90
       50
176
     1
 90
        3
176
     1
 62
     5
420
      255
176
     1
290
     0
176
     1
 90
       50
176
     1
 90
       50
176
     1
 90
       50
176
     1
290
     0
176
     1
 90
       50
176
     1
 62
   256
176
     0
 40
1.0
176
     0
 90
        2
176
     1
  1
strokes_ogs.tif
176
     1
290
     0
176
     1
 40
1.0
176
     1
 40
1.0
176
     1
  0
VISUALSTYLE
  5
3C
102
{ACAD_REACTORS
330
29
102
}
330
29
100
AcDbVisualStyle
  2
X-Ray
 70
    25
177
     3
291
     0
 70
    58
 90
        2
176
     1
 90
        2
176
     1
 90
        1
176
     1
 90
        1
176
     1
 40
0.5
176
     1
 40
30.0
176
     1
 62
     7
420
 16777215
176
     1
 90
        1
176
     1
 90
        0
176
     1
 62
     7
176
     1
 62
   257
176
     1
 90
        1
176
     1
 90
        1
176
     1
 40
1.0
176
     1
 90
        8
176
     1
 62
     7
176
     1
 40
1.0
176
     1
 90
        1
176
     1
 90
        6
176
     1
 90
        2
176
     1
 62
     7
176
     1
 90
        3
176
     1
 90
        0
176
     1
 90
        0
176
     1
290
     0
176
     1
 90
       13
176
     1
 40
0.0
176
     1
 90
        0
176
     1
290
     0
176
     1
290
     1
176
     1
290
     1
176
     1
290
     0
176
     1
290
     0
176
     1
290
     0
176
     1
290
     0
176
     1
290
     0
176
     1
290
     0
176
     1
 90
       50
176
     1
 40
0.0
176
     1
 40
1.0
176
     1
 90
        0
176
     1
 62
    18
420
        0
176
     1
 90
       50
176
     1
 90
        3
176
     1
 62
     5
420
      255
176
     1
290
     0
176
     1
 90
       50
176
     1
 90
       50
176
     1
 90
       50
176
     1
290
     0
176
     1
 90
       50
176
     1
 62
   256
176
     0
 40
1.0
176
     0
 90
        2
176
     1
  1
strokes_ogs.tif
176
     1
290
     0
176
     1
 40
1.0
176
     1
 40
1.0
176
     1
  0
DICTIONARYVAR
  5
12E
102
{ACAD_REACTORS
330
129
102
}
330
129
100
DictionaryVariables
280
     0
  1
1:1
  0
DICTIONARYVAR
  5
12B
102
{ACAD_REACTORS
330
129
102
}
330
129
100
DictionaryVariables
280
     0
  1
STANDARD
  0
DICTIONARYVAR
  5
12A
102
{ACAD_REACTORS
330
129
102
}
330
129
100
DictionaryVariables
280
     0
  1
STANDARD
  0
DICTIONARYVAR
  5
12C
102
{ACAD_REACTORS
330
129
102
}
330
129
100
DictionaryVariables
280
     0
  1
Imperial24
  0
DICTIONARYVAR
  5
12D
102
{ACAD_REACTORS
330
129
102
}
330
129
100
DictionaryVariables
280
     0
  1
Imperial24
  0
DICTIONARY
  5
1A
330
19
100
AcDbDictionary
280
     1
281
     1
  3
BUMPTILE
360
1C
  3
DIFFUSETILE
360
1B
  3
OPACITYTILE
360
1F
  3
REFLECTIONTILE
360
1E
  3
REFRACTIONTILE
360
20
  3
SPECULARTILE
360
1D
  0
DICTIONARY
  5
12
330
11
100
AcDbDictionary
280
     1
281
     1
  3
BUMPTILE
360
14
  3
DIFFUSETILE
360
13
  3
OPACITYTILE
360
17
  3
REFLECTIONTILE
360
16
  3
REFRACTIONTILE
360
18
  3
SPECULARTILE
360
15
  0
DICTIONARY
  5
22
330
21
100
AcDbDictionary
280
     1
281
     1
  3
BUMPTILE
360
24
  3
DIFFUSETILE
360
23
  3
OPACITYTILE
360
27
  3
REFLECTIONTILE
360
26
  3
REFRACTIONTILE
360
28
  3
SPECULARTILE
360
25
  0
DICTIONARY
  5
12F
330
65
100
AcDbDictionary
280
     1
281
     1
  3
ACAD_ROUNDTRIP_2008_TABLESTYLE_CELLSTYLEMAP
360
130
  0
XRECORD
  5
1C
102
{ACAD_REACTORS
330
1A
102
}
330
1A
100
AcDbXrecord
280
     1
270
     1
271
     1
  0
XRECORD
  5
1B
102
{ACAD_REACTORS
330
1A
102
}
330
1A
100
AcDbXrecord
280
     1
270
     1
271
     1
  0
XRECORD
  5
1F
102
{ACAD_REACTORS
330
1A
102
}
330
1A
100
AcDbXrecord
280
     1
270
     1
271
     1
  0
XRECORD
  5
1E
102
{ACAD_REACTORS
330
1A
102
}
330
1A
100
AcDbXrecord
280
     1
270
     1
271
     1
  0
XRECORD
  5
20
102
{ACAD_REACTORS
330
1A
102
}
330
1A
100
AcDbXrecord
280
     1
270
     1
271
     1
  0
XRECORD
  5
1D
102
{ACAD_REACTORS
330
1A
102
}
330
1A
100
AcDbXrecord
280
     1
270
     1
271
     1
  0
XRECORD
  5
14
102
{ACAD_REACTORS
330
12
102
}
330
12
100
AcDbXrecord
280
     1
270
     1
271
     1
  0
XRECORD
  5
13
102
{ACAD_REACTORS
330
12
102
}
330
12
100
AcDbXrecord
280
     1
270
     1
271
     1
  0
XRECORD
  5
17
102
{ACAD_REACTORS
330
12
102
}
330
12
100
AcDbXrecord
280
     1
270
     1
271
     1
  0
XRECORD
  5
16
102
{ACAD_REACTORS
330
12
102
}
330
12
100
AcDbXrecord
280
     1
270
     1
271
     1
  0
XRECORD
  5
18
102
{ACAD_REACTORS
330
12
102
}
330
12
100
AcDbXrecord
280
     1
270
     1
271
     1
  0
XRECORD
  5
15
102
{ACAD_REACTORS
330
12
102
}
330
12
100
AcDbXrecord
280
     1
270
     1
271
     1
  0
XRECORD
  5
24
102
{ACAD_REACTORS
330
22
102
}
330
22
100
AcDbXrecord
280
     1
270
     1
271
     1
  0
XRECORD
  5
23
102
{ACAD_REACTORS
330
22
102
}
330
22
100
AcDbXrecord
280
     1
270
     1
271
     1
  0
XRECORD
  5
27
102
{ACAD_REACTORS
330
22
102
}
330
22
100
AcDbXrecord
280
     1
270
     1
271
     1
  0
XRECORD
  5
26
102
{ACAD_REACTORS
330
22
102
}
330
22
100
AcDbXrecord
280
     1
270
     1
271
     1
  0
XRECORD
  5
28
102
{ACAD_REACTORS
330
22
102
}
330
22
100
AcDbXrecord
280
     1
270
     1
271
     1
  0
XRECORD
  5
25
102
{ACAD_REACTORS
330
22
102
}
330
22
100
AcDbXrecord
280
     1
270
     1
271
     1
  0
CELLSTYLEMAP
  5
130
102
{ACAD_REACTORS
330
12F
102
}
330
12F
100
AcDbCellStyleMap
 90
        3
300
CELLSTYLE
  1
TABLEFORMAT_BEGIN
 90
        5
170
     1
 91
        0
 92
    32768
 62
   257
 93
        1
300
CONTENTFORMAT
  1
CONTENTFORMAT_BEGIN
 90
        0
 91
        0
 92
      512
 93
        0
300

 40
0.0
140
1.0
 94
        5
 62
     0
340
55
144
0.25
309
CONTENTFORMAT_END
171
     0
 94
        0
309
TABLEFORMAT_END
  1
CELLSTYLE_BEGIN
 90
        1
 91
        1
300
_TITLE
309
CELLSTYLE_END
300
CELLSTYLE
  1
TABLEFORMAT_BEGIN
 90
        5
170
     1
 91
        0
 92
        0
 62
   257
 93
        1
300
CONTENTFORMAT
  1
CONTENTFORMAT_BEGIN
 90
        0
 91
        0
 92
      512
 93
        0
300

 40
0.0
140
1.0
 94
        5
 62
     0
340
55
144
0.18
309
CONTENTFORMAT_END
171
     0
 94
        0
309
TABLEFORMAT_END
  1
CELLSTYLE_BEGIN
 90
        2
 91
        1
300
_HEADER
309
CELLSTYLE_END
300
CELLSTYLE
  1
TABLEFORMAT_BEGIN
 90
        5
170
     1
 91
        0
 92
        0
 62
   257
 93
        1
300
CONTENTFORMAT
  1
CONTENTFORMAT_BEGIN
 90
        0
 91
        0
 92
      512
 93
        0
300

 40
0.0
140
1.0
 94
        2
 62
     0
340
55
144
0.18
309
CONTENTFORMAT_END
171
     0
 94
        0
309
TABLEFORMAT_END
  1
CELLSTYLE_BEGIN
 90
        3
 91
        2
300
_DATA
309
CELLSTYLE_END
  0
ENDSEC
  0
EOF
