  0
SECTION
  2
HEADER
  9
$ACADVER
  1
AC1024
  9
$ACADMAINTVER
 70
   181
  9
$DWGCODEPAGE
  3
ANSI_932
  9
$LASTSAVEDBY
  1
tabli
  9
$INSBASE
 10
0.0
 20
0.0
 30
0.0
  9
$EXTMIN
 10
-6186.466537196301
 20
-9694.641887159072
 30
0.0
  9
$EXTMAX
 10
12172.66657025755
 20
881.8642087275598
 30
0.0000000000000909
  9
$LIMMIN
 10
11.41515163845486
 20
3.700032552083333
  9
$LIMMAX
 10
195.6693657769097
 20
305.8443806966146
  9
$ORTHOMODE
 70
     1
  9
$REGENMODE
 70
     1
  9
$FILLMODE
 70
     1
  9
$QTEXTMODE
 70
     0
  9
$MIRRTEXT
 70
     1
  9
$LTSCALE
 40
1.0
  9
$ATTMODE
 70
     1
  9
$TEXTSIZE
 40
0.2
  9
$TRACEWID
 40
0.05
  9
$TEXTSTYLE
  7
GOTHIC
  9
$CLAYER
  8
shade
  9
$CELTYPE
  6
ByLayer
  9
$CECOLOR
 62
   256
  9
$CELTSCALE
 40
1.0
  9
$DISPSILH
 70
     0
  9
$DIMSCALE
 40
1.0
  9
$DIMASZ
 40
2.5
  9
$DIMEXO
 40
1.0
  9
$DIMDLI
 40
2.5
  9
$DIMRND
 40
0.0
  9
$DIMDLE
 40
0.0
  9
$DIMEXE
 40
1.0
  9
$DIMTP
 40
0.0
  9
$DIMTM
 40
0.0
  9
$DIMTXT
 40
2.5
  9
$DIMCEN
 40
2.5
  9
$DIMTSZ
 40
0.0
  9
$DIMTOL
 70
     0
  9
$DIMLIM
 70
     0
  9
$DIMTIH
 70
     0
  9
$DIMTOH
 70
     0
  9
$DIMSE1
 70
     0
  9
$DIMSE2
 70
     0
  9
$DIMTAD
 70
     1
  9
$DIMZIN
 70
     0
  9
$DIMBLK
  1

  9
$DIMASO
 70
     1
  9
$DIMSHO
 70
     1
  9
$DIMPOST
  1

  9
$DIMAPOST
  1

  9
$DIMALT
 70
     0
  9
$DIMALTD
 70
     2
  9
$DIMALTF
 40
0.03937
  9
$DIMLFAC
 40
1.0
  9
$DIMTOFL
 70
     0
  9
$DIMTVP
 40
0.0
  9
$DIMTIX
 70
     0
  9
$DIMSOXD
 70
     0
  9
$DIMSAH
 70
     1
  9
$DIMBLK1
  1

  9
$DIMBLK2
  1

  9
$DIMSTYLE
  2
SC1
  9
$DIMCLRD
 70
   256
  9
$DIMCLRE
 70
   256
  9
$DIMCLRT
 70
     4
  9
$DIMTFAC
 40
1.0
  9
$DIMGAP
 40
1.0
  9
$DIMJUST
 70
     0
  9
$DIMSD1
 70
     0
  9
$DIMSD2
 70
     0
  9
$DIMTOLJ
 70
     1
  9
$DIMTZIN
 70
     0
  9
$DIMALTZ
 70
     0
  9
$DIMALTTZ
 70
     0
  9
$DIMUPT
 70
     0
  9
$DIMDEC
 70
     0
  9
$DIMTDEC
 70
     0
  9
$DIMALTU
 70
     2
  9
$DIMALTTD
 70
     2
  9
$DIMTXSTY
  7
GOTHIC
  9
$DIMAUNIT
 70
     0
  9
$DIMADEC
 70
     0
  9
$DIMALTRND
 40
0.0
  9
$DIMAZIN
 70
     0
  9
$DIMDSEP
 70
     0
  9
$DIMATFIT
 70
     3
  9
$DIMFRAC
 70
     0
  9
$DIMLDRBLK
  1

  9
$DIMLUNIT
 70
     2
  9
$DIMLWD
 70
    -2
  9
$DIMLWE
 70
    -2
  9
$DIMTMOVE
 70
     0
  9
$DIMFXL
 40
1.0
  9
$DIMFXLON
 70
     0
  9
$DIMJOGANG
 40
0.7853981633974483
  9
$DIMTFILL
 70
     0
  9
$DIMTFILLCLR
 70
     0
  9
$DIMARCSYM
 70
     0
  9
$DIMLTYPE
  6

  9
$DIMLTEX1
  6

  9
$DIMLTEX2
  6

  9
$DIMTXTDIRECTION
 70
     0
  9
$LUNITS
 70
     2
  9
$LUPREC
 70
     4
  9
$SKETCHINC
 40
0.1
  9
$FILLETRAD
 40
30.0
  9
$AUNITS
 70
     0
  9
$AUPREC
 70
     0
  9
$MENU
  1
acad
  9
$ELEVATION
 40
0.0
  9
$PELEVATION
 40
0.0
  9
$THICKNESS
 40
0.0
  9
$LIMCHECK
 70
     0
  9
$CHAMFERA
 40
1.0
  9
$CHAMFERB
 40
1.0
  9
$CHAMFERC
 40
0.0
  9
$CHAMFERD
 40
0.0
  9
$SKPOLY
 70
     0
  9
$TDCREATE
 40
2458128.383739444
  9
$TDUCREATE
 40
2458128.008739445
  9
$TDUPDATE
 40
2458239.405901482
  9
$TDUUPDATE
 40
2458239.030901482
  9
$TDINDWG
 40
2.4673589931
  9
$TDUSRTIMER
 40
2.4673589931
  9
$USRTIMER
 70
     1
  9
$ANGBASE
 50
0.0
  9
$ANGDIR
 70
     0
  9
$PDMODE
 70
     0
  9
$PDSIZE
 40
0.0
  9
$PLINEWID
 40
0.0
  9
$SPLFRAME
 70
     0
  9
$SPLINETYPE
 70
     6
  9
$SPLINESEGS
 70
     8
  9
$HANDSEED
  5
2FDD7
  9
$SURFTAB1
 70
     6
  9
$SURFTAB2
 70
     6
  9
$SURFTYPE
 70
     6
  9
$SURFU
 70
     6
  9
$SURFV
 70
     6
  9
$UCSBASE
  2

  9
$UCSNAME
  2

  9
$UCSORG
 10
-3922.105001867828
 20
-8586.292078617786
 30
0.0
  9
$UCSXDIR
 10
1.0
 20
0.0
 30
0.0
  9
$UCSYDIR
 10
0.0
 20
1.0
 30
0.0
  9
$UCSORTHOREF
  2

  9
$UCSORTHOVIEW
 70
     0
  9
$UCSORGTOP
 10
0.0
 20
0.0
 30
0.0
  9
$UCSORGBOTTOM
 10
0.0
 20
0.0
 30
0.0
  9
$UCSORGLEFT
 10
0.0
 20
0.0
 30
0.0
  9
$UCSORGRIGHT
 10
0.0
 20
0.0
 30
0.0
  9
$UCSORGFRONT
 10
0.0
 20
0.0
 30
0.0
  9
$UCSORGBACK
 10
0.0
 20
0.0
 30
0.0
  9
$PUCSBASE
  2

  9
$PUCSNAME
  2

  9
$PUCSORG
 10
0.0
 20
0.0
 30
0.0
  9
$PUCSXDIR
 10
1.0
 20
0.0
 30
0.0
  9
$PUCSYDIR
 10
0.0
 20
1.0
 30
0.0
  9
$PUCSORTHOREF
  2

  9
$PUCSORTHOVIEW
 70
     0
  9
$PUCSORGTOP
 10
0.0
 20
0.0
 30
0.0
  9
$PUCSORGBOTTOM
 10
0.0
 20
0.0
 30
0.0
  9
$PUCSORGLEFT
 10
0.0
 20
0.0
 30
0.0
  9
$PUCSORGRIGHT
 10
0.0
 20
0.0
 30
0.0
  9
$PUCSORGFRONT
 10
0.0
 20
0.0
 30
0.0
  9
$PUCSORGBACK
 10
0.0
 20
0.0
 30
0.0
  9
$USERI1
 70
     0
  9
$USERI2
 70
     0
  9
$USERI3
 70
     0
  9
$USERI4
 70
     0
  9
$USERI5
 70
     0
  9
$USERR1
 40
0.0
  9
$USERR2
 40
0.0
  9
$USERR3
 40
0.0
  9
$USERR4
 40
0.0
  9
$USERR5
 40
0.0
  9
$WORLDVIEW
 70
     1
  9
$SHADEDGE
 70
     3
  9
$SHADEDIF
 70
    70
  9
$TILEMODE
 70
     1
  9
$MAXACTVP
 70
    16
  9
$PINSBASE
 10
0.0
 20
0.0
 30
0.0
  9
$PLIMCHECK
 70
     0
  9
$PEXTMIN
 10
25.69999999999999
 20
19.5
 30
0.0
  9
$PEXTMAX
 10
231.3
 20
175.5
 30
0.0
  9
$PLIMMIN
 10
-20.0
 20
-7.5
  9
$PLIMMAX
 10
277.0
 20
202.5
  9
$UNITMODE
 70
     0
  9
$VISRETAIN
 70
     0
  9
$PLINEGEN
 70
     1
  9
$PSLTSCALE
 70
     0
  9
$TREEDEPTH
 70
  3020
  9
$CMLSTYLE
  2
Standard
  9
$CMLJUST
 70
     0
  9
$CMLSCALE
 40
1.0
  9
$PROXYGRAPHICS
 70
     0
  9
$MEASUREMENT
 70
     1
  9
$CELWEIGHT
370
    -1
  9
$ENDCAPS
280
     0
  9
$JOINSTYLE
280
     0
  9
$LWDISPLAY
290
     0
  9
$INSUNITS
 70
     0
  9
$HYPERLINKBASE
  1

  9
$STYLESHEET
  1
KI.ctb
  9
$XEDIT
290
     1
  9
$CEPSNTYPE
380
     0
  9
$PSTYLEMODE
290
     1
  9
$FINGERPRINTGUID
  2

  9
$VERSIONGUID
  2
{C9741479-BB18-43A0-8431-545C4D827E83}
  9
$EXTNAMES
290
     1
  9
$PSVPSCALE
 40
0.0
  9
$OLESTARTUP
290
     0
  9
$SORTENTS
280
   127
  9
$INDEXCTL
280
     0
  9
$HIDETEXT
280
     1
  9
$XCLIPFRAME
280
     2
  9
$HALOGAP
280
     0
  9
$OBSCOLOR
 70
   257
  9
$OBSLTYPE
280
     0
  9
$INTERSECTIONDISPLAY
280
     0
  9
$INTERSECTIONCOLOR
 70
   257
  9
$DIMASSOC
280
     2
  9
$PROJECTNAME
  1

  9
$CAMERADISPLAY
290
     0
  9
$LENSLENGTH
 40
50.0
  9
$CAMERAHEIGHT
 40
0.0
  9
$STEPSPERSEC
 40
2.0
  9
$STEPSIZE
 40
6.0
  9
$3DDWFPREC
 40
2.0
  9
$PSOLWIDTH
 40
0.25
  9
$PSOLHEIGHT
 40
4.0
  9
$LOFTANG1
 40
1.570796326794896
  9
$LOFTANG2
 40
1.570796326794896
  9
$LOFTMAG1
 40
0.0
  9
$LOFTMAG2
 40
0.0
  9
$LOFTPARAM
 70
     7
  9
$LOFTNORMALS
280
     1
  9
$LATITUDE
 40
37.795
  9
$LONGITUDE
 40
-122.394
  9
$NORTHDIRECTION
 40
0.0
  9
$TIMEZONE
 70
 -8000
  9
$LIGHTGLYPHDISPLAY
280
     1
  9
$TILEMODELIGHTSYNCH
280
     1
  9
$CMATERIAL
347
1A5
  9
$SOLIDHIST
280
     1
  9
$SHOWHIST
280
     1
  9
$DWFFRAME
280
     2
  9
$DGNFRAME
280
     2
  9
$REALWORLDSCALE
290
     1
  9
$INTERFERECOLOR
 62
   256
  9
$INTERFEREOBJVS
345
172
  9
$INTERFEREVPVS
346
16F
  9
$CSHADOW
280
     0
  9
$SHADOWPLANELOCATION
 40
0.0
  0
ENDSEC
  0
SECTION
  2
CLASSES
  0
CLASS
  1
IMAGE
  2
AcDbRasterImage
  3
ISM
 90
     2175
 91
        0
280
     0
281
     1
  0
CLASS
  1
DICTIONARYVAR
  2
AcDbDictionaryVar
  3
ObjectDBX Classes
 90
        0
 91
        6
280
     0
281
     0
  0
CLASS
  1
RASTERVARIABLES
  2
AcDbRasterVariables
  3
ISM
 90
        0
 91
        1
280
     0
281
     0
  0
CLASS
  1
IMAGEDEF
  2
AcDbRasterImageDef
  3
ISM
 90
        0
 91
        0
280
     0
281
     0
  0
CLASS
  1
IMAGEDEF_REACTOR
  2
AcDbRasterImageDefReactor
  3
ISM
 90
        1
 91
        0
280
     0
281
     0
  0
CLASS
  1
IDBUFFER
  2
AcDbIdBuffer
  3
ObjectDBX Classes
 90
        0
 91
        0
280
     0
281
     0
  0
CLASS
  1
SPATIAL_FILTER
  2
AcDbSpatialFilter
  3
ObjectDBX Classes
 90
        0
 91
        0
280
     0
281
     0
  0
CLASS
  1
SORTENTSTABLE
  2
AcDbSortentsTable
  3
ObjectDBX Classes
 90
        0
 91
        0
280
     0
281
     0
  0
CLASS
  1
LAYER_INDEX
  2
AcDbLayerIndex
  3
ObjectDBX Classes
 90
        0
 91
        0
280
     0
281
     0
  0
CLASS
  1
SPATIAL_INDEX
  2
AcDbSpatialIndex
  3
ObjectDBX Classes
 90
        0
 91
        0
280
     0
281
     0
  0
CLASS
  1
OBJECT_PTR
  2
CAseDLPNTableRecord
  3
ASE-LPNTableRecord
 90
        1
 91
        0
280
     0
281
     0
  0
CLASS
  1
PLOTSETTINGS
  2
AcDbPlotSettings
  3
ObjectDBX Classes
 90
        0
 91
        0
280
     0
281
     0
  0
CLASS
  1
ACDBDICTIONARYWDFLT
  2
AcDbDictionaryWithDefault
  3
ObjectDBX Classes
 90
        0
 91
        1
280
     0
281
     0
  0
CLASS
  1
WIPEOUT
  2
AcDbWipeout
  3
WipeOut|Product Desc: Object Enabler for WipeOut entity | Company: Autodesk, Inc. | WEB Address: www.autodesk.com
 90
     2175
 91
        0
280
     0
281
     1
  0
CLASS
  1
WIPEOUTVARIABLES
  2
AcDbWipeoutVariables
  3
"WipeOut|Product Desc:     WipeOut Dbx Application|Company:          Autodesk, Inc.|WEB Address:      www.autodesk.com"
 90
        0
 91
        1
280
     0
281
     0
  0
CLASS
  1
RTEXT
  2
RText
  3
RText|AutoCAD Express Tool|expresstools@autodesk.com
 90
        0
 91
        0
280
     0
281
     1
  0
CLASS
  1
ARCALIGNEDTEXT
  2
AcDbArcAlignedText
  3
ATEXT|AutoCAD Express Tool|expresstools@autodesk.com
 90
        0
 91
        0
280
     0
281
     1
  0
CLASS
  1
VISUALSTYLE
  2
AcDbVisualStyle
  3
ObjectDBX Classes
 90
     4095
 91
       25
280
     0
281
     0
  0
CLASS
  1
SCALE
  2
AcDbScale
  3
ObjectDBX Classes
 90
     1153
 91
       33
280
     0
281
     0
  0
CLASS
  1
MATERIAL
  2
AcDbMaterial
  3
ObjectDBX Classes
 90
     1153
 91
        3
280
     0
281
     0
  0
CLASS
  1
TABLESTYLE
  2
AcDbTableStyle
  3
ObjectDBX Classes
 90
     4095
 91
        1
280
     0
281
     0
  0
CLASS
  1
MLEADERSTYLE
  2
AcDbMLeaderStyle
  3
ACDB_MLEADERSTYLE_CLASS
 90
     4095
 91
        4
280
     0
281
     0
  0
CLASS
  1
SUN
  2
AcDbSun
  3
SCENEOE
 90
     1153
 91
        3
280
     0
281
     0
  0
CLASS
  1
DIMASSOC
  2
AcDbDimAssoc
  3
"AcDbDimAssoc|Product Desc:     AcDim ARX App For Dimension|Company:          Autodesk, Inc.|WEB Address:      www.autodesk.com"
 90
        0
 91
       47
280
     0
281
     0
  0
CLASS
  1
HELIX
  2
AcDbHelix
  3
ObjectDBX Classes
 90
     4095
 91
        0
280
     0
281
     1
  0
CLASS
  1
GRADIENT_BACKGROUND
  2
AcDbGradientBackground
  3
SCENEOE
 90
     4095
 91
        1
280
     0
281
     0
  0
CLASS
  1
ACDB_ALDIMOBJECTCONTEXTDATA_CLASS
  2
AcDbAlignedDimensionObjectContextData
  3
ObjectDBX Classes
 90
     1153
 91
        0
280
     0
281
     0
  0
CLASS
  1
ACDB_LEADEROBJECTCONTEXTDATA_CLASS
  2
AcDbLeaderObjectContextData
  3
ObjectDBX Classes
 90
     1153
 91
        0
280
     0
281
     0
  0
CLASS
  1
BmDbComponentDefinitionManager
  2
BmDbComponentDefinitionManager
  3
BricsCAD | Description: Mechanical data
 90
     1025
 91
        0
280
     0
281
     0
  0
CLASS
  1
BmDbAssemblyDefinition
  2
BmDbAssemblyDefinition
  3
BricsCAD|Description: Mechanical data
 90
     1025
 91
        0
280
     0
281
     0
  0
CLASS
  1
BmDbXHardwarePartDefinition
  2
BmDbXHardwarePartDefinition
  3
BricsCAD|Description: Mechanical data
 90
     1025
 91
        0
280
     0
281
     0
  0
CLASS
  1
BmDbComponentInstance
  2
BmDbComponentInstance
  3
BricsCAD|Description: Mechanical data
 90
     1025
 91
        0
280
     0
281
     0
  0
CLASS
  1
ARC_DIMENSION
  2
AcDbArcDimension
  3
ObjectDBX Classes
 90
     1025
 91
        0
280
     0
281
     1
  0
CLASS
  1
ACDBSECTIONVIEWSTYLE
  2
AcDbSectionViewStyle
  3
ObjectDBX Classes
 90
     1025
 91
        1
280
     0
281
     0
  0
CLASS
  1
ACDBDETAILVIEWSTYLE
  2
AcDbDetailViewStyle
  3
ObjectDBX Classes
 90
     1025
 91
        1
280
     0
281
     0
  0
CLASS
  1
CELLSTYLEMAP
  2
AcDbCellStyleMap
  3
ObjectDBX Classes
 90
     1152
 91
        1
280
     0
281
     0
  0
ENDSEC
  0
SECTION
  2
TABLES
  0
TABLE
  2
VPORT
  5
7
330
0
100
AcDbSymbolTable
 70
     1
  0
VPORT
  5
15
330
7
100
AcDbSymbolTableRecord
100
AcDbViewportTableRecord
  2
*ACTIVE
 70
     0
 10
0.0
 20
0.0
 11
1.0
 21
1.0
 12
-3794.153224530997
 22
-8430.580898419682
 13
0.0
 23
0.0
 14
1.0
 24
1.0
 15
0.0
 25
0.0
 16
0.0
 26
0.0
 36
1.0
 17
0.0
 27
0.0
 37
0.0
 40
408.5496307092767
 41
2.361075544174135
 42
50.0
 43
0.0
 44
0.0
 50
0.0
 51
0.0
 71
    16
 72
   100
 73
     1
 74
     1
 75
     0
 76
     0
 77
     0
 78
     0
281
     0
 65
     0
110
0.0
120
0.0
130
0.0
111
1.0
121
0.0
131
0.0
112
0.0
122
1.0
132
0.0
 79
     0
146
0.0
348
16E
 60
     2
 61
     5
292
     1
282
     1
141
0.0
142
0.0
 63
   250
421
  3355443
361
1AD
1001
ACAD_NAV_VCDISPLAY
1070
     3
  0
ENDTAB
  0
TABLE
  2
LTYPE
  5
4
330
0
100
AcDbSymbolTable
 70
     9
  0
LTYPE
  5
11
330
4
100
AcDbSymbolTableRecord
100
AcDbLinetypeTableRecord
  2
ByBlock
 70
     0
  3

 72
    65
 73
     0
 40
0.0
  0
LTYPE
  5
12
330
4
100
AcDbSymbolTableRecord
100
AcDbLinetypeTableRecord
  2
ByLayer
 70
     0
  3

 72
    65
 73
     0
 40
0.0
  0
LTYPE
  5
13
330
4
100
AcDbSymbolTableRecord
100
AcDbLinetypeTableRecord
  2
Continuous
 70
     0
  3
Solid line
 72
    65
 73
     0
 40
0.0
  0
LTYPE
  5
27561
330
4
100
AcDbSymbolTableRecord
100
AcDbLinetypeTableRecord
  2
JBORDER
 70
     0
  3
___ _ ___ _ ___ _ ___ _ ___ _ ___ _ ___ _ ___ _
 72
    65
 73
     4
 40
23.0
 49
20.0
 74
     0
 49
-1.0
 74
     0
 49
1.0
 74
     0
 49
-1.0
 74
     0
  0
LTYPE
  5
27562
330
4
100
AcDbSymbolTableRecord
100
AcDbLinetypeTableRecord
  2
BORDER
 70
     0
  3
__ . __ . 
 72
    65
 73
     4
 40
22.0
 49
20.0
 74
     0
 49
-1.0
 74
     0
 49
0.0
 74
     0
 49
-1.0
 74
     0
  0
ENDTAB
  0
TABLE
  2
LAYER
  5
2
102
{ACAD_XDICTIONARY
360
1325
102
}
330
0
100
AcDbSymbolTable
 70
    21
  0
LAYER
  5
14
330
2
100
AcDbSymbolTableRecord
100
AcDbLayerTableRecord
  2
0
 70
     0
 62
     7
  6
Continuous
370
    -3
390
1D
347
1A7
  0
LAYER
  5
1AE
330
2
100
AcDbSymbolTableRecord
100
AcDbLayerTableRecord
  2
FIG
 70
     0
 62
     2
  6
Continuous
370
    -3
390
1D
347
1A7
  0
LAYER
  5
1AF
330
2
100
AcDbSymbolTableRecord
100
AcDbLayerTableRecord
  2
DIM
 70
     0
 62
     8
  6
Continuous
370
    -3
390
1D
347
1A7
  0
LAYER
  5
1B0
330
2
100
AcDbSymbolTableRecord
100
AcDbLayerTableRecord
  2
PARTS
 70
     0
 62
     3
  6
Continuous
370
    -3
390
1D
347
1A7
  0
LAYER
  5
1B5
330
2
100
AcDbSymbolTableRecord
100
AcDbLayerTableRecord
  2
Defpoints
 70
     0
 62
     7
  6
Continuous
290
     0
370
    -3
390
1D
347
1A7
  0
LAYER
  5
494A
330
2
100
AcDbSymbolTableRecord
100
AcDbLayerTableRecord
  2
text
 70
     0
 62
     4
  6
Continuous
370
    -3
390
1D
347
1A7
  0
LAYER
  5
4A7D
330
2
100
AcDbSymbolTableRecord
100
AcDbLayerTableRecord
  2
frame
 70
     0
 62
     2
  6
Continuous
370
    -3
390
1D
347
1A7
  0
LAYER
  5
69A6
330
2
100
AcDbSymbolTableRecord
100
AcDbLayerTableRecord
  2
shade
 70
     0
 62
     6
  6
Continuous
370
    -3
390
1D
347
1A7
  0
LAYER
  5
12EC4
330
2
100
AcDbSymbolTableRecord
100
AcDbLayerTableRecord
  2
FLAME
 70
     0
 62
     2
  6
Continuous
370
    -3
390
1D
347
1A7
  0
LAYER
  5
19BF5
330
2
100
AcDbSymbolTableRecord
100
AcDbLayerTableRecord
  2
LAYER1
 70
     0
 62
     7
  6
Continuous
370
    -3
390
1D
347
1A7
  0
ENDTAB
  0
TABLE
  2
STYLE
  5
3
330
0
100
AcDbSymbolTable
 70
     7
  0
STYLE
  5
17
330
3
100
AcDbSymbolTableRecord
100
AcDbTextStyleTableRecord
  2
Standard
 70
     0
 40
0.0
 41
1.0
 50
0.0
 71
     0
 42
5.0
  3
txt
  4
japanese.shx
  0
STYLE
  5
4A82
330
3
100
AcDbSymbolTableRecord
100
AcDbTextStyleTableRecord
  2
新規スタイル1
 70
     0
 40
0.0
 41
1.0
 50
0.0
 71
     0
 42
0.2
  3

  4

1001
ACAD
1000
ＭＳ Ｐ明朝
1071
    32786
  0
STYLE
  5
BB92
330
3
100
AcDbSymbolTableRecord
100
AcDbTextStyleTableRecord
  2
GOTHIC
 70
     0
 40
0.0
 41
1.0
 50
0.0
 71
     0
 42
0.2
  3

  4

1001
ACAD
1000
ＭＳ Ｐゴシック
1071
    32818
  0
ENDTAB
  0
TABLE
  2
VIEW
  5
5
330
0
100
AcDbSymbolTable
 70
     2
  0
VIEW
  5
B4BD
330
5
100
AcDbSymbolTableRecord
100
AcDbViewTableRecord
  2
ホーム
 70
     0
 40
300.0
 10
0.0
 20
0.0
 41
150.0
 11
-70.0
 21
-130.0
 31
80.0
 12
200.0
 22
150.0
 32
0.0
 42
50.0
 43
0.0
 44
0.0
 50
0.0
 71
     0
281
     6
 72
     0
 73
     0
332
B4BC
348
1AC
  0
ENDTAB
  0
TABLE
  2
UCS
  5
6
330
0
100
AcDbSymbolTable
 70
     0
  0
ENDTAB
  0
TABLE
  2
APPID
  5
8
330
0
100
AcDbSymbolTable
 70
    10
  0
APPID
  5
16
330
8
100
AcDbSymbolTableRecord
100
AcDbRegAppTableRecord
  2
ACAD
 70
     0
  0
APPID
  5
55D
330
8
100
AcDbSymbolTableRecord
100
AcDbRegAppTableRecord
  2
ACAD_DSTYLE_DIMRADIAL_EXTENSION
 70
     0
  0
APPID
  5
5A8
330
8
100
AcDbSymbolTableRecord
100
AcDbRegAppTableRecord
  2
ACAD_PSEXT
 70
     0
  0
APPID
  5
24E4
330
8
100
AcDbSymbolTableRecord
100
AcDbRegAppTableRecord
  2
AcadAnnotative
 70
     0
  0
APPID
  5
7B7C
330
8
100
AcDbSymbolTableRecord
100
AcDbRegAppTableRecord
  2
Sigma
 70
     0
  0
APPID
  5
7B7E
330
8
100
AcDbSymbolTableRecord
100
AcDbRegAppTableRecord
  2
ACAD_NAV_VCDISPLAY
 70
     0
  0
APPID
  5
BBA7
330
8
100
AcDbSymbolTableRecord
100
AcDbRegAppTableRecord
  2
AcAecLayerStandard
 70
     0
  0
APPID
  5
12ED1
330
8
100
AcDbSymbolTableRecord
100
AcDbRegAppTableRecord
  2
ACAD_DSTYLE_DIMJAG
 70
     0
  0
APPID
  5
12ED2
330
8
100
AcDbSymbolTableRecord
100
AcDbRegAppTableRecord
  2
ACAD_DSTYLE_DIMTALN
 70
     0
  0
APPID
  5
2EAEE
330
8
100
AcDbSymbolTableRecord
100
AcDbRegAppTableRecord
  2
ACAD_EXEMPT_FROM_CAD_STANDARDS
 70
     0
  0
ENDTAB
  0
TABLE
  2
DIMSTYLE
  5
9
330
0
100
AcDbSymbolTable
 70
     9
100
AcDbDimStyleTable
 71
     0
  0
DIMSTYLE
105
18
330
9
100
AcDbSymbolTableRecord
100
AcDbDimStyleTableRecord
  2
Standard
 70
     0
289
     0
340
17
  0
DIMSTYLE
105
193D1
330
9
100
AcDbSymbolTableRecord
100
AcDbDimStyleTableRecord
  2
SC1
 70
     0
 41
2.5
 42
1.0
 43
2.5
 44
1.0
 73
     0
 74
     0
 77
     1
140
2.5
141
2.5
143
0.03937
147
1.0
173
     1
176
   256
177
   256
178
     4
271
     0
272
     0
278
     0
340
BB92
1001
AcadAnnotative
1000
AnnotativeData
1002
{
1070
     1
1070
     0
1002
}
  0
ENDTAB
  0
TABLE
  2
BLOCK_RECORD
  5
1
330
0
100
AcDbSymbolTable
 70
    79
  0
BLOCK_RECORD
  5
A
330
1
100
AcDbSymbolTableRecord
100
AcDbBlockTableRecord
  2
*MODEL_SPACE
340
20
 70
     0
280
     1
281
     0
  0
BLOCK_RECORD
  5
B
330
1
100
AcDbSymbolTableRecord
100
AcDbBlockTableRecord
  2
*PAPER_SPACE
340
21
 70
     0
280
     1
281
     0
  0
BLOCK_RECORD
  5
753D
330
1
100
AcDbSymbolTableRecord
100
AcDbBlockTableRecord
  2
_OPEN
340
0
 70
     0
280
     1
281
     0
  0
BLOCK_RECORD
  5
C920
330
1
100
AcDbSymbolTableRecord
100
AcDbBlockTableRecord
  2
E17EFD15
340
0
102
{BLKREFS
331
C964
102
}
 70
     0
280
     1
281
     0
1001
AcadAnnotative
1000
AnnotativeData
1002
{
1070
     1
1070
     0
1002
}
  0
BLOCK_RECORD
  5
13CC9
330
1
100
AcDbSymbolTableRecord
100
AcDbBlockTableRecord
  2
lekilint
340
0
102
{BLKREFS
331
13CCC
331
13CCD
102
}
 70
     0
280
     1
281
     0
1001
AcadAnnotative
1000
AnnotativeData
1002
{
1070
     1
1070
     0
1002
}
  0
BLOCK_RECORD
  5
21870
330
1
100
AcDbSymbolTableRecord
100
AcDbBlockTableRecord
  2
arm
340
0
102
{BLKREFS
331
21873
102
}
 70
     0
280
     1
281
     0
1001
AcadAnnotative
1000
AnnotativeData
1002
{
1070
     1
1070
     0
1002
}
  0
BLOCK_RECORD
  5
21874
330
1
100
AcDbSymbolTableRecord
100
AcDbBlockTableRecord
  2
aam
340
0
102
{BLKREFS
331
21877
102
}
 70
     0
280
     1
281
     0
1001
AcadAnnotative
1000
AnnotativeData
1002
{
1070
     1
1070
     0
1002
}
  0
ENDTAB
  0
ENDSEC
  0
SECTION
  2
BLOCKS
  0
BLOCK
  5
D
330
A
100
AcDbEntity
  8
0
100
AcDbBlockBegin
  2
*MODEL_SPACE
 70
     0
 10
0.0
 20
0.0
 30
0.0
  3
*MODEL_SPACE
  1

  0
ENDBLK
  5
E
330
A
100
AcDbEntity
  8
0
100
AcDbBlockEnd
  0
BLOCK
  5
F
330
B
100
AcDbEntity
 67
     1
  8
0
100
AcDbBlockBegin
  2
*PAPER_SPACE
 70
     0
 10
0.0
 20
0.0
 30
0.0
  3
*PAPER_SPACE
  1

  0
ENDBLK
  5
10
330
B
100
AcDbEntity
 67
     1
  8
0
100
AcDbBlockEnd
  0
BLOCK
  5
753E
330
753D
100
AcDbEntity
  8
0
100
AcDbBlockBegin
  2
_OPEN
 70
     0
 10
0.0
 20
0.0
 30
0.0
  3
_OPEN
  1

  0
LINE
  5
7540
330
753D
100
AcDbEntity
  8
0
  6
ByBlock
 62
     0
370
    -2
100
AcDbLine
 10
-1.0
 20
0.166667
 30
0.0
 11
0.0
 21
0.0
 31
0.0
  0
LINE
  5
7541
330
753D
100
AcDbEntity
  8
0
  6
ByBlock
 62
     0
370
    -2
100
AcDbLine
 10
-1.0
 20
-0.166667
 30
0.0
 11
0.0
 21
0.0
 31
0.0
  0
LINE
  5
7542
330
753D
100
AcDbEntity
  8
0
  6
ByBlock
 62
     0
370
    -2
100
AcDbLine
 10
0.0
 20
0.0
 30
0.0
 11
-1.0
 21
0.0
 31
0.0
  0
ENDBLK
  5
753F
330
753D
100
AcDbEntity
  8
0
100
AcDbBlockEnd
  0
BLOCK
  5
C921
330
C920
100
AcDbEntity
  8
0
100
AcDbBlockBegin
  2
E17EFD15
 70
     0
 10
0.0
 20
0.0
 30
0.0
  3
E17EFD15
  1

  0
ENDBLK
  5
C922
330
C920
100
AcDbEntity
  8
0
100
AcDbBlockEnd
  0
BLOCK
  5
13CCA
330
13CC9
100
AcDbEntity
  8
0
100
AcDbBlockBegin
  2
lekilint
 70
     0
 10
0.0
 20
0.0
 30
0.0
  3
lekilint
  1

  0
ENDBLK
  5
13CCB
330
13CC9
100
AcDbEntity
  8
0
100
AcDbBlockEnd
  0
BLOCK
  5
21871
330
21870
100
AcDbEntity
  8
0
100
AcDbBlockBegin
  2
arm
 70
     0
 10
0.0
 20
0.0
 30
0.0
  3
arm
  1

  0
ENDBLK
  5
21872
330
21870
100
AcDbEntity
  8
0
100
AcDbBlockEnd
  0
BLOCK
  5
21875
330
21874
100
AcDbEntity
  8
0
100
AcDbBlockBegin
  2
aam
 70
     0
 10
0.0
 20
0.0
 30
0.0
  3
aam
  1

  0
ENDBLK
  5
21876
330
21874
100
AcDbEntity
  8
0
100
AcDbBlockEnd
  0
ENDSEC
  0
SECTION
  2
ENTITIES
  0
LEADER
  5
8F94
330
A
100
AcDbEntity
  8
DIM
370
     0
100
AcDbLeader
  3
Standard
 76
     1
 10
-3096.60575692906
 20
203.2253135380304
 30
0.0
1001
ACAD
1000
DSTYLE
1002
{
1070
   289
1070
     3
1070
   278
1070
     0
1070
   341
1005
753D
1070
   371
1070
     0
1070
   372
1070
     0
1002
}
  0
INSERT
  5
C964
330
A
100
AcDbEntity
  8
FIG
370
     0
100
AcDbBlockReference
  2
E17EFD15
 10
-1842.514759377162
 20
-756.0514799071137
 30
0.0
  0
INSERT
  5
13CCC
330
A
100
AcDbEntity
  8
frame
100
AcDbBlockReference
  2
lekilint
 10
-4296.836480548528
 20
-7147.686960071481
 30
0.0
  0
INSERT
  5
13CCD
330
A
100
AcDbEntity
  8
frame
100
AcDbBlockReference
  2
lekilint
 10
-4310.836480548529
 20
-7133.687995883092
 30
0.0
  0
INSERT
  5
21873
330
A
100
AcDbEntity
  8
PARTS
100
AcDbBlockReference
  2
arm
 10
2273.000299080948
 20
-5353.555433530938
 30
0.0
  0
INSERT
  5
21877
330
A
100
AcDbEntity
  8
PARTS
100
AcDbBlockReference
  2
aam
 10
938.452973030904
 20
-5255.409966559286
 30
0.0
  0
LINE
  5
275DE
330
A
100
AcDbEntity
  8
LAYER1
  6
JBORDER
 62
     1
370
    18
100
AcDbLine
 10
1147.265338278661
 20
881.8642087275598
 30
0.0
 11
1147.265338278657
 21
798.3642087275597
 31
0.0
  0
LINE
  5
275DF
330
A
100
AcDbEntity
  8
LAYER1
370
    35
100
AcDbLine
 10
1061.899567007857
 20
843.3142087275655
 30
0.0
 11
1110.66112801359
 21
843.3142087275621
 31
0.0
  0
LINE
  5
275E0
330
A
100
AcDbEntity
  8
LAYER1
370
    35
100
AcDbLine
 10
1061.899567007856
 20
836.9142087275658
 30
0.0
 11
1110.66112801359
 21
836.9142087275619
 31
0.0
  0
LINE
  5
275E1
330
A
100
AcDbEntity
  8
LAYER1
  6
BORDER
370
    18
100
AcDbLine
 10
1158.76533827866
 20
845.6142087275591
 30
0.0
 11
1158.765338278659
 21
834.6142087275591
 31
0.0
  0
CIRCLE
  5
275E2
330
A
100
AcDbEntity
  8
LAYER1
370
    35
100
AcDbCircle
 10
1158.765338278659
 20
840.1142087275591
 30
0.0
 40
2.999999999999545
  0
LINE
  5
275E3
330
A
100
AcDbEntity
  8
LAYER1
370
    35
100
AcDbLine
 10
1183.875753463412
 20
836.9142087275575
 30
0.0
 11
1235.327938638309
 21
836.9142087275545
 31
0.0
  0
LINE
  5
275E4
330
A
100
AcDbEntity
  8
LAYER1
370
    35
100
AcDbLine
 10
1183.875753463413
 20
843.3142087275575
 30
0.0
 11
1235.327938638309
 21
843.3142087275541
 31
0.0
  0
LINE
  5
275E5
330
A
100
AcDbEntity
  8
LAYER1
  6
JBORDER
 62
     1
370
    18
100
AcDbLine
 10
949.8641359230321
 20
840.1142087275722
 30
0.0
 11
1244.362935923028
 21
840.1142087275539
 31
0.0
  0
CIRCLE
  5
275E6
330
A
100
AcDbEntity
  8
LAYER1
370
    35
100
AcDbCircle
 10
1147.265338278659
 20
840.1142087275598
 30
0.0
 40
36.74999999999978
  0
CIRCLE
  5
275E7
330
A
100
AcDbEntity
  8
LAYER1
370
    18
100
AcDbCircle
 10
1147.265338278659
 20
840.1142087275598
 30
0.0
 40
24.00000000000034
  0
CIRCLE
  5
275E8
330
A
100
AcDbEntity
  8
LAYER1
370
    35
100
AcDbCircle
 10
1147.265338278659
 20
840.1142087275598
 30
0.0
 40
21.99999999999989
  0
CIRCLE
  5
275E9
330
A
100
AcDbEntity
  8
LAYER1
370
    35
100
AcDbCircle
 10
1147.265338278659
 20
840.1142087275598
 30
0.0
 40
21.49999999999989
  0
LEADER
  5
275EA
330
A
100
AcDbEntity
  8
LAYER1
100
AcDbLeader
  3
Standard
 76
     2
 10
1074.067988316635
 20
836.9142087275648
 30
0.0
 10
1108.992361671817
 20
743.1801686569332
 30
0.0
1001
ACAD
1000
DSTYLE
1002
{
1070
    41
1040
30.0
1070
    42
1040
10.0
1070
    43
1040
16.0
1070
    44
1040
10.0
1070
    73
1070
     0
1070
    74
1070
     0
1070
    77
1070
     0
1070
   140
1040
30.0
1070
   141
1040
0.0
1070
   147
1040
10.0
1070
   174
1070
     1
1070
   176
1070
     4
1070
   177
1070
     4
1070
   178
1070
     4
1070
   271
1070
     0
1070
   272
1070
     0
1002
}
  0
LEADER
  5
275EB
330
A
100
AcDbEntity
  8
LAYER1
100
AcDbLeader
  3
Standard
 76
     2
 10
1159.123911069126
 20
805.3300636126776
 30
0.0
 10
1180.211608462622
 20
743.4745992802626
 30
0.0
1001
ACAD
1000
DSTYLE
1002
{
1070
    41
1040
30.0
1070
    42
1040
10.0
1070
    43
1040
16.0
1070
    44
1040
10.0
1070
    73
1070
     0
1070
    74
1070
     0
1070
    77
1070
     0
1070
   140
1040
30.0
1070
   141
1040
0.0
1070
   147
1040
10.0
1070
   174
1070
     1
1070
   176
1070
     4
1070
   177
1070
     4
1070
   178
1070
     4
1070
   271
1070
     0
1070
   272
1070
     0
1002
}
  0
LINE
  5
2FA16
330
A
100
AcDbEntity
  8
FLAME
100
AcDbLine
 10
-3776.756394302964
 20
-8381.272834733563
 30
0.0000000000000909
 11
-3776.756394302964
 21
-8486.272834733561
 31
0.0000000000000909
  0
LINE
  5
2FA17
330
A
100
AcDbEntity
  8
FLAME
100
AcDbLine
 10
-3866.756394302964
 20
-8486.272834733561
 30
0.0000000000000909
 11
-3866.756394302964
 21
-8381.272834733563
 31
0.0000000000000909
  0
LINE
  5
2FA18
330
A
100
AcDbEntity
  8
FLAME
100
AcDbLine
 10
-3776.756394302964
 20
-8486.272834733561
 30
0.0000000000000909
 11
-3866.756394302964
 21
-8486.272834733561
 31
0.0000000000000909
  0
LINE
  5
2FA19
330
A
100
AcDbEntity
  8
FLAME
100
AcDbLine
 10
-3776.756394302964
 20
-8481.272834733562
 30
0.0000000000000909
 11
-3866.756394302964
 21
-8481.272834733562
 31
0.0000000000000909
  0
LINE
  5
2FA1A
330
A
100
AcDbEntity
  8
FLAME
100
AcDbLine
 10
-3776.756394302964
 20
-8476.272834733562
 30
0.0000000000000909
 11
-3866.756394302964
 21
-8476.272834733562
 31
0.0000000000000909
  0
LINE
  5
2FA1B
330
A
100
AcDbEntity
  8
FLAME
100
AcDbLine
 10
-3776.756394302964
 20
-8471.272834733561
 30
0.0000000000000909
 11
-3866.756394302964
 21
-8471.272834733561
 31
0.0000000000000909
  0
LINE
  5
2FA1C
330
A
100
AcDbEntity
  8
FLAME
100
AcDbLine
 10
-3776.756394302964
 20
-8381.272834733563
 30
0.0000000000000909
 11
-3866.756394302964
 21
-8381.272834733563
 31
0.0000000000000909
  0
TEXT
  5
2FA1E
330
A
100
AcDbEntity
  8
text
  6
Continuous
100
AcDbText
 10
-3863.307508417302
 20
-8480.133097399948
 30
0.0
 40
2.5
  1
KT320BAG/SW
  7
新規スタイル1
 11
-3863.307508417302
 21
-8478.883097399947
 31
0.0
100
AcDbText
 73
     2
  0
TEXT
  5
2FA1F
330
A
100
AcDbEntity
  8
text
  6
Continuous
100
AcDbText
 10
-3863.351882002491
 20
-8484.972112568833
 30
0.0
 40
2.5
  1
E26　LED電球(40W形相当　電球色 全方向/広配光タイプ）（別売）
 41
0.8563029517454257
  7
新規スタイル1
 72
     5
 11
-3777.795185712707
 21
-8484.972112568833
 31
0.0
100
AcDbText
  0
TEXT
  5
2FA20
330
A
100
AcDbEntity
  8
text
  6
Continuous
100
AcDbText
 10
-3863.307508417302
 20
-8475.133097399947
 30
0.0
 40
2.5
  1
テーブルランプ　320B　スノードロップペーパー
  7
新規スタイル1
 11
-3863.307508417302
 21
-8473.883097399946
 31
0.0
100
AcDbText
 73
     2
  0
LINE
  5
2FBF0
330
A
100
AcDbEntity
  8
shade
100
AcDbLine
 10
-3820.223679144784
 20
-8439.565398657759
 30
0.0
 11
-3820.223679144784
 21
-8439.502881176565
 31
0.0
  0
LINE
  5
2FBF1
330
A
100
AcDbEntity
  8
shade
100
AcDbLine
 10
-3810.223669557887
 20
-8439.502881176565
 30
0.0
 11
-3810.223669557887
 21
-8439.565478297859
 31
0.0
  0
LINE
  5
2FBF2
330
A
100
AcDbEntity
  8
shade
100
AcDbLine
 10
-3819.973649040073
 20
-8440.405442468714
 30
0.0
 11
-3819.973649040073
 21
-8440.355348843658
 31
0.0
  0
LINE
  5
2FBF3
330
A
100
AcDbEntity
  8
shade
100
AcDbLine
 10
-3810.473699662598
 20
-8440.355348843658
 30
0.0
 11
-3810.473699662598
 21
-8440.405442468714
 31
0.0
  0
LINE
  5
2FBF4
330
A
100
AcDbEntity
  8
shade
100
AcDbLine
 10
-3815.615862040665
 20
-8439.480422667401
 30
0.0
 11
-3815.614946179476
 21
-8439.430408682449
 31
0.0
  0
LINE
  5
2FBF5
330
A
100
AcDbEntity
  8
shade
100
AcDbLine
 10
-3814.832402523196
 20
-8439.430408682449
 30
0.0
 11
-3814.831725582317
 21
-8439.467919171162
 31
0.0
  0
SPLINE
  5
2FBF6
330
A
100
AcDbEntity
  8
shade
100
AcDbSpline
210
0.0
220
0.0
230
1.0
 70
     8
 71
     3
 72
     8
 73
     4
 74
     0
 42
0.00000001
 43
0.0000000001
 40
0.0
 40
0.0
 40
0.0
 40
0.0
 40
1.0
 40
1.0
 40
1.0
 40
1.0
 10
-3815.614946179476
 20
-8439.430408682449
 30
0.0
 10
-3815.615224919838
 20
-8439.179621996755
 30
0.0
 10
-3815.578032991537
 20
-8438.6997107335
 30
0.0
 10
-3815.539208441116
 20
-8438.451950371733
 30
0.0
  0
SPLINE
  5
2FBF7
330
A
100
AcDbEntity
  8
shade
100
AcDbSpline
210
0.0
220
0.0
230
1.0
 70
     8
 71
     3
 72
     8
 73
     4
 74
     0
 42
0.00000001
 43
0.0000000001
 40
0.0
 40
0.0
 40
0.0
 40
0.0
 40
1.0
 40
1.0
 40
1.0
 40
1.0
 10
-3814.908140261556
 20
-8438.451950371733
 30
0.0
 10
-3814.869435171289
 20
-8438.6997107335
 30
0.0
 10
-3814.832243242989
 20
-8439.179621996755
 30
0.0
 10
-3814.832402523196
 20
-8439.430408682449
 30
0.0
  0
SPLINE
  5
2FBF8
330
A
100
AcDbEntity
  8
shade
100
AcDbSpline
210
0.0
220
0.0
230
1.0
 70
     8
 71
     3
 72
     8
 73
     4
 74
     0
 42
0.00000001
 43
0.0000000001
 40
0.0
 40
0.0
 40
0.0
 40
0.0
 40
1.0
 40
1.0
 40
1.0
 40
1.0
 10
-3815.539208441116
 20
-8438.451950371733
 30
0.0
 10
-3815.537735099204
 20
-8438.43976543591
 30
0.0
 10
-3815.526625304775
 20
-8438.430288263603
 30
0.0
 10
-3815.514400548899
 20
-8438.43044754381
 30
0.0
  0
SPLINE
  5
2FBF9
330
A
100
AcDbEntity
  8
shade
100
AcDbSpline
210
0.0
220
0.0
230
1.0
 70
     8
 71
     3
 72
     8
 73
     4
 74
     0
 42
0.00000001
 43
0.0000000001
 40
0.0
 40
0.0
 40
0.0
 40
0.0
 40
1.0
 40
1.0
 40
1.0
 40
1.0
 10
-3814.932948153773
 20
-8438.43044754381
 30
0.0
 10
-3814.920723397897
 20
-8438.430208623501
 30
0.0
 10
-3814.909613603468
 20
-8438.43976543591
 30
0.0
 10
-3814.908140261556
 20
-8438.451950371733
 30
0.0
  0
POLYLINE
  5
2FBFA
330
A
100
AcDbEntity
  8
shade
100
AcDb2dPolyline
 66
     1
 10
0.0
 20
0.0
 30
0.0
  0
VERTEX
  5
2FBFB
330
2FBFA
100
AcDbEntity
  8
shade
100
AcDbVertex
100
AcDb2dVertex
 10
-3826.887962999613
 20
-8416.210500307022
 30
0.0
  0
VERTEX
  5
2FBFC
330
2FBFA
100
AcDbEntity
  8
shade
100
AcDbVertex
100
AcDb2dVertex
 10
-3826.865982331067
 20
-8416.258881669852
 30
0.0
  0
VERTEX
  5
2FBFD
330
2FBFA
100
AcDbEntity
  8
shade
100
AcDbVertex
100
AcDb2dVertex
 10
-3826.853877035347
 20
-8416.299139742134
 30
0.0
  0
SEQEND
  5
2FBFE
330
2FBFA
100
AcDbEntity
  8
shade
  0
SPLINE
  5
2FBFF
330
A
100
AcDbEntity
  8
shade
100
AcDbSpline
210
0.0
220
0.0
230
1.0
 70
     8
 71
     3
 72
     8
 73
     4
 74
     0
 42
0.00000001
 43
0.0000000001
 40
0.0
 40
0.0
 40
0.0
 40
0.0
 40
1.0
 40
1.0
 40
1.0
 40
1.0
 10
-3827.535277760273
 20
-8416.299139742134
 30
0.0
 10
-3827.526915549414
 20
-8416.253466142817
 30
0.0
 10
-3827.491555343492
 20
-8416.183980152579
 30
0.0
 10
-3827.4592214615
 20
-8416.150491489087
 30
0.0
  0
SPLINE
  5
2FC00
330
A
100
AcDbEntity
  8
shade
100
AcDbSpline
210
0.0
220
0.0
230
1.0
 70
     8
 71
     3
 72
   335
 73
   331
 74
     0
 42
0.00000001
 43
0.0000000001
 40
0.0
 40
0.0
 40
0.0
 40
0.0
 40
1.0
 40
1.0
 40
1.0
 40
2.0
 40
2.0
 40
2.0
 40
3.0
 40
3.0
 40
3.0
 40
4.0
 40
4.0
 40
4.0
 40
5.0
 40
5.0
 40
5.0
 40
6.0
 40
6.0
 40
6.0
 40
7.0
 40
7.0
 40
7.0
 40
8.0
 40
8.0
 40
8.0
 40
9.0
 40
9.0
 40
9.0
 40
10.0
 40
10.0
 40
10.0
 40
11.0
 40
11.0
 40
11.0
 40
12.0
 40
12.0
 40
12.0
 40
13.0
 40
13.0
 40
13.0
 40
14.0
 40
14.0
 40
14.0
 40
15.0
 40
15.0
 40
15.0
 40
16.0
 40
16.0
 40
16.0
 40
17.0
 40
17.0
 40
17.0
 40
18.0
 40
18.0
 40
18.0
 40
19.0
 40
19.0
 40
19.0
 40
20.0
 40
20.0
 40
20.0
 40
21.0
 40
21.0
 40
21.0
 40
22.0
 40
22.0
 40
22.0
 40
23.0
 40
23.0
 40
23.0
 40
24.0
 40
24.0
 40
24.0
 40
25.0
 40
25.0
 40
25.0
 40
26.0
 40
26.0
 40
26.0
 40
27.0
 40
27.0
 40
27.0
 40
28.0
 40
28.0
 40
28.0
 40
29.0
 40
29.0
 40
29.0
 40
30.0
 40
30.0
 40
30.0
 40
31.0
 40
31.0
 40
31.0
 40
32.0
 40
32.0
 40
32.0
 40
33.0
 40
33.0
 40
33.0
 40
34.0
 40
34.0
 40
34.0
 40
35.0
 40
35.0
 40
35.0
 40
36.0
 40
36.0
 40
36.0
 40
37.0
 40
37.0
 40
37.0
 40
38.0
 40
38.0
 40
38.0
 40
39.0
 40
39.0
 40
39.0
 40
40.0
 40
40.0
 40
40.0
 40
41.0
 40
41.0
 40
41.0
 40
42.0
 40
42.0
 40
42.0
 40
43.0
 40
43.0
 40
43.0
 40
44.0
 40
44.0
 40
44.0
 40
45.0
 40
45.0
 40
45.0
 40
46.0
 40
46.0
 40
46.0
 40
47.0
 40
47.0
 40
47.0
 40
48.0
 40
48.0
 40
48.0
 40
49.0
 40
49.0
 40
49.0
 40
50.0
 40
50.0
 40
50.0
 40
51.0
 40
51.0
 40
51.0
 40
52.0
 40
52.0
 40
52.0
 40
53.0
 40
53.0
 40
53.0
 40
54.0
 40
54.0
 40
54.0
 40
55.0
 40
55.0
 40
55.0
 40
56.0
 40
56.0
 40
56.0
 40
57.0
 40
57.0
 40
57.0
 40
58.0
 40
58.0
 40
58.0
 40
59.0
 40
59.0
 40
59.0
 40
60.0
 40
60.0
 40
60.0
 40
61.0
 40
61.0
 40
61.0
 40
62.0
 40
62.0
 40
62.0
 40
63.0
 40
63.0
 40
63.0
 40
64.0
 40
64.0
 40
64.0
 40
65.0
 40
65.0
 40
65.0
 40
66.0
 40
66.0
 40
66.0
 40
67.0
 40
67.0
 40
67.0
 40
68.0
 40
68.0
 40
68.0
 40
69.0
 40
69.0
 40
69.0
 40
70.0
 40
70.0
 40
70.0
 40
71.0
 40
71.0
 40
71.0
 40
72.0
 40
72.0
 40
72.0
 40
73.0
 40
73.0
 40
73.0
 40
74.0
 40
74.0
 40
74.0
 40
75.0
 40
75.0
 40
75.0
 40
76.0
 40
76.0
 40
76.0
 40
77.0
 40
77.0
 40
77.0
 40
78.0
 40
78.0
 40
78.0
 40
79.0
 40
79.0
 40
79.0
 40
80.0
 40
80.0
 40
80.0
 40
81.0
 40
81.0
 40
81.0
 40
82.0
 40
82.0
 40
82.0
 40
83.0
 40
83.0
 40
83.0
 40
84.0
 40
84.0
 40
84.0
 40
85.0
 40
85.0
 40
85.0
 40
86.0
 40
86.0
 40
86.0
 40
87.0
 40
87.0
 40
87.0
 40
88.0
 40
88.0
 40
88.0
 40
89.0
 40
89.0
 40
89.0
 40
90.0
 40
90.0
 40
90.0
 40
91.0
 40
91.0
 40
91.0
 40
92.0
 40
92.0
 40
92.0
 40
93.0
 40
93.0
 40
93.0
 40
94.0
 40
94.0
 40
94.0
 40
95.0
 40
95.0
 40
95.0
 40
96.0
 40
96.0
 40
96.0
 40
97.0
 40
97.0
 40
97.0
 40
98.0
 40
98.0
 40
98.0
 40
99.0
 40
99.0
 40
99.0
 40
100.0
 40
100.0
 40
100.0
 40
101.0
 40
101.0
 40
101.0
 40
102.0
 40
102.0
 40
102.0
 40
103.0
 40
103.0
 40
103.0
 40
104.0
 40
104.0
 40
104.0
 40
105.0
 40
105.0
 40
105.0
 40
106.0
 40
106.0
 40
106.0
 40
107.0
 40
107.0
 40
107.0
 40
108.0
 40
108.0
 40
108.0
 40
109.0
 40
109.0
 40
109.0
 40
110.0
 40
110.0
 40
110.0
 40
110.0
 10
-3815.473704456047
 20
-8437.680397049728
 30
0.0
 10
-3815.47378409615
 20
-8437.557153989674
 30
0.0
 10
-3815.474023016461
 20
-8437.433871109567
 30
0.0
 10
-3815.474461037029
 20
-8437.310548409408
 30
0.0
 10
-3815.47493887765
 20
-8437.197459462543
 30
0.0
 10
-3815.475575998478
 20
-8437.084251055519
 30
0.0
 10
-3815.47657149977
 20
-8436.971042648496
 30
0.0
 10
-3815.477367900805
 20
-8436.863329408611
 30
0.0
 10
-3815.478443042201
 20
-8436.75549670857
 30
0.0
 10
-3815.479757103907
 20
-8436.647863108788
 30
0.0
 10
-3815.481230445821
 20
-8436.528243673441
 30
0.0
 10
-3815.482863067941
 20
-8436.408584418039
 30
0.0
 10
-3815.484814250476
 20
-8436.28896498269
 30
0.0
 10
-3815.48700435332
 20
-8436.156125290173
 30
0.0
 10
-3815.489473196525
 20
-8436.023325417707
 30
0.0
 10
-3815.492141139991
 20
-8435.890406085087
 30
0.0
 10
-3815.495247104024
 20
-8435.744943436176
 30
0.0
 10
-3815.498751268575
 20
-8435.599361327112
 30
0.0
 10
-3815.502573993539
 20
-8435.453699577941
 30
0.0
 10
-3815.50675509897
 20
-8435.295972353102
 30
0.0
 10
-3815.511374224969
 20
-8435.138205308213
 30
0.0
 10
-3815.516511011639
 20
-8434.98039844327
 30
0.0
 10
-3815.521488518103
 20
-8434.82561790226
 30
0.0
 10
-3815.527063325343
 20
-8434.670638260987
 30
0.0
 10
-3815.533076153153
 20
-8434.515778079873
 30
0.0
 10
-3815.539367721323
 20
-8434.352276947537
 30
0.0
 10
-3815.546216770218
 20
-8434.188696175096
 30
0.0
 10
-3815.553623299837
 20
-8434.025234862811
 30
0.0
 10
-3815.560711269041
 20
-8433.868503139265
 30
0.0
 10
-3815.568316898919
 20
-8433.711851055823
 30
0.0
 10
-3815.576400369417
 20
-8433.555278612482
 30
0.0
 10
-3815.583886539139
 20
-8433.411249485436
 30
0.0
 10
-3815.591810729431
 20
-8433.267299998489
 30
0.0
 10
-3815.600133120239
 20
-8433.123390331594
 30
0.0
 10
-3815.607778570168
 20
-8432.991745240631
 30
0.0
 10
-3815.615782400563
 20
-8432.860139969715
 30
0.0
 10
-3815.624184431474
 20
-8432.72849487875
 30
0.0
 10
-3815.631829881402
 20
-8432.608795803298
 30
0.0
 10
-3815.639754071694
 20
-8432.488977267691
 30
0.0
 10
-3815.648076462503
 20
-8432.369357832341
 30
0.0
 10
-3815.656956334035
 20
-8432.240739065306
 30
0.0
 10
-3815.666274226135
 20
-8432.112279578477
 30
0.0
 10
-3815.675950498702
 20
-8431.983859911701
 30
0.0
 10
-3815.684432169716
 20
-8431.871328445557
 30
0.0
 10
-3815.693152761042
 20
-8431.758836799465
 30
0.0
 10
-3815.702231732833
 20
-8431.646384973424
 30
0.0
 10
-3815.710195743175
 20
-8431.547551605072
 30
0.0
 10
-3815.718358853776
 20
-8431.448718236717
 30
0.0
 10
-3815.726840524791
 20
-8431.349964508468
 30
0.0
 10
-3815.734446154669
 20
-8431.261802913974
 30
0.0
 10
-3815.742171244701
 20
-8431.173561679376
 30
0.0
 10
-3815.750015794889
 20
-8431.085400084882
 30
0.0
 10
-3815.758656746112
 20
-8430.989274480044
 30
0.0
 10
-3815.767536617644
 20
-8430.893109055157
 30
0.0
 10
-3815.776615589435
 20
-8430.79702327037
 30
0.0
 10
-3815.783544278433
 20
-8430.724391496044
 30
0.0
 10
-3815.790552607534
 20
-8430.651719901666
 30
0.0
 10
-3815.797720216842
 20
-8430.579127947391
 30
0.0
 10
-3815.806281527961
 20
-8430.492280414602
 30
0.0
 10
-3815.815002119286
 20
-8430.405592162022
 30
0.0
 10
-3815.823881990819
 20
-8430.318824269338
 30
0.0
 10
-3815.83459358473
 20
-8430.215331954933
 30
0.0
 10
-3815.845583919003
 20
-8430.111919280632
 30
0.0
 10
-3815.856852993638
 20
-8430.008506606332
 30
0.0
 10
-3815.869794510444
 20
-8429.888887170982
 30
0.0
 10
-3815.88317404782
 20
-8429.769427015843
 30
0.0
 10
-3815.896951785713
 20
-8429.649847400545
 30
0.0
 10
-3815.912362145727
 20
-8429.516370587199
 30
0.0
 10
-3815.928369806516
 20
-8429.382774313701
 30
0.0
 10
-3815.944775667822
 20
-8429.249337320406
 30
0.0
 10
-3815.965800655126
 20
-8429.077911997779
 30
0.0
 10
-3815.987741503621
 20
-8428.906685775409
 30
0.0
 10
-3816.010478753149
 20
-8428.735499373091
 30
0.0
 10
-3816.033056722471
 20
-8428.566781813982
 30
0.0
 10
-3816.056311632672
 20
-8428.39810407492
 30
0.0
 10
-3816.080522224114
 20
-8428.229625436118
 30
0.0
 10
-3816.104414255143
 20
-8428.063615640523
 30
0.0
 10
-3816.129142507257
 20
-8427.897725305085
 30
0.0
 10
-3816.154667160406
 20
-8427.731994249851
 30
0.0
 10
-3816.179952893243
 20
-8427.56865239772
 30
0.0
 10
-3816.206035027116
 20
-8427.4055494659
 30
0.0
 10
-3816.233033022179
 20
-8427.242526174184
 30
0.0
 10
-3816.259314256309
 20
-8427.083843268105
 30
0.0
 10
-3816.286471531578
 20
-8426.925399282337
 30
0.0
 10
-3816.314425207881
 20
-8426.766915476513
 30
0.0
 10
-3816.333737932963
 20
-8426.658047455131
 30
0.0
 10
-3816.353409038509
 20
-8426.549259073848
 30
0.0
 10
-3816.373557984677
 20
-8426.440470692567
 30
0.0
 10
-3816.390680606914
 20
-8426.347928892381
 30
0.0
 10
-3816.40804214946
 20
-8426.25542691225
 30
0.0
 10
-3816.425841712577
 20
-8426.163124032376
 30
0.0
 10
-3816.440495491607
 20
-8426.086311152621
 30
0.0
 10
-3816.455507651104
 20
-8426.009657553073
 30
0.0
 10
-3816.470679090805
 20
-8425.933003953524
 30
0.0
 10
-3816.483978988079
 20
-8425.866106266644
 30
0.0
 10
-3816.497358525455
 20
-8425.799168759715
 30
0.0
 10
-3816.510976983141
 20
-8425.732271072833
 30
0.0
 10
-3816.52630770305
 20
-8425.657090815198
 30
0.0
 10
-3816.541797703168
 20
-8425.581910557562
 30
0.0
 10
-3816.557526623594
 20
-8425.50680994003
 30
0.0
 10
-3816.574569605728
 20
-8425.425577034534
 30
0.0
 10
-3816.591851508171
 20
-8425.344344129038
 30
0.0
 10
-3816.60949179108
 20
-8425.263190863644
 30
0.0
 10
-3816.628087755231
 20
-8425.177060091789
 30
0.0
 10
-3816.647002279795
 20
-8425.091048780087
 30
0.0
 10
-3816.666235364774
 20
-8425.004997648331
 30
0.0
 10
-3816.688335493475
 20
-8424.906323560186
 30
0.0
 10
-3816.710833822693
 20
-8424.807729112144
 30
0.0
 10
-3816.733849812583
 20
-8424.7091346641
 30
0.0
 10
-3816.760290326921
 20
-8424.595448416456
 30
0.0
 10
-3816.787328142034
 20
-8424.48192144902
 30
0.0
 10
-3816.814923437873
 20
-8424.368593581842
 30
0.0
 10
-3816.84598307821
 20
-8424.240890675996
 30
0.0
 10
-3816.877799299528
 20
-8424.113307230305
 30
0.0
 10
-3816.910332281779
 20
-8423.986042345026
 30
0.0
 10
-3816.94565266765
 20
-8423.848105685891
 30
0.0
 10
-3816.981849094658
 20
-8423.710288486908
 30
0.0
 10
-3817.018961382854
 20
-8423.572789848341
 30
0.0
 10
-3817.058104493689
 20
-8423.42780504005
 30
0.0
 10
-3817.098203285765
 20
-8423.282979511967
 30
0.0
 10
-3817.139576319496
 20
-8423.138552184402
 30
0.0
 10
-3817.176768247797
 20
-8423.008221155141
 30
0.0
 10
-3817.214915857338
 20
-8422.878168866244
 30
0.0
 10
-3817.253899687966
 20
-8422.748395317709
 30
0.0
 10
-3817.287985652234
 20
-8422.634788710169
 30
0.0
 10
-3817.322907837586
 20
-8422.521460842991
 30
0.0
 10
-3817.358387503663
 20
-8422.408411716176
 30
0.0
 10
-3817.386819020587
 20
-8422.317900738631
 30
0.0
 10
-3817.415768198183
 20
-8422.22750922124
 30
0.0
 10
-3817.445235036451
 20
-8422.137316804109
 30
0.0
 10
-3817.470600409393
 20
-8422.059468603007
 30
0.0
 10
-3817.496363982851
 20
-8421.981819502166
 30
0.0
 10
-3817.522366476621
 20
-8421.904250041427
 30
0.0
 10
-3817.545621386822
 20
-8421.835440992065
 30
0.0
 10
-3817.568916117074
 20
-8421.766671762757
 30
0.0
 10
-3817.592648867896
 20
-8421.698101633705
 30
0.0
 10
-3817.615903778096
 20
-8421.631044666616
 30
0.0
 10
-3817.639317968504
 20
-8421.56394787948
 30
0.0
 10
-3817.663209999532
 20
-8421.497050192602
 30
0.0
 10
-3817.681168842855
 20
-8421.446438906873
 30
0.0
 10
-3817.699326786438
 20
-8421.395787801094
 30
0.0
 10
-3817.717683830277
 20
-8421.345216335415
 30
0.0
 10
-3817.735125012928
 20
-8421.296874792636
 30
0.0
 10
-3817.752924576043
 20
-8421.248493429805
 30
0.0
 10
-3817.770843599316
 20
-8421.200231527128
 30
0.0
 10
-3817.792067686878
 20
-8421.142811012554
 30
0.0
 10
-3817.813490874701
 20
-8421.085390497985
 30
0.0
 10
-3817.835272442988
 20
-8421.028129263619
 30
0.0
 10
-3817.86155367712
 20
-8420.95892201374
 30
0.0
 10
-3817.888113651612
 20
-8420.889595303707
 30
0.0
 10
-3817.915032006571
 20
-8420.820587154087
 30
0.0
 10
-3817.953060155957
 20
-8420.723466047958
 30
0.0
 10
-3817.991526325914
 20
-8420.626583862135
 30
0.0
 10
-3818.030828716955
 20
-8420.530099876835
 30
0.0
 10
-3818.073993653012
 20
-8420.423939618967
 30
0.0
 10
-3818.118034630208
 20
-8420.31809792151
 30
0.0
 10
-3818.162872008438
 20
-8420.212614604519
 30
0.0
 10
-3818.207231546047
 20
-8420.108485169286
 30
0.0
 10
-3818.252427304742
 20
-8420.004753934573
 30
0.0
 10
-3818.298499104575
 20
-8419.901341260272
 30
0.0
 10
-3818.343854143478
 20
-8419.799601028143
 30
0.0
 10
-3818.390085223517
 20
-8419.698139536377
 30
0.0
 10
-3818.43731180485
 20
-8419.597076245127
 30
0.0
 10
-3818.483781805201
 20
-8419.497685396049
 30
0.0
 10
-3818.531088026635
 20
-8419.398573287333
 30
0.0
 10
-3818.579270289209
 20
-8419.299978839289
 30
0.0
 10
-3818.626576510645
 20
-8419.20309665347
 30
0.0
 10
-3818.674758773219
 20
-8419.106652488219
 30
0.0
 10
-3818.723856896983
 20
-8419.010646343537
 30
0.0
 10
-3818.755593478199
 20
-8418.948765983174
 30
0.0
 10
-3818.787648619828
 20
-8418.887084723069
 30
0.0
 10
-3818.820181602079
 20
-8418.825602563224
 30
0.0
 10
-3818.847975998174
 20
-8418.772681714496
 30
0.0
 10
-3818.876288054943
 20
-8418.719920145974
 30
0.0
 10
-3818.904759391918
 20
-8418.667317857659
 30
0.0
 10
-3818.928810703154
 20
-8418.622878679947
 30
0.0
 10
-3818.953180574803
 20
-8418.578598782442
 30
0.0
 10
-3818.977669906606
 20
-8418.534318884937
 30
0.0
 10
-3818.997898492876
 20
-8418.497764077462
 30
0.0
 10
-3819.018445639562
 20
-8418.461249090041
 30
0.0
 10
-3819.038913146142
 20
-8418.424694282569
 30
0.0
 10
-3819.060336333964
 20
-8418.386944873544
 30
0.0
 10
-3819.081878981942
 20
-8418.349195464518
 30
0.0
 10
-3819.103501270023
 20
-8418.311525695598
 30
0.0
 10
-3819.129424123688
 20
-8418.266489217108
 30
0.0
 10
-3819.155585897664
 20
-8418.22165183888
 30
0.0
 10
-3819.182026412002
 20
-8418.1768542807
 30
0.0
 10
-3819.213484252856
 20
-8418.123614871559
 30
0.0
 10
-3819.245300474175
 20
-8418.070455102522
 30
0.0
 10
-3819.277435255909
 20
-8418.01749443374
 30
0.0
 10
-3819.314627184209
 20
-8417.956450294466
 30
0.0
 10
-3819.352217313027
 20
-8417.895684895549
 30
0.0
 10
-3819.390205642362
 20
-8417.835238057049
 30
0.0
 10
-3819.428313431853
 20
-8417.77467175839
 30
0.0
 10
-3819.46681942186
 20
-8417.714384200097
 30
0.0
 10
-3819.50588289259
 20
-8417.654455022269
 30
0.0
 10
-3819.544508342753
 20
-8417.595083325164
 30
0.0
 10
-3819.583651453588
 20
-8417.53603018847
 30
0.0
 10
-3819.623312225095
 20
-8417.477335432243
 30
0.0
 10
-3819.660384693241
 20
-8417.422264300723
 30
0.0
 10
-3819.698094282214
 20
-8417.36755154967
 30
0.0
 10
-3819.736082611548
 20
-8417.313077718926
 30
0.0
 10
-3819.766823691472
 20
-8417.269036741728
 30
0.0
 10
-3819.797883331808
 20
-8417.225234684844
 30
0.0
 10
-3819.829142072404
 20
-8417.181591908166
 30
0.0
 10
-3819.855702046897
 20
-8417.144678720225
 30
0.0
 10
-3819.882301841442
 20
-8417.107964632547
 30
0.0
 10
-3819.909299836503
 20
-8417.071449645126
 30
0.0
 10
-3819.9382490141
 20
-8417.032027793927
 30
0.0
 10
-3819.967437112005
 20
-8416.992924503146
 30
0.0
 10
-3819.996983590378
 20
-8416.953900852467
 30
0.0
 10
-3820.033498577799
 20
-8416.905559309686
 30
0.0
 10
-3820.07045158579
 20
-8416.857536327318
 30
0.0
 10
-3820.107802794297
 20
-8416.80975226526
 30
0.0
 10
-3820.153237473303
 20
-8416.751694629864
 30
0.0
 10
-3820.199149992929
 20
-8416.694114835086
 30
0.0
 10
-3820.245699633382
 20
-8416.637012880926
 30
0.0
 10
-3820.306465032298
 20
-8416.562469744119
 30
0.0
 10
-3820.368265752557
 20
-8416.488842468501
 30
0.0
 10
-3820.431141614214
 20
-8416.416091234019
 30
0.0
 10
-3820.482270560614
 20
-8416.35687881712
 30
0.0
 10
-3820.534076447894
 20
-8416.298263700998
 30
0.0
 10
-3820.586678736208
 20
-8416.240405165856
 30
0.0
 10
-3820.634622078471
 20
-8416.187524137182
 30
0.0
 10
-3820.683122901459
 20
-8416.135160769178
 30
0.0
 10
-3820.732380305429
 20
-8416.083354881896
 30
0.0
 10
-3820.793225344447
 20
-8416.019324238742
 30
0.0
 10
-3820.854986244656
 20
-8415.956209456776
 30
0.0
 10
-3820.917663006053
 20
-8415.894169816205
 30
0.0
 10
-3820.983007710916
 20
-8415.829422412118
 30
0.0
 10
-3821.049387737123
 20
-8415.765710329377
 30
0.0
 10
-3821.11692254483
 20
-8415.703232668239
 30
0.0
 10
-3821.183143290829
 20
-8415.641830148496
 30
0.0
 10
-3821.250399358174
 20
-8415.581502770148
 30
0.0
 10
-3821.31885002707
 20
-8415.522449633455
 30
0.0
 10
-3821.379814526244
 20
-8415.469767705038
 30
0.0
 10
-3821.441575426452
 20
-8415.418041457861
 30
0.0
 10
-3821.504212367798
 20
-8415.367430172135
 30
0.0
 10
-3821.553031751199
 20
-8415.327968500886
 30
0.0
 10
-3821.602408615325
 20
-8415.289143950465
 30
0.0
 10
-3821.652223500019
 20
-8415.250956520871
 30
0.0
 10
-3821.711754477331
 20
-8415.205442201763
 30
0.0
 10
-3821.77192257547
 20
-8415.160923383947
 30
0.0
 10
-3821.832926894697
 20
-8415.117479707525
 30
0.0
 10
-3821.895643476145
 20
-8415.072682149348
 30
0.0
 10
-3821.95919627868
 20
-8415.029079192722
 30
0.0
 10
-3822.023505662199
 20
-8414.986670837647
 30
0.0
 10
-3822.077183091908
 20
-8414.951270811673
 30
0.0
 10
-3822.131418002343
 20
-8414.916707006785
 30
0.0
 10
-3822.186210393501
 20
-8414.883019243037
 30
0.0
 10
-3822.246577591899
 20
-8414.845906954836
 30
0.0
 10
-3822.307581911124
 20
-8414.809829987985
 30
0.0
 10
-3822.369302991281
 20
-8414.775027262788
 30
0.0
 10
-3822.439187182039
 20
-8414.73556559154
 30
0.0
 10
-3822.509987233986
 20
-8414.697537442153
 30
0.0
 10
-3822.581663327072
 20
-8414.661181734937
 30
0.0
 10
-3822.650392736329
 20
-8414.626259549583
 30
0.0
 10
-3822.71987872657
 20
-8414.592850526195
 30
0.0
 10
-3822.790001837639
 20
-8414.561113944982
 30
0.0
 10
-3822.860881529689
 20
-8414.529058803351
 30
0.0
 10
-3822.93247798267
 20
-8414.498755743997
 30
0.0
 10
-3823.004831016634
 20
-8414.470085306763
 30
0.0
 10
-3823.06655209679
 20
-8414.445635795011
 30
0.0
 10
-3823.12902975793
 20
-8414.422460524914
 30
0.0
 10
-3823.191905619586
 20
-8414.400718776676
 30
0.0
 10
-3823.251038396381
 20
-8414.380330910201
 30
0.0
 10
-3823.31048973359
 20
-8414.361137645274
 30
0.0
 10
-3823.370339271316
 20
-8414.343218622001
 30
0.0
 10
-3823.424414901543
 20
-8414.327051681008
 30
0.0
 10
-3823.478809092184
 20
-8414.311999701459
 30
0.0
 10
-3823.533521843239
 20
-8414.298022863308
 30
0.0
 10
-3823.594127961948
 20
-8414.282612503296
 30
0.0
 10
-3823.65505264107
 20
-8414.268516204987
 30
0.0
 10
-3823.716295880606
 20
-8414.25585342854
 30
0.0
 10
-3823.784866009657
 20
-8414.241757130236
 30
0.0
 10
-3823.853874159277
 20
-8414.22953237436
 30
0.0
 10
-3823.923121229207
 20
-8414.219179160914
 30
0.0
 10
-3823.984125548433
 20
-8414.210140009174
 30
0.0
 10
-3824.045289147866
 20
-8414.202614019401
 30
0.0
 10
-3824.106612027505
 20
-8414.196680831695
 30
0.0
 10
-3824.159174495767
 20
-8414.191544045024
 30
0.0
 10
-3824.211816604133
 20
-8414.187601859905
 30
0.0
 10
-3824.264458712498
 20
-8414.184933916441
 30
0.0
 10
-3824.325064831207
 20
-8414.181827952408
 30
0.0
 10
-3824.385670949915
 20
-8414.180274970389
 30
0.0
 10
-3824.446277068624
 20
-8414.180434250596
 30
0.0
 10
-3824.514289716951
 20
-8414.180673170909
 30
0.0
 10
-3824.582382005381
 20
-8414.183062374011
 30
0.0
 10
-3824.650235373503
 20
-8414.187601859905
 30
0.0
 10
-3824.715858818727
 20
-8414.192101525747
 30
0.0
 10
-3824.78124334364
 20
-8414.198552374125
 30
0.0
 10
-3824.846468588349
 20
-8414.207113685245
 30
0.0
 10
-3824.949761802493
 20
-8414.220891423138
 30
0.0
 10
-3825.052417895811
 20
-8414.23996522791
 30
0.0
 10
-3825.153720107372
 20
-8414.264932400334
 30
0.0
 10
-3825.254385198105
 20
-8414.289620832397
 30
0.0
 10
-3825.353696407079
 20
-8414.319884071698
 30
0.0
 10
-3825.450857333261
 20
-8414.356120318759
 30
0.0
 10
-3825.547938619339
 20
-8414.392237105662
 30
0.0
 10
-3825.642949262729
 20
-8414.434247260221
 30
0.0
 10
-3825.734933582187
 20
-8414.482031322277
 30
0.0
 10
-3825.803901911756
 20
-8414.517909188871
 30
0.0
 10
-3825.871118159048
 20
-8414.557052299706
 30
0.0
 10
-3825.936343403756
 20
-8414.599381014678
 30
0.0
 10
-3826.001409368256
 20
-8414.641789369753
 30
0.0
 10
-3826.064484330171
 20
-8414.687263868811
 30
0.0
 10
-3826.125090448879
 20
-8414.735963792056
 30
0.0
 10
-3826.185696567588
 20
-8414.784743355404
 30
0.0
 10
-3826.243674562883
 20
-8414.83642978253
 30
0.0
 10
-3826.298865154559
 20
-8414.891222173688
 30
0.0
 10
-3826.35397610613
 20
-8414.946054384898
 30
0.0
 10
-3826.406299654082
 20
-8415.003793459884
 30
0.0
 10
-3826.455198677587
 20
-8415.064120838229
 30
0.0
 10
-3826.503221659954
 20
-8415.123333255129
 30
0.0
 10
-3826.548138678287
 20
-8415.185173795441
 30
0.0
 10
-3826.58979045238
 20
-8415.249005338337
 30
0.0
 10
-3826.626982380681
 20
-8415.306425852909
 30
0.0
 10
-3826.661705465774
 20
-8415.365558629703
 30
0.0
 10
-3826.693242946733
 20
-8415.426284208569
 30
0.0
 10
-3826.713232612693
 20
-8415.464471638161
 30
0.0
 10
-3826.731948036998
 20
-8415.503375828684
 30
0.0
 10
-3826.749389219649
 20
-8415.542678219727
 30
0.0
 10
-3826.773520170988
 20
-8415.597152050471
 30
0.0
 10
-3826.79518227912
 20
-8415.652701022613
 30
0.0
 10
-3826.81469410446
 20
-8415.708887115581
 30
0.0
 10
-3826.84001965735
 20
-8415.782036550579
 30
0.0
 10
-3826.861761405586
 20
-8415.856460227233
 30
0.0
 10
-3826.878565467409
 20
-8415.931998865334
 30
0.0
 10
-3826.898634773473
 20
-8416.022509842878
 30
0.0
 10
-3826.911934670745
 20
-8416.11457380244
 30
0.0
 10
-3826.924995647707
 20
-8416.206677582055
 30
0.0
  0
SPLINE
  5
2FC01
330
A
100
AcDbEntity
  8
shade
100
AcDbSpline
210
0.0
220
0.0
230
1.0
 70
     8
 71
     3
 72
   329
 73
   325
 74
     0
 42
0.00000001
 43
0.0000000001
 40
0.0
 40
0.0
 40
0.0
 40
0.0
 40
1.0
 40
1.0
 40
1.0
 40
2.0
 40
2.0
 40
2.0
 40
3.0
 40
3.0
 40
3.0
 40
4.0
 40
4.0
 40
4.0
 40
5.0
 40
5.0
 40
5.0
 40
6.0
 40
6.0
 40
6.0
 40
7.0
 40
7.0
 40
7.0
 40
8.0
 40
8.0
 40
8.0
 40
9.0
 40
9.0
 40
9.0
 40
10.0
 40
10.0
 40
10.0
 40
11.0
 40
11.0
 40
11.0
 40
12.0
 40
12.0
 40
12.0
 40
13.0
 40
13.0
 40
13.0
 40
14.0
 40
14.0
 40
14.0
 40
15.0
 40
15.0
 40
15.0
 40
16.0
 40
16.0
 40
16.0
 40
17.0
 40
17.0
 40
17.0
 40
18.0
 40
18.0
 40
18.0
 40
19.0
 40
19.0
 40
19.0
 40
20.0
 40
20.0
 40
20.0
 40
21.0
 40
21.0
 40
21.0
 40
22.0
 40
22.0
 40
22.0
 40
23.0
 40
23.0
 40
23.0
 40
24.0
 40
24.0
 40
24.0
 40
25.0
 40
25.0
 40
25.0
 40
26.0
 40
26.0
 40
26.0
 40
27.0
 40
27.0
 40
27.0
 40
28.0
 40
28.0
 40
28.0
 40
29.0
 40
29.0
 40
29.0
 40
30.0
 40
30.0
 40
30.0
 40
31.0
 40
31.0
 40
31.0
 40
32.0
 40
32.0
 40
32.0
 40
33.0
 40
33.0
 40
33.0
 40
34.0
 40
34.0
 40
34.0
 40
35.0
 40
35.0
 40
35.0
 40
36.0
 40
36.0
 40
36.0
 40
37.0
 40
37.0
 40
37.0
 40
38.0
 40
38.0
 40
38.0
 40
39.0
 40
39.0
 40
39.0
 40
40.0
 40
40.0
 40
40.0
 40
41.0
 40
41.0
 40
41.0
 40
42.0
 40
42.0
 40
42.0
 40
43.0
 40
43.0
 40
43.0
 40
44.0
 40
44.0
 40
44.0
 40
45.0
 40
45.0
 40
45.0
 40
46.0
 40
46.0
 40
46.0
 40
47.0
 40
47.0
 40
47.0
 40
48.0
 40
48.0
 40
48.0
 40
49.0
 40
49.0
 40
49.0
 40
50.0
 40
50.0
 40
50.0
 40
51.0
 40
51.0
 40
51.0
 40
52.0
 40
52.0
 40
52.0
 40
53.0
 40
53.0
 40
53.0
 40
54.0
 40
54.0
 40
54.0
 40
55.0
 40
55.0
 40
55.0
 40
56.0
 40
56.0
 40
56.0
 40
57.0
 40
57.0
 40
57.0
 40
58.0
 40
58.0
 40
58.0
 40
59.0
 40
59.0
 40
59.0
 40
60.0
 40
60.0
 40
60.0
 40
61.0
 40
61.0
 40
61.0
 40
62.0
 40
62.0
 40
62.0
 40
63.0
 40
63.0
 40
63.0
 40
64.0
 40
64.0
 40
64.0
 40
65.0
 40
65.0
 40
65.0
 40
66.0
 40
66.0
 40
66.0
 40
67.0
 40
67.0
 40
67.0
 40
68.0
 40
68.0
 40
68.0
 40
69.0
 40
69.0
 40
69.0
 40
70.0
 40
70.0
 40
70.0
 40
71.0
 40
71.0
 40
71.0
 40
72.0
 40
72.0
 40
72.0
 40
73.0
 40
73.0
 40
73.0
 40
74.0
 40
74.0
 40
74.0
 40
75.0
 40
75.0
 40
75.0
 40
76.0
 40
76.0
 40
76.0
 40
77.0
 40
77.0
 40
77.0
 40
78.0
 40
78.0
 40
78.0
 40
79.0
 40
79.0
 40
79.0
 40
80.0
 40
80.0
 40
80.0
 40
81.0
 40
81.0
 40
81.0
 40
82.0
 40
82.0
 40
82.0
 40
83.0
 40
83.0
 40
83.0
 40
84.0
 40
84.0
 40
84.0
 40
85.0
 40
85.0
 40
85.0
 40
86.0
 40
86.0
 40
86.0
 40
87.0
 40
87.0
 40
87.0
 40
88.0
 40
88.0
 40
88.0
 40
89.0
 40
89.0
 40
89.0
 40
90.0
 40
90.0
 40
90.0
 40
91.0
 40
91.0
 40
91.0
 40
92.0
 40
92.0
 40
92.0
 40
93.0
 40
93.0
 40
93.0
 40
94.0
 40
94.0
 40
94.0
 40
95.0
 40
95.0
 40
95.0
 40
96.0
 40
96.0
 40
96.0
 40
97.0
 40
97.0
 40
97.0
 40
98.0
 40
98.0
 40
98.0
 40
99.0
 40
99.0
 40
99.0
 40
100.0
 40
100.0
 40
100.0
 40
101.0
 40
101.0
 40
101.0
 40
102.0
 40
102.0
 40
102.0
 40
103.0
 40
103.0
 40
103.0
 40
104.0
 40
104.0
 40
104.0
 40
105.0
 40
105.0
 40
105.0
 40
106.0
 40
106.0
 40
106.0
 40
107.0
 40
107.0
 40
107.0
 40
108.0
 40
108.0
 40
108.0
 40
108.0
 10
-3827.422348093613
 20
-8416.154314214052
 30
0.0
 10
-3827.414304443167
 20
-8416.092075473223
 30
0.0
 10
-3827.406340432824
 20
-8416.029796912342
 30
0.0
 10
-3827.395748299068
 20
-8415.968036012134
 30
0.0
 10
-3827.386828607484
 20
-8415.917145986044
 30
0.0
 10
-3827.376316113831
 20
-8415.866773620626
 30
0.0
 10
-3827.364529378525
 20
-8415.816520715363
 30
0.0
 10
-3827.355928247354
 20
-8415.779647347475
 30
0.0
 10
-3827.346689995357
 20
-8415.742893439745
 30
0.0
 10
-3827.336655342325
 20
-8415.706258992168
 30
0.0
 10
-3827.328770972086
 20
-8415.677309814572
 30
0.0
 10
-3827.320408761225
 20
-8415.648360636977
 30
0.0
 10
-3827.311409429538
 20
-8415.619570739584
 30
0.0
 10
-3827.302091537438
 20
-8415.589466780492
 30
0.0
 10
-3827.292216164612
 20
-8415.559561921655
 30
0.0
 10
-3827.281862951167
 20
-8415.529776522971
 30
0.0
 10
-3827.254307475381
 20
-8415.450853180475
 30
0.0
 10
-3827.222849634527
 20
-8415.373204079633
 30
0.0
 10
-3827.187409788501
 20
-8415.297466341273
 30
0.0
 10
-3827.151810662268
 20
-8415.221131302137
 30
0.0
 10
-3827.112229530865
 20
-8415.146588165329
 30
0.0
 10
-3827.069462795325
 20
-8415.074075851158
 30
0.0
 10
-3827.012281201064
 20
-8414.97767150596
 30
0.0
 10
-3826.949206239149
 20
-8414.884970425569
 30
0.0
 10
-3826.880715750202
 20
-8414.796410630559
 30
0.0
 10
-3826.813340222702
 20
-8414.709363997513
 30
0.0
 10
-3826.740708448375
 20
-8414.626538289947
 30
0.0
 10
-3826.663138987637
 20
-8414.548490988588
 30
0.0
 10
-3826.585808447209
 20
-8414.470602967433
 30
0.0
 10
-3826.503699500574
 20
-8414.397612812644
 30
0.0
 10
-3826.417608548769
 20
-8414.329759444523
 30
0.0
 10
-3826.363851478955
 20
-8414.287430729551
 30
0.0
 10
-3826.30866088728
 20
-8414.247053197113
 30
0.0
 10
-3826.251877493536
 20
-8414.208746307366
 30
0.0
 10
-3826.192704896689
 20
-8414.168766975445
 30
0.0
 10
-3826.131939497775
 20
-8414.130858286213
 30
0.0
 10
-3826.069899857205
 20
-8414.095378620135
 30
0.0
 10
-3826.012001502012
 20
-8414.06224833711
 30
0.0
 10
-3825.952988185373
 20
-8414.03110905667
 30
0.0
 10
-3825.893098827594
 20
-8414.002000598866
 30
0.0
 10
-3825.840934559849
 20
-8413.976635225925
 30
0.0
 10
-3825.788133171278
 20
-8413.952902475102
 30
0.0
 10
-3825.734615021774
 20
-8413.930563426093
 30
0.0
 10
-3825.674168183272
 20
-8413.905436973461
 30
0.0
 10
-3825.613163864046
 20
-8413.882301523415
 30
0.0
 10
-3825.551363143786
 20
-8413.860997795747
 30
0.0
 10
-3825.468776356532
 20
-8413.832606098877
 30
0.0
 10
-3825.384994967726
 20
-8413.807678746504
 30
0.0
 10
-3825.300496817989
 20
-8413.786136098527
 30
0.0
 10
-3825.228900365008
 20
-8413.767938334894
 30
0.0
 10
-3825.156746431302
 20
-8413.752129774364
 30
0.0
 10
-3825.084035016873
 20
-8413.738750236985
 30
0.0
 10
-3825.004076353032
 20
-8413.7239769978
 30
0.0
 10
-3824.923560208466
 20
-8413.712070802338
 30
0.0
 10
-3824.842725503487
 20
-8413.703031650598
 30
0.0
 10
-3824.779411621262
 20
-8413.69586404129
 30
0.0
 10
-3824.715858818727
 20
-8413.690488334308
 30
0.0
 10
-3824.65230601619
 20
-8413.686824889552
 30
0.0
 10
-3824.583656247036
 20
-8413.682723424225
 30
0.0
 10
-3824.514926837778
 20
-8413.680692601589
 30
0.0
 10
-3824.446197428521
 20
-8413.680533321381
 30
0.0
 10
-3824.361699278783
 20
-8413.680294401071
 30
0.0
 10
-3824.277201129047
 20
-8413.682803064329
 30
0.0
 10
-3824.192782619414
 20
-8413.688178771311
 30
0.0
 10
-3824.098090536438
 20
-8413.694151779067
 30
0.0
 10
-3824.003796653979
 20
-8413.70350949122
 30
0.0
 10
-3823.909900972039
 20
-8413.716172267665
 30
0.0
 10
-3823.81421338777
 20
-8413.728874864162
 30
0.0
 10
-3823.719043464173
 20
-8413.745121445261
 30
0.0
 10
-3823.624550481457
 20
-8413.764354530238
 30
0.0
 10
-3823.528305416465
 20
-8413.78394599568
 30
0.0
 10
-3823.432657652249
 20
-8413.806762885313
 30
0.0
 10
-3823.337806289065
 20
-8413.832526458774
 30
0.0
 10
-3823.241959424591
 20
-8413.858728052801
 30
0.0
 10
-3823.147068241357
 20
-8413.887836510603
 30
0.0
 10
-3823.053013279209
 20
-8413.91981201213
 30
0.0
 10
-3822.968873509937
 20
-8413.94844262931
 30
0.0
 10
-3822.8855301417
 20
-8413.979263349338
 30
0.0
 10
-3822.803062814601
 20
-8414.012274172208
 30
0.0
 10
-3822.73449268555
 20
-8414.039670367786
 30
0.0
 10
-3822.666639317429
 20
-8414.068460265179
 30
0.0
 10
-3822.599343430033
 20
-8414.098643864376
 30
0.0
 10
-3822.497165177334
 20
-8414.144476743897
 30
0.0
 10
-3822.396380626447
 20
-8414.193495227559
 30
0.0
 10
-3822.297109237524
 20
-8414.245261294787
 30
0.0
 10
-3822.183542450036
 20
-8414.304553351788
 30
0.0
 10
-3822.071966665134
 20
-8414.367508853548
 30
0.0
 10
-3821.962342062766
 20
-8414.433809239652
 30
0.0
 10
-3821.853155480967
 20
-8414.499950345549
 30
0.0
 10
-3821.745920081701
 20
-8414.569356695684
 30
0.0
 10
-3821.640635864969
 20
-8414.64170972965
 30
0.0
 10
-3821.522211031173
 20
-8414.723101915354
 30
0.0
 10
-3821.406493960893
 20
-8414.808157545813
 30
0.0
 10
-3821.293166093715
 20
-8414.896558060618
 30
0.0
 10
-3821.199350051877
 20
-8414.969707495616
 30
0.0
 10
-3821.107286092314
 20
-8415.045206313665
 30
0.0
 10
-3821.016934394976
 20
-8415.122616494199
 30
0.0
 10
-3820.952585191406
 20
-8415.177647805668
 30
0.0
 10
-3820.889231489129
 20
-8415.23375425853
 30
0.0
 10
-3820.82675382799
 20
-8415.290776572586
 30
0.0
 10
-3820.762563904628
 20
-8415.349232408502
 30
0.0
 10
-3820.699449122662
 20
-8415.408763385814
 30
0.0
 10
-3820.637051101626
 20
-8415.469210224316
 30
0.0
 10
-3820.575091101159
 20
-8415.529139402144
 30
0.0
 10
-3820.51400714183
 20
-8415.590143721368
 30
0.0
 10
-3820.453719583535
 20
-8415.651864801526
 30
0.0
 10
-3820.399166112688
 20
-8415.707811974185
 30
0.0
 10
-3820.345289582718
 20
-8415.764555547879
 30
0.0
 10
-3820.292089993629
 20
-8415.821816782241
 30
0.0
 10
-3820.242354749039
 20
-8415.875414571848
 30
0.0
 10
-3820.193256625275
 20
-8415.929490202076
 30
0.0
 10
-3820.144755802288
 20
-8415.984123313027
 30
0.0
 10
-3820.099639683696
 20
-8416.034933699014
 30
0.0
 10
-3820.05512086588
 20
-8416.086142285518
 30
0.0
 10
-3820.011000248581
 20
-8416.137828712642
 30
0.0
 10
-3819.95963238187
 20
-8416.198036630834
 30
0.0
 10
-3819.908901635987
 20
-8416.258762209698
 30
0.0
 10
-3819.858887651034
 20
-8416.32020454949
 30
0.0
 10
-3819.80978952727
 20
-8416.38037264763
 30
0.0
 10
-3819.761288704284
 20
-8416.441138046547
 30
0.0
 10
-3819.713504642226
 20
-8416.502301645978
 30
0.0
 10
-3819.674202251185
 20
-8416.552594371294
 30
0.0
 10
-3819.63529806066
 20
-8416.603165836971
 30
0.0
 10
-3819.596871710757
 20
-8416.653976222958
 30
0.0
 10
-3819.565891710523
 20
-8416.694990876221
 30
0.0
 10
-3819.535150630601
 20
-8416.736244449799
 30
0.0
 10
-3819.504728111091
 20
-8416.77761748353
 30
0.0
 10
-3819.460687133896
 20
-8416.837467021254
 30
0.0
 10
-3819.417283277527
 20
-8416.897635119395
 30
0.0
 10
-3819.374317441728
 20
-8416.958320878206
 30
0.0
 10
-3819.316498726639
 20
-8417.03995198422
 30
0.0
 10
-3819.259675512844
 20
-8417.122339671216
 30
0.0
 10
-3819.203728340186
 20
-8417.205245018884
 30
0.0
 10
-3819.14133031915
 20
-8417.297826639119
 30
0.0
 10
-3819.080087079615
 20
-8417.391125020284
 30
0.0
 10
-3819.020078261682
 20
-8417.485219802484
 30
0.0
 10
-3818.959790703387
 20
-8417.579672965148
 30
0.0
 10
-3818.900578286489
 20
-8417.674842888743
 30
0.0
 10
-3818.842441010987
 20
-8417.770570293065
 30
0.0
 10
-3818.795532990067
 20
-8417.8480601137
 30
0.0
 10
-3818.749222269924
 20
-8417.925948134852
 30
0.0
 10
-3818.703628310712
 20
-8418.004234356521
 30
0.0
 10
-3818.670219287323
 20
-8418.0618141513
 30
0.0
 10
-3818.637089004298
 20
-8418.119553226285
 30
0.0
 10
-3818.604237461634
 20
-8418.177531221578
 30
0.0
 10
-3818.574053862435
 20
-8418.231089191136
 30
0.0
 10
-3818.544109183547
 20
-8418.284766620846
 30
0.0
 10
-3818.514522885123
 20
-8418.338603330765
 30
0.0
 10
-3818.476534555788
 20
-8418.407651300434
 30
0.0
 10
-3818.439103707176
 20
-8418.477057650573
 30
0.0
 10
-3818.402071059083
 20
-8418.546623280915
 30
0.0
 10
-3818.356397459768
 20
-8418.632674412668
 30
0.0
 10
-3818.311281341176
 20
-8418.71912374494
 30
0.0
 10
-3818.267081083773
 20
-8418.805851817573
 30
0.0
 10
-3818.217425479286
 20
-8418.903092383859
 30
0.0
 10
-3818.168845016195
 20
-8419.000691330609
 30
0.0
 10
-3818.121021134087
 20
-8419.098807938032
 30
0.0
 10
-3818.072440670997
 20
-8419.198318247266
 30
0.0
 10
-3818.024895529249
 20
-8419.298346217168
 30
0.0
 10
-3817.978067148434
 20
-8419.398772387593
 30
0.0
 10
-3817.930601646791
 20
-8419.500632079877
 30
0.0
 10
-3817.884052006338
 20
-8419.602889972678
 30
0.0
 10
-3817.838378407022
 20
-8419.705546065996
 30
0.0
 10
-3817.791988046776
 20
-8419.809675501227
 30
0.0
 10
-3817.746473727666
 20
-8419.914242957027
 30
0.0
 10
-3817.701875269747
 20
-8420.019128973242
 30
0.0
 10
-3817.656679511051
 20
-8420.125209591008
 30
0.0
 10
-3817.612399613546
 20
-8420.231728229342
 30
0.0
 10
-3817.568916117074
 20
-8420.338565428091
 30
0.0
 10
-3817.53303825048
 20
-8420.426687202533
 30
0.0
 10
-3817.497757684662
 20
-8420.51512753739
 30
0.0
 10
-3817.462994779516
 20
-8420.603766972504
 30
0.0
 10
-3817.433328840989
 20
-8420.679504710864
 30
0.0
 10
-3817.403941642825
 20
-8420.755441549484
 30
0.0
 10
-3817.375072105331
 20
-8420.831537668307
 30
0.0
 10
-3817.35133935451
 20
-8420.894015329446
 30
0.0
 10
-3817.327805703947
 20
-8420.956612450741
 30
0.0
 10
-3817.30463043385
 20
-8421.019329032191
 30
0.0
 10
-3817.285277888716
 20
-8421.071373839781
 30
0.0
 10
-3817.266124443842
 20
-8421.123577927579
 30
0.0
 10
-3817.247289559382
 20
-8421.175662555219
 30
0.0
 10
-3817.227459173628
 20
-8421.230335486221
 30
0.0
 10
-3817.207827888133
 20
-8421.284968597175
 30
0.0
 10
-3817.188435522949
 20
-8421.339681348229
 30
0.0
 10
-3817.168366216885
 20
-8421.396265641714
 30
0.0
 10
-3817.148456191027
 20
-8421.452969395353
 30
0.0
 10
-3817.128705445378
 20
-8421.509712969047
 30
0.0
 10
-3817.108835239573
 20
-8421.567452044032
 30
0.0
 10
-3817.089004853818
 20
-8421.625191119016
 30
0.0
 10
-3817.069333748273
 20
-8421.682930194002
 30
0.0
 10
-3817.039269609228
 20
-8421.771808549427
 30
0.0
 10
-3817.00956385065
 20
-8421.860806365007
 30
0.0
 10
-3816.980455392847
 20
-8421.950003280846
 30
0.0
 10
-3816.94565266765
 20
-8422.056044078559
 30
0.0
 10
-3816.911646343486
 20
-8422.162363616637
 30
0.0
 10
-3816.878197500045
 20
-8422.268802614869
 30
0.0
 10
-3816.839213669419
 20
-8422.393240276473
 30
0.0
 10
-3816.800946599721
 20
-8422.517837218284
 30
0.0
 10
-3816.763595391213
 20
-8422.64271290046
 30
0.0
 10
-3816.720549915311
 20
-8422.786582747304
 30
0.0
 10
-3816.678539760753
 20
-8422.930731334508
 30
0.0
 10
-3816.637764027798
 20
-8423.07515866207
 30
0.0
 10
-3816.593245209982
 20
-8423.232487686393
 30
0.0
 10
-3816.549960813769
 20
-8423.390214911233
 30
0.0
 10
-3816.50795065921
 20
-8423.548260696485
 30
0.0
 10
-3816.469046468686
 20
-8423.694081725862
 30
0.0
 10
-3816.431217419559
 20
-8423.840141675547
 30
0.0
 10
-3816.394344051671
 20
-8423.986599825751
 30
0.0
 10
-3816.361412868904
 20
-8424.117567975839
 30
0.0
 10
-3816.329198447067
 20
-8424.248854686338
 30
0.0
 10
-3816.297700786162
 20
-8424.380260856993
 30
0.0
 10
-3816.270224950479
 20
-8424.495221346294
 30
0.0
 10
-3816.243226955417
 20
-8424.610380935849
 30
0.0
 10
-3816.21682626113
 20
-8424.725620165508
 30
0.0
 10
-3816.19659767486
 20
-8424.81441888083
 30
0.0
 10
-3816.1766080089
 20
-8424.903217596151
 30
0.0
 10
-3816.15685726325
 20
-8424.992135771629
 30
0.0
 10
-3816.139097520185
 20
-8425.072851016452
 30
0.0
 10
-3816.121497057327
 20
-8425.153526441226
 30
0.0
 10
-3816.104175334832
 20
-8425.234241686048
 30
0.0
 10
-3816.087809293578
 20
-8425.310815645493
 30
0.0
 10
-3816.071562712478
 20
-8425.387469245045
 30
0.0
 10
-3816.055674511845
 20
-8425.464321944852
 30
0.0
 10
-3816.041060552866
 20
-8425.534365415817
 30
0.0
 10
-3816.026645694146
 20
-8425.604568166987
 30
0.0
 10
-3816.012429935683
 20
-8425.674810738213
 30
0.0
 10
-3815.999488418876
 20
-8425.73896084152
 30
0.0
 10
-3815.986586722122
 20
-8425.803150764885
 30
0.0
 10
-3815.974043405832
 20
-8425.867340688247
 30
0.0
 10
-3815.959110886439
 20
-8425.942759866194
 30
0.0
 10
-3815.944417287357
 20
-8426.018298504294
 30
0.0
 10
-3815.930002428636
 20
-8426.093797322344
 30
0.0
 10
-3815.912800166296
 20
-8426.183591538958
 30
0.0
 10
-3815.895916464369
 20
-8426.273624675884
 30
0.0
 10
-3815.87919204265
 20
-8426.363578172706
 30
0.0
 10
-3815.85645479312
 20
-8426.487219433276
 30
0.0
 10
-3815.834075924057
 20
-8426.611099614158
 30
0.0
 10
-3815.812334175822
 20
-8426.735059435143
 30
0.0
 10
-3815.787765203914
 20
-8426.875226017177
 30
0.0
 10
-3815.763713892679
 20
-8427.015750979673
 30
0.0
 10
-3815.740538622581
 20
-8427.156156482018
 30
0.0
 10
-3815.716726231656
 20
-8427.299389208032
 30
0.0
 10
-3815.693670421715
 20
-8427.442821034308
 30
0.0
 10
-3815.671331372703
 20
-8427.586372320734
 30
0.0
 10
-3815.648633943226
 20
-8427.731675689438
 30
0.0
 10
-3815.626613454628
 20
-8427.877098518296
 30
0.0
 10
-3815.605349547013
 20
-8428.022640807311
 30
0.0
 10
-3815.583727258932
 20
-8428.170094458806
 30
0.0
 10
-3815.562781911731
 20
-8428.317548110303
 30
0.0
 10
-3815.542473685357
 20
-8428.465240682109
 30
0.0
 10
-3815.522006178776
 20
-8428.614565876037
 30
0.0
 10
-3815.502175793023
 20
-8428.764209630378
 30
0.0
 10
-3815.482942708044
 20
-8428.913773744614
 30
0.0
 10
-3815.467691628238
 20
-8429.032596778929
 30
0.0
 10
-3815.452838748949
 20
-8429.151579093449
 30
0.0
 10
-3815.438384070177
 20
-8429.270481767868
 30
0.0
 10
-3815.424208131766
 20
-8429.38691559908
 30
0.0
 10
-3815.410510033977
 20
-8429.503309610238
 30
0.0
 10
-3815.397130496601
 20
-8429.619862901606
 30
0.0
 10
-3815.385065020932
 20
-8429.724709097767
 30
0.0
 10
-3815.37339774578
 20
-8429.829754394189
 30
0.0
 10
-3815.361810110731
 20
-8429.934720050507
 30
0.0
 10
-3815.351695817595
 20
-8430.027341490793
 30
0.0
 10
-3815.341860264823
 20
-8430.120082391233
 30
0.0
 10
-3815.332223812307
 20
-8430.212783471622
 30
0.0
 10
-3815.323981061604
 20
-8430.292742135465
 30
0.0
 10
-3815.315738310899
 20
-8430.372740619358
 30
0.0
 10
-3815.307654840401
 20
-8430.452818743354
 30
0.0
 10
-3815.301084531867
 20
-8430.519756250285
 30
0.0
 10
-3815.294554043387
 20
-8430.586813217372
 30
0.0
 10
-3815.288023554906
 20
-8430.653750724303
 30
0.0
 10
-3815.278387102391
 20
-8430.753977794465
 30
0.0
 10
-3815.268949750134
 20
-8430.854284504734
 30
0.0
 10
-3815.25979113824
 20
-8430.954511574899
 30
0.0
 10
-3815.251229827121
 20
-8431.048606357098
 30
0.0
 10
-3815.242907436314
 20
-8431.14274095935
 30
0.0
 10
-3815.234704505661
 20
-8431.236915381653
 30
0.0
 10
-3815.225944094283
 20
-8431.338217593213
 30
0.0
 10
-3815.217382783165
 20
-8431.439679084979
 30
0.0
 10
-3815.209179852512
 20
-8431.541100756694
 30
0.0
 10
-3815.199623040101
 20
-8431.656897467076
 30
0.0
 10
-3815.190583888361
 20
-8431.772893277722
 30
0.0
 10
-3815.181743836881
 20
-8431.888769628207
 30
0.0
 10
-3815.171549903642
 20
-8432.022087161346
 30
0.0
 10
-3815.161873631076
 20
-8432.155524154639
 30
0.0
 10
-3815.152555738976
 20
-8432.288921327879
 30
0.0
 10
-3815.14431298827
 20
-8432.406549760642
 30
0.0
 10
-3815.136348977927
 20
-8432.524138373354
 30
0.0
 10
-3815.128743348051
 20
-8432.641806626168
 30
0.0
 10
-3815.120420957242
 20
-8432.770982873929
 30
0.0
 10
-3815.1124569469
 20
-8432.900238761792
 30
0.0
 10
-3815.104851317022
 20
-8433.029494649655
 30
0.0
 10
-3815.096528926213
 20
-8433.170776193135
 30
0.0
 10
-3815.088644555974
 20
-8433.312097556667
 30
0.0
 10
-3815.081118566201
 20
-8433.453339280097
 30
0.0
 10
-3815.072955455599
 20
-8433.60696503961
 30
0.0
 10
-3815.06531000567
 20
-8433.760710259276
 30
0.0
 10
-3815.058222036465
 20
-8433.914415658891
 30
0.0
 10
-3815.050616406587
 20
-8434.077438950607
 30
0.0
 10
-3815.043608077485
 20
-8434.240462242325
 30
0.0
 10
-3815.037077589005
 20
-8434.403565174143
 30
0.0
 10
-3815.03022854011
 20
-8434.577100959513
 30
0.0
 10
-3815.023857331836
 20
-8434.750557104779
 30
0.0
 10
-3815.01816306444
 20
-8434.924212350303
 30
0.0
 10
-3815.01278735746
 20
-8435.085762300104
 30
0.0
 10
-3815.007969131202
 20
-8435.247232609805
 30
0.0
 10
-3815.003668565617
 20
-8435.408782559607
 30
0.0
 10
-3814.999646740394
 20
-8435.557669732967
 30
0.0
 10
-3814.99606293574
 20
-8435.706676366478
 30
0.0
 10
-3814.992877331603
 20
-8435.855603359888
 30
0.0
 10
-3814.989970467827
 20
-8435.991469376338
 30
0.0
 10
-3814.987421984517
 20
-8436.127415032888
 30
0.0
 10
-3814.98515224157
 20
-8436.263201409232
 30
0.0
 10
-3814.983201059037
 20
-8436.385528608097
 30
0.0
 10
-3814.981369336657
 20
-8436.507776166859
 30
0.0
 10
-3814.979935814796
 20
-8436.630103365724
 30
0.0
 10
-3814.978701393192
 20
-8436.73992706835
 30
0.0
 10
-3814.977466971589
 20
-8436.849710950927
 30
0.0
 10
-3814.976670570555
 20
-8436.959574473602
 30
0.0
 10
-3814.975675069262
 20
-8437.074455322798
 30
0.0
 10
-3814.974958308332
 20
-8437.189375992044
 30
0.0
 10
-3814.974440647659
 20
-8437.304256841239
 30
0.0
 10
-3814.974042447142
 20
-8437.429610364032
 30
0.0
 10
-3814.973883166935
 20
-8437.555043526932
 30
0.0
 10
-3814.973723886728
 20
-8437.680397049728
 30
0.0
  0
LINE
  5
2FC02
330
A
100
AcDbEntity
  8
shade
100
AcDbLine
 10
-3815.473704456047
 20
-8438.43044754381
 30
0.0
 11
-3815.473704456047
 21
-8437.680397049728
 31
0.0
  0
LINE
  5
2FC03
330
A
100
AcDbEntity
  8
shade
100
AcDbLine
 10
-3814.973644246625
 20
-8437.680397049728
 30
0.0
 11
-3814.973644246625
 21
-8438.43044754381
 31
0.0
  0
LINE
  5
2FC04
330
A
100
AcDbEntity
  8
shade
100
AcDbLine
 10
-3810.223669557887
 20
-8439.580370997203
 30
0.0
 11
-3810.260304005464
 21
-8439.998481540198
 31
0.0
  0
LINE
  5
2FC05
330
A
100
AcDbEntity
  8
shade
100
AcDbLine
 10
-3820.165223308868
 20
-8440.247914344132
 30
0.0
 11
-3820.223679144784
 21
-8439.580291357099
 31
0.0
  0
SPLINE
  5
2FC06
330
A
100
AcDbEntity
  8
shade
100
AcDbSpline
210
0.0
220
0.0
230
1.0
 70
     8
 71
     3
 72
     8
 73
     4
 74
     0
 42
0.00000001
 43
0.0000000001
 40
0.0
 40
0.0
 40
0.0
 40
0.0
 40
1.0
 40
1.0
 40
1.0
 40
1.0
 10
-3820.159489221422
 20
-8440.261851362233
 30
0.0
 10
-3820.162515545352
 20
-8440.258665758095
 30
0.0
 10
-3820.165143668766
 20
-8440.25229454982
 30
0.0
 10
-3820.165302948972
 20
-8440.247914344132
 30
0.0
  0
LINE
  5
2FC07
330
A
100
AcDbEntity
  8
shade
100
AcDbLine
 10
-3820.088370609061
 20
-8440.346508792176
 30
0.0
 11
-3820.159489221422
 21
-8440.261851362233
 31
0.0
  0
SPLINE
  5
2FC08
330
A
100
AcDbEntity
  8
shade
100
AcDbSpline
210
0.0
220
0.0
230
1.0
 70
     8
 71
     3
 72
     8
 73
     4
 74
     0
 42
0.00000001
 43
0.0000000001
 40
0.0
 40
0.0
 40
0.0
 40
0.0
 40
1.0
 40
1.0
 40
1.0
 40
1.0
 10
-3820.069217164186
 20
-8440.355348843658
 30
0.0
 10
-3820.075747652667
 20
-8440.355747044174
 30
0.0
 10
-3820.08438860389
 20
-8440.351765039002
 30
0.0
 10
-3820.088370609061
 20
-8440.346508792176
 30
0.0
  0
LINE
  5
2FC09
330
A
100
AcDbEntity
  8
shade
100
AcDbLine
 10
-3815.932112891376
 20
-8439.502881176565
 30
0.0
 11
-3815.931475770549
 21
-8439.489820199604
 31
0.0
  0
LINE
  5
2FC0A
330
A
100
AcDbEntity
  8
shade
100
AcDbLine
 10
-3814.515952572225
 20
-8439.489820199604
 30
0.0
 11
-3814.515235811295
 21
-8439.502881176565
 31
0.0
  0
SPLINE
  5
2FC0B
330
A
100
AcDbEntity
  8
shade
100
AcDbSpline
210
0.0
220
0.0
230
1.0
 70
     8
 71
     3
 72
     8
 73
     4
 74
     0
 42
0.00000001
 43
0.0000000001
 40
0.0
 40
0.0
 40
0.0
 40
0.0
 40
1.0
 40
1.0
 40
1.0
 40
1.0
 10
-3815.931475770549
 20
-8439.489820199604
 30
0.0
 10
-3815.931197030187
 20
-8439.484563952778
 30
0.0
 10
-3815.926737184395
 20
-8439.480422667401
 30
0.0
 10
-3815.921441117517
 20
-8439.480422667401
 30
0.0
  0
SPLINE
  5
2FC0C
330
A
100
AcDbEntity
  8
shade
100
AcDbSpline
210
0.0
220
0.0
230
1.0
 70
     8
 71
     3
 72
     8
 73
     4
 74
     0
 42
0.00000001
 43
0.0000000001
 40
0.0
 40
0.0
 40
0.0
 40
0.0
 40
1.0
 40
1.0
 40
1.0
 40
1.0
 10
-3814.525907585153
 20
-8439.480422667401
 30
0.0
 10
-3814.520611518277
 20
-8439.480422667401
 30
0.0
 10
-3814.516231312587
 20
-8439.484563952778
 30
0.0
 10
-3814.515952572225
 20
-8439.489820199604
 30
0.0
  0
POLYLINE
  5
2FC0D
330
A
100
AcDbEntity
  8
shade
100
AcDb2dPolyline
 66
     1
 10
0.0
 20
0.0
 30
0.0
  0
VERTEX
  5
2FC0E
330
2FC0D
100
AcDbEntity
  8
shade
100
AcDbVertex
100
AcDb2dVertex
 10
-3810.290726524974
 20
-8440.261851362233
 30
0.0
  0
VERTEX
  5
2FC0F
330
2FC0D
100
AcDbEntity
  8
shade
100
AcDbVertex
100
AcDb2dVertex
 10
-3810.340621049771
 20
-8440.321103599183
 30
0.0
  0
VERTEX
  5
2FC10
330
2FC0D
100
AcDbEntity
  8
shade
100
AcDbVertex
100
AcDb2dVertex
 10
-3810.362004417541
 20
-8440.346508792176
 30
0.0
  0
SEQEND
  5
2FC11
330
2FC0D
100
AcDbEntity
  8
shade
  0
SPLINE
  5
2FC12
330
A
100
AcDbEntity
  8
shade
100
AcDbSpline
210
0.0
220
0.0
230
1.0
 70
     8
 71
     3
 72
    17
 73
    13
 74
     0
 42
0.00000001
 43
0.0000000001
 40
0.0
 40
0.0
 40
0.0
 40
0.0
 40
1.0
 40
1.0
 40
1.0
 40
2.0
 40
2.0
 40
2.0
 40
3.0
 40
3.0
 40
3.0
 40
4.0
 40
4.0
 40
4.0
 40
4.0
 10
-3810.260144725257
 20
-8439.996649817819
 30
0.0
 10
-3810.26022436536
 20
-8439.996968378233
 30
0.0
 10
-3810.260304005464
 20
-8439.997446218852
 30
0.0
 10
-3810.260383645567
 20
-8439.998640820403
 30
0.0
 10
-3810.260702205982
 20
-8440.001189303712
 30
0.0
 10
-3810.261339326809
 20
-8440.007082671368
 30
0.0
 10
-3810.262175547894
 20
-8440.01432992078
 30
0.0
 10
-3810.263131229135
 20
-8440.021656810294
 30
0.0
 10
-3810.264126730428
 20
-8440.030496861774
 30
0.0
 10
-3810.265600072342
 20
-8440.043876399151
 30
0.0
 10
-3810.265679712446
 20
-8440.044672800183
 30
0.0
 10
-3810.265759352549
 20
-8440.045628481426
 30
0.0
 10
-3810.265918632756
 20
-8440.046504522564
 30
0.0
  0
POLYLINE
  5
2FC13
330
A
100
AcDbEntity
  8
shade
100
AcDb2dPolyline
 66
     1
 10
0.0
 20
0.0
 30
0.0
  0
VERTEX
  5
2FC14
330
2FC13
100
AcDbEntity
  8
shade
100
AcDbVertex
100
AcDb2dVertex
 10
-3810.276032925891
 20
-8440.148045654435
 30
0.0
  0
VERTEX
  5
2FC15
330
2FC13
100
AcDbEntity
  8
shade
100
AcDbVertex
100
AcDb2dVertex
 10
-3810.282165213854
 20
-8440.217969665244
 30
0.0
  0
VERTEX
  5
2FC16
330
2FC13
100
AcDbEntity
  8
shade
100
AcDbVertex
100
AcDb2dVertex
 10
-3810.28483315732
 20
-8440.247834704029
 30
0.0
  0
SEQEND
  5
2FC17
330
2FC13
100
AcDbEntity
  8
shade
  0
LINE
  5
2FC18
330
A
100
AcDbEntity
  8
shade
100
AcDbLine
 10
-3810.276032925891
 20
-8440.148045654435
 30
0.0
 11
-3810.28483315732
 21
-8440.247834704029
 31
0.0
  0
LINE
  5
2FC19
330
A
100
AcDbEntity
  8
shade
100
AcDbLine
 10
-3810.290726524974
 20
-8440.261851362233
 30
0.0
 11
-3810.362004417541
 21
-8440.346429152072
 31
0.0
  0
LINE
  5
2FC1A
330
A
100
AcDbEntity
  8
shade
100
AcDbLine
 10
-3814.456023394395
 20
-8439.565398657759
 30
0.0
 11
-3814.456023394395
 21
-8439.580370997203
 31
0.0
  0
LINE
  5
2FC1B
330
A
100
AcDbEntity
  8
shade
100
AcDbLine
 10
-3815.977109549814
 20
-8439.565398657759
 30
0.0
 11
-3815.977109549814
 21
-8439.580370997203
 31
0.0
  0
LINE
  5
2FC1C
330
A
100
AcDbEntity
  8
shade
100
AcDbLine
 10
-3815.989851966362
 20
-8439.565398657759
 30
0.0
 11
-3815.989851966362
 21
-8439.580370997203
 31
0.0
  0
LINE
  5
2FC1D
330
A
100
AcDbEntity
  8
shade
100
AcDbLine
 10
-3814.47724748196
 20
-8439.565398657759
 30
0.0
 11
-3814.47724748196
 21
-8439.580370997203
 31
0.0
  0
LINE
  5
2FC1E
330
A
100
AcDbEntity
  8
shade
100
AcDbLine
 10
-3818.02561229018
 20
-8439.565398657759
 30
0.0
 11
-3818.02561229018
 21
-8439.580370997203
 31
0.0
  0
LINE
  5
2FC1F
330
A
100
AcDbEntity
  8
shade
100
AcDbLine
 10
-3819.075667053874
 20
-8439.565398657759
 30
0.0
 11
-3819.075667053874
 21
-8439.580370997203
 31
0.0
  0
LINE
  5
2FC20
330
A
100
AcDbEntity
  8
shade
100
AcDbLine
 10
-3811.371522368591
 20
-8439.565398657759
 30
0.0
 11
-3811.371522368591
 21
-8439.580370997203
 31
0.0
  0
LINE
  5
2FC21
330
A
100
AcDbEntity
  8
shade
100
AcDbLine
 10
-3812.421497492181
 20
-8439.565398657759
 30
0.0
 11
-3812.421497492181
 21
-8439.580370997203
 31
0.0
  0
LINE
  5
2FC22
330
A
100
AcDbEntity
  8
shade
100
AcDbLine
 10
-3810.223669557887
 20
-8439.565398657759
 30
0.0
 11
-3820.223679144784
 21
-8439.565398657759
 31
0.0
  0
LINE
  5
2FC23
330
A
100
AcDbEntity
  8
shade
100
AcDbLine
 10
-3810.223669557887
 20
-8439.502881176565
 30
0.0
 11
-3820.223679144784
 21
-8439.502881176565
 31
0.0
  0
LINE
  5
2FC24
330
A
100
AcDbEntity
  8
shade
100
AcDbLine
 10
-3810.473699662598
 20
-8440.405442468714
 30
0.0
 11
-3819.973649040073
 21
-8440.405442468714
 31
0.0
  0
SPLINE
  5
2FC25
330
A
100
AcDbEntity
  8
shade
100
AcDbSpline
210
0.0
220
0.0
230
1.0
 70
     8
 71
     3
 72
    14
 73
    10
 74
     0
 42
0.00000001
 43
0.0000000001
 40
0.0
 40
0.0
 40
0.0
 40
0.0
 40
1.0
 40
1.0
 40
1.0
 40
2.0
 40
2.0
 40
2.0
 40
3.0
 40
3.0
 40
3.0
 40
3.0
 10
-3814.833278564334
 20
-8439.480422667401
 30
0.0
 10
-3814.833039644024
 20
-8439.478192744504
 30
0.0
 10
-3814.832880363816
 20
-8439.476042461713
 30
0.0
 10
-3814.832641443506
 20
-8439.474370019539
 30
0.0
 10
-3814.832243242989
 20
-8439.470786214886
 30
0.0
 10
-3814.831964502627
 20
-8439.46903413261
 30
0.0
 10
-3814.83180522242
 20
-8439.46831737168
 30
0.0
 10
-3814.83180522242
 20
-8439.468078451369
 30
0.0
 10
-3814.83180522242
 20
-8439.467998811265
 30
0.0
 10
-3814.83180522242
 20
-8439.46783953106
 30
0.0
  0
LINE
  5
2FC26
330
A
100
AcDbEntity
  8
shade
100
AcDbLine
 10
-3814.932948153773
 20
-8438.43044754381
 30
0.0
 11
-3815.514480189002
 21
-8438.43044754381
 31
0.0
  0
POLYLINE
  5
2FC27
330
A
100
AcDbEntity
  8
shade
100
AcDb2dPolyline
 66
     1
 10
0.0
 20
0.0
 30
0.0
  0
VERTEX
  5
2FC28
330
2FC27
100
AcDbEntity
  8
shade
100
AcDbVertex
100
AcDb2dVertex
 10
-3827.4592214615
 20
-8416.150411848983
 30
0.0
  0
VERTEX
  5
2FC29
330
2FC27
100
AcDbEntity
  8
shade
100
AcDbVertex
100
AcDb2dVertex
 10
-3827.451974212089
 20
-8416.151287890121
 30
0.0
  0
VERTEX
  5
2FC2A
330
2FC27
100
AcDbEntity
  8
shade
100
AcDbVertex
100
AcDb2dVertex
 10
-3827.427285780025
 20
-8416.15383637343
 30
0.0
  0
VERTEX
  5
2FC2B
330
2FC27
100
AcDbEntity
  8
shade
100
AcDbVertex
100
AcDb2dVertex
 10
-3827.386589687174
 20
-8416.158057298913
 30
0.0
  0
VERTEX
  5
2FC2C
330
2FC27
100
AcDbEntity
  8
shade
100
AcDbVertex
100
AcDb2dVertex
 10
-3827.332593697049
 20
-8416.16379138636
 30
0.0
  0
VERTEX
  5
2FC2D
330
2FC27
100
AcDbEntity
  8
shade
100
AcDbVertex
100
AcDb2dVertex
 10
-3827.268563053895
 20
-8416.170441334996
 30
0.0
  0
VERTEX
  5
2FC2E
330
2FC27
100
AcDbEntity
  8
shade
100
AcDbVertex
100
AcDb2dVertex
 10
-3827.198559402982
 20
-8416.177887684666
 30
0.0
  0
VERTEX
  5
2FC2F
330
2FC27
100
AcDbEntity
  8
shade
100
AcDbVertex
100
AcDb2dVertex
 10
-3827.127042590103
 20
-8416.185373854387
 30
0.0
  0
VERTEX
  5
2FC30
330
2FC27
100
AcDbEntity
  8
shade
100
AcDbVertex
100
AcDb2dVertex
 10
-3827.058392820948
 20
-8416.192621103801
 30
0.0
  0
VERTEX
  5
2FC31
330
2FC27
100
AcDbEntity
  8
shade
100
AcDbVertex
100
AcDb2dVertex
 10
-3826.997069941309
 20
-8416.198992312073
 30
0.0
  0
VERTEX
  5
2FC32
330
2FC27
100
AcDbEntity
  8
shade
100
AcDbVertex
100
AcDb2dVertex
 10
-3826.94665775584
 20
-8416.204288378953
 30
0.0
  0
VERTEX
  5
2FC33
330
2FC27
100
AcDbEntity
  8
shade
100
AcDbVertex
100
AcDb2dVertex
 10
-3826.910740069194
 20
-8416.208071283866
 30
0.0
  0
VERTEX
  5
2FC34
330
2FC27
100
AcDbEntity
  8
shade
100
AcDbVertex
100
AcDb2dVertex
 10
-3826.891228243854
 20
-8416.210181746606
 30
0.0
  0
VERTEX
  5
2FC35
330
2FC27
100
AcDbEntity
  8
shade
100
AcDbVertex
100
AcDb2dVertex
 10
-3826.887962999613
 20
-8416.210500307022
 30
0.0
  0
SEQEND
  5
2FC36
330
2FC27
100
AcDbEntity
  8
shade
  0
POLYLINE
  5
2FC37
330
A
100
AcDbEntity
  8
shade
100
AcDb2dPolyline
 66
     1
 10
0.0
 20
0.0
 30
0.0
  0
VERTEX
  5
2FC38
330
2FC37
100
AcDbEntity
  8
shade
100
AcDbVertex
100
AcDb2dVertex
 10
-3810.276032925891
 20
-8440.148045654435
 30
0.0
  0
VERTEX
  5
2FC39
330
2FC37
100
AcDbEntity
  8
shade
100
AcDbVertex
100
AcDb2dVertex
 10
-3810.277745188114
 20
-8440.168035320395
 30
0.0
  0
VERTEX
  5
2FC3A
330
2FC37
100
AcDbEntity
  8
shade
100
AcDbVertex
100
AcDb2dVertex
 10
-3810.28483315732
 20
-8440.247914344132
 30
0.0
  0
SEQEND
  5
2FC3B
330
2FC37
100
AcDbEntity
  8
shade
  0
SPLINE
  5
2FC3C
330
A
100
AcDbEntity
  8
shade
100
AcDbSpline
210
0.0
220
0.0
230
1.0
 70
     8
 71
     3
 72
    14
 73
    10
 74
     0
 42
0.00000001
 43
0.0000000001
 40
0.0
 40
0.0
 40
0.0
 40
0.0
 40
1.0
 40
1.0
 40
1.0
 40
2.0
 40
2.0
 40
2.0
 40
3.0
 40
3.0
 40
3.0
 40
3.0
 10
-3810.265838992652
 20
-8440.046504522564
 30
0.0
 10
-3810.265838992652
 20
-8440.046504522564
 30
0.0
 10
-3810.26623719317
 20
-8440.049769766806
 30
0.0
 10
-3810.26623719317
 20
-8440.049769766806
 30
0.0
 10
-3810.267551254876
 20
-8440.061317581802
 30
0.0
 10
-3810.269263517099
 20
-8440.078042003523
 30
0.0
 10
-3810.270975779323
 20
-8440.095244265862
 30
0.0
 10
-3810.272688041547
 20
-8440.112605808408
 30
0.0
 10
-3810.274320663667
 20
-8440.130365551473
 30
0.0
 10
-3810.276032925891
 20
-8440.148045654435
 30
0.0
  0
LINE
  5
2FC3D
330
A
100
AcDbEntity
  8
shade
100
AcDbLine
 10
-3820.223679144784
 20
-8439.580370997203
 30
0.0
 11
-3810.223749197991
 21
-8439.580370997203
 31
0.0
  0
SPLINE
  5
2FC3E
330
A
100
AcDbEntity
  8
shade
100
AcDbSpline
210
0.0
220
0.0
230
1.0
 70
     8
 71
     3
 72
    17
 73
    13
 74
     0
 42
0.00000001
 43
0.0000000001
 40
0.0
 40
0.0
 40
0.0
 40
0.0
 40
1.0
 40
1.0
 40
1.0
 40
2.0
 40
2.0
 40
2.0
 40
3.0
 40
3.0
 40
3.0
 40
4.0
 40
4.0
 40
4.0
 40
4.0
 10
-3810.284912797423
 20
-8440.247914344132
 30
0.0
 10
-3810.28531099794
 20
-8440.253090950855
 30
0.0
 10
-3810.287381640629
 20
-8440.257869357061
 30
0.0
 10
-3810.290686704922
 20
-8440.261851362233
 30
0.0
 10
-3810.290686704922
 20
-8440.261851362233
 30
0.0
 10
-3810.303588401676
 20
-8440.277062621985
 30
0.0
 10
-3810.303588401676
 20
-8440.277062621985
 30
0.0
 10
-3810.303588401676
 20
-8440.277062621985
 30
0.0
 10
-3810.355035908492
 20
-8440.33822622142
 30
0.0
 10
-3810.355035908492
 20
-8440.33822622142
 30
0.0
 10
-3810.355035908492
 20
-8440.33822622142
 30
0.0
 10
-3810.361964597489
 20
-8440.346508792176
 30
0.0
 10
-3810.361964597489
 20
-8440.346508792176
 30
0.0
  0
LINE
  5
2FC3F
330
A
100
AcDbEntity
  8
shade
100
AcDbLine
 10
-3820.069217164186
 20
-8440.355348843658
 30
0.0
 11
-3810.381157862416
 21
-8440.355348843658
 31
0.0
  0
SPLINE
  5
2FC40
330
A
100
AcDbEntity
  8
shade
100
AcDbSpline
210
0.0
220
0.0
230
1.0
 70
     8
 71
     3
 72
     8
 73
     4
 74
     0
 42
0.00000001
 43
0.0000000001
 40
0.0
 40
0.0
 40
0.0
 40
0.0
 40
1.0
 40
1.0
 40
1.0
 40
1.0
 10
-3810.361964597489
 20
-8440.346508792176
 30
0.0
 10
-3810.366703183643
 20
-8440.352083599417
 30
0.0
 10
-3810.373791152848
 20
-8440.355348843658
 30
0.0
 10
-3810.381157862416
 20
-8440.355348843658
 30
0.0
  0
LINE
  5
2FC41
330
A
100
AcDbEntity
  8
shade
100
AcDbLine
 10
-3815.398683478618
 20
-8439.489820199604
 30
0.0
 11
-3815.048744864157
 21
-8439.489820199604
 31
0.0
  0
LINE
  5
2FC42
330
A
100
AcDbEntity
  8
shade
100
AcDbLine
 10
-3815.398683478618
 20
-8439.480422667401
 30
0.0
 11
-3815.921520757621
 21
-8439.480422667401
 31
0.0
  0
LINE
  5
2FC43
330
A
100
AcDbEntity
  8
shade
100
AcDbLine
 10
-3815.398683478618
 20
-8439.489820199604
 30
0.0
 11
-3815.398683478618
 21
-8439.480422667401
 31
0.0
  0
POLYLINE
  5
2FC44
330
A
100
AcDbEntity
  8
shade
100
AcDb2dPolyline
 66
     1
 10
0.0
 20
0.0
 30
0.0
  0
VERTEX
  5
2FC45
330
2FC44
100
AcDbEntity
  8
shade
100
AcDbVertex
100
AcDb2dVertex
 10
-3815.048665224054
 20
-8439.489820199604
 30
0.0
  0
VERTEX
  5
2FC46
330
2FC44
100
AcDbEntity
  8
shade
100
AcDbVertex
100
AcDb2dVertex
 10
-3815.048665224054
 20
-8439.480422667401
 30
0.0
  0
VERTEX
  5
2FC47
330
2FC44
100
AcDbEntity
  8
shade
100
AcDbVertex
100
AcDb2dVertex
 10
-3815.398683478618
 20
-8439.480422667401
 30
0.0
  0
SEQEND
  5
2FC48
330
2FC44
100
AcDbEntity
  8
shade
  0
LINE
  5
2FC49
330
A
100
AcDbEntity
  8
shade
100
AcDbLine
 10
-3814.525907585153
 20
-8439.480422667401
 30
0.0
 11
-3815.048744864157
 21
-8439.480422667401
 31
0.0
  0
LINE
  5
2FC4A
330
A
100
AcDbEntity
  8
shade
100
AcDbLine
 10
-3810.361964597489
 20
-8440.346508792176
 30
0.0
 11
-3810.361964597489
 21
-8440.346508792176
 31
0.0
  0
LINE
  5
2FC4B
330
A
100
AcDbEntity
  8
shade
100
AcDbLine
 10
-3810.290726524974
 20
-8440.261851362233
 30
0.0
 11
-3810.290726524974
 21
-8440.261851362233
 31
0.0
  0
LINE
  5
2FC4C
330
A
100
AcDbEntity
  8
shade
100
AcDbLine
 10
-3810.276032925891
 20
-8440.148045654435
 30
0.0
 11
-3810.276032925891
 21
-8440.148045654435
 31
0.0
  0
LINE
  5
2FC4D
330
A
100
AcDbEntity
  8
shade
100
AcDbLine
 10
-3810.284912797423
 20
-8440.247914344132
 30
0.0
 11
-3810.284912797423
 21
-8440.247914344132
 31
0.0
  0
LINE
  5
2FC4E
330
A
100
AcDbEntity
  8
shade
100
AcDbLine
 10
-3814.832402523196
 20
-8439.430408682449
 30
0.0
 11
-3815.614946179476
 21
-8439.430408682449
 31
0.0
  0
LINE
  5
2FC4F
330
A
100
AcDbEntity
  8
shade
100
AcDbLine
 10
-3815.539208441116
 20
-8438.451950371733
 30
0.0
 11
-3814.908140261556
 21
-8438.451950371733
 31
0.0
  0
LINE
  5
2FC50
330
A
100
AcDbEntity
  8
shade
100
AcDbLine
 10
-3814.973644246625
 20
-8437.680397049728
 30
0.0
 11
-3815.473704456047
 21
-8437.680397049728
 31
0.0
  0
SPLINE
  5
2FC51
330
A
100
AcDbEntity
  8
shade
100
AcDbSpline
210
0.0
220
0.0
230
1.0
 70
     8
 71
     3
 72
    14
 73
    10
 74
     0
 42
0.00000001
 43
0.0000000001
 40
0.0
 40
0.0
 40
0.0
 40
0.0
 40
1.0
 40
1.0
 40
1.0
 40
2.0
 40
2.0
 40
2.0
 40
3.0
 40
3.0
 40
3.0
 40
3.0
 10
-3810.260383645567
 20
-8439.998481540198
 30
0.0
 10
-3810.260304005464
 20
-8439.998083339681
 30
0.0
 10
-3810.260304005464
 20
-8439.997685139163
 30
0.0
 10
-3810.260383645567
 20
-8439.998640820403
 30
0.0
 10
-3810.260622565877
 20
-8440.00039290268
 30
0.0
 10
-3810.261418966911
 20
-8440.007003031263
 30
0.0
 10
-3810.262494108308
 20
-8440.01640056347
 30
0.0
 10
-3810.263489609601
 20
-8440.024842414432
 30
0.0
 10
-3810.264684211152
 20
-8440.035673468498
 30
0.0
 10
-3810.265918632756
 20
-8440.04642488246
 30
0.0
  0
LINE
  5
2FC52
330
A
100
AcDbEntity
  8
shade
100
AcDbLine
 10
-3810.284912797423
 20
-8440.247914344132
 30
0.0
 11
-3820.165223308868
 21
-8440.247914344132
 31
0.0
  0
LINE
  5
2FC53
330
A
100
AcDbEntity
  8
shade
100
AcDbLine
 10
-3820.159489221422
 20
-8440.261851362233
 30
0.0
 11
-3810.290726524974
 21
-8440.261851362233
 31
0.0
  0
LINE
  5
2FC54
330
A
100
AcDbEntity
  8
shade
100
AcDbLine
 10
-3810.362004417541
 20
-8440.346508792176
 30
0.0
 11
-3820.088370609061
 21
-8440.346508792176
 31
0.0
  0
LINE
  5
2FC55
330
A
100
AcDbEntity
  8
shade
100
AcDbLine
 10
-3815.398683478618
 20
-8439.502881176565
 30
0.0
 11
-3815.398683478618
 21
-8439.489820199604
 31
0.0
  0
LINE
  5
2FC56
330
A
100
AcDbEntity
  8
shade
100
AcDbLine
 10
-3815.931475770549
 20
-8439.489820199604
 30
0.0
 11
-3815.398683478618
 21
-8439.489820199604
 31
0.0
  0
POLYLINE
  5
2FC57
330
A
100
AcDbEntity
  8
shade
100
AcDb2dPolyline
 66
     1
 10
0.0
 20
0.0
 30
0.0
  0
VERTEX
  5
2FC58
330
2FC57
100
AcDbEntity
  8
shade
100
AcDbVertex
100
AcDb2dVertex
 10
-3815.048665224054
 20
-8439.502881176565
 30
0.0
  0
VERTEX
  5
2FC59
330
2FC57
100
AcDbEntity
  8
shade
100
AcDbVertex
100
AcDb2dVertex
 10
-3815.048665224054
 20
-8439.489820199604
 30
0.0
  0
VERTEX
  5
2FC5A
330
2FC57
100
AcDbEntity
  8
shade
100
AcDbVertex
100
AcDb2dVertex
 10
-3814.515952572225
 20
-8439.489820199604
 30
0.0
  0
SEQEND
  5
2FC5B
330
2FC57
100
AcDbEntity
  8
shade
  0
LINE
  5
2FC5C
330
A
100
AcDbEntity
  8
shade
100
AcDbLine
 10
-3826.942749227614
 20
-8417.445262284728
 30
0.0
 11
-3826.879958708084
 21
-8423.445262284728
 31
0.0
  0
LINE
  5
2FC5D
330
A
100
AcDbEntity
  8
shade
100
AcDbLine
 10
-3826.257004732802
 20
-8423.445262284728
 30
0.0
 11
-3826.444386047388
 21
-8417.445262284728
 31
0.0
  0
LINE
  5
2FC5E
330
A
100
AcDbEntity
  8
shade
100
AcDbLine
 10
-3825.648826333856
 20
-8423.445262284728
 30
0.0
 11
-3825.957843328231
 21
-8417.445262284728
 31
0.0
  0
LINE
  5
2FC5F
330
A
100
AcDbEntity
  8
shade
100
AcDbLine
 10
-3825.065014847906
 20
-8423.445262284728
 30
0.0
 11
-3825.490794139471
 21
-8417.445262284728
 31
0.0
  0
LINE
  5
2FC60
330
A
100
AcDbEntity
  8
shade
100
AcDbLine
 10
-3825.050604125815
 20
-8417.445262284728
 30
0.0
 11
-3824.514777330835
 21
-8423.445262284728
 31
0.0
  0
LINE
  5
2FC61
330
A
100
AcDbEntity
  8
shade
100
AcDbLine
 10
-3824.644215346737
 20
-8417.445262284728
 30
0.0
 11
-3824.006791356988
 21
-8423.445262284728
 31
0.0
  0
LINE
  5
2FC62
330
A
100
AcDbEntity
  8
shade
100
AcDbLine
 10
-3824.278036796045
 20
-8417.445262284728
 30
0.0
 11
-3823.549068168624
 21
-8423.445262284728
 31
0.0
  0
LINE
  5
2FC63
330
A
100
AcDbEntity
  8
shade
100
AcDbLine
 10
-3823.957843328231
 20
-8417.445262284728
 30
0.0
 11
-3823.148826333856
 21
-8423.445262284728
 31
0.0
  0
LINE
  5
2FC64
330
A
100
AcDbEntity
  8
shade
100
AcDbLine
 10
-3823.688684585555
 20
-8417.445262284728
 30
0.0
 11
-3822.812377905512
 21
-8423.445262284728
 31
0.0
  0
LINE
  5
2FC65
330
A
100
AcDbEntity
  8
shade
100
AcDbLine
 10
-3823.474805362178
 20
-8417.445262284728
 30
0.0
 11
-3822.54502887629
 21
-8423.445262284728
 31
0.0
  0
LINE
  5
2FC66
330
A
100
AcDbEntity
  8
shade
100
AcDbLine
 10
-3822.350995500087
 20
-8423.445262284728
 30
0.0
 11
-3823.319578661216
 21
-8417.445262284728
 31
0.0
  0
LINE
  5
2FC67
330
A
100
AcDbEntity
  8
shade
100
AcDbLine
 10
-3823.225452500473
 20
-8417.445262284728
 30
0.0
 11
-3822.233337799158
 21
-8423.445262284728
 31
0.0
  0
LINE
  5
2FC68
330
A
100
AcDbEntity
  8
shade
100
AcDbLine
 10
-3822.193911305731
 20
-8423.445262284728
 30
0.0
 11
-3823.193911305731
 21
-8417.445262284728
 31
0.0
  0
LINE
  5
2FC69
330
A
100
AcDbEntity
  8
shade
100
AcDbLine
 10
-3827.193911305731
 20
-8416.945262284727
 30
0.0
 11
-3823.865302184739
 21
-8416.945262284727
 31
0.0
  0
LINE
  5
2FC6A
330
A
100
AcDbEntity
  8
shade
100
AcDbLine
 10
-3824.516315441334
 20
-8423.445262284728
 30
0.0
 11
-3824.516315441334
 21
-8423.945262284728
 31
0.0
  0
LINE
  5
2FC6B
330
A
100
AcDbEntity
  8
shade
100
AcDbLine
 10
-3827.193911305731
 20
-8416.945262284727
 30
0.0
 11
-3826.942749227614
 21
-8417.445262284728
 31
0.0
  0
LINE
  5
2FC6C
330
A
100
AcDbEntity
  8
shade
100
AcDbLine
 10
-3826.942749227614
 20
-8417.445262284728
 30
0.0
 11
-3826.776004673257
 21
-8416.945262284727
 31
0.0
  0
LINE
  5
2FC6D
330
A
100
AcDbEntity
  8
shade
100
AcDbLine
 10
-3826.776004673257
 20
-8416.945262284727
 30
0.0
 11
-3826.444386047388
 21
-8417.445262284728
 31
0.0
  0
LINE
  5
2FC6E
330
A
100
AcDbEntity
  8
shade
100
AcDbLine
 10
-3826.444386047388
 20
-8417.445262284728
 30
0.0
 11
-3826.365500316182
 21
-8416.945262284727
 31
0.0
  0
LINE
  5
2FC6F
330
A
100
AcDbEntity
  8
shade
100
AcDbLine
 10
-3826.365500316182
 20
-8416.945262284727
 30
0.0
 11
-3825.957843328231
 21
-8417.445262284728
 31
0.0
  0
LINE
  5
2FC70
330
A
100
AcDbEntity
  8
shade
100
AcDbLine
 10
-3825.957843328231
 20
-8417.445262284728
 30
0.0
 11
-3825.968047490164
 21
-8416.945262284727
 31
0.0
  0
LINE
  5
2FC71
330
A
100
AcDbEntity
  8
shade
100
AcDbLine
 10
-3825.968047490164
 20
-8416.945262284727
 30
0.0
 11
-3825.490794139471
 21
-8417.445262284728
 31
0.0
  0
LINE
  5
2FC72
330
A
100
AcDbEntity
  8
shade
100
AcDbLine
 10
-3825.490794139471
 20
-8417.445262284728
 30
0.0
 11
-3825.589914263696
 21
-8416.945262284727
 31
0.0
  0
LINE
  5
2FC73
330
A
100
AcDbEntity
  8
shade
100
AcDbLine
 10
-3825.589914263696
 20
-8416.945262284727
 30
0.0
 11
-3825.050604125815
 21
-8417.445262284728
 31
0.0
  0
LINE
  5
2FC74
330
A
100
AcDbEntity
  8
shade
100
AcDbLine
 10
-3825.050604125815
 20
-8417.445262284728
 30
0.0
 11
-3825.233196628357
 21
-8416.945262284727
 31
0.0
  0
LINE
  5
2FC75
330
A
100
AcDbEntity
  8
shade
100
AcDbLine
 10
-3825.233196628357
 20
-8416.945262284727
 30
0.0
 11
-3824.644215346737
 21
-8417.445262284728
 31
0.0
  0
LINE
  5
2FC76
330
A
100
AcDbEntity
  8
shade
100
AcDbLine
 10
-3824.644215346737
 20
-8417.445262284728
 30
0.0
 11
-3824.910557378933
 21
-8416.945262284727
 31
0.0
  0
LINE
  5
2FC77
330
A
100
AcDbEntity
  8
shade
100
AcDbLine
 10
-3824.910557378933
 20
-8416.945262284727
 30
0.0
 11
-3824.278036796045
 21
-8417.445262284728
 31
0.0
  0
LINE
  5
2FC78
330
A
100
AcDbEntity
  8
shade
100
AcDbLine
 10
-3824.278036796045
 20
-8417.445262284728
 30
0.0
 11
-3824.623914979826
 21
-8416.945262284727
 31
0.0
  0
LINE
  5
2FC79
330
A
100
AcDbEntity
  8
shade
100
AcDbLine
 10
-3824.623914979826
 20
-8416.945262284727
 30
0.0
 11
-3823.957843328231
 21
-8417.445262284728
 31
0.0
  0
LINE
  5
2FC7A
330
A
100
AcDbEntity
  8
shade
100
AcDbLine
 10
-3823.957843328231
 20
-8417.445262284728
 30
0.0
 11
-3824.377789952905
 21
-8416.945262284727
 31
0.0
  0
LINE
  5
2FC7B
330
A
100
AcDbEntity
  8
shade
100
AcDbLine
 10
-3824.377789952905
 20
-8416.945262284727
 30
0.0
 11
-3823.688684585555
 21
-8417.445262284728
 31
0.0
  0
LINE
  5
2FC7C
330
A
100
AcDbEntity
  8
shade
100
AcDbLine
 10
-3823.688684585555
 20
-8417.445262284728
 30
0.0
 11
-3824.176063836868
 21
-8416.945262284727
 31
0.0
  0
LINE
  5
2FC7D
330
A
100
AcDbEntity
  8
shade
100
AcDbLine
 10
-3824.176063836868
 20
-8416.945262284727
 30
0.0
 11
-3823.474805362178
 21
-8417.445262284728
 31
0.0
  0
LINE
  5
2FC7E
330
A
100
AcDbEntity
  8
shade
100
AcDbLine
 10
-3823.474805362178
 20
-8417.445262284728
 30
0.0
 11
-3824.021917973073
 21
-8416.945262284727
 31
0.0
  0
LINE
  5
2FC7F
330
A
100
AcDbEntity
  8
shade
100
AcDbLine
 10
-3824.021917973073
 20
-8416.945262284727
 30
0.0
 11
-3823.319578661216
 21
-8417.445262284728
 31
0.0
  0
LINE
  5
2FC80
330
A
100
AcDbEntity
  8
shade
100
AcDbLine
 10
-3823.319578661216
 20
-8417.445262284728
 30
0.0
 11
-3823.917783333874
 21
-8416.945262284727
 31
0.0
  0
LINE
  5
2FC81
330
A
100
AcDbEntity
  8
shade
100
AcDbLine
 10
-3823.917783333874
 20
-8416.945262284727
 30
0.0
 11
-3823.225452500473
 21
-8417.445262284728
 31
0.0
  0
LINE
  5
2FC82
330
A
100
AcDbEntity
  8
shade
100
AcDbLine
 10
-3823.225452500473
 20
-8417.445262284728
 30
0.0
 11
-3823.865302184739
 21
-8416.945262284727
 31
0.0
  0
LINE
  5
2FC83
330
A
100
AcDbEntity
  8
shade
100
AcDbLine
 10
-3823.865302184739
 20
-8416.945262284727
 30
0.0
 11
-3823.193911305731
 21
-8417.445262284728
 31
0.0
  0
LINE
  5
2FC84
330
A
100
AcDbEntity
  8
shade
100
AcDbLine
 10
-3826.776004673257
 20
-8416.945262284727
 30
0.0
 11
-3826.622968522539
 21
-8423.945262284728
 31
0.0
  0
LINE
  5
2FC85
330
A
100
AcDbEntity
  8
shade
100
AcDbLine
 10
-3826.061029848102
 20
-8423.945262284728
 30
0.0
 11
-3826.365500316182
 21
-8416.945262284727
 31
0.0
  0
LINE
  5
2FC86
330
A
100
AcDbEntity
  8
shade
100
AcDbLine
 10
-3827.193911305731
 20
-8423.945262284728
 30
0.0
 11
-3826.879958708084
 21
-8423.445262284728
 31
0.0
  0
LINE
  5
2FC87
330
A
100
AcDbEntity
  8
shade
100
AcDbLine
 10
-3826.879958708084
 20
-8423.445262284728
 30
0.0
 11
-3826.622968522539
 21
-8423.945262284728
 31
0.0
  0
LINE
  5
2FC88
330
A
100
AcDbEntity
  8
shade
100
AcDbLine
 10
-3826.622968522539
 20
-8423.945262284728
 30
0.0
 11
-3826.257004732802
 21
-8423.445262284728
 31
0.0
  0
LINE
  5
2FC89
330
A
100
AcDbEntity
  8
shade
100
AcDbLine
 10
-3826.257004732802
 20
-8423.445262284728
 30
0.0
 11
-3826.061029848102
 21
-8423.945262284728
 31
0.0
  0
LINE
  5
2FC8A
330
A
100
AcDbEntity
  8
shade
100
AcDbLine
 10
-3826.061029848102
 20
-8423.945262284728
 30
0.0
 11
-3825.648826333856
 21
-8423.445262284728
 31
0.0
  0
LINE
  5
2FC8B
330
A
100
AcDbEntity
  8
shade
100
AcDbLine
 10
-3825.648826333856
 20
-8423.445262284728
 30
0.0
 11
-3825.516957391002
 21
-8423.945262284728
 31
0.0
  0
LINE
  5
2FC8C
330
A
100
AcDbEntity
  8
shade
100
AcDbLine
 10
-3825.516957391002
 20
-8423.945262284728
 30
0.0
 11
-3825.065014847906
 21
-8423.445262284728
 31
0.0
  0
LINE
  5
2FC8D
330
A
100
AcDbEntity
  8
shade
100
AcDbLine
 10
-3825.065014847906
 20
-8423.445262284728
 30
0.0
 11
-3824.999331498901
 21
-8423.945262284728
 31
0.0
  0
LINE
  5
2FC8E
330
A
100
AcDbEntity
  8
shade
100
AcDbLine
 10
-3824.999331498901
 20
-8423.945262284728
 30
0.0
 11
-3824.516315441334
 21
-8423.445262284728
 31
0.0
  0
LINE
  5
2FC8F
330
A
100
AcDbEntity
  8
shade
100
AcDbLine
 10
-3824.516315441334
 20
-8423.445262284728
 30
0.0
 11
-3824.516315441334
 21
-8423.945262284728
 31
0.0
  0
LINE
  5
2FC90
330
A
100
AcDbEntity
  8
shade
100
AcDbLine
 10
-3824.516315441334
 20
-8423.945262284728
 30
0.0
 11
-3824.006791356988
 21
-8423.445262284728
 31
0.0
  0
LINE
  5
2FC91
330
A
100
AcDbEntity
  8
shade
100
AcDbLine
 10
-3824.006791356988
 20
-8423.445262284728
 30
0.0
 11
-3824.075526670064
 21
-8423.945262284728
 31
0.0
  0
LINE
  5
2FC92
330
A
100
AcDbEntity
  8
shade
100
AcDbLine
 10
-3824.075526670064
 20
-8423.945262284728
 30
0.0
 11
-3823.549068168624
 21
-8423.445262284728
 31
0.0
  0
LINE
  5
2FC93
330
A
100
AcDbEntity
  8
shade
100
AcDbLine
 10
-3823.549068168624
 20
-8423.445262284728
 30
0.0
 11
-3823.683916687333
 21
-8423.945262284728
 31
0.0
  0
LINE
  5
2FC94
330
A
100
AcDbEntity
  8
shade
100
AcDbLine
 10
-3823.683916687333
 20
-8423.945262284728
 30
0.0
 11
-3823.148826333856
 21
-8423.445262284728
 31
0.0
  0
LINE
  5
2FC95
330
A
100
AcDbEntity
  8
shade
100
AcDbLine
 10
-3823.148826333856
 20
-8423.445262284728
 30
0.0
 11
-3823.347661416503
 21
-8423.945262284728
 31
0.0
  0
LINE
  5
2FC96
330
A
100
AcDbEntity
  8
shade
100
AcDbLine
 10
-3823.347661416503
 20
-8423.945262284728
 30
0.0
 11
-3822.812377905512
 21
-8423.445262284728
 31
0.0
  0
LINE
  5
2FC97
330
A
100
AcDbEntity
  8
shade
100
AcDbLine
 10
-3822.812377905512
 20
-8423.445262284728
 30
0.0
 11
-3823.072063804064
 21
-8423.945262284728
 31
0.0
  0
LINE
  5
2FC98
330
A
100
AcDbEntity
  8
shade
100
AcDbLine
 10
-3823.072063804064
 20
-8423.945262284728
 30
0.0
 11
-3822.54502887629
 21
-8423.445262284728
 31
0.0
  0
LINE
  5
2FC99
330
A
100
AcDbEntity
  8
shade
100
AcDbLine
 10
-3822.54502887629
 20
-8423.445262284728
 30
0.0
 11
-3822.861470189
 21
-8423.945262284728
 31
0.0
  0
LINE
  5
2FC9A
330
A
100
AcDbEntity
  8
shade
100
AcDbLine
 10
-3822.861470189
 20
-8423.945262284728
 30
0.0
 11
-3822.350995500087
 21
-8423.445262284728
 31
0.0
  0
LINE
  5
2FC9B
330
A
100
AcDbEntity
  8
shade
100
AcDbLine
 10
-3822.350995500087
 20
-8423.445262284728
 30
0.0
 11
-3822.71920175842
 21
-8423.945262284728
 31
0.0
  0
LINE
  5
2FC9C
330
A
100
AcDbEntity
  8
shade
100
AcDbLine
 10
-3822.71920175842
 20
-8423.945262284728
 30
0.0
 11
-3822.233337799158
 21
-8423.445262284728
 31
0.0
  0
LINE
  5
2FC9D
330
A
100
AcDbEntity
  8
shade
100
AcDbLine
 10
-3822.233337799158
 20
-8423.445262284728
 30
0.0
 11
-3822.647502170464
 21
-8423.945262284728
 31
0.0
  0
LINE
  5
2FC9E
330
A
100
AcDbEntity
  8
shade
100
AcDbLine
 10
-3822.647502170464
 20
-8423.945262284728
 30
0.0
 11
-3822.193911305731
 21
-8423.445262284728
 31
0.0
  0
LINE
  5
2FC9F
330
A
100
AcDbEntity
  8
shade
100
AcDbLine
 10
-3825.516957391002
 20
-8423.945262284728
 30
0.0
 11
-3825.968047490164
 21
-8416.945262284727
 31
0.0
  0
LINE
  5
2FCA0
330
A
100
AcDbEntity
  8
shade
100
AcDbLine
 10
-3827.193911305731
 20
-8423.945262284728
 30
0.0
 11
-3822.647502170464
 21
-8423.945262284728
 31
0.0
  0
LINE
  5
2FCA1
330
A
100
AcDbEntity
  8
shade
100
AcDbLine
 10
-3825.189405868986
 20
-8421.692367906656
 30
0.0
 11
-3824.999331498901
 21
-8423.945262284728
 31
0.0
  0
LINE
  5
2FCA2
330
A
100
AcDbEntity
  8
shade
100
AcDbLine
 10
-3827.193911305731
 20
-8423.945262284728
 30
0.0
 11
-3827.193911305731
 21
-8416.945262284727
 31
0.0
  0
LWPOLYLINE
  5
2FCA3
330
A
100
AcDbEntity
  8
shade
100
AcDbPolyline
 90
        6
 70
     0
 43
0.0
 10
-3827.606411305731
 20
-8416.945262284727
 10
-3827.606411305731
 20
-8416.324139742135
 10
-3827.581411305731
 20
-8416.299139742134
 10
-3826.806411305731
 20
-8416.299139742134
 10
-3826.781411305731
 20
-8416.324139742135
 10
-3826.781411305731
 20
-8416.945262284727
  0
LINE
  5
2FCA4
330
A
100
AcDbEntity
  8
shade
100
AcDbLine
 10
-3826.781411305731
 20
-8416.324139742135
 30
0.0
 11
-3827.606411305731
 21
-8416.324139742135
 31
0.0
  0
LINE
  5
2FCA5
330
A
100
AcDbEntity
  8
shade
100
AcDbLine
 10
-3827.193911305731
 20
-8423.945262284728
 30
0.0
 11
-3827.193911305731
 21
-8416.945262284727
 31
0.0
  0
LINE
  5
2FCA6
330
A
100
AcDbEntity
  8
shade
100
AcDbLine
 10
-3829.198416742477
 20
-8421.692367906656
 30
0.0
 11
-3829.388491112561
 21
-8423.945262284728
 31
0.0
  0
LINE
  5
2FCA7
330
A
100
AcDbEntity
  8
shade
100
AcDbLine
 10
-3827.193911305731
 20
-8423.945262284728
 30
0.0
 11
-3831.740320440998
 21
-8423.945262284728
 31
0.0
  0
LINE
  5
2FCA8
330
A
100
AcDbEntity
  8
shade
100
AcDbLine
 10
-3828.87086522046
 20
-8423.945262284728
 30
0.0
 11
-3828.419775121298
 21
-8416.945262284727
 31
0.0
  0
LINE
  5
2FCA9
330
A
100
AcDbEntity
  8
shade
100
AcDbLine
 10
-3831.740320440998
 20
-8423.945262284728
 30
0.0
 11
-3832.193911305731
 21
-8423.445262284728
 31
0.0
  0
LINE
  5
2FCAA
330
A
100
AcDbEntity
  8
shade
100
AcDbLine
 10
-3832.154484812303
 20
-8423.445262284728
 30
0.0
 11
-3831.740320440998
 21
-8423.945262284728
 31
0.0
  0
LINE
  5
2FCAB
330
A
100
AcDbEntity
  8
shade
100
AcDbLine
 10
-3831.668620853042
 20
-8423.945262284728
 30
0.0
 11
-3832.154484812303
 21
-8423.445262284728
 31
0.0
  0
LINE
  5
2FCAC
330
A
100
AcDbEntity
  8
shade
100
AcDbLine
 10
-3832.036827111375
 20
-8423.445262284728
 30
0.0
 11
-3831.668620853042
 21
-8423.945262284728
 31
0.0
  0
LINE
  5
2FCAD
330
A
100
AcDbEntity
  8
shade
100
AcDbLine
 10
-3831.526352422462
 20
-8423.945262284728
 30
0.0
 11
-3832.036827111375
 21
-8423.445262284728
 31
0.0
  0
LINE
  5
2FCAE
330
A
100
AcDbEntity
  8
shade
100
AcDbLine
 10
-3831.842793735173
 20
-8423.445262284728
 30
0.0
 11
-3831.526352422462
 21
-8423.945262284728
 31
0.0
  0
LINE
  5
2FCAF
330
A
100
AcDbEntity
  8
shade
100
AcDbLine
 10
-3831.315758807397
 20
-8423.945262284728
 30
0.0
 11
-3831.842793735173
 21
-8423.445262284728
 31
0.0
  0
LINE
  5
2FCB0
330
A
100
AcDbEntity
  8
shade
100
AcDbLine
 10
-3831.57544470595
 20
-8423.445262284728
 30
0.0
 11
-3831.315758807397
 21
-8423.945262284728
 31
0.0
  0
LINE
  5
2FCB1
330
A
100
AcDbEntity
  8
shade
100
AcDbLine
 10
-3831.040161194959
 20
-8423.945262284728
 30
0.0
 11
-3831.57544470595
 21
-8423.445262284728
 31
0.0
  0
LINE
  5
2FCB2
330
A
100
AcDbEntity
  8
shade
100
AcDbLine
 10
-3831.238996277605
 20
-8423.445262284728
 30
0.0
 11
-3831.040161194959
 21
-8423.945262284728
 31
0.0
  0
LINE
  5
2FCB3
330
A
100
AcDbEntity
  8
shade
100
AcDbLine
 10
-3830.703905924129
 20
-8423.945262284728
 30
0.0
 11
-3831.238996277605
 21
-8423.445262284728
 31
0.0
  0
LINE
  5
2FCB4
330
A
100
AcDbEntity
  8
shade
100
AcDbLine
 10
-3830.838754442838
 20
-8423.445262284728
 30
0.0
 11
-3830.703905924129
 21
-8423.945262284728
 31
0.0
  0
LINE
  5
2FCB5
330
A
100
AcDbEntity
  8
shade
100
AcDbLine
 10
-3830.312295941397
 20
-8423.945262284728
 30
0.0
 11
-3830.838754442838
 21
-8423.445262284728
 31
0.0
  0
LINE
  5
2FCB6
330
A
100
AcDbEntity
  8
shade
100
AcDbLine
 10
-3830.381031254474
 20
-8423.445262284728
 30
0.0
 11
-3830.312295941397
 21
-8423.945262284728
 31
0.0
  0
LINE
  5
2FCB7
330
A
100
AcDbEntity
  8
shade
100
AcDbLine
 10
-3829.871507170128
 20
-8423.945262284728
 30
0.0
 11
-3830.381031254474
 21
-8423.445262284728
 31
0.0
  0
LINE
  5
2FCB8
330
A
100
AcDbEntity
  8
shade
100
AcDbLine
 10
-3829.871507170128
 20
-8423.445262284728
 30
0.0
 11
-3829.871507170128
 21
-8423.945262284728
 31
0.0
  0
LINE
  5
2FCB9
330
A
100
AcDbEntity
  8
shade
100
AcDbLine
 10
-3829.388491112561
 20
-8423.945262284728
 30
0.0
 11
-3829.871507170128
 21
-8423.445262284728
 31
0.0
  0
LINE
  5
2FCBA
330
A
100
AcDbEntity
  8
shade
100
AcDbLine
 10
-3829.322807763556
 20
-8423.445262284728
 30
0.0
 11
-3829.388491112561
 21
-8423.945262284728
 31
0.0
  0
LINE
  5
2FCBB
330
A
100
AcDbEntity
  8
shade
100
AcDbLine
 10
-3828.87086522046
 20
-8423.945262284728
 30
0.0
 11
-3829.322807763556
 21
-8423.445262284728
 31
0.0
  0
LINE
  5
2FCBC
330
A
100
AcDbEntity
  8
shade
100
AcDbLine
 10
-3828.738996277606
 20
-8423.445262284728
 30
0.0
 11
-3828.87086522046
 21
-8423.945262284728
 31
0.0
  0
LINE
  5
2FCBD
330
A
100
AcDbEntity
  8
shade
100
AcDbLine
 10
-3828.326792763361
 20
-8423.945262284728
 30
0.0
 11
-3828.738996277606
 21
-8423.445262284728
 31
0.0
  0
LINE
  5
2FCBE
330
A
100
AcDbEntity
  8
shade
100
AcDbLine
 10
-3828.13081787866
 20
-8423.445262284728
 30
0.0
 11
-3828.326792763361
 21
-8423.945262284728
 31
0.0
  0
LINE
  5
2FCBF
330
A
100
AcDbEntity
  8
shade
100
AcDbLine
 10
-3827.764854088923
 20
-8423.945262284728
 30
0.0
 11
-3828.13081787866
 21
-8423.445262284728
 31
0.0
  0
LINE
  5
2FCC0
330
A
100
AcDbEntity
  8
shade
100
AcDbLine
 10
-3827.507863903377
 20
-8423.445262284728
 30
0.0
 11
-3827.764854088923
 21
-8423.945262284728
 31
0.0
  0
LINE
  5
2FCC1
330
A
100
AcDbEntity
  8
shade
100
AcDbLine
 10
-3827.193911305731
 20
-8423.945262284728
 30
0.0
 11
-3827.507863903377
 21
-8423.445262284728
 31
0.0
  0
LINE
  5
2FCC2
330
A
100
AcDbEntity
  8
shade
100
AcDbLine
 10
-3828.326792763361
 20
-8423.945262284728
 30
0.0
 11
-3828.02232229528
 21
-8416.945262284727
 31
0.0
  0
LINE
  5
2FCC3
330
A
100
AcDbEntity
  8
shade
100
AcDbLine
 10
-3827.611817938206
 20
-8416.945262284727
 30
0.0
 11
-3827.764854088923
 21
-8423.945262284728
 31
0.0
  0
LINE
  5
2FCC4
330
A
100
AcDbEntity
  8
shade
100
AcDbLine
 10
-3830.522520426722
 20
-8416.945262284727
 30
0.0
 11
-3831.193911305731
 21
-8417.445262284728
 31
0.0
  0
LINE
  5
2FCC5
330
A
100
AcDbEntity
  8
shade
100
AcDbLine
 10
-3831.16237011099
 20
-8417.445262284728
 30
0.0
 11
-3830.522520426722
 21
-8416.945262284727
 31
0.0
  0
LINE
  5
2FCC6
330
A
100
AcDbEntity
  8
shade
100
AcDbLine
 10
-3830.470039277587
 20
-8416.945262284727
 30
0.0
 11
-3831.16237011099
 21
-8417.445262284728
 31
0.0
  0
LINE
  5
2FCC7
330
A
100
AcDbEntity
  8
shade
100
AcDbLine
 10
-3831.068243950245
 20
-8417.445262284728
 30
0.0
 11
-3830.470039277587
 21
-8416.945262284727
 31
0.0
  0
LINE
  5
2FCC8
330
A
100
AcDbEntity
  8
shade
100
AcDbLine
 10
-3830.365904638389
 20
-8416.945262284727
 30
0.0
 11
-3831.068243950245
 21
-8417.445262284728
 31
0.0
  0
LINE
  5
2FCC9
330
A
100
AcDbEntity
  8
shade
100
AcDbLine
 10
-3830.913017249284
 20
-8417.445262284728
 30
0.0
 11
-3830.365904638389
 21
-8416.945262284727
 31
0.0
  0
LINE
  5
2FCCA
330
A
100
AcDbEntity
  8
shade
100
AcDbLine
 10
-3830.211758774593
 20
-8416.945262284727
 30
0.0
 11
-3830.913017249284
 21
-8417.445262284728
 31
0.0
  0
LINE
  5
2FCCB
330
A
100
AcDbEntity
  8
shade
100
AcDbLine
 10
-3830.699138025906
 20
-8417.445262284728
 30
0.0
 11
-3830.211758774593
 21
-8416.945262284727
 31
0.0
  0
LINE
  5
2FCCC
330
A
100
AcDbEntity
  8
shade
100
AcDbLine
 10
-3830.010032658558
 20
-8416.945262284727
 30
0.0
 11
-3830.699138025906
 21
-8417.445262284728
 31
0.0
  0
LINE
  5
2FCCD
330
A
100
AcDbEntity
  8
shade
100
AcDbLine
 10
-3830.429979283231
 20
-8417.445262284728
 30
0.0
 11
-3830.010032658558
 21
-8416.945262284727
 31
0.0
  0
LINE
  5
2FCCE
330
A
100
AcDbEntity
  8
shade
100
AcDbLine
 10
-3829.763907631636
 20
-8416.945262284727
 30
0.0
 11
-3830.429979283231
 21
-8417.445262284728
 31
0.0
  0
LINE
  5
2FCCF
330
A
100
AcDbEntity
  8
shade
100
AcDbLine
 10
-3830.109785815417
 20
-8417.445262284728
 30
0.0
 11
-3829.763907631636
 21
-8416.945262284727
 31
0.0
  0
LINE
  5
2FCD0
330
A
100
AcDbEntity
  8
shade
100
AcDbLine
 10
-3829.477265232529
 20
-8416.945262284727
 30
0.0
 11
-3830.109785815417
 21
-8417.445262284728
 31
0.0
  0
LINE
  5
2FCD1
330
A
100
AcDbEntity
  8
shade
100
AcDbLine
 10
-3829.743607264725
 20
-8417.445262284728
 30
0.0
 11
-3829.477265232529
 21
-8416.945262284727
 31
0.0
  0
LINE
  5
2FCD2
330
A
100
AcDbEntity
  8
shade
100
AcDbLine
 10
-3829.154625983105
 20
-8416.945262284727
 30
0.0
 11
-3829.743607264725
 21
-8417.445262284728
 31
0.0
  0
LINE
  5
2FCD3
330
A
100
AcDbEntity
  8
shade
100
AcDbLine
 10
-3829.337218485648
 20
-8417.445262284728
 30
0.0
 11
-3829.154625983105
 21
-8416.945262284727
 31
0.0
  0
LINE
  5
2FCD4
330
A
100
AcDbEntity
  8
shade
100
AcDbLine
 10
-3828.797908347766
 20
-8416.945262284727
 30
0.0
 11
-3829.337218485648
 21
-8417.445262284728
 31
0.0
  0
LINE
  5
2FCD5
330
A
100
AcDbEntity
  8
shade
100
AcDbLine
 10
-3828.897028471991
 20
-8417.445262284728
 30
0.0
 11
-3828.797908347766
 21
-8416.945262284727
 31
0.0
  0
LINE
  5
2FCD6
330
A
100
AcDbEntity
  8
shade
100
AcDbLine
 10
-3828.419775121298
 20
-8416.945262284727
 30
0.0
 11
-3828.897028471991
 21
-8417.445262284728
 31
0.0
  0
LINE
  5
2FCD7
330
A
100
AcDbEntity
  8
shade
100
AcDbLine
 10
-3828.429979283231
 20
-8417.445262284728
 30
0.0
 11
-3828.419775121298
 21
-8416.945262284727
 31
0.0
  0
LINE
  5
2FCD8
330
A
100
AcDbEntity
  8
shade
100
AcDbLine
 10
-3828.02232229528
 20
-8416.945262284727
 30
0.0
 11
-3828.429979283231
 21
-8417.445262284728
 31
0.0
  0
LINE
  5
2FCD9
330
A
100
AcDbEntity
  8
shade
100
AcDbLine
 10
-3827.943436564074
 20
-8417.445262284728
 30
0.0
 11
-3828.02232229528
 21
-8416.945262284727
 31
0.0
  0
LINE
  5
2FCDA
330
A
100
AcDbEntity
  8
shade
100
AcDbLine
 10
-3827.611817938206
 20
-8416.945262284727
 30
0.0
 11
-3827.943436564074
 21
-8417.445262284728
 31
0.0
  0
LINE
  5
2FCDB
330
A
100
AcDbEntity
  8
shade
100
AcDbLine
 10
-3827.445073383849
 20
-8417.445262284728
 30
0.0
 11
-3827.611817938206
 21
-8416.945262284727
 31
0.0
  0
LINE
  5
2FCDC
330
A
100
AcDbEntity
  8
shade
100
AcDbLine
 10
-3827.193911305731
 20
-8416.945262284727
 30
0.0
 11
-3827.445073383849
 21
-8417.445262284728
 31
0.0
  0
LINE
  5
2FCDD
330
A
100
AcDbEntity
  8
shade
100
AcDbLine
 10
-3829.871507170128
 20
-8423.445262284728
 30
0.0
 11
-3829.871507170128
 21
-8423.945262284728
 31
0.0
  0
LINE
  5
2FCDE
330
A
100
AcDbEntity
  8
shade
100
AcDbLine
 10
-3827.193911305731
 20
-8416.945262284727
 30
0.0
 11
-3830.522520426722
 21
-8416.945262284727
 31
0.0
  0
LINE
  5
2FCDF
330
A
100
AcDbEntity
  8
shade
100
AcDbLine
 10
-3832.193911305731
 20
-8423.445262284728
 30
0.0
 11
-3831.193911305731
 21
-8417.445262284728
 31
0.0
  0
LINE
  5
2FCE0
330
A
100
AcDbEntity
  8
shade
100
AcDbLine
 10
-3831.16237011099
 20
-8417.445262284728
 30
0.0
 11
-3832.154484812303
 21
-8423.445262284728
 31
0.0
  0
LINE
  5
2FCE1
330
A
100
AcDbEntity
  8
shade
100
AcDbLine
 10
-3832.036827111375
 20
-8423.445262284728
 30
0.0
 11
-3831.068243950245
 21
-8417.445262284728
 31
0.0
  0
LINE
  5
2FCE2
330
A
100
AcDbEntity
  8
shade
100
AcDbLine
 10
-3830.913017249284
 20
-8417.445262284728
 30
0.0
 11
-3831.842793735173
 21
-8423.445262284728
 31
0.0
  0
LINE
  5
2FCE3
330
A
100
AcDbEntity
  8
shade
100
AcDbLine
 10
-3830.699138025906
 20
-8417.445262284728
 30
0.0
 11
-3831.57544470595
 21
-8423.445262284728
 31
0.0
  0
LINE
  5
2FCE4
330
A
100
AcDbEntity
  8
shade
100
AcDbLine
 10
-3830.429979283231
 20
-8417.445262284728
 30
0.0
 11
-3831.238996277605
 21
-8423.445262284728
 31
0.0
  0
LINE
  5
2FCE5
330
A
100
AcDbEntity
  8
shade
100
AcDbLine
 10
-3830.109785815417
 20
-8417.445262284728
 30
0.0
 11
-3830.838754442838
 21
-8423.445262284728
 31
0.0
  0
LINE
  5
2FCE6
330
A
100
AcDbEntity
  8
shade
100
AcDbLine
 10
-3829.743607264725
 20
-8417.445262284728
 30
0.0
 11
-3830.381031254474
 21
-8423.445262284728
 31
0.0
  0
LINE
  5
2FCE7
330
A
100
AcDbEntity
  8
shade
100
AcDbLine
 10
-3829.337218485648
 20
-8417.445262284728
 30
0.0
 11
-3829.873045280626
 21
-8423.445262284728
 31
0.0
  0
LINE
  5
2FCE8
330
A
100
AcDbEntity
  8
shade
100
AcDbLine
 10
-3829.322807763556
 20
-8423.445262284728
 30
0.0
 11
-3828.897028471991
 21
-8417.445262284728
 31
0.0
  0
LINE
  5
2FCE9
330
A
100
AcDbEntity
  8
shade
100
AcDbLine
 10
-3828.738996277606
 20
-8423.445262284728
 30
0.0
 11
-3828.429979283231
 21
-8417.445262284728
 31
0.0
  0
LINE
  5
2FCEA
330
A
100
AcDbEntity
  8
shade
100
AcDbLine
 10
-3828.13081787866
 20
-8423.445262284728
 30
0.0
 11
-3827.943436564074
 21
-8417.445262284728
 31
0.0
  0
LINE
  5
2FCEB
330
A
100
AcDbEntity
  8
shade
100
AcDbLine
 10
-3827.445073383849
 20
-8417.445262284728
 30
0.0
 11
-3827.507863903377
 21
-8423.445262284728
 31
0.0
  0
LWPOLYLINE
  5
2FD7B
330
A
100
AcDbEntity
  8
Defpoints
100
AcDbPolyline
 90
        4
 70
     1
 43
0.0
 10
-3922.105001867828
 20
-8586.292078617786
 10
-3712.105001867828
 20
-8586.292078617786
 10
-3712.105001867828
 20
-8289.292078617785
 10
-3922.105001867828
 20
-8289.292078617785
  0
VIEWPORT
  5
7AF4
330
B
100
AcDbEntity
 67
     1
  8
0
370
     0
100
AcDbViewport
 10
128.5
 20
97.5
 30
0.0
 40
314.226
 41
222.18
 68
     2
 69
     1
 12
128.5
 22
97.5
 13
0.0
 23
0.0
 14
10.0
 24
10.0
 15
10.0
 25
10.0
 16
0.0
 26
0.0
 36
1.0
 17
0.0
 27
0.0
 37
0.0
 42
50.0
 43
0.0
 44
0.0
 45
222.18
 50
0.0
 51
0.0
 72
   100
 90
   557152
  1

281
     0
 71
     1
 74
     0
110
0.0
120
0.0
130
0.0
111
1.0
121
0.0
131
0.0
112
0.0
122
1.0
132
0.0
 79
     0
146
0.0
170
     0
 61
     5
348
16E
292
     1
282
     1
141
0.0
142
0.0
 63
   250
421
  3355443
361
7AF5
  0
VIEWPORT
  5
7AF6
330
B
100
AcDbEntity
 67
     1
  8
shade
370
     0
100
AcDbViewport
 10
128.5
 20
97.5
 30
0.0
 40
205.6
 41
156.0
 68
     1
 69
     2
 12
-3053.898918492886
 22
262.0013435347981
 13
0.0
 23
0.0
 14
1.0
 24
1.0
 15
0.0
 25
0.0
 16
0.0
 26
0.0
 36
1.0
 17
0.0
 27
0.0
 37
-112.9712864381978
 42
50.0
 43
0.0
 44
0.0
 45
6373.138014223217
 50
0.0
 51
0.0
 72
   100
 90
   819248
  1

281
     0
 71
     0
 74
     0
110
0.0
120
0.0
130
0.0
111
1.0
121
0.0
131
0.0
112
0.0
122
1.0
132
0.0
 79
     1
146
0.0
170
     0
 61
     5
348
16E
292
     1
282
     1
141
0.0
142
0.0
 63
   250
421
  3355443
361
7AF7
  0
ENDSEC
  0
SECTION
  2
OBJECTS
  0
DICTIONARY
  5
19
330
0
100
AcDbDictionary
281
     1
  3
ACAD_BACKGROUND
350
B4BB
  3
ACAD_CIP_PREVIOUS_PRODUCT_INFO
350
2EAE5
  3
ACAD_COLOR
350
5AA
  3
ACAD_DETAILVIEWSTYLE
350
1D6
  3
ACAD_GROUP
350
1A
  3
ACAD_IMAGE_VARS
350
7535
  3
ACAD_LAYOUT
350
1E
  3
ACAD_MATERIAL
350
1A4
  3
ACAD_MLEADERSTYLE
350
1AA
  3
ACAD_MLINESTYLE
350
1B
  3
ACAD_PLOTSETTINGS
350
22
  3
ACAD_PLOTSTYLENAME
350
1F
  3
ACAD_SCALELIST
350
182
  3
ACAD_SECTIONVIEWSTYLE
350
1D7
  3
ACAD_TABLESTYLE
350
1A8
  3
ACAD_VISUALSTYLE
350
169
  3
ACAD_WIPEOUT_VARS
350
23
  3
AcadDim
350
8F8F
  3
ACDB_RECOMPOSE_DATA
350
2FD99
  3
AcDbVariableDictionary
350
1D1
  3
AcDsDecomposeData
350
2FDA0
  0
SUN
  5
1AD
330
15
100
AcDbSun
 90
        1
290
     0
 63
     7
421
 16777215
 40
1.0
291
     1
 91
  2455826
 92
 54000000
292
     0
 70
     0
 71
   256
280
     1
1001
ACAD
1000
AcDbSavedByObjectVersion
1070
     0
  0
DICTIONARY
  5
1325
330
2
100
AcDbDictionary
280
     1
281
     1
  3
ACAD_LAYERSTATES
360
1326
  0
SUN
  5
7AF5
330
7AF4
100
AcDbSun
 90
        1
290
     0
 63
     7
421
 16777215
 40
1.0
291
     1
 91
  2455826
 92
 54000000
292
     0
 70
     0
 71
   256
280
     1
1001
ACAD
1000
AcDbSavedByObjectVersion
1070
     0
  0
SUN
  5
7AF7
330
7AF6
100
AcDbSun
 90
        1
290
     0
 63
     7
421
 16777215
 40
1.0
291
     1
 91
  2455826
 92
 54000000
292
     0
 70
     0
 71
   256
280
     1
1001
ACAD
1000
AcDbSavedByObjectVersion
1070
     0
  0
DICTIONARY
  5
B4BB
102
{ACAD_REACTORS
330
19
102
}
330
19
100
AcDbDictionary
281
     1
  3
B4BC
350
B4BC
  0
XRECORD
  5
2EAE5
102
{ACAD_REACTORS
330
19
102
}
330
19
100
AcDbXrecord
280
     1
300
ACDLT
300
2015
300
ACDLT_F_S
  0
DICTIONARY
  5
5AA
102
{ACAD_REACTORS
330
19
102
}
330
19
100
AcDbDictionary
281
     1
  0
DICTIONARY
  5
1D6
102
{ACAD_REACTORS
330
19
102
}
330
19
100
AcDbDictionary
281
     1
  3
Metric50
350
2EADB
  0
DICTIONARY
  5
1A
102
{ACAD_REACTORS
330
19
102
}
330
19
100
AcDbDictionary
281
     1
  0
RASTERVARIABLES
  5
7535
102
{ACAD_REACTORS
330
19
102
}
330
19
100
AcDbRasterVariables
 90
        0
 70
     1
 71
     1
 72
     0
  0
DICTIONARY
  5
1E
102
{ACAD_REACTORS
330
19
102
}
330
19
100
AcDbDictionary
281
     1
  3
Layout1
350
21
  3
Model
350
20
  0
DICTIONARY
  5
1A4
102
{ACAD_REACTORS
330
19
102
}
330
19
100
AcDbDictionary
281
     1
  3
ByBlock
350
1A6
  3
ByLayer
350
1A5
  3
Global
350
1A7
  0
DICTIONARY
  5
1AA
102
{ACAD_REACTORS
330
19
102
}
330
19
100
AcDbDictionary
281
     1
  3
A-SC4
350
13DCB
  3
Standard
350
1AB
  0
DICTIONARY
  5
1B
102
{ACAD_REACTORS
330
19
102
}
330
19
100
AcDbDictionary
281
     1
  3
Standard
350
1C
  0
DICTIONARY
  5
22
102
{ACAD_REACTORS
330
19
102
}
330
19
100
AcDbDictionary
281
     1
  0
ACDBDICTIONARYWDFLT
  5
1F
102
{ACAD_REACTORS
330
19
102
}
330
19
100
AcDbDictionary
281
     1
  3
Normal
350
1D
100
AcDbDictionaryWithDefault
340
1D
  0
DICTIONARY
  5
182
102
{ACAD_REACTORS
330
19
102
}
330
19
100
AcDbDictionary
281
     1
  3
A0
350
183
  3
A1
350
184
  3
A2
350
185
  3
A3
350
186
  3
A4
350
187
  3
A5
350
188
  3
A6
350
189
  3
A7
350
18A
  3
A8
350
18B
  3
A9
350
18C
  3
B0
350
18D
  3
B1
350
18E
  3
B2
350
18F
  3
B3
350
190
  3
B4
350
191
  3
B5
350
192
  3
B6
350
193
  3
B7
350
194
  3
B8
350
195
  3
B9
350
196
  3
C0
350
197
  3
C1
350
198
  3
C2
350
199
  3
C3
350
19A
  3
C4
350
19B
  3
C5
350
19C
  3
C6
350
19D
  3
C7
350
19E
  3
C8
350
19F
  3
C9
350
1A0
  3
D0
350
1A1
  3
D1
350
1A2
  3
D2
350
1A3
  0
DICTIONARY
  5
1D7
102
{ACAD_REACTORS
330
19
102
}
330
19
100
AcDbDictionary
281
     1
  3
Metric50
350
2EADA
  0
DICTIONARY
  5
1A8
102
{ACAD_REACTORS
330
19
102
}
330
19
100
AcDbDictionary
281
     1
  3
Standard
350
1A9
  0
DICTIONARY
  5
169
102
{ACAD_REACTORS
330
19
102
}
330
19
100
AcDbDictionary
281
     1
  3
2dWireframe
350
16E
  3
Basic
350
171
  3
Brighten
350
175
  3
ColorChange
350
179
  3
Conceptual
350
173
  3
Dim
350
174
  3
EdgeColorOff
350
17C
  3
Facepattern
350
178
  3
Flat
350
16A
  3
FlatWithEdges
350
16B
  3
Gouraud
350
16C
  3
GouraudWithEdges
350
16D
  3
Hidden
350
170
  3
JitterOff
350
17A
  3
Linepattern
350
177
  3
Modeling
350
1AC
  3
OverhangOff
350
17B
  3
Realistic
350
172
  3
Shaded
350
181
  3
Shaded with edges
350
180
  3
Shades of Gray
350
17D
  3
Sketchy
350
17E
  3
Thicken
350
176
  3
Wireframe
350
16F
  3
X-Ray
350
17F
  0
WIPEOUTVARIABLES
  5
23
330
19
100
AcDbWipeoutVariables
 70
     1
  0
XRECORD
  5
8F8F
102
{ACAD_REACTORS
330
19
102
}
330
19
100
AcDbXrecord
280
     1
 90
   990106
  3
_Open
 60
     0
 61
     0
 62
     1
 63
     3
 64
     0
 65
     0
 66
     0
 67
     2
 68
     1
 69
     0
 70
     0
 71
     0
 72
     0
 40
0.0
170
     0
340
0
  0
XRECORD
  5
2FD99
102
{ACAD_REACTORS
330
19
102
}
330
19
100
AcDbXrecord
280
     1
 90
        1
330
1A9
  0
DICTIONARY
  5
1D1
102
{ACAD_REACTORS
330
19
102
}
330
19
100
AcDbDictionary
281
     1
  3
CANNOSCALE
350
1D2
  3
CMLEADERSTYLE
350
1D4
  3
CTABLESTYLE
350
1D3
  3
CVIEWDETAILSTYLE
350
2EBAF
  3
CVIEWSECTIONSTYLE
350
2EBB0
  3
MSLTSCALE
350
1D5
  0
DICTIONARY
  5
2FDA0
102
{ACAD_REACTORS
330
19
102
}
330
19
100
AcDbDictionary
281
     1
  3
AcDsRecords
350
2FDA2
  3
AcDsSchemas
350
2FDA1
1001
ACAD
1070
     2
  0
DICTIONARY
  5
1326
102
{ACAD_REACTORS
330
1325
102
}
330
1325
100
AcDbDictionary
281
     1
  0
GRADIENT_BACKGROUND
  5
B4BC
102
{ACAD_REACTORS
330
B4BB
102
}
330
B4BB
100
AcDbGradientBackground
 90
-1040187137
 91
-1031765761
 92
-1023410177
140
0.0
141
0.5
142
0.0
  0
ACDBDETAILVIEWSTYLE
  5
2EADB
102
{ACAD_XDICTIONARY
360
2EBAC
102
}
102
{ACAD_REACTORS
330
1D6
102
}
330
1D6
100
AcDbModelDocViewStyle
 70
     0
  3
Metric50
290
     0
100
AcDbDetailViewStyle
 70
     0
 71
     0
 90
        3
 71
     1
340
17
 62
   256
 40
5.0
340
0
 62
   256
 40
5.0
300

 40
0.0
280
     1
 71
     2
340
13
 90
       25
 62
   256
 71
     3
340
17
 62
   256
 40
5.0
 90
        0
 40
15.0
 90
        1
300
%<\AcVar ViewDetailId>% (%<\AcVar ViewScale \f "%sn">%)
 71
     4
340
13
 90
       25
 62
   256
340
13
 90
       25
 62
   256
280
     0
  0
LAYOUT
  5
21
102
{ACAD_REACTORS
330
1E
102
}
330
1E
100
AcDbPlotSettings
  1

  2
none_device
  4
ISO_A4_(210.00_x_297.00_MM)
  6

 40
7.5
 41
20.0
 42
7.5
 43
20.0
 44
210.0
 45
297.0
 46
0.0
 47
0.0
 48
0.0
 49
0.0
140
0.0
141
0.0
142
1.0
143
1.0
 70
     0
 72
     1
 73
     1
 74
     5
  7
SCDX.ctb
 75
     0
147
1.0
 76
     0
 77
     2
 78
   300
148
0.0
149
0.0
100
AcDbLayout
  1
Layout1
 70
     0
 71
     1
 10
-20.0
 20
-7.5
 11
277.0
 21
202.5
 12
0.0
 22
0.0
 32
0.0
 14
25.69999999999999
 24
19.5
 34
0.0
 15
231.3
 25
175.5
 35
0.0
146
0.0
 13
0.0
 23
0.0
 33
0.0
 16
1.0
 26
0.0
 36
0.0
 17
0.0
 27
1.0
 37
0.0
 76
     0
330
B
331
7AF6
  0
LAYOUT
  5
20
102
{ACAD_REACTORS
330
1E
102
}
330
1E
100
AcDbPlotSettings
  1

  2
Microsoft Print to PDF
  4
A4
  6

 40
0.0
 41
0.0
 42
0.0
 43
0.0
 44
210.0
 45
297.0
 46
0.0
 47
0.0
 48
-3712.105000000001
 49
-8586.292100000001
140
-3502.105
141
-8289.2921
142
1.0
143
1.0
 70
  3252
 72
     1
 73
     0
 74
     4
  7
SCDX.ctb
 75
     0
147
1.0
 76
     0
 77
     2
 78
   300
148
7431.750238437089
149
17058.28335683443
100
AcDbLayout
  1
Model
 70
     0
 71
     0
 10
0.0
 20
0.0
 11
0.0
 21
0.0
 12
0.0
 22
0.0
 32
0.0
 14
-6186.466537196301
 24
-9694.641887159072
 34
0.0
 15
12172.66657025755
 25
881.8642087275602
 35
0.0000000000000909
146
0.0
 13
0.0
 23
0.0
 33
0.0
 16
0.0
 26
0.0
 36
0.0
 17
0.0
 27
0.0
 37
0.0
 76
     0
330
A
331
15
1001
ACAD_PSEXT
1000
CubePDF
1000
CubePDF
1000
CubePDF:
1000
CubePDF
1070
     0
  0
MATERIAL
  5
1A6
102
{ACAD_REACTORS
330
1A4
102
}
330
1A4
100
AcDbMaterial
  1
ByBlock
 73
     1
 78
     1
172
     1
176
     1
270
     1
274
     1
  0
MATERIAL
  5
1A5
102
{ACAD_REACTORS
330
1A4
102
}
330
1A4
100
AcDbMaterial
  1
ByLayer
 73
     1
 78
     1
172
     1
176
     1
270
     1
274
     1
  0
MATERIAL
  5
1A7
102
{ACAD_XDICTIONARY
360
2EBC6
102
}
102
{ACAD_REACTORS
330
1A4
102
}
330
1A4
100
AcDbMaterial
  1
Global
 73
     1
 78
     1
172
     1
176
     1
270
     1
274
     1
  0
MLEADERSTYLE
  5
13DCB
102
{ACAD_REACTORS
330
1AA
102
}
330
1AA
100
AcDbMLeaderStyle
179
     2
170
     2
171
     1
172
     0
 90
        2
 40
0.0
 41
0.0
173
     1
 91
-1056964608
340
11
 92
       -2
290
     1
 42
2.0
291
     1
 43
8.0
  3

 44
4.0
300

342
17
174
     1
178
     1
175
     1
176
     0
 93
-1056964608
 45
4.0
292
     0
297
     0
 46
4.0
 94
-1056964608
 47
1.0
 49
1.0
140
1.0
293
     1
141
0.0
294
     1
177
     0
142
1.0
295
     0
296
     0
143
3.75
271
     0
272
     9
273
     9
  0
MLEADERSTYLE
  5
1AB
102
{ACAD_XDICTIONARY
360
2FDD3
102
}
102
{ACAD_REACTORS
330
1AA
102
}
330
1AA
100
AcDbMLeaderStyle
179
     2
170
     2
171
     1
172
     0
 90
        2
 40
0.0
 41
0.0
173
     1
 91
-1056964608
340
11
 92
       -2
290
     1
 42
2.0
291
     1
 43
8.0
  3
Standard
341
753D
 44
3.0
300

342
17
174
     4
178
     5
175
     1
176
     0
 93
-1023410172
 45
2.5
292
     0
297
     0
 46
4.0
 94
-1056964608
 47
1.0
 49
1.0
140
1.0
293
     1
141
0.0
294
     1
177
     0
142
1.0
295
     0
296
     0
143
3.75
271
     0
272
     9
273
     9
  0
MLINESTYLE
  5
1C
102
{ACAD_REACTORS
330
1B
102
}
330
1B
100
AcDbMlineStyle
  2
STANDARD
 70
     0
  3

 62
     0
 51
90.0
 52
90.0
 71
     2
 49
0.5
 62
   256
  6
BYLAYER
 49
-0.5
 62
   256
  6
BYLAYER
  0
ACDBPLACEHOLDER
  5
1D
102
{ACAD_REACTORS
330
1F
102
}
330
1F
  0
SCALE
  5
183
102
{ACAD_REACTORS
330
182
102
}
330
182
100
AcDbScale
 70
     0
300
1:1
140
1.0
141
1.0
290
     1
  0
SCALE
  5
184
102
{ACAD_REACTORS
330
182
102
}
330
182
100
AcDbScale
 70
     0
300
1:2
140
1.0
141
2.0
290
     0
  0
SCALE
  5
185
102
{ACAD_REACTORS
330
182
102
}
330
182
100
AcDbScale
 70
     0
300
1:4
140
1.0
141
4.0
290
     0
  0
SCALE
  5
186
102
{ACAD_REACTORS
330
182
102
}
330
182
100
AcDbScale
 70
     0
300
1:5
140
1.0
141
5.0
290
     0
  0
SCALE
  5
187
102
{ACAD_REACTORS
330
182
102
}
330
182
100
AcDbScale
 70
     0
300
1:8
140
1.0
141
8.0
290
     0
  0
SCALE
  5
188
102
{ACAD_REACTORS
330
182
102
}
330
182
100
AcDbScale
 70
     0
300
1:10
140
1.0
141
10.0
290
     0
  0
SCALE
  5
189
102
{ACAD_REACTORS
330
182
102
}
330
182
100
AcDbScale
 70
     0
300
1:16
140
1.0
141
16.0
290
     0
  0
SCALE
  5
18A
102
{ACAD_REACTORS
330
182
102
}
330
182
100
AcDbScale
 70
     0
300
1:20
140
1.0
141
20.0
290
     0
  0
SCALE
  5
18B
102
{ACAD_REACTORS
330
182
102
}
330
182
100
AcDbScale
 70
     0
300
1:30
140
1.0
141
30.0
290
     0
  0
SCALE
  5
18C
102
{ACAD_REACTORS
330
182
102
}
330
182
100
AcDbScale
 70
     0
300
1:40
140
1.0
141
40.0
290
     0
  0
SCALE
  5
18D
102
{ACAD_REACTORS
330
182
102
}
330
182
100
AcDbScale
 70
     0
300
1:50
140
1.0
141
50.0
290
     0
  0
SCALE
  5
18E
102
{ACAD_REACTORS
330
182
102
}
330
182
100
AcDbScale
 70
     0
300
1:100
140
1.0
141
100.0
290
     0
  0
SCALE
  5
18F
102
{ACAD_REACTORS
330
182
102
}
330
182
100
AcDbScale
 70
     0
300
2:1
140
2.0
141
1.0
290
     0
  0
SCALE
  5
190
102
{ACAD_REACTORS
330
182
102
}
330
182
100
AcDbScale
 70
     0
300
4:1
140
4.0
141
1.0
290
     0
  0
SCALE
  5
191
102
{ACAD_REACTORS
330
182
102
}
330
182
100
AcDbScale
 70
     0
300
8:1
140
8.0
141
1.0
290
     0
  0
SCALE
  5
192
102
{ACAD_REACTORS
330
182
102
}
330
182
100
AcDbScale
 70
     0
300
10:1
140
10.0
141
1.0
290
     0
  0
SCALE
  5
193
102
{ACAD_REACTORS
330
182
102
}
330
182
100
AcDbScale
 70
     0
300
100:1
140
100.0
141
1.0
290
     0
  0
SCALE
  5
194
102
{ACAD_REACTORS
330
182
102
}
330
182
100
AcDbScale
 70
     0
300
1/128" = 1'-0"
140
0.0078125
141
12.0
290
     0
  0
SCALE
  5
195
102
{ACAD_REACTORS
330
182
102
}
330
182
100
AcDbScale
 70
     0
300
1/64" = 1'-0"
140
0.015625
141
12.0
290
     0
  0
SCALE
  5
196
102
{ACAD_REACTORS
330
182
102
}
330
182
100
AcDbScale
 70
     0
300
1/32" = 1'-0"
140
0.03125
141
12.0
290
     0
  0
SCALE
  5
197
102
{ACAD_REACTORS
330
182
102
}
330
182
100
AcDbScale
 70
     0
300
1/16" = 1'-0"
140
0.0625
141
12.0
290
     0
  0
SCALE
  5
198
102
{ACAD_REACTORS
330
182
102
}
330
182
100
AcDbScale
 70
     0
300
3/32" = 1'-0"
140
0.09375
141
12.0
290
     0
  0
SCALE
  5
199
102
{ACAD_REACTORS
330
182
102
}
330
182
100
AcDbScale
 70
     0
300
1/8" = 1'-0"
140
0.125
141
12.0
290
     0
  0
SCALE
  5
19A
102
{ACAD_REACTORS
330
182
102
}
330
182
100
AcDbScale
 70
     0
300
3/16" = 1'-0"
140
0.1875
141
12.0
290
     0
  0
SCALE
  5
19B
102
{ACAD_REACTORS
330
182
102
}
330
182
100
AcDbScale
 70
     0
300
1/4" = 1'-0"
140
0.25
141
12.0
290
     0
  0
SCALE
  5
19C
102
{ACAD_REACTORS
330
182
102
}
330
182
100
AcDbScale
 70
     0
300
3/8" = 1'-0"
140
0.375
141
12.0
290
     0
  0
SCALE
  5
19D
102
{ACAD_REACTORS
330
182
102
}
330
182
100
AcDbScale
 70
     0
300
1/2" = 1'-0"
140
0.5
141
12.0
290
     0
  0
SCALE
  5
19E
102
{ACAD_REACTORS
330
182
102
}
330
182
100
AcDbScale
 70
     0
300
3/4" = 1'-0"
140
0.75
141
12.0
290
     0
  0
SCALE
  5
19F
102
{ACAD_REACTORS
330
182
102
}
330
182
100
AcDbScale
 70
     0
300
1" = 1'-0"
140
1.0
141
12.0
290
     0
  0
SCALE
  5
1A0
102
{ACAD_REACTORS
330
182
102
}
330
182
100
AcDbScale
 70
     0
300
1-1/2" = 1'-0"
140
1.5
141
12.0
290
     0
  0
SCALE
  5
1A1
102
{ACAD_REACTORS
330
182
102
}
330
182
100
AcDbScale
 70
     0
300
3" = 1'-0"
140
3.0
141
12.0
290
     0
  0
SCALE
  5
1A2
102
{ACAD_REACTORS
330
182
102
}
330
182
100
AcDbScale
 70
     0
300
6" = 1'-0"
140
6.0
141
12.0
290
     0
  0
SCALE
  5
1A3
102
{ACAD_REACTORS
330
182
102
}
330
182
100
AcDbScale
 70
     0
300
1'-0" = 1'-0"
140
12.0
141
12.0
290
     0
  0
ACDBSECTIONVIEWSTYLE
  5
2EADA
102
{ACAD_XDICTIONARY
360
2EBAA
102
}
102
{ACAD_REACTORS
330
1D7
102
}
330
1D7
100
AcDbModelDocViewStyle
 70
     0
  3
Metric50
290
     0
100
AcDbSectionViewStyle
 70
     0
 71
     0
 90
      102
 71
     1
340
17
 62
   256
 40
5.0
340
0
340
0
 62
   256
 40
5.0
300
I, O, Q, S, X, Z
 40
10.0
 90
        0
 40
2.5
 90
        0
 71
     2
340
13
 90
       25
 62
   256
340
13
 90
       50
 62
   256
 40
5.0
 40
2.5
 40
5.0
 71
     3
340
17
 62
   256
 40
5.0
 90
        0
 40
15.0
 90
        1
300
%<\AcVar ViewSectionStartId>%-%<\AcVar ViewSectionEndId>% (%<\AcVar ViewScale \f "%sn">%)
 71
     4
 62
   256
 62
   257
300
ANSI31
 40
1.0
 90
        0
290
     0
290
     0
 90
        6
 40
0.0
 40
1.570796326794896
 40
0.2617993877991494
 40
1.308996938995747
 40
-0.2617993877991494
 40
1.832595714594046
  0
TABLESTYLE
  5
1A9
102
{ACAD_XDICTIONARY
360
2FD97
102
}
102
{ACAD_REACTORS
330
1A8
102
}
330
1A8
100
AcDbTableStyle
280
     0
  3
Standard
 70
     0
 71
     0
 40
1.5
 41
1.5
280
     0
281
     0
  7
Standard
140
4.5
170
     2
 62
     0
 63
     7
283
     0
 90
        4
 91
        0
  1

274
    -2
284
     1
 64
     0
275
    -2
285
     1
 65
     0
276
    -2
286
     1
 66
     0
277
    -2
287
     1
 67
     0
278
    -2
288
     1
 68
     0
279
    -2
289
     1
 69
     0
  7
Standard
140
6.0
170
     5
 62
     0
 63
     7
283
     0
 90
        4
 91
        0
  1

274
    -2
284
     1
 64
     0
275
    -2
285
     1
 65
     0
276
    -2
286
     1
 66
     0
277
    -2
287
     1
 67
     0
278
    -2
288
     1
 68
     0
279
    -2
289
     1
 69
     0
  7
Standard
140
4.5
170
     5
 62
     0
 63
     7
283
     0
 90
        4
 91
        0
  1

274
    -2
284
     1
 64
     0
275
    -2
285
     1
 65
     0
276
    -2
286
     1
 66
     0
277
    -2
287
     1
 67
     0
278
    -2
288
     1
 68
     0
279
    -2
289
     1
 69
     0
  0
VISUALSTYLE
  5
16E
102
{ACAD_XDICTIONARY
360
2FDAB
102
}
102
{ACAD_REACTORS
330
169
102
}
330
169
100
AcDbVisualStyle
  2
2dWireframe
 70
     4
177
     2
291
     0
 71
     0
176
     1
 72
     2
176
     1
 73
     0
176
     1
 90
        0
176
     1
 40
0.6
176
     1
 41
30.0
176
     1
 63
     7
421
 16777215
176
     1
 74
     1
176
     1
 91
        4
176
     1
 64
     7
176
     1
 65
   257
176
     1
 75
     1
176
     1
175
     1
176
     1
 42
1.0
176
     1
 92
        0
176
     1
 66
   257
176
     1
 43
1.0
176
     1
 76
     1
176
     1
 77
     6
176
     1
 78
     2
176
     1
 67
     7
176
     1
 79
     5
176
     1
170
     0
176
     1
171
     0
176
     1
290
     0
176
     1
 93
        1
176
     1
 44
0.0
176
     1
173
     0
176
     1
1001
ACAD
1000
AcDbSavedByObjectVersion
1070
     0
  0
VISUALSTYLE
  5
171
102
{ACAD_XDICTIONARY
360
2FDB1
102
}
102
{ACAD_REACTORS
330
169
102
}
330
169
100
AcDbVisualStyle
  2
Basic
 70
     7
177
     2
291
     1
 71
     1
176
     1
 72
     0
176
     1
 73
     1
176
     1
 90
        0
176
     1
 40
0.6
176
     1
 41
30.0
176
     1
 63
     7
421
 16777215
176
     1
 74
     0
176
     1
 91
        4
176
     1
 64
     7
176
     1
 65
   257
176
     1
 75
     1
176
     1
175
     1
176
     1
 42
1.0
176
     1
 92
        8
176
     1
 66
     7
176
     1
 43
1.0
176
     1
 76
     1
176
     1
 77
     6
176
     1
 78
     2
176
     1
 67
     7
176
     1
 79
     5
176
     1
170
     0
176
     1
171
     0
176
     1
290
     0
176
     1
 93
        1
176
     1
 44
0.0
176
     1
173
     0
176
     1
1001
ACAD
1000
AcDbSavedByObjectVersion
1070
     0
  0
VISUALSTYLE
  5
175
102
{ACAD_XDICTIONARY
360
2FDB9
102
}
102
{ACAD_REACTORS
330
169
102
}
330
169
100
AcDbVisualStyle
  2
Brighten
 70
    12
177
     2
291
     1
 71
     2
176
     1
 72
     2
176
     1
 73
     0
176
     1
 90
        0
176
     1
 40
0.6
176
     1
 41
30.0
176
     1
 63
     7
421
 16777215
176
     1
 74
     1
176
     1
 91
        4
176
     1
 64
     7
176
     1
 65
   257
176
     1
 75
     1
176
     1
175
     1
176
     1
 42
1.0
176
     1
 92
        8
176
     1
 66
     7
176
     1
 43
1.0
176
     1
 76
     1
176
     1
 77
     6
176
     1
 78
     2
176
     1
 67
     7
176
     1
 79
     5
176
     1
170
     0
176
     1
171
     0
176
     1
290
     0
176
     1
 93
        1
176
     1
 44
50.0
176
     1
173
     0
176
     1
1001
ACAD
1000
AcDbSavedByObjectVersion
1070
     0
  0
VISUALSTYLE
  5
179
102
{ACAD_XDICTIONARY
360
2FDC1
102
}
102
{ACAD_REACTORS
330
169
102
}
330
169
100
AcDbVisualStyle
  2
ColorChange
 70
    16
177
     2
291
     1
 71
     2
176
     1
 72
     2
176
     1
 73
     3
176
     1
 90
        0
176
     1
 40
0.6
176
     1
 41
30.0
176
     1
 63
     8
421
  8421504
176
     1
 74
     1
176
     1
 91
        4
176
     1
 64
     7
176
     1
 65
   257
176
     1
 75
     1
176
     1
175
     1
176
     1
 42
1.0
176
     1
 92
        8
176
     1
 66
     8
424
  8421504
176
     1
 43
1.0
176
     1
 76
     1
176
     1
 77
     6
176
     1
 78
     2
176
     1
 67
     7
176
     1
 79
     5
176
     1
170
     0
176
     1
171
     0
176
     1
290
     0
176
     1
 93
        1
176
     1
 44
0.0
176
     1
173
     0
176
     1
1001
ACAD
1000
AcDbSavedByObjectVersion
1070
     0
  0
VISUALSTYLE
  5
173
102
{ACAD_XDICTIONARY
360
2FDB5
102
}
102
{ACAD_REACTORS
330
169
102
}
330
169
100
AcDbVisualStyle
  2
Conceptual
 70
     9
177
     2
291
     0
 71
     3
176
     1
 72
     2
176
     1
 73
     0
176
     1
 90
        0
176
     1
 40
0.6
176
     1
 41
30.0
176
     1
 63
     7
421
 16777215
176
     1
 74
     2
176
     1
 91
        2
176
     1
 64
     7
176
     1
 65
   257
176
     1
 75
     1
176
     1
175
     1
176
     1
 42
179.0
176
     1
 92
        8
176
     1
 66
     7
176
     1
 43
1.0
176
     1
 76
     1
176
     1
 77
     6
176
     1
 78
     2
176
     1
 67
     7
176
     1
 79
     3
176
     1
170
     0
176
     1
171
     0
176
     1
290
     0
176
     1
 93
        1
176
     1
 44
0.0
176
     1
173
     0
176
     1
1001
ACAD
1000
AcDbSavedByObjectVersion
1070
     0
  0
VISUALSTYLE
  5
174
102
{ACAD_XDICTIONARY
360
2FDB7
102
}
102
{ACAD_REACTORS
330
169
102
}
330
169
100
AcDbVisualStyle
  2
Dim
 70
    11
177
     2
291
     1
 71
     2
176
     1
 72
     2
176
     1
 73
     0
176
     1
 90
        0
176
     1
 40
0.6
176
     1
 41
30.0
176
     1
 63
     7
421
 16777215
176
     1
 74
     1
176
     1
 91
        4
176
     1
 64
     7
176
     1
 65
   257
176
     1
 75
     1
176
     1
175
     1
176
     1
 42
1.0
176
     1
 92
        8
176
     1
 66
     7
176
     1
 43
1.0
176
     1
 76
     1
176
     1
 77
     6
176
     1
 78
     2
176
     1
 67
     7
176
     1
 79
     5
176
     1
170
     0
176
     1
171
     0
176
     1
290
     0
176
     1
 93
        1
176
     1
 44
-50.0
176
     1
173
     0
176
     1
1001
ACAD
1000
AcDbSavedByObjectVersion
1070
     0
  0
VISUALSTYLE
  5
17C
102
{ACAD_XDICTIONARY
360
2FDC7
102
}
102
{ACAD_REACTORS
330
169
102
}
330
169
100
AcDbVisualStyle
  2
EdgeColorOff
 70
    22
177
     2
291
     1
 71
     2
176
     0
 72
     2
176
     0
 73
     0
176
     0
 90
        0
176
     0
 40
0.6
176
     0
 41
30.0
176
     0
 63
     7
421
 16777215
176
     0
 74
     1
176
     0
 91
        4
176
     0
 64
     7
176
     0
 65
   257
176
     0
 75
     1
176
     0
175
     1
176
     0
 42
1.0
176
     0
 92
        8
176
     2
 66
     7
176
     0
 43
1.0
176
     0
 76
     1
176
     0
 77
     6
176
     0
 78
     2
176
     0
 67
     7
176
     0
 79
     5
176
     0
170
     0
176
     0
171
     0
176
     0
290
     0
176
     0
 93
        1
176
     0
 44
0.0
176
     0
173
     0
176
     0
1001
ACAD
1000
AcDbSavedByObjectVersion
1070
     0
  0
VISUALSTYLE
  5
178
102
{ACAD_XDICTIONARY
360
2FDBF
102
}
102
{ACAD_REACTORS
330
169
102
}
330
169
100
AcDbVisualStyle
  2
Facepattern
 70
    15
177
     2
291
     1
 71
     2
176
     1
 72
     2
176
     1
 73
     0
176
     1
 90
        0
176
     1
 40
0.6
176
     1
 41
30.0
176
     1
 63
     7
421
 16777215
176
     1
 74
     1
176
     1
 91
        4
176
     1
 64
     7
176
     1
 65
   257
176
     1
 75
     1
176
     1
175
     1
176
     1
 42
1.0
176
     1
 92
        8
176
     1
 66
     7
176
     1
 43
1.0
176
     1
 76
     1
176
     1
 77
     6
176
     1
 78
     2
176
     1
 67
     7
176
     1
 79
     5
176
     1
170
     0
176
     1
171
     0
176
     1
290
     0
176
     1
 93
        1
176
     1
 44
0.0
176
     1
173
     0
176
     1
1001
ACAD
1000
AcDbSavedByObjectVersion
1070
     0
  0
VISUALSTYLE
  5
16A
102
{ACAD_XDICTIONARY
360
2FDA3
102
}
102
{ACAD_REACTORS
330
169
102
}
330
169
100
AcDbVisualStyle
  2
Flat
 70
     0
177
     2
291
     1
 71
     2
176
     1
 72
     1
176
     1
 73
     1
176
     1
 90
        2
176
     1
 40
0.6
176
     1
 41
30.0
176
     1
 63
     7
421
 16777215
176
     1
 74
     0
176
     1
 91
        0
176
     1
 64
     7
176
     1
 65
   257
176
     1
 75
     1
176
     1
175
     1
176
     1
 42
1.0
176
     1
 92
        8
176
     1
 66
     7
176
     1
 43
1.0
176
     1
 76
     1
176
     1
 77
     6
176
     1
 78
     2
176
     1
 67
     7
176
     1
 79
     5
176
     1
170
     0
176
     1
171
     0
176
     1
290
     0
176
     1
 93
       13
176
     1
 44
0.0
176
     1
173
     0
176
     1
1001
ACAD
1000
AcDbSavedByObjectVersion
1070
     0
  0
VISUALSTYLE
  5
16B
102
{ACAD_XDICTIONARY
360
2FDA5
102
}
102
{ACAD_REACTORS
330
169
102
}
330
169
100
AcDbVisualStyle
  2
FlatWithEdges
 70
     1
177
     2
291
     1
 71
     2
176
     1
 72
     1
176
     1
 73
     1
176
     1
 90
        2
176
     1
 40
0.6
176
     1
 41
30.0
176
     1
 63
     7
421
 16777215
176
     1
 74
     1
176
     1
 91
        0
176
     1
 64
     7
176
     1
 65
   257
176
     1
 75
     1
176
     1
175
     1
176
     1
 42
1.0
176
     1
 92
        0
176
     1
 66
   257
176
     1
 43
1.0
176
     1
 76
     1
176
     1
 77
     6
176
     1
 78
     2
176
     1
 67
     7
176
     1
 79
     5
176
     1
170
     0
176
     1
171
     0
176
     1
290
     0
176
     1
 93
       13
176
     1
 44
0.0
176
     1
173
     0
176
     1
1001
ACAD
1000
AcDbSavedByObjectVersion
1070
     0
  0
VISUALSTYLE
  5
16C
102
{ACAD_XDICTIONARY
360
2FDA7
102
}
102
{ACAD_REACTORS
330
169
102
}
330
169
100
AcDbVisualStyle
  2
Gouraud
 70
     2
177
     2
291
     1
 71
     2
176
     1
 72
     2
176
     1
 73
     1
176
     1
 90
        2
176
     1
 40
0.6
176
     1
 41
30.0
176
     1
 63
     7
421
 16777215
176
     1
 74
     0
176
     1
 91
        0
176
     1
 64
     7
176
     1
 65
   257
176
     1
 75
     1
176
     1
175
     1
176
     1
 42
1.0
176
     1
 92
        0
176
     1
 66
     7
176
     1
 43
1.0
176
     1
 76
     1
176
     1
 77
     6
176
     1
 78
     2
176
     1
 67
     7
176
     1
 79
     5
176
     1
170
     0
176
     1
171
     0
176
     1
290
     0
176
     1
 93
       13
176
     1
 44
0.0
176
     1
173
     0
176
     1
1001
ACAD
1000
AcDbSavedByObjectVersion
1070
     0
  0
VISUALSTYLE
  5
16D
102
{ACAD_XDICTIONARY
360
2FDA9
102
}
102
{ACAD_REACTORS
330
169
102
}
330
169
100
AcDbVisualStyle
  2
GouraudWithEdges
 70
     3
177
     2
291
     1
 71
     2
176
     1
 72
     2
176
     1
 73
     1
176
     1
 90
        2
176
     1
 40
0.6
176
     1
 41
30.0
176
     1
 63
     7
421
 16777215
176
     1
 74
     1
176
     1
 91
        0
176
     1
 64
     7
176
     1
 65
   257
176
     1
 75
     1
176
     1
175
     1
176
     1
 42
1.0
176
     1
 92
        0
176
     1
 66
   257
176
     1
 43
1.0
176
     1
 76
     1
176
     1
 77
     6
176
     1
 78
     2
176
     1
 67
     7
176
     1
 79
     5
176
     1
170
     0
176
     1
171
     0
176
     1
290
     0
176
     1
 93
       13
176
     1
 44
0.0
176
     1
173
     0
176
     1
1001
ACAD
1000
AcDbSavedByObjectVersion
1070
     0
  0
VISUALSTYLE
  5
170
102
{ACAD_XDICTIONARY
360
2FDAF
102
}
102
{ACAD_REACTORS
330
169
102
}
330
169
100
AcDbVisualStyle
  2
Hidden
 70
     6
177
     2
291
     0
 71
     1
176
     1
 72
     2
176
     1
 73
     2
176
     1
 90
        0
176
     1
 40
0.6
176
     1
 41
30.0
176
     1
 63
     7
421
 16777215
176
     1
 74
     2
176
     1
 91
        2
176
     1
 64
     7
176
     1
 65
   257
176
     1
 75
     2
176
     1
175
     1
176
     1
 42
40.0
176
     1
 92
        0
176
     1
 66
   257
176
     1
 43
1.0
176
     1
 76
     1
176
     1
 77
     6
176
     1
 78
     2
176
     1
 67
     7
176
     1
 79
     3
176
     1
170
     0
176
     1
171
     0
176
     1
290
     0
176
     1
 93
        1
176
     1
 44
0.0
176
     1
173
     0
176
     1
1001
ACAD
1000
AcDbSavedByObjectVersion
1070
     0
  0
VISUALSTYLE
  5
17A
102
{ACAD_XDICTIONARY
360
2FDC3
102
}
102
{ACAD_REACTORS
330
169
102
}
330
169
100
AcDbVisualStyle
  2
JitterOff
 70
    20
177
     2
291
     1
 71
     2
176
     0
 72
     2
176
     0
 73
     0
176
     0
 90
        0
176
     0
 40
0.6
176
     0
 41
30.0
176
     0
 63
     7
421
 16777215
176
     0
 74
     1
176
     0
 91
        4
176
     0
 64
     7
176
     0
 65
   257
176
     0
 75
     1
176
     0
175
     1
176
     0
 42
1.0
176
     0
 92
       10
176
     2
 66
     7
176
     0
 43
1.0
176
     0
 76
     1
176
     0
 77
     6
176
     0
 78
     2
176
     0
 67
     7
176
     0
 79
     5
176
     0
170
     0
176
     0
171
     0
176
     0
290
     0
176
     0
 93
        1
176
     0
 44
0.0
176
     0
173
     0
176
     0
1001
ACAD
1000
AcDbSavedByObjectVersion
1070
     0
  0
VISUALSTYLE
  5
177
102
{ACAD_XDICTIONARY
360
2FDBD
102
}
102
{ACAD_REACTORS
330
169
102
}
330
169
100
AcDbVisualStyle
  2
Linepattern
 70
    14
177
     2
291
     1
 71
     2
176
     1
 72
     2
176
     1
 73
     0
176
     1
 90
        0
176
     1
 40
0.6
176
     1
 41
30.0
176
     1
 63
     7
421
 16777215
176
     1
 74
     1
176
     1
 91
        4
176
     1
 64
     7
176
     1
 65
   257
176
     1
 75
     7
176
     1
175
     7
176
     1
 42
1.0
176
     1
 92
        8
176
     1
 66
     7
176
     1
 43
1.0
176
     1
 76
     1
176
     1
 77
     6
176
     1
 78
     2
176
     1
 67
     7
176
     1
 79
     5
176
     1
170
     0
176
     1
171
     0
176
     1
290
     0
176
     1
 93
        1
176
     1
 44
0.0
176
     1
173
     0
176
     1
1001
ACAD
1000
AcDbSavedByObjectVersion
1070
     0
  0
VISUALSTYLE
  5
1AC
102
{ACAD_XDICTIONARY
360
2FDD5
102
}
102
{ACAD_REACTORS
330
169
102
}
330
169
100
AcDbVisualStyle
  2

 70
    10
177
     2
291
     0
 71
     2
176
     1
 72
     3
176
     1
 73
     0
176
     1
 90
        2
176
     1
 40
0.6
176
     1
 41
30.0
176
     1
 63
     7
421
 16777215
176
     1
 74
     2
176
     1
 91
        0
176
     1
 64
     7
176
     1
 65
   257
176
     1
 75
     1
176
     1
175
     1
176
     1
 42
180.0
176
     1
 92
        8
176
     1
 66
     8
424
  7895160
176
     1
 43
1.0
176
     1
 76
     1
176
     1
 77
     6
176
     1
 78
     2
176
     1
 67
     7
176
     1
 79
     5
176
     1
170
     0
176
     1
171
     0
176
     1
290
     0
176
     1
 93
       13
176
     1
 44
0.0
176
     1
173
     0
176
     1
1001
ACAD
1000
AcDbSavedByObjectVersion
1070
     0
  0
VISUALSTYLE
  5
17B
102
{ACAD_XDICTIONARY
360
2FDC5
102
}
102
{ACAD_REACTORS
330
169
102
}
330
169
100
AcDbVisualStyle
  2
OverhangOff
 70
    21
177
     2
291
     1
 71
     2
176
     0
 72
     2
176
     0
 73
     0
176
     0
 90
        0
176
     0
 40
0.6
176
     0
 41
30.0
176
     0
 63
     7
421
 16777215
176
     0
 74
     1
176
     0
 91
        4
176
     0
 64
     7
176
     0
 65
   257
176
     0
 75
     1
176
     0
175
     1
176
     0
 42
1.0
176
     0
 92
        9
176
     2
 66
     7
176
     0
 43
1.0
176
     0
 76
     1
176
     0
 77
     6
176
     0
 78
     2
176
     0
 67
     7
176
     0
 79
     5
176
     0
170
     0
176
     0
171
     0
176
     0
290
     0
176
     0
 93
        1
176
     0
 44
0.0
176
     0
173
     0
176
     0
1001
ACAD
1000
AcDbSavedByObjectVersion
1070
     0
  0
VISUALSTYLE
  5
172
102
{ACAD_XDICTIONARY
360
2FDB3
102
}
102
{ACAD_REACTORS
330
169
102
}
330
169
100
AcDbVisualStyle
  2
Realistic
 70
     8
177
     2
291
     0
 71
     2
176
     1
 72
     3
176
     1
 73
     0
176
     1
 90
        2
176
     1
 40
0.6
176
     1
 41
30.0
176
     1
 63
     7
421
 16777215
176
     1
 74
     0
176
     1
 91
        0
176
     1
 64
     7
176
     1
 65
   257
176
     1
 75
     1
176
     1
175
     1
176
     1
 42
1.0
176
     1
 92
        8
176
     1
 66
   257
176
     1
 43
1.0
176
     1
 76
     1
176
     1
 77
     6
176
     1
 78
     2
176
     1
 67
     7
176
     1
 79
     3
176
     1
170
     0
176
     1
171
     0
176
     1
290
     0
176
     1
 93
       13
176
     1
 44
0.0
176
     1
173
     0
176
     1
1001
ACAD
1000
AcDbSavedByObjectVersion
1070
     0
  0
VISUALSTYLE
  5
181
102
{ACAD_XDICTIONARY
360
2FDD1
102
}
102
{ACAD_REACTORS
330
169
102
}
330
169
100
AcDbVisualStyle
  2
Shaded
 70
    27
177
     2
291
     0
 71
     2
176
     1
 72
     2
176
     1
 73
     1
176
     1
 90
        2
176
     1
 40
0.6
176
     1
 41
30.0
176
     1
 63
     7
421
 16777215
176
     1
 74
     0
176
     1
 91
        4
176
     1
 64
     7
176
     1
 65
   257
176
     1
 75
     1
176
     1
175
     1
176
     1
 42
1.0
176
     1
 92
        8
176
     1
 66
   257
176
     1
 43
1.0
176
     1
 76
     1
176
     1
 77
     6
176
     1
 78
     2
176
     1
 67
     8
425
  7895160
176
     1
 79
     3
176
     1
170
     0
176
     1
171
     0
176
     1
290
     0
176
     1
 93
        5
176
     1
 44
0.0
176
     1
173
     0
176
     1
1001
ACAD
1000
AcDbSavedByObjectVersion
1070
     0
  0
VISUALSTYLE
  5
180
102
{ACAD_XDICTIONARY
360
2FDCF
102
}
102
{ACAD_REACTORS
330
169
102
}
330
169
100
AcDbVisualStyle
  2
Shaded with edges
 70
    26
177
     2
291
     0
 71
     2
176
     1
 72
     2
176
     1
 73
     1
176
     1
 90
        2
176
     1
 40
0.6
176
     1
 41
30.0
176
     1
 63
     7
421
 16777215
176
     1
 74
     1
176
     1
 91
       10
176
     1
 64
     7
176
     1
 65
   257
176
     1
 75
     2
176
     1
175
     1
176
     1
 42
1.0
176
     1
 92
        8
176
     1
 66
   257
176
     1
 43
1.0
176
     1
 76
     1
176
     1
 77
     6
176
     1
 78
     2
176
     1
 67
     7
176
     1
 79
     3
176
     1
170
     0
176
     1
171
     0
176
     1
290
     0
176
     1
 93
        5
176
     1
 44
0.0
176
     1
173
     0
176
     1
1001
ACAD
1000
AcDbSavedByObjectVersion
1070
     0
  0
VISUALSTYLE
  5
17D
102
{ACAD_XDICTIONARY
360
2FDC9
102
}
102
{ACAD_REACTORS
330
169
102
}
330
169
100
AcDbVisualStyle
  2
Shades of Gray
 70
    23
177
     2
291
     0
 71
     2
176
     1
 72
     2
176
     1
 73
     3
176
     1
 90
        0
176
     1
 40
0.6
176
     1
 41
30.0
176
     1
 63
     7
421
 16777215
176
     1
 74
     2
176
     1
 91
        2
176
     1
 64
     7
176
     1
 65
     7
176
     1
 75
     1
176
     1
175
     1
176
     1
 42
40.0
176
     1
 92
        8
176
     1
 66
     7
176
     1
 43
1.0
176
     1
 76
     1
176
     1
 77
     6
176
     1
 78
     2
176
     1
 67
     7
176
     1
 79
     3
176
     1
170
     0
176
     1
171
     0
176
     1
290
     0
176
     1
 93
        1
176
     1
 44
0.0
176
     1
173
     0
176
     1
1001
ACAD
1000
AcDbSavedByObjectVersion
1070
     0
  0
VISUALSTYLE
  5
17E
102
{ACAD_XDICTIONARY
360
2FDCB
102
}
102
{ACAD_REACTORS
330
169
102
}
330
169
100
AcDbVisualStyle
  2
Sketchy
 70
    24
177
     2
291
     0
 71
     1
176
     1
 72
     2
176
     1
 73
     2
176
     1
 90
        0
176
     1
 40
0.6
176
     1
 41
30.0
176
     1
 63
     7
421
 16777215
176
     1
 74
     2
176
     1
 91
        2
176
     1
 64
     7
176
     1
 65
     7
176
     1
 75
     1
176
     1
175
     1
176
     1
 42
40.0
176
     1
 92
       11
176
     1
 66
     7
176
     1
 43
1.0
176
     1
 76
     1
176
     1
 77
     6
176
     1
 78
     2
176
     1
 67
     7
176
     1
 79
     6
176
     1
170
     0
176
     1
171
     0
176
     1
290
     0
176
     1
 93
        1
176
     1
 44
0.0
176
     1
173
     0
176
     1
1001
ACAD
1000
AcDbSavedByObjectVersion
1070
     0
  0
VISUALSTYLE
  5
176
102
{ACAD_XDICTIONARY
360
2FDBB
102
}
102
{ACAD_REACTORS
330
169
102
}
330
169
100
AcDbVisualStyle
  2
Thicken
 70
    13
177
     2
291
     1
 71
     2
176
     1
 72
     2
176
     1
 73
     0
176
     1
 90
        0
176
     1
 40
0.6
176
     1
 41
30.0
176
     1
 63
     7
421
 16777215
176
     1
 74
     1
176
     1
 91
        4
176
     1
 64
     7
176
     1
 65
   257
176
     1
 75
     1
176
     1
175
     1
176
     1
 42
1.0
176
     1
 92
       12
176
     1
 66
     7
176
     1
 43
1.0
176
     1
 76
     1
176
     1
 77
     6
176
     1
 78
     2
176
     1
 67
     7
176
     1
 79
     5
176
     1
170
     0
176
     1
171
     0
176
     1
290
     0
176
     1
 93
        1
176
     1
 44
0.0
176
     1
173
     0
176
     1
1001
ACAD
1000
AcDbSavedByObjectVersion
1070
     0
  0
VISUALSTYLE
  5
16F
102
{ACAD_XDICTIONARY
360
2FDAD
102
}
102
{ACAD_REACTORS
330
169
102
}
330
169
100
AcDbVisualStyle
  2
Wireframe
 70
     5
177
     2
291
     0
 71
     0
176
     1
 72
     2
176
     1
 73
     0
176
     1
 90
        0
176
     1
 40
0.6
176
     1
 41
30.0
176
     1
 63
     7
421
 16777215
176
     1
 74
     1
176
     1
 91
        4
176
     1
 64
     7
176
     1
 65
   257
176
     1
 75
     1
176
     1
175
     1
176
     1
 42
1.0
176
     1
 92
        0
176
     1
 66
   257
176
     1
 43
1.0
176
     1
 76
     1
176
     1
 77
     6
176
     1
 78
     2
176
     1
 67
     7
176
     1
 79
     3
176
     1
170
     0
176
     1
171
     0
176
     1
290
     0
176
     1
 93
        1
176
     1
 44
0.0
176
     1
173
     0
176
     1
1001
ACAD
1000
AcDbSavedByObjectVersion
1070
     0
  0
VISUALSTYLE
  5
17F
102
{ACAD_XDICTIONARY
360
2FDCD
102
}
102
{ACAD_REACTORS
330
169
102
}
330
169
100
AcDbVisualStyle
  2
X-Ray
 70
    25
177
     2
291
     0
 71
     2
176
     1
 72
     2
176
     1
 73
     1
176
     1
 90
        1
176
     1
 40
0.5
176
     1
 41
30.0
176
     1
 63
     7
421
 16777215
176
     1
 74
     1
176
     1
 91
        0
176
     1
 64
     7
176
     1
 65
   257
176
     1
 75
     1
176
     1
175
     1
176
     1
 42
1.0
176
     1
 92
        8
176
     1
 66
     7
176
     1
 43
1.0
176
     1
 76
     1
176
     1
 77
     6
176
     1
 78
     2
176
     1
 67
     7
176
     1
 79
     3
176
     1
170
     0
176
     1
171
     0
176
     1
290
     0
176
     1
 93
       13
176
     1
 44
0.0
176
     1
173
     0
176
     1
1001
ACAD
1000
AcDbSavedByObjectVersion
1070
     0
  0
DICTIONARYVAR
  5
1D2
102
{ACAD_REACTORS
330
1D1
102
}
330
1D1
100
DictionaryVariables
280
     0
  1
1:1
  0
DICTIONARYVAR
  5
1D4
102
{ACAD_REACTORS
330
1D1
102
}
330
1D1
100
DictionaryVariables
280
     0
  1
A-SC4
  0
DICTIONARYVAR
  5
1D3
102
{ACAD_REACTORS
330
1D1
102
}
330
1D1
100
DictionaryVariables
280
     0
  1
STANDARD
  0
DICTIONARYVAR
  5
2EBAF
102
{ACAD_REACTORS
330
1D1
102
}
330
1D1
100
DictionaryVariables
280
     0
  1
Metric50
  0
DICTIONARYVAR
  5
2EBB0
102
{ACAD_REACTORS
330
1D1
102
}
330
1D1
100
DictionaryVariables
280
     0
  1
Metric50
  0
DICTIONARYVAR
  5
1D5
102
{ACAD_REACTORS
330
1D1
102
}
330
1D1
100
DictionaryVariables
280
     0
  1
0
  0
DICTIONARY
  5
2FDA2
102
{ACAD_REACTORS
330
2FDA0
102
}
330
2FDA0
100
AcDbDictionary
281
     1
  0
DICTIONARY
  5
2FDA1
102
{ACAD_REACTORS
330
2FDA0
102
}
330
2FDA0
100
AcDbDictionary
281
     1
  3
140699244096160
350
2FD9A
  3
140699244096176
350
2FD9B
  3
140699244096192
350
2FD9C
  3
140699244096208
350
2FD9D
  3
140699244096224
350
2FD9E
  3
140699244096240
350
2FD9F
  0
DICTIONARY
  5
2EBAC
330
2EADB
100
AcDbDictionary
280
     1
281
     1
  3
ACAD_XREC_ROUNDTRIP
360
2FD81
  0
DICTIONARY
  5
2EBC6
330
1A7
100
AcDbDictionary
280
     1
281
     1
  3
FBXASSET
360
2EBC7
  0
DICTIONARY
  5
2FDD3
330
1AB
100
AcDbDictionary
280
     1
281
     1
  3
ACAD_XREC_ROUNDTRIP
360
2FDD4
  0
DICTIONARY
  5
2EBAA
330
2EADA
100
AcDbDictionary
280
     1
281
     1
  3
ACAD_XREC_ROUNDTRIP
360
2FD82
  0
DICTIONARY
  5
2FD97
330
1A9
100
AcDbDictionary
280
     1
281
     1
  3
ACAD_ROUNDTRIP_2008_TABLESTYLE_CELLSTYLEMAP
360
2FD98
  0
DICTIONARY
  5
2FDAB
330
16E
100
AcDbDictionary
280
     1
281
     1
  3
ACAD_XREC_ROUNDTRIP
360
2FDAC
  0
DICTIONARY
  5
2FDB1
330
171
100
AcDbDictionary
280
     1
281
     1
  3
ACAD_XREC_ROUNDTRIP
360
2FDB2
  0
DICTIONARY
  5
2FDB9
330
175
100
AcDbDictionary
280
     1
281
     1
  3
ACAD_XREC_ROUNDTRIP
360
2FDBA
  0
DICTIONARY
  5
2FDC1
330
179
100
AcDbDictionary
280
     1
281
     1
  3
ACAD_XREC_ROUNDTRIP
360
2FDC2
  0
DICTIONARY
  5
2FDB5
330
173
100
AcDbDictionary
280
     1
281
     1
  3
ACAD_XREC_ROUNDTRIP
360
2FDB6
  0
DICTIONARY
  5
2FDB7
330
174
100
AcDbDictionary
280
     1
281
     1
  3
ACAD_XREC_ROUNDTRIP
360
2FDB8
  0
DICTIONARY
  5
2FDC7
330
17C
100
AcDbDictionary
280
     1
281
     1
  3
ACAD_XREC_ROUNDTRIP
360
2FDC8
  0
DICTIONARY
  5
2FDBF
330
178
100
AcDbDictionary
280
     1
281
     1
  3
ACAD_XREC_ROUNDTRIP
360
2FDC0
  0
DICTIONARY
  5
2FDA3
330
16A
100
AcDbDictionary
280
     1
281
     1
  3
ACAD_XREC_ROUNDTRIP
360
2FDA4
  0
DICTIONARY
  5
2FDA5
330
16B
100
AcDbDictionary
280
     1
281
     1
  3
ACAD_XREC_ROUNDTRIP
360
2FDA6
  0
DICTIONARY
  5
2FDA7
330
16C
100
AcDbDictionary
280
     1
281
     1
  3
ACAD_XREC_ROUNDTRIP
360
2FDA8
  0
DICTIONARY
  5
2FDA9
330
16D
100
AcDbDictionary
280
     1
281
     1
  3
ACAD_XREC_ROUNDTRIP
360
2FDAA
  0
DICTIONARY
  5
2FDAF
330
170
100
AcDbDictionary
280
     1
281
     1
  3
ACAD_XREC_ROUNDTRIP
360
2FDB0
  0
DICTIONARY
  5
2FDC3
330
17A
100
AcDbDictionary
280
     1
281
     1
  3
ACAD_XREC_ROUNDTRIP
360
2FDC4
  0
DICTIONARY
  5
2FDBD
330
177
100
AcDbDictionary
280
     1
281
     1
  3
ACAD_XREC_ROUNDTRIP
360
2FDBE
  0
DICTIONARY
  5
2FDD5
330
1AC
100
AcDbDictionary
280
     1
281
     1
  3
ACAD_XREC_ROUNDTRIP
360
2FDD6
  0
DICTIONARY
  5
2FDC5
330
17B
100
AcDbDictionary
280
     1
281
     1
  3
ACAD_XREC_ROUNDTRIP
360
2FDC6
  0
DICTIONARY
  5
2FDB3
330
172
100
AcDbDictionary
280
     1
281
     1
  3
ACAD_XREC_ROUNDTRIP
360
2FDB4
  0
DICTIONARY
  5
2FDD1
330
181
100
AcDbDictionary
280
     1
281
     1
  3
ACAD_XREC_ROUNDTRIP
360
2FDD2
  0
DICTIONARY
  5
2FDCF
330
180
100
AcDbDictionary
280
     1
281
     1
  3
ACAD_XREC_ROUNDTRIP
360
2FDD0
  0
DICTIONARY
  5
2FDC9
330
17D
100
AcDbDictionary
280
     1
281
     1
  3
ACAD_XREC_ROUNDTRIP
360
2FDCA
  0
DICTIONARY
  5
2FDCB
330
17E
100
AcDbDictionary
280
     1
281
     1
  3
ACAD_XREC_ROUNDTRIP
360
2FDCC
  0
DICTIONARY
  5
2FDBB
330
176
100
AcDbDictionary
280
     1
281
     1
  3
ACAD_XREC_ROUNDTRIP
360
2FDBC
  0
DICTIONARY
  5
2FDAD
330
16F
100
AcDbDictionary
280
     1
281
     1
  3
ACAD_XREC_ROUNDTRIP
360
2FDAE
  0
DICTIONARY
  5
2FDCD
330
17F
100
AcDbDictionary
280
     1
281
     1
  3
ACAD_XREC_ROUNDTRIP
360
2FDCE
  0
XRECORD
  5
2FD9A
102
{ACAD_REACTORS
330
2FDA1
102
}
330
2FDA1
100
AcDbXrecord
280
     1
  1
AcDb_Thumbnail_Schema
102
{ATTRRECORD
341
2FD9C
  2
AcDbDs::TreatedAsObjectData
280
     1
291
     1
102
ATTRRECORD}
102
{ATTRRECORD
341
2FD9D
  2
AcDbDs::Legacy
280
     1
291
     1
102
ATTRRECORD}
  2
AcDbDs::ID
280
    10
 91
        8
102
{ATTRRECORD
341
2FD9E
  2
AcDs:Indexable
280
     1
291
     1
102
ATTRRECORD}
102
{ATTRRECORD
341
2FD9F
  2
AcDbDs::HandleAttribute
280
     7
282
     1
102
ATTRRECORD}
  2
Thumbnail_Data
280
    15
 91
        0
  0
XRECORD
  5
2FD9B
102
{ACAD_REACTORS
330
2FDA1
102
}
330
2FDA1
100
AcDbXrecord
280
     1
  1
AcDb3DSolid_ASM_Data
102
{ATTRRECORD
341
2FD9C
  2
AcDbDs::TreatedAsObjectData
280
     1
291
     1
102
ATTRRECORD}
102
{ATTRRECORD
341
2FD9D
  2
AcDbDs::Legacy
280
     1
291
     1
102
ATTRRECORD}
  2
AcDbDs::ID
280
    10
 91
        8
102
{ATTRRECORD
341
2FD9E
  2
AcDs:Indexable
280
     1
291
     1
102
ATTRRECORD}
102
{ATTRRECORD
341
2FD9F
  2
AcDbDs::HandleAttribute
280
     7
282
     1
102
ATTRRECORD}
  2
ASM_Data
280
    15
 91
        0
  0
XRECORD
  5
2FD9C
102
{ACAD_REACTORS
330
2FDA1
102
}
330
2FDA1
100
AcDbXrecord
280
     1
  1
AcDbDs::TreatedAsObjectDataSchema
  2
AcDbDs::TreatedAsObjectData
280
     1
 91
        0
  0
XRECORD
  5
2FD9D
102
{ACAD_REACTORS
330
2FDA1
102
}
330
2FDA1
100
AcDbXrecord
280
     1
  1
AcDbDs::LegacySchema
  2
AcDbDs::Legacy
280
     1
 91
        0
  0
XRECORD
  5
2FD9E
102
{ACAD_REACTORS
330
2FDA1
102
}
330
2FDA1
100
AcDbXrecord
280
     1
  1
AcDbDs::IndexedPropertySchema
  2
AcDs:Indexable
280
     1
 91
        0
  0
XRECORD
  5
2FD9F
102
{ACAD_REACTORS
330
2FDA1
102
}
330
2FDA1
100
AcDbXrecord
280
     1
  1
AcDbDs::HandleAttributeSchema
  2
AcDbDs::HandleAttribute
280
     7
 91
        1
284
     1
  0
XRECORD
  5
2FD81
102
{ACAD_REACTORS
330
2EBAC
102
}
330
2EBAC
100
AcDbXrecord
280
     1
102
DISPLAYNAME
  1
Metric50
102
FLAGS
 90
        0
  0
XRECORD
  5
2EBC7
102
{ACAD_REACTORS
330
2EBC6
102
}
330
2EBC6
100
AcDbXrecord
280
     1
 70
     1
 90
-1625056298
 71
     1
  1
E6C07DFF-5E3D-47BE-AA7E-A14E296F6868
311
504B0304140006080800D168324CB522B20BD9000000200100004F00000038363231364637452D463942362D343743302D393235312D4336433836444437323941412F4173736574446174612F446566696E6974696F6E4974657261746F7250726F706572746965732E62696E454E3D4FC33010350C200606FE41D5DDD84E
311
8263456D51A202132C30B15457E75A2239491527122323FF1AEE44514F7AF7EEF3DD7D0B217E8E46A138237C91BF267EC20E87C6BFFA0F6C415C7025F45B0897A7DE39859CAE7107531879EBB9891E43800EFB29DE9C46672D8C2407E19697AE08FF85C80AFBBF637CFF85C02F31437D28EE21461C976AB7FD54AEBA330FF6
311
319365552632D3792E9DCD52E9D6A5A9129B1B634B3560ECA7C1635489D29BA3F2E6D0ED9B7AB5189B16671DB4B89CFB01E9A77ABE4AB471521B69DC9B490B6D8B347B5F289EFC05504B0304140006080800D168324CCC37A9822F010000300200004500000038363231364637452D463942362D343743302D393235312D43
311
36433836444437323941412F4173736574446174612F496E7374616E636550726F706572746965732E62696EEB606060F80F0540260323103700495E20ED9E9A975A94991C9C9C919A9BA802147035733630777173D335753576D135317772D575743407128626AE4696666E66166616EC088D202DC686262EAE46A696BAA6
311
2626C6BA26664686BA4E6E4E2EBA86E6C606CE66CECE968EAE964065607B193463FA0F7DD5B8620FA49980620D400CE38369201F083ED843543330083830088085C0848A03828D9505D40801700656654041B8820FCC405E031043B53E80D23C40214C000A47840CDC100C85293B1D30C4500430B5828CD64052F3C19E05C8
311
03C5161F10079727962467E83A1525E6A5A4A680647CD6C9E90129CD1820010B2E10130C22154419E319821992191219F218521852192A80E2120C7E0CA660F9566F4E350186AB7E37323F87313058307032B030BCDF37DD5332C60800504B0304140006080800D168324C28BB58AF800100009E0500003D00000038363231
311
364637452D463942362D343743302D393235312D4336433836444437323941412F536368656D61732F436F6D6D6F6E536368656D612E786D6CBD544D4FC23018BEFB2B96DE15493C78601010A34B880709DEDFB52FD0D8B54BD70DF6EFED3AC0B12E6442E2716BFB3CEFF3D18E26FB440405EA8C2B1992E1C323095052C5B8
311
DC842437EBFB673219DF8DA659866649B798C078B48AE6410122242F2A4994AC7F93815DF85C049C8564CA0A901499DD886B2EB9B1E02448F358701A9235880C49A0119892A20C89D1B9FD768815CAD268CB5E0355B40B1E47F3E37A2020464BED06AA57CE8FCC20C3C3446D46761A2632A8C1283D07031EFF2AE7CCB1BFEE
311
E916E406DFAC8E36FFD99A9D60A6944090EEDC3B670C7DC13DE86B6B2C5C240D6E503BB85ACD579D513F1B9F9A69DC9CC22AFA80C426D40AF0B21EA168559156B6276F0F726A6BFF04DCD513A87A62CAD41FB24FCB2858B3952E3D852084DA25B9303C15687973CC8E8AAE11DF2836C38C6A9E765E8C1BA1BFB1DC29CDFE51
311
8C8B5A7655A4ED7E77291ABEB80DBD82EC866ADE1B8D05AF9E35CF09D7A061F38A986D9EC412B8F0F65E5D81534D9B231D1E5A8FE577A241F3A5FD01504B0304140006080800D168324C2CCEBD668A040000E01200003E00000038363231364637452D463942362D343743302D393235312D4336433836444437323941412F
311
536368656D61732F47656E65726963536368656D612E786D6CD5586D6FDB380CFE7EBF42F0F7A649B70E1B90744856B4970F450FCD7A5F05459613EDE4174872DADCAF3F522F8ED3B88D2F1D06AC4050DBA2493EE4438AF2F8EB73AEC8466823CB62928C06C384888297A92C5693A4B6D9D9E7E4EBD51FE3A931C22EF85AE4
311
EC6AFC38BF261BA626C9AD288496DC3F4FCEAFC63366845F7A10452AF41DB320C0D44EC26EAB20918735565582695670811A6A49643A49A6E9069FA4604A64B29016DC4B48552F95E4932463CA888468C1D2B250DB4962750DF7CE273069CE8363F1FF4EDB00E0A21999574AE4A2B00C353B93F3BD4777B8A61ED8F604ABFE
311
DD79CE56A2B7BDFBDBC50996E0ADDE16FED26223C5D30956C29BDF4A55EA686E5E58B112DA45CE67F76F4FA27EFA3FB672FD7372FC388FAECDCA5209E693CAD167BADCD272F943701B3812F8A3D852008B1D2E32DB927B2F833C6EA95879925356D254582695095A3CE982924720BE5774A3CB9CDCDB350427D2DF20DA1B55
311
32EBE2D5D6288D75D4F7E4FD9890A0EF8E3D93EBB8F8BA4758158EF6FB90A6F9520281C93DE7AAC6D24607DA296BB96018123F821A7D6A5C5884050C475DA4865442732C8B95684A50165CBB3A32F25F783A4A480ED59AD7F924B968AEA50131F46303223E6A397B0E52976030DC1DCA81D7E7C1EDEEA42C19FF27635C505E
311
2BD5198A599020DF50A2330FCB3AAF28CB0124108429553EF1B228802E2265D8F7CC2401042B155BCC7070F1E5C55F13B4A9577362CCCE46C32174E010C3C378C44841A4BDA00FE3A12006CE11EE6AEC59894D3526DDE1CD59D503ECC324017F8061B7F162162FA62EDD81AE3308617770796DCBDAD2B2625C5AE8A63DE20B
311
2C8AA5E95E76E5730823955956E33E705425A2187C185D36489A1B44D3DCEC2172F6BA2105C3546287A7194B2331768EBBE64F6E70A9930ABE0ADEA89E9E2C38523B810287AD67A54A039C1606EAFE68F8304610BB9093DBDDABC0B2AE4E290DCDA15376D7E39F72B556F0B32EAB5D3D498B4C41ABADEC3A1434C422D87E80
311
25A84BDCB2B1417ED750FAE4DA8976863974C577C7F902D3F156AD354DEA3540DE6BEAE2BEA52F7A2EB4CA43802ECE5BF2CE2EDC9347179FFB023CE412E60BE16DA0BE29B374988A553F561DC04615DD35F7D2C8979F60E5955CE93DF29DED8AFA1EE6642D53418086C03C47C377910F75F7E8F5EF665F70B60FFB22AEDF89
311
7D119E8423C773E819A3C1E55E550599EE6EDCA34D0C86FD72057DF2CD46F16A470682471C164E4346D5306BF12D7D12D82CFF673D41636C347443FEB51B50D72EA171A8E4A58623A4A16E0FA2B8B10A0D23268D87C33896EE8FB73305A74BF224EDBADFA0BD674AB354D63DB7BD5D83426761C077DE767728235446A55275
311
4EB93B755891C3C4CC6CADE37CF0E912A7BB38DBA010F9DE1282EDF470CA69A9CDA482E334C4A6EA4107987980B17E72F31730EBF88BBD39E7C629F56797A3C0009C2C5AE7951D9A05A02773440F02EEB4DE396A3B6A570C72CCFBCD823B0B8ED3F1D5CEDDFED772FA70236C83FB7D86C385D570B87107535572A60A96035F
311
8F7C6A7192F13007246BBE0521855E6AC46F3E27689CEE7D186A6FD679D98CDCAD13333E04EBE7ED6F55FF01504B0304140006080800D168324C6180134D5F0100006B0300004500000038363231364637452D463942362D343743302D393235312D4336433836444437323941412F536368656D61732F52656E6465724D61
311
74657269616C536368656D612E786D6CA5934D6FC2300C86EFFB1551EEE343DBA41D1A103009551ADAD40EAE28A4A68D9426284961FCFBE5A340113B2071746D3F765EBF4DC6BFB5407BD0862B49F0B037C0082453059725C18DDD3EBFE3F1E829991803366715D474942CD30FB4A782E00C64017A412D684E454CE3FE2899
311
5203B162A6EA5AC94B66997D225E109CD63B0135484BAD1B3C07E9080CA35DB3119C11BCA5C200461A68A1A438126C75E3E230D40FF81FB3F03C91D1E3A3A0AF79FE28E25BC39EC3E17E4C2A2D94A0833A51AF55BCCA7D88572FCBAC529C4140B020FC3AAFA886621DCED7EAD7664CC86024E806DC297DA1BB393E41565434
311
57A4537DB8817349A70F8ACBF09B3EEE2CB2F33E91B65D60786E4E3B39B77E3FEEEF5650424525DA657FB8B46BE6BF064646F0A0F7327C0BC1BC1B4CBBC1C419FA3CCB23500007872A2580CAAE5461865565294E4EDB4617B62FF579DF9A5B2F54E834076A597573A020912FED777F9B3F504B0304140006080800D168324C
311
414573AD4F000000570000004700000038363231364637452D463942362D343743302D393235312D4336433836444437323941412F4173736574446174612F41737365745461626C654F66436F6E74656E74732E62696E536160607035733630777173D335753576D135317772D575743407128626AE4696666E6616661642
311
4075B98925A945998939890505A989458979C9A9404130E00592EEA97940D9E4E0E48CD4DC4400504B0304140006080800D168324CF865834058000000680000004500000038363231364637452D463942362D343743302D393235312D4336433836444437323941412F4173736574446174612F53747265616D5665727369
311
6F6E5461626C652E696E66558CBD0A80300C06F73E4B117FB66E451741D041DC5BF98480A492E4FDD18EAEC7DD4555D89EF28DF51A0B1BD8340C4DE7DD848B988C0ACF0649566493F2408C508DDEBB99D5129FF8F1AF8CF5B9503E20FAE5A16B5AF702504B0304140006080800D168324C978DD73B340100009A0400003600
311
000038363231364637452D463942362D343743302D393235312D4336433836444437323941412F4173736574446174612F636E782E786D6CCD94314FC3301085FF4AE43D764211AA2AC71582A51348540C6C17E752AC3A76645F10FC7BEC2603A888A943D7F3BBF3F327BF93DBCFC1161F18A2F1AE6135AF58814EFBCEB843
311
C326EACB352BB64A06EFE9878C150E066C582E33250FC14FE352EAB087C9E6AA35EEB814EF6344DA436BF1A97FF08ED0516485B61063C3A27EC701384CE43B8C47DE0101AF79C0E8A7A0314D2233E032490704C28EA99BAA5E97555DD6EB7DBDDA54779BD5ED9B1459A964EBBD5DF4265D16FC58E8F956A62A29F2B1925330
311
8B26BF85A9BF3CF2D638299252C9482131593AE86B4C1D308ED668A0844E784D486512210C52CC62254566F08BC423F6C699DCB24BC6807C784EF63090C1AB23F29FD7CB93D9B948E0345E2F8F738797A7F072FA41AF73204F89B9B69C9C3BE4C6F517488938AD91149ABC55D437504B0304140006080800D168324C2B6438
311
65070100004F0300003400000038363231364637452D463942362D343743302D393235312D4336433836444437323941412F536368656D61732F636E782E786D6CCD93314F04211484FF0AA13F583C633617962B2CAC6CD4CA0EE1DD490E781B608DFE7B61A5B84BECB4B80E862F646678C8FD67F0E403527618272AD84009
311
4483D6C5E3449772D88C94EC954C88E50CA324EA00136D3255F2987099BB64E1A017DF54EFE2A98BF71802C667F30E415362BCCE79A279DD32BD14B4904FCCEAA2996009322EC940BDA1B800FD06934017B054DD0C62DC0C6223C617B1DD0D77BBEDEDABE48D54F20DD177DEC502096762B02E62B53348DE8E955C92EB4CCB
311
40D5B93756DB90BC124AE6926A079D2C5F7325F53C7B6774A955F115FC6194E42DEA45E00788909CB9CEC417E6FE2DF213440BE9B1BE5272DA5F67F2DF3CFEAD00BECE7E1D81F615D437504B0304140006080800D168324C410A3D5871000000A40000002C00000038363231364637452D463942362D343743302D39323531
311
2D4336433836444437323941412F636E782E786D6C55CC4D0E82301086E1AB34B31774E7A22D31F1069E60020334B633A63FC6E34B0909B07DDE2F9FEE7EC1AB2FC5E4840DDC9A2B28E25E06C7938192C7CB1D54677514C9871928C640062A83D55394F2D968A0118BAFEA1DBF377CA444F98919176EAB9FEAAB9F2960DA5B
311
BB1E2ED3FA6FFF504B0304140006080800D168324C616DA7AE7F000000A300000007000000636E782E786D6C4D8CDF0E82201C465F85FDEE2971C59F0D7486F91E2ED131111A49EBF183E64557DF76F69D23DBCFE6D0DBC4970D5E013955808C7F84C9FA4541DA67CC01B58D8C21EC7F37407EDC8C8282A1914B0CE979A0C9
311
CC6372853AEBD703725A133AB03B1EC48DE20BD31516F595604D35A77DCF6AD175D9381725CFAF97B7E49B2F504B0304140006080800D168324C16E99B5DA600000035010000130000005B436F6E74656E745F54797065735D2E786D6C9590410E82301045AFD2740F4517C6180A0BF5065E60AC53688469D30E066F6F91AD
311
9AB89CF9FFFD3F99BA9DC7413C3026E749CB4D59498164FCCD51A7E5C4B6D84BD136F5E5193089ECA5A465CF1C0E4A25D3E308A9F401292BD6C711388FB15301CC1D3A54DBAADA29E38991B8E0254336F5092D4C038BF39CD76B6FC6A538AEBEA54A4B08617006389FA516557DE4AE8E7E70DE30729138228C5F021CD93F02
311
D4FB0DCD0B504B0304140006080800D168324C3DEE336E64000000790000001B0000006175746F6465736B2D64657369676E2D7061636B6167652E786D6C35CBC10E83200C00D05F21DCA56CA76D41FC96062B120735B69A7DBE268BB7777961F8D5AF396893C2ADB70FE7ADA196782C2DF776D7A97B5933C430F15651E546
311
9C55D70F80A4992A3ADC954792C525AE70A1E4D6AD9816CC044FEFDF01FE3FDE907802504B0304140006080800D168324C4BB18D7CFA000000960100003700000038363231364637452D463942362D343743302D393235312D4336433836444437323941412F4173736574446174612F636F72652E786D6C8550CB6E833010
311
FC15B477030E8F90C838C249F3053DF5661987580936F2A3EAE7D70E546A4F3DED6A76667677C8E96B7E669FD23A65740F382F21935A9851E9A987E06FA883EC448935C6FFA241A6F92C7B483050325913960D12467BA913AACD2837903B273D64E2199B1E9CB8CB99E73CF8C8708F7CE1E2C12799E37CE55112821A37A91A
311
A39BBA29698176ED85D5F8CAD0DB7EC0A83EE3033A3036A066BF2FEBB6B932766E4891C4947835FF6C1756722F47A0BB1277A8C40877EFB83A96EDB1AA3F48919894386FE3CFDBD2F41DD0215D7DE19E93629DFE710DCBF8BF6B50DA57BBCD755538A0381EF91A5052A494627945186B4A947E03504B0304140006080800D1
311
68324C4AF768BAF8000000940100003500000038363231364637452D463942362D343743302D393235312D4336433836444437323941412F536368656D61732F636F72652E786D6C8550CB6EC32010FC156BEFD8267E26C244216D7EA03DF5860C715062B07854FDFC82E34AEDA9A75DCDCECCEE0E397ECD8FEC535AA78C1E
311
00E72564528F46283D0D10FC15F5901D29B1C6F85F34C8349FE50009064A266BC2B241A3D15EEA846A23E40672E7A4876C7CC4660037DEE4CC731E7C64B87BBEF0F1CE2799E3FCC9A324042536A912D14D5D95B440FBF685D5F8C2D06B77C2A83EE33DDA3376424DD79575DB5C183B37A448624ABC9A7FB68F56722F05D05D
311
897B546284FB775C1DCAF650D51FA4484C4A9CB7F1E76D69FA0EE8DB7AA723C573F6C7332CE27FCFA0B4AF769BE753E180E278E23AA0A44819C5B206186BCA937E03504B0304140006080800D168324CC249419903010000D70100002D00000038363231364637452D463942362D343743302D393235312D43364338364444
311
37323941412F636F72652E786D6C9591CB4EC33010457F259ABD933869F3A81C5725A55FC08A9D89A7C16A63477E203E1F8704013B58D9BA3E77C677861DDFA77BF286D629A33BA0690E09EAC148A5C70E82BF9206922367D618FF0383448B093B5864E06CB426CC9B3418ED512FAA3612375138871E92E11E2F1DB8E11527
311
918AE023E16EE92C869B1831A5E9CA71E6D5F4651D2C0A8F127891D386E494D0E6899687BC3A94BB67962D246741695F165B339C5E502666F63112F03DCBD6D74805253746C9F84775556881375541AB4BFD482EED434576759F93B6D853D2577D539DCF75D19E4EB1483473E6BC8D93D98A2C33F8AB7D35FE4A1666F9CF64
311
ABC301A7DFA1B265CC9C659F3B88E7B212FE01504B0304140006080800D168324C0AF5714308010000B201000008000000636F72652E786D6C8D50CB6EC32010FC15B4776C133F1361A290365FD0536FD41007C506CBE0A8FDFB42EC4AEDADA74533B33BC3D0E3E738A0879A9DB6A60592648094E9ACD4A66F61F157DC003A
311
323A5BEB7FC9001931AA16220C8CF6B35DA60DEAACF1CA44D458A9365038A73CA06E088F165C7753A348C4E283C2DD93497477D1AB8424AB8E51AFC79FD56E56C22B096C979106670493E68DE487AC3AE4C53B4DA392D165D172B3D232B8EBAB5633B0A67AE105B970FC5A9F082ECE648FF79C9F7059D759519517CECF254D
311
E332A3CECFE1CFDB9190D323271ED197A62BC5E887B5C32608A124B266F80296D134127F422F93FC47686D7CBEDB0EAE1B0E1809819E44308E0D86F1AC37CCD836FB06504B01021400140006080800D168324CB522B20BD9000000200100004F000000000000000000000000000000000038363231364637452D463942362D
311
343743302D393235312D4336433836444437323941412F4173736574446174612F446566696E6974696F6E4974657261746F7250726F706572746965732E62696E504B01021400140006080800D168324CCC37A9822F0100003002000045000000000000000000000000004601000038363231364637452D463942362D3437
311
43302D393235312D4336433836444437323941412F4173736574446174612F496E7374616E636550726F706572746965732E62696E504B01021400140006080800D168324C28BB58AF800100009E0500003D00000000000000000000000000D802000038363231364637452D463942362D343743302D393235312D43364338
311
36444437323941412F536368656D61732F436F6D6D6F6E536368656D612E786D6C504B01021400140006080800D168324C2CCEBD668A040000E01200003E00000000000000000000000000B304000038363231364637452D463942362D343743302D393235312D4336433836444437323941412F536368656D61732F47656E
311
65726963536368656D612E786D6C504B01021400140006080800D168324C6180134D5F0100006B03000045000000000000000000000000009909000038363231364637452D463942362D343743302D393235312D4336433836444437323941412F536368656D61732F52656E6465724D6174657269616C536368656D612E78
311
6D6C504B01021400140006080800D168324C414573AD4F0000005700000047000000000000000000000000005B0B000038363231364637452D463942362D343743302D393235312D4336433836444437323941412F4173736574446174612F41737365745461626C654F66436F6E74656E74732E62696E504B010214001400
311
06080800D168324CF8658340580000006800000045000000000000000000000000000F0C000038363231364637452D463942362D343743302D393235312D4336433836444437323941412F4173736574446174612F53747265616D56657273696F6E5461626C652E696E66504B01021400140006080800D168324C978DD73B
311
340100009A0400003600000000000000000000000000CA0C000038363231364637452D463942362D343743302D393235312D4336433836444437323941412F4173736574446174612F636E782E786D6C504B01021400140006080800D168324C2B643865070100004F0300003400000000000000000000000000520E000038
311
363231364637452D463942362D343743302D393235312D4336433836444437323941412F536368656D61732F636E782E786D6C504B01021400140006080800D168324C410A3D5871000000A40000002C00000000000000000000000000AB0F000038363231364637452D463942362D343743302D393235312D433643383644
311
4437323941412F636E782E786D6C504B01021400140006080800D168324C616DA7AE7F000000A3000000070000000000000000000000000066100000636E782E786D6C504B01021400140006080800D168324C16E99B5DA60000003501000013000000000000000000000000000A1100005B436F6E74656E745F5479706573
311
5D2E786D6C504B01021400140006080800D168324C3DEE336E64000000790000001B00000000000000000000000000E11100006175746F6465736B2D64657369676E2D7061636B6167652E786D6C504B01021400140006080800D168324C4BB18D7CFA0000009601000037000000000000000000000000007E120000383632
311
31364637452D463942362D343743302D393235312D4336433836444437323941412F4173736574446174612F636F72652E786D6C504B01021400140006080800D168324C4AF768BAF8000000940100003500000000000000000000000000CD13000038363231364637452D463942362D343743302D393235312D4336433836
311
444437323941412F536368656D61732F636F72652E786D6C504B01021400140006080800D168324CC249419903010000D70100002D000000000000000000000000001815000038363231364637452D463942362D343743302D393235312D4336433836444437323941412F636F72652E786D6C504B01021400140006080800
311
D168324C0AF5714308010000B2010000080000000000000000000000000066160000636F72652E786D6C504B050600000000110011005A060000941700000000
310
504B0304140006080800D168324C000000000000000000000000370000006662782F34443234343531332D343743332D344536452D394343432D3836444243334235304631372F617474726962757465732E62696E504B0304140006080800D168324C000000000000000000000000350000006662782F3444323434353133
310
2D343743332D344536452D394343432D3836444243334235304631372F76657274696365732E62696E504B0304140006080800D168324CF270F1330600000004000000360000006662782F34443234343531332D343743332D344536452D394343432D3836444243334235304631372F747269616E676C65732E62696E6366
310
60600000504B0304140006080800D168324C51464CB48900000043010000360000006662782F34443234343531332D343743332D344536452D394343432D3836444243334235304631372F6469726563746F72792E786D6C9D8F310EC2300C45AF127987122606C71DD918B841D4B851A43646695A717C52A85029031293A5
310
A76FBF6FACEF7DA7264E43906840EF0FA03836E242F406C6DCEE4EA06AC22492573150D1F66C60C640E8938CB705396EEDD86DE9B5042FE27813D640EA63BB001C722AF6E55CB61E4863F58284D5D3F53DD715CE1C3985E63FD7F1B7EBDD617E9F1E504B0304140006080800D168324CBD2D7A0C3D070000201C0000340000
310
006662782F34443234343531332D343743332D344536452D394343432D3836444243334235304631372F6F626A656374732E786D6CDD59596FDB3810FE2B84F665F7C13A7CBB705CF8480AA3485BD4E862DF045AA61D6EA803949438FBEB774891B2A8C8B6D20358AC03D80A450D67BEB947D3F7C790A127C2531A47379667
310
BB16225110EF6874B8B1F26CDF195BE8FD0C4D791C67957D168A70486E2CB16CCDA6071EE7895ADA913DCE597DF56EF1174A0312110B050CA7E98D95060F24C436CEB37847D2477B87336C1FF647DBB38B8D26D903C7C943EDA804731265C02AAC47404571E099FF8248CE6CEA880DC6B65EBB6DDD0BDB1C29B8C9288DD20C
310
47C12BAE6AC775CF70553BAEE7F557B7DDC1A433E8F77B9DFEB0EB7516778B55C71BF5DCE570B99CCC6F27169A4DB771CC4A052424DA81165FAC993775C49D527C854213DF411C45245068366DD811459792B48E8901AC2745AB28A490B5B2D06B29FC996DAD40315832D0D6C2E9DFAAF5C6DBBF0184B48D95F294082B4F33
310
0EBA56D817FEE04E9D62D5D00B4D518833C2296688D12DC71C14045B0B05196484B70852486026B5A8E9557905C3BEEE4B4D5CEE73C684FF5A33E9693EF823C952C919FD87F013F7D5D380279036A7513656C2662F0990984C1DB958DCEB75D5CD0248B467F800D602628A4DBD6E0DAFA58805EB9535FB78B73D6E447C683E
310
3CE1714278262C4F3AB3F23BADC18A6981F1B500A5C0D5D4DD0995AF00FD2740BEE4054D41739C1EFBC7BE969DE328DDC73C04ED2017755CF87291B87C753575CA87670819B1F21CA6E0B63F0953430CE3EC0AA4B3E913187DCC7B4AB84D8019D8F43D8D849F83A12016C312C4FBFDF668CDD6104C61119EC20CA487BFA923
310
2E11FC147420DED434D4147E5B284A3B4CDDCF4EBAFA0036C36950AACA90F11CBE839F82EF7CB5F9B8C9F91E07E45E39F68AEC69443348A6CD0C19A01B2EFF6DFD497AE407166F313B3D6D6C0AE098432CE246835A364A2D48EA05381169B8D08C5CB9A7E0ED8CE188C479AAD69BE25410B398FBDB17BF70E1C6B3FED43650
310
1CA60CA0319641720F384D0426D64C69AB0C84764550B030CC95051E0AADFADB3C4C7C1CC6792442ED6B53ACF301714658225095D4B4616BAFD5647774BFCF53085E8D24970690CA9F35E1C2C2FB10C79AF8E564CF3124D138F229E4607096C6138C034AF02EF39C12B6F7296379E8EF29833CE287383943BFA504D5CCF548
310
5E9E63BE6B24685A96F6496D43027005AC064967AB22E62B9D72F244459929F399CE06C60E55875AB3FE997421324503A0DA18A599DF0E97EE687577D719DCF6569DFE6871DB99CF47F0E5F56FBB93E1DD703C1CD7F9D4D1AA9AEF4095A2CC31FC2F7BC8C36D8429831B426CBC4BDEBD97D9F3C681D0E88C1703EF7678D7EF
310
CC17F36EA7EF8E469DF110EAB6F16AEE2DBAC391E70DE70E27699CF380A44ED7717D6D92497438C795E6EE750C85B2E67AB2D3FAAA0BF33F8EA1F59C6028F1BF1A44CBD8D55010B60DA2E2D17A08C5C1A348517E00555FA3FBD482689D8FA638F7C6B8ECDA3D577E3C6FD27527DDF164581AFBC5402DCFF9E138D72441007D
310
679EF97182039A3527D41A2E2DE3F49B728BDDF30608D029BFCB432EE71975884F437C20FE1E8B2EA121305E93A031871D589CA63422A9ECF25E557F359AAE0DC59499731B8C90A67E4832FC3DF627DB869A4D436C663EF4A39998085CAD0A4A83561DC8398AA2FB85C42DE57FF1531C26ACE874AF61E0753504BAC769B238
310
C1B438E209ECCDC799EFEE881C5C5CA35EB2AFEB8346ADD5A94FBE9BFC1978745DF30BE1D147B42F9DEC8137119F310495E1C0EB8DB422AE61A58FCA441FC772E83C8317FF99D0C343AB42B39D4E2A255B5154672484361667396FE5AFC381FBEA2015176A0E5139E98DC5A1ECDF740707E8C906EE5C795B3906EA501AC19C
310
AB9520AFA4683461A90B39D313A3AB37F8F5456557A9FE70BCFCE51573D5F94239FCB98E0354CB450056D1C7A8A91BAB6EA31E4A9F71164020DDC8DFCE023C624776A7C6CC20D754A2EBFAF45AF5BC16013584892D1671F65E5CB0AF18540DDD73EA7C288A36A7585F8BC466C370FAC487C1B449EBF3874D8D0AACB47EFA8B
310
C0883CD728A8D5A5E8862F90FAB63EF5FC350A4AA26FEB0B8FFF273A0AADC0CA180DA6C169CC280CE5C90E1D480CD91BC60E2DBA0D1E92546665305E15A4F41B81164F3F1533D50C6F997E3A78C0309866AA17CB03188A42C6BCB1D43AFA0DC6A06212298753F623B4612A865928E7F4C6028BCD28745BF616C659727828A9
310
D7C695E0D8383A887C5F3C55FE7F7A4CA00351E92457B9A70D2E4A32C399A0B04DE47B02A8FA8A1BB3E9F78BAED9413883CB6D9E95C29C164ED22810F40B81423898FA3D2A788F50505C96CBB3E51E03925693F98B765050ED64981FE478BD82F77CF5C51193F1F56794B0FC20D479A9FB35287544D7CDF2620A3505C35062
310
2658D490CB77CE171EC32BA610DD513002F4FB713CFCC359C6611847C59233572FAAD0E6015E3BED1C3DF28336DEF5068E9C02A8B1BEBFC529B1F12E7D8405502DA762365A406C1840194D2B06A0352274018F19FBD72BA46AA3CA84A41A76053C72A68FC091C4BB1CE136D50D950124F80270256F9E2EF4C2D4E130049FFD
310
0B504B0304140006080800D168324C407AF29E3E01000046050000300000006662782F34443234343531332D343743332D344536452D394343432D3836444243334235304631372F636E782E786D6CCD94C14EC3300C865F25CABD69CB109AA6349338F0041C10B734F54A581A57898BD8DB938C6E80D0108749DB2D727E4B
310
FF67FFB25CBF0F8EBD4188167DC36B517106DE60677DDFF08936C592B3B5920191BEC938F37A8086E73257B20F388D73A9838D9E5CAE3AEBB773511305DB4E049133E3748C0D8FE605062DF444D841DC8A4E9316B50810710A06523FD901E67E134013745CDD54F5B2A8EAA25E3ED68B5575B75ADC3ECB322B956C11DDACB7
310
9E20E0C80CA6874F662A59E66F25A760674D26E0EACB9968AD9765FA573226B7BE9F75B41BB36E1C9D359AD2984A3404542411E841969F6225CBCCFB83FAE1FEE9E080753680210CBB0B0DA03E3580A3319192F03FFEBDF06F6C6C5F13EEA5B67D1276B67536D4435A638AEBEFFDA71469DFBBEB0BFDD1D8F9339F4E095973
310
7DC8075F67222EF7272F2D3D5F40F501504B0304140006080800D168324C52E5CDF480000000A30000000B0000006662782F636E782E786D6C4D8CCB0AC32014447F45EEDE3636E651500331E97F84C604A9B9161B4B3FBF5AB2E8660E1C6646749FCD91B7092FEB51023B15400CDEFD6C719510F785B6403A2582F7FB5F0D
310
084E9B91903528B1061F9F879ACD324597ADB3F838241F2E9C57ACA4BCD129C67AA457AD356DEBA1D7655F1537D6A4C5394F127E7F89F95E7D01504B0304140006080800D168324CA6D797065F0000008200000007000000636E782E786D6C4DCB3B0E80201045D1AD90E9FD7516806B51190811670C8A61F982B1B0BAC9C9
310
7B72CA7B1037C6D3332918DA1E04D2CAC69353902EDB8C20262D23F3F59B81A079470595414B17391D1F19B4730A5583A7ED43BBE4025D9592775E5ADFFA01504B0304140006080800D168324C4FEB6A7CA0000000F4000000130000005B436F6E74656E745F54797065735D2E786D6C7D8F4B0EC2300C44AF1279DFA6B040
310
0835ED02B8011730C16D239A8F121795DB93D02D6269CFBC19BBED573B8B17C564BC53B0AB1B10E4B47F18372A5878A88E20FAAEBDBD032591BD2E299898C349CAA427B2986A1FC86565F0D122E7318E32A07EE24872DF3407A9BD63725C71C980AEBDD080CBCCE2BAE6F5D69B7110E7CD57AA146008B3D1C8F92C5954F993
310
BB1BF787F39A89ABC491D09600F9FDA2FB00504B0304140006080800D168324C3DEE336E64000000790000001B0000006175746F6465736B2D64657369676E2D7061636B6167652E786D6C35CBC10E83200C00D05F21DCA56CA76D41FC96062B120735B69A7DBE268BB7777961F8D5AF396893C2ADB70FE7ADA196782C2DF7
310
76D7A97B5933C430F15651E5469C55D70F80A4992A3ADC954792C525AE70A1E4D6AD9816CC044FEFDF01FE3FDE907802504B0304140006080800D168324CE3CD6C93F8000000960100003B0000006662782F34443234343531332D343743332D344536452D394343432D3836444243334235304631372F7265736F75726365
310
732F636F72652E786D6C8550CB6E833010FC15B477030687D2C8384A23FEA0A7DE2CB32156828DFCA8FAF9B50395DA534FBB9A9D99DD1D7EFA5A1EC5273AAFAD198096351468949DB4990788E14A7A284E823B6BC32F1A14462E38408641F0D9D9B8EE90B226A0C9A8B113EEA0F41E0314EA919A01BCBAE1224B194362F87B
310
B94A75973396B4DC7882C7A8A75DAAA7E4A6AF1A1D88C3B96E9BE63C92B17DE908BBB091BCD1434FBAFEB56763C7C69A5D7895C58207BDFC6C570E65C0094453D39ED494D0FE9DB6C7BA3BB6EC83579929B80F2EFDBC2FCDDF8170E86D740A3DAFB6E91FD7B84EFFBB466D42DBECAE9BC283A0E9C8E740F02AA794CA33C254
310
73A2E21B504B0304140006080800D168324C4822DB97F2000000B1010000310000006662782F34443234343531332D343743332D344536452D394343432D3836444243334235304631372F636F72652E786D6C8D504B6EC32014BC8AF5F660633B8E1B6122C5494FD055770888831283C5A7EAF10BB12BB5BB6C78689861E6
310
0D3D7ECF8FE24B39AFAD1980E00A0A658495DA4C03C470453D1447469DB5E10F0D0AC36735408681D1C9D9B86C90B02628935163A5DA40EEBD0A508847BA0CE0C54DCD1CF31812C3DFF1C2C59D4F0A13BCF2180D7AFE950AA7785012585D911E550491FE833487AA3B34ED272D3393D118B5DCACB44CEEFAAA9503D69EEBB6
310
DD9106B5FB311D97EE82DEC671447D773E8DCD6957BD933D2DB398511F5CDA79FB246FF7AA7C15FECB1C17F942666D42536F86ABC2032329CFF381D1321798C6B3DD3473D9EC07504B0304140006080800D168324C99F1AACE53010000DD0200000C0000006662782F636F72652E786D6C8D525D6F832014FD2B867754D43A
310
D7204DD7F80FF6B4378AD4922A1804D39F3FF023CE87758B099273EF3DE79E13F0E9D9B5C1C8F520942C010A631070C9542D6453026B6EB000C18960AD94F9D10602493B5E020F03821BAD6CBF404C49C3A547A5AAF902D261E00604AC7597120CECCE3B1A526B5CC7F0087BCA1EB4E1210AE73E82AD15F5322A6AC7266E82
310
6B400EE7384D927305ABF42D87D925ABE0073A14302FDE8BACCAB32ACE2E38F2C3041BD1ADEA4C736A780D4812A302C608A2E213A5C7383FA6D9178E7C27C183D1CEF322EADD0172BB3E7134E33B3EDBD77FF359214D9A2C7CF3C4000872EB4D0582239F8FFB4DE1ED3374C22E3F43AFED6AE1E1A09133A374E62AB5B25B69
310
A4ADE58E3A0EA60F4773D5314F04BFF1242F785E73B8A0A86CDC6AD4B8EBD51AAFBEDFA9E71A8EE61948A53BDA6ECBCD2B6EE726B4B3B48E33D52AFD9FE9D5EA1A66E41F26F906504B0304140006080800D168324C7A901B2206010000B201000008000000636F72652E786D6C8D50416EC32010FC0ADA3B36D8C475234C94
310
46FE414FBD51435C141B2C0351FBFB42EC4AEDADA74533B33BC3F0D3E73CA1BB5EBD71B6035A1040DA0E4E193B7610C315B7804E82AFCE855F324056CEBA830C83E0E3EAE2B24383B341DB8C5AA7F40E4AEF7500344CE9D1811F3EF42C0B194352F85BB1C8E126475DD062D3091ECCFCB33AAC5A06AD405484B698504CDB57
310
5A1F4973ACD91B2FB352F0188DDAAD8C4AEEE66AF40AE2702675559D7BDCD74F0D6617D6E3177A6871D33EB7AC6F584FD885977959701FD6F4E7FD48CA199097F7ECCBCB8D12FCDDB96917A4500A393B7D8120BCCCC49FD07151FF086D6CA8ABFDE0B6E141D014E84124E3DC601A8F7AD3CC6D8B6F504B0102140014000608
310
0800D168324C0000000000000000000000003700000000000000000000000000000000006662782F34443234343531332D343743332D344536452D394343432D3836444243334235304631372F617474726962757465732E62696E504B01021400140006080800D168324C0000000000000000000000003500000000000000
310
000000000000550000006662782F34443234343531332D343743332D344536452D394343432D3836444243334235304631372F76657274696365732E62696E504B01021400140006080800D168324CF270F13306000000040000003600000000000000000000000000A80000006662782F34443234343531332D343743332D
310
344536452D394343432D3836444243334235304631372F747269616E676C65732E62696E504B01021400140006080800D168324C51464CB489000000430100003600000000000000000000000000020100006662782F34443234343531332D343743332D344536452D394343432D3836444243334235304631372F64697265
310
63746F72792E786D6C504B01021400140006080800D168324CBD2D7A0C3D070000201C00003400000000000000000000000000DF0100006662782F34443234343531332D343743332D344536452D394343432D3836444243334235304631372F6F626A656374732E786D6C504B01021400140006080800D168324C407AF29E
310
3E0100004605000030000000000000000000000000006E0900006662782F34443234343531332D343743332D344536452D394343432D3836444243334235304631372F636E782E786D6C504B01021400140006080800D168324C52E5CDF480000000A30000000B00000000000000000000000000FA0A00006662782F636E78
310
2E786D6C504B01021400140006080800D168324CA6D797065F000000820000000700000000000000000000000000A30B0000636E782E786D6C504B01021400140006080800D168324C4FEB6A7CA0000000F40000001300000000000000000000000000270C00005B436F6E74656E745F54797065735D2E786D6C504B010214
310
00140006080800D168324C3DEE336E64000000790000001B00000000000000000000000000F80C00006175746F6465736B2D64657369676E2D7061636B6167652E786D6C504B01021400140006080800D168324CE3CD6C93F8000000960100003B00000000000000000000000000950D00006662782F34443234343531332D
310
343743332D344536452D394343432D3836444243334235304631372F7265736F75726365732F636F72652E786D6C504B01021400140006080800D168324C4822DB97F2000000B10100003100000000000000000000000000E60E00006662782F34443234343531332D343743332D344536452D394343432D38364442433342
310
35304631372F636F72652E786D6C504B01021400140006080800D168324C99F1AACE53010000DD0200000C00000000000000000000000000271000006662782F636F72652E786D6C504B01021400140006080800D168324C7A901B2206010000B20100000800000000000000000000000000A4110000636F72652E786D6C50
310
4B0506000000000E000E0080040000D01200000000
  0
XRECORD
  5
2FDD4
102
{ACAD_REACTORS
330
2FDD3
102
}
330
2FDD3
100
AcDbXrecord
280
     1
102
ACAD_ROUNDTRIP_2012_MLEADER_STYLE
298
     1
  0
XRECORD
  5
2FD82
102
{ACAD_REACTORS
330
2EBAA
102
}
330
2EBAA
100
AcDbXrecord
280
     1
102
DISPLAYNAME
  1
Metric50
102
FLAGS
 90
        0
  0
CELLSTYLEMAP
  5
2FD98
102
{ACAD_REACTORS
330
2FD97
102
}
330
2FD97
100
AcDbCellStyleMap
 90
        3
300
CELLSTYLE
  1
TABLEFORMAT_BEGIN
 90
        5
170
     1
 91
        0
 92
        0
 62
   257
 93
        1
300
CONTENTFORMAT
  1
CONTENTFORMAT_BEGIN
 90
        0
 91
        0
 92
        4
 93
        0
300

 40
0.0
140
1.0
 94
        5
 62
     0
340
17
144
6.0
309
CONTENTFORMAT_END
171
     1
301
MARGIN
  1
CELLMARGIN_BEGIN
 40
1.5
 40
1.5
 40
1.5
 40
1.5
 40
1.5
 40
1.5
309
CELLMARGIN_END
 94
        6
 95
        1
302
GRIDFORMAT
  1
GRIDFORMAT_BEGIN
 90
        0
 91
        1
 62
     0
 92
       -2
340
11
 93
        0
 40
0.045
309
GRIDFORMAT_END
 95
        2
302
GRIDFORMAT
  1
GRIDFORMAT_BEGIN
 90
        0
 91
        1
 62
     0
 92
       -2
340
11
 93
        0
 40
0.045
309
GRIDFORMAT_END
 95
        4
302
GRIDFORMAT
  1
GRIDFORMAT_BEGIN
 90
        0
 91
        1
 62
     0
 92
       -2
340
11
 93
        0
 40
0.045
309
GRIDFORMAT_END
 95
        8
302
GRIDFORMAT
  1
GRIDFORMAT_BEGIN
 90
        0
 91
        1
 62
     0
 92
       -2
340
11
 93
        0
 40
0.045
309
GRIDFORMAT_END
 95
       16
302
GRIDFORMAT
  1
GRIDFORMAT_BEGIN
 90
        0
 91
        1
 62
     0
 92
       -2
340
11
 93
        0
 40
0.045
309
GRIDFORMAT_END
 95
       32
302
GRIDFORMAT
  1
GRIDFORMAT_BEGIN
 90
        0
 91
        1
 62
     0
 92
       -2
340
11
 93
        0
 40
0.045
309
GRIDFORMAT_END
309
TABLEFORMAT_END
  1
CELLSTYLE_BEGIN
 90
        1
 91
        1
300
_TITLE
309
CELLSTYLE_END
300
CELLSTYLE
  1
TABLEFORMAT_BEGIN
 90
        5
170
     1
 91
        0
 92
        0
 62
   257
 93
        1
300
CONTENTFORMAT
  1
CONTENTFORMAT_BEGIN
 90
        0
 91
        0
 92
        4
 93
        0
300

 40
0.0
140
1.0
 94
        5
 62
     0
340
17
144
4.5
309
CONTENTFORMAT_END
171
     1
301
MARGIN
  1
CELLMARGIN_BEGIN
 40
1.5
 40
1.5
 40
1.5
 40
1.5
 40
1.5
 40
1.5
309
CELLMARGIN_END
 94
        6
 95
        1
302
GRIDFORMAT
  1
GRIDFORMAT_BEGIN
 90
        0
 91
        1
 62
     0
 92
       -2
340
11
 93
        0
 40
0.045
309
GRIDFORMAT_END
 95
        2
302
GRIDFORMAT
  1
GRIDFORMAT_BEGIN
 90
        0
 91
        1
 62
     0
 92
       -2
340
11
 93
        0
 40
0.045
309
GRIDFORMAT_END
 95
        4
302
GRIDFORMAT
  1
GRIDFORMAT_BEGIN
 90
        0
 91
        1
 62
     0
 92
       -2
340
11
 93
        0
 40
0.045
309
GRIDFORMAT_END
 95
        8
302
GRIDFORMAT
  1
GRIDFORMAT_BEGIN
 90
        0
 91
        1
 62
     0
 92
       -2
340
11
 93
        0
 40
0.045
309
GRIDFORMAT_END
 95
       16
302
GRIDFORMAT
  1
GRIDFORMAT_BEGIN
 90
        0
 91
        1
 62
     0
 92
       -2
340
11
 93
        0
 40
0.045
309
GRIDFORMAT_END
 95
       32
302
GRIDFORMAT
  1
GRIDFORMAT_BEGIN
 90
        0
 91
        1
 62
     0
 92
       -2
340
11
 93
        0
 40
0.045
309
GRIDFORMAT_END
309
TABLEFORMAT_END
  1
CELLSTYLE_BEGIN
 90
        2
 91
        1
300
_HEADER
309
CELLSTYLE_END
300
CELLSTYLE
  1
TABLEFORMAT_BEGIN
 90
        5
170
     1
 91
        0
 92
        0
 62
   257
 93
        1
300
CONTENTFORMAT
  1
CONTENTFORMAT_BEGIN
 90
        0
 91
        0
 92
        4
 93
        0
300

 40
0.0
140
1.0
 94
        2
 62
     0
340
17
144
4.5
309
CONTENTFORMAT_END
171
     1
301
MARGIN
  1
CELLMARGIN_BEGIN
 40
1.5
 40
1.5
 40
1.5
 40
1.5
 40
1.5
 40
1.5
309
CELLMARGIN_END
 94
        6
 95
        1
302
GRIDFORMAT
  1
GRIDFORMAT_BEGIN
 90
        0
 91
        1
 62
     0
 92
       -2
340
11
 93
        0
 40
0.045
309
GRIDFORMAT_END
 95
        2
302
GRIDFORMAT
  1
GRIDFORMAT_BEGIN
 90
        0
 91
        1
 62
     0
 92
       -2
340
11
 93
        0
 40
0.045
309
GRIDFORMAT_END
 95
        4
302
GRIDFORMAT
  1
GRIDFORMAT_BEGIN
 90
        0
 91
        1
 62
     0
 92
       -2
340
11
 93
        0
 40
0.045
309
GRIDFORMAT_END
 95
        8
302
GRIDFORMAT
  1
GRIDFORMAT_BEGIN
 90
        0
 91
        1
 62
     0
 92
       -2
340
11
 93
        0
 40
0.045
309
GRIDFORMAT_END
 95
       16
302
GRIDFORMAT
  1
GRIDFORMAT_BEGIN
 90
        0
 91
        1
 62
     0
 92
       -2
340
11
 93
        0
 40
0.045
309
GRIDFORMAT_END
 95
       32
302
GRIDFORMAT
  1
GRIDFORMAT_BEGIN
 90
        0
 91
        1
 62
     0
 92
       -2
340
11
 93
        0
 40
0.045
309
GRIDFORMAT_END
309
TABLEFORMAT_END
  1
CELLSTYLE_BEGIN
 90
        3
 91
        2
300
_DATA
309
CELLSTYLE_END
  0
XRECORD
  5
2FDAC
102
{ACAD_REACTORS
330
2FDAB
102
}
330
2FDAB
100
AcDbXrecord
280
     1
102
RTVSPost2010Prop28
280
     1
102
RTVSPost2010PropOp28
 70
     1
102
RTVSPost2010Prop29
280
     1
102
RTVSPost2010PropOp29
 70
     1
102
RTVSPost2010Prop30
280
     0
102
RTVSPost2010PropOp30
 70
     1
102
RTVSPost2010Prop31
280
     0
102
RTVSPost2010PropOp31
 70
     1
102
RTVSPost2010Prop32
280
     0
102
RTVSPost2010PropOp32
 70
     1
102
RTVSPost2010Prop33
280
     0
102
RTVSPost2010PropOp33
 70
     1
102
RTVSPost2010Prop34
280
     0
102
RTVSPost2010PropOp34
 70
     1
102
RTVSPost2010Prop35
280
     0
102
RTVSPost2010PropOp35
 70
     1
102
RTVSPost2010Prop36
280
     0
102
RTVSPost2010PropOp36
 70
     1
102
RTVSPost2010Prop37
 90
       50
102
RTVSPost2010PropOp37
 70
     1
102
RTVSPost2010Prop38
140
0.0
102
RTVSPost2010PropOp38
 70
     1
102
RTVSPost2010Prop39
140
1.0
102
RTVSPost2010PropOp39
 70
     1
102
RTVSPost2010Prop40
 90
        0
102
RTVSPost2010PropOp40
 70
     1
102
RTVSPost2010Prop41ColorIndex
 90
       18
102
RTVSPost2010Prop41ColorRGB
 90
        0
102
RTVSPost2010PropOp41
 70
     1
102
RTVSPost2010Prop42
 90
       50
102
RTVSPost2010PropOp42
 70
     1
102
RTVSPost2010Prop43
 90
        3
102
RTVSPost2010PropOp43
 70
     1
102
RTVSPost2010Prop44ColorIndex
 90
        5
102
RTVSPost2010Prop44ColorRGB
 90
      255
102
RTVSPost2010PropOp44
 70
     1
102
RTVSPost2010Prop45
280
     0
102
RTVSPost2010PropOp45
 70
     1
102
RTVSPost2010Prop46
 90
       50
102
RTVSPost2010PropOp46
 70
     1
102
RTVSPost2010Prop47
 90
       50
102
RTVSPost2010PropOp47
 70
     1
102
RTVSPost2010Prop48
 90
       50
102
RTVSPost2010PropOp48
 70
     1
102
RTVSPost2010Prop49
280
     0
102
RTVSPost2010PropOp49
 70
     1
102
RTVSPost2010Prop50
 90
       50
102
RTVSPost2010PropOp50
 70
     1
102
RTVSPost2010Prop51ColorIndex
 90
      256
102
RTVSPost2010Prop51ColorRGB
 90
-16777216
102
RTVSPost2010PropOp51
 70
     0
102
RTVSPost2010Prop52
140
1.0
102
RTVSPost2010PropOp52
 70
     0
102
RTVSPost2010Prop53
 90
        2
102
RTVSPost2010PropOp53
 70
     1
102
RTVSPost2010Prop54
  1
strokes_ogs.tif
102
RTVSPost2010PropOp54
 70
     1
102
RTVSPost2010Prop55
280
     0
102
RTVSPost2010PropOp55
 70
     1
102
RTVSPost2010Prop56
140
1.0
102
RTVSPost2010PropOp56
 70
     1
102
RTVSPost2010Prop57
140
1.0
102
RTVSPost2010PropOp57
 70
     1
  0
XRECORD
  5
2FDB2
102
{ACAD_REACTORS
330
2FDB1
102
}
330
2FDB1
100
AcDbXrecord
280
     1
102
RTVSPost2010Prop28
280
     0
102
RTVSPost2010PropOp28
 70
     1
102
RTVSPost2010Prop29
280
     1
102
RTVSPost2010PropOp29
 70
     1
102
RTVSPost2010Prop30
280
     1
102
RTVSPost2010PropOp30
 70
     1
102
RTVSPost2010Prop31
280
     0
102
RTVSPost2010PropOp31
 70
     1
102
RTVSPost2010Prop32
280
     0
102
RTVSPost2010PropOp32
 70
     1
102
RTVSPost2010Prop33
280
     0
102
RTVSPost2010PropOp33
 70
     1
102
RTVSPost2010Prop34
280
     0
102
RTVSPost2010PropOp34
 70
     1
102
RTVSPost2010Prop35
280
     0
102
RTVSPost2010PropOp35
 70
     1
102
RTVSPost2010Prop36
280
     0
102
RTVSPost2010PropOp36
 70
     1
102
RTVSPost2010Prop37
 90
       50
102
RTVSPost2010PropOp37
 70
     1
102
RTVSPost2010Prop38
140
0.0
102
RTVSPost2010PropOp38
 70
     1
102
RTVSPost2010Prop39
140
1.0
102
RTVSPost2010PropOp39
 70
     1
102
RTVSPost2010Prop40
 90
        0
102
RTVSPost2010PropOp40
 70
     1
102
RTVSPost2010Prop41ColorIndex
 90
       18
102
RTVSPost2010Prop41ColorRGB
 90
        0
102
RTVSPost2010PropOp41
 70
     1
102
RTVSPost2010Prop42
 90
       50
102
RTVSPost2010PropOp42
 70
     1
102
RTVSPost2010Prop43
 90
        3
102
RTVSPost2010PropOp43
 70
     1
102
RTVSPost2010Prop44ColorIndex
 90
        5
102
RTVSPost2010Prop44ColorRGB
 90
      255
102
RTVSPost2010PropOp44
 70
     1
102
RTVSPost2010Prop45
280
     0
102
RTVSPost2010PropOp45
 70
     1
102
RTVSPost2010Prop46
 90
       50
102
RTVSPost2010PropOp46
 70
     1
102
RTVSPost2010Prop47
 90
       50
102
RTVSPost2010PropOp47
 70
     1
102
RTVSPost2010Prop48
 90
       50
102
RTVSPost2010PropOp48
 70
     1
102
RTVSPost2010Prop49
280
     0
102
RTVSPost2010PropOp49
 70
     1
102
RTVSPost2010Prop50
 90
       50
102
RTVSPost2010PropOp50
 70
     1
102
RTVSPost2010Prop51ColorIndex
 90
      256
102
RTVSPost2010Prop51ColorRGB
 90
-16777216
102
RTVSPost2010PropOp51
 70
     0
102
RTVSPost2010Prop52
140
1.0
102
RTVSPost2010PropOp52
 70
     0
102
RTVSPost2010Prop53
 90
        2
102
RTVSPost2010PropOp53
 70
     1
102
RTVSPost2010Prop54
  1
strokes_ogs.tif
102
RTVSPost2010PropOp54
 70
     1
102
RTVSPost2010Prop55
280
     0
102
RTVSPost2010PropOp55
 70
     1
102
RTVSPost2010Prop56
140
1.0
102
RTVSPost2010PropOp56
 70
     1
102
RTVSPost2010Prop57
140
1.0
102
RTVSPost2010PropOp57
 70
     1
  0
XRECORD
  5
2FDBA
102
{ACAD_REACTORS
330
2FDB9
102
}
330
2FDB9
100
AcDbXrecord
280
     1
102
RTVSPost2010Prop28
280
     0
102
RTVSPost2010PropOp28
 70
     1
102
RTVSPost2010Prop29
280
     1
102
RTVSPost2010PropOp29
 70
     1
102
RTVSPost2010Prop30
280
     1
102
RTVSPost2010PropOp30
 70
     1
102
RTVSPost2010Prop31
280
     0
102
RTVSPost2010PropOp31
 70
     1
102
RTVSPost2010Prop32
280
     0
102
RTVSPost2010PropOp32
 70
     1
102
RTVSPost2010Prop33
280
     0
102
RTVSPost2010PropOp33
 70
     1
102
RTVSPost2010Prop34
280
     0
102
RTVSPost2010PropOp34
 70
     1
102
RTVSPost2010Prop35
280
     0
102
RTVSPost2010PropOp35
 70
     1
102
RTVSPost2010Prop36
280
     0
102
RTVSPost2010PropOp36
 70
     1
102
RTVSPost2010Prop37
 90
       50
102
RTVSPost2010PropOp37
 70
     1
102
RTVSPost2010Prop38
140
0.0
102
RTVSPost2010PropOp38
 70
     1
102
RTVSPost2010Prop39
140
1.0
102
RTVSPost2010PropOp39
 70
     1
102
RTVSPost2010Prop40
 90
        0
102
RTVSPost2010PropOp40
 70
     1
102
RTVSPost2010Prop41ColorIndex
 90
       18
102
RTVSPost2010Prop41ColorRGB
 90
        0
102
RTVSPost2010PropOp41
 70
     1
102
RTVSPost2010Prop42
 90
       50
102
RTVSPost2010PropOp42
 70
     1
102
RTVSPost2010Prop43
 90
        3
102
RTVSPost2010PropOp43
 70
     1
102
RTVSPost2010Prop44ColorIndex
 90
        5
102
RTVSPost2010Prop44ColorRGB
 90
      255
102
RTVSPost2010PropOp44
 70
     1
102
RTVSPost2010Prop45
280
     0
102
RTVSPost2010PropOp45
 70
     1
102
RTVSPost2010Prop46
 90
       50
102
RTVSPost2010PropOp46
 70
     1
102
RTVSPost2010Prop47
 90
       50
102
RTVSPost2010PropOp47
 70
     1
102
RTVSPost2010Prop48
 90
       50
102
RTVSPost2010PropOp48
 70
     1
102
RTVSPost2010Prop49
280
     0
102
RTVSPost2010PropOp49
 70
     1
102
RTVSPost2010Prop50
 90
       50
102
RTVSPost2010PropOp50
 70
     1
102
RTVSPost2010Prop51ColorIndex
 90
      256
102
RTVSPost2010Prop51ColorRGB
 90
-16777216
102
RTVSPost2010PropOp51
 70
     0
102
RTVSPost2010Prop52
140
1.0
102
RTVSPost2010PropOp52
 70
     0
102
RTVSPost2010Prop53
 90
        2
102
RTVSPost2010PropOp53
 70
     1
102
RTVSPost2010Prop54
  1
strokes_ogs.tif
102
RTVSPost2010PropOp54
 70
     1
102
RTVSPost2010Prop55
280
     0
102
RTVSPost2010PropOp55
 70
     1
102
RTVSPost2010Prop56
140
1.0
102
RTVSPost2010PropOp56
 70
     1
102
RTVSPost2010Prop57
140
1.0
102
RTVSPost2010PropOp57
 70
     1
  0
XRECORD
  5
2FDC2
102
{ACAD_REACTORS
330
2FDC1
102
}
330
2FDC1
100
AcDbXrecord
280
     1
102
RTVSPost2010Prop28
280
     0
102
RTVSPost2010PropOp28
 70
     1
102
RTVSPost2010Prop29
280
     1
102
RTVSPost2010PropOp29
 70
     1
102
RTVSPost2010Prop30
280
     1
102
RTVSPost2010PropOp30
 70
     1
102
RTVSPost2010Prop31
280
     0
102
RTVSPost2010PropOp31
 70
     1
102
RTVSPost2010Prop32
280
     0
102
RTVSPost2010PropOp32
 70
     1
102
RTVSPost2010Prop33
280
     0
102
RTVSPost2010PropOp33
 70
     1
102
RTVSPost2010Prop34
280
     0
102
RTVSPost2010PropOp34
 70
     1
102
RTVSPost2010Prop35
280
     0
102
RTVSPost2010PropOp35
 70
     1
102
RTVSPost2010Prop36
280
     0
102
RTVSPost2010PropOp36
 70
     1
102
RTVSPost2010Prop37
 90
       50
102
RTVSPost2010PropOp37
 70
     1
102
RTVSPost2010Prop38
140
0.0
102
RTVSPost2010PropOp38
 70
     1
102
RTVSPost2010Prop39
140
1.0
102
RTVSPost2010PropOp39
 70
     1
102
RTVSPost2010Prop40
 90
        0
102
RTVSPost2010PropOp40
 70
     1
102
RTVSPost2010Prop41ColorIndex
 90
       18
102
RTVSPost2010Prop41ColorRGB
 90
        0
102
RTVSPost2010PropOp41
 70
     1
102
RTVSPost2010Prop42
 90
       50
102
RTVSPost2010PropOp42
 70
     1
102
RTVSPost2010Prop43
 90
        3
102
RTVSPost2010PropOp43
 70
     1
102
RTVSPost2010Prop44ColorIndex
 90
        5
102
RTVSPost2010Prop44ColorRGB
 90
      255
102
RTVSPost2010PropOp44
 70
     1
102
RTVSPost2010Prop45
280
     0
102
RTVSPost2010PropOp45
 70
     1
102
RTVSPost2010Prop46
 90
       50
102
RTVSPost2010PropOp46
 70
     1
102
RTVSPost2010Prop47
 90
       50
102
RTVSPost2010PropOp47
 70
     1
102
RTVSPost2010Prop48
 90
       50
102
RTVSPost2010PropOp48
 70
     1
102
RTVSPost2010Prop49
280
     0
102
RTVSPost2010PropOp49
 70
     1
102
RTVSPost2010Prop50
 90
       50
102
RTVSPost2010PropOp50
 70
     1
102
RTVSPost2010Prop51ColorIndex
 90
      256
102
RTVSPost2010Prop51ColorRGB
 90
-16777216
102
RTVSPost2010PropOp51
 70
     0
102
RTVSPost2010Prop52
140
1.0
102
RTVSPost2010PropOp52
 70
     0
102
RTVSPost2010Prop53
 90
        2
102
RTVSPost2010PropOp53
 70
     1
102
RTVSPost2010Prop54
  1
strokes_ogs.tif
102
RTVSPost2010PropOp54
 70
     1
102
RTVSPost2010Prop55
280
     0
102
RTVSPost2010PropOp55
 70
     1
102
RTVSPost2010Prop56
140
1.0
102
RTVSPost2010PropOp56
 70
     1
102
RTVSPost2010Prop57
140
1.0
102
RTVSPost2010PropOp57
 70
     1
  0
XRECORD
  5
2FDB6
102
{ACAD_REACTORS
330
2FDB5
102
}
330
2FDB5
100
AcDbXrecord
280
     1
102
RTVSPost2010Prop28
280
     0
102
RTVSPost2010PropOp28
 70
     1
102
RTVSPost2010Prop29
280
     1
102
RTVSPost2010PropOp29
 70
     1
102
RTVSPost2010Prop30
280
     1
102
RTVSPost2010PropOp30
 70
     1
102
RTVSPost2010Prop31
280
     0
102
RTVSPost2010PropOp31
 70
     1
102
RTVSPost2010Prop32
280
     0
102
RTVSPost2010PropOp32
 70
     1
102
RTVSPost2010Prop33
280
     0
102
RTVSPost2010PropOp33
 70
     1
102
RTVSPost2010Prop34
280
     0
102
RTVSPost2010PropOp34
 70
     1
102
RTVSPost2010Prop35
280
     0
102
RTVSPost2010PropOp35
 70
     1
102
RTVSPost2010Prop36
280
     0
102
RTVSPost2010PropOp36
 70
     1
102
RTVSPost2010Prop37
 90
       50
102
RTVSPost2010PropOp37
 70
     1
102
RTVSPost2010Prop38
140
0.0
102
RTVSPost2010PropOp38
 70
     1
102
RTVSPost2010Prop39
140
1.0
102
RTVSPost2010PropOp39
 70
     1
102
RTVSPost2010Prop40
 90
        0
102
RTVSPost2010PropOp40
 70
     1
102
RTVSPost2010Prop41ColorIndex
 90
       18
102
RTVSPost2010Prop41ColorRGB
 90
        0
102
RTVSPost2010PropOp41
 70
     1
102
RTVSPost2010Prop42
 90
       50
102
RTVSPost2010PropOp42
 70
     1
102
RTVSPost2010Prop43
 90
        3
102
RTVSPost2010PropOp43
 70
     1
102
RTVSPost2010Prop44ColorIndex
 90
        5
102
RTVSPost2010Prop44ColorRGB
 90
      255
102
RTVSPost2010PropOp44
 70
     1
102
RTVSPost2010Prop45
280
     0
102
RTVSPost2010PropOp45
 70
     1
102
RTVSPost2010Prop46
 90
       50
102
RTVSPost2010PropOp46
 70
     1
102
RTVSPost2010Prop47
 90
       50
102
RTVSPost2010PropOp47
 70
     1
102
RTVSPost2010Prop48
 90
       50
102
RTVSPost2010PropOp48
 70
     1
102
RTVSPost2010Prop49
280
     0
102
RTVSPost2010PropOp49
 70
     1
102
RTVSPost2010Prop50
 90
       50
102
RTVSPost2010PropOp50
 70
     1
102
RTVSPost2010Prop51ColorIndex
 90
      256
102
RTVSPost2010Prop51ColorRGB
 90
-16777216
102
RTVSPost2010PropOp51
 70
     0
102
RTVSPost2010Prop52
140
1.0
102
RTVSPost2010PropOp52
 70
     0
102
RTVSPost2010Prop53
 90
        2
102
RTVSPost2010PropOp53
 70
     1
102
RTVSPost2010Prop54
  1
strokes_ogs.tif
102
RTVSPost2010PropOp54
 70
     1
102
RTVSPost2010Prop55
280
     0
102
RTVSPost2010PropOp55
 70
     1
102
RTVSPost2010Prop56
140
1.0
102
RTVSPost2010PropOp56
 70
     1
102
RTVSPost2010Prop57
140
1.0
102
RTVSPost2010PropOp57
 70
     1
  0
XRECORD
  5
2FDB8
102
{ACAD_REACTORS
330
2FDB7
102
}
330
2FDB7
100
AcDbXrecord
280
     1
102
RTVSPost2010Prop28
280
     0
102
RTVSPost2010PropOp28
 70
     1
102
RTVSPost2010Prop29
280
     1
102
RTVSPost2010PropOp29
 70
     1
102
RTVSPost2010Prop30
280
     1
102
RTVSPost2010PropOp30
 70
     1
102
RTVSPost2010Prop31
280
     0
102
RTVSPost2010PropOp31
 70
     1
102
RTVSPost2010Prop32
280
     0
102
RTVSPost2010PropOp32
 70
     1
102
RTVSPost2010Prop33
280
     0
102
RTVSPost2010PropOp33
 70
     1
102
RTVSPost2010Prop34
280
     0
102
RTVSPost2010PropOp34
 70
     1
102
RTVSPost2010Prop35
280
     0
102
RTVSPost2010PropOp35
 70
     1
102
RTVSPost2010Prop36
280
     0
102
RTVSPost2010PropOp36
 70
     1
102
RTVSPost2010Prop37
 90
       50
102
RTVSPost2010PropOp37
 70
     1
102
RTVSPost2010Prop38
140
0.0
102
RTVSPost2010PropOp38
 70
     1
102
RTVSPost2010Prop39
140
1.0
102
RTVSPost2010PropOp39
 70
     1
102
RTVSPost2010Prop40
 90
        0
102
RTVSPost2010PropOp40
 70
     1
102
RTVSPost2010Prop41ColorIndex
 90
       18
102
RTVSPost2010Prop41ColorRGB
 90
        0
102
RTVSPost2010PropOp41
 70
     1
102
RTVSPost2010Prop42
 90
       50
102
RTVSPost2010PropOp42
 70
     1
102
RTVSPost2010Prop43
 90
        3
102
RTVSPost2010PropOp43
 70
     1
102
RTVSPost2010Prop44ColorIndex
 90
        5
102
RTVSPost2010Prop44ColorRGB
 90
      255
102
RTVSPost2010PropOp44
 70
     1
102
RTVSPost2010Prop45
280
     0
102
RTVSPost2010PropOp45
 70
     1
102
RTVSPost2010Prop46
 90
       50
102
RTVSPost2010PropOp46
 70
     1
102
RTVSPost2010Prop47
 90
       50
102
RTVSPost2010PropOp47
 70
     1
102
RTVSPost2010Prop48
 90
       50
102
RTVSPost2010PropOp48
 70
     1
102
RTVSPost2010Prop49
280
     0
102
RTVSPost2010PropOp49
 70
     1
102
RTVSPost2010Prop50
 90
       50
102
RTVSPost2010PropOp50
 70
     1
102
RTVSPost2010Prop51ColorIndex
 90
      256
102
RTVSPost2010Prop51ColorRGB
 90
-16777216
102
RTVSPost2010PropOp51
 70
     0
102
RTVSPost2010Prop52
140
1.0
102
RTVSPost2010PropOp52
 70
     0
102
RTVSPost2010Prop53
 90
        2
102
RTVSPost2010PropOp53
 70
     1
102
RTVSPost2010Prop54
  1
strokes_ogs.tif
102
RTVSPost2010PropOp54
 70
     1
102
RTVSPost2010Prop55
280
     0
102
RTVSPost2010PropOp55
 70
     1
102
RTVSPost2010Prop56
140
1.0
102
RTVSPost2010PropOp56
 70
     1
102
RTVSPost2010Prop57
140
1.0
102
RTVSPost2010PropOp57
 70
     1
  0
XRECORD
  5
2FDC8
102
{ACAD_REACTORS
330
2FDC7
102
}
330
2FDC7
100
AcDbXrecord
280
     1
102
RTVSPost2010Prop28
280
     0
102
RTVSPost2010PropOp28
 70
     0
102
RTVSPost2010Prop29
280
     1
102
RTVSPost2010PropOp29
 70
     0
102
RTVSPost2010Prop30
280
     1
102
RTVSPost2010PropOp30
 70
     0
102
RTVSPost2010Prop31
280
     0
102
RTVSPost2010PropOp31
 70
     0
102
RTVSPost2010Prop32
280
     0
102
RTVSPost2010PropOp32
 70
     0
102
RTVSPost2010Prop33
280
     0
102
RTVSPost2010PropOp33
 70
     0
102
RTVSPost2010Prop34
280
     0
102
RTVSPost2010PropOp34
 70
     0
102
RTVSPost2010Prop35
280
     0
102
RTVSPost2010PropOp35
 70
     0
102
RTVSPost2010Prop36
280
     0
102
RTVSPost2010PropOp36
 70
     0
102
RTVSPost2010Prop37
 90
       50
102
RTVSPost2010PropOp37
 70
     0
102
RTVSPost2010Prop38
140
0.0
102
RTVSPost2010PropOp38
 70
     0
102
RTVSPost2010Prop39
140
1.0
102
RTVSPost2010PropOp39
 70
     0
102
RTVSPost2010Prop40
 90
        0
102
RTVSPost2010PropOp40
 70
     0
102
RTVSPost2010Prop41ColorIndex
 90
       18
102
RTVSPost2010Prop41ColorRGB
 90
        0
102
RTVSPost2010PropOp41
 70
     0
102
RTVSPost2010Prop42
 90
       50
102
RTVSPost2010PropOp42
 70
     0
102
RTVSPost2010Prop43
 90
        3
102
RTVSPost2010PropOp43
 70
     0
102
RTVSPost2010Prop44ColorIndex
 90
        5
102
RTVSPost2010Prop44ColorRGB
 90
      255
102
RTVSPost2010PropOp44
 70
     0
102
RTVSPost2010Prop45
280
     0
102
RTVSPost2010PropOp45
 70
     0
102
RTVSPost2010Prop46
 90
       50
102
RTVSPost2010PropOp46
 70
     0
102
RTVSPost2010Prop47
 90
       50
102
RTVSPost2010PropOp47
 70
     0
102
RTVSPost2010Prop48
 90
       50
102
RTVSPost2010PropOp48
 70
     0
102
RTVSPost2010Prop49
280
     0
102
RTVSPost2010PropOp49
 70
     0
102
RTVSPost2010Prop50
 90
       50
102
RTVSPost2010PropOp50
 70
     0
102
RTVSPost2010Prop51ColorIndex
 90
      256
102
RTVSPost2010Prop51ColorRGB
 90
-16777216
102
RTVSPost2010PropOp51
 70
     0
102
RTVSPost2010Prop52
140
1.0
102
RTVSPost2010PropOp52
 70
     0
102
RTVSPost2010Prop53
 90
        2
102
RTVSPost2010PropOp53
 70
     0
102
RTVSPost2010Prop54
  1
strokes_ogs.tif
102
RTVSPost2010PropOp54
 70
     0
102
RTVSPost2010Prop55
280
     0
102
RTVSPost2010PropOp55
 70
     0
102
RTVSPost2010Prop56
140
1.0
102
RTVSPost2010PropOp56
 70
     0
102
RTVSPost2010Prop57
140
1.0
102
RTVSPost2010PropOp57
 70
     0
  0
XRECORD
  5
2FDC0
102
{ACAD_REACTORS
330
2FDBF
102
}
330
2FDBF
100
AcDbXrecord
280
     1
102
RTVSPost2010Prop28
280
     0
102
RTVSPost2010PropOp28
 70
     1
102
RTVSPost2010Prop29
280
     1
102
RTVSPost2010PropOp29
 70
     1
102
RTVSPost2010Prop30
280
     1
102
RTVSPost2010PropOp30
 70
     1
102
RTVSPost2010Prop31
280
     0
102
RTVSPost2010PropOp31
 70
     1
102
RTVSPost2010Prop32
280
     0
102
RTVSPost2010PropOp32
 70
     1
102
RTVSPost2010Prop33
280
     0
102
RTVSPost2010PropOp33
 70
     1
102
RTVSPost2010Prop34
280
     0
102
RTVSPost2010PropOp34
 70
     1
102
RTVSPost2010Prop35
280
     0
102
RTVSPost2010PropOp35
 70
     1
102
RTVSPost2010Prop36
280
     0
102
RTVSPost2010PropOp36
 70
     1
102
RTVSPost2010Prop37
 90
       50
102
RTVSPost2010PropOp37
 70
     1
102
RTVSPost2010Prop38
140
0.0
102
RTVSPost2010PropOp38
 70
     1
102
RTVSPost2010Prop39
140
1.0
102
RTVSPost2010PropOp39
 70
     1
102
RTVSPost2010Prop40
 90
        0
102
RTVSPost2010PropOp40
 70
     1
102
RTVSPost2010Prop41ColorIndex
 90
       18
102
RTVSPost2010Prop41ColorRGB
 90
        0
102
RTVSPost2010PropOp41
 70
     1
102
RTVSPost2010Prop42
 90
       50
102
RTVSPost2010PropOp42
 70
     1
102
RTVSPost2010Prop43
 90
        3
102
RTVSPost2010PropOp43
 70
     1
102
RTVSPost2010Prop44ColorIndex
 90
        5
102
RTVSPost2010Prop44ColorRGB
 90
      255
102
RTVSPost2010PropOp44
 70
     1
102
RTVSPost2010Prop45
280
     0
102
RTVSPost2010PropOp45
 70
     1
102
RTVSPost2010Prop46
 90
       50
102
RTVSPost2010PropOp46
 70
     1
102
RTVSPost2010Prop47
 90
       50
102
RTVSPost2010PropOp47
 70
     1
102
RTVSPost2010Prop48
 90
       50
102
RTVSPost2010PropOp48
 70
     1
102
RTVSPost2010Prop49
280
     0
102
RTVSPost2010PropOp49
 70
     1
102
RTVSPost2010Prop50
 90
       50
102
RTVSPost2010PropOp50
 70
     1
102
RTVSPost2010Prop51ColorIndex
 90
      256
102
RTVSPost2010Prop51ColorRGB
 90
-16777216
102
RTVSPost2010PropOp51
 70
     0
102
RTVSPost2010Prop52
140
1.0
102
RTVSPost2010PropOp52
 70
     0
102
RTVSPost2010Prop53
 90
        2
102
RTVSPost2010PropOp53
 70
     1
102
RTVSPost2010Prop54
  1
strokes_ogs.tif
102
RTVSPost2010PropOp54
 70
     1
102
RTVSPost2010Prop55
280
     0
102
RTVSPost2010PropOp55
 70
     1
102
RTVSPost2010Prop56
140
1.0
102
RTVSPost2010PropOp56
 70
     1
102
RTVSPost2010Prop57
140
1.0
102
RTVSPost2010PropOp57
 70
     1
  0
XRECORD
  5
2FDA4
102
{ACAD_REACTORS
330
2FDA3
102
}
330
2FDA3
100
AcDbXrecord
280
     1
102
RTVSPost2010Prop28
280
     0
102
RTVSPost2010PropOp28
 70
     1
102
RTVSPost2010Prop29
280
     1
102
RTVSPost2010PropOp29
 70
     1
102
RTVSPost2010Prop30
280
     1
102
RTVSPost2010PropOp30
 70
     1
102
RTVSPost2010Prop31
280
     0
102
RTVSPost2010PropOp31
 70
     1
102
RTVSPost2010Prop32
280
     0
102
RTVSPost2010PropOp32
 70
     1
102
RTVSPost2010Prop33
280
     0
102
RTVSPost2010PropOp33
 70
     1
102
RTVSPost2010Prop34
280
     0
102
RTVSPost2010PropOp34
 70
     1
102
RTVSPost2010Prop35
280
     0
102
RTVSPost2010PropOp35
 70
     1
102
RTVSPost2010Prop36
280
     0
102
RTVSPost2010PropOp36
 70
     1
102
RTVSPost2010Prop37
 90
       50
102
RTVSPost2010PropOp37
 70
     1
102
RTVSPost2010Prop38
140
0.0
102
RTVSPost2010PropOp38
 70
     1
102
RTVSPost2010Prop39
140
1.0
102
RTVSPost2010PropOp39
 70
     1
102
RTVSPost2010Prop40
 90
        0
102
RTVSPost2010PropOp40
 70
     1
102
RTVSPost2010Prop41ColorIndex
 90
       18
102
RTVSPost2010Prop41ColorRGB
 90
        0
102
RTVSPost2010PropOp41
 70
     1
102
RTVSPost2010Prop42
 90
       50
102
RTVSPost2010PropOp42
 70
     1
102
RTVSPost2010Prop43
 90
        3
102
RTVSPost2010PropOp43
 70
     1
102
RTVSPost2010Prop44ColorIndex
 90
        5
102
RTVSPost2010Prop44ColorRGB
 90
      255
102
RTVSPost2010PropOp44
 70
     1
102
RTVSPost2010Prop45
280
     0
102
RTVSPost2010PropOp45
 70
     1
102
RTVSPost2010Prop46
 90
       50
102
RTVSPost2010PropOp46
 70
     1
102
RTVSPost2010Prop47
 90
       50
102
RTVSPost2010PropOp47
 70
     1
102
RTVSPost2010Prop48
 90
       50
102
RTVSPost2010PropOp48
 70
     1
102
RTVSPost2010Prop49
280
     0
102
RTVSPost2010PropOp49
 70
     1
102
RTVSPost2010Prop50
 90
       50
102
RTVSPost2010PropOp50
 70
     1
102
RTVSPost2010Prop51ColorIndex
 90
      256
102
RTVSPost2010Prop51ColorRGB
 90
-16777216
102
RTVSPost2010PropOp51
 70
     0
102
RTVSPost2010Prop52
140
1.0
102
RTVSPost2010PropOp52
 70
     0
102
RTVSPost2010Prop53
 90
        2
102
RTVSPost2010PropOp53
 70
     1
102
RTVSPost2010Prop54
  1
strokes_ogs.tif
102
RTVSPost2010PropOp54
 70
     1
102
RTVSPost2010Prop55
280
     0
102
RTVSPost2010PropOp55
 70
     1
102
RTVSPost2010Prop56
140
1.0
102
RTVSPost2010PropOp56
 70
     1
102
RTVSPost2010Prop57
140
1.0
102
RTVSPost2010PropOp57
 70
     1
  0
XRECORD
  5
2FDA6
102
{ACAD_REACTORS
330
2FDA5
102
}
330
2FDA5
100
AcDbXrecord
280
     1
102
RTVSPost2010Prop28
280
     0
102
RTVSPost2010PropOp28
 70
     1
102
RTVSPost2010Prop29
280
     1
102
RTVSPost2010PropOp29
 70
     1
102
RTVSPost2010Prop30
280
     1
102
RTVSPost2010PropOp30
 70
     1
102
RTVSPost2010Prop31
280
     0
102
RTVSPost2010PropOp31
 70
     1
102
RTVSPost2010Prop32
280
     0
102
RTVSPost2010PropOp32
 70
     1
102
RTVSPost2010Prop33
280
     0
102
RTVSPost2010PropOp33
 70
     1
102
RTVSPost2010Prop34
280
     0
102
RTVSPost2010PropOp34
 70
     1
102
RTVSPost2010Prop35
280
     0
102
RTVSPost2010PropOp35
 70
     1
102
RTVSPost2010Prop36
280
     0
102
RTVSPost2010PropOp36
 70
     1
102
RTVSPost2010Prop37
 90
       50
102
RTVSPost2010PropOp37
 70
     1
102
RTVSPost2010Prop38
140
0.0
102
RTVSPost2010PropOp38
 70
     1
102
RTVSPost2010Prop39
140
1.0
102
RTVSPost2010PropOp39
 70
     1
102
RTVSPost2010Prop40
 90
        0
102
RTVSPost2010PropOp40
 70
     1
102
RTVSPost2010Prop41ColorIndex
 90
       18
102
RTVSPost2010Prop41ColorRGB
 90
        0
102
RTVSPost2010PropOp41
 70
     1
102
RTVSPost2010Prop42
 90
       50
102
RTVSPost2010PropOp42
 70
     1
102
RTVSPost2010Prop43
 90
        3
102
RTVSPost2010PropOp43
 70
     1
102
RTVSPost2010Prop44ColorIndex
 90
        5
102
RTVSPost2010Prop44ColorRGB
 90
      255
102
RTVSPost2010PropOp44
 70
     1
102
RTVSPost2010Prop45
280
     0
102
RTVSPost2010PropOp45
 70
     1
102
RTVSPost2010Prop46
 90
       50
102
RTVSPost2010PropOp46
 70
     1
102
RTVSPost2010Prop47
 90
       50
102
RTVSPost2010PropOp47
 70
     1
102
RTVSPost2010Prop48
 90
       50
102
RTVSPost2010PropOp48
 70
     1
102
RTVSPost2010Prop49
280
     0
102
RTVSPost2010PropOp49
 70
     1
102
RTVSPost2010Prop50
 90
       50
102
RTVSPost2010PropOp50
 70
     1
102
RTVSPost2010Prop51ColorIndex
 90
      256
102
RTVSPost2010Prop51ColorRGB
 90
-16777216
102
RTVSPost2010PropOp51
 70
     0
102
RTVSPost2010Prop52
140
1.0
102
RTVSPost2010PropOp52
 70
     0
102
RTVSPost2010Prop53
 90
        2
102
RTVSPost2010PropOp53
 70
     1
102
RTVSPost2010Prop54
  1
strokes_ogs.tif
102
RTVSPost2010PropOp54
 70
     1
102
RTVSPost2010Prop55
280
     0
102
RTVSPost2010PropOp55
 70
     1
102
RTVSPost2010Prop56
140
1.0
102
RTVSPost2010PropOp56
 70
     1
102
RTVSPost2010Prop57
140
1.0
102
RTVSPost2010PropOp57
 70
     1
  0
XRECORD
  5
2FDA8
102
{ACAD_REACTORS
330
2FDA7
102
}
330
2FDA7
100
AcDbXrecord
280
     1
102
RTVSPost2010Prop28
280
     0
102
RTVSPost2010PropOp28
 70
     1
102
RTVSPost2010Prop29
280
     1
102
RTVSPost2010PropOp29
 70
     1
102
RTVSPost2010Prop30
280
     1
102
RTVSPost2010PropOp30
 70
     1
102
RTVSPost2010Prop31
280
     0
102
RTVSPost2010PropOp31
 70
     1
102
RTVSPost2010Prop32
280
     0
102
RTVSPost2010PropOp32
 70
     1
102
RTVSPost2010Prop33
280
     0
102
RTVSPost2010PropOp33
 70
     1
102
RTVSPost2010Prop34
280
     0
102
RTVSPost2010PropOp34
 70
     1
102
RTVSPost2010Prop35
280
     0
102
RTVSPost2010PropOp35
 70
     1
102
RTVSPost2010Prop36
280
     0
102
RTVSPost2010PropOp36
 70
     1
102
RTVSPost2010Prop37
 90
       50
102
RTVSPost2010PropOp37
 70
     1
102
RTVSPost2010Prop38
140
0.0
102
RTVSPost2010PropOp38
 70
     1
102
RTVSPost2010Prop39
140
1.0
102
RTVSPost2010PropOp39
 70
     1
102
RTVSPost2010Prop40
 90
        0
102
RTVSPost2010PropOp40
 70
     1
102
RTVSPost2010Prop41ColorIndex
 90
       18
102
RTVSPost2010Prop41ColorRGB
 90
        0
102
RTVSPost2010PropOp41
 70
     1
102
RTVSPost2010Prop42
 90
       50
102
RTVSPost2010PropOp42
 70
     1
102
RTVSPost2010Prop43
 90
        3
102
RTVSPost2010PropOp43
 70
     1
102
RTVSPost2010Prop44ColorIndex
 90
        5
102
RTVSPost2010Prop44ColorRGB
 90
      255
102
RTVSPost2010PropOp44
 70
     1
102
RTVSPost2010Prop45
280
     0
102
RTVSPost2010PropOp45
 70
     1
102
RTVSPost2010Prop46
 90
       50
102
RTVSPost2010PropOp46
 70
     1
102
RTVSPost2010Prop47
 90
       50
102
RTVSPost2010PropOp47
 70
     1
102
RTVSPost2010Prop48
 90
       50
102
RTVSPost2010PropOp48
 70
     1
102
RTVSPost2010Prop49
280
     0
102
RTVSPost2010PropOp49
 70
     1
102
RTVSPost2010Prop50
 90
       50
102
RTVSPost2010PropOp50
 70
     1
102
RTVSPost2010Prop51ColorIndex
 90
      256
102
RTVSPost2010Prop51ColorRGB
 90
-16777216
102
RTVSPost2010PropOp51
 70
     0
102
RTVSPost2010Prop52
140
1.0
102
RTVSPost2010PropOp52
 70
     0
102
RTVSPost2010Prop53
 90
        2
102
RTVSPost2010PropOp53
 70
     1
102
RTVSPost2010Prop54
  1
strokes_ogs.tif
102
RTVSPost2010PropOp54
 70
     1
102
RTVSPost2010Prop55
280
     0
102
RTVSPost2010PropOp55
 70
     1
102
RTVSPost2010Prop56
140
1.0
102
RTVSPost2010PropOp56
 70
     1
102
RTVSPost2010Prop57
140
1.0
102
RTVSPost2010PropOp57
 70
     1
  0
XRECORD
  5
2FDAA
102
{ACAD_REACTORS
330
2FDA9
102
}
330
2FDA9
100
AcDbXrecord
280
     1
102
RTVSPost2010Prop28
280
     0
102
RTVSPost2010PropOp28
 70
     1
102
RTVSPost2010Prop29
280
     1
102
RTVSPost2010PropOp29
 70
     1
102
RTVSPost2010Prop30
280
     1
102
RTVSPost2010PropOp30
 70
     1
102
RTVSPost2010Prop31
280
     0
102
RTVSPost2010PropOp31
 70
     1
102
RTVSPost2010Prop32
280
     0
102
RTVSPost2010PropOp32
 70
     1
102
RTVSPost2010Prop33
280
     0
102
RTVSPost2010PropOp33
 70
     1
102
RTVSPost2010Prop34
280
     0
102
RTVSPost2010PropOp34
 70
     1
102
RTVSPost2010Prop35
280
     0
102
RTVSPost2010PropOp35
 70
     1
102
RTVSPost2010Prop36
280
     0
102
RTVSPost2010PropOp36
 70
     1
102
RTVSPost2010Prop37
 90
       50
102
RTVSPost2010PropOp37
 70
     1
102
RTVSPost2010Prop38
140
0.0
102
RTVSPost2010PropOp38
 70
     1
102
RTVSPost2010Prop39
140
1.0
102
RTVSPost2010PropOp39
 70
     1
102
RTVSPost2010Prop40
 90
        0
102
RTVSPost2010PropOp40
 70
     1
102
RTVSPost2010Prop41ColorIndex
 90
       18
102
RTVSPost2010Prop41ColorRGB
 90
        0
102
RTVSPost2010PropOp41
 70
     1
102
RTVSPost2010Prop42
 90
       50
102
RTVSPost2010PropOp42
 70
     1
102
RTVSPost2010Prop43
 90
        3
102
RTVSPost2010PropOp43
 70
     1
102
RTVSPost2010Prop44ColorIndex
 90
        5
102
RTVSPost2010Prop44ColorRGB
 90
      255
102
RTVSPost2010PropOp44
 70
     1
102
RTVSPost2010Prop45
280
     0
102
RTVSPost2010PropOp45
 70
     1
102
RTVSPost2010Prop46
 90
       50
102
RTVSPost2010PropOp46
 70
     1
102
RTVSPost2010Prop47
 90
       50
102
RTVSPost2010PropOp47
 70
     1
102
RTVSPost2010Prop48
 90
       50
102
RTVSPost2010PropOp48
 70
     1
102
RTVSPost2010Prop49
280
     0
102
RTVSPost2010PropOp49
 70
     1
102
RTVSPost2010Prop50
 90
       50
102
RTVSPost2010PropOp50
 70
     1
102
RTVSPost2010Prop51ColorIndex
 90
      256
102
RTVSPost2010Prop51ColorRGB
 90
-16777216
102
RTVSPost2010PropOp51
 70
     0
102
RTVSPost2010Prop52
140
1.0
102
RTVSPost2010PropOp52
 70
     0
102
RTVSPost2010Prop53
 90
        2
102
RTVSPost2010PropOp53
 70
     1
102
RTVSPost2010Prop54
  1
strokes_ogs.tif
102
RTVSPost2010PropOp54
 70
     1
102
RTVSPost2010Prop55
280
     0
102
RTVSPost2010PropOp55
 70
     1
102
RTVSPost2010Prop56
140
1.0
102
RTVSPost2010PropOp56
 70
     1
102
RTVSPost2010Prop57
140
1.0
102
RTVSPost2010PropOp57
 70
     1
  0
XRECORD
  5
2FDB0
102
{ACAD_REACTORS
330
2FDAF
102
}
330
2FDAF
100
AcDbXrecord
280
     1
102
RTVSPost2010Prop28
280
     0
102
RTVSPost2010PropOp28
 70
     1
102
RTVSPost2010Prop29
280
     1
102
RTVSPost2010PropOp29
 70
     1
102
RTVSPost2010Prop30
280
     1
102
RTVSPost2010PropOp30
 70
     1
102
RTVSPost2010Prop31
280
     0
102
RTVSPost2010PropOp31
 70
     1
102
RTVSPost2010Prop32
280
     0
102
RTVSPost2010PropOp32
 70
     1
102
RTVSPost2010Prop33
280
     0
102
RTVSPost2010PropOp33
 70
     1
102
RTVSPost2010Prop34
280
     0
102
RTVSPost2010PropOp34
 70
     1
102
RTVSPost2010Prop35
280
     0
102
RTVSPost2010PropOp35
 70
     1
102
RTVSPost2010Prop36
280
     0
102
RTVSPost2010PropOp36
 70
     1
102
RTVSPost2010Prop37
 90
       50
102
RTVSPost2010PropOp37
 70
     1
102
RTVSPost2010Prop38
140
0.0
102
RTVSPost2010PropOp38
 70
     1
102
RTVSPost2010Prop39
140
1.0
102
RTVSPost2010PropOp39
 70
     1
102
RTVSPost2010Prop40
 90
        0
102
RTVSPost2010PropOp40
 70
     1
102
RTVSPost2010Prop41ColorIndex
 90
       18
102
RTVSPost2010Prop41ColorRGB
 90
        0
102
RTVSPost2010PropOp41
 70
     1
102
RTVSPost2010Prop42
 90
       50
102
RTVSPost2010PropOp42
 70
     1
102
RTVSPost2010Prop43
 90
        3
102
RTVSPost2010PropOp43
 70
     1
102
RTVSPost2010Prop44ColorIndex
 90
        5
102
RTVSPost2010Prop44ColorRGB
 90
      255
102
RTVSPost2010PropOp44
 70
     1
102
RTVSPost2010Prop45
280
     0
102
RTVSPost2010PropOp45
 70
     1
102
RTVSPost2010Prop46
 90
       50
102
RTVSPost2010PropOp46
 70
     1
102
RTVSPost2010Prop47
 90
       50
102
RTVSPost2010PropOp47
 70
     1
102
RTVSPost2010Prop48
 90
       50
102
RTVSPost2010PropOp48
 70
     1
102
RTVSPost2010Prop49
280
     0
102
RTVSPost2010PropOp49
 70
     1
102
RTVSPost2010Prop50
 90
       50
102
RTVSPost2010PropOp50
 70
     1
102
RTVSPost2010Prop51ColorIndex
 90
      256
102
RTVSPost2010Prop51ColorRGB
 90
-16777216
102
RTVSPost2010PropOp51
 70
     0
102
RTVSPost2010Prop52
140
1.0
102
RTVSPost2010PropOp52
 70
     0
102
RTVSPost2010Prop53
 90
        2
102
RTVSPost2010PropOp53
 70
     1
102
RTVSPost2010Prop54
  1
strokes_ogs.tif
102
RTVSPost2010PropOp54
 70
     1
102
RTVSPost2010Prop55
280
     0
102
RTVSPost2010PropOp55
 70
     1
102
RTVSPost2010Prop56
140
1.0
102
RTVSPost2010PropOp56
 70
     1
102
RTVSPost2010Prop57
140
1.0
102
RTVSPost2010PropOp57
 70
     1
  0
XRECORD
  5
2FDC4
102
{ACAD_REACTORS
330
2FDC3
102
}
330
2FDC3
100
AcDbXrecord
280
     1
102
RTVSPost2010Prop28
280
     0
102
RTVSPost2010PropOp28
 70
     0
102
RTVSPost2010Prop29
280
     1
102
RTVSPost2010PropOp29
 70
     0
102
RTVSPost2010Prop30
280
     1
102
RTVSPost2010PropOp30
 70
     0
102
RTVSPost2010Prop31
280
     0
102
RTVSPost2010PropOp31
 70
     0
102
RTVSPost2010Prop32
280
     0
102
RTVSPost2010PropOp32
 70
     0
102
RTVSPost2010Prop33
280
     0
102
RTVSPost2010PropOp33
 70
     0
102
RTVSPost2010Prop34
280
     0
102
RTVSPost2010PropOp34
 70
     0
102
RTVSPost2010Prop35
280
     0
102
RTVSPost2010PropOp35
 70
     0
102
RTVSPost2010Prop36
280
     0
102
RTVSPost2010PropOp36
 70
     0
102
RTVSPost2010Prop37
 90
       50
102
RTVSPost2010PropOp37
 70
     0
102
RTVSPost2010Prop38
140
0.0
102
RTVSPost2010PropOp38
 70
     0
102
RTVSPost2010Prop39
140
1.0
102
RTVSPost2010PropOp39
 70
     0
102
RTVSPost2010Prop40
 90
        0
102
RTVSPost2010PropOp40
 70
     0
102
RTVSPost2010Prop41ColorIndex
 90
       18
102
RTVSPost2010Prop41ColorRGB
 90
        0
102
RTVSPost2010PropOp41
 70
     0
102
RTVSPost2010Prop42
 90
       50
102
RTVSPost2010PropOp42
 70
     0
102
RTVSPost2010Prop43
 90
        3
102
RTVSPost2010PropOp43
 70
     0
102
RTVSPost2010Prop44ColorIndex
 90
        5
102
RTVSPost2010Prop44ColorRGB
 90
      255
102
RTVSPost2010PropOp44
 70
     0
102
RTVSPost2010Prop45
280
     0
102
RTVSPost2010PropOp45
 70
     0
102
RTVSPost2010Prop46
 90
       50
102
RTVSPost2010PropOp46
 70
     0
102
RTVSPost2010Prop47
 90
       50
102
RTVSPost2010PropOp47
 70
     0
102
RTVSPost2010Prop48
 90
       50
102
RTVSPost2010PropOp48
 70
     0
102
RTVSPost2010Prop49
280
     0
102
RTVSPost2010PropOp49
 70
     0
102
RTVSPost2010Prop50
 90
       50
102
RTVSPost2010PropOp50
 70
     0
102
RTVSPost2010Prop51ColorIndex
 90
      256
102
RTVSPost2010Prop51ColorRGB
 90
-16777216
102
RTVSPost2010PropOp51
 70
     0
102
RTVSPost2010Prop52
140
1.0
102
RTVSPost2010PropOp52
 70
     0
102
RTVSPost2010Prop53
 90
        2
102
RTVSPost2010PropOp53
 70
     0
102
RTVSPost2010Prop54
  1
strokes_ogs.tif
102
RTVSPost2010PropOp54
 70
     0
102
RTVSPost2010Prop55
280
     0
102
RTVSPost2010PropOp55
 70
     0
102
RTVSPost2010Prop56
140
1.0
102
RTVSPost2010PropOp56
 70
     0
102
RTVSPost2010Prop57
140
1.0
102
RTVSPost2010PropOp57
 70
     0
  0
XRECORD
  5
2FDBE
102
{ACAD_REACTORS
330
2FDBD
102
}
330
2FDBD
100
AcDbXrecord
280
     1
102
RTVSPost2010Prop28
280
     0
102
RTVSPost2010PropOp28
 70
     1
102
RTVSPost2010Prop29
280
     1
102
RTVSPost2010PropOp29
 70
     1
102
RTVSPost2010Prop30
280
     1
102
RTVSPost2010PropOp30
 70
     1
102
RTVSPost2010Prop31
280
     0
102
RTVSPost2010PropOp31
 70
     1
102
RTVSPost2010Prop32
280
     0
102
RTVSPost2010PropOp32
 70
     1
102
RTVSPost2010Prop33
280
     0
102
RTVSPost2010PropOp33
 70
     1
102
RTVSPost2010Prop34
280
     0
102
RTVSPost2010PropOp34
 70
     1
102
RTVSPost2010Prop35
280
     0
102
RTVSPost2010PropOp35
 70
     1
102
RTVSPost2010Prop36
280
     0
102
RTVSPost2010PropOp36
 70
     1
102
RTVSPost2010Prop37
 90
       50
102
RTVSPost2010PropOp37
 70
     1
102
RTVSPost2010Prop38
140
0.0
102
RTVSPost2010PropOp38
 70
     1
102
RTVSPost2010Prop39
140
1.0
102
RTVSPost2010PropOp39
 70
     1
102
RTVSPost2010Prop40
 90
        0
102
RTVSPost2010PropOp40
 70
     1
102
RTVSPost2010Prop41ColorIndex
 90
       18
102
RTVSPost2010Prop41ColorRGB
 90
        0
102
RTVSPost2010PropOp41
 70
     1
102
RTVSPost2010Prop42
 90
       50
102
RTVSPost2010PropOp42
 70
     1
102
RTVSPost2010Prop43
 90
        3
102
RTVSPost2010PropOp43
 70
     1
102
RTVSPost2010Prop44ColorIndex
 90
        5
102
RTVSPost2010Prop44ColorRGB
 90
      255
102
RTVSPost2010PropOp44
 70
     1
102
RTVSPost2010Prop45
280
     0
102
RTVSPost2010PropOp45
 70
     1
102
RTVSPost2010Prop46
 90
       50
102
RTVSPost2010PropOp46
 70
     1
102
RTVSPost2010Prop47
 90
       50
102
RTVSPost2010PropOp47
 70
     1
102
RTVSPost2010Prop48
 90
       50
102
RTVSPost2010PropOp48
 70
     1
102
RTVSPost2010Prop49
280
     0
102
RTVSPost2010PropOp49
 70
     1
102
RTVSPost2010Prop50
 90
       50
102
RTVSPost2010PropOp50
 70
     1
102
RTVSPost2010Prop51ColorIndex
 90
      256
102
RTVSPost2010Prop51ColorRGB
 90
-16777216
102
RTVSPost2010PropOp51
 70
     0
102
RTVSPost2010Prop52
140
1.0
102
RTVSPost2010PropOp52
 70
     0
102
RTVSPost2010Prop53
 90
        2
102
RTVSPost2010PropOp53
 70
     1
102
RTVSPost2010Prop54
  1
strokes_ogs.tif
102
RTVSPost2010PropOp54
 70
     1
102
RTVSPost2010Prop55
280
     0
102
RTVSPost2010PropOp55
 70
     1
102
RTVSPost2010Prop56
140
1.0
102
RTVSPost2010PropOp56
 70
     1
102
RTVSPost2010Prop57
140
1.0
102
RTVSPost2010PropOp57
 70
     1
  0
XRECORD
  5
2FDD6
102
{ACAD_REACTORS
330
2FDD5
102
}
330
2FDD5
100
AcDbXrecord
280
     1
102
RTVSPost2010Prop28
280
     0
102
RTVSPost2010PropOp28
 70
     1
102
RTVSPost2010Prop29
280
     1
102
RTVSPost2010PropOp29
 70
     1
102
RTVSPost2010Prop30
280
     1
102
RTVSPost2010PropOp30
 70
     1
102
RTVSPost2010Prop31
280
     0
102
RTVSPost2010PropOp31
 70
     1
102
RTVSPost2010Prop32
280
     0
102
RTVSPost2010PropOp32
 70
     1
102
RTVSPost2010Prop33
280
     0
102
RTVSPost2010PropOp33
 70
     1
102
RTVSPost2010Prop34
280
     0
102
RTVSPost2010PropOp34
 70
     1
102
RTVSPost2010Prop35
280
     0
102
RTVSPost2010PropOp35
 70
     1
102
RTVSPost2010Prop36
280
     0
102
RTVSPost2010PropOp36
 70
     1
102
RTVSPost2010Prop37
 90
       50
102
RTVSPost2010PropOp37
 70
     1
102
RTVSPost2010Prop38
140
0.0
102
RTVSPost2010PropOp38
 70
     1
102
RTVSPost2010Prop39
140
1.0
102
RTVSPost2010PropOp39
 70
     1
102
RTVSPost2010Prop40
 90
        0
102
RTVSPost2010PropOp40
 70
     1
102
RTVSPost2010Prop41ColorIndex
 90
       18
102
RTVSPost2010Prop41ColorRGB
 90
        0
102
RTVSPost2010PropOp41
 70
     1
102
RTVSPost2010Prop42
 90
       50
102
RTVSPost2010PropOp42
 70
     1
102
RTVSPost2010Prop43
 90
        3
102
RTVSPost2010PropOp43
 70
     1
102
RTVSPost2010Prop44ColorIndex
 90
        5
102
RTVSPost2010Prop44ColorRGB
 90
      255
102
RTVSPost2010PropOp44
 70
     1
102
RTVSPost2010Prop45
280
     0
102
RTVSPost2010PropOp45
 70
     1
102
RTVSPost2010Prop46
 90
       50
102
RTVSPost2010PropOp46
 70
     1
102
RTVSPost2010Prop47
 90
       50
102
RTVSPost2010PropOp47
 70
     1
102
RTVSPost2010Prop48
 90
       50
102
RTVSPost2010PropOp48
 70
     1
102
RTVSPost2010Prop49
280
     0
102
RTVSPost2010PropOp49
 70
     1
102
RTVSPost2010Prop50
 90
       50
102
RTVSPost2010PropOp50
 70
     1
102
RTVSPost2010Prop51ColorIndex
 90
      256
102
RTVSPost2010Prop51ColorRGB
 90
-16777216
102
RTVSPost2010PropOp51
 70
     0
102
RTVSPost2010Prop52
140
1.0
102
RTVSPost2010PropOp52
 70
     0
102
RTVSPost2010Prop53
 90
        2
102
RTVSPost2010PropOp53
 70
     1
102
RTVSPost2010Prop54
  1
strokes_ogs.tif
102
RTVSPost2010PropOp54
 70
     1
102
RTVSPost2010Prop55
280
     0
102
RTVSPost2010PropOp55
 70
     1
102
RTVSPost2010Prop56
140
1.0
102
RTVSPost2010PropOp56
 70
     1
102
RTVSPost2010Prop57
140
1.0
102
RTVSPost2010PropOp57
 70
     1
  0
XRECORD
  5
2FDC6
102
{ACAD_REACTORS
330
2FDC5
102
}
330
2FDC5
100
AcDbXrecord
280
     1
102
RTVSPost2010Prop28
280
     0
102
RTVSPost2010PropOp28
 70
     0
102
RTVSPost2010Prop29
280
     1
102
RTVSPost2010PropOp29
 70
     0
102
RTVSPost2010Prop30
280
     1
102
RTVSPost2010PropOp30
 70
     0
102
RTVSPost2010Prop31
280
     0
102
RTVSPost2010PropOp31
 70
     0
102
RTVSPost2010Prop32
280
     0
102
RTVSPost2010PropOp32
 70
     0
102
RTVSPost2010Prop33
280
     0
102
RTVSPost2010PropOp33
 70
     0
102
RTVSPost2010Prop34
280
     0
102
RTVSPost2010PropOp34
 70
     0
102
RTVSPost2010Prop35
280
     0
102
RTVSPost2010PropOp35
 70
     0
102
RTVSPost2010Prop36
280
     0
102
RTVSPost2010PropOp36
 70
     0
102
RTVSPost2010Prop37
 90
       50
102
RTVSPost2010PropOp37
 70
     0
102
RTVSPost2010Prop38
140
0.0
102
RTVSPost2010PropOp38
 70
     0
102
RTVSPost2010Prop39
140
1.0
102
RTVSPost2010PropOp39
 70
     0
102
RTVSPost2010Prop40
 90
        0
102
RTVSPost2010PropOp40
 70
     0
102
RTVSPost2010Prop41ColorIndex
 90
       18
102
RTVSPost2010Prop41ColorRGB
 90
        0
102
RTVSPost2010PropOp41
 70
     0
102
RTVSPost2010Prop42
 90
       50
102
RTVSPost2010PropOp42
 70
     0
102
RTVSPost2010Prop43
 90
        3
102
RTVSPost2010PropOp43
 70
     0
102
RTVSPost2010Prop44ColorIndex
 90
        5
102
RTVSPost2010Prop44ColorRGB
 90
      255
102
RTVSPost2010PropOp44
 70
     0
102
RTVSPost2010Prop45
280
     0
102
RTVSPost2010PropOp45
 70
     0
102
RTVSPost2010Prop46
 90
       50
102
RTVSPost2010PropOp46
 70
     0
102
RTVSPost2010Prop47
 90
       50
102
RTVSPost2010PropOp47
 70
     0
102
RTVSPost2010Prop48
 90
       50
102
RTVSPost2010PropOp48
 70
     0
102
RTVSPost2010Prop49
280
     0
102
RTVSPost2010PropOp49
 70
     0
102
RTVSPost2010Prop50
 90
       50
102
RTVSPost2010PropOp50
 70
     0
102
RTVSPost2010Prop51ColorIndex
 90
      256
102
RTVSPost2010Prop51ColorRGB
 90
-16777216
102
RTVSPost2010PropOp51
 70
     0
102
RTVSPost2010Prop52
140
1.0
102
RTVSPost2010PropOp52
 70
     0
102
RTVSPost2010Prop53
 90
        2
102
RTVSPost2010PropOp53
 70
     0
102
RTVSPost2010Prop54
  1
strokes_ogs.tif
102
RTVSPost2010PropOp54
 70
     0
102
RTVSPost2010Prop55
280
     0
102
RTVSPost2010PropOp55
 70
     0
102
RTVSPost2010Prop56
140
1.0
102
RTVSPost2010PropOp56
 70
     0
102
RTVSPost2010Prop57
140
1.0
102
RTVSPost2010PropOp57
 70
     0
  0
XRECORD
  5
2FDB4
102
{ACAD_REACTORS
330
2FDB3
102
}
330
2FDB3
100
AcDbXrecord
280
     1
102
RTVSPost2010Prop28
280
     0
102
RTVSPost2010PropOp28
 70
     1
102
RTVSPost2010Prop29
280
     1
102
RTVSPost2010PropOp29
 70
     1
102
RTVSPost2010Prop30
280
     1
102
RTVSPost2010PropOp30
 70
     1
102
RTVSPost2010Prop31
280
     0
102
RTVSPost2010PropOp31
 70
     1
102
RTVSPost2010Prop32
280
     0
102
RTVSPost2010PropOp32
 70
     1
102
RTVSPost2010Prop33
280
     0
102
RTVSPost2010PropOp33
 70
     1
102
RTVSPost2010Prop34
280
     0
102
RTVSPost2010PropOp34
 70
     1
102
RTVSPost2010Prop35
280
     0
102
RTVSPost2010PropOp35
 70
     1
102
RTVSPost2010Prop36
280
     0
102
RTVSPost2010PropOp36
 70
     1
102
RTVSPost2010Prop37
 90
       50
102
RTVSPost2010PropOp37
 70
     1
102
RTVSPost2010Prop38
140
0.0
102
RTVSPost2010PropOp38
 70
     1
102
RTVSPost2010Prop39
140
1.0
102
RTVSPost2010PropOp39
 70
     1
102
RTVSPost2010Prop40
 90
        0
102
RTVSPost2010PropOp40
 70
     1
102
RTVSPost2010Prop41ColorIndex
 90
       18
102
RTVSPost2010Prop41ColorRGB
 90
        0
102
RTVSPost2010PropOp41
 70
     1
102
RTVSPost2010Prop42
 90
       50
102
RTVSPost2010PropOp42
 70
     1
102
RTVSPost2010Prop43
 90
        3
102
RTVSPost2010PropOp43
 70
     1
102
RTVSPost2010Prop44ColorIndex
 90
        5
102
RTVSPost2010Prop44ColorRGB
 90
      255
102
RTVSPost2010PropOp44
 70
     1
102
RTVSPost2010Prop45
280
     0
102
RTVSPost2010PropOp45
 70
     1
102
RTVSPost2010Prop46
 90
       50
102
RTVSPost2010PropOp46
 70
     1
102
RTVSPost2010Prop47
 90
       50
102
RTVSPost2010PropOp47
 70
     1
102
RTVSPost2010Prop48
 90
       50
102
RTVSPost2010PropOp48
 70
     1
102
RTVSPost2010Prop49
280
     0
102
RTVSPost2010PropOp49
 70
     1
102
RTVSPost2010Prop50
 90
       50
102
RTVSPost2010PropOp50
 70
     1
102
RTVSPost2010Prop51ColorIndex
 90
      256
102
RTVSPost2010Prop51ColorRGB
 90
-16777216
102
RTVSPost2010PropOp51
 70
     0
102
RTVSPost2010Prop52
140
1.0
102
RTVSPost2010PropOp52
 70
     0
102
RTVSPost2010Prop53
 90
        2
102
RTVSPost2010PropOp53
 70
     1
102
RTVSPost2010Prop54
  1
strokes_ogs.tif
102
RTVSPost2010PropOp54
 70
     1
102
RTVSPost2010Prop55
280
     0
102
RTVSPost2010PropOp55
 70
     1
102
RTVSPost2010Prop56
140
1.0
102
RTVSPost2010PropOp56
 70
     1
102
RTVSPost2010Prop57
140
1.0
102
RTVSPost2010PropOp57
 70
     1
  0
XRECORD
  5
2FDD2
102
{ACAD_REACTORS
330
2FDD1
102
}
330
2FDD1
100
AcDbXrecord
280
     1
102
RTVSPost2010Prop28
280
     0
102
RTVSPost2010PropOp28
 70
     1
102
RTVSPost2010Prop29
280
     1
102
RTVSPost2010PropOp29
 70
     1
102
RTVSPost2010Prop30
280
     1
102
RTVSPost2010PropOp30
 70
     1
102
RTVSPost2010Prop31
280
     0
102
RTVSPost2010PropOp31
 70
     1
102
RTVSPost2010Prop32
280
     0
102
RTVSPost2010PropOp32
 70
     1
102
RTVSPost2010Prop33
280
     0
102
RTVSPost2010PropOp33
 70
     1
102
RTVSPost2010Prop34
280
     0
102
RTVSPost2010PropOp34
 70
     1
102
RTVSPost2010Prop35
280
     0
102
RTVSPost2010PropOp35
 70
     1
102
RTVSPost2010Prop36
280
     0
102
RTVSPost2010PropOp36
 70
     1
102
RTVSPost2010Prop37
 90
       50
102
RTVSPost2010PropOp37
 70
     1
102
RTVSPost2010Prop38
140
0.0
102
RTVSPost2010PropOp38
 70
     1
102
RTVSPost2010Prop39
140
1.0
102
RTVSPost2010PropOp39
 70
     1
102
RTVSPost2010Prop40
 90
        0
102
RTVSPost2010PropOp40
 70
     1
102
RTVSPost2010Prop41ColorIndex
 90
       18
102
RTVSPost2010Prop41ColorRGB
 90
        0
102
RTVSPost2010PropOp41
 70
     1
102
RTVSPost2010Prop42
 90
       50
102
RTVSPost2010PropOp42
 70
     1
102
RTVSPost2010Prop43
 90
        3
102
RTVSPost2010PropOp43
 70
     1
102
RTVSPost2010Prop44ColorIndex
 90
        5
102
RTVSPost2010Prop44ColorRGB
 90
      255
102
RTVSPost2010PropOp44
 70
     1
102
RTVSPost2010Prop45
280
     0
102
RTVSPost2010PropOp45
 70
     1
102
RTVSPost2010Prop46
 90
       50
102
RTVSPost2010PropOp46
 70
     1
102
RTVSPost2010Prop47
 90
       50
102
RTVSPost2010PropOp47
 70
     1
102
RTVSPost2010Prop48
 90
       50
102
RTVSPost2010PropOp48
 70
     1
102
RTVSPost2010Prop49
280
     0
102
RTVSPost2010PropOp49
 70
     1
102
RTVSPost2010Prop50
 90
       50
102
RTVSPost2010PropOp50
 70
     1
102
RTVSPost2010Prop51ColorIndex
 90
      256
102
RTVSPost2010Prop51ColorRGB
 90
-16777216
102
RTVSPost2010PropOp51
 70
     0
102
RTVSPost2010Prop52
140
1.0
102
RTVSPost2010PropOp52
 70
     0
102
RTVSPost2010Prop53
 90
        2
102
RTVSPost2010PropOp53
 70
     1
102
RTVSPost2010Prop54
  1
strokes_ogs.tif
102
RTVSPost2010PropOp54
 70
     1
102
RTVSPost2010Prop55
280
     0
102
RTVSPost2010PropOp55
 70
     1
102
RTVSPost2010Prop56
140
1.0
102
RTVSPost2010PropOp56
 70
     1
102
RTVSPost2010Prop57
140
1.0
102
RTVSPost2010PropOp57
 70
     1
  0
XRECORD
  5
2FDD0
102
{ACAD_REACTORS
330
2FDCF
102
}
330
2FDCF
100
AcDbXrecord
280
     1
102
RTVSPost2010Prop28
280
     0
102
RTVSPost2010PropOp28
 70
     1
102
RTVSPost2010Prop29
280
     1
102
RTVSPost2010PropOp29
 70
     1
102
RTVSPost2010Prop30
280
     1
102
RTVSPost2010PropOp30
 70
     1
102
RTVSPost2010Prop31
280
     0
102
RTVSPost2010PropOp31
 70
     1
102
RTVSPost2010Prop32
280
     0
102
RTVSPost2010PropOp32
 70
     1
102
RTVSPost2010Prop33
280
     0
102
RTVSPost2010PropOp33
 70
     1
102
RTVSPost2010Prop34
280
     0
102
RTVSPost2010PropOp34
 70
     1
102
RTVSPost2010Prop35
280
     0
102
RTVSPost2010PropOp35
 70
     1
102
RTVSPost2010Prop36
280
     0
102
RTVSPost2010PropOp36
 70
     1
102
RTVSPost2010Prop37
 90
       50
102
RTVSPost2010PropOp37
 70
     1
102
RTVSPost2010Prop38
140
0.0
102
RTVSPost2010PropOp38
 70
     1
102
RTVSPost2010Prop39
140
1.0
102
RTVSPost2010PropOp39
 70
     1
102
RTVSPost2010Prop40
 90
        0
102
RTVSPost2010PropOp40
 70
     1
102
RTVSPost2010Prop41ColorIndex
 90
       18
102
RTVSPost2010Prop41ColorRGB
 90
        0
102
RTVSPost2010PropOp41
 70
     1
102
RTVSPost2010Prop42
 90
       50
102
RTVSPost2010PropOp42
 70
     1
102
RTVSPost2010Prop43
 90
        3
102
RTVSPost2010PropOp43
 70
     1
102
RTVSPost2010Prop44ColorIndex
 90
        5
102
RTVSPost2010Prop44ColorRGB
 90
      255
102
RTVSPost2010PropOp44
 70
     1
102
RTVSPost2010Prop45
280
     0
102
RTVSPost2010PropOp45
 70
     1
102
RTVSPost2010Prop46
 90
       50
102
RTVSPost2010PropOp46
 70
     1
102
RTVSPost2010Prop47
 90
       50
102
RTVSPost2010PropOp47
 70
     1
102
RTVSPost2010Prop48
 90
       50
102
RTVSPost2010PropOp48
 70
     1
102
RTVSPost2010Prop49
280
     0
102
RTVSPost2010PropOp49
 70
     1
102
RTVSPost2010Prop50
 90
       50
102
RTVSPost2010PropOp50
 70
     1
102
RTVSPost2010Prop51ColorIndex
 90
      256
102
RTVSPost2010Prop51ColorRGB
 90
-16777216
102
RTVSPost2010PropOp51
 70
     0
102
RTVSPost2010Prop52
140
1.0
102
RTVSPost2010PropOp52
 70
     0
102
RTVSPost2010Prop53
 90
        2
102
RTVSPost2010PropOp53
 70
     1
102
RTVSPost2010Prop54
  1
strokes_ogs.tif
102
RTVSPost2010PropOp54
 70
     1
102
RTVSPost2010Prop55
280
     0
102
RTVSPost2010PropOp55
 70
     1
102
RTVSPost2010Prop56
140
1.0
102
RTVSPost2010PropOp56
 70
     1
102
RTVSPost2010Prop57
140
1.0
102
RTVSPost2010PropOp57
 70
     1
  0
XRECORD
  5
2FDCA
102
{ACAD_REACTORS
330
2FDC9
102
}
330
2FDC9
100
AcDbXrecord
280
     1
102
RTVSPost2010Prop28
280
     0
102
RTVSPost2010PropOp28
 70
     1
102
RTVSPost2010Prop29
280
     1
102
RTVSPost2010PropOp29
 70
     1
102
RTVSPost2010Prop30
280
     1
102
RTVSPost2010PropOp30
 70
     1
102
RTVSPost2010Prop31
280
     0
102
RTVSPost2010PropOp31
 70
     1
102
RTVSPost2010Prop32
280
     0
102
RTVSPost2010PropOp32
 70
     1
102
RTVSPost2010Prop33
280
     0
102
RTVSPost2010PropOp33
 70
     1
102
RTVSPost2010Prop34
280
     0
102
RTVSPost2010PropOp34
 70
     1
102
RTVSPost2010Prop35
280
     0
102
RTVSPost2010PropOp35
 70
     1
102
RTVSPost2010Prop36
280
     0
102
RTVSPost2010PropOp36
 70
     1
102
RTVSPost2010Prop37
 90
       50
102
RTVSPost2010PropOp37
 70
     1
102
RTVSPost2010Prop38
140
0.0
102
RTVSPost2010PropOp38
 70
     1
102
RTVSPost2010Prop39
140
1.0
102
RTVSPost2010PropOp39
 70
     1
102
RTVSPost2010Prop40
 90
        0
102
RTVSPost2010PropOp40
 70
     1
102
RTVSPost2010Prop41ColorIndex
 90
       18
102
RTVSPost2010Prop41ColorRGB
 90
        0
102
RTVSPost2010PropOp41
 70
     1
102
RTVSPost2010Prop42
 90
       50
102
RTVSPost2010PropOp42
 70
     1
102
RTVSPost2010Prop43
 90
        3
102
RTVSPost2010PropOp43
 70
     1
102
RTVSPost2010Prop44ColorIndex
 90
        5
102
RTVSPost2010Prop44ColorRGB
 90
      255
102
RTVSPost2010PropOp44
 70
     1
102
RTVSPost2010Prop45
280
     0
102
RTVSPost2010PropOp45
 70
     1
102
RTVSPost2010Prop46
 90
       50
102
RTVSPost2010PropOp46
 70
     1
102
RTVSPost2010Prop47
 90
       50
102
RTVSPost2010PropOp47
 70
     1
102
RTVSPost2010Prop48
 90
       50
102
RTVSPost2010PropOp48
 70
     1
102
RTVSPost2010Prop49
280
     0
102
RTVSPost2010PropOp49
 70
     1
102
RTVSPost2010Prop50
 90
       50
102
RTVSPost2010PropOp50
 70
     1
102
RTVSPost2010Prop51ColorIndex
 90
      256
102
RTVSPost2010Prop51ColorRGB
 90
-16777216
102
RTVSPost2010PropOp51
 70
     0
102
RTVSPost2010Prop52
140
1.0
102
RTVSPost2010PropOp52
 70
     0
102
RTVSPost2010Prop53
 90
        2
102
RTVSPost2010PropOp53
 70
     1
102
RTVSPost2010Prop54
  1
strokes_ogs.tif
102
RTVSPost2010PropOp54
 70
     1
102
RTVSPost2010Prop55
280
     0
102
RTVSPost2010PropOp55
 70
     1
102
RTVSPost2010Prop56
140
1.0
102
RTVSPost2010PropOp56
 70
     1
102
RTVSPost2010Prop57
140
1.0
102
RTVSPost2010PropOp57
 70
     1
  0
XRECORD
  5
2FDCC
102
{ACAD_REACTORS
330
2FDCB
102
}
330
2FDCB
100
AcDbXrecord
280
     1
102
RTVSPost2010Prop28
280
     0
102
RTVSPost2010PropOp28
 70
     1
102
RTVSPost2010Prop29
280
     1
102
RTVSPost2010PropOp29
 70
     1
102
RTVSPost2010Prop30
280
     1
102
RTVSPost2010PropOp30
 70
     1
102
RTVSPost2010Prop31
280
     0
102
RTVSPost2010PropOp31
 70
     1
102
RTVSPost2010Prop32
280
     0
102
RTVSPost2010PropOp32
 70
     1
102
RTVSPost2010Prop33
280
     0
102
RTVSPost2010PropOp33
 70
     1
102
RTVSPost2010Prop34
280
     0
102
RTVSPost2010PropOp34
 70
     1
102
RTVSPost2010Prop35
280
     0
102
RTVSPost2010PropOp35
 70
     1
102
RTVSPost2010Prop36
280
     0
102
RTVSPost2010PropOp36
 70
     1
102
RTVSPost2010Prop37
 90
       50
102
RTVSPost2010PropOp37
 70
     1
102
RTVSPost2010Prop38
140
0.0
102
RTVSPost2010PropOp38
 70
     1
102
RTVSPost2010Prop39
140
1.0
102
RTVSPost2010PropOp39
 70
     1
102
RTVSPost2010Prop40
 90
        0
102
RTVSPost2010PropOp40
 70
     1
102
RTVSPost2010Prop41ColorIndex
 90
       18
102
RTVSPost2010Prop41ColorRGB
 90
        0
102
RTVSPost2010PropOp41
 70
     1
102
RTVSPost2010Prop42
 90
       50
102
RTVSPost2010PropOp42
 70
     1
102
RTVSPost2010Prop43
 90
        3
102
RTVSPost2010PropOp43
 70
     1
102
RTVSPost2010Prop44ColorIndex
 90
        5
102
RTVSPost2010Prop44ColorRGB
 90
      255
102
RTVSPost2010PropOp44
 70
     1
102
RTVSPost2010Prop45
280
     0
102
RTVSPost2010PropOp45
 70
     1
102
RTVSPost2010Prop46
 90
       50
102
RTVSPost2010PropOp46
 70
     1
102
RTVSPost2010Prop47
 90
       50
102
RTVSPost2010PropOp47
 70
     1
102
RTVSPost2010Prop48
 90
       50
102
RTVSPost2010PropOp48
 70
     1
102
RTVSPost2010Prop49
280
     0
102
RTVSPost2010PropOp49
 70
     1
102
RTVSPost2010Prop50
 90
       50
102
RTVSPost2010PropOp50
 70
     1
102
RTVSPost2010Prop51ColorIndex
 90
      256
102
RTVSPost2010Prop51ColorRGB
 90
-16777216
102
RTVSPost2010PropOp51
 70
     0
102
RTVSPost2010Prop52
140
1.0
102
RTVSPost2010PropOp52
 70
     0
102
RTVSPost2010Prop53
 90
        2
102
RTVSPost2010PropOp53
 70
     1
102
RTVSPost2010Prop54
  1
strokes_ogs.tif
102
RTVSPost2010PropOp54
 70
     1
102
RTVSPost2010Prop55
280
     0
102
RTVSPost2010PropOp55
 70
     1
102
RTVSPost2010Prop56
140
1.0
102
RTVSPost2010PropOp56
 70
     1
102
RTVSPost2010Prop57
140
1.0
102
RTVSPost2010PropOp57
 70
     1
  0
XRECORD
  5
2FDBC
102
{ACAD_REACTORS
330
2FDBB
102
}
330
2FDBB
100
AcDbXrecord
280
     1
102
RTVSPost2010Prop28
280
     0
102
RTVSPost2010PropOp28
 70
     1
102
RTVSPost2010Prop29
280
     1
102
RTVSPost2010PropOp29
 70
     1
102
RTVSPost2010Prop30
280
     1
102
RTVSPost2010PropOp30
 70
     1
102
RTVSPost2010Prop31
280
     0
102
RTVSPost2010PropOp31
 70
     1
102
RTVSPost2010Prop32
280
     0
102
RTVSPost2010PropOp32
 70
     1
102
RTVSPost2010Prop33
280
     0
102
RTVSPost2010PropOp33
 70
     1
102
RTVSPost2010Prop34
280
     0
102
RTVSPost2010PropOp34
 70
     1
102
RTVSPost2010Prop35
280
     0
102
RTVSPost2010PropOp35
 70
     1
102
RTVSPost2010Prop36
280
     0
102
RTVSPost2010PropOp36
 70
     1
102
RTVSPost2010Prop37
 90
       50
102
RTVSPost2010PropOp37
 70
     1
102
RTVSPost2010Prop38
140
0.0
102
RTVSPost2010PropOp38
 70
     1
102
RTVSPost2010Prop39
140
1.0
102
RTVSPost2010PropOp39
 70
     1
102
RTVSPost2010Prop40
 90
        0
102
RTVSPost2010PropOp40
 70
     1
102
RTVSPost2010Prop41ColorIndex
 90
       18
102
RTVSPost2010Prop41ColorRGB
 90
        0
102
RTVSPost2010PropOp41
 70
     1
102
RTVSPost2010Prop42
 90
       50
102
RTVSPost2010PropOp42
 70
     1
102
RTVSPost2010Prop43
 90
        3
102
RTVSPost2010PropOp43
 70
     1
102
RTVSPost2010Prop44ColorIndex
 90
        5
102
RTVSPost2010Prop44ColorRGB
 90
      255
102
RTVSPost2010PropOp44
 70
     1
102
RTVSPost2010Prop45
280
     0
102
RTVSPost2010PropOp45
 70
     1
102
RTVSPost2010Prop46
 90
       50
102
RTVSPost2010PropOp46
 70
     1
102
RTVSPost2010Prop47
 90
       50
102
RTVSPost2010PropOp47
 70
     1
102
RTVSPost2010Prop48
 90
       50
102
RTVSPost2010PropOp48
 70
     1
102
RTVSPost2010Prop49
280
     0
102
RTVSPost2010PropOp49
 70
     1
102
RTVSPost2010Prop50
 90
       50
102
RTVSPost2010PropOp50
 70
     1
102
RTVSPost2010Prop51ColorIndex
 90
      256
102
RTVSPost2010Prop51ColorRGB
 90
-16777216
102
RTVSPost2010PropOp51
 70
     0
102
RTVSPost2010Prop52
140
1.0
102
RTVSPost2010PropOp52
 70
     0
102
RTVSPost2010Prop53
 90
        2
102
RTVSPost2010PropOp53
 70
     1
102
RTVSPost2010Prop54
  1
strokes_ogs.tif
102
RTVSPost2010PropOp54
 70
     1
102
RTVSPost2010Prop55
280
     0
102
RTVSPost2010PropOp55
 70
     1
102
RTVSPost2010Prop56
140
1.0
102
RTVSPost2010PropOp56
 70
     1
102
RTVSPost2010Prop57
140
1.0
102
RTVSPost2010PropOp57
 70
     1
  0
XRECORD
  5
2FDAE
102
{ACAD_REACTORS
330
2FDAD
102
}
330
2FDAD
100
AcDbXrecord
280
     1
102
RTVSPost2010Prop28
280
     0
102
RTVSPost2010PropOp28
 70
     1
102
RTVSPost2010Prop29
280
     1
102
RTVSPost2010PropOp29
 70
     1
102
RTVSPost2010Prop30
280
     1
102
RTVSPost2010PropOp30
 70
     1
102
RTVSPost2010Prop31
280
     0
102
RTVSPost2010PropOp31
 70
     1
102
RTVSPost2010Prop32
280
     0
102
RTVSPost2010PropOp32
 70
     1
102
RTVSPost2010Prop33
280
     0
102
RTVSPost2010PropOp33
 70
     1
102
RTVSPost2010Prop34
280
     0
102
RTVSPost2010PropOp34
 70
     1
102
RTVSPost2010Prop35
280
     0
102
RTVSPost2010PropOp35
 70
     1
102
RTVSPost2010Prop36
280
     0
102
RTVSPost2010PropOp36
 70
     1
102
RTVSPost2010Prop37
 90
       50
102
RTVSPost2010PropOp37
 70
     1
102
RTVSPost2010Prop38
140
0.0
102
RTVSPost2010PropOp38
 70
     1
102
RTVSPost2010Prop39
140
1.0
102
RTVSPost2010PropOp39
 70
     1
102
RTVSPost2010Prop40
 90
        0
102
RTVSPost2010PropOp40
 70
     1
102
RTVSPost2010Prop41ColorIndex
 90
       18
102
RTVSPost2010Prop41ColorRGB
 90
        0
102
RTVSPost2010PropOp41
 70
     1
102
RTVSPost2010Prop42
 90
       50
102
RTVSPost2010PropOp42
 70
     1
102
RTVSPost2010Prop43
 90
        3
102
RTVSPost2010PropOp43
 70
     1
102
RTVSPost2010Prop44ColorIndex
 90
        5
102
RTVSPost2010Prop44ColorRGB
 90
      255
102
RTVSPost2010PropOp44
 70
     1
102
RTVSPost2010Prop45
280
     0
102
RTVSPost2010PropOp45
 70
     1
102
RTVSPost2010Prop46
 90
       50
102
RTVSPost2010PropOp46
 70
     1
102
RTVSPost2010Prop47
 90
       50
102
RTVSPost2010PropOp47
 70
     1
102
RTVSPost2010Prop48
 90
       50
102
RTVSPost2010PropOp48
 70
     1
102
RTVSPost2010Prop49
280
     0
102
RTVSPost2010PropOp49
 70
     1
102
RTVSPost2010Prop50
 90
       50
102
RTVSPost2010PropOp50
 70
     1
102
RTVSPost2010Prop51ColorIndex
 90
      256
102
RTVSPost2010Prop51ColorRGB
 90
-16777216
102
RTVSPost2010PropOp51
 70
     0
102
RTVSPost2010Prop52
140
1.0
102
RTVSPost2010PropOp52
 70
     0
102
RTVSPost2010Prop53
 90
        2
102
RTVSPost2010PropOp53
 70
     1
102
RTVSPost2010Prop54
  1
strokes_ogs.tif
102
RTVSPost2010PropOp54
 70
     1
102
RTVSPost2010Prop55
280
     0
102
RTVSPost2010PropOp55
 70
     1
102
RTVSPost2010Prop56
140
1.0
102
RTVSPost2010PropOp56
 70
     1
102
RTVSPost2010Prop57
140
1.0
102
RTVSPost2010PropOp57
 70
     1
  0
XRECORD
  5
2FDCE
102
{ACAD_REACTORS
330
2FDCD
102
}
330
2FDCD
100
AcDbXrecord
280
     1
102
RTVSPost2010Prop28
280
     0
102
RTVSPost2010PropOp28
 70
     1
102
RTVSPost2010Prop29
280
     1
102
RTVSPost2010PropOp29
 70
     1
102
RTVSPost2010Prop30
280
     1
102
RTVSPost2010PropOp30
 70
     1
102
RTVSPost2010Prop31
280
     0
102
RTVSPost2010PropOp31
 70
     1
102
RTVSPost2010Prop32
280
     0
102
RTVSPost2010PropOp32
 70
     1
102
RTVSPost2010Prop33
280
     0
102
RTVSPost2010PropOp33
 70
     1
102
RTVSPost2010Prop34
280
     0
102
RTVSPost2010PropOp34
 70
     1
102
RTVSPost2010Prop35
280
     0
102
RTVSPost2010PropOp35
 70
     1
102
RTVSPost2010Prop36
280
     0
102
RTVSPost2010PropOp36
 70
     1
102
RTVSPost2010Prop37
 90
       50
102
RTVSPost2010PropOp37
 70
     1
102
RTVSPost2010Prop38
140
0.0
102
RTVSPost2010PropOp38
 70
     1
102
RTVSPost2010Prop39
140
1.0
102
RTVSPost2010PropOp39
 70
     1
102
RTVSPost2010Prop40
 90
        0
102
RTVSPost2010PropOp40
 70
     1
102
RTVSPost2010Prop41ColorIndex
 90
       18
102
RTVSPost2010Prop41ColorRGB
 90
        0
102
RTVSPost2010PropOp41
 70
     1
102
RTVSPost2010Prop42
 90
       50
102
RTVSPost2010PropOp42
 70
     1
102
RTVSPost2010Prop43
 90
        3
102
RTVSPost2010PropOp43
 70
     1
102
RTVSPost2010Prop44ColorIndex
 90
        5
102
RTVSPost2010Prop44ColorRGB
 90
      255
102
RTVSPost2010PropOp44
 70
     1
102
RTVSPost2010Prop45
280
     0
102
RTVSPost2010PropOp45
 70
     1
102
RTVSPost2010Prop46
 90
       50
102
RTVSPost2010PropOp46
 70
     1
102
RTVSPost2010Prop47
 90
       50
102
RTVSPost2010PropOp47
 70
     1
102
RTVSPost2010Prop48
 90
       50
102
RTVSPost2010PropOp48
 70
     1
102
RTVSPost2010Prop49
280
     0
102
RTVSPost2010PropOp49
 70
     1
102
RTVSPost2010Prop50
 90
       50
102
RTVSPost2010PropOp50
 70
     1
102
RTVSPost2010Prop51ColorIndex
 90
      256
102
RTVSPost2010Prop51ColorRGB
 90
-16777216
102
RTVSPost2010PropOp51
 70
     0
102
RTVSPost2010Prop52
140
1.0
102
RTVSPost2010PropOp52
 70
     0
102
RTVSPost2010Prop53
 90
        2
102
RTVSPost2010PropOp53
 70
     1
102
RTVSPost2010Prop54
  1
strokes_ogs.tif
102
RTVSPost2010PropOp54
 70
     1
102
RTVSPost2010Prop55
280
     0
102
RTVSPost2010PropOp55
 70
     1
102
RTVSPost2010Prop56
140
1.0
102
RTVSPost2010PropOp56
 70
     1
102
RTVSPost2010Prop57
140
1.0
102
RTVSPost2010PropOp57
 70
     1
  0
ENDSEC
  0
EOF
