  0
SECTION
  2
HEADER
  9
$ACADVER
  1
AC1032
  9
$ACADMAINTVER
 90
      228
  9
$DWGCODEPAGE
  3
ANSI_932
  9
$REQUIREDVERSIONS
160
                 0
  9
$INSBASE
 10
0.0
 20
0.0
 30
0.0
  9
$EXTMIN
 10
1.000000000000000E+20
 20
1.000000000000000E+20
 30
1.000000000000000E+20
  9
$EXTMAX
 10
-1.000000000000000E+20
 20
-1.000000000000000E+20
 30
-1.000000000000000E+20
  9
$LIMMIN
 10
0.0
 20
0.0
  9
$LIMMAX
 10
12.0
 20
9.0
  9
$ORTHOMODE
 70
     0
  9
$REGENMODE
 70
     1
  9
$FILLMODE
 70
     1
  9
$QTEXTMODE
 70
     0
  9
$MIRRTEXT
 70
     0
  9
$LTSCALE
 40
1.0
  9
$ATTMODE
 70
     1
  9
$TEXTSIZE
 40
0.2
  9
$TRACEWID
 40
0.05
  9
$TEXTSTYLE
  7
Standard
  9
$CLAYER
  8
0
  9
$CELTYPE
  6
ByLayer
  9
$CECOLOR
 62
   256
  9
$CELTSCALE
 40
1.0
  9
$DISPSILH
 70
     0
  9
$DIMSCALE
 40
1.0
  9
$DIMASZ
 40
0.18
  9
$DIMEXO
 40
0.0625
  9
$DIMDLI
 40
0.38
  9
$DIMRND
 40
0.0
  9
$DIMDLE
 40
0.0
  9
$DIMEXE
 40
0.18
  9
$DIMTP
 40
0.0
  9
$DIMTM
 40
0.0
  9
$DIMTXT
 40
0.18
  9
$DIMCEN
 40
0.09
  9
$DIMTSZ
 40
0.0
  9
$DIMTOL
 70
     0
  9
$DIMLIM
 70
     0
  9
$DIMTIH
 70
     1
  9
$DIMTOH
 70
     1
  9
$DIMSE1
 70
     0
  9
$DIMSE2
 70
     0
  9
$DIMTAD
 70
     0
  9
$DIMZIN
 70
     0
  9
$DIMBLK
  1

  9
$DIMASO
 70
     1
  9
$DIMSHO
 70
     1
  9
$DIMPOST
  1

  9
$DIMAPOST
  1

  9
$DIMALT
 70
     0
  9
$DIMALTD
 70
     2
  9
$DIMALTF
 40
25.4
  9
$DIMLFAC
 40
1.0
  9
$DIMTOFL
 70
     0
  9
$DIMTVP
 40
0.0
  9
$DIMTIX
 70
     0
  9
$DIMSOXD
 70
     0
  9
$DIMSAH
 70
     0
  9
$DIMBLK1
  1

  9
$DIMBLK2
  1

  9
$DIMSTYLE
  2
Standard
  9
$DIMCLRD
 70
     0
  9
$DIMCLRE
 70
     0
  9
$DIMCLRT
 70
     0
  9
$DIMTFAC
 40
1.0
  9
$DIMGAP
 40
0.09
  9
$DIMJUST
 70
     0
  9
$DIMSD1
 70
     0
  9
$DIMSD2
 70
     0
  9
$DIMTOLJ
 70
     1
  9
$DIMTZIN
 70
     0
  9
$DIMALTZ
 70
     0
  9
$DIMALTTZ
 70
     0
  9
$DIMUPT
 70
     0
  9
$DIMDEC
 70
     4
  9
$DIMTDEC
 70
     4
  9
$DIMALTU
 70
     2
  9
$DIMALTTD
 70
     2
  9
$DIMTXSTY
  7
Standard
  9
$DIMAUNIT
 70
     0
  9
$DIMADEC
 70
     0
  9
$DIMALTRND
 40
0.0
  9
$DIMAZIN
 70
     0
  9
$DIMDSEP
 70
    46
  9
$DIMATFIT
 70
     3
  9
$DIMFRAC
 70
     0
  9
$DIMLDRBLK
  1

  9
$DIMLUNIT
 70
     2
  9
$DIMLWD
 70
    -2
  9
$DIMLWE
 70
    -2
  9
$DIMTMOVE
 70
     0
  9
$DIMFXL
 40
1.0
  9
$DIMFXLON
 70
     0
  9
$DIMJOGANG
 40
0.7853981633974483
  9
$DIMTFILL
 70
     0
  9
$DIMTFILLCLR
 70
     0
  9
$DIMARCSYM
 70
     0
  9
$DIMLTYPE
  6

  9
$DIMLTEX1
  6

  9
$DIMLTEX2
  6

  9
$DIMTXTDIRECTION
 70
     0
  9
$LUNITS
 70
     2
  9
$LUPREC
 70
     4
  9
$SKETCHINC
 40
0.1
  9
$FILLETRAD
 40
0.0
  9
$AUNITS
 70
     0
  9
$AUPREC
 70
     0
  9
$MENU
  1
.
  9
$ELEVATION
 40
0.0
  9
$PELEVATION
 40
0.0
  9
$THICKNESS
 40
0.0
  9
$LIMCHECK
 70
     0
  9
$CHAMFERA
 40
0.0
  9
$CHAMFERB
 40
0.0
  9
$CHAMFERC
 40
0.0
  9
$CHAMFERD
 40
0.0
  9
$SKPOLY
 70
     0
  9
$TDCREATE
 40
2460062.492025463
  9
$TDUCREATE
 40
2460062.117025463
  9
$TDUPDATE
 40
2460062.492025463
  9
$TDUUPDATE
 40
2460062.117025463
  9
$TDINDWG
 40
0.0000000000
  9
$TDUSRTIMER
 40
0.0000000000
  9
$USRTIMER
 70
     1
  9
$ANGBASE
 50
0.0
  9
$ANGDIR
 70
     0
  9
$PDMODE
 70
     0
  9
$PDSIZE
 40
0.0
  9
$PLINEWID
 40
0.0
  9
$SPLFRAME
 70
     0
  9
$SPLINETYPE
 70
     6
  9
$SPLINESEGS
 70
     8
  9
$HANDSEED
  5
16A
  9
$SURFTAB1
 70
     6
  9
$SURFTAB2
 70
     6
  9
$SURFTYPE
 70
     6
  9
$SURFU
 70
     6
  9
$SURFV
 70
     6
  9
$UCSBASE
  2

  9
$UCSNAME
  2

  9
$UCSORG
 10
0.0
 20
0.0
 30
0.0
  9
$UCSXDIR
 10
1.0
 20
0.0
 30
0.0
  9
$UCSYDIR
 10
0.0
 20
1.0
 30
0.0
  9
$UCSORTHOREF
  2

  9
$UCSORTHOVIEW
 70
     0
  9
$UCSORGTOP
 10
0.0
 20
0.0
 30
0.0
  9
$UCSORGBOTTOM
 10
0.0
 20
0.0
 30
0.0
  9
$UCSORGLEFT
 10
0.0
 20
0.0
 30
0.0
  9
$UCSORGRIGHT
 10
0.0
 20
0.0
 30
0.0
  9
$UCSORGFRONT
 10
0.0
 20
0.0
 30
0.0
  9
$UCSORGBACK
 10
0.0
 20
0.0
 30
0.0
  9
$PUCSBASE
  2

  9
$PUCSNAME
  2

  9
$PUCSORG
 10
0.0
 20
0.0
 30
0.0
  9
$PUCSXDIR
 10
1.0
 20
0.0
 30
0.0
  9
$PUCSYDIR
 10
0.0
 20
1.0
 30
0.0
  9
$PUCSORTHOREF
  2

  9
$PUCSORTHOVIEW
 70
     0
  9
$PUCSORGTOP
 10
0.0
 20
0.0
 30
0.0
  9
$PUCSORGBOTTOM
 10
0.0
 20
0.0
 30
0.0
  9
$PUCSORGLEFT
 10
0.0
 20
0.0
 30
0.0
  9
$PUCSORGRIGHT
 10
0.0
 20
0.0
 30
0.0
  9
$PUCSORGFRONT
 10
0.0
 20
0.0
 30
0.0
  9
$PUCSORGBACK
 10
0.0
 20
0.0
 30
0.0
  9
$USERI1
 70
     0
  9
$USERI2
 70
     0
  9
$USERI3
 70
     0
  9
$USERI4
 70
     0
  9
$USERI5
 70
     0
  9
$USERR1
 40
0.0
  9
$USERR2
 40
0.0
  9
$USERR3
 40
0.0
  9
$USERR4
 40
0.0
  9
$USERR5
 40
0.0
  9
$WORLDVIEW
 70
     1
  9
$SHADEDGE
 70
     3
  9
$SHADEDIF
 70
    70
  9
$TILEMODE
 70
     1
  9
$MAXACTVP
 70
    64
  9
$PINSBASE
 10
0.0
 20
0.0
 30
0.0
  9
$PLIMCHECK
 70
     0
  9
$PEXTMIN
 10
1.000000000000000E+20
 20
1.000000000000000E+20
 30
1.000000000000000E+20
  9
$PEXTMAX
 10
-1.000000000000000E+20
 20
-1.000000000000000E+20
 30
-1.000000000000000E+20
  9
$PLIMMIN
 10
0.0
 20
0.0
  9
$PLIMMAX
 10
12.0
 20
9.0
  9
$UNITMODE
 70
     0
  9
$VISRETAIN
 70
     1
  9
$PLINEGEN
 70
     0
  9
$PSLTSCALE
 70
     1
  9
$TREEDEPTH
 70
  3020
  9
$CMLSTYLE
  2
Standard
  9
$CMLJUST
 70
     0
  9
$CMLSCALE
 40
1.0
  9
$PROXYGRAPHICS
 70
     1
  9
$MEASUREMENT
 70
     0
  9
$CELWEIGHT
370
    -1
  9
$ENDCAPS
280
     0
  9
$JOINSTYLE
280
     0
  9
$LWDISPLAY
290
     1
  9
$INSUNITS
 70
     4
  9
$HYPERLINKBASE
  1

  9
$STYLESHEET
  1

  9
$XEDIT
290
     1
  9
$CEPSNTYPE
380
     0
  9
$PSTYLEMODE
290
     1
  9
$FINGERPRINTGUID
  2
{6531FD47-4230-8740-B507-4F66DE637898}
  9
$VERSIONGUID
  2
{1E900358-6E1B-EF48-A6AD-78F91617C930}
  9
$EXTNAMES
290
     1
  9
$PSVPSCALE
 40
0.0
  9
$OLESTARTUP
290
     0
  9
$SORTENTS
280
   127
  9
$INDEXCTL
280
     0
  9
$HIDETEXT
280
     1
  9
$XCLIPFRAME
280
     2
  9
$HALOGAP
280
     0
  9
$OBSCOLOR
 70
   257
  9
$OBSLTYPE
280
     0
  9
$INTERSECTIONDISPLAY
280
     0
  9
$INTERSECTIONCOLOR
 70
   257
  9
$DIMASSOC
280
     2
  9
$PROJECTNAME
  1

  9
$CAMERADISPLAY
290
     0
  9
$LENSLENGTH
 40
50.0
  9
$CAMERAHEIGHT
 40
0.0
  9
$STEPSPERSEC
 40
2.0
  9
$STEPSIZE
 40
6.0
  9
$3DDWFPREC
 40
2.0
  9
$PSOLWIDTH
 40
0.25
  9
$PSOLHEIGHT
 40
4.0
  9
$LOFTANG1
 40
1.570796326794896
  9
$LOFTANG2
 40
1.570796326794896
  9
$LOFTMAG1
 40
0.0
  9
$LOFTMAG2
 40
0.0
  9
$LOFTPARAM
 70
     7
  9
$LOFTNORMALS
280
     1
  9
$LATITUDE
 40
37.795
  9
$LONGITUDE
 40
-122.394
  9
$NORTHDIRECTION
 40
0.0
  9
$TIMEZONE
 70
 -8000
  9
$LIGHTGLYPHDISPLAY
280
     1
  9
$TILEMODELIGHTSYNCH
280
     1
  9
$CMATERIAL
347
11
  9
$SOLIDHIST
280
     0
  9
$SHOWHIST
280
     1
  9
$DWFFRAME
280
     2
  9
$DGNFRAME
280
     0
  9
$REALWORLDSCALE
290
     1
  9
$INTERFERECOLOR
 62
     1
  9
$INTERFEREOBJVS
345
33
  9
$INTERFEREVPVS
346
30
  9
$CSHADOW
280
     0
  9
$SHADOWPLANELOCATION
 40
0.0
  0
ENDSEC
  0
SECTION
  2
CLASSES
  0
CLASS
  1
ACDBDICTIONARYWDFLT
  2
AcDbDictionaryWithDefault
  3
ObjectDBX Classes
 90
        0
 91
        1
280
     0
281
     0
  0
CLASS
  1
MATERIAL
  2
AcDbMaterial
  3
ObjectDBX Classes
 90
     1153
 91
        3
280
     0
281
     0
  0
CLASS
  1
VISUALSTYLE
  2
AcDbVisualStyle
  3
ObjectDBX Classes
 90
     4095
 91
       24
280
     0
281
     0
  0
CLASS
  1
SCALE
  2
AcDbScale
  3
ObjectDBX Classes
 90
     1153
 91
       17
280
     0
281
     0
  0
CLASS
  1
TABLESTYLE
  2
AcDbTableStyle
  3
ObjectDBX Classes
 90
     4095
 91
        1
280
     0
281
     0
  0
CLASS
  1
MLEADERSTYLE
  2
AcDbMLeaderStyle
  3
ACDB_MLEADERSTYLE_CLASS
 90
     4095
 91
        1
280
     0
281
     0
  0
CLASS
  1
ACDBSECTIONVIEWSTYLE
  2
AcDbSectionViewStyle
  3
ObjectDBX Classes
 90
     1025
 91
        1
280
     0
281
     0
  0
CLASS
  1
ACDBDETAILVIEWSTYLE
  2
AcDbDetailViewStyle
  3
ObjectDBX Classes
 90
     1025
 91
        1
280
     0
281
     0
  0
CLASS
  1
DICTIONARYVAR
  2
AcDbDictionaryVar
  3
ObjectDBX Classes
 90
        0
 91
        5
280
     0
281
     0
  0
CLASS
  1
CELLSTYLEMAP
  2
AcDbCellStyleMap
  3
ObjectDBX Classes
 90
     1152
 91
        1
280
     0
281
     0
  0
ENDSEC
  0
SECTION
  2
TABLES
  0
TABLE
  2
VPORT
  5
8
330
0
100
AcDbSymbolTable
 70
     1
  0
VPORT
  5
57
330
8
100
AcDbSymbolTableRecord
100
AcDbViewportTableRecord
  2
*Active
 70
     0
 10
0.0
 20
0.0
 11
1.0
 21
1.0
 12
0.0
 22
0.0
 13
0.0
 23
0.0
 14
1.0
 24
1.0
 15
0.0
 25
0.0
 16
0.0
 26
0.0
 36
1.0
 17
338.666666582
 27
190.499999952375
 37
0.0
 40
388.619999902845
 41
1.777777777777777
 42
50.0
 43
0.0
 44
0.0
 50
0.0
 51
0.0
 71
     0
 72
   100
 73
     1
 74
     1
 75
     0
 76
     0
 77
     0
 78
     0
281
     0
 65
     1
110
0.0
120
0.0
130
0.0
111
1.0
121
0.0
131
0.0
112
0.0
122
1.0
132
0.0
 79
     0
146
0.0
 60
     3
 61
     5
292
     1
282
     1
141
0.0
142
0.0
 63
   250
421
  3355443
  0
ENDTAB
  0
TABLE
  2
LTYPE
  5
5
330
0
100
AcDbSymbolTable
 70
     1
  0
LTYPE
  5
5B
330
5
100
AcDbSymbolTableRecord
100
AcDbLinetypeTableRecord
  2
ByBlock
 70
     0
  3

 72
    65
 73
     0
 40
0.0
  0
LTYPE
  5
5C
330
5
100
AcDbSymbolTableRecord
100
AcDbLinetypeTableRecord
  2
ByLayer
 70
     0
  3

 72
    65
 73
     0
 40
0.0
  0
LTYPE
  5
5D
330
5
100
AcDbSymbolTableRecord
100
AcDbLinetypeTableRecord
  2
Continuous
 70
     0
  3
Solid line
 72
    65
 73
     0
 40
0.0
  0
ENDTAB
  0
TABLE
  2
LAYER
  5
2
330
0
100
AcDbSymbolTable
 70
     6
  0
LAYER
  5
54
330
2
100
AcDbSymbolTableRecord
100
AcDbLayerTableRecord
  2
0
 70
     0
 62
     7
  6
Continuous
370
    -3
390
F
347
21
348
0
  0
LAYER
  5
78
330
2
100
AcDbSymbolTableRecord
100
AcDbLayerTableRecord
  2
DIM
 70
     0
 62
     7
  6
Continuous
370
     0
390
F
347
21
348
0
  0
LAYER
  5
7D
330
2
100
AcDbSymbolTableRecord
100
AcDbLayerTableRecord
  2
FLAME
 70
     0
 62
     7
  6
Continuous
370
     0
390
F
347
21
348
0
  0
LAYER
  5
85
330
2
100
AcDbSymbolTableRecord
100
AcDbLayerTableRecord
  2
Defpoints
 70
     0
 62
     7
  6
Continuous
290
     0
370
     0
390
F
347
21
348
0
  0
LAYER
  5
87
330
2
100
AcDbSymbolTableRecord
100
AcDbLayerTableRecord
  2
text
 70
     0
 62
     7
  6
Continuous
370
     0
390
F
347
21
348
0
  0
LAYER
  5
8B
330
2
100
AcDbSymbolTableRecord
100
AcDbLayerTableRecord
  2
shade
 70
     0
 62
     7
  6
Continuous
370
     0
390
F
347
21
348
0
  0
ENDTAB
  0
TABLE
  2
STYLE
  5
3
330
0
100
AcDbSymbolTable
 70
     2
  0
STYLE
  5
55
330
3
100
AcDbSymbolTableRecord
100
AcDbTextStyleTableRecord
  2
Standard
 70
     0
 40
0.0
 41
1.0
 50
0.0
 71
     0
 42
0.2
  3
txt
  4

  0
STYLE
  5
5A
330
3
100
AcDbSymbolTableRecord
100
AcDbTextStyleTableRecord
  2
Annotative
 70
     0
 40
0.0
 41
1.0
 50
0.0
 71
     0
 42
0.2
  3
txt
  4

1001
AcadAnnotative
1000
AnnotativeData
1002
{
1070
     1
1070
     1
1002
}
  0
ENDTAB
  0
TABLE
  2
VIEW
  5
6
330
0
100
AcDbSymbolTable
 70
     0
  0
ENDTAB
  0
TABLE
  2
UCS
  5
7
330
0
100
AcDbSymbolTable
 70
     0
  0
ENDTAB
  0
TABLE
  2
APPID
  5
9
330
0
100
AcDbSymbolTable
 70
     2
  0
APPID
  5
56
330
9
100
AcDbSymbolTableRecord
100
AcDbRegAppTableRecord
  2
ACAD
 70
     0
  0
APPID
  5
5E
330
9
100
AcDbSymbolTableRecord
100
AcDbRegAppTableRecord
  2
AcadAnnotative
 70
     0
  0
ENDTAB
  0
TABLE
  2
DIMSTYLE
  5
A
330
0
100
AcDbSymbolTable
 70
     2
100
AcDbDimStyleTable
 71
     0
  0
DIMSTYLE
105
58
330
A
100
AcDbSymbolTableRecord
100
AcDbDimStyleTableRecord
  2
Standard
 70
     0
340
55
  0
DIMSTYLE
105
59
330
A
100
AcDbSymbolTableRecord
100
AcDbDimStyleTableRecord
  2
Annotative
 70
     0
340
55
1001
AcadAnnotative
1000
AnnotativeData
1002
{
1070
     1
1070
     1
1002
}
  0
ENDTAB
  0
TABLE
  2
BLOCK_RECORD
  5
1
330
0
100
AcDbSymbolTable
 70
     2
  0
BLOCK_RECORD
  5
70
330
1
100
AcDbSymbolTableRecord
100
AcDbBlockTableRecord
  2
*Model_Space
340
73
 70
     0
280
     1
281
     0
  0
BLOCK_RECORD
  5
6C
330
1
100
AcDbSymbolTableRecord
100
AcDbBlockTableRecord
  2
*Paper_Space
340
6F
 70
     0
280
     1
281
     0
  0
BLOCK_RECORD
  5
74
330
1
100
AcDbSymbolTableRecord
100
AcDbBlockTableRecord
  2
*Paper_Space0
340
77
 70
     0
280
     1
281
     0
  0
BLOCK_RECORD
  5
79
330
1
100
AcDbSymbolTableRecord
100
AcDbBlockTableRecord
  2
Block_0
340
0
102
{BLKREFS
331
7A
102
}
 70
     0
280
     1
281
     0
  0
ENDTAB
  0
ENDSEC
  0
SECTION
  2
BLOCKS
  0
BLOCK
  5
71
330
70
100
AcDbEntity
  8
0
100
AcDbBlockBegin
  2
*Model_Space
 70
     0
 10
0.0
 20
0.0
 30
0.0
  3
*Model_Space
  1

  0
ENDBLK
  5
72
330
70
100
AcDbEntity
  8
0
100
AcDbBlockEnd
  0
BLOCK
  5
6D
330
6C
100
AcDbEntity
 67
     1
  8
0
100
AcDbBlockBegin
  2
*Paper_Space
 70
     0
 10
0.0
 20
0.0
 30
0.0
  3
*Paper_Space
  1

  0
ENDBLK
  5
6E
330
6C
100
AcDbEntity
 67
     1
  8
0
100
AcDbBlockEnd
  0
BLOCK
  5
75
330
74
100
AcDbEntity
 67
     1
  8
0
100
AcDbBlockBegin
  2
*Paper_Space0
 70
     0
 10
0.0
 20
0.0
 30
0.0
  3
*Paper_Space0
  1

  0
ENDBLK
  5
76
330
74
100
AcDbEntity
 67
     1
  8
0
100
AcDbBlockEnd
  0
BLOCK
  5
7B
330
79
100
AcDbEntity
  8
0
100
AcDbBlockBegin
  2
Block_0
 70
     0
 10
0.0
 20
0.0
 30
0.0
  3
Block_0
  1

  0
ENDBLK
  5
7C
330
79
100
AcDbEntity
  8
0
100
AcDbBlockEnd
  0
ENDSEC
  0
SECTION
  2
ENTITIES
  0
INSERT
  5
7A
330
70
100
AcDbEntity
  8
DIM
100
AcDbBlockReference
  2
Block_0
 10
0.0
 20
0.0
 30
0.0
  0
LINE
  5
7E
330
70
100
AcDbEntity
  8
FLAME
 62
     2
420
 16776960
370
    25
100
AcDbLine
 10
324.1014732115968
 20
270.9962323053345
 30
0.0
 11
324.1014732115968
 21
134.2740232603576
 31
0.0
  0
LINE
  5
7F
330
70
100
AcDbEntity
  8
FLAME
 62
     2
420
 16776960
370
    25
100
AcDbLine
 10
206.911008315911
 20
134.2740232603576
 30
0.0
 11
206.911008315911
 21
270.9962323053345
 31
0.0
  0
LINE
  5
80
330
70
100
AcDbEntity
  8
FLAME
 62
     2
420
 16776960
370
    25
100
AcDbLine
 10
324.1014732115968
 20
134.2740232603576
 30
0.0
 11
206.911008315911
 21
134.2740232603576
 31
0.0
  0
LINE
  5
81
330
70
100
AcDbEntity
  8
FLAME
 62
     2
420
 16776960
370
    25
100
AcDbLine
 10
324.1014732115968
 20
140.7846046434546
 30
0.0
 11
206.911008315911
 21
140.7846046434546
 31
0.0
  0
LINE
  5
82
330
70
100
AcDbEntity
  8
FLAME
 62
     2
420
 16776960
370
    25
100
AcDbLine
 10
324.1014732115968
 20
147.2951860265517
 30
0.0
 11
206.911008315911
 21
147.2951860265517
 31
0.0
  0
LINE
  5
83
330
70
100
AcDbEntity
  8
FLAME
 62
     2
420
 16776960
370
    25
100
AcDbLine
 10
324.1014732115968
 20
153.8057674096488
 30
0.0
 11
206.911008315911
 21
153.8057674096488
 31
0.0
  0
LINE
  5
84
330
70
100
AcDbEntity
  8
FLAME
 62
     2
420
 16776960
370
    25
100
AcDbLine
 10
324.1014732115968
 20
270.9962323053345
 30
0.0
 11
206.911008315911
 21
270.9962323053345
 31
0.0
  0
LWPOLYLINE
  5
86
330
70
100
AcDbEntity
  8
Defpoints
 62
    18
420
        0
370
     0
100
AcDbPolyline
 90
        4
 70
     1
 43
0.0
 10
144.6065575921601
 20
380.9999999047501
 10
398.5192315328075
 20
380.9999999047501
 10
398.5192315328075
 20
13.80320989824753
 10
144.6065575921601
 20
13.80320989824753
  0
MTEXT
  5
88
330
70
100
AcDbEntity
  8
text
100
AcDbMText
 10
211.4003607327402
 20
142.2688031158814
 30
0.0
 40
0.2
 41
0.0
 46
0.0
 71
     7
 72
     1
  1
\C4;\c16776960;\FMS PMincho|b0|i0|c128;\H3.255291;\W1.000000;KT320BBK
 73
     1
 44
1.0
  0
MTEXT
  5
89
330
70
100
AcDbEntity
  8
text
100
AcDbMText
 10
211.3455837145247
 20
135.9684124924565
 30
0.0
 40
0.2
 41
0.0
 46
0.0
 71
     7
 72
     1
  1
\C4;\c16776960;\FMS PMincho|b0|i0|c128;\H3.255291;\W0.856289;E26　LED電球(100W相当　電球色 全方向/広配光タイプ）
 73
     1
 44
1.0
  0
MTEXT
  5
8A
330
70
100
AcDbEntity
  8
text
100
AcDbMText
 10
211.4003607327402
 20
148.7758994684212
 30
0.0
 40
0.2
 41
0.0
 46
0.0
 71
     7
 72
     1
  1
\C4;\c16776960;\FMS PMincho|b0|i0|c128;\H3.255291;\W1.000000;テーブルランプ　320B
 73
     1
 44
1.0
  0
LINE
  5
8C
330
70
100
AcDbEntity
  8
shade
 62
     6
420
 16711935
370
    25
100
AcDbLine
 10
267.5020141186356
 20
195.0925360137958
 30
0.0
 11
267.5020141186356
 21
195.1739410436383
 31
0.0
  0
LINE
  5
8D
330
70
100
AcDbEntity
  8
shade
 62
     6
420
 16711935
370
    25
100
AcDbLine
 10
280.5231893680835
 20
195.1739410436383
 30
0.0
 11
280.5231893680835
 21
195.0924323131263
 31
0.0
  0
LINE
  5
8E
330
70
100
AcDbEntity
  8
shade
 62
     6
420
 16711935
370
    25
100
AcDbLine
 10
267.8275823876244
 20
193.998701294481
 30
0.0
 11
267.8275823876244
 21
194.0639290190122
 31
0.0
  0
LINE
  5
8F
330
70
100
AcDbEntity
  8
shade
 62
     6
420
 16711935
370
    25
100
AcDbLine
 10
280.1976210990825
 20
194.0639290190122
 30
0.0
 11
280.1976210990825
 21
193.998701294481
 31
0.0
  0
LINE
  5
90
330
70
100
AcDbEntity
  8
shade
 62
     6
420
 16711935
370
    25
100
AcDbLine
 10
273.5019277695975
 20
195.2031846339743
 30
0.0
 11
273.5031203273434
 21
195.2683086578359
 31
0.0
  0
LINE
  5
91
330
70
100
AcDbEntity
  8
shade
 62
     6
420
 16711935
370
    25
100
AcDbLine
 10
274.5220831593634
 20
195.2683086578359
 30
0.0
 11
274.5229646151007
 21
195.2194656399397
 31
0.0
  0
SPLINE
  5
92
330
70
100
AcDbEntity
  8
shade
 62
     6
420
 16711935
370
    25
100
AcDbSpline
210
0.0
220
0.0
230
1.0
 70
     8
 71
     3
 72
     8
 73
     4
 74
     0
 42
0.0000000001
 43
0.0000000001
 40
0.0
 40
0.0
 40
0.0
 40
0.0
 40
1.0
 40
1.0
 40
1.0
 40
1.0
 10
273.5031203273434
 20
195.2683086578359
 30
0.0
 10
273.5027573749846
 20
195.5948620832162
 30
0.0
 10
273.5511855901873
 20
196.219762350444
 30
0.0
 10
273.6017396692234
 20
196.5423751502122
 30
0.0
  0
SPLINE
  5
93
330
70
100
AcDbEntity
  8
shade
 62
     6
420
 16711935
370
    25
100
AcDbSpline
210
0.0
220
0.0
230
1.0
 70
     8
 71
     3
 72
     8
 73
     4
 74
     0
 42
0.0000000001
 43
0.0000000001
 40
0.0
 40
0.0
 40
0.0
 40
0.0
 40
1.0
 40
1.0
 40
1.0
 40
1.0
 10
274.4234638174835
 20
196.5423751502122
 30
0.0
 10
274.4738623455185
 20
196.219762350444
 30
0.0
 10
274.5222905607026
 20
195.5948620832162
 30
0.0
 10
274.5220831593634
 20
195.2683086578359
 30
0.0
  0
SPLINE
  5
94
330
70
100
AcDbEntity
  8
shade
 62
     6
420
 16711935
370
    25
100
AcDbSpline
210
0.0
220
0.0
230
1.0
 70
     8
 71
     3
 72
     8
 73
     4
 74
     0
 42
0.0000000001
 43
0.0000000001
 40
0.0
 40
0.0
 40
0.0
 40
0.0
 40
1.0
 40
1.0
 40
1.0
 40
1.0
 10
273.6017396692234
 20
196.5423751502122
 30
0.0
 10
273.6036581317177
 20
196.5582413534687
 30
0.0
 10
273.6181243758737
 20
196.5705817337758
 30
0.0
 10
273.6340424294771
 20
196.5703743324367
 30
0.0
  0
SPLINE
  5
95
330
70
100
AcDbEntity
  8
shade
 62
     6
420
 16711935
370
    25
100
AcDbSpline
210
0.0
220
0.0
230
1.0
 70
     8
 71
     3
 72
     8
 73
     4
 74
     0
 42
0.0000000001
 43
0.0000000001
 40
0.0
 40
0.0
 40
0.0
 40
0.0
 40
1.0
 40
1.0
 40
1.0
 40
1.0
 10
274.3911610572419
 20
196.5703743324367
 30
0.0
 10
274.4070791108518
 20
196.5706854344453
 30
0.0
 10
274.4215453550078
 20
196.5582413534687
 30
0.0
 10
274.4234638174835
 20
196.5423751502122
 30
0.0
  0
LWPOLYLINE
  5
96
330
70
100
AcDbEntity
  8
shade
 62
     6
420
 16711935
370
    25
100
AcDbPolyline
 90
        3
 70
     0
 43
0.0
 10
258.8243416392523
 20
225.503329295072
 10
258.8529630255371
 20
225.4403311350438
 10
258.8687255281271
 20
225.3879104438635
  0
SPLINE
  5
97
330
70
100
AcDbEntity
  8
shade
 62
     6
420
 16711935
370
    25
100
AcDbSpline
210
0.0
220
0.0
230
1.0
 70
     8
 71
     3
 72
     8
 73
     4
 74
     0
 42
0.0000000001
 43
0.0000000001
 40
0.0
 40
0.0
 40
0.0
 40
0.0
 40
1.0
 40
1.0
 40
1.0
 40
1.0
 10
257.9814625533086
 20
225.3879104438635
 30
0.0
 10
257.9923511241651
 20
225.4473827809424
 30
0.0
 10
258.0383942238451
 20
225.5378616198166
 30
0.0
 10
258.0804966978789
 20
225.5814677536236
 30
0.0
  0
SPLINE
  5
98
330
70
100
AcDbEntity
  8
shade
 62
     6
420
 16711935
370
    25
100
AcDbSpline
210
0.0
220
0.0
230
1.0
 70
     8
 71
     3
 72
   335
 73
   331
 74
     0
 42
0.0000000001
 43
0.0000000001
 40
0.0
 40
0.0
 40
0.0
 40
0.0
 40
1.0
 40
1.0
 40
1.0
 40
2.0
 40
2.0
 40
2.0
 40
3.0
 40
3.0
 40
3.0
 40
4.0
 40
4.0
 40
4.0
 40
5.0
 40
5.0
 40
5.0
 40
6.0
 40
6.0
 40
6.0
 40
7.0
 40
7.0
 40
7.0
 40
8.0
 40
8.0
 40
8.0
 40
9.0
 40
9.0
 40
9.0
 40
10.0
 40
10.0
 40
10.0
 40
11.0
 40
11.0
 40
11.0
 40
12.0
 40
12.0
 40
12.0
 40
13.0
 40
13.0
 40
13.0
 40
14.0
 40
14.0
 40
14.0
 40
15.0
 40
15.0
 40
15.0
 40
16.0
 40
16.0
 40
16.0
 40
17.0
 40
17.0
 40
17.0
 40
18.0
 40
18.0
 40
18.0
 40
19.0
 40
19.0
 40
19.0
 40
20.0
 40
20.0
 40
20.0
 40
21.0
 40
21.0
 40
21.0
 40
22.0
 40
22.0
 40
22.0
 40
23.0
 40
23.0
 40
23.0
 40
24.0
 40
24.0
 40
24.0
 40
25.0
 40
25.0
 40
25.0
 40
26.0
 40
26.0
 40
26.0
 40
27.0
 40
27.0
 40
27.0
 40
28.0
 40
28.0
 40
28.0
 40
29.0
 40
29.0
 40
29.0
 40
30.0
 40
30.0
 40
30.0
 40
31.0
 40
31.0
 40
31.0
 40
32.0
 40
32.0
 40
32.0
 40
33.0
 40
33.0
 40
33.0
 40
34.0
 40
34.0
 40
34.0
 40
35.0
 40
35.0
 40
35.0
 40
36.0
 40
36.0
 40
36.0
 40
37.0
 40
37.0
 40
37.0
 40
38.0
 40
38.0
 40
38.0
 40
39.0
 40
39.0
 40
39.0
 40
40.0
 40
40.0
 40
40.0
 40
41.0
 40
41.0
 40
41.0
 40
42.0
 40
42.0
 40
42.0
 40
43.0
 40
43.0
 40
43.0
 40
44.0
 40
44.0
 40
44.0
 40
45.0
 40
45.0
 40
45.0
 40
46.0
 40
46.0
 40
46.0
 40
47.0
 40
47.0
 40
47.0
 40
48.0
 40
48.0
 40
48.0
 40
49.0
 40
49.0
 40
49.0
 40
50.0
 40
50.0
 40
50.0
 40
51.0
 40
51.0
 40
51.0
 40
52.0
 40
52.0
 40
52.0
 40
53.0
 40
53.0
 40
53.0
 40
54.0
 40
54.0
 40
54.0
 40
55.0
 40
55.0
 40
55.0
 40
56.0
 40
56.0
 40
56.0
 40
57.0
 40
57.0
 40
57.0
 40
58.0
 40
58.0
 40
58.0
 40
59.0
 40
59.0
 40
59.0
 40
60.0
 40
60.0
 40
60.0
 40
61.0
 40
61.0
 40
61.0
 40
62.0
 40
62.0
 40
62.0
 40
63.0
 40
63.0
 40
63.0
 40
64.0
 40
64.0
 40
64.0
 40
65.0
 40
65.0
 40
65.0
 40
66.0
 40
66.0
 40
66.0
 40
67.0
 40
67.0
 40
67.0
 40
68.0
 40
68.0
 40
68.0
 40
69.0
 40
69.0
 40
69.0
 40
70.0
 40
70.0
 40
70.0
 40
71.0
 40
71.0
 40
71.0
 40
72.0
 40
72.0
 40
72.0
 40
73.0
 40
73.0
 40
73.0
 40
74.0
 40
74.0
 40
74.0
 40
75.0
 40
75.0
 40
75.0
 40
76.0
 40
76.0
 40
76.0
 40
77.0
 40
77.0
 40
77.0
 40
78.0
 40
78.0
 40
78.0
 40
79.0
 40
79.0
 40
79.0
 40
80.0
 40
80.0
 40
80.0
 40
81.0
 40
81.0
 40
81.0
 40
82.0
 40
82.0
 40
82.0
 40
83.0
 40
83.0
 40
83.0
 40
84.0
 40
84.0
 40
84.0
 40
85.0
 40
85.0
 40
85.0
 40
86.0
 40
86.0
 40
86.0
 40
87.0
 40
87.0
 40
87.0
 40
88.0
 40
88.0
 40
88.0
 40
89.0
 40
89.0
 40
89.0
 40
90.0
 40
90.0
 40
90.0
 40
91.0
 40
91.0
 40
91.0
 40
92.0
 40
92.0
 40
92.0
 40
93.0
 40
93.0
 40
93.0
 40
94.0
 40
94.0
 40
94.0
 40
95.0
 40
95.0
 40
95.0
 40
96.0
 40
96.0
 40
96.0
 40
97.0
 40
97.0
 40
97.0
 40
98.0
 40
98.0
 40
98.0
 40
99.0
 40
99.0
 40
99.0
 40
100.0
 40
100.0
 40
100.0
 40
101.0
 40
101.0
 40
101.0
 40
102.0
 40
102.0
 40
102.0
 40
103.0
 40
103.0
 40
103.0
 40
104.0
 40
104.0
 40
104.0
 40
105.0
 40
105.0
 40
105.0
 40
106.0
 40
106.0
 40
106.0
 40
107.0
 40
107.0
 40
107.0
 40
108.0
 40
108.0
 40
108.0
 40
109.0
 40
109.0
 40
109.0
 40
110.0
 40
110.0
 40
110.0
 40
110.0
 10
273.6870334743739
 20
197.5470272890684
 30
0.0
 10
273.6869297736858
 20
197.7075040835345
 30
0.0
 10
273.686618671665
 20
197.8680327283509
 30
0.0
 10
273.6860483179484
 20
198.0286132235174
 30
0.0
 10
273.6854261139004
 20
198.1758681819236
 30
0.0
 10
273.684596508501
 20
198.3232786913651
 30
0.0
 10
273.683300250067
 20
198.4706892008065
 30
0.0
 10
273.6822632433285
 20
198.6109443636643
 30
0.0
 10
273.6808632842127
 20
198.7513550775265
 30
0.0
 10
273.6791522230696
 20
198.8915065397149
 30
0.0
 10
273.6772337605752
 20
199.0472649535012
 30
0.0
 10
273.6751078967417
 20
199.2030752175914
 30
0.0
 10
273.672567230218
 20
199.3588336313777
 30
0.0
 10
273.6697154616483
 20
199.5318063571708
 30
0.0
 10
273.6665007407262
 20
199.7047272326444
 30
0.0
 10
273.6630267681271
 20
199.8778036591377
 30
0.0
 10
273.6589824417992
 20
200.0672129419005
 30
0.0
 10
273.654419612093
 20
200.2567777757137
 30
0.0
 10
273.6494419797085
 20
200.4464463101811
 30
0.0
 10
273.6439976942648
 20
200.6518254969161
 30
0.0
 10
273.6379830551233
 20
200.8572565339857
 30
0.0
 10
273.6312943615834
 20
201.0627394213902
 30
0.0
 10
273.6248130693949
 20
201.2642816831363
 30
0.0
 10
273.6175540221573
 20
201.4660831965872
 30
0.0
 10
273.6097246211909
 20
201.6677291590029
 30
0.0
 10
273.6015322678843
 20
201.8806266446648
 30
0.0
 10
273.5926140098229
 20
202.0936278309962
 30
0.0
 10
273.5829698470503
 20
202.3064734663232
 30
0.0
 10
273.5737404869803
 20
202.5105563946119
 30
0.0
 10
273.5638370725307
 20
202.7145356222309
 30
0.0
 10
273.5533114540207
 20
202.9184111491804
 30
0.0
 10
273.5435635905722
 20
203.1059538198144
 30
0.0
 10
273.5332453734135
 20
203.2933927897788
 30
0.0
 10
273.522408652895
 20
203.4807799094084
 30
0.0
 10
273.5124533880952
 20
203.6521971250813
 30
0.0
 10
273.502031470267
 20
203.8235624904348
 30
0.0
 10
273.4910910490603
 20
203.994979706123
 30
0.0
 10
273.4811357842727
 20
204.150841820548
 30
0.0
 10
273.4708175671141
 20
204.3068594860082
 30
0.0
 10
273.4599808465769
 20
204.4626178997791
 30
0.0
 10
273.44841822131
 20
204.6300944898244
 30
0.0
 10
273.4362852423573
 20
204.7973636785154
 30
0.0
 10
273.4236856103455
 20
204.9645810168561
 30
0.0
 10
273.4126414884693
 20
205.1111100705448
 30
0.0
 10
273.4012862645536
 20
205.257587273914
 30
0.0
 10
273.3894643876096
 20
205.4040126269332
 30
0.0
 10
273.379094320113
 20
205.5327051645363
 30
0.0
 10
273.3684650009335
 20
205.6613977021394
 30
0.0
 10
273.3574208790573
 20
205.789986539073
 30
0.0
 10
273.347517464589
 20
205.9047831862488
 30
0.0
 10
273.3374584991383
 20
206.0196835340788
 30
0.0
 10
273.3272439826492
 20
206.1344801812392
 30
0.0
 10
273.3159924594153
 20
206.2596468959084
 30
0.0
 10
273.3044298341605
 20
206.384865460897
 30
0.0
 10
273.2926079572165
 20
206.509980325216
 30
0.0
 10
273.283585998492
 20
206.6045553407682
 30
0.0
 10
273.2744603390915
 20
206.6991822066551
 30
0.0
 10
273.2651272783583
 20
206.7937053718725
 30
0.0
 10
273.253979455794
 20
206.9067909578776
 30
0.0
 10
273.2426242318969
 20
207.0196691425745
 30
0.0
 10
273.2310616066421
 20
207.1326510279408
 30
0.0
 10
273.2171138658646
 20
207.2674100550203
 30
0.0
 10
273.2028031727097
 20
207.4020653814302
 30
0.0
 10
273.1881295272025
 20
207.5367207078401
 30
0.0
 10
273.171278167536
 20
207.692479121611
 30
0.0
 10
273.1538564541472
 20
207.8480301340274
 30
0.0
 10
273.1359162373735
 20
208.0037366974481
 30
0.0
 10
273.1158501567727
 20
208.1775390286591
 30
0.0
 10
273.0950063211164
 20
208.3514969108898
 30
0.0
 10
273.0736439820629
 20
208.5252473917506
 30
0.0
 10
273.0462670038743
 20
208.748463094571
 30
0.0
 10
273.0176974679333
 20
208.9714195457023
 30
0.0
 10
272.9880909252417
 20
209.1943241464987
 30
0.0
 10
272.9586917838828
 20
209.4140140263853
 30
0.0
 10
272.9284111868051
 20
209.6336520559063
 30
0.0
 10
272.8968861816191
 20
209.8530308337688
 30
0.0
 10
272.8657759791544
 20
210.0691948906599
 30
0.0
 10
272.8335769195823
 20
210.2852033965929
 30
0.0
 10
272.8003408532533
 20
210.501004501156
 30
0.0
 10
272.7674158889637
 20
210.713694585448
 30
0.0
 10
272.733453917917
 20
210.9260735677467
 30
0.0
 10
272.6982993891058
 20
211.1383488493605
 30
0.0
 10
272.6640781663698
 20
211.3449724441761
 30
0.0
 10
272.628716236226
 20
211.5512849369831
 30
0.0
 10
272.5923172993064
 20
211.7576492801095
 30
0.0
 10
272.5671698856329
 20
211.8994081027682
 30
0.0
 10
272.5415558189312
 20
212.0410632247419
 30
0.0
 10
272.5153195481628
 20
212.1827183467156
 30
0.0
 10
272.493023903059
 20
212.3032185310089
 30
0.0
 10
272.4704171559094
 20
212.4236668649521
 30
0.0
 10
272.4472400550683
 20
212.5438559472368
 30
0.0
 10
272.4281591308866
 20
212.6438752482018
 30
0.0
 10
272.4086115536458
 20
212.7436871478277
 30
0.0
 10
272.3888565750659
 20
212.843499047469
 30
0.0
 10
272.3715385623588
 20
212.930607614429
 30
0.0
 10
272.3541168489636
 20
213.0177680317237
 30
0.0
 10
272.3363840335476
 20
213.1048765986683
 30
0.0
 10
272.3164216536164
 20
213.2027700358152
 30
0.0
 10
272.2962518723397
 20
213.3006634729622
 30
0.0
 10
272.2757709890421
 20
213.398453209455
 30
0.0
 10
272.2535790446079
 20
213.5042278978877
 30
0.0
 10
272.2310759981464
 20
213.6100025863204
 30
0.0
 10
272.208106298638
 20
213.7156735740989
 30
0.0
 10
272.1838921910399
 20
213.8278258540474
 30
0.0
 10
272.159263280745
 20
213.9398225829761
 30
0.0
 10
272.1342195677411
 20
214.051871162255
 30
0.0
 10
272.1054426304489
 20
214.180356298519
 30
0.0
 10
272.0761471897781
 20
214.3087377340981
 30
0.0
 10
272.0461776947213
 20
214.4371191696926
 30
0.0
 10
272.0117490706341
 20
214.5851518831666
 30
0.0
 10
271.9765426914912
 20
214.7329771953016
 30
0.0
 10
271.9406104076309
 20
214.8805432557474
 30
0.0
 10
271.9001671443957
 20
215.046827288016
 30
0.0
 10
271.8587387247601
 20
215.2129557692957
 30
0.0
 10
271.8163769990305
 20
215.378669447851
 30
0.0
 10
271.7703857496886
 20
215.558279016849
 30
0.0
 10
271.7232537929444
 20
215.7377330348428
 30
0.0
 10
271.6749292784113
 20
215.9167722501429
 30
0.0
 10
271.6239603966848
 20
216.1055593288729
 30
0.0
 10
271.5717471068436
 20
216.2941390062639
 30
0.0
 10
271.5178746062095
 20
216.482200180261
 30
0.0
 10
271.4694463910068
 20
216.6519063348248
 30
0.0
 10
271.4197737677081
 20
216.8212495370143
 30
0.0
 10
271.3690122873329
 20
216.9902297868297
 30
0.0
 10
271.3246283984458
 20
217.1381587996342
 30
0.0
 10
271.279155652476
 20
217.2857248600799
 30
0.0
 10
271.2329570018072
 20
217.4329279681669
 30
0.0
 10
271.1959358608396
 20
217.5507837852482
 30
0.0
 10
271.1582406654923
 20
217.6684840512945
 30
0.0
 10
271.1198714157712
 20
217.7859250656823
 30
0.0
 10
271.0868427507999
 20
217.8872924754283
 30
0.0
 10
271.0532955824622
 20
217.9884006335159
 30
0.0
 10
271.019437312085
 20
218.0894050909032
 30
0.0
 10
270.9891567150074
 20
218.1790024740554
 30
0.0
 10
270.9588242675796
 20
218.2685480068883
 30
0.0
 10
270.9279214664539
 20
218.3578342880011
 30
0.0
 10
270.8976408693576
 20
218.4451502563002
 30
0.0
 10
270.8671528709287
 20
218.5325180749494
 30
0.0
 10
270.8360426684452
 20
218.619626641894
 30
0.0
 10
270.8126581662465
 20
218.6855284208387
 30
0.0
 10
270.7890144123584
 20
218.7514820500875
 30
0.0
 10
270.7651114067811
 20
218.8173319786668
 30
0.0
 10
270.7424009589684
 20
218.8802782883756
 30
0.0
 10
270.7192238581209
 20
218.9432764484038
 30
0.0
 10
270.6958912062601
 20
219.0061190574123
 30
0.0
 10
270.6682549763944
 20
219.0808872440497
 30
0.0
 10
270.6403594948209
 20
219.1556554306871
 30
0.0
 10
270.6119973602376
 20
219.23021621597
 30
0.0
 10
270.5777761374895
 20
219.3203321025008
 30
0.0
 10
270.5431919623948
 20
219.4106035400359
 30
0.0
 10
270.5081411342717
 20
219.5004601748773
 30
0.0
 10
270.4586240619926
 20
219.6269231479621
 30
0.0
 10
270.4085366359849
 20
219.7530750190382
 30
0.0
 10
270.3573603529008
 20
219.8787083867357
 30
0.0
 10
270.3011545870818
 20
220.016941386445
 30
0.0
 10
270.2438081138364
 20
220.1547595834301
 30
0.0
 10
270.185424633834
 20
220.2921111274021
 30
0.0
 10
270.1276633579103
 20
220.4276997598995
 30
0.0
 10
270.0688132248795
 20
220.562769889003
 30
0.0
 10
270.0088223844221
 20
220.6974252154283
 30
0.0
 10
269.9497648500336
 20
220.8299028276699
 30
0.0
 10
269.8895666082249
 20
220.9620174875528
 30
0.0
 10
269.8280721079821
 20
221.0936136440571
 30
0.0
 10
269.7675627641461
 20
221.2230320863933
 30
0.0
 10
269.7059645632338
 20
221.3520875763552
 30
0.0
 10
269.6432256548949
 20
221.4804690119343
 30
0.0
 10
269.5816274539826
 20
221.6066208830104
 30
0.0
 10
269.5188885456436
 20
221.7322024003578
 30
0.0
 10
269.454957079528
 20
221.8572135640227
 30
0.0
 10
269.4136323605741
 20
221.9377889884472
 30
0.0
 10
269.3718928388926
 20
222.0181051611824
 30
0.0
 10
269.3295311131816
 20
222.0981620822284
 30
0.0
 10
269.293339577632
 20
222.167071180744
 30
0.0
 10
269.2564739876841
 20
222.2357728779051
 30
0.0
 10
269.2194009963971
 20
222.3042671736963
 30
0.0
 10
269.1880833925624
 20
222.3621321503202
 30
0.0
 10
269.1563509860373
 20
222.4197897255897
 30
0.0
 10
269.1244630284862
 20
222.4774473008592
 30
0.0
 10
269.0981230570546
 20
222.5250459106439
 30
0.0
 10
269.0713682829076
 20
222.5725926701246
 30
0.0
 10
269.0447172094488
 20
222.6201912799247
 30
0.0
 10
269.0168217278939
 20
222.669345399845
 30
0.0
 10
268.9887706953193
 20
222.7184995197653
 30
0.0
 10
268.9606159620751
 20
222.7675499390314
 30
0.0
 10
268.9268613923675
 20
222.8261926706923
 30
0.0
 10
268.8927957206513
 20
222.8845761506947
 30
0.0
 10
268.8583670965763
 20
222.9429077803471
 30
0.0
 10
268.817405329969
 20
223.0122316815562
 30
0.0
 10
268.775976910327
 20
223.0814518820805
 30
0.0
 10
268.7341336879945
 20
223.1504128309
 30
0.0
 10
268.6857054727919
 20
223.2298993982481
 30
0.0
 10
268.6367587542293
 20
223.309023013222
 30
0.0
 10
268.5872935322696
 20
223.3877318255177
 30
0.0
 10
268.5376727593024
 20
223.4665961888177
 30
0.0
 10
268.4875334829753
 20
223.5450975997435
 30
0.0
 10
268.4366683019184
 20
223.623132357641
 30
0.0
 10
268.3863734745715
 20
223.7004412108055
 30
0.0
 10
268.3354045928264
 20
223.7773352612763
 30
0.0
 10
268.2837616567139
 20
223.8537626587189
 30
0.0
 10
268.2354889925124
 20
223.9254716754353
 30
0.0
 10
268.1863867229301
 20
223.9967140391389
 30
0.0
 10
268.1369215009826
 20
224.067645300803
 30
0.0
 10
268.0968930404628
 20
224.1249917740484
 30
0.0
 10
268.0564497772154
 20
224.1820271452545
 30
0.0
 10
268.0157472623096
 20
224.2388551151214
 30
0.0
 10
267.9811630872149
 20
224.2869203779652
 30
0.0
 10
267.9465270617822
 20
224.3347263891044
 30
0.0
 10
267.9113725329774
 20
224.3822731485851
 30
0.0
 10
267.8736773376424
 20
224.4336049826736
 30
0.0
 10
267.8356710402679
 20
224.4845220140839
 30
0.0
 10
267.797198089865
 20
224.5353353447939
 30
0.0
 10
267.7496513303997
 20
224.5982816544873
 30
0.0
 10
267.7015342172365
 20
224.6608131614872
 30
0.0
 10
267.6528986006761
 20
224.7230335664475
 30
0.0
 10
267.5937373656245
 20
224.7986313584721
 30
0.0
 10
267.5339539265183
 20
224.873606946464
 30
0.0
 10
267.4733408820129
 20
224.9479603303925
 30
0.0
 10
267.3942172670236
 20
225.0450241621523
 30
0.0
 10
267.3137455432686
 20
225.1408954361353
 30
0.0
 10
267.2318738603979
 20
225.2356260027072
 30
0.0
 10
267.1652980270888
 20
225.3127274545171
 30
0.0
 10
267.097840738036
 20
225.3890511512901
 30
0.0
 10
267.0293464422326
 20
225.4643896916409
 30
0.0
 10
266.9669186359145
 20
225.5332469397909
 30
0.0
 10
266.9037649248852
 20
225.6014301335581
 30
0.0
 10
266.8396260574304
 20
225.668887422623
 30
0.0
 10
266.7603987417716
 20
225.7522627652792
 30
0.0
 10
266.679978868336
 20
225.834445550174
 30
0.0
 10
266.5983664371667
 20
225.9152283759684
 30
0.0
 10
266.5132800333739
 20
225.9995370246813
 30
0.0
 10
266.4268455208089
 20
226.0824975646285
 30
0.0
 10
266.3389073484463
 20
226.1638507441208
 30
0.0
 10
266.252680237227
 20
226.2438039644973
 30
0.0
 10
266.165105017254
 20
226.3223572257886
 30
0.0
 10
266.0759742871269
 20
226.3992512762595
 30
0.0
 10
265.996591420467
 20
226.4678492727203
 30
0.0
 10
265.9161715470436
 20
226.5352028611157
 30
0.0
 10
265.8346109662001
 20
226.6011046400297
 30
0.0
 10
265.7710424524554
 20
226.6524883244684
 30
0.0
 10
265.7067480339809
 20
226.7030424035045
 30
0.0
 10
265.6418832618271
 20
226.752766877138
 30
0.0
 10
265.5643670072928
 20
226.8120318128778
 30
0.0
 10
265.4860211473713
 20
226.8700004901713
 30
0.0
 10
265.4065864303547
 20
226.926569208349
 30
0.0
 10
265.3249221488417
 20
226.9849008380167
 30
0.0
 10
265.2421690102457
 20
227.0416769575335
 30
0.0
 10
265.1584307152186
 20
227.09689756693
 30
0.0
 10
265.0885364603115
 20
227.1429925169601
 30
0.0
 10
265.0179163006682
 20
227.187998609883
 30
0.0
 10
264.9465702363137
 20
227.2318639953947
 30
0.0
 10
264.867965124703
 20
227.2801885099124
 30
0.0
 10
264.7885304076865
 20
227.3271649156491
 30
0.0
 10
264.708162384601
 20
227.3724821106114
 30
0.0
 10
264.6171650423484
 20
227.4238657950501
 30
0.0
 10
264.524975142319
 20
227.4733828673292
 30
0.0
 10
264.431644534863
 20
227.52072222544
 30
0.0
 10
264.3421508523957
 20
227.5661949714066
 30
0.0
 10
264.2516720135093
 20
227.6096974045596
 30
0.0
 10
264.1603635692172
 20
227.6510221235134
 30
0.0
 10
264.0680699685183
 20
227.6927616451917
 30
0.0
 10
263.9748430617318
 20
227.732219751986
 30
0.0
 10
263.8806309985507
 20
227.7695519949622
 30
0.0
 10
263.8002629754653
 20
227.8013881021755
 30
0.0
 10
263.718909795973
 20
227.8315649985835
 30
0.0
 10
263.6370381131208
 20
227.8598752828629
 30
0.0
 10
263.560040361965
 20
227.8864226556367
 30
0.0
 10
263.4826278081123
 20
227.9114145182904
 30
0.0
 10
263.4046967508876
 20
227.9347471701544
 30
0.0
 10
263.3342839926021
 20
227.9557984071653
 30
0.0
 10
263.2634564316197
 20
227.9753978347409
 30
0.0
 10
263.1922140679348
 20
227.9935973031852
 30
0.0
 10
263.1132978542968
 20
228.0136633838047
 30
0.0
 10
263.0339668379562
 20
228.0320184032533
 30
0.0
 10
262.954221018931
 20
228.0485068105732
 30
0.0
 10
262.8649347378029
 20
228.0668618300527
 30
0.0
 10
262.7750781029646
 20
228.0827798836593
 30
0.0
 10
262.6849103660991
 20
228.0962609713776
 30
0.0
 10
262.6054756491011
 20
228.1080309980023
 30
0.0
 10
262.5258335307334
 20
228.117830711767
 30
0.0
 10
262.4459840110265
 20
228.1255564120792
 30
0.0
 10
262.3775415655546
 20
228.1322451056036
 30
0.0
 10
262.3089954194254
 20
228.1373782889924
 30
0.0
 10
262.2404492732841
 20
228.1408522616224
 30
0.0
 10
262.1615330596525
 20
228.1448965879502
 30
0.0
 10
262.0826168460145
 20
228.1469187510987
 30
0.0
 10
262.0037006323829
 20
228.1467113497596
 30
0.0
 10
261.9151402559845
 20
228.1464002477356
 30
0.0
 10
261.8264761789044
 20
228.1432892274644
 30
0.0
 10
261.7381232038515
 20
228.1373782889924
 30
0.0
 10
261.6526738476934
 20
228.1315192008706
 30
0.0
 10
261.5675355935626
 20
228.1231194462063
 30
0.0
 10
261.4826047407894
 20
228.1119716236452
 30
0.0
 10
261.3481049653806
 20
228.0940314068747
 30
0.0
 10
261.2144347953776
 20
228.0691950952252
 30
0.0
 10
261.0825275368492
 20
228.0366849336292
 30
0.0
 10
260.9514498837266
 20
228.0045377244074
 30
0.0
 10
260.82213514206
 20
227.9651314679324
 30
0.0
 10
260.6956203186373
 20
227.9179476608259
 30
0.0
 10
260.5692091958906
 20
227.8709194047391
 30
0.0
 10
260.4454942906688
 20
227.8162172987057
 30
0.0
 10
260.3257200111117
 20
227.7539968937298
 30
0.0
 10
260.235915226605
 20
227.7072797396824
 30
0.0
 10
260.1483918569514
 20
227.6563108579374
 30
0.0
 10
260.0634610041719
 20
227.6011939492104
 30
0.0
 10
259.9787375527378
 20
227.545973339783
 30
0.0
 10
259.8966066181778
 20
227.4867602543933
 30
0.0
 10
259.8176904045584
 20
227.4233472916869
 30
0.0
 10
259.7387741909204
 20
227.3598306282803
 30
0.0
 10
259.6632800995686
 20
227.292528890235
 30
0.0
 10
259.5914155318291
 20
227.2211828258773
 30
0.0
 10
259.5196546647657
 20
227.1497849111695
 30
0.0
 10
259.4515233213333
 20
227.0746019218385
 30
0.0
 10
259.3878511069068
 20
226.9960486605779
 30
0.0
 10
259.3253195999192
 20
226.9189472087371
 30
0.0
 10
259.266832419235
 20
226.8384236346474
 30
0.0
 10
259.2125969662421
 20
226.7553075436805
 30
0.0
 10
259.164168751058
 20
226.680539357043
 30
0.0
 10
259.1189552567652
 20
226.6035416059026
 30
0.0
 10
259.0778897895006
 20
226.5244698412635
 30
0.0
 10
259.0518609200898
 20
226.4747453676145
 30
0.0
 10
259.0274912614656
 20
226.4240875879089
 30
0.0
 10
259.0047808136529
 20
226.3729113048247
 30
0.0
 10
258.9733595091486
 20
226.3019800431606
 30
0.0
 10
258.9451529255665
 20
226.2296488223807
 30
0.0
 10
258.9197462602038
 20
226.1564879962136
 30
0.0
 10
258.8867694455826
 20
226.0612389262632
 30
0.0
 10
258.8584591613001
 20
225.9643306455385
 30
0.0
 10
258.8365783189053
 20
225.8659705553478
 30
0.0
 10
258.8104457488064
 20
225.7481147382665
 30
0.0
 10
258.7931277360993
 20
225.6282367580366
 30
0.0
 10
258.776120825401
 20
225.5083069274566
 30
0.0
  0
SPLINE
  5
99
330
70
100
AcDbEntity
  8
shade
 62
     6
420
 16711935
370
    25
100
AcDbSpline
210
0.0
220
0.0
230
1.0
 70
     8
 71
     3
 72
   329
 73
   325
 74
     0
 42
0.0000000001
 43
0.0000000001
 40
0.0
 40
0.0
 40
0.0
 40
0.0
 40
1.0
 40
1.0
 40
1.0
 40
2.0
 40
2.0
 40
2.0
 40
3.0
 40
3.0
 40
3.0
 40
4.0
 40
4.0
 40
4.0
 40
5.0
 40
5.0
 40
5.0
 40
6.0
 40
6.0
 40
6.0
 40
7.0
 40
7.0
 40
7.0
 40
8.0
 40
8.0
 40
8.0
 40
9.0
 40
9.0
 40
9.0
 40
10.0
 40
10.0
 40
10.0
 40
11.0
 40
11.0
 40
11.0
 40
12.0
 40
12.0
 40
12.0
 40
13.0
 40
13.0
 40
13.0
 40
14.0
 40
14.0
 40
14.0
 40
15.0
 40
15.0
 40
15.0
 40
16.0
 40
16.0
 40
16.0
 40
17.0
 40
17.0
 40
17.0
 40
18.0
 40
18.0
 40
18.0
 40
19.0
 40
19.0
 40
19.0
 40
20.0
 40
20.0
 40
20.0
 40
21.0
 40
21.0
 40
21.0
 40
22.0
 40
22.0
 40
22.0
 40
23.0
 40
23.0
 40
23.0
 40
24.0
 40
24.0
 40
24.0
 40
25.0
 40
25.0
 40
25.0
 40
26.0
 40
26.0
 40
26.0
 40
27.0
 40
27.0
 40
27.0
 40
28.0
 40
28.0
 40
28.0
 40
29.0
 40
29.0
 40
29.0
 40
30.0
 40
30.0
 40
30.0
 40
31.0
 40
31.0
 40
31.0
 40
32.0
 40
32.0
 40
32.0
 40
33.0
 40
33.0
 40
33.0
 40
34.0
 40
34.0
 40
34.0
 40
35.0
 40
35.0
 40
35.0
 40
36.0
 40
36.0
 40
36.0
 40
37.0
 40
37.0
 40
37.0
 40
38.0
 40
38.0
 40
38.0
 40
39.0
 40
39.0
 40
39.0
 40
40.0
 40
40.0
 40
40.0
 40
41.0
 40
41.0
 40
41.0
 40
42.0
 40
42.0
 40
42.0
 40
43.0
 40
43.0
 40
43.0
 40
44.0
 40
44.0
 40
44.0
 40
45.0
 40
45.0
 40
45.0
 40
46.0
 40
46.0
 40
46.0
 40
47.0
 40
47.0
 40
47.0
 40
48.0
 40
48.0
 40
48.0
 40
49.0
 40
49.0
 40
49.0
 40
50.0
 40
50.0
 40
50.0
 40
51.0
 40
51.0
 40
51.0
 40
52.0
 40
52.0
 40
52.0
 40
53.0
 40
53.0
 40
53.0
 40
54.0
 40
54.0
 40
54.0
 40
55.0
 40
55.0
 40
55.0
 40
56.0
 40
56.0
 40
56.0
 40
57.0
 40
57.0
 40
57.0
 40
58.0
 40
58.0
 40
58.0
 40
59.0
 40
59.0
 40
59.0
 40
60.0
 40
60.0
 40
60.0
 40
61.0
 40
61.0
 40
61.0
 40
62.0
 40
62.0
 40
62.0
 40
63.0
 40
63.0
 40
63.0
 40
64.0
 40
64.0
 40
64.0
 40
65.0
 40
65.0
 40
65.0
 40
66.0
 40
66.0
 40
66.0
 40
67.0
 40
67.0
 40
67.0
 40
68.0
 40
68.0
 40
68.0
 40
69.0
 40
69.0
 40
69.0
 40
70.0
 40
70.0
 40
70.0
 40
71.0
 40
71.0
 40
71.0
 40
72.0
 40
72.0
 40
72.0
 40
73.0
 40
73.0
 40
73.0
 40
74.0
 40
74.0
 40
74.0
 40
75.0
 40
75.0
 40
75.0
 40
76.0
 40
76.0
 40
76.0
 40
77.0
 40
77.0
 40
77.0
 40
78.0
 40
78.0
 40
78.0
 40
79.0
 40
79.0
 40
79.0
 40
80.0
 40
80.0
 40
80.0
 40
81.0
 40
81.0
 40
81.0
 40
82.0
 40
82.0
 40
82.0
 40
83.0
 40
83.0
 40
83.0
 40
84.0
 40
84.0
 40
84.0
 40
85.0
 40
85.0
 40
85.0
 40
86.0
 40
86.0
 40
86.0
 40
87.0
 40
87.0
 40
87.0
 40
88.0
 40
88.0
 40
88.0
 40
89.0
 40
89.0
 40
89.0
 40
90.0
 40
90.0
 40
90.0
 40
91.0
 40
91.0
 40
91.0
 40
92.0
 40
92.0
 40
92.0
 40
93.0
 40
93.0
 40
93.0
 40
94.0
 40
94.0
 40
94.0
 40
95.0
 40
95.0
 40
95.0
 40
96.0
 40
96.0
 40
96.0
 40
97.0
 40
97.0
 40
97.0
 40
98.0
 40
98.0
 40
98.0
 40
99.0
 40
99.0
 40
99.0
 40
100.0
 40
100.0
 40
100.0
 40
101.0
 40
101.0
 40
101.0
 40
102.0
 40
102.0
 40
102.0
 40
103.0
 40
103.0
 40
103.0
 40
104.0
 40
104.0
 40
104.0
 40
105.0
 40
105.0
 40
105.0
 40
106.0
 40
106.0
 40
106.0
 40
107.0
 40
107.0
 40
107.0
 40
108.0
 40
108.0
 40
108.0
 40
108.0
 10
258.1285101103726
 20
225.5764901212391
 30
0.0
 10
258.138983878551
 20
225.6575321987074
 30
0.0
 10
258.1493539460475
 20
225.7386261265258
 30
0.0
 10
258.1631461358053
 20
225.8190459999306
 30
0.0
 10
258.1747606113916
 20
225.8853107312188
 30
0.0
 10
258.1884491004984
 20
225.9509014081396
 30
0.0
 10
258.2037968003918
 20
226.0163365340253
 30
0.0
 10
258.2149964732877
 20
226.0643499465189
 30
0.0
 10
258.2270257515708
 20
226.1122078080083
 30
0.0
 10
258.2400920366231
 20
226.1599101184779
 30
0.0
 10
258.2503584034316
 20
226.197605313813
 30
0.0
 10
258.2612469743068
 20
226.2353005091634
 30
0.0
 10
258.2729651505626
 20
226.2727883031594
 30
0.0
 10
258.2850981295339
 20
226.3119871582952
 30
0.0
 10
258.2979570132349
 20
226.3509267617264
 30
0.0
 10
258.3114381009841
 20
226.3897108141533
 30
0.0
 10
258.3473185345065
 20
226.4924781830305
 30
0.0
 10
258.3882803011015
 20
226.5935863411028
 30
0.0
 10
258.4344271014696
 20
226.6922056829827
 30
0.0
 10
258.4807813031582
 20
226.7916027798996
 30
0.0
 10
258.5323205386134
 20
226.8886666116594
 30
0.0
 10
258.5880078010537
 20
226.9830860761765
 30
0.0
 10
258.6624648856671
 20
227.1086157432045
 30
0.0
 10
258.7445958202149
 20
227.2293233288523
 30
0.0
 10
258.8337784006736
 20
227.3446384793913
 30
0.0
 10
258.9215091716785
 20
227.457983317101
 30
0.0
 10
259.0160841872306
 20
227.5658320190478
 30
0.0
 10
259.1170886446211
 20
227.6674586804832
 30
0.0
 10
259.2177819999965
 20
227.7688779405794
 30
0.0
 10
259.3246973958712
 20
227.8639196091753
 30
0.0
 10
259.436797825488
 20
227.9522725842314
 30
0.0
 10
259.5067957810646
 20
228.0073894929584
 30
0.0
 10
259.5786603488162
 20
228.0599657351584
 30
0.0
 10
259.6525989300511
 20
228.1098457598117
 30
0.0
 10
259.7296485315263
 20
228.1619034986332
 30
0.0
 10
259.8087721465156
 20
228.2112650198925
 30
0.0
 10
259.8895549722914
 20
228.2574636705768
 30
0.0
 10
259.9649453629801
 20
228.3006031513709
 30
0.0
 10
260.0417875631162
 20
228.3411501152724
 30
0.0
 10
260.1197704706789
 20
228.379052711962
 30
0.0
 10
260.1876944127536
 20
228.4120813769365
 30
0.0
 10
260.2564479602341
 20
228.4429841780622
 30
0.0
 10
260.326134813802
 20
228.4720722173939
 30
0.0
 10
260.4048436260824
 20
228.504789780329
 30
0.0
 10
260.4842783430989
 20
228.5349148264024
 30
0.0
 10
260.5647500668538
 20
228.562654756953
 30
0.0
 10
260.6722876667765
 20
228.5996240475705
 30
0.0
 10
260.7813807768163
 20
228.6320823588317
 30
0.0
 10
260.8914071929312
 20
228.6601333914064
 30
0.0
 10
260.9846340997055
 20
228.6838289956292
 30
0.0
 10
261.0785869112096
 20
228.7044135796117
 30
0.0
 10
261.1732656274313
 20
228.7218352930036
 30
0.0
 10
261.2773811050743
 20
228.7410717682051
 30
0.0
 10
261.382222487447
 20
228.7565750191027
 30
0.0
 10
261.4874786725044
 20
228.7683450456965
 30
0.0
 10
261.5699207090853
 20
228.7776781064637
 30
0.0
 10
261.6526738476934
 20
228.7846779020121
 30
0.0
 10
261.7354269863016
 20
228.7894481330575
 30
0.0
 10
261.8248169681179
 20
228.7947887178163
 30
0.0
 10
261.9143106505851
 20
228.7974330850282
 30
0.0
 10
262.0038043330646
 20
228.7976404863827
 30
0.0
 10
262.1138307491796
 20
228.7979515884067
 30
0.0
 10
262.2238571652824
 20
228.7946850171468
 30
0.0
 10
262.3337798807279
 20
228.7876852215829
 30
0.0
 10
262.4570799832529
 20
228.7799076709667
 30
0.0
 10
262.5798615823808
 20
228.7677228416639
 30
0.0
 10
262.7021246781366
 20
228.751234434344
 30
0.0
 10
262.8267210390893
 20
228.734694176674
 30
0.0
 10
262.9506433456502
 20
228.7135392389935
 30
0.0
 10
263.0736841964674
 20
228.6884955259897
 30
0.0
 10
263.1990064621441
 20
228.6629851599728
 30
0.0
 10
263.3235509727466
 20
228.6332749165931
 30
0.0
 10
263.4470584765986
 20
228.59972774824
 30
0.0
 10
263.5718622388904
 20
228.565610226189
 30
0.0
 10
263.6954215930925
 20
228.5277076295149
 30
0.0
 10
263.8178920902117
 20
228.4860718085062
 30
0.0
 10
263.9274518532862
 20
228.4487914158647
 30
0.0
 10
264.0359746096158
 20
228.4086592546568
 30
0.0
 10
264.1433566585188
 20
228.3656753248978
 30
0.0
 10
264.232642939647
 20
228.3300022927266
 30
0.0
 10
264.3209959146999
 20
228.2925144987153
 30
0.0
 10
264.408622985023
 20
228.2532119429253
 30
0.0
 10
264.541670950978
 20
228.1935322044765
 30
0.0
 10
264.6729041551267
 20
228.1297044390612
 30
0.0
 10
264.8021670464431
 20
228.062299000331
 30
0.0
 10
264.9500442089129
 20
227.985093847836
 30
0.0
 10
265.0953288545208
 20
227.9031184643111
 30
0.0
 10
265.2380728335677
 20
227.8167876524189
 30
0.0
 10
265.3802464589232
 20
227.7306642418658
 30
0.0
 10
265.5198794177298
 20
227.6402891036612
 30
0.0
 10
265.6569717100126
 20
227.5460770404833
 30
0.0
 10
265.8111746136633
 20
227.4400949506807
 30
0.0
 10
265.9618516943526
 20
227.3293426298327
 30
0.0
 10
266.1094177547951
 20
227.2142348806482
 30
0.0
 10
266.2315771498813
 20
227.1189858107133
 30
0.0
 10
266.3514551301266
 20
227.0206775708574
 30
0.0
 10
266.4691035458503
 20
226.9198805148246
 30
0.0
 10
266.5528936912032
 20
226.8482233484275
 30
0.0
 10
266.6353875781221
 20
226.7751662229299
 30
0.0
 10
266.7167407576144
 20
226.700916539671
 30
0.0
 10
266.8003235016219
 20
226.6248002442525
 30
0.0
 10
266.8825062865199
 20
226.5472839897336
 30
0.0
 10
266.9637557653426
 20
226.4685751774532
 30
0.0
 10
267.0444348904366
 20
226.3905404195558
 30
0.0
 10
267.1239733081163
 20
226.3111057025579
 30
0.0
 10
267.2024747190576
 20
226.2307376794725
 30
0.0
 10
267.2735096813911
 20
226.1578879553294
 30
0.0
 10
267.3436631880061
 20
226.0840012244139
 30
0.0
 10
267.4129352388651
 20
226.009440439131
 30
0.0
 10
267.4776963103679
 20
225.9396498849088
 30
0.0
 10
267.541627776465
 20
225.8692371266079
 30
0.0
 10
267.6047814875129
 20
225.7980984636047
 30
0.0
 10
267.663527919862
 20
225.731937432986
 30
0.0
 10
267.7214965971554
 20
225.6652578989888
 30
0.0
 10
267.7789467710705
 20
225.5979561609589
 30
0.0
 10
267.8458337064189
 20
225.5195584507027
 30
0.0
 10
267.9118910363559
 20
225.4404866860482
 30
0.0
 10
267.9770150602175
 20
225.3604816153369
 30
0.0
 10
268.0409465263332
 20
225.2821357554155
 30
0.0
 10
268.1041002373625
 20
225.2030121404416
 30
0.0
 10
268.1663206423229
 20
225.1233700220738
 30
0.0
 10
268.2174969254257
 20
225.0578830458379
 30
0.0
 10
268.2681547051313
 20
224.9920331172587
 30
0.0
 10
268.318190280789
 20
224.92587208664
 30
0.0
 10
268.3585298433359
 20
224.8724662390374
 30
0.0
 10
268.3985583038743
 20
224.8187492894262
 30
0.0
 10
268.4381719617038
 20
224.7648767887799
 30
0.0
 10
268.4955184349492
 20
224.6869457315674
 30
0.0
 10
268.5520353027889
 20
224.6085998716459
 30
0.0
 10
268.6079818169184
 20
224.5295799573416
 30
0.0
 10
268.6832685069376
 20
224.423286765515
 30
0.0
 10
268.7572589385041
 20
224.3160084172969
 30
0.0
 10
268.8301086626503
 20
224.2080560146806
 30
0.0
 10
268.911358141473
 20
224.0875039800371
 30
0.0
 10
268.9911039605104
 20
223.9660186393523
 30
0.0
 10
269.0692424190742
 20
223.843496291895
 30
0.0
 10
269.1477438300154
 20
223.7205072914248
 30
0.0
 10
269.2248452818286
 20
223.5965849848517
 30
0.0
 10
269.3005467745381
 20
223.4719367735764
 30
0.0
 10
269.3616264720841
 20
223.3710360168433
 30
0.0
 10
269.4219284145688
 20
223.2696167567625
 30
0.0
 10
269.4812970509596
 20
223.1676789932877
 30
0.0
 10
269.5247994841157
 20
223.0927034052958
 30
0.0
 10
269.5679389648757
 20
223.0175204159802
 30
0.0
 10
269.6107154932956
 20
222.9420263246097
 30
0.0
 10
269.6500180491042
 20
222.872287620707
 30
0.0
 10
269.6890095028856
 20
222.8023933657999
 30
0.0
 10
269.72753430362
 20
222.7322917095384
 30
0.0
 10
269.7769995255675
 20
222.6423832243622
 30
0.0
 10
269.8257388427909
 20
222.5520080861267
 30
0.0
 10
269.8739596566424
 20
222.4614255465676
 30
0.0
 10
269.9334319937334
 20
222.3493769673041
 30
0.0
 10
269.9921784260825
 20
222.2368098846467
 30
0.0
 10
270.0497323006792
 20
222.1238798496305
 30
0.0
 10
270.1143896715003
 20
221.9972613255261
 30
0.0
 10
270.1776470832177
 20
221.8701761483933
 30
0.0
 10
270.2399193385284
 20
221.7424169168468
 30
0.0
 10
270.3031767502458
 20
221.612842923491
 30
0.0
 10
270.3650860531789
 20
221.4825948757678
 30
0.0
 10
270.4260620500432
 20
221.351828324666
 30
0.0
 10
270.4878676523255
 20
221.2191951614046
 30
0.0
 10
270.5484806968309
 20
221.0860434947801
 30
0.0
 10
270.6079530339098
 20
220.952373324777
 30
0.0
 10
270.668358677064
 20
220.816784692295
 30
0.0
 10
270.7276236127852
 20
220.6806257060843
 30
0.0
 10
270.7856959907668
 20
220.5440519171801
 30
0.0
 10
270.8445461237977
 20
220.4059226181557
 30
0.0
 10
270.9022036990639
 20
220.2672229654179
 30
0.0
 10
270.9588242675796
 20
220.1281085099713
 30
0.0
 10
271.0055414216391
 20
220.0133637131456
 30
0.0
 10
271.0514808206373
 20
219.8982041136264
 30
0.0
 10
271.0967461652617
 20
219.7827852624179
 30
0.0
 10
271.135374666672
 20
219.684165920538
 30
0.0
 10
271.1736402157358
 20
219.5852873269842
 30
0.0
 10
271.2112317104013
 20
219.4862013320758
 30
0.0
 10
271.242134511527
 20
219.4048481525836
 30
0.0
 10
271.2727780609757
 20
219.3233394220716
 30
0.0
 10
271.3029549573838
 20
219.2416751405553
 30
0.0
 10
271.3281542213952
 20
219.1739067494816
 30
0.0
 10
271.3530942337109
 20
219.1059309570536
 30
0.0
 10
271.3776194433362
 20
219.0381107156452
 30
0.0
 10
271.4034409114079
 20
218.9669202022918
 30
0.0
 10
271.4290031277781
 20
218.8957815392578
 30
0.0
 10
271.4542542421333
 20
218.8245391755851
 30
0.0
 10
271.4803868122321
 20
218.7508598460395
 30
0.0
 10
271.5063119809548
 20
218.6770249654895
 30
0.0
 10
271.5320297483446
 20
218.6031382345894
 30
0.0
 10
271.5579030667357
 20
218.527955245243
 30
0.0
 10
271.5837245347888
 20
218.452772255912
 30
0.0
 10
271.6093386015091
 20
218.3775892665656
 30
0.0
 10
271.6484856063102
 20
218.2618593133331
 30
0.0
 10
271.6871659580521
 20
218.1459738090809
 30
0.0
 10
271.7250685547385
 20
218.0298290531548
 30
0.0
 10
271.7703857496886
 20
217.8917516044651
 30
0.0
 10
271.8146659378939
 20
217.7533112034167
 30
0.0
 10
271.8582202213815
 20
217.6147152513331
 30
0.0
 10
271.9089817017568
 20
217.4526829467314
 30
0.0
 10
271.9588098760752
 20
217.2904432407906
 30
0.0
 10
272.0074454926169
 20
217.1278405824756
 30
0.0
 10
272.0634957074283
 20
216.9405053131807
 30
0.0
 10
272.1181978134618
 20
216.7528070915425
 30
0.0
 10
272.1712925590403
 20
216.56474591753
 30
0.0
 10
272.2292612363338
 20
216.359885234189
 30
0.0
 10
272.2856225531602
 20
216.1545060474541
 30
0.0
 10
272.3403246591936
 20
215.9487120580102
 30
0.0
 10
272.3909824388993
 20
215.7588361222038
 30
0.0
 10
272.4402402595013
 20
215.5686490843424
 30
0.0
 10
272.4882536720136
 20
215.377943543118
 30
0.0
 10
272.531133901103
 20
215.2074077831825
 30
0.0
 10
272.573080824105
 20
215.0364572205226
 30
0.0
 10
272.6140944410503
 20
214.8653511068584
 30
0.0
 10
272.6498711739032
 20
214.7156591825792
 30
0.0
 10
272.6850257027144
 20
214.5657080066261
 30
0.0
 10
272.71940247647
 20
214.4156531299882
 30
0.0
 10
272.7457424478894
 20
214.3000268774098
 30
0.0
 10
272.7717713173001
 20
214.1844006248468
 30
0.0
 10
272.7974890846836
 20
214.0686188212796
 30
0.0
 10
272.8206143351931
 20
213.9635181872143
 30
0.0
 10
272.8435321843635
 20
213.8584694034838
 30
0.0
 10
272.8660870811752
 20
213.753368769434
 30
0.0
 10
272.8873975698785
 20
213.6536605704776
 30
0.0
 10
272.9085525075557
 20
213.5538486708517
 30
0.0
 10
272.9292407922109
 20
213.4537775195211
 30
0.0
 10
272.9482698660546
 20
213.3625727758986
 30
0.0
 10
272.9670396882276
 20
213.2711606309369
 30
0.0
 10
272.9855502586993
 20
213.1796966356405
 30
0.0
 10
273.002401618378
 20
213.09616574198
 30
0.0
 10
273.0192011277187
 20
213.0125829979693
 30
0.0
 10
273.0355339840189
 20
212.9290002539586
 30
0.0
 10
273.054977860578
 20
212.8307957148031
 30
0.0
 10
273.0741106351099
 20
212.7324356246124
 30
0.0
 10
273.0928804572643
 20
212.6341273847719
 30
0.0
 10
273.1152798030562
 20
212.5172048737472
 30
0.0
 10
273.1372643461578
 20
212.3999712607293
 30
0.0
 10
273.159041487883
 20
212.282841348381
 30
0.0
 10
273.188648030581
 20
212.1218460505363
 30
0.0
 10
273.2177879202321
 20
211.9605396506521
 30
0.0
 10
273.2460982045082
 20
211.7991295501139
 30
0.0
 10
273.2780898627289
 20
211.6166163621993
 30
0.0
 10
273.3094074665636
 20
211.4336365212562
 30
0.0
 10
273.3395843629717
 20
211.250812231333
 30
0.0
 10
273.370590864767
 20
211.064306567456
 30
0.0
 10
273.4006122101676
 20
210.8775416518591
 30
0.0
 10
273.4297002494871
 20
210.6906211852886
 30
0.0
 10
273.4592549418471
 20
210.5014193038496
 30
0.0
 10
273.4879281784698
 20
210.3120618713908
 30
0.0
 10
273.5156162586857
 20
210.1225488879431
 30
0.0
 10
273.5437709919299
 20
209.9305470882724
 30
0.0
 10
273.5710442694367
 20
209.7385452886171
 30
0.0
 10
273.5974879415565
 20
209.5462323869377
 30
0.0
 10
273.6241390150153
 20
209.3517936214249
 30
0.0
 10
273.6499604830683
 20
209.1569400531877
 30
0.0
 10
273.6750041960722
 20
208.9621901856355
 30
0.0
 10
273.6948628753217
 20
208.8074687786216
 30
0.0
 10
273.7142030511927
 20
208.6525399702532
 30
0.0
 10
273.7330247237037
 20
208.4977148625698
 30
0.0
 10
273.7514834438373
 20
208.3461044757809
 30
0.0
 10
273.7693199599351
 20
208.1945459393575
 30
0.0
 10
273.7867416733303
 20
208.0427800015797
 30
0.0
 10
273.8024523255824
 20
207.9062580629948
 30
0.0
 10
273.817644474456
 20
207.7694768727514
 30
0.0
 10
273.8327329226601
 20
207.6327993831931
 30
0.0
 10
273.8459029083819
 20
207.5121954982147
 30
0.0
 10
273.8587099417328
 20
207.391436062263
 30
0.0
 10
273.8712577234131
 20
207.2707284766151
 30
0.0
 10
273.881990743262
 20
207.1666129989568
 30
0.0
 10
273.8927237631175
 20
207.0624456709944
 30
0.0
 10
273.9032493816274
 20
206.9581746423317
 30
0.0
 10
273.9118046873114
 20
206.8710142250369
 30
0.0
 10
273.9203081426638
 20
206.7836982567533
 30
0.0
 10
273.9288115979976
 20
206.6965378394585
 30
0.0
 10
273.9413593796714
 20
206.5660305400306
 30
0.0
 10
273.9536479096438
 20
206.4354195399331
 30
0.0
 10
273.9655734872759
 20
206.3049122405206
 30
0.0
 10
273.9767213098217
 20
206.1823898930787
 30
0.0
 10
273.9875580303589
 20
206.0598156952867
 30
0.0
 10
273.9982391998763
 20
205.9371896471599
 30
0.0
 10
274.0096462741235
 20
205.8052823886316
 30
0.0
 10
274.0207940966879
 20
205.6731677287487
 30
0.0
 10
274.0314752661868
 20
205.541104919216
 30
0.0
 10
274.0439193471788
 20
205.390324137845
 30
0.0
 10
274.0556893737913
 20
205.2392841047848
 30
0.0
 10
274.0672001487267
 20
205.0883996227442
 30
0.0
 10
274.0804738351059
 20
204.9148046928723
 30
0.0
 10
274.0930734671177
 20
204.7410542120116
 30
0.0
 10
274.1052064460825
 20
204.5673555814701
 30
0.0
 10
274.115939465938
 20
204.4141896845918
 30
0.0
 10
274.1263095334281
 20
204.2610756380329
 30
0.0
 10
274.1362129478964
 20
204.107857890789
 30
0.0
 10
274.1470496684335
 20
203.9396553960414
 30
0.0
 10
274.1574197359116
 20
203.7713492006089
 30
0.0
 10
274.1673231503734
 20
203.603043005161
 30
0.0
 10
274.1781598709106
 20
203.4190780077957
 30
0.0
 10
274.1884262377376
 20
203.2350611601265
 30
0.0
 10
274.1982259515177
 20
203.0511480131114
 30
0.0
 10
274.208855270685
 20
202.8511094111352
 30
0.0
 10
274.2188105354848
 20
202.6509152581547
 30
0.0
 10
274.2280398955484
 20
202.4507729555244
 30
0.0
 10
274.2379433100167
 20
202.2384976738952
 30
0.0
 10
274.2470689694108
 20
202.0262223922968
 30
0.0
 10
274.2555724247631
 20
201.8138434100134
 30
0.0
 10
274.264490682806
 20
201.587879639296
 30
0.0
 10
274.2727867368007
 20
201.3620195692636
 30
0.0
 10
274.280201335058
 20
201.1359002475419
 30
0.0
 10
274.2872011306065
 20
200.9255434284225
 30
0.0
 10
274.2934750214494
 20
200.715290309988
 30
0.0
 10
274.2990748578821
 20
200.5049334908378
 30
0.0
 10
274.3043117419745
 20
200.3110650790382
 30
0.0
 10
274.3089782723503
 20
200.117041116219
 30
0.0
 10
274.3131262993477
 20
199.9231208540693
 30
0.0
 10
274.3169113739863
 20
199.746207502618
 30
0.0
 10
274.3202297955779
 20
199.5691904504972
 30
0.0
 10
274.3231852648171
 20
199.3923807997
 30
0.0
 10
274.3257259313409
 20
199.2330965629798
 30
0.0
 10
274.3281110468822
 20
199.07391602696
 30
0.0
 10
274.3299776590264
 20
198.9146317902398
 30
0.0
 10
274.3315850194814
 20
198.771628559485
 30
0.0
 10
274.3331923799484
 20
198.6286771790804
 30
0.0
 10
274.3342293866933
 20
198.4856220979908
 30
0.0
 10
274.3355256451396
 20
198.3360338743812
 30
0.0
 10
274.3364589512085
 20
198.1863938004368
 30
0.0
 10
274.3371330055945
 20
198.0368055768271
 30
0.0
 10
274.3376515089731
 20
197.8735807144641
 30
0.0
 10
274.3378589103243
 20
197.7102521514161
 30
0.0
 10
274.3380663116634
 20
197.5470272890684
 30
0.0
  0
LINE
  5
9A
330
70
100
AcDbEntity
  8
shade
 62
     6
420
 16711935
370
    25
100
AcDbLine
 10
273.6870334743739
 20
196.5703743324367
 30
0.0
 11
273.6870334743739
 21
197.5470272890684
 31
0.0
  0
LINE
  5
9B
330
70
100
AcDbEntity
  8
shade
 62
     6
420
 16711935
370
    25
100
AcDbLine
 10
274.3381700123515
 20
197.5470272890684
 30
0.0
 11
274.3381700123515
 21
196.5703743324367
 31
0.0
  0
LINE
  5
9C
330
70
100
AcDbEntity
  8
shade
 62
     6
420
 16711935
370
    25
100
AcDbLine
 10
280.5231893680835
 20
195.0730402869052
 30
0.0
 11
280.4754870576171
 21
194.5286117434631
 31
0.0
  0
LINE
  5
9D
330
70
100
AcDbEntity
  8
shade
 62
     6
420
 16711935
370
    25
100
AcDbLine
 10
267.5781304140419
 20
194.2038212295267
 30
0.0
 11
267.5020141186356
 21
195.0731439875901
 31
0.0
  0
SPLINE
  5
9E
330
70
100
AcDbEntity
  8
shade
 62
     6
420
 16711935
370
    25
100
AcDbSpline
210
0.0
220
0.0
230
1.0
 70
     8
 71
     3
 72
     8
 73
     4
 74
     0
 42
0.0000000001
 43
0.0000000001
 40
0.0
 40
0.0
 40
0.0
 40
0.0
 40
1.0
 40
1.0
 40
1.0
 40
1.0
 10
267.5855968626495
 20
194.1856736114171
 30
0.0
 10
267.5816562369912
 20
194.189821638399
 30
0.0
 10
267.5782341147236
 20
194.1981176924091
 30
0.0
 10
267.5780267133724
 20
194.2038212295267
 30
0.0
  0
LINE
  5
9F
330
70
100
AcDbEntity
  8
shade
 62
     6
420
 16711935
370
    25
100
AcDbLine
 10
267.6782015653692
 20
194.0754397939476
 30
0.0
 11
267.5855968626495
 21
194.1856736114171
 31
0.0
  0
SPLINE
  5
A0
330
70
100
AcDbEntity
  8
shade
 62
     6
420
 16711935
370
    25
100
AcDbSpline
210
0.0
220
0.0
230
1.0
 70
     8
 71
     3
 72
     8
 73
     4
 74
     0
 42
0.0000000001
 43
0.0000000001
 40
0.0
 40
0.0
 40
0.0
 40
0.0
 40
1.0
 40
1.0
 40
1.0
 40
1.0
 10
267.7031415776914
 20
194.0639290190122
 30
0.0
 10
267.694638122339
 20
194.0634105156491
 30
0.0
 10
267.6833865991115
 20
194.0685955493881
 30
0.0
 10
267.6782015653692
 20
194.0754397939476
 30
0.0
  0
LINE
  5
A1
330
70
100
AcDbEntity
  8
shade
 62
     6
420
 16711935
370
    25
100
AcDbLine
 10
273.0901323893828
 20
195.1739410436383
 30
0.0
 11
273.0909619947886
 21
195.1909479543367
 31
0.0
  0
LINE
  5
A2
330
70
100
AcDbEntity
  8
shade
 62
     6
420
 16711935
370
    25
100
AcDbLine
 10
274.9341377912674
 20
195.1909479543367
 30
0.0
 11
274.9350710973363
 21
195.1739410436383
 31
0.0
  0
SPLINE
  5
A3
330
70
100
AcDbEntity
  8
shade
 62
     6
420
 16711935
370
    25
100
AcDbSpline
210
0.0
220
0.0
230
1.0
 70
     8
 71
     3
 72
     8
 73
     4
 74
     0
 42
0.0000000001
 43
0.0000000001
 40
0.0
 40
0.0
 40
0.0
 40
0.0
 40
1.0
 40
1.0
 40
1.0
 40
1.0
 10
273.0909619947886
 20
195.1909479543367
 30
0.0
 10
273.0913249471474
 20
195.1977921988654
 30
0.0
 10
273.0971321849498
 20
195.2031846339743
 30
0.0
 10
273.1040282798287
 20
195.2031846339743
 30
0.0
  0
SPLINE
  5
A4
330
70
100
AcDbEntity
  8
shade
 62
     6
420
 16711935
370
    25
100
AcDbSpline
210
0.0
220
0.0
230
1.0
 70
     8
 71
     3
 72
     8
 73
     4
 74
     0
 42
0.0000000001
 43
0.0000000001
 40
0.0
 40
0.0
 40
0.0
 40
0.0
 40
1.0
 40
1.0
 40
1.0
 40
1.0
 10
274.9211752068968
 20
195.2031846339743
 30
0.0
 10
274.928071301757
 20
195.2031846339743
 30
0.0
 10
274.93377483889
 20
195.1977921988654
 30
0.0
 10
274.9341377912674
 20
195.1909479543367
 30
0.0
  0
LWPOLYLINE
  5
A5
330
70
100
AcDbEntity
  8
shade
 62
     6
420
 16711935
370
    25
100
AcDbPolyline
 90
        3
 70
     0
 43
0.0
 10
280.435873399769
 20
194.1856736114171
 10
280.3709049269271
 20
194.1085203092415
 10
280.3430612956915
 20
194.0754397939476
  0
SPLINE
  5
A6
330
70
100
AcDbEntity
  8
shade
 62
     6
420
 16711935
370
    25
100
AcDbSpline
210
0.0
220
0.0
230
1.0
 70
     8
 71
     3
 72
    17
 73
    13
 74
     0
 42
0.0000000001
 43
0.0000000001
 40
0.0
 40
0.0
 40
0.0
 40
0.0
 40
1.0
 40
1.0
 40
1.0
 40
2.0
 40
2.0
 40
2.0
 40
3.0
 40
3.0
 40
3.0
 40
4.0
 40
4.0
 40
4.0
 40
4.0
 10
280.4756944589561
 20
194.5309968589704
 30
0.0
 10
280.4755907582866
 20
194.5305820562768
 30
0.0
 10
280.4754870576171
 20
194.5299598522134
 30
0.0
 10
280.4753833569289
 20
194.5284043420932
 30
0.0
 10
280.4749685542386
 20
194.5250859204984
 30
0.0
 10
280.4741389488206
 20
194.5174120705518
 30
0.0
 10
280.4730500917442
 20
194.5079753091459
 30
0.0
 10
280.471805683648
 20
194.4984348470396
 30
0.0
 10
280.470509425214
 20
194.4869240721196
 30
0.0
 10
280.4685909627196
 20
194.469502358743
 30
0.0
 10
280.46848726205
 20
194.468465351986
 30
0.0
 10
280.4683835613683
 20
194.4672209438899
 30
0.0
 10
280.4681761600292
 20
194.4660802364479
 30
0.0
  0
LWPOLYLINE
  5
A7
330
70
100
AcDbEntity
  8
shade
 62
     6
420
 16711935
370
    25
100
AcDbPolyline
 90
        3
 70
     0
 43
0.0
 10
280.4550061743009
 20
194.3338618759108
 10
280.4470212223334
 20
194.2428126832926
 10
280.4435472497157
 20
194.2039249301962
  0
LINE
  5
A8
330
70
100
AcDbEntity
  8
shade
 62
     6
420
 16711935
370
    25
100
AcDbLine
 10
280.4550061743009
 20
194.3338618759108
 30
0.0
 11
280.4435472497157
 21
194.2039249301962
 31
0.0
  0
LINE
  5
A9
330
70
100
AcDbEntity
  8
shade
 62
     6
420
 16711935
370
    25
100
AcDbLine
 10
280.435873399769
 20
194.1856736114171
 30
0.0
 11
280.3430612956915
 21
194.0755434946171
 31
0.0
  0
LINE
  5
AA
330
70
100
AcDbEntity
  8
shade
 62
     6
420
 16711935
370
    25
100
AcDbLine
 10
275.0121725491494
 20
195.0925360137958
 30
0.0
 11
275.0121725491494
 21
195.0730402869052
 31
0.0
  0
LINE
  5
AB
330
70
100
AcDbEntity
  8
shade
 62
     6
420
 16711935
370
    25
100
AcDbLine
 10
273.031541508029
 20
195.0925360137958
 30
0.0
 11
273.031541508029
 21
195.0730402869052
 31
0.0
  0
LINE
  5
AC
330
70
100
AcDbEntity
  8
shade
 62
     6
420
 16711935
370
    25
100
AcDbLine
 10
273.0149494000518
 20
195.0925360137958
 30
0.0
 11
273.0149494000518
 21
195.0730402869052
 31
0.0
  0
LINE
  5
AD
330
70
100
AcDbEntity
  8
shade
 62
     6
420
 16711935
370
    25
100
AcDbLine
 10
274.9845363192838
 20
195.0925360137958
 30
0.0
 11
274.9845363192838
 21
195.0730402869052
 31
0.0
  0
LINE
  5
AE
330
70
100
AcDbEntity
  8
shade
 62
     6
420
 16711935
370
    25
100
AcDbLine
 10
270.36415274711
 20
195.0925360137958
 30
0.0
 11
270.36415274711
 21
195.0730402869052
 31
0.0
  0
LINE
  5
AF
330
70
100
AcDbEntity
  8
shade
 62
     6
420
 16711935
370
    25
100
AcDbLine
 10
268.9968593479627
 20
195.0925360137958
 30
0.0
 11
268.9968593479627
 21
195.0730402869052
 31
0.0
  0
LINE
  5
B0
330
70
100
AcDbEntity
  8
shade
 62
     6
420
 16711935
370
    25
100
AcDbLine
 10
279.0285515401019
 20
195.0925360137958
 30
0.0
 11
279.0285515401019
 21
195.0730402869052
 31
0.0
  0
LINE
  5
B1
330
70
100
AcDbEntity
  8
shade
 62
     6
420
 16711935
370
    25
100
AcDbLine
 10
277.6613618416241
 20
195.0925360137958
 30
0.0
 11
277.6613618416241
 21
195.0730402869052
 31
0.0
  0
LINE
  5
B2
330
70
100
AcDbEntity
  8
shade
 62
     6
420
 16711935
370
    25
100
AcDbLine
 10
280.5231893680835
 20
195.0925360137958
 30
0.0
 11
267.5020141186356
 21
195.0925360137958
 31
0.0
  0
LINE
  5
B3
330
70
100
AcDbEntity
  8
shade
 62
     6
420
 16711935
370
    25
100
AcDbLine
 10
280.5231893680835
 20
195.1739410436383
 30
0.0
 11
267.5020141186356
 21
195.1739410436383
 31
0.0
  0
LINE
  5
B4
330
70
100
AcDbEntity
  8
shade
 62
     6
420
 16711935
370
    25
100
AcDbLine
 10
280.1976210990825
 20
193.998701294481
 30
0.0
 11
267.8275823876244
 21
193.998701294481
 31
0.0
  0
SPLINE
  5
B5
330
70
100
AcDbEntity
  8
shade
 62
     6
420
 16711935
370
    25
100
AcDbSpline
210
0.0
220
0.0
230
1.0
 70
     8
 71
     3
 72
    14
 73
    10
 74
     0
 42
0.0000000001
 43
0.0000000001
 40
0.0
 40
0.0
 40
0.0
 40
0.0
 40
1.0
 40
1.0
 40
1.0
 40
2.0
 40
2.0
 40
2.0
 40
3.0
 40
3.0
 40
3.0
 40
3.0
 10
274.5209424519369
 20
195.2031846339743
 30
0.0
 10
274.5212535539641
 20
195.2060882528755
 30
0.0
 10
274.5214609553032
 20
195.2088881710918
 30
0.0
 10
274.5217720573426
 20
195.21106588526
 30
0.0
 10
274.5222905607026
 20
195.2157324156205
 30
0.0
 10
274.5226535130799
 20
195.2180138304891
 30
0.0
 10
274.522860914419
 20
195.2189471365458
 30
0.0
 10
274.522860914419
 20
195.2192582385698
 30
0.0
 10
274.522860914419
 20
195.2193619392394
 30
0.0
 10
274.522860914419
 20
195.2195693406092
 30
0.0
  0
LINE
  5
B6
330
70
100
AcDbEntity
  8
shade
 62
     6
420
 16711935
370
    25
100
AcDbLine
 10
274.3911610572419
 20
196.5703743324367
 30
0.0
 11
273.6339387287954
 21
196.5703743324367
 31
0.0
  0
LWPOLYLINE
  5
B7
330
70
100
AcDbEntity
  8
shade
 62
     6
420
 16711935
370
    25
100
AcDbPolyline
 90
       14
 70
     0
 43
0.0
 10
258.0804966978789
 20
225.581571454324
 10
258.0899334592881
 20
225.5804307468974
 10
258.1220806685221
 20
225.5771123253026
 10
258.1750717134311
 20
225.5716161895242
 10
258.2453807710349
 20
225.564149740932
 10
258.3287561136911
 20
225.5554907345631
 10
258.4199090069757
 20
225.5457947214525
 10
258.5130322130804
 20
225.5360468580226
 10
258.6024221948781
 20
225.5266100966013
 10
258.682271714585
 20
225.5183140426066
 10
258.7479142418252
 20
225.5114179477123
 10
258.7946832462228
 20
225.5064921656625
 10
258.8200899115854
 20
225.5037440977656
 10
258.8243416392523
 20
225.503329295072
  0
LWPOLYLINE
  5
B8
330
70
100
AcDbEntity
  8
shade
 62
     6
420
 16711935
370
    25
100
AcDbPolyline
 90
        3
 70
     0
 43
0.0
 10
280.4550061743009
 20
194.3338618759108
 10
280.4527766097979
 20
194.3078330064847
 10
280.4435472497157
 20
194.2038212295267
  0
SPLINE
  5
B9
330
70
100
AcDbEntity
  8
shade
 62
     6
420
 16711935
370
    25
100
AcDbSpline
210
0.0
220
0.0
230
1.0
 70
     8
 71
     3
 72
    14
 73
    10
 74
     0
 42
0.0000000001
 43
0.0000000001
 40
0.0
 40
0.0
 40
0.0
 40
0.0
 40
1.0
 40
1.0
 40
1.0
 40
2.0
 40
2.0
 40
2.0
 40
3.0
 40
3.0
 40
3.0
 40
3.0
 10
280.4682798606988
 20
194.4660802364479
 30
0.0
 10
280.4682798606988
 20
194.4660802364479
 30
0.0
 10
280.4677613573202
 20
194.461828508781
 30
0.0
 10
280.4677613573202
 20
194.461828508781
 30
0.0
 10
280.4660502961772
 20
194.4467919109117
 30
0.0
 10
280.4638207316619
 20
194.4250147691678
 30
0.0
 10
280.461591167159
 20
194.4026154233913
 30
0.0
 10
280.459361602656
 20
194.3800086762603
 30
0.0
 10
280.4572357388225
 20
194.3568834257354
 30
0.0
 10
280.4550061743009
 20
194.3338618759108
 30
0.0
  0
LINE
  5
BA
330
70
100
AcDbEntity
  8
shade
 62
     6
420
 16711935
370
    25
100
AcDbLine
 10
267.5020141186356
 20
195.0730402869052
 30
0.0
 11
280.5230856674017
 21
195.0730402869052
 31
0.0
  0
SPLINE
  5
BB
330
70
100
AcDbEntity
  8
shade
 62
     6
420
 16711935
370
    25
100
AcDbSpline
210
0.0
220
0.0
230
1.0
 70
     8
 71
     3
 72
    17
 73
    13
 74
     0
 42
0.0000000001
 43
0.0000000001
 40
0.0
 40
0.0
 40
0.0
 40
0.0
 40
1.0
 40
1.0
 40
1.0
 40
2.0
 40
2.0
 40
2.0
 40
3.0
 40
3.0
 40
3.0
 40
4.0
 40
4.0
 40
4.0
 40
4.0
 10
280.4434435490462
 20
194.2038212295267
 30
0.0
 10
280.4429250456676
 20
194.1970806856521
 30
0.0
 10
280.4402288281241
 20
194.1908586451561
 30
0.0
 10
280.4359252501192
 20
194.1856736114171
 30
0.0
 10
280.4359252501192
 20
194.1856736114171
 30
0.0
 10
280.4191257407785
 20
194.165866782487
 30
0.0
 10
280.4191257407785
 20
194.165866782487
 30
0.0
 10
280.4191257407785
 20
194.165866782487
 30
0.0
 10
280.352135104754
 20
194.0862246641346
 30
0.0
 10
280.352135104754
 20
194.0862246641346
 30
0.0
 10
280.352135104754
 20
194.0862246641346
 30
0.0
 10
280.3431131460295
 20
194.0754397939476
 30
0.0
 10
280.3431131460295
 20
194.0754397939476
 30
0.0
  0
LINE
  5
BC
330
70
100
AcDbEntity
  8
shade
 62
     6
420
 16711935
370
    25
100
AcDbLine
 10
267.7031415776914
 20
194.0639290190122
 30
0.0
 11
280.3181212833758
 21
194.0639290190122
 31
0.0
  0
SPLINE
  5
BD
330
70
100
AcDbEntity
  8
shade
 62
     6
420
 16711935
370
    25
100
AcDbSpline
210
0.0
220
0.0
230
1.0
 70
     8
 71
     3
 72
     8
 73
     4
 74
     0
 42
0.0000000001
 43
0.0000000001
 40
0.0
 40
0.0
 40
0.0
 40
0.0
 40
1.0
 40
1.0
 40
1.0
 40
1.0
 10
280.3431131460295
 20
194.0754397939476
 30
0.0
 10
280.3369429558804
 20
194.0681807466945
 30
0.0
 10
280.3277135958169
 20
194.0639290190122
 30
0.0
 10
280.3181212833758
 20
194.0639290190122
 30
0.0
  0
LINE
  5
BE
330
70
100
AcDbEntity
  8
shade
 62
     6
420
 16711935
370
    25
100
AcDbLine
 10
273.7847195101664
 20
195.1909479543367
 30
0.0
 11
274.240380275871
 21
195.1909479543367
 31
0.0
  0
LINE
  5
BF
330
70
100
AcDbEntity
  8
shade
 62
     6
420
 16711935
370
    25
100
AcDbLine
 10
273.7847195101664
 20
195.2031846339743
 30
0.0
 11
273.1039245791592
 21
195.2031846339743
 31
0.0
  0
LINE
  5
C0
330
70
100
AcDbEntity
  8
shade
 62
     6
420
 16711935
370
    25
100
AcDbLine
 10
273.7847195101664
 20
195.1909479543367
 30
0.0
 11
273.7847195101664
 21
195.2031846339743
 31
0.0
  0
LWPOLYLINE
  5
C1
330
70
100
AcDbEntity
  8
shade
 62
     6
420
 16711935
370
    25
100
AcDbPolyline
 90
        3
 70
     0
 43
0.0
 10
274.2404839765405
 20
195.1909479543367
 10
274.2404839765405
 20
195.2031846339743
 10
273.7847195101664
 20
195.2031846339743
  0
LINE
  5
C2
330
70
100
AcDbEntity
  8
shade
 62
     6
420
 16711935
370
    25
100
AcDbLine
 10
274.9211752068968
 20
195.2031846339743
 30
0.0
 11
274.240380275871
 21
195.2031846339743
 31
0.0
  0
LINE
  5
C3
330
70
100
AcDbEntity
  8
shade
 62
     6
420
 16711935
370
    25
100
AcDbLine
 10
280.3431131460295
 20
194.0754397939476
 30
0.0
 11
280.3431131460295
 21
194.0754397939476
 31
0.0
  0
LINE
  5
C4
330
70
100
AcDbEntity
  8
shade
 62
     6
420
 16711935
370
    25
100
AcDbLine
 10
280.435873399769
 20
194.1856736114171
 30
0.0
 11
280.435873399769
 21
194.1856736114171
 31
0.0
  0
LINE
  5
C5
330
70
100
AcDbEntity
  8
shade
 62
     6
420
 16711935
370
    25
100
AcDbLine
 10
280.4550061743009
 20
194.3338618759108
 30
0.0
 11
280.4550061743009
 21
194.3338618759108
 31
0.0
  0
LINE
  5
C6
330
70
100
AcDbEntity
  8
shade
 62
     6
420
 16711935
370
    25
100
AcDbLine
 10
280.4434435490462
 20
194.2038212295267
 30
0.0
 11
280.4434435490462
 21
194.2038212295267
 31
0.0
  0
LINE
  5
C7
330
70
100
AcDbEntity
  8
shade
 62
     6
420
 16711935
370
    25
100
AcDbLine
 10
274.5220831593634
 20
195.2683086578359
 30
0.0
 11
273.5031203273434
 21
195.2683086578359
 31
0.0
  0
LINE
  5
C8
330
70
100
AcDbEntity
  8
shade
 62
     6
420
 16711935
370
    25
100
AcDbLine
 10
273.6017396692234
 20
196.5423751502122
 30
0.0
 11
274.4234638174835
 21
196.5423751502122
 31
0.0
  0
LINE
  5
C9
330
70
100
AcDbEntity
  8
shade
 62
     6
420
 16711935
370
    25
100
AcDbLine
 10
274.3381700123515
 20
197.5470272890684
 30
0.0
 11
273.6870334743739
 21
197.5470272890684
 31
0.0
  0
SPLINE
  5
CA
330
70
100
AcDbEntity
  8
shade
 62
     6
420
 16711935
370
    25
100
AcDbSpline
210
0.0
220
0.0
230
1.0
 70
     8
 71
     3
 72
    14
 73
    10
 74
     0
 42
0.0000000001
 43
0.0000000001
 40
0.0
 40
0.0
 40
0.0
 40
0.0
 40
1.0
 40
1.0
 40
1.0
 40
2.0
 40
2.0
 40
2.0
 40
3.0
 40
3.0
 40
3.0
 40
3.0
 10
280.4753833569289
 20
194.5286117434631
 30
0.0
 10
280.4754870576171
 20
194.5291302468262
 30
0.0
 10
280.4754870576171
 20
194.5296487501894
 30
0.0
 10
280.4753833569289
 20
194.5284043420932
 30
0.0
 10
280.4750722549081
 20
194.5261229272555
 30
0.0
 10
280.474035248151
 20
194.5175157712367
 30
0.0
 10
280.4726352890352
 20
194.5052790915837
 30
0.0
 10
280.4713390306011
 20
194.4942868200423
 30
0.0
 10
280.4697835204842
 20
194.4801835282605
 30
0.0
 10
280.4681761600292
 20
194.4661839371328
 30
0.0
  0
LINE
  5
CB
330
70
100
AcDbEntity
  8
shade
 62
     6
420
 16711935
370
    25
100
AcDbLine
 10
280.4434435490462
 20
194.2038212295267
 30
0.0
 11
267.5781304140419
 21
194.2038212295267
 31
0.0
  0
LINE
  5
CC
330
70
100
AcDbEntity
  8
shade
 62
     6
420
 16711935
370
    25
100
AcDbLine
 10
267.5855968626495
 20
194.1856736114171
 30
0.0
 11
280.435873399769
 21
194.1856736114171
 31
0.0
  0
LINE
  5
CD
330
70
100
AcDbEntity
  8
shade
 62
     6
420
 16711935
370
    25
100
AcDbLine
 10
280.3430612956915
 20
194.0754397939476
 30
0.0
 11
267.6782015653692
 21
194.0754397939476
 31
0.0
  0
LINE
  5
CE
330
70
100
AcDbEntity
  8
shade
 62
     6
420
 16711935
370
    25
100
AcDbLine
 10
273.7847195101664
 20
195.1739410436383
 30
0.0
 11
273.7847195101664
 21
195.1909479543367
 31
0.0
  0
LINE
  5
CF
330
70
100
AcDbEntity
  8
shade
 62
     6
420
 16711935
370
    25
100
AcDbLine
 10
273.0909619947886
 20
195.1909479543367
 30
0.0
 11
273.7847195101664
 21
195.1909479543367
 31
0.0
  0
LWPOLYLINE
  5
D0
330
70
100
AcDbEntity
  8
shade
 62
     6
420
 16711935
370
    25
100
AcDbPolyline
 90
        3
 70
     0
 43
0.0
 10
274.2404839765405
 20
195.1739410436383
 10
274.2404839765405
 20
195.1909479543367
 10
274.9341377912674
 20
195.1909479543367
  0
LINE
  5
D1
330
70
100
AcDbEntity
  8
shade
 62
     6
420
 16711935
370
    25
100
AcDbLine
 10
258.7530036000393
 20
223.8955256261395
 30
0.0
 11
258.8347641575382
 21
216.0828279664323
 31
0.0
  0
LINE
  5
D2
330
70
100
AcDbEntity
  8
shade
 62
     6
420
 16711935
370
    25
100
AcDbLine
 10
259.6459226683387
 20
216.0828279664323
 30
0.0
 11
259.4019304086796
 21
223.8955256261395
 31
0.0
  0
LINE
  5
D3
330
70
100
AcDbEntity
  8
shade
 62
     6
420
 16711935
370
    25
100
AcDbLine
 10
260.4378416607013
 20
216.0828279664323
 30
0.0
 11
260.0354656025609
 21
223.8955256261395
 31
0.0
  0
LINE
  5
D4
330
70
100
AcDbEntity
  8
shade
 62
     6
420
 16711935
370
    25
100
AcDbLine
 10
261.1980320990181
 20
216.0828279664323
 30
0.0
 11
260.6436179532356
 21
223.8955256261395
 31
0.0
  0
LINE
  5
D5
330
70
100
AcDbEntity
  8
shade
 62
     6
420
 16711935
370
    25
100
AcDbLine
 10
261.2167965348188
 20
223.8955256261395
 30
0.0
 11
261.9145053259972
 21
216.0828279664323
 31
0.0
  0
LINE
  5
D6
330
70
100
AcDbEntity
  8
shade
 62
     6
420
 16711935
370
    25
100
AcDbLine
 10
261.7459619786856
 20
223.8955256261395
 30
0.0
 11
262.5759621308415
 21
216.0828279664323
 31
0.0
  0
LINE
  5
D7
330
70
100
AcDbEntity
  8
shade
 62
     6
420
 16711935
370
    25
100
AcDbLine
 10
262.2227690297016
 20
223.8955256261395
 30
0.0
 11
263.1719709446039
 21
216.0828279664323
 31
0.0
  0
LINE
  5
D8
330
70
100
AcDbEntity
  8
shade
 62
     6
420
 16711935
370
    25
100
AcDbLine
 10
262.6396981557999
 20
223.8955256261395
 30
0.0
 11
263.6931323522421
 21
216.0828279664323
 31
0.0
  0
LINE
  5
D9
330
70
100
AcDbEntity
  8
shade
 62
     6
420
 16711935
370
    25
100
AcDbLine
 10
262.9901741356259
 20
223.8955256261395
 30
0.0
 11
264.1312273270368
 21
216.0828279664323
 31
0.0
  0
LINE
  5
DA
330
70
100
AcDbEntity
  8
shade
 62
     6
420
 16711935
370
    25
100
AcDbLine
 10
263.2686697536322
 20
223.8955256261395
 30
0.0
 11
264.4793468495062
 21
216.0828279664323
 31
0.0
  0
LINE
  5
DB
330
70
100
AcDbEntity
  8
shade
 62
     6
420
 16711935
370
    25
100
AcDbLine
 10
264.7320008668677
 20
216.0828279664323
 30
0.0
 11
263.4707929675027
 21
223.8955256261395
 31
0.0
  0
LINE
  5
DC
330
70
100
AcDbEntity
  8
shade
 62
     6
420
 16711935
370
    25
100
AcDbLine
 10
263.5933561734863
 20
223.8955256261395
 30
0.0
 11
264.885204874327
 21
216.0828279664323
 31
0.0
  0
LINE
  5
DD
330
70
100
AcDbEntity
  8
shade
 62
     6
420
 16711935
370
    25
100
AcDbLine
 10
264.9365427531435
 20
216.0828279664323
 30
0.0
 11
263.6344264765333
 21
223.8955256261395
 31
0.0
  0
LINE
  5
DE
330
70
100
AcDbEntity
  8
shade
 62
     6
420
 16711935
370
    25
100
AcDbLine
 10
258.4259613700617
 20
224.54658376446
 30
0.0
 11
262.7601974850112
 21
224.54658376446
 31
0.0
  0
LINE
  5
DF
330
70
100
AcDbEntity
  8
shade
 62
     6
420
 16711935
370
    25
100
AcDbLine
 10
261.912502527296
 20
216.0828279664323
 30
0.0
 11
261.912502527296
 21
215.4317698281272
 31
0.0
  0
LINE
  5
E0
330
70
100
AcDbEntity
  8
shade
 62
     6
420
 16711935
370
    25
100
AcDbLine
 10
258.4259613700617
 20
224.54658376446
 30
0.0
 11
258.7530036000393
 21
223.8955256261395
 31
0.0
  0
LINE
  5
E1
330
70
100
AcDbEntity
  8
shade
 62
     6
420
 16711935
370
    25
100
AcDbLine
 10
258.7530036000393
 20
223.8955256261395
 30
0.0
 11
258.9701243983
 21
224.54658376446
 31
0.0
  0
LINE
  5
E2
330
70
100
AcDbEntity
  8
shade
 62
     6
420
 16711935
370
    25
100
AcDbLine
 10
258.9701243983
 20
224.54658376446
 30
0.0
 11
259.4019304086796
 21
223.8955256261395
 31
0.0
  0
LINE
  5
E3
330
70
100
AcDbEntity
  8
shade
 62
     6
420
 16711935
370
    25
100
AcDbLine
 10
259.4019304086796
 20
223.8955256261395
 30
0.0
 11
259.504648803271
 21
224.54658376446
 31
0.0
  0
LINE
  5
E4
330
70
100
AcDbEntity
  8
shade
 62
     6
420
 16711935
370
    25
100
AcDbLine
 10
259.504648803271
 20
224.54658376446
 30
0.0
 11
260.0354656025609
 21
223.8955256261395
 31
0.0
  0
LINE
  5
E5
330
70
100
AcDbEntity
  8
shade
 62
     6
420
 16711935
370
    25
100
AcDbLine
 10
260.0354656025609
 20
223.8955256261395
 30
0.0
 11
260.0221785972201
 21
224.54658376446
 31
0.0
  0
LINE
  5
E6
330
70
100
AcDbEntity
  8
shade
 62
     6
420
 16711935
370
    25
100
AcDbLine
 10
260.0221785972201
 20
224.54658376446
 30
0.0
 11
260.6436179532356
 21
223.8955256261395
 31
0.0
  0
LINE
  5
E7
330
70
100
AcDbEntity
  8
shade
 62
     6
420
 16711935
370
    25
100
AcDbLine
 10
260.6436179532356
 20
223.8955256261395
 30
0.0
 11
260.5145520261331
 21
224.54658376446
 31
0.0
  0
LINE
  5
E8
330
70
100
AcDbEntity
  8
shade
 62
     6
420
 16711935
370
    25
100
AcDbLine
 10
260.5145520261331
 20
224.54658376446
 30
0.0
 11
261.2167965348188
 21
223.8955256261395
 31
0.0
  0
LINE
  5
E9
330
70
100
AcDbEntity
  8
shade
 62
     6
420
 16711935
370
    25
100
AcDbLine
 10
261.2167965348188
 20
223.8955256261395
 30
0.0
 11
260.9790398652747
 21
224.54658376446
 31
0.0
  0
LINE
  5
EA
330
70
100
AcDbEntity
  8
shade
 62
     6
420
 16711935
370
    25
100
AcDbLine
 10
260.9790398652747
 20
224.54658376446
 30
0.0
 11
261.7459619786856
 21
223.8955256261395
 31
0.0
  0
LINE
  5
EB
330
70
100
AcDbEntity
  8
shade
 62
     6
420
 16711935
370
    25
100
AcDbLine
 10
261.7459619786856
 20
223.8955256261395
 30
0.0
 11
261.3991536834168
 21
224.54658376446
 31
0.0
  0
LINE
  5
EC
330
70
100
AcDbEntity
  8
shade
 62
     6
420
 16711935
370
    25
100
AcDbLine
 10
261.3991536834168
 20
224.54658376446
 30
0.0
 11
262.2227690297016
 21
223.8955256261395
 31
0.0
  0
LINE
  5
ED
330
70
100
AcDbEntity
  8
shade
 62
     6
420
 16711935
370
    25
100
AcDbLine
 10
262.2227690297016
 20
223.8955256261395
 30
0.0
 11
261.7723954168658
 21
224.54658376446
 31
0.0
  0
LINE
  5
EE
330
70
100
AcDbEntity
  8
shade
 62
     6
420
 16711935
370
    25
100
AcDbLine
 10
261.7723954168658
 20
224.54658376446
 30
0.0
 11
262.6396981557999
 21
223.8955256261395
 31
0.0
  0
LINE
  5
EF
330
70
100
AcDbEntity
  8
shade
 62
     6
420
 16711935
370
    25
100
AcDbLine
 10
262.6396981557999
 20
223.8955256261395
 30
0.0
 11
262.0928788205092
 21
224.54658376446
 31
0.0
  0
LINE
  5
F0
330
70
100
AcDbEntity
  8
shade
 62
     6
420
 16711935
370
    25
100
AcDbLine
 10
262.0928788205092
 20
224.54658376446
 30
0.0
 11
262.9901741356259
 21
223.8955256261395
 31
0.0
  0
LINE
  5
F1
330
70
100
AcDbEntity
  8
shade
 62
     6
420
 16711935
370
    25
100
AcDbLine
 10
262.9901741356259
 20
223.8955256261395
 30
0.0
 11
262.3555496796091
 21
224.54658376446
 31
0.0
  0
LINE
  5
F2
330
70
100
AcDbEntity
  8
shade
 62
     6
420
 16711935
370
    25
100
AcDbLine
 10
262.3555496796091
 20
224.54658376446
 30
0.0
 11
263.2686697536322
 21
223.8955256261395
 31
0.0
  0
LINE
  5
F3
330
70
100
AcDbEntity
  8
shade
 62
     6
420
 16711935
370
    25
100
AcDbLine
 10
263.2686697536322
 20
223.8955256261395
 30
0.0
 11
262.5562655178303
 21
224.54658376446
 31
0.0
  0
LINE
  5
F4
330
70
100
AcDbEntity
  8
shade
 62
     6
420
 16711935
370
    25
100
AcDbLine
 10
262.5562655178303
 20
224.54658376446
 30
0.0
 11
263.4707929675027
 21
223.8955256261395
 31
0.0
  0
LINE
  5
F5
330
70
100
AcDbEntity
  8
shade
 62
     6
420
 16711935
370
    25
100
AcDbLine
 10
263.4707929675027
 20
223.8955256261395
 30
0.0
 11
262.6918609265032
 21
224.54658376446
 31
0.0
  0
LINE
  5
F6
330
70
100
AcDbEntity
  8
shade
 62
     6
420
 16711935
370
    25
100
AcDbLine
 10
262.6918609265032
 20
224.54658376446
 30
0.0
 11
263.5933561734863
 21
223.8955256261395
 31
0.0
  0
LINE
  5
F7
330
70
100
AcDbEntity
  8
shade
 62
     6
420
 16711935
370
    25
100
AcDbLine
 10
263.5933561734863
 20
223.8955256261395
 30
0.0
 11
262.7601974850112
 21
224.54658376446
 31
0.0
  0
LINE
  5
F8
330
70
100
AcDbEntity
  8
shade
 62
     6
420
 16711935
370
    25
100
AcDbLine
 10
262.7601974850112
 20
224.54658376446
 30
0.0
 11
263.6344264765333
 21
223.8955256261395
 31
0.0
  0
LINE
  5
F9
330
70
100
AcDbEntity
  8
shade
 62
     6
420
 16711935
370
    25
100
AcDbLine
 10
258.9701243983
 20
224.54658376446
 30
0.0
 11
259.169395261076
 21
215.4317698281272
 31
0.0
  0
LINE
  5
FA
330
70
100
AcDbEntity
  8
shade
 62
     6
420
 16711935
370
    25
100
AcDbLine
 10
259.9011047555158
 20
215.4317698281272
 30
0.0
 11
259.504648803271
 21
224.54658376446
 31
0.0
  0
LINE
  5
FB
330
70
100
AcDbEntity
  8
shade
 62
     6
420
 16711935
370
    25
100
AcDbLine
 10
258.4259613700617
 20
215.4317698281272
 30
0.0
 11
258.8347641575382
 21
216.0828279664323
 31
0.0
  0
LINE
  5
FC
330
70
100
AcDbEntity
  8
shade
 62
     6
420
 16711935
370
    25
100
AcDbLine
 10
258.8347641575382
 20
216.0828279664323
 30
0.0
 11
259.169395261076
 21
215.4317698281272
 31
0.0
  0
LINE
  5
FD
330
70
100
AcDbEntity
  8
shade
 62
     6
420
 16711935
370
    25
100
AcDbLine
 10
259.169395261076
 20
215.4317698281272
 30
0.0
 11
259.6459226683387
 21
216.0828279664323
 31
0.0
  0
LINE
  5
FE
330
70
100
AcDbEntity
  8
shade
 62
     6
420
 16711935
370
    25
100
AcDbLine
 10
259.6459226683387
 20
216.0828279664323
 30
0.0
 11
259.9011047555158
 21
215.4317698281272
 31
0.0
  0
LINE
  5
FF
330
70
100
AcDbEntity
  8
shade
 62
     6
420
 16711935
370
    25
100
AcDbLine
 10
259.9011047555158
 20
215.4317698281272
 30
0.0
 11
260.4378416607013
 21
216.0828279664323
 31
0.0
  0
LINE
  5
100
330
70
100
AcDbEntity
  8
shade
 62
     6
420
 16711935
370
    25
100
AcDbLine
 10
260.4378416607013
 20
216.0828279664323
 30
0.0
 11
260.6095503575619
 21
215.4317698281272
 31
0.0
  0
LINE
  5
101
330
70
100
AcDbEntity
  8
shade
 62
     6
420
 16711935
370
    25
100
AcDbLine
 10
260.6095503575619
 20
215.4317698281272
 30
0.0
 11
261.1980320990181
 21
216.0828279664323
 31
0.0
  0
LINE
  5
102
330
70
100
AcDbEntity
  8
shade
 62
     6
420
 16711935
370
    25
100
AcDbLine
 10
261.1980320990181
 20
216.0828279664323
 30
0.0
 11
261.2835594568772
 21
215.4317698281272
 31
0.0
  0
LINE
  5
103
330
70
100
AcDbEntity
  8
shade
 62
     6
420
 16711935
370
    25
100
AcDbLine
 10
261.2835594568772
 20
215.4317698281272
 30
0.0
 11
261.912502527296
 21
216.0828279664323
 31
0.0
  0
LINE
  5
104
330
70
100
AcDbEntity
  8
shade
 62
     6
420
 16711935
370
    25
100
AcDbLine
 10
261.912502527296
 20
216.0828279664323
 30
0.0
 11
261.912502527296
 21
215.4317698281272
 31
0.0
  0
LINE
  5
105
330
70
100
AcDbEntity
  8
shade
 62
     6
420
 16711935
370
    25
100
AcDbLine
 10
261.912502527296
 20
215.4317698281272
 30
0.0
 11
262.5759621308415
 21
216.0828279664323
 31
0.0
  0
LINE
  5
106
330
70
100
AcDbEntity
  8
shade
 62
     6
420
 16711935
370
    25
100
AcDbLine
 10
262.5759621308415
 20
216.0828279664323
 30
0.0
 11
262.4864607609038
 21
215.4317698281272
 31
0.0
  0
LINE
  5
107
330
70
100
AcDbEntity
  8
shade
 62
     6
420
 16711935
370
    25
100
AcDbLine
 10
262.4864607609038
 20
215.4317698281272
 30
0.0
 11
263.1719709446039
 21
216.0828279664323
 31
0.0
  0
LINE
  5
108
330
70
100
AcDbEntity
  8
shade
 62
     6
420
 16711935
370
    25
100
AcDbLine
 10
263.1719709446039
 20
216.0828279664323
 30
0.0
 11
262.996382493514
 21
215.4317698281272
 31
0.0
  0
LINE
  5
109
330
70
100
AcDbEntity
  8
shade
 62
     6
420
 16711935
370
    25
100
AcDbLine
 10
262.996382493514
 20
215.4317698281272
 30
0.0
 11
263.6931323522421
 21
216.0828279664323
 31
0.0
  0
LINE
  5
10A
330
70
100
AcDbEntity
  8
shade
 62
     6
420
 16711935
370
    25
100
AcDbLine
 10
263.6931323522421
 20
216.0828279664323
 30
0.0
 11
263.4342259547584
 21
215.4317698281272
 31
0.0
  0
LINE
  5
10B
330
70
100
AcDbEntity
  8
shade
 62
     6
420
 16711935
370
    25
100
AcDbLine
 10
263.4342259547584
 20
215.4317698281272
 30
0.0
 11
264.1312273270368
 21
216.0828279664323
 31
0.0
  0
LINE
  5
10C
330
70
100
AcDbEntity
  8
shade
 62
     6
420
 16711935
370
    25
100
AcDbLine
 10
264.1312273270368
 20
216.0828279664323
 30
0.0
 11
263.79308609173
 21
215.4317698281272
 31
0.0
  0
LINE
  5
10D
330
70
100
AcDbEntity
  8
shade
 62
     6
420
 16711935
370
    25
100
AcDbLine
 10
263.79308609173
 20
215.4317698281272
 30
0.0
 11
264.4793468495062
 21
216.0828279664323
 31
0.0
  0
LINE
  5
10E
330
70
100
AcDbEntity
  8
shade
 62
     6
420
 16711935
370
    25
100
AcDbLine
 10
264.4793468495062
 20
216.0828279664323
 30
0.0
 11
264.06730346564
 21
215.4317698281272
 31
0.0
  0
LINE
  5
10F
330
70
100
AcDbEntity
  8
shade
 62
     6
420
 16711935
370
    25
100
AcDbLine
 10
264.06730346564
 20
215.4317698281272
 30
0.0
 11
264.7320008668677
 21
216.0828279664323
 31
0.0
  0
LINE
  5
110
330
70
100
AcDbEntity
  8
shade
 62
     6
420
 16711935
370
    25
100
AcDbLine
 10
264.7320008668677
 20
216.0828279664323
 30
0.0
 11
264.2525535047422
 21
215.4317698281272
 31
0.0
  0
LINE
  5
111
330
70
100
AcDbEntity
  8
shade
 62
     6
420
 16711935
370
    25
100
AcDbLine
 10
264.2525535047422
 20
215.4317698281272
 30
0.0
 11
264.885204874327
 21
216.0828279664323
 31
0.0
  0
LINE
  5
112
330
70
100
AcDbEntity
  8
shade
 62
     6
420
 16711935
370
    25
100
AcDbLine
 10
264.885204874327
 20
216.0828279664323
 30
0.0
 11
264.3459147052564
 21
215.4317698281272
 31
0.0
  0
LINE
  5
113
330
70
100
AcDbEntity
  8
shade
 62
     6
420
 16711935
370
    25
100
AcDbLine
 10
264.3459147052564
 20
215.4317698281272
 30
0.0
 11
264.9365427531435
 21
216.0828279664323
 31
0.0
  0
LINE
  5
114
330
70
100
AcDbEntity
  8
shade
 62
     6
420
 16711935
370
    25
100
AcDbLine
 10
260.6095503575619
 20
215.4317698281272
 30
0.0
 11
260.0221785972201
 21
224.54658376446
 31
0.0
  0
LINE
  5
115
330
70
100
AcDbEntity
  8
shade
 62
     6
420
 16711935
370
    25
100
AcDbLine
 10
258.4259613700617
 20
215.4317698281272
 30
0.0
 11
264.3459147052564
 21
215.4317698281272
 31
0.0
  0
LINE
  5
116
330
70
100
AcDbEntity
  8
shade
 62
     6
420
 16711935
370
    25
100
AcDbLine
 10
261.0360605258126
 20
218.3653002673008
 30
0.0
 11
261.2835594568772
 21
215.4317698281272
 31
0.0
  0
LINE
  5
117
330
70
100
AcDbEntity
  8
shade
 62
     6
420
 16711935
370
    25
100
AcDbLine
 10
258.4259613700617
 20
215.4317698281272
 30
0.0
 11
258.4259613700617
 21
224.54658376446
 31
0.0
  0
LWPOLYLINE
  5
118
330
70
100
AcDbEntity
  8
shade
 62
     6
420
 16711935
370
    25
100
AcDbPolyline
 90
        6
 70
     0
 43
0.0
 10
257.8888384059496
 20
224.54658376446
 10
257.8888384059496
 20
225.3553575369491
 10
257.9213913128609
 20
225.3879104438635
 10
258.930531427244
 20
225.3879104438635
 10
258.9630843341552
 20
225.3553575369491
 10
258.9630843341552
 20
224.54658376446
  0
LINE
  5
119
330
70
100
AcDbEntity
  8
shade
 62
     6
420
 16711935
370
    25
100
AcDbLine
 10
258.9630843341552
 20
225.3553575369491
 30
0.0
 11
257.8888384059496
 21
225.3553575369491
 31
0.0
  0
LINE
  5
11A
330
70
100
AcDbEntity
  8
shade
 62
     6
420
 16711935
370
    25
100
AcDbLine
 10
258.4259613700617
 20
215.4317698281272
 30
0.0
 11
258.4259613700617
 21
224.54658376446
 31
0.0
  0
LINE
  5
11B
330
70
100
AcDbEntity
  8
shade
 62
     6
420
 16711935
370
    25
100
AcDbLine
 10
255.8158622142923
 20
218.3653002673008
 30
0.0
 11
255.5683632832462
 21
215.4317698281272
 31
0.0
  0
LINE
  5
11C
330
70
100
AcDbEntity
  8
shade
 62
     6
420
 16711935
370
    25
100
AcDbLine
 10
258.4259613700617
 20
215.4317698281272
 30
0.0
 11
252.5060080348485
 21
215.4317698281272
 31
0.0
  0
LINE
  5
11D
330
70
100
AcDbEntity
  8
shade
 62
     6
420
 16711935
370
    25
100
AcDbLine
 10
256.242372382543
 20
215.4317698281272
 30
0.0
 11
256.8297441428847
 21
224.54658376446
 31
0.0
  0
LINE
  5
11E
330
70
100
AcDbEntity
  8
shade
 62
     6
420
 16711935
370
    25
100
AcDbLine
 10
252.5060080348485
 20
215.4317698281272
 30
0.0
 11
251.9153799869615
 21
216.0828279664323
 31
0.0
  0
LINE
  5
11F
330
70
100
AcDbEntity
  8
shade
 62
     6
420
 16711935
370
    25
100
AcDbLine
 10
251.9667178657965
 20
216.0828279664323
 30
0.0
 11
252.5060080348485
 21
215.4317698281272
 31
0.0
  0
LINE
  5
120
330
70
100
AcDbEntity
  8
shade
 62
     6
420
 16711935
370
    25
100
AcDbLine
 10
252.5993692353626
 20
215.4317698281272
 30
0.0
 11
251.9667178657965
 21
216.0828279664323
 31
0.0
  0
LINE
  5
121
330
70
100
AcDbEntity
  8
shade
 62
     6
420
 16711935
370
    25
100
AcDbLine
 10
252.1199218732372
 20
216.0828279664323
 30
0.0
 11
252.5993692353626
 21
215.4317698281272
 31
0.0
  0
LINE
  5
122
330
70
100
AcDbEntity
  8
shade
 62
     6
420
 16711935
370
    25
100
AcDbLine
 10
252.7846192744649
 20
215.4317698281272
 30
0.0
 11
252.1199218732372
 21
216.0828279664323
 31
0.0
  0
LINE
  5
123
330
70
100
AcDbEntity
  8
shade
 62
     6
420
 16711935
370
    25
100
AcDbLine
 10
252.3725758905987
 20
216.0828279664323
 30
0.0
 11
252.7846192744649
 21
215.4317698281272
 31
0.0
  0
LINE
  5
124
330
70
100
AcDbEntity
  8
shade
 62
     6
420
 16711935
370
    25
100
AcDbLine
 10
253.0588366483935
 20
215.4317698281272
 30
0.0
 11
252.3725758905987
 21
216.0828279664323
 31
0.0
  0
LINE
  5
125
330
70
100
AcDbEntity
  8
shade
 62
     6
420
 16711935
370
    25
100
AcDbLine
 10
252.7206954130803
 20
216.0828279664323
 30
0.0
 11
253.0588366483935
 21
215.4317698281272
 31
0.0
  0
LINE
  5
126
330
70
100
AcDbEntity
  8
shade
 62
     6
420
 16711935
370
    25
100
AcDbLine
 10
253.4176967853464
 20
215.4317698281272
 30
0.0
 11
252.7206954130803
 21
216.0828279664323
 31
0.0
  0
LINE
  5
127
330
70
100
AcDbEntity
  8
shade
 62
     6
420
 16711935
370
    25
100
AcDbLine
 10
253.1587903878814
 20
216.0828279664323
 30
0.0
 11
253.4176967853464
 21
215.4317698281272
 31
0.0
  0
LINE
  5
128
330
70
100
AcDbEntity
  8
shade
 62
     6
420
 16711935
370
    25
100
AcDbLine
 10
253.8555402465909
 20
215.4317698281272
 30
0.0
 11
253.1587903878814
 21
216.0828279664323
 31
0.0
  0
LINE
  5
129
330
70
100
AcDbEntity
  8
shade
 62
     6
420
 16711935
370
    25
100
AcDbLine
 10
253.679951795501
 20
216.0828279664323
 30
0.0
 11
253.8555402465909
 21
215.4317698281272
 31
0.0
  0
LINE
  5
12A
330
70
100
AcDbEntity
  8
shade
 62
     6
420
 16711935
370
    25
100
AcDbLine
 10
254.3654619792011
 20
215.4317698281272
 30
0.0
 11
253.679951795501
 21
216.0828279664323
 31
0.0
  0
LINE
  5
12B
330
70
100
AcDbEntity
  8
shade
 62
     6
420
 16711935
370
    25
100
AcDbLine
 10
254.2759606092634
 20
216.0828279664323
 30
0.0
 11
254.3654619792011
 21
215.4317698281272
 31
0.0
  0
LINE
  5
12C
330
70
100
AcDbEntity
  8
shade
 62
     6
420
 16711935
370
    25
100
AcDbLine
 10
254.9394202128274
 20
215.4317698281272
 30
0.0
 11
254.2759606092634
 21
216.0828279664323
 31
0.0
  0
LINE
  5
12D
330
70
100
AcDbEntity
  8
shade
 62
     6
420
 16711935
370
    25
100
AcDbLine
 10
254.9394202128274
 20
216.0828279664323
 30
0.0
 11
254.9394202128274
 21
215.4317698281272
 31
0.0
  0
LINE
  5
12E
330
70
100
AcDbEntity
  8
shade
 62
     6
420
 16711935
370
    25
100
AcDbLine
 10
255.5683632832462
 20
215.4317698281272
 30
0.0
 11
254.9394202128274
 21
216.0828279664323
 31
0.0
  0
LINE
  5
12F
330
70
100
AcDbEntity
  8
shade
 62
     6
420
 16711935
370
    25
100
AcDbLine
 10
255.6538906410867
 20
216.0828279664323
 30
0.0
 11
255.5683632832462
 21
215.4317698281272
 31
0.0
  0
LINE
  5
130
330
70
100
AcDbEntity
  8
shade
 62
     6
420
 16711935
370
    25
100
AcDbLine
 10
256.242372382543
 20
215.4317698281272
 30
0.0
 11
255.6538906410867
 21
216.0828279664323
 31
0.0
  0
LINE
  5
131
330
70
100
AcDbEntity
  8
shade
 62
     6
420
 16711935
370
    25
100
AcDbLine
 10
256.4140810794222
 20
216.0828279664323
 30
0.0
 11
256.242372382543
 21
215.4317698281272
 31
0.0
  0
LINE
  5
132
330
70
100
AcDbEntity
  8
shade
 62
     6
420
 16711935
370
    25
100
AcDbLine
 10
256.950817984589
 20
215.4317698281272
 30
0.0
 11
256.4140810794222
 21
216.0828279664323
 31
0.0
  0
LINE
  5
133
330
70
100
AcDbEntity
  8
shade
 62
     6
420
 16711935
370
    25
100
AcDbLine
 10
257.2060000717662
 20
216.0828279664323
 30
0.0
 11
256.950817984589
 21
215.4317698281272
 31
0.0
  0
LINE
  5
134
330
70
100
AcDbEntity
  8
shade
 62
     6
420
 16711935
370
    25
100
AcDbLine
 10
257.6825274790475
 20
215.4317698281272
 30
0.0
 11
257.2060000717662
 21
216.0828279664323
 31
0.0
  0
LINE
  5
135
330
70
100
AcDbEntity
  8
shade
 62
     6
420
 16711935
370
    25
100
AcDbLine
 10
258.0171585825789
 20
216.0828279664323
 30
0.0
 11
257.6825274790475
 21
215.4317698281272
 31
0.0
  0
LINE
  5
136
330
70
100
AcDbEntity
  8
shade
 62
     6
420
 16711935
370
    25
100
AcDbLine
 10
258.4259613700617
 20
215.4317698281272
 30
0.0
 11
258.0171585825789
 21
216.0828279664323
 31
0.0
  0
LINE
  5
137
330
70
100
AcDbEntity
  8
shade
 62
     6
420
 16711935
370
    25
100
AcDbLine
 10
256.950817984589
 20
215.4317698281272
 30
0.0
 11
257.3472739368339
 21
224.54658376446
 31
0.0
  0
LINE
  5
138
330
70
100
AcDbEntity
  8
shade
 62
     6
420
 16711935
370
    25
100
AcDbLine
 10
257.881798341805
 20
224.54658376446
 30
0.0
 11
257.6825274790475
 21
215.4317698281272
 31
0.0
  0
LINE
  5
139
330
70
100
AcDbEntity
  8
shade
 62
     6
420
 16711935
370
    25
100
AcDbLine
 10
254.0917252551122
 20
224.54658376446
 30
0.0
 11
253.2174962635716
 21
223.8955256261395
 31
0.0
  0
LINE
  5
13A
330
70
100
AcDbEntity
  8
shade
 62
     6
420
 16711935
370
    25
100
AcDbLine
 10
253.2585665666372
 20
223.8955256261395
 30
0.0
 11
254.0917252551122
 21
224.54658376446
 31
0.0
  0
LINE
  5
13B
330
70
100
AcDbEntity
  8
shade
 62
     6
420
 16711935
370
    25
100
AcDbLine
 10
254.1600618136202
 20
224.54658376446
 30
0.0
 11
253.2585665666372
 21
223.8955256261395
 31
0.0
  0
LINE
  5
13C
330
70
100
AcDbEntity
  8
shade
 62
     6
420
 16711935
370
    25
100
AcDbLine
 10
253.3811297726021
 20
223.8955256261395
 30
0.0
 11
254.1600618136202
 21
224.54658376446
 31
0.0
  0
LINE
  5
13D
330
70
100
AcDbEntity
  8
shade
 62
     6
420
 16711935
370
    25
100
AcDbLine
 10
254.2956572222747
 20
224.54658376446
 30
0.0
 11
253.3811297726021
 21
223.8955256261395
 31
0.0
  0
LINE
  5
13E
330
70
100
AcDbEntity
  8
shade
 62
     6
420
 16711935
370
    25
100
AcDbLine
 10
253.5832529864727
 20
223.8955256261395
 30
0.0
 11
254.2956572222747
 21
224.54658376446
 31
0.0
  0
LINE
  5
13F
330
70
100
AcDbEntity
  8
shade
 62
     6
420
 16711935
370
    25
100
AcDbLine
 10
254.4963730604958
 20
224.54658376446
 30
0.0
 11
253.5832529864727
 21
223.8955256261395
 31
0.0
  0
LINE
  5
140
330
70
100
AcDbEntity
  8
shade
 62
     6
420
 16711935
370
    25
100
AcDbLine
 10
253.861748604479
 20
223.8955256261395
 30
0.0
 11
254.4963730604958
 21
224.54658376446
 31
0.0
  0
LINE
  5
141
330
70
100
AcDbEntity
  8
shade
 62
     6
420
 16711935
370
    25
100
AcDbLine
 10
254.7590439196143
 20
224.54658376446
 30
0.0
 11
253.861748604479
 21
223.8955256261395
 31
0.0
  0
LINE
  5
142
330
70
100
AcDbEntity
  8
shade
 62
     6
420
 16711935
370
    25
100
AcDbLine
 10
254.212224584305
 20
223.8955256261395
 30
0.0
 11
254.7590439196143
 21
224.54658376446
 31
0.0
  0
LINE
  5
143
330
70
100
AcDbEntity
  8
shade
 62
     6
420
 16711935
370
    25
100
AcDbLine
 10
255.0795273232577
 20
224.54658376446
 30
0.0
 11
254.212224584305
 21
223.8955256261395
 31
0.0
  0
LINE
  5
144
330
70
100
AcDbEntity
  8
shade
 62
     6
420
 16711935
370
    25
100
AcDbLine
 10
254.6291537104033
 20
223.8955256261395
 30
0.0
 11
255.0795273232577
 21
224.54658376446
 31
0.0
  0
LINE
  5
145
330
70
100
AcDbEntity
  8
shade
 62
     6
420
 16711935
370
    25
100
AcDbLine
 10
255.4527690566881
 20
224.54658376446
 30
0.0
 11
254.6291537104033
 21
223.8955256261395
 31
0.0
  0
LINE
  5
146
330
70
100
AcDbEntity
  8
shade
 62
     6
420
 16711935
370
    25
100
AcDbLine
 10
255.1059607614194
 20
223.8955256261395
 30
0.0
 11
255.4527690566881
 21
224.54658376446
 31
0.0
  0
LINE
  5
147
330
70
100
AcDbEntity
  8
shade
 62
     6
420
 16711935
370
    25
100
AcDbLine
 10
255.8728828748301
 20
224.54658376446
 30
0.0
 11
255.1059607614194
 21
223.8955256261395
 31
0.0
  0
LINE
  5
148
330
70
100
AcDbEntity
  8
shade
 62
     6
420
 16711935
370
    25
100
AcDbLine
 10
255.6351262053046
 20
223.8955256261395
 30
0.0
 11
255.8728828748301
 21
224.54658376446
 31
0.0
  0
LINE
  5
149
330
70
100
AcDbEntity
  8
shade
 62
     6
420
 16711935
370
    25
100
AcDbLine
 10
256.3373707139718
 20
224.54658376446
 30
0.0
 11
255.6351262053046
 21
223.8955256261395
 31
0.0
  0
LINE
  5
14A
330
70
100
AcDbEntity
  8
shade
 62
     6
420
 16711935
370
    25
100
AcDbLine
 10
256.2083047868693
 20
223.8955256261395
 30
0.0
 11
256.3373707139718
 21
224.54658376446
 31
0.0
  0
LINE
  5
14B
330
70
100
AcDbEntity
  8
shade
 62
     6
420
 16711935
370
    25
100
AcDbLine
 10
256.8297441428847
 20
224.54658376446
 30
0.0
 11
256.2083047868693
 21
223.8955256261395
 31
0.0
  0
LINE
  5
14C
330
70
100
AcDbEntity
  8
shade
 62
     6
420
 16711935
370
    25
100
AcDbLine
 10
256.816457137544
 20
223.8955256261395
 30
0.0
 11
256.8297441428847
 21
224.54658376446
 31
0.0
  0
LINE
  5
14D
330
70
100
AcDbEntity
  8
shade
 62
     6
420
 16711935
370
    25
100
AcDbLine
 10
257.3472739368339
 20
224.54658376446
 30
0.0
 11
256.816457137544
 21
223.8955256261395
 31
0.0
  0
LINE
  5
14E
330
70
100
AcDbEntity
  8
shade
 62
     6
420
 16711935
370
    25
100
AcDbLine
 10
257.4499923314375
 20
223.8955256261395
 30
0.0
 11
257.3472739368339
 21
224.54658376446
 31
0.0
  0
LINE
  5
14F
330
70
100
AcDbEntity
  8
shade
 62
     6
420
 16711935
370
    25
100
AcDbLine
 10
257.881798341805
 20
224.54658376446
 30
0.0
 11
257.4499923314375
 21
223.8955256261395
 31
0.0
  0
LINE
  5
150
330
70
100
AcDbEntity
  8
shade
 62
     6
420
 16711935
370
    25
100
AcDbLine
 10
258.0989191400655
 20
223.8955256261395
 30
0.0
 11
257.881798341805
 21
224.54658376446
 31
0.0
  0
LINE
  5
151
330
70
100
AcDbEntity
  8
shade
 62
     6
420
 16711935
370
    25
100
AcDbLine
 10
258.4259613700617
 20
224.54658376446
 30
0.0
 11
258.0989191400655
 21
223.8955256261395
 31
0.0
  0
LINE
  5
152
330
70
100
AcDbEntity
  8
shade
 62
     6
420
 16711935
370
    25
100
AcDbLine
 10
254.9394202128274
 20
216.0828279664323
 30
0.0
 11
254.9394202128274
 21
215.4317698281272
 31
0.0
  0
LINE
  5
153
330
70
100
AcDbEntity
  8
shade
 62
     6
420
 16711935
370
    25
100
AcDbLine
 10
258.4259613700617
 20
224.54658376446
 30
0.0
 11
254.0917252551122
 21
224.54658376446
 31
0.0
  0
LINE
  5
154
330
70
100
AcDbEntity
  8
shade
 62
     6
420
 16711935
370
    25
100
AcDbLine
 10
251.9153799869615
 20
216.0828279664323
 30
0.0
 11
253.2174962635716
 21
223.8955256261395
 31
0.0
  0
LINE
  5
155
330
70
100
AcDbEntity
  8
shade
 62
     6
420
 16711935
370
    25
100
AcDbLine
 10
253.2585665666372
 20
223.8955256261395
 30
0.0
 11
251.9667178657965
 21
216.0828279664323
 31
0.0
  0
LINE
  5
156
330
70
100
AcDbEntity
  8
shade
 62
     6
420
 16711935
370
    25
100
AcDbLine
 10
252.1199218732372
 20
216.0828279664323
 30
0.0
 11
253.3811297726021
 21
223.8955256261395
 31
0.0
  0
LINE
  5
157
330
70
100
AcDbEntity
  8
shade
 62
     6
420
 16711935
370
    25
100
AcDbLine
 10
253.5832529864727
 20
223.8955256261395
 30
0.0
 11
252.3725758905987
 21
216.0828279664323
 31
0.0
  0
LINE
  5
158
330
70
100
AcDbEntity
  8
shade
 62
     6
420
 16711935
370
    25
100
AcDbLine
 10
253.861748604479
 20
223.8955256261395
 30
0.0
 11
252.7206954130803
 21
216.0828279664323
 31
0.0
  0
LINE
  5
159
330
70
100
AcDbEntity
  8
shade
 62
     6
420
 16711935
370
    25
100
AcDbLine
 10
254.212224584305
 20
223.8955256261395
 30
0.0
 11
253.1587903878814
 21
216.0828279664323
 31
0.0
  0
LINE
  5
15A
330
70
100
AcDbEntity
  8
shade
 62
     6
420
 16711935
370
    25
100
AcDbLine
 10
254.6291537104033
 20
223.8955256261395
 30
0.0
 11
253.679951795501
 21
216.0828279664323
 31
0.0
  0
LINE
  5
15B
330
70
100
AcDbEntity
  8
shade
 62
     6
420
 16711935
370
    25
100
AcDbLine
 10
255.1059607614194
 20
223.8955256261395
 30
0.0
 11
254.2759606092634
 21
216.0828279664323
 31
0.0
  0
LINE
  5
15C
330
70
100
AcDbEntity
  8
shade
 62
     6
420
 16711935
370
    25
100
AcDbLine
 10
255.6351262053046
 20
223.8955256261395
 30
0.0
 11
254.9374174141076
 21
216.0828279664323
 31
0.0
  0
LINE
  5
15D
330
70
100
AcDbEntity
  8
shade
 62
     6
420
 16711935
370
    25
100
AcDbLine
 10
255.6538906410867
 20
216.0828279664323
 30
0.0
 11
256.2083047868693
 21
223.8955256261395
 31
0.0
  0
LINE
  5
15E
330
70
100
AcDbEntity
  8
shade
 62
     6
420
 16711935
370
    25
100
AcDbLine
 10
256.4140810794222
 20
216.0828279664323
 30
0.0
 11
256.816457137544
 21
223.8955256261395
 31
0.0
  0
LINE
  5
15F
330
70
100
AcDbEntity
  8
shade
 62
     6
420
 16711935
370
    25
100
AcDbLine
 10
257.2060000717662
 20
216.0828279664323
 30
0.0
 11
257.4499923314375
 21
223.8955256261395
 31
0.0
  0
LINE
  5
160
330
70
100
AcDbEntity
  8
shade
 62
     6
420
 16711935
370
    25
100
AcDbLine
 10
258.0989191400655
 20
223.8955256261395
 30
0.0
 11
258.0171585825789
 21
216.0828279664323
 31
0.0
  0
ENDSEC
  0
SECTION
  2
OBJECTS
  0
DICTIONARY
  5
C
330
0
100
AcDbDictionary
281
     1
  3
ACAD_COLOR
350
63
  3
ACAD_DETAILVIEWSTYLE
350
6A
  3
ACAD_GROUP
350
D
  3
ACAD_LAYOUT
350
62
  3
ACAD_MATERIAL
350
10
  3
ACAD_MLEADERSTYLE
350
66
  3
ACAD_MLINESTYLE
350
5F
  3
ACAD_PLOTSETTINGS
350
61
  3
ACAD_PLOTSTYLENAME
350
E
  3
ACAD_SCALELIST
350
42
  3
ACAD_SECTIONVIEWSTYLE
350
68
  3
ACAD_TABLESTYLE
350
64
  3
ACAD_VISUALSTYLE
350
29
  3
ACDB_RECOMPOSE_DATA
350
169
  3
AcDbVariableDictionary
350
161
  0
DICTIONARY
  5
63
102
{ACAD_REACTORS
330
C
102
}
330
C
100
AcDbDictionary
281
     1
  0
DICTIONARY
  5
6A
102
{ACAD_REACTORS
330
C
102
}
330
C
100
AcDbDictionary
281
     1
  3
Imperial24
350
6B
  0
DICTIONARY
  5
D
102
{ACAD_REACTORS
330
C
102
}
330
C
100
AcDbDictionary
281
     1
  0
DICTIONARY
  5
62
102
{ACAD_REACTORS
330
C
102
}
330
C
100
AcDbDictionary
281
     1
  3
Layout1
350
6F
  3
Layout2
350
77
  3
Model
350
73
  0
DICTIONARY
  5
10
102
{ACAD_REACTORS
330
C
102
}
330
C
100
AcDbDictionary
281
     1
  3
ByBlock
350
19
  3
ByLayer
350
11
  3
Global
350
21
  0
DICTIONARY
  5
66
102
{ACAD_REACTORS
330
C
102
}
330
C
100
AcDbDictionary
281
     1
  3
Standard
350
67
  0
DICTIONARY
  5
5F
102
{ACAD_REACTORS
330
C
102
}
330
C
100
AcDbDictionary
281
     1
  3
Standard
350
60
  0
DICTIONARY
  5
61
102
{ACAD_REACTORS
330
C
102
}
330
C
100
AcDbDictionary
281
     1
  0
ACDBDICTIONARYWDFLT
  5
E
102
{ACAD_REACTORS
330
C
102
}
330
C
100
AcDbDictionary
281
     1
  3
Normal
350
F
100
AcDbDictionaryWithDefault
340
F
  0
DICTIONARY
  5
42
102
{ACAD_REACTORS
330
C
102
}
330
C
100
AcDbDictionary
281
     1
  3
A0
350
43
  3
A1
350
44
  3
A2
350
45
  3
A3
350
46
  3
A4
350
47
  3
A5
350
48
  3
A6
350
49
  3
A7
350
4A
  3
A8
350
4B
  3
A9
350
4C
  3
B0
350
4D
  3
B1
350
4E
  3
B2
350
4F
  3
B3
350
50
  3
B4
350
51
  3
B5
350
52
  3
B6
350
53
  0
DICTIONARY
  5
68
102
{ACAD_REACTORS
330
C
102
}
330
C
100
AcDbDictionary
281
     1
  3
Imperial24
350
69
  0
DICTIONARY
  5
64
102
{ACAD_REACTORS
330
C
102
}
330
C
100
AcDbDictionary
281
     1
  3
Standard
350
65
  0
DICTIONARY
  5
29
102
{ACAD_REACTORS
330
C
102
}
330
C
100
AcDbDictionary
281
     1
  3
2dWireframe
350
2F
  3
Basic
350
2E
  3
Brighten
350
35
  3
ColorChange
350
39
  3
Conceptual
350
32
  3
Dim
350
34
  3
EdgeColorOff
350
41
  3
Facepattern
350
38
  3
Flat
350
2A
  3
FlatWithEdges
350
2B
  3
Gouraud
350
2C
  3
GouraudWithEdges
350
2D
  3
Hidden
350
31
  3
JitterOff
350
3F
  3
Linepattern
350
37
  3
OverhangOff
350
40
  3
Realistic
350
33
  3
Shaded
350
3E
  3
Shaded with edges
350
3D
  3
Shades of Gray
350
3A
  3
Sketchy
350
3B
  3
Thicken
350
36
  3
Wireframe
350
30
  3
X-Ray
350
3C
  0
XRECORD
  5
169
102
{ACAD_REACTORS
330
C
102
}
330
C
100
AcDbXrecord
280
     1
 90
        1
330
65
  0
DICTIONARY
  5
161
102
{ACAD_REACTORS
330
C
102
}
330
C
100
AcDbDictionary
281
     1
  3
CANNOSCALE
350
166
  3
CMLEADERSTYLE
350
163
  3
CTABLESTYLE
350
162
  3
CVIEWDETAILSTYLE
350
164
  3
CVIEWSECTIONSTYLE
350
165
  0
ACDBDETAILVIEWSTYLE
  5
6B
102
{ACAD_REACTORS
330
6A
102
}
330
6A
100
AcDbModelDocViewStyle
 70
     0
  3
Imperial24
290
     1
300
Imperial24
 90
        0
100
AcDbDetailViewStyle
 70
     0
 71
     0
 90
        3
 71
     1
340
55
 62
   256
 40
0.24
340
0
 62
   256
 40
0.24
300

 40
0.36
280
     3
 71
     2
340
5D
 90
       25
 62
   256
 71
     3
340
55
 62
   256
 40
0.24
 90
        1
 40
0.75
 90
        1
300
%<\AcVar ViewType \f "%tc1">% %<\AcVar ViewDetailId>%\PSCALE %<\AcVar ViewScale \f "%sn">%
 71
     4
340
5D
 90
       25
 62
   256
340
5D
 90
       25
 62
   256
280
     0
  0
LAYOUT
  5
6F
102
{ACAD_REACTORS
330
62
102
}
330
62
100
AcDbPlotSettings
  1

  2

  4

  6

 40
0.0
 41
0.0
 42
0.0
 43
0.0
 44
0.0
 45
0.0
 46
0.0
 47
0.0
 48
0.0
 49
0.0
140
0.0
141
0.0
142
1.0
143
1.0
 70
   688
 72
     0
 73
     0
 74
     5
  7

 75
    16
147
1.0
 76
     0
 77
     2
 78
   300
148
0.0
149
0.0
100
AcDbLayout
  1
Layout1
 70
     1
 71
     1
 10
0.0
 20
0.0
 11
12.0
 21
9.0
 12
0.0
 22
0.0
 32
0.0
 14
0.0
 24
0.0
 34
0.0
 15
0.0
 25
0.0
 35
0.0
146
0.0
 13
0.0
 23
0.0
 33
0.0
 16
1.0
 26
0.0
 36
0.0
 17
0.0
 27
1.0
 37
0.0
 76
     0
330
6C
  0
LAYOUT
  5
77
102
{ACAD_REACTORS
330
62
102
}
330
62
100
AcDbPlotSettings
  1

  2

  4

  6

 40
0.0
 41
0.0
 42
0.0
 43
0.0
 44
0.0
 45
0.0
 46
0.0
 47
0.0
 48
0.0
 49
0.0
140
0.0
141
0.0
142
1.0
143
1.0
 70
   688
 72
     0
 73
     0
 74
     5
  7

 75
    16
147
1.0
 76
     0
 77
     2
 78
   300
148
0.0
149
0.0
100
AcDbLayout
  1
Layout2
 70
     1
 71
     2
 10
0.0
 20
0.0
 11
12.0
 21
9.0
 12
0.0
 22
0.0
 32
0.0
 14
0.0
 24
0.0
 34
0.0
 15
0.0
 25
0.0
 35
0.0
146
0.0
 13
0.0
 23
0.0
 33
0.0
 16
1.0
 26
0.0
 36
0.0
 17
0.0
 27
1.0
 37
0.0
 76
     0
330
74
  0
LAYOUT
  5
73
102
{ACAD_REACTORS
330
62
102
}
330
62
100
AcDbPlotSettings
  1

  2

  4

  6

 40
0.0
 41
0.0
 42
0.0
 43
0.0
 44
0.0
 45
0.0
 46
0.0
 47
0.0
 48
0.0
 49
0.0
140
0.0
141
0.0
142
1.0
143
1.0
 70
  1712
 72
     0
 73
     0
 74
     0
  7

 75
     0
147
1.0
 76
     0
 77
     2
 78
   300
148
0.0
149
0.0
100
AcDbLayout
  1
Model
 70
     1
 71
     0
 10
0.0
 20
0.0
 11
12.0
 21
9.0
 12
0.0
 22
0.0
 32
0.0
 14
0.0
 24
0.0
 34
0.0
 15
0.0
 25
0.0
 35
0.0
146
0.0
 13
0.0
 23
0.0
 33
0.0
 16
1.0
 26
0.0
 36
0.0
 17
0.0
 27
1.0
 37
0.0
 76
     0
330
70
  0
MATERIAL
  5
19
102
{ACAD_XDICTIONARY
360
1A
102
}
102
{ACAD_REACTORS
330
10
102
}
330
10
100
AcDbMaterial
  1
ByBlock
 72
     0
 43
0.0208333333333333
 43
0.0
 43
0.0
 43
0.0
 43
0.0
 43
0.0208333333333333
 43
0.0
 43
0.0
 43
0.0
 43
0.0
 43
1.0
 43
0.0
 43
0.0
 43
0.0
 43
0.0
 43
1.0
 77
     0
 47
0.0208333333333333
 47
0.0
 47
0.0
 47
0.0
 47
0.0
 47
0.0208333333333333
 47
0.0
 47
0.0
 47
0.0
 47
0.0
 47
1.0
 47
0.0
 47
0.0
 47
0.0
 47
0.0
 47
1.0
171
     0
 49
0.0208333333333333
 49
0.0
 49
0.0
 49
0.0
 49
0.0
 49
0.0208333333333333
 49
0.0
 49
0.0
 49
0.0
 49
0.0
 49
1.0
 49
0.0
 49
0.0
 49
0.0
 49
0.0
 49
1.0
175
     0
142
0.0208333333333333
142
0.0
142
0.0
142
0.0
142
0.0
142
0.0208333333333333
142
0.0
142
0.0
142
0.0
142
0.0
142
1.0
142
0.0
142
0.0
142
0.0
142
0.0
142
1.0
179
     0
144
0.0208333333333333
144
0.0
144
0.0
144
0.0
144
0.0
144
0.0208333333333333
144
0.0
144
0.0
144
0.0
144
0.0
144
1.0
144
0.0
144
0.0
144
0.0
144
0.0
144
1.0
147
0.0208333333333333
147
0.0
147
0.0
147
0.0
147
0.0
147
0.0208333333333333
147
0.0
147
0.0
147
0.0
147
0.0
147
1.0
147
0.0
147
0.0
147
0.0
147
0.0
147
1.0
  0
MATERIAL
  5
11
102
{ACAD_XDICTIONARY
360
12
102
}
102
{ACAD_REACTORS
330
10
102
}
330
10
100
AcDbMaterial
  1
ByLayer
 72
     0
 43
0.0208333333333333
 43
0.0
 43
0.0
 43
0.0
 43
0.0
 43
0.0208333333333333
 43
0.0
 43
0.0
 43
0.0
 43
0.0
 43
1.0
 43
0.0
 43
0.0
 43
0.0
 43
0.0
 43
1.0
 77
     0
 47
0.0208333333333333
 47
0.0
 47
0.0
 47
0.0
 47
0.0
 47
0.0208333333333333
 47
0.0
 47
0.0
 47
0.0
 47
0.0
 47
1.0
 47
0.0
 47
0.0
 47
0.0
 47
0.0
 47
1.0
171
     0
 49
0.0208333333333333
 49
0.0
 49
0.0
 49
0.0
 49
0.0
 49
0.0208333333333333
 49
0.0
 49
0.0
 49
0.0
 49
0.0
 49
1.0
 49
0.0
 49
0.0
 49
0.0
 49
0.0
 49
1.0
175
     0
142
0.0208333333333333
142
0.0
142
0.0
142
0.0
142
0.0
142
0.0208333333333333
142
0.0
142
0.0
142
0.0
142
0.0
142
1.0
142
0.0
142
0.0
142
0.0
142
0.0
142
1.0
179
     0
144
0.0208333333333333
144
0.0
144
0.0
144
0.0
144
0.0
144
0.0208333333333333
144
0.0
144
0.0
144
0.0
144
0.0
144
1.0
144
0.0
144
0.0
144
0.0
144
0.0
144
1.0
147
0.0208333333333333
147
0.0
147
0.0
147
0.0
147
0.0
147
0.0208333333333333
147
0.0
147
0.0
147
0.0
147
0.0
147
1.0
147
0.0
147
0.0
147
0.0
147
0.0
147
1.0
  0
MATERIAL
  5
21
102
{ACAD_XDICTIONARY
360
22
102
}
102
{ACAD_REACTORS
330
10
102
}
330
10
100
AcDbMaterial
  1
Global
 72
     0
 43
0.0208333333333333
 43
0.0
 43
0.0
 43
0.0
 43
0.0
 43
0.0208333333333333
 43
0.0
 43
0.0
 43
0.0
 43
0.0
 43
1.0
 43
0.0
 43
0.0
 43
0.0
 43
0.0
 43
1.0
 77
     0
 47
0.0208333333333333
 47
0.0
 47
0.0
 47
0.0
 47
0.0
 47
0.0208333333333333
 47
0.0
 47
0.0
 47
0.0
 47
0.0
 47
1.0
 47
0.0
 47
0.0
 47
0.0
 47
0.0
 47
1.0
171
     0
 49
0.0208333333333333
 49
0.0
 49
0.0
 49
0.0
 49
0.0
 49
0.0208333333333333
 49
0.0
 49
0.0
 49
0.0
 49
0.0
 49
1.0
 49
0.0
 49
0.0
 49
0.0
 49
0.0
 49
1.0
175
     0
142
0.0208333333333333
142
0.0
142
0.0
142
0.0
142
0.0
142
0.0208333333333333
142
0.0
142
0.0
142
0.0
142
0.0
142
1.0
142
0.0
142
0.0
142
0.0
142
0.0
142
1.0
179
     0
144
0.0208333333333333
144
0.0
144
0.0
144
0.0
144
0.0
144
0.0208333333333333
144
0.0
144
0.0
144
0.0
144
0.0
144
1.0
144
0.0
144
0.0
144
0.0
144
0.0
144
1.0
147
0.0208333333333333
147
0.0
147
0.0
147
0.0
147
0.0
147
0.0208333333333333
147
0.0
147
0.0
147
0.0
147
0.0
147
1.0
147
0.0
147
0.0
147
0.0
147
0.0
147
1.0
  0
MLEADERSTYLE
  5
67
102
{ACAD_REACTORS
330
66
102
}
330
66
100
AcDbMLeaderStyle
179
     2
170
     2
171
     1
172
     0
 90
        2
 40
0.0
 41
0.0
173
     1
 91
-1056964608
340
5B
 92
       -2
290
     1
 42
0.09
291
     1
 43
0.36
  3
Standard
 44
0.18
300

342
55
174
     1
178
     6
175
     1
176
     0
 93
-1056964608
 45
0.18
292
     0
297
     0
 46
0.18
 94
-1056964608
 47
1.0
 49
1.0
140
1.0
293
     1
141
0.0
294
     1
177
     0
142
1.0
295
     1
296
     0
143
0.125
271
     0
272
     9
273
     9
298
     1
  0
MLINESTYLE
  5
60
102
{ACAD_REACTORS
330
5F
102
}
330
5F
100
AcDbMlineStyle
  2
STANDARD
 70
     0
  3

 62
   256
 51
90.0
 52
90.0
 71
     2
 49
0.5
 62
   256
  6
BYLAYER
 49
-0.5
 62
   256
  6
BYLAYER
  0
ACDBPLACEHOLDER
  5
F
102
{ACAD_REACTORS
330
E
102
}
330
E
  0
SCALE
  5
43
102
{ACAD_REACTORS
330
42
102
}
330
42
100
AcDbScale
 70
     0
300
1:1
140
1.0
141
1.0
290
     1
  0
SCALE
  5
44
102
{ACAD_REACTORS
330
42
102
}
330
42
100
AcDbScale
 70
     0
300
1/128" = 1'-0"
140
0.0078125
141
12.0
290
     0
  0
SCALE
  5
45
102
{ACAD_REACTORS
330
42
102
}
330
42
100
AcDbScale
 70
     0
300
1/64" = 1'-0"
140
0.015625
141
12.0
290
     0
  0
SCALE
  5
46
102
{ACAD_REACTORS
330
42
102
}
330
42
100
AcDbScale
 70
     0
300
1/32" = 1'-0"
140
0.03125
141
12.0
290
     0
  0
SCALE
  5
47
102
{ACAD_REACTORS
330
42
102
}
330
42
100
AcDbScale
 70
     0
300
1/16" = 1'-0"
140
0.0625
141
12.0
290
     0
  0
SCALE
  5
48
102
{ACAD_REACTORS
330
42
102
}
330
42
100
AcDbScale
 70
     0
300
3/32" = 1'-0"
140
0.09375
141
12.0
290
     0
  0
SCALE
  5
49
102
{ACAD_REACTORS
330
42
102
}
330
42
100
AcDbScale
 70
     0
300
1/8" = 1'-0"
140
0.125
141
12.0
290
     0
  0
SCALE
  5
4A
102
{ACAD_REACTORS
330
42
102
}
330
42
100
AcDbScale
 70
     0
300
3/16" = 1'-0"
140
0.1875
141
12.0
290
     0
  0
SCALE
  5
4B
102
{ACAD_REACTORS
330
42
102
}
330
42
100
AcDbScale
 70
     0
300
1/4" = 1'-0"
140
0.25
141
12.0
290
     0
  0
SCALE
  5
4C
102
{ACAD_REACTORS
330
42
102
}
330
42
100
AcDbScale
 70
     0
300
3/8" = 1'-0"
140
0.375
141
12.0
290
     0
  0
SCALE
  5
4D
102
{ACAD_REACTORS
330
42
102
}
330
42
100
AcDbScale
 70
     0
300
1/2" = 1'-0"
140
0.5
141
12.0
290
     0
  0
SCALE
  5
4E
102
{ACAD_REACTORS
330
42
102
}
330
42
100
AcDbScale
 70
     0
300
3/4" = 1'-0"
140
0.75
141
12.0
290
     0
  0
SCALE
  5
4F
102
{ACAD_REACTORS
330
42
102
}
330
42
100
AcDbScale
 70
     0
300
1" = 1'-0"
140
1.0
141
12.0
290
     0
  0
SCALE
  5
50
102
{ACAD_REACTORS
330
42
102
}
330
42
100
AcDbScale
 70
     0
300
1-1/2" = 1'-0"
140
1.5
141
12.0
290
     0
  0
SCALE
  5
51
102
{ACAD_REACTORS
330
42
102
}
330
42
100
AcDbScale
 70
     0
300
3" = 1'-0"
140
3.0
141
12.0
290
     0
  0
SCALE
  5
52
102
{ACAD_REACTORS
330
42
102
}
330
42
100
AcDbScale
 70
     0
300
6" = 1'-0"
140
6.0
141
12.0
290
     0
  0
SCALE
  5
53
102
{ACAD_REACTORS
330
42
102
}
330
42
100
AcDbScale
 70
     0
300
1'-0" = 1'-0"
140
12.0
141
12.0
290
     0
  0
ACDBSECTIONVIEWSTYLE
  5
69
102
{ACAD_REACTORS
330
68
102
}
330
68
100
AcDbModelDocViewStyle
 70
     0
  3
Imperial24
290
     1
300
Imperial24
 90
        0
100
AcDbSectionViewStyle
 70
     0
 71
     0
 90
       78
 71
     1
340
55
 62
   256
 40
0.24
340
0
340
0
 62
   256
 40
0.24
300
I, O, Q, S, X, Z
 40
0.48
 90
        3
 40
0.18
 90
        1
 71
     2
340
5D
 90
       25
 62
   256
340
5D
 90
       50
 62
   256
 40
0.24
 40
0.0
 40
0.24
 71
     3
340
55
 62
   256
 40
0.24
 90
        1
 40
0.75
 90
        1
300
%<\AcVar ViewType \f "%tc1">% %<\AcVar ViewSectionStartId>%-%<\AcVar ViewSectionEndId>%\PSCALE %<\AcVar ViewScale \f "%sn">%
 71
     4
 62
   256
 62
   257
300
ANSI31
 40
1.0
 90
        0
290
     0
290
     0
 90
        6
 40
0.0
 40
1.570796326794896
 40
0.2617993877991494
 40
1.308996938995747
 40
-0.2617993877991494
 40
1.832595714594046
  0
TABLESTYLE
  5
65
102
{ACAD_XDICTIONARY
360
167
102
}
102
{ACAD_REACTORS
330
64
102
}
330
64
100
AcDbTableStyle
280
     0
  3
Standard
 70
     0
 71
     0
 40
0.06
 41
0.06
280
     0
281
     0
  7
Standard
140
0.18
170
     2
 62
     0
 63
     7
283
     0
 90
      512
 91
        0
  1

274
    -2
284
     1
 64
     0
275
    -2
285
     1
 65
     0
276
    -2
286
     1
 66
     0
277
    -2
287
     1
 67
     0
278
    -2
288
     1
 68
     0
279
    -2
289
     1
 69
     0
  7
Standard
140
0.25
170
     5
 62
     0
 63
     7
283
     0
 90
      512
 91
        0
  1

274
    -2
284
     1
 64
     0
275
    -2
285
     1
 65
     0
276
    -2
286
     1
 66
     0
277
    -2
287
     1
 67
     0
278
    -2
288
     1
 68
     0
279
    -2
289
     1
 69
     0
  7
Standard
140
0.18
170
     5
 62
     0
 63
     7
283
     0
 90
      512
 91
        0
  1

274
    -2
284
     1
 64
     0
275
    -2
285
     1
 65
     0
276
    -2
286
     1
 66
     0
277
    -2
287
     1
 67
     0
278
    -2
288
     1
 68
     0
279
    -2
289
     1
 69
     0
  0
VISUALSTYLE
  5
2F
102
{ACAD_REACTORS
330
29
102
}
330
29
100
AcDbVisualStyle
  2
2dWireframe
 70
     4
177
     3
291
     0
 70
    58
 90
        0
176
     1
 90
        2
176
     1
 90
        0
176
     1
 90
        0
176
     1
 40
0.6
176
     1
 40
30.0
176
     1
 62
     7
420
 16777215
176
     1
 90
        1
176
     1
 90
        4
176
     1
 62
     7
176
     1
 62
   257
176
     1
 90
        1
176
     1
 90
        1
176
     1
 40
1.0
176
     1
 90
        0
176
     1
 62
   257
176
     1
 40
1.0
176
     1
 90
        1
176
     1
 90
        6
176
     1
 90
        2
176
     1
 62
     7
176
     1
 90
        5
176
     1
 90
        0
176
     1
 90
        0
176
     1
290
     0
176
     1
 90
        1
176
     1
 40
0.0
176
     1
 90
        0
176
     1
290
     1
176
     1
290
     1
176
     1
290
     0
176
     1
290
     0
176
     1
290
     0
176
     1
290
     0
176
     1
290
     0
176
     1
290
     0
176
     1
290
     0
176
     1
 90
       50
176
     1
 40
0.0
176
     1
 40
1.0
176
     1
 90
        0
176
     1
 62
    18
420
        0
176
     1
 90
       50
176
     1
 90
        3
176
     1
 62
     5
420
      255
176
     1
290
     0
176
     1
 90
       50
176
     1
 90
       50
176
     1
 90
       50
176
     1
290
     0
176
     1
 90
       50
176
     1
 62
   256
176
     0
 40
1.0
176
     0
 90
        2
176
     1
  1
strokes_ogs.tif
176
     1
290
     0
176
     1
 40
1.0
176
     1
 40
1.0
176
     1
  0
VISUALSTYLE
  5
2E
102
{ACAD_REACTORS
330
29
102
}
330
29
100
AcDbVisualStyle
  2
Basic
 70
     7
177
     3
291
     1
 70
    58
 90
        1
176
     1
 90
        0
176
     1
 90
        1
176
     1
 90
        0
176
     1
 40
0.6
176
     1
 40
30.0
176
     1
 62
     7
420
 16777215
176
     1
 90
        0
176
     1
 90
        4
176
     1
 62
     7
176
     1
 62
   257
176
     1
 90
        1
176
     1
 90
        1
176
     1
 40
1.0
176
     1
 90
        8
176
     1
 62
     7
176
     1
 40
1.0
176
     1
 90
        1
176
     1
 90
        6
176
     1
 90
        2
176
     1
 62
     7
176
     1
 90
        5
176
     1
 90
        0
176
     1
 90
        0
176
     1
290
     0
176
     1
 90
        1
176
     1
 40
0.0
176
     1
 90
        0
176
     1
290
     0
176
     1
290
     1
176
     1
290
     1
176
     1
290
     0
176
     1
290
     0
176
     1
290
     0
176
     1
290
     0
176
     1
290
     0
176
     1
290
     0
176
     1
 90
       50
176
     1
 40
0.0
176
     1
 40
1.0
176
     1
 90
        0
176
     1
 62
    18
420
        0
176
     1
 90
       50
176
     1
 90
        3
176
     1
 62
     5
420
      255
176
     1
290
     0
176
     1
 90
       50
176
     1
 90
       50
176
     1
 90
       50
176
     1
290
     0
176
     1
 90
       50
176
     1
 62
   256
176
     0
 40
1.0
176
     0
 90
        2
176
     1
  1
strokes_ogs.tif
176
     1
290
     0
176
     1
 40
1.0
176
     1
 40
1.0
176
     1
  0
VISUALSTYLE
  5
35
102
{ACAD_REACTORS
330
29
102
}
330
29
100
AcDbVisualStyle
  2
Brighten
 70
    12
177
     3
291
     1
 70
    58
 90
        2
176
     1
 90
        2
176
     1
 90
        0
176
     1
 90
        0
176
     1
 40
0.6
176
     1
 40
30.0
176
     1
 62
     7
420
 16777215
176
     1
 90
        1
176
     1
 90
        4
176
     1
 62
     7
176
     1
 62
   257
176
     1
 90
        1
176
     1
 90
        1
176
     1
 40
1.0
176
     1
 90
        8
176
     1
 62
     7
176
     1
 40
1.0
176
     1
 90
        1
176
     1
 90
        6
176
     1
 90
        2
176
     1
 62
     7
176
     1
 90
        5
176
     1
 90
        0
176
     1
 90
        0
176
     1
290
     0
176
     1
 90
        1
176
     1
 40
50.0
176
     1
 90
        0
176
     1
290
     0
176
     1
290
     1
176
     1
290
     1
176
     1
290
     0
176
     1
290
     0
176
     1
290
     0
176
     1
290
     0
176
     1
290
     0
176
     1
290
     0
176
     1
 90
       50
176
     1
 40
0.0
176
     1
 40
1.0
176
     1
 90
        0
176
     1
 62
    18
420
        0
176
     1
 90
       50
176
     1
 90
        3
176
     1
 62
     5
420
      255
176
     1
290
     0
176
     1
 90
       50
176
     1
 90
       50
176
     1
 90
       50
176
     1
290
     0
176
     1
 90
       50
176
     1
 62
   256
176
     0
 40
1.0
176
     0
 90
        2
176
     1
  1
strokes_ogs.tif
176
     1
290
     0
176
     1
 40
1.0
176
     1
 40
1.0
176
     1
  0
VISUALSTYLE
  5
39
102
{ACAD_REACTORS
330
29
102
}
330
29
100
AcDbVisualStyle
  2
ColorChange
 70
    16
177
     3
291
     1
 70
    58
 90
        2
176
     1
 90
        2
176
     1
 90
        3
176
     1
 90
        0
176
     1
 40
0.6
176
     1
 40
30.0
176
     1
 62
     8
420
  8421504
176
     1
 90
        1
176
     1
 90
        4
176
     1
 62
     7
176
     1
 62
   257
176
     1
 90
        1
176
     1
 90
        1
176
     1
 40
1.0
176
     1
 90
        8
176
     1
 62
     8
420
  8421504
176
     1
 40
1.0
176
     1
 90
        1
176
     1
 90
        6
176
     1
 90
        2
176
     1
 62
     7
176
     1
 90
        5
176
     1
 90
        0
176
     1
 90
        0
176
     1
290
     0
176
     1
 90
        1
176
     1
 40
0.0
176
     1
 90
        0
176
     1
290
     0
176
     1
290
     1
176
     1
290
     1
176
     1
290
     0
176
     1
290
     0
176
     1
290
     0
176
     1
290
     0
176
     1
290
     0
176
     1
290
     0
176
     1
 90
       50
176
     1
 40
0.0
176
     1
 40
1.0
176
     1
 90
        0
176
     1
 62
    18
420
        0
176
     1
 90
       50
176
     1
 90
        3
176
     1
 62
     5
420
      255
176
     1
290
     0
176
     1
 90
       50
176
     1
 90
       50
176
     1
 90
       50
176
     1
290
     0
176
     1
 90
       50
176
     1
 62
   256
176
     0
 40
1.0
176
     0
 90
        2
176
     1
  1
strokes_ogs.tif
176
     1
290
     0
176
     1
 40
1.0
176
     1
 40
1.0
176
     1
  0
VISUALSTYLE
  5
32
102
{ACAD_REACTORS
330
29
102
}
330
29
100
AcDbVisualStyle
  2
Conceptual
 70
     9
177
     3
291
     0
 70
    58
 90
        3
176
     1
 90
        2
176
     1
 90
        0
176
     1
 90
        0
176
     1
 40
0.6
176
     1
 40
30.0
176
     1
 62
     7
420
 16777215
176
     1
 90
        2
176
     1
 90
        2
176
     1
 62
     7
176
     1
 62
   257
176
     1
 90
        1
176
     1
 90
        1
176
     1
 40
179.0
176
     1
 90
        8
176
     1
 62
     7
176
     1
 40
1.0
176
     1
 90
        1
176
     1
 90
        6
176
     1
 90
        2
176
     1
 62
     7
176
     1
 90
        3
176
     1
 90
        0
176
     1
 90
        0
176
     1
290
     0
176
     1
 90
        1
176
     1
 40
0.0
176
     1
 90
        0
176
     1
290
     0
176
     1
290
     1
176
     1
290
     1
176
     1
290
     0
176
     1
290
     0
176
     1
290
     0
176
     1
290
     0
176
     1
290
     0
176
     1
290
     0
176
     1
 90
       50
176
     1
 40
0.0
176
     1
 40
1.0
176
     1
 90
        0
176
     1
 62
    18
420
        0
176
     1
 90
       50
176
     1
 90
        3
176
     1
 62
     5
420
      255
176
     1
290
     0
176
     1
 90
       50
176
     1
 90
       50
176
     1
 90
       50
176
     1
290
     0
176
     1
 90
       50
176
     1
 62
   256
176
     0
 40
1.0
176
     0
 90
        2
176
     1
  1
strokes_ogs.tif
176
     1
290
     0
176
     1
 40
1.0
176
     1
 40
1.0
176
     1
  0
VISUALSTYLE
  5
34
102
{ACAD_REACTORS
330
29
102
}
330
29
100
AcDbVisualStyle
  2
Dim
 70
    11
177
     3
291
     1
 70
    58
 90
        2
176
     1
 90
        2
176
     1
 90
        0
176
     1
 90
        0
176
     1
 40
0.6
176
     1
 40
30.0
176
     1
 62
     7
420
 16777215
176
     1
 90
        1
176
     1
 90
        4
176
     1
 62
     7
176
     1
 62
   257
176
     1
 90
        1
176
     1
 90
        1
176
     1
 40
1.0
176
     1
 90
        8
176
     1
 62
     7
176
     1
 40
1.0
176
     1
 90
        1
176
     1
 90
        6
176
     1
 90
        2
176
     1
 62
     7
176
     1
 90
        5
176
     1
 90
        0
176
     1
 90
        0
176
     1
290
     0
176
     1
 90
        1
176
     1
 40
-50.0
176
     1
 90
        0
176
     1
290
     0
176
     1
290
     1
176
     1
290
     1
176
     1
290
     0
176
     1
290
     0
176
     1
290
     0
176
     1
290
     0
176
     1
290
     0
176
     1
290
     0
176
     1
 90
       50
176
     1
 40
0.0
176
     1
 40
1.0
176
     1
 90
        0
176
     1
 62
    18
420
        0
176
     1
 90
       50
176
     1
 90
        3
176
     1
 62
     5
420
      255
176
     1
290
     0
176
     1
 90
       50
176
     1
 90
       50
176
     1
 90
       50
176
     1
290
     0
176
     1
 90
       50
176
     1
 62
   256
176
     0
 40
1.0
176
     0
 90
        2
176
     1
  1
strokes_ogs.tif
176
     1
290
     0
176
     1
 40
1.0
176
     1
 40
1.0
176
     1
  0
VISUALSTYLE
  5
41
102
{ACAD_REACTORS
330
29
102
}
330
29
100
AcDbVisualStyle
  2
EdgeColorOff
 70
    22
177
     3
291
     1
 70
    58
 90
        2
176
     0
 90
        2
176
     0
 90
        0
176
     0
 90
        0
176
     0
 40
0.6
176
     0
 40
30.0
176
     0
 62
     7
420
 16777215
176
     0
 90
        1
176
     0
 90
        4
176
     0
 62
     7
176
     0
 62
   257
176
     0
 90
        1
176
     0
 90
        1
176
     0
 40
1.0
176
     0
 90
        8
176
     2
 62
     7
176
     0
 40
1.0
176
     0
 90
        1
176
     0
 90
        6
176
     0
 90
        2
176
     0
 62
     7
176
     0
 90
        5
176
     0
 90
        0
176
     0
 90
        0
176
     0
290
     0
176
     0
 90
        1
176
     0
 40
0.0
176
     0
 90
        0
176
     0
290
     0
176
     0
290
     1
176
     0
290
     1
176
     0
290
     0
176
     0
290
     0
176
     0
290
     0
176
     0
290
     0
176
     0
290
     0
176
     0
290
     0
176
     0
 90
       50
176
     0
 40
0.0
176
     0
 40
1.0
176
     0
 90
        0
176
     0
 62
    18
420
        0
176
     0
 90
       50
176
     0
 90
        3
176
     0
 62
     5
420
      255
176
     0
290
     0
176
     0
 90
       50
176
     0
 90
       50
176
     0
 90
       50
176
     0
290
     0
176
     0
 90
       50
176
     0
 62
   256
176
     0
 40
1.0
176
     0
 90
        2
176
     0
  1
strokes_ogs.tif
176
     0
290
     0
176
     0
 40
1.0
176
     0
 40
1.0
176
     0
  0
VISUALSTYLE
  5
38
102
{ACAD_REACTORS
330
29
102
}
330
29
100
AcDbVisualStyle
  2
Facepattern
 70
    15
177
     3
291
     1
 70
    58
 90
        2
176
     1
 90
        2
176
     1
 90
        0
176
     1
 90
        0
176
     1
 40
0.6
176
     1
 40
30.0
176
     1
 62
     7
420
 16777215
176
     1
 90
        1
176
     1
 90
        4
176
     1
 62
     7
176
     1
 62
   257
176
     1
 90
        1
176
     1
 90
        1
176
     1
 40
1.0
176
     1
 90
        8
176
     1
 62
     7
176
     1
 40
1.0
176
     1
 90
        1
176
     1
 90
        6
176
     1
 90
        2
176
     1
 62
     7
176
     1
 90
        5
176
     1
 90
        0
176
     1
 90
        0
176
     1
290
     0
176
     1
 90
        1
176
     1
 40
0.0
176
     1
 90
        0
176
     1
290
     0
176
     1
290
     1
176
     1
290
     1
176
     1
290
     0
176
     1
290
     0
176
     1
290
     0
176
     1
290
     0
176
     1
290
     0
176
     1
290
     0
176
     1
 90
       50
176
     1
 40
0.0
176
     1
 40
1.0
176
     1
 90
        0
176
     1
 62
    18
420
        0
176
     1
 90
       50
176
     1
 90
        3
176
     1
 62
     5
420
      255
176
     1
290
     0
176
     1
 90
       50
176
     1
 90
       50
176
     1
 90
       50
176
     1
290
     0
176
     1
 90
       50
176
     1
 62
   256
176
     0
 40
1.0
176
     0
 90
        2
176
     1
  1
strokes_ogs.tif
176
     1
290
     0
176
     1
 40
1.0
176
     1
 40
1.0
176
     1
  0
VISUALSTYLE
  5
2A
102
{ACAD_REACTORS
330
29
102
}
330
29
100
AcDbVisualStyle
  2
Flat
 70
     0
177
     3
291
     1
 70
    58
 90
        2
176
     1
 90
        1
176
     1
 90
        1
176
     1
 90
        2
176
     1
 40
0.6
176
     1
 40
30.0
176
     1
 62
     7
420
 16777215
176
     1
 90
        0
176
     1
 90
        0
176
     1
 62
     7
176
     1
 62
   257
176
     1
 90
        1
176
     1
 90
        1
176
     1
 40
1.0
176
     1
 90
        8
176
     1
 62
     7
176
     1
 40
1.0
176
     1
 90
        1
176
     1
 90
        6
176
     1
 90
        2
176
     1
 62
     7
176
     1
 90
        5
176
     1
 90
        0
176
     1
 90
        0
176
     1
290
     0
176
     1
 90
       13
176
     1
 40
0.0
176
     1
 90
        0
176
     1
290
     0
176
     1
290
     1
176
     1
290
     1
176
     1
290
     0
176
     1
290
     0
176
     1
290
     0
176
     1
290
     0
176
     1
290
     0
176
     1
290
     0
176
     1
 90
       50
176
     1
 40
0.0
176
     1
 40
1.0
176
     1
 90
        0
176
     1
 62
    18
420
        0
176
     1
 90
       50
176
     1
 90
        3
176
     1
 62
     5
420
      255
176
     1
290
     0
176
     1
 90
       50
176
     1
 90
       50
176
     1
 90
       50
176
     1
290
     0
176
     1
 90
       50
176
     1
 62
   256
176
     0
 40
1.0
176
     0
 90
        2
176
     1
  1
strokes_ogs.tif
176
     1
290
     0
176
     1
 40
1.0
176
     1
 40
1.0
176
     1
  0
VISUALSTYLE
  5
2B
102
{ACAD_REACTORS
330
29
102
}
330
29
100
AcDbVisualStyle
  2
FlatWithEdges
 70
     1
177
     3
291
     1
 70
    58
 90
        2
176
     1
 90
        1
176
     1
 90
        1
176
     1
 90
        2
176
     1
 40
0.6
176
     1
 40
30.0
176
     1
 62
     7
420
 16777215
176
     1
 90
        1
176
     1
 90
        0
176
     1
 62
     7
176
     1
 62
   257
176
     1
 90
        1
176
     1
 90
        1
176
     1
 40
1.0
176
     1
 90
        0
176
     1
 62
   257
176
     1
 40
1.0
176
     1
 90
        1
176
     1
 90
        6
176
     1
 90
        2
176
     1
 62
     7
176
     1
 90
        5
176
     1
 90
        0
176
     1
 90
        0
176
     1
290
     0
176
     1
 90
       13
176
     1
 40
0.0
176
     1
 90
        0
176
     1
290
     0
176
     1
290
     1
176
     1
290
     1
176
     1
290
     0
176
     1
290
     0
176
     1
290
     0
176
     1
290
     0
176
     1
290
     0
176
     1
290
     0
176
     1
 90
       50
176
     1
 40
0.0
176
     1
 40
1.0
176
     1
 90
        0
176
     1
 62
    18
420
        0
176
     1
 90
       50
176
     1
 90
        3
176
     1
 62
     5
420
      255
176
     1
290
     0
176
     1
 90
       50
176
     1
 90
       50
176
     1
 90
       50
176
     1
290
     0
176
     1
 90
       50
176
     1
 62
   256
176
     0
 40
1.0
176
     0
 90
        2
176
     1
  1
strokes_ogs.tif
176
     1
290
     0
176
     1
 40
1.0
176
     1
 40
1.0
176
     1
  0
VISUALSTYLE
  5
2C
102
{ACAD_REACTORS
330
29
102
}
330
29
100
AcDbVisualStyle
  2
Gouraud
 70
     2
177
     3
291
     1
 70
    58
 90
        2
176
     1
 90
        2
176
     1
 90
        1
176
     1
 90
        2
176
     1
 40
0.6
176
     1
 40
30.0
176
     1
 62
     7
420
 16777215
176
     1
 90
        0
176
     1
 90
        0
176
     1
 62
     7
176
     1
 62
   257
176
     1
 90
        1
176
     1
 90
        1
176
     1
 40
1.0
176
     1
 90
        0
176
     1
 62
     7
176
     1
 40
1.0
176
     1
 90
        1
176
     1
 90
        6
176
     1
 90
        2
176
     1
 62
     7
176
     1
 90
        5
176
     1
 90
        0
176
     1
 90
        0
176
     1
290
     0
176
     1
 90
       13
176
     1
 40
0.0
176
     1
 90
        0
176
     1
290
     0
176
     1
290
     1
176
     1
290
     1
176
     1
290
     0
176
     1
290
     0
176
     1
290
     0
176
     1
290
     0
176
     1
290
     0
176
     1
290
     0
176
     1
 90
       50
176
     1
 40
0.0
176
     1
 40
1.0
176
     1
 90
        0
176
     1
 62
    18
420
        0
176
     1
 90
       50
176
     1
 90
        3
176
     1
 62
     5
420
      255
176
     1
290
     0
176
     1
 90
       50
176
     1
 90
       50
176
     1
 90
       50
176
     1
290
     0
176
     1
 90
       50
176
     1
 62
   256
176
     0
 40
1.0
176
     0
 90
        2
176
     1
  1
strokes_ogs.tif
176
     1
290
     0
176
     1
 40
1.0
176
     1
 40
1.0
176
     1
  0
VISUALSTYLE
  5
2D
102
{ACAD_REACTORS
330
29
102
}
330
29
100
AcDbVisualStyle
  2
GouraudWithEdges
 70
     3
177
     3
291
     1
 70
    58
 90
        2
176
     1
 90
        2
176
     1
 90
        1
176
     1
 90
        2
176
     1
 40
0.6
176
     1
 40
30.0
176
     1
 62
     7
420
 16777215
176
     1
 90
        1
176
     1
 90
        0
176
     1
 62
     7
176
     1
 62
   257
176
     1
 90
        1
176
     1
 90
        1
176
     1
 40
1.0
176
     1
 90
        0
176
     1
 62
   257
176
     1
 40
1.0
176
     1
 90
        1
176
     1
 90
        6
176
     1
 90
        2
176
     1
 62
     7
176
     1
 90
        5
176
     1
 90
        0
176
     1
 90
        0
176
     1
290
     0
176
     1
 90
       13
176
     1
 40
0.0
176
     1
 90
        0
176
     1
290
     0
176
     1
290
     1
176
     1
290
     1
176
     1
290
     0
176
     1
290
     0
176
     1
290
     0
176
     1
290
     0
176
     1
290
     0
176
     1
290
     0
176
     1
 90
       50
176
     1
 40
0.0
176
     1
 40
1.0
176
     1
 90
        0
176
     1
 62
    18
420
        0
176
     1
 90
       50
176
     1
 90
        3
176
     1
 62
     5
420
      255
176
     1
290
     0
176
     1
 90
       50
176
     1
 90
       50
176
     1
 90
       50
176
     1
290
     0
176
     1
 90
       50
176
     1
 62
   256
176
     0
 40
1.0
176
     0
 90
        2
176
     1
  1
strokes_ogs.tif
176
     1
290
     0
176
     1
 40
1.0
176
     1
 40
1.0
176
     1
  0
VISUALSTYLE
  5
31
102
{ACAD_REACTORS
330
29
102
}
330
29
100
AcDbVisualStyle
  2
Hidden
 70
     6
177
     3
291
     0
 70
    58
 90
        1
176
     1
 90
        2
176
     1
 90
        2
176
     1
 90
        0
176
     1
 40
0.6
176
     1
 40
30.0
176
     1
 62
     7
420
 16777215
176
     1
 90
        2
176
     1
 90
        2
176
     1
 62
     7
176
     1
 62
   257
176
     1
 90
        2
176
     1
 90
        1
176
     1
 40
40.0
176
     1
 90
        0
176
     1
 62
   257
176
     1
 40
1.0
176
     1
 90
        1
176
     1
 90
        6
176
     1
 90
        2
176
     1
 62
     7
176
     1
 90
        3
176
     1
 90
        0
176
     1
 90
        0
176
     1
290
     0
176
     1
 90
        1
176
     1
 40
0.0
176
     1
 90
        0
176
     1
290
     0
176
     1
290
     1
176
     1
290
     1
176
     1
290
     0
176
     1
290
     0
176
     1
290
     0
176
     1
290
     0
176
     1
290
     0
176
     1
290
     0
176
     1
 90
       50
176
     1
 40
0.0
176
     1
 40
1.0
176
     1
 90
        0
176
     1
 62
    18
420
        0
176
     1
 90
       50
176
     1
 90
        3
176
     1
 62
     5
420
      255
176
     1
290
     0
176
     1
 90
       50
176
     1
 90
       50
176
     1
 90
       50
176
     1
290
     0
176
     1
 90
       50
176
     1
 62
   256
176
     0
 40
1.0
176
     0
 90
        2
176
     1
  1
strokes_ogs.tif
176
     1
290
     0
176
     1
 40
1.0
176
     1
 40
1.0
176
     1
  0
VISUALSTYLE
  5
3F
102
{ACAD_REACTORS
330
29
102
}
330
29
100
AcDbVisualStyle
  2
JitterOff
 70
    20
177
     3
291
     1
 70
    58
 90
        2
176
     0
 90
        2
176
     0
 90
        0
176
     0
 90
        0
176
     0
 40
0.6
176
     0
 40
30.0
176
     0
 62
     7
420
 16777215
176
     0
 90
        1
176
     0
 90
        4
176
     0
 62
     7
176
     0
 62
   257
176
     0
 90
        1
176
     0
 90
        1
176
     0
 40
1.0
176
     0
 90
       10
176
     2
 62
     7
176
     0
 40
1.0
176
     0
 90
        1
176
     0
 90
        6
176
     0
 90
        2
176
     0
 62
     7
176
     0
 90
        5
176
     0
 90
        0
176
     0
 90
        0
176
     0
290
     0
176
     0
 90
        1
176
     0
 40
0.0
176
     0
 90
        0
176
     0
290
     0
176
     0
290
     1
176
     0
290
     1
176
     0
290
     0
176
     0
290
     0
176
     0
290
     0
176
     0
290
     0
176
     0
290
     0
176
     0
290
     0
176
     0
 90
       50
176
     0
 40
0.0
176
     0
 40
1.0
176
     0
 90
        0
176
     0
 62
    18
420
        0
176
     0
 90
       50
176
     0
 90
        3
176
     0
 62
     5
420
      255
176
     0
290
     0
176
     0
 90
       50
176
     0
 90
       50
176
     0
 90
       50
176
     0
290
     0
176
     0
 90
       50
176
     0
 62
   256
176
     0
 40
1.0
176
     0
 90
        2
176
     0
  1
strokes_ogs.tif
176
     0
290
     0
176
     0
 40
1.0
176
     0
 40
1.0
176
     0
  0
VISUALSTYLE
  5
37
102
{ACAD_REACTORS
330
29
102
}
330
29
100
AcDbVisualStyle
  2
Linepattern
 70
    14
177
     3
291
     1
 70
    58
 90
        2
176
     1
 90
        2
176
     1
 90
        0
176
     1
 90
        0
176
     1
 40
0.6
176
     1
 40
30.0
176
     1
 62
     7
420
 16777215
176
     1
 90
        1
176
     1
 90
        4
176
     1
 62
     7
176
     1
 62
   257
176
     1
 90
        7
176
     1
 90
        7
176
     1
 40
1.0
176
     1
 90
        8
176
     1
 62
     7
176
     1
 40
1.0
176
     1
 90
        1
176
     1
 90
        6
176
     1
 90
        2
176
     1
 62
     7
176
     1
 90
        5
176
     1
 90
        0
176
     1
 90
        0
176
     1
290
     0
176
     1
 90
        1
176
     1
 40
0.0
176
     1
 90
        0
176
     1
290
     0
176
     1
290
     1
176
     1
290
     1
176
     1
290
     0
176
     1
290
     0
176
     1
290
     0
176
     1
290
     0
176
     1
290
     0
176
     1
290
     0
176
     1
 90
       50
176
     1
 40
0.0
176
     1
 40
1.0
176
     1
 90
        0
176
     1
 62
    18
420
        0
176
     1
 90
       50
176
     1
 90
        3
176
     1
 62
     5
420
      255
176
     1
290
     0
176
     1
 90
       50
176
     1
 90
       50
176
     1
 90
       50
176
     1
290
     0
176
     1
 90
       50
176
     1
 62
   256
176
     0
 40
1.0
176
     0
 90
        2
176
     1
  1
strokes_ogs.tif
176
     1
290
     0
176
     1
 40
1.0
176
     1
 40
1.0
176
     1
  0
VISUALSTYLE
  5
40
102
{ACAD_REACTORS
330
29
102
}
330
29
100
AcDbVisualStyle
  2
OverhangOff
 70
    21
177
     3
291
     1
 70
    58
 90
        2
176
     0
 90
        2
176
     0
 90
        0
176
     0
 90
        0
176
     0
 40
0.6
176
     0
 40
30.0
176
     0
 62
     7
420
 16777215
176
     0
 90
        1
176
     0
 90
        4
176
     0
 62
     7
176
     0
 62
   257
176
     0
 90
        1
176
     0
 90
        1
176
     0
 40
1.0
176
     0
 90
        9
176
     2
 62
     7
176
     0
 40
1.0
176
     0
 90
        1
176
     0
 90
        6
176
     0
 90
        2
176
     0
 62
     7
176
     0
 90
        5
176
     0
 90
        0
176
     0
 90
        0
176
     0
290
     0
176
     0
 90
        1
176
     0
 40
0.0
176
     0
 90
        0
176
     0
290
     0
176
     0
290
     1
176
     0
290
     1
176
     0
290
     0
176
     0
290
     0
176
     0
290
     0
176
     0
290
     0
176
     0
290
     0
176
     0
290
     0
176
     0
 90
       50
176
     0
 40
0.0
176
     0
 40
1.0
176
     0
 90
        0
176
     0
 62
    18
420
        0
176
     0
 90
       50
176
     0
 90
        3
176
     0
 62
     5
420
      255
176
     0
290
     0
176
     0
 90
       50
176
     0
 90
       50
176
     0
 90
       50
176
     0
290
     0
176
     0
 90
       50
176
     0
 62
   256
176
     0
 40
1.0
176
     0
 90
        2
176
     0
  1
strokes_ogs.tif
176
     0
290
     0
176
     0
 40
1.0
176
     0
 40
1.0
176
     0
  0
VISUALSTYLE
  5
33
102
{ACAD_REACTORS
330
29
102
}
330
29
100
AcDbVisualStyle
  2
Realistic
 70
     8
177
     3
291
     0
 70
    58
 90
        2
176
     1
 90
        3
176
     1
 90
        0
176
     1
 90
        2
176
     1
 40
0.6
176
     1
 40
30.0
176
     1
 62
     7
420
 16777215
176
     1
 90
        0
176
     1
 90
        0
176
     1
 62
     7
176
     1
 62
   257
176
     1
 90
        1
176
     1
 90
        1
176
     1
 40
1.0
176
     1
 90
        8
176
     1
 62
   257
176
     1
 40
1.0
176
     1
 90
        1
176
     1
 90
        6
176
     1
 90
        2
176
     1
 62
     7
176
     1
 90
        3
176
     1
 90
        0
176
     1
 90
        0
176
     1
290
     0
176
     1
 90
       13
176
     1
 40
0.0
176
     1
 90
        0
176
     1
290
     0
176
     1
290
     1
176
     1
290
     1
176
     1
290
     0
176
     1
290
     0
176
     1
290
     0
176
     1
290
     0
176
     1
290
     0
176
     1
290
     0
176
     1
 90
       50
176
     1
 40
0.0
176
     1
 40
1.0
176
     1
 90
        0
176
     1
 62
    18
420
        0
176
     1
 90
       50
176
     1
 90
        3
176
     1
 62
     5
420
      255
176
     1
290
     0
176
     1
 90
       50
176
     1
 90
       50
176
     1
 90
       50
176
     1
290
     0
176
     1
 90
       50
176
     1
 62
   256
176
     0
 40
1.0
176
     0
 90
        2
176
     1
  1
strokes_ogs.tif
176
     1
290
     0
176
     1
 40
1.0
176
     1
 40
1.0
176
     1
  0
VISUALSTYLE
  5
3E
102
{ACAD_REACTORS
330
29
102
}
330
29
100
AcDbVisualStyle
  2
Shaded
 70
    27
177
     3
291
     0
 70
    58
 90
        2
176
     1
 90
        2
176
     1
 90
        1
176
     1
 90
        2
176
     1
 40
0.6
176
     1
 40
30.0
176
     1
 62
     7
420
 16777215
176
     1
 90
        0
176
     1
 90
        4
176
     1
 62
     7
176
     1
 62
   257
176
     1
 90
        1
176
     1
 90
        1
176
     1
 40
1.0
176
     1
 90
        8
176
     1
 62
   257
176
     1
 40
1.0
176
     1
 90
        1
176
     1
 90
        6
176
     1
 90
        2
176
     1
 62
     8
420
  7895160
176
     1
 90
        3
176
     1
 90
        0
176
     1
 90
        0
176
     1
290
     0
176
     1
 90
        5
176
     1
 40
0.0
176
     1
 90
        0
176
     1
290
     0
176
     1
290
     1
176
     1
290
     1
176
     1
290
     0
176
     1
290
     0
176
     1
290
     0
176
     1
290
     0
176
     1
290
     0
176
     1
290
     0
176
     1
 90
       50
176
     1
 40
0.0
176
     1
 40
1.0
176
     1
 90
        0
176
     1
 62
    18
420
        0
176
     1
 90
       50
176
     1
 90
        3
176
     1
 62
     5
420
      255
176
     1
290
     0
176
     1
 90
       50
176
     1
 90
       50
176
     1
 90
       50
176
     1
290
     0
176
     1
 90
       50
176
     1
 62
   256
176
     0
 40
1.0
176
     0
 90
        2
176
     1
  1
strokes_ogs.tif
176
     1
290
     0
176
     1
 40
1.0
176
     1
 40
1.0
176
     1
  0
VISUALSTYLE
  5
3D
102
{ACAD_REACTORS
330
29
102
}
330
29
100
AcDbVisualStyle
  2
Shaded with edges
 70
    26
177
     3
291
     0
 70
    58
 90
        2
176
     1
 90
        2
176
     1
 90
        1
176
     1
 90
        2
176
     1
 40
0.6
176
     1
 40
30.0
176
     1
 62
     7
420
 16777215
176
     1
 90
        1
176
     1
 90
        2
176
     1
 62
     7
176
     1
 62
   257
176
     1
 90
        2
176
     1
 90
        1
176
     1
 40
1.0
176
     1
 90
        8
176
     1
 62
   257
176
     1
 40
1.0
176
     1
 90
        1
176
     1
 90
        6
176
     1
 90
        2
176
     1
 62
     7
176
     1
 90
        3
176
     1
 90
        0
176
     1
 90
        0
176
     1
290
     0
176
     1
 90
        5
176
     1
 40
0.0
176
     1
 90
        0
176
     1
290
     0
176
     1
290
     1
176
     1
290
     1
176
     1
290
     0
176
     1
290
     0
176
     1
290
     0
176
     1
290
     0
176
     1
290
     0
176
     1
290
     0
176
     1
 90
       50
176
     1
 40
0.0
176
     1
 40
1.0
176
     1
 90
        0
176
     1
 62
    18
420
        0
176
     1
 90
       50
176
     1
 90
        3
176
     1
 62
     5
420
      255
176
     1
290
     0
176
     1
 90
       50
176
     1
 90
       50
176
     1
 90
       50
176
     1
290
     0
176
     1
 90
       50
176
     1
 62
   256
176
     0
 40
1.0
176
     0
 90
        2
176
     1
  1
strokes_ogs.tif
176
     1
290
     0
176
     1
 40
1.0
176
     1
 40
1.0
176
     1
  0
VISUALSTYLE
  5
3A
102
{ACAD_REACTORS
330
29
102
}
330
29
100
AcDbVisualStyle
  2
Shades of Gray
 70
    23
177
     3
291
     0
 70
    58
 90
        2
176
     1
 90
        2
176
     1
 90
        3
176
     1
 90
        0
176
     1
 40
0.6
176
     1
 40
30.0
176
     1
 62
     7
420
 16777215
176
     1
 90
        2
176
     1
 90
        2
176
     1
 62
     7
176
     1
 62
     7
176
     1
 90
        1
176
     1
 90
        1
176
     1
 40
40.0
176
     1
 90
        8
176
     1
 62
     7
176
     1
 40
1.0
176
     1
 90
        1
176
     1
 90
        6
176
     1
 90
        2
176
     1
 62
     7
176
     1
 90
        3
176
     1
 90
        0
176
     1
 90
        0
176
     1
290
     0
176
     1
 90
        1
176
     1
 40
0.0
176
     1
 90
        0
176
     1
290
     0
176
     1
290
     1
176
     1
290
     1
176
     1
290
     0
176
     1
290
     0
176
     1
290
     0
176
     1
290
     0
176
     1
290
     0
176
     1
290
     0
176
     1
 90
       50
176
     1
 40
0.0
176
     1
 40
1.0
176
     1
 90
        0
176
     1
 62
    18
420
        0
176
     1
 90
       50
176
     1
 90
        3
176
     1
 62
     5
420
      255
176
     1
290
     0
176
     1
 90
       50
176
     1
 90
       50
176
     1
 90
       50
176
     1
290
     0
176
     1
 90
       50
176
     1
 62
   256
176
     0
 40
1.0
176
     0
 90
        2
176
     1
  1
strokes_ogs.tif
176
     1
290
     0
176
     1
 40
1.0
176
     1
 40
1.0
176
     1
  0
VISUALSTYLE
  5
3B
102
{ACAD_REACTORS
330
29
102
}
330
29
100
AcDbVisualStyle
  2
Sketchy
 70
    24
177
     3
291
     0
 70
    58
 90
        1
176
     1
 90
        2
176
     1
 90
        2
176
     1
 90
        0
176
     1
 40
0.6
176
     1
 40
30.0
176
     1
 62
     7
420
 16777215
176
     1
 90
        2
176
     1
 90
        2
176
     1
 62
     7
176
     1
 62
     7
176
     1
 90
        1
176
     1
 90
        1
176
     1
 40
40.0
176
     1
 90
       11
176
     1
 62
     7
176
     1
 40
1.0
176
     1
 90
        1
176
     1
 90
        6
176
     1
 90
        2
176
     1
 62
     7
176
     1
 90
        6
176
     1
 90
        0
176
     1
 90
        0
176
     1
290
     0
176
     1
 90
        1
176
     1
 40
0.0
176
     1
 90
        0
176
     1
290
     0
176
     1
290
     1
176
     1
290
     1
176
     1
290
     0
176
     1
290
     0
176
     1
290
     0
176
     1
290
     0
176
     1
290
     0
176
     1
290
     0
176
     1
 90
       50
176
     1
 40
0.0
176
     1
 40
1.0
176
     1
 90
        0
176
     1
 62
    18
420
        0
176
     1
 90
       50
176
     1
 90
        3
176
     1
 62
     5
420
      255
176
     1
290
     0
176
     1
 90
       50
176
     1
 90
       50
176
     1
 90
       50
176
     1
290
     0
176
     1
 90
       50
176
     1
 62
   256
176
     0
 40
1.0
176
     0
 90
        2
176
     1
  1
strokes_ogs.tif
176
     1
290
     0
176
     1
 40
1.0
176
     1
 40
1.0
176
     1
  0
VISUALSTYLE
  5
36
102
{ACAD_REACTORS
330
29
102
}
330
29
100
AcDbVisualStyle
  2
Thicken
 70
    13
177
     3
291
     1
 70
    58
 90
        2
176
     1
 90
        2
176
     1
 90
        0
176
     1
 90
        0
176
     1
 40
0.6
176
     1
 40
30.0
176
     1
 62
     7
420
 16777215
176
     1
 90
        1
176
     1
 90
        4
176
     1
 62
     7
176
     1
 62
   257
176
     1
 90
        1
176
     1
 90
        1
176
     1
 40
1.0
176
     1
 90
       12
176
     1
 62
     7
176
     1
 40
1.0
176
     1
 90
        1
176
     1
 90
        6
176
     1
 90
        2
176
     1
 62
     7
176
     1
 90
        5
176
     1
 90
        0
176
     1
 90
        0
176
     1
290
     0
176
     1
 90
        1
176
     1
 40
0.0
176
     1
 90
        0
176
     1
290
     0
176
     1
290
     1
176
     1
290
     1
176
     1
290
     0
176
     1
290
     0
176
     1
290
     0
176
     1
290
     0
176
     1
290
     0
176
     1
290
     0
176
     1
 90
       50
176
     1
 40
0.0
176
     1
 40
1.0
176
     1
 90
        0
176
     1
 62
    18
420
        0
176
     1
 90
       50
176
     1
 90
        3
176
     1
 62
     5
420
      255
176
     1
290
     0
176
     1
 90
       50
176
     1
 90
       50
176
     1
 90
       50
176
     1
290
     0
176
     1
 90
       50
176
     1
 62
   256
176
     0
 40
1.0
176
     0
 90
        2
176
     1
  1
strokes_ogs.tif
176
     1
290
     0
176
     1
 40
1.0
176
     1
 40
1.0
176
     1
  0
VISUALSTYLE
  5
30
102
{ACAD_REACTORS
330
29
102
}
330
29
100
AcDbVisualStyle
  2
Wireframe
 70
     5
177
     3
291
     0
 70
    58
 90
        0
176
     1
 90
        2
176
     1
 90
        0
176
     1
 90
        0
176
     1
 40
0.6
176
     1
 40
30.0
176
     1
 62
     7
420
 16777215
176
     1
 90
        1
176
     1
 90
        4
176
     1
 62
     7
176
     1
 62
   257
176
     1
 90
        1
176
     1
 90
        1
176
     1
 40
1.0
176
     1
 90
        0
176
     1
 62
   257
176
     1
 40
1.0
176
     1
 90
        1
176
     1
 90
        6
176
     1
 90
        2
176
     1
 62
     7
176
     1
 90
        3
176
     1
 90
        0
176
     1
 90
        0
176
     1
290
     0
176
     1
 90
        1
176
     1
 40
0.0
176
     1
 90
        0
176
     1
290
     0
176
     1
290
     1
176
     1
290
     1
176
     1
290
     0
176
     1
290
     0
176
     1
290
     0
176
     1
290
     0
176
     1
290
     0
176
     1
290
     0
176
     1
 90
       50
176
     1
 40
0.0
176
     1
 40
1.0
176
     1
 90
        0
176
     1
 62
    18
420
        0
176
     1
 90
       50
176
     1
 90
        3
176
     1
 62
     5
420
      255
176
     1
290
     0
176
     1
 90
       50
176
     1
 90
       50
176
     1
 90
       50
176
     1
290
     0
176
     1
 90
       50
176
     1
 62
   256
176
     0
 40
1.0
176
     0
 90
        2
176
     1
  1
strokes_ogs.tif
176
     1
290
     0
176
     1
 40
1.0
176
     1
 40
1.0
176
     1
  0
VISUALSTYLE
  5
3C
102
{ACAD_REACTORS
330
29
102
}
330
29
100
AcDbVisualStyle
  2
X-Ray
 70
    25
177
     3
291
     0
 70
    58
 90
        2
176
     1
 90
        2
176
     1
 90
        1
176
     1
 90
        1
176
     1
 40
0.5
176
     1
 40
30.0
176
     1
 62
     7
420
 16777215
176
     1
 90
        1
176
     1
 90
        0
176
     1
 62
     7
176
     1
 62
   257
176
     1
 90
        1
176
     1
 90
        1
176
     1
 40
1.0
176
     1
 90
        8
176
     1
 62
     7
176
     1
 40
1.0
176
     1
 90
        1
176
     1
 90
        6
176
     1
 90
        2
176
     1
 62
     7
176
     1
 90
        3
176
     1
 90
        0
176
     1
 90
        0
176
     1
290
     0
176
     1
 90
       13
176
     1
 40
0.0
176
     1
 90
        0
176
     1
290
     0
176
     1
290
     1
176
     1
290
     1
176
     1
290
     0
176
     1
290
     0
176
     1
290
     0
176
     1
290
     0
176
     1
290
     0
176
     1
290
     0
176
     1
 90
       50
176
     1
 40
0.0
176
     1
 40
1.0
176
     1
 90
        0
176
     1
 62
    18
420
        0
176
     1
 90
       50
176
     1
 90
        3
176
     1
 62
     5
420
      255
176
     1
290
     0
176
     1
 90
       50
176
     1
 90
       50
176
     1
 90
       50
176
     1
290
     0
176
     1
 90
       50
176
     1
 62
   256
176
     0
 40
1.0
176
     0
 90
        2
176
     1
  1
strokes_ogs.tif
176
     1
290
     0
176
     1
 40
1.0
176
     1
 40
1.0
176
     1
  0
DICTIONARYVAR
  5
166
102
{ACAD_REACTORS
330
161
102
}
330
161
100
DictionaryVariables
280
     0
  1
1:1
  0
DICTIONARYVAR
  5
163
102
{ACAD_REACTORS
330
161
102
}
330
161
100
DictionaryVariables
280
     0
  1
STANDARD
  0
DICTIONARYVAR
  5
162
102
{ACAD_REACTORS
330
161
102
}
330
161
100
DictionaryVariables
280
     0
  1
STANDARD
  0
DICTIONARYVAR
  5
164
102
{ACAD_REACTORS
330
161
102
}
330
161
100
DictionaryVariables
280
     0
  1
Imperial24
  0
DICTIONARYVAR
  5
165
102
{ACAD_REACTORS
330
161
102
}
330
161
100
DictionaryVariables
280
     0
  1
Imperial24
  0
DICTIONARY
  5
1A
330
19
100
AcDbDictionary
280
     1
281
     1
  3
BUMPTILE
360
1C
  3
DIFFUSETILE
360
1B
  3
OPACITYTILE
360
1F
  3
REFLECTIONTILE
360
1E
  3
REFRACTIONTILE
360
20
  3
SPECULARTILE
360
1D
  0
DICTIONARY
  5
12
330
11
100
AcDbDictionary
280
     1
281
     1
  3
BUMPTILE
360
14
  3
DIFFUSETILE
360
13
  3
OPACITYTILE
360
17
  3
REFLECTIONTILE
360
16
  3
REFRACTIONTILE
360
18
  3
SPECULARTILE
360
15
  0
DICTIONARY
  5
22
330
21
100
AcDbDictionary
280
     1
281
     1
  3
BUMPTILE
360
24
  3
DIFFUSETILE
360
23
  3
OPACITYTILE
360
27
  3
REFLECTIONTILE
360
26
  3
REFRACTIONTILE
360
28
  3
SPECULARTILE
360
25
  0
DICTIONARY
  5
167
330
65
100
AcDbDictionary
280
     1
281
     1
  3
ACAD_ROUNDTRIP_2008_TABLESTYLE_CELLSTYLEMAP
360
168
  0
XRECORD
  5
1C
102
{ACAD_REACTORS
330
1A
102
}
330
1A
100
AcDbXrecord
280
     1
270
     1
271
     1
  0
XRECORD
  5
1B
102
{ACAD_REACTORS
330
1A
102
}
330
1A
100
AcDbXrecord
280
     1
270
     1
271
     1
  0
XRECORD
  5
1F
102
{ACAD_REACTORS
330
1A
102
}
330
1A
100
AcDbXrecord
280
     1
270
     1
271
     1
  0
XRECORD
  5
1E
102
{ACAD_REACTORS
330
1A
102
}
330
1A
100
AcDbXrecord
280
     1
270
     1
271
     1
  0
XRECORD
  5
20
102
{ACAD_REACTORS
330
1A
102
}
330
1A
100
AcDbXrecord
280
     1
270
     1
271
     1
  0
XRECORD
  5
1D
102
{ACAD_REACTORS
330
1A
102
}
330
1A
100
AcDbXrecord
280
     1
270
     1
271
     1
  0
XRECORD
  5
14
102
{ACAD_REACTORS
330
12
102
}
330
12
100
AcDbXrecord
280
     1
270
     1
271
     1
  0
XRECORD
  5
13
102
{ACAD_REACTORS
330
12
102
}
330
12
100
AcDbXrecord
280
     1
270
     1
271
     1
  0
XRECORD
  5
17
102
{ACAD_REACTORS
330
12
102
}
330
12
100
AcDbXrecord
280
     1
270
     1
271
     1
  0
XRECORD
  5
16
102
{ACAD_REACTORS
330
12
102
}
330
12
100
AcDbXrecord
280
     1
270
     1
271
     1
  0
XRECORD
  5
18
102
{ACAD_REACTORS
330
12
102
}
330
12
100
AcDbXrecord
280
     1
270
     1
271
     1
  0
XRECORD
  5
15
102
{ACAD_REACTORS
330
12
102
}
330
12
100
AcDbXrecord
280
     1
270
     1
271
     1
  0
XRECORD
  5
24
102
{ACAD_REACTORS
330
22
102
}
330
22
100
AcDbXrecord
280
     1
270
     1
271
     1
  0
XRECORD
  5
23
102
{ACAD_REACTORS
330
22
102
}
330
22
100
AcDbXrecord
280
     1
270
     1
271
     1
  0
XRECORD
  5
27
102
{ACAD_REACTORS
330
22
102
}
330
22
100
AcDbXrecord
280
     1
270
     1
271
     1
  0
XRECORD
  5
26
102
{ACAD_REACTORS
330
22
102
}
330
22
100
AcDbXrecord
280
     1
270
     1
271
     1
  0
XRECORD
  5
28
102
{ACAD_REACTORS
330
22
102
}
330
22
100
AcDbXrecord
280
     1
270
     1
271
     1
  0
XRECORD
  5
25
102
{ACAD_REACTORS
330
22
102
}
330
22
100
AcDbXrecord
280
     1
270
     1
271
     1
  0
CELLSTYLEMAP
  5
168
102
{ACAD_REACTORS
330
167
102
}
330
167
100
AcDbCellStyleMap
 90
        3
300
CELLSTYLE
  1
TABLEFORMAT_BEGIN
 90
        5
170
     1
 91
        0
 92
    32768
 62
   257
 93
        1
300
CONTENTFORMAT
  1
CONTENTFORMAT_BEGIN
 90
        0
 91
        0
 92
      512
 93
        0
300

 40
0.0
140
1.0
 94
        5
 62
     0
340
55
144
0.25
309
CONTENTFORMAT_END
171
     0
 94
        0
309
TABLEFORMAT_END
  1
CELLSTYLE_BEGIN
 90
        1
 91
        1
300
_TITLE
309
CELLSTYLE_END
300
CELLSTYLE
  1
TABLEFORMAT_BEGIN
 90
        5
170
     1
 91
        0
 92
        0
 62
   257
 93
        1
300
CONTENTFORMAT
  1
CONTENTFORMAT_BEGIN
 90
        0
 91
        0
 92
      512
 93
        0
300

 40
0.0
140
1.0
 94
        5
 62
     0
340
55
144
0.18
309
CONTENTFORMAT_END
171
     0
 94
        0
309
TABLEFORMAT_END
  1
CELLSTYLE_BEGIN
 90
        2
 91
        1
300
_HEADER
309
CELLSTYLE_END
300
CELLSTYLE
  1
TABLEFORMAT_BEGIN
 90
        5
170
     1
 91
        0
 92
        0
 62
   257
 93
        1
300
CONTENTFORMAT
  1
CONTENTFORMAT_BEGIN
 90
        0
 91
        0
 92
      512
 93
        0
300

 40
0.0
140
1.0
 94
        2
 62
     0
340
55
144
0.18
309
CONTENTFORMAT_END
171
     0
 94
        0
309
TABLEFORMAT_END
  1
CELLSTYLE_BEGIN
 90
        3
 91
        2
300
_DATA
309
CELLSTYLE_END
  0
ENDSEC
  0
EOF
