  0
SECTION
  2
HEADER
  9
$ACADVER
  1
AC1032
  9
$ACADMAINTVER
 90
      197
  9
$DWGCODEPAGE
  3
ANSI_932
  9
$REQUIREDVERSIONS
160
                 0
  9
$INSBASE
 10
0.0
 20
0.0
 30
0.0
  9
$EXTMIN
 10
1.000000000000000E+20
 20
1.000000000000000E+20
 30
1.000000000000000E+20
  9
$EXTMAX
 10
-1.000000000000000E+20
 20
-1.000000000000000E+20
 30
-1.000000000000000E+20
  9
$LIMMIN
 10
0.0
 20
0.0
  9
$LIMMAX
 10
12.0
 20
9.0
  9
$ORTHOMODE
 70
     0
  9
$REGENMODE
 70
     1
  9
$FILLMODE
 70
     1
  9
$QTEXTMODE
 70
     0
  9
$MIRRTEXT
 70
     0
  9
$LTSCALE
 40
1.0
  9
$ATTMODE
 70
     1
  9
$TEXTSIZE
 40
0.2
  9
$TRACEWID
 40
0.05
  9
$TEXTSTYLE
  7
Standard
  9
$CLAYER
  8
0
  9
$CELTYPE
  6
ByLayer
  9
$CECOLOR
 62
   256
  9
$CELTSCALE
 40
1.0
  9
$DISPSILH
 70
     0
  9
$DIMSCALE
 40
1.0
  9
$DIMASZ
 40
0.18
  9
$DIMEXO
 40
0.0625
  9
$DIMDLI
 40
0.38
  9
$DIMRND
 40
0.0
  9
$DIMDLE
 40
0.0
  9
$DIMEXE
 40
0.18
  9
$DIMTP
 40
0.0
  9
$DIMTM
 40
0.0
  9
$DIMTXT
 40
0.18
  9
$DIMCEN
 40
0.09
  9
$DIMTSZ
 40
0.0
  9
$DIMTOL
 70
     0
  9
$DIMLIM
 70
     0
  9
$DIMTIH
 70
     1
  9
$DIMTOH
 70
     1
  9
$DIMSE1
 70
     0
  9
$DIMSE2
 70
     0
  9
$DIMTAD
 70
     0
  9
$DIMZIN
 70
     0
  9
$DIMBLK
  1

  9
$DIMASO
 70
     1
  9
$DIMSHO
 70
     1
  9
$DIMPOST
  1

  9
$DIMAPOST
  1

  9
$DIMALT
 70
     0
  9
$DIMALTD
 70
     2
  9
$DIMALTF
 40
25.4
  9
$DIMLFAC
 40
1.0
  9
$DIMTOFL
 70
     0
  9
$DIMTVP
 40
0.0
  9
$DIMTIX
 70
     0
  9
$DIMSOXD
 70
     0
  9
$DIMSAH
 70
     0
  9
$DIMBLK1
  1

  9
$DIMBLK2
  1

  9
$DIMSTYLE
  2
Standard
  9
$DIMCLRD
 70
     0
  9
$DIMCLRE
 70
     0
  9
$DIMCLRT
 70
     0
  9
$DIMTFAC
 40
1.0
  9
$DIMGAP
 40
0.09
  9
$DIMJUST
 70
     0
  9
$DIMSD1
 70
     0
  9
$DIMSD2
 70
     0
  9
$DIMTOLJ
 70
     1
  9
$DIMTZIN
 70
     0
  9
$DIMALTZ
 70
     0
  9
$DIMALTTZ
 70
     0
  9
$DIMUPT
 70
     0
  9
$DIMDEC
 70
     4
  9
$DIMTDEC
 70
     4
  9
$DIMALTU
 70
     2
  9
$DIMALTTD
 70
     2
  9
$DIMTXSTY
  7
Standard
  9
$DIMAUNIT
 70
     0
  9
$DIMADEC
 70
     0
  9
$DIMALTRND
 40
0.0
  9
$DIMAZIN
 70
     0
  9
$DIMDSEP
 70
    46
  9
$DIMATFIT
 70
     3
  9
$DIMFRAC
 70
     0
  9
$DIMLDRBLK
  1

  9
$DIMLUNIT
 70
     2
  9
$DIMLWD
 70
    -2
  9
$DIMLWE
 70
    -2
  9
$DIMTMOVE
 70
     0
  9
$DIMFXL
 40
1.0
  9
$DIMFXLON
 70
     0
  9
$DIMJOGANG
 40
0.7853981633974483
  9
$DIMTFILL
 70
     0
  9
$DIMTFILLCLR
 70
     0
  9
$DIMARCSYM
 70
     0
  9
$DIMLTYPE
  6

  9
$DIMLTEX1
  6

  9
$DIMLTEX2
  6

  9
$DIMTXTDIRECTION
 70
     0
  9
$LUNITS
 70
     2
  9
$LUPREC
 70
     4
  9
$SKETCHINC
 40
0.1
  9
$FILLETRAD
 40
0.0
  9
$AUNITS
 70
     0
  9
$AUPREC
 70
     0
  9
$MENU
  1
.
  9
$ELEVATION
 40
0.0
  9
$PELEVATION
 40
0.0
  9
$THICKNESS
 40
0.0
  9
$LIMCHECK
 70
     0
  9
$CHAMFERA
 40
0.0
  9
$CHAMFERB
 40
0.0
  9
$CHAMFERC
 40
0.0
  9
$CHAMFERD
 40
0.0
  9
$SKPOLY
 70
     0
  9
$TDCREATE
 40
2459605.662893519
  9
$TDUCREATE
 40
2459605.287893519
  9
$TDUPDATE
 40
2459605.662893519
  9
$TDUUPDATE
 40
2459605.287893519
  9
$TDINDWG
 40
0.0000000000
  9
$TDUSRTIMER
 40
0.0000000000
  9
$USRTIMER
 70
     1
  9
$ANGBASE
 50
0.0
  9
$ANGDIR
 70
     0
  9
$PDMODE
 70
     0
  9
$PDSIZE
 40
0.0
  9
$PLINEWID
 40
0.0
  9
$SPLFRAME
 70
     0
  9
$SPLINETYPE
 70
     6
  9
$SPLINESEGS
 70
     8
  9
$HANDSEED
  5
15B
  9
$SURFTAB1
 70
     6
  9
$SURFTAB2
 70
     6
  9
$SURFTYPE
 70
     6
  9
$SURFU
 70
     6
  9
$SURFV
 70
     6
  9
$UCSBASE
  2

  9
$UCSNAME
  2

  9
$UCSORG
 10
0.0
 20
0.0
 30
0.0
  9
$UCSXDIR
 10
1.0
 20
0.0
 30
0.0
  9
$UCSYDIR
 10
0.0
 20
1.0
 30
0.0
  9
$UCSORTHOREF
  2

  9
$UCSORTHOVIEW
 70
     0
  9
$UCSORGTOP
 10
0.0
 20
0.0
 30
0.0
  9
$UCSORGBOTTOM
 10
0.0
 20
0.0
 30
0.0
  9
$UCSORGLEFT
 10
0.0
 20
0.0
 30
0.0
  9
$UCSORGRIGHT
 10
0.0
 20
0.0
 30
0.0
  9
$UCSORGFRONT
 10
0.0
 20
0.0
 30
0.0
  9
$UCSORGBACK
 10
0.0
 20
0.0
 30
0.0
  9
$PUCSBASE
  2

  9
$PUCSNAME
  2

  9
$PUCSORG
 10
0.0
 20
0.0
 30
0.0
  9
$PUCSXDIR
 10
1.0
 20
0.0
 30
0.0
  9
$PUCSYDIR
 10
0.0
 20
1.0
 30
0.0
  9
$PUCSORTHOREF
  2

  9
$PUCSORTHOVIEW
 70
     0
  9
$PUCSORGTOP
 10
0.0
 20
0.0
 30
0.0
  9
$PUCSORGBOTTOM
 10
0.0
 20
0.0
 30
0.0
  9
$PUCSORGLEFT
 10
0.0
 20
0.0
 30
0.0
  9
$PUCSORGRIGHT
 10
0.0
 20
0.0
 30
0.0
  9
$PUCSORGFRONT
 10
0.0
 20
0.0
 30
0.0
  9
$PUCSORGBACK
 10
0.0
 20
0.0
 30
0.0
  9
$USERI1
 70
     0
  9
$USERI2
 70
     0
  9
$USERI3
 70
     0
  9
$USERI4
 70
     0
  9
$USERI5
 70
     0
  9
$USERR1
 40
0.0
  9
$USERR2
 40
0.0
  9
$USERR3
 40
0.0
  9
$USERR4
 40
0.0
  9
$USERR5
 40
0.0
  9
$WORLDVIEW
 70
     1
  9
$SHADEDGE
 70
     3
  9
$SHADEDIF
 70
    70
  9
$TILEMODE
 70
     1
  9
$MAXACTVP
 70
    64
  9
$PINSBASE
 10
0.0
 20
0.0
 30
0.0
  9
$PLIMCHECK
 70
     0
  9
$PEXTMIN
 10
1.000000000000000E+20
 20
1.000000000000000E+20
 30
1.000000000000000E+20
  9
$PEXTMAX
 10
-1.000000000000000E+20
 20
-1.000000000000000E+20
 30
-1.000000000000000E+20
  9
$PLIMMIN
 10
0.0
 20
0.0
  9
$PLIMMAX
 10
12.0
 20
9.0
  9
$UNITMODE
 70
     0
  9
$VISRETAIN
 70
     1
  9
$PLINEGEN
 70
     0
  9
$PSLTSCALE
 70
     1
  9
$TREEDEPTH
 70
  3020
  9
$CMLSTYLE
  2
Standard
  9
$CMLJUST
 70
     0
  9
$CMLSCALE
 40
1.0
  9
$PROXYGRAPHICS
 70
     1
  9
$MEASUREMENT
 70
     0
  9
$CELWEIGHT
370
    -1
  9
$ENDCAPS
280
     0
  9
$JOINSTYLE
280
     0
  9
$LWDISPLAY
290
     1
  9
$INSUNITS
 70
     4
  9
$HYPERLINKBASE
  1

  9
$STYLESHEET
  1

  9
$XEDIT
290
     1
  9
$CEPSNTYPE
380
     0
  9
$PSTYLEMODE
290
     1
  9
$FINGERPRINTGUID
  2
{F2BF6B3C-C067-3443-8B4F-DB6ECB7786A5}
  9
$VERSIONGUID
  2
{3AC8D020-7B1F-9D40-8188-C78F8707D796}
  9
$EXTNAMES
290
     1
  9
$PSVPSCALE
 40
0.0
  9
$OLESTARTUP
290
     0
  9
$SORTENTS
280
   127
  9
$INDEXCTL
280
     0
  9
$HIDETEXT
280
     1
  9
$XCLIPFRAME
280
     2
  9
$HALOGAP
280
     0
  9
$OBSCOLOR
 70
   257
  9
$OBSLTYPE
280
     0
  9
$INTERSECTIONDISPLAY
280
     0
  9
$INTERSECTIONCOLOR
 70
   257
  9
$DIMASSOC
280
     2
  9
$PROJECTNAME
  1

  9
$CAMERADISPLAY
290
     0
  9
$LENSLENGTH
 40
50.0
  9
$CAMERAHEIGHT
 40
0.0
  9
$STEPSPERSEC
 40
2.0
  9
$STEPSIZE
 40
6.0
  9
$3DDWFPREC
 40
2.0
  9
$PSOLWIDTH
 40
0.25
  9
$PSOLHEIGHT
 40
4.0
  9
$LOFTANG1
 40
1.570796326794896
  9
$LOFTANG2
 40
1.570796326794896
  9
$LOFTMAG1
 40
0.0
  9
$LOFTMAG2
 40
0.0
  9
$LOFTPARAM
 70
     7
  9
$LOFTNORMALS
280
     1
  9
$LATITUDE
 40
37.795
  9
$LONGITUDE
 40
-122.394
  9
$NORTHDIRECTION
 40
0.0
  9
$TIMEZONE
 70
 -8000
  9
$LIGHTGLYPHDISPLAY
280
     1
  9
$TILEMODELIGHTSYNCH
280
     1
  9
$CMATERIAL
347
11
  9
$SOLIDHIST
280
     0
  9
$SHOWHIST
280
     1
  9
$DWFFRAME
280
     2
  9
$DGNFRAME
280
     0
  9
$REALWORLDSCALE
290
     1
  9
$INTERFERECOLOR
 62
     1
  9
$INTERFEREOBJVS
345
33
  9
$INTERFEREVPVS
346
30
  9
$CSHADOW
280
     0
  9
$SHADOWPLANELOCATION
 40
0.0
  0
ENDSEC
  0
SECTION
  2
CLASSES
  0
CLASS
  1
ACDBDICTIONARYWDFLT
  2
AcDbDictionaryWithDefault
  3
ObjectDBX Classes
 90
        0
 91
        1
280
     0
281
     0
  0
CLASS
  1
MATERIAL
  2
AcDbMaterial
  3
ObjectDBX Classes
 90
     1153
 91
        3
280
     0
281
     0
  0
CLASS
  1
VISUALSTYLE
  2
AcDbVisualStyle
  3
ObjectDBX Classes
 90
     4095
 91
       24
280
     0
281
     0
  0
CLASS
  1
SCALE
  2
AcDbScale
  3
ObjectDBX Classes
 90
     1153
 91
       17
280
     0
281
     0
  0
CLASS
  1
TABLESTYLE
  2
AcDbTableStyle
  3
ObjectDBX Classes
 90
     4095
 91
        1
280
     0
281
     0
  0
CLASS
  1
MLEADERSTYLE
  2
AcDbMLeaderStyle
  3
ACDB_MLEADERSTYLE_CLASS
 90
     4095
 91
        1
280
     0
281
     0
  0
CLASS
  1
ACDBSECTIONVIEWSTYLE
  2
AcDbSectionViewStyle
  3
ObjectDBX Classes
 90
     1025
 91
        1
280
     0
281
     0
  0
CLASS
  1
ACDBDETAILVIEWSTYLE
  2
AcDbDetailViewStyle
  3
ObjectDBX Classes
 90
     1025
 91
        1
280
     0
281
     0
  0
CLASS
  1
DICTIONARYVAR
  2
AcDbDictionaryVar
  3
ObjectDBX Classes
 90
        0
 91
        5
280
     0
281
     0
  0
CLASS
  1
CELLSTYLEMAP
  2
AcDbCellStyleMap
  3
ObjectDBX Classes
 90
     1152
 91
        1
280
     0
281
     0
  0
ENDSEC
  0
SECTION
  2
TABLES
  0
TABLE
  2
VPORT
  5
8
330
0
100
AcDbSymbolTable
 70
     1
  0
VPORT
  5
57
330
8
100
AcDbSymbolTableRecord
100
AcDbViewportTableRecord
  2
*Active
 70
     0
 10
0.0
 20
0.0
 11
1.0
 21
1.0
 12
0.0
 22
0.0
 13
0.0
 23
0.0
 14
1.0
 24
1.0
 15
0.0
 25
0.0
 16
0.0
 26
0.0
 36
1.0
 17
105.0078345989922
 27
148.5053410476718
 37
0.0
 40
302.9508957372506
 41
0.7070980333648977
 42
50.0
 43
0.0
 44
0.0
 50
0.0
 51
0.0
 71
     0
 72
   100
 73
     1
 74
     1
 75
     0
 76
     0
 77
     0
 78
     0
281
     0
 65
     1
110
0.0
120
0.0
130
0.0
111
1.0
121
0.0
131
0.0
112
0.0
122
1.0
132
0.0
 79
     0
146
0.0
 60
     3
 61
     5
292
     1
282
     1
141
0.0
142
0.0
 63
   250
421
  3355443
  0
ENDTAB
  0
TABLE
  2
LTYPE
  5
5
330
0
100
AcDbSymbolTable
 70
     1
  0
LTYPE
  5
5B
330
5
100
AcDbSymbolTableRecord
100
AcDbLinetypeTableRecord
  2
ByBlock
 70
     0
  3

 72
    65
 73
     0
 40
0.0
  0
LTYPE
  5
5C
330
5
100
AcDbSymbolTableRecord
100
AcDbLinetypeTableRecord
  2
ByLayer
 70
     0
  3

 72
    65
 73
     0
 40
0.0
  0
LTYPE
  5
5D
330
5
100
AcDbSymbolTableRecord
100
AcDbLinetypeTableRecord
  2
Continuous
 70
     0
  3
Solid line
 72
    65
 73
     0
 40
0.0
  0
ENDTAB
  0
TABLE
  2
LAYER
  5
2
330
0
100
AcDbSymbolTable
 70
     2
  0
LAYER
  5
54
330
2
100
AcDbSymbolTableRecord
100
AcDbLayerTableRecord
  2
0
 70
     0
 62
     7
  6
Continuous
370
    -3
390
F
347
21
348
0
  0
LAYER
  5
78
330
2
100
AcDbSymbolTableRecord
100
AcDbLayerTableRecord
  2
レイヤー 1
 70
     0
 62
     7
  6
Continuous
370
     0
390
F
347
21
348
0
  0
ENDTAB
  0
TABLE
  2
STYLE
  5
3
330
0
100
AcDbSymbolTable
 70
     2
  0
STYLE
  5
55
330
3
100
AcDbSymbolTableRecord
100
AcDbTextStyleTableRecord
  2
Standard
 70
     0
 40
0.0
 41
1.0
 50
0.0
 71
     0
 42
0.2
  3
txt
  4

  0
STYLE
  5
5A
330
3
100
AcDbSymbolTableRecord
100
AcDbTextStyleTableRecord
  2
Annotative
 70
     0
 40
0.0
 41
1.0
 50
0.0
 71
     0
 42
0.2
  3
txt
  4

1001
AcadAnnotative
1000
AnnotativeData
1002
{
1070
     1
1070
     1
1002
}
  0
ENDTAB
  0
TABLE
  2
VIEW
  5
6
330
0
100
AcDbSymbolTable
 70
     0
  0
ENDTAB
  0
TABLE
  2
UCS
  5
7
330
0
100
AcDbSymbolTable
 70
     0
  0
ENDTAB
  0
TABLE
  2
APPID
  5
9
330
0
100
AcDbSymbolTable
 70
     2
  0
APPID
  5
56
330
9
100
AcDbSymbolTableRecord
100
AcDbRegAppTableRecord
  2
ACAD
 70
     0
  0
APPID
  5
5E
330
9
100
AcDbSymbolTableRecord
100
AcDbRegAppTableRecord
  2
AcadAnnotative
 70
     0
  0
ENDTAB
  0
TABLE
  2
DIMSTYLE
  5
A
330
0
100
AcDbSymbolTable
 70
     2
100
AcDbDimStyleTable
 71
     0
  0
DIMSTYLE
105
58
330
A
100
AcDbSymbolTableRecord
100
AcDbDimStyleTableRecord
  2
Standard
 70
     0
340
55
  0
DIMSTYLE
105
59
330
A
100
AcDbSymbolTableRecord
100
AcDbDimStyleTableRecord
  2
Annotative
 70
     0
340
55
1001
AcadAnnotative
1000
AnnotativeData
1002
{
1070
     1
1070
     1
1002
}
  0
ENDTAB
  0
TABLE
  2
BLOCK_RECORD
  5
1
330
0
100
AcDbSymbolTable
 70
     1
  0
BLOCK_RECORD
  5
70
330
1
100
AcDbSymbolTableRecord
100
AcDbBlockTableRecord
  2
*Model_Space
340
73
 70
     0
280
     1
281
     0
  0
BLOCK_RECORD
  5
6C
330
1
100
AcDbSymbolTableRecord
100
AcDbBlockTableRecord
  2
*Paper_Space
340
6F
 70
     0
280
     1
281
     0
  0
BLOCK_RECORD
  5
74
330
1
100
AcDbSymbolTableRecord
100
AcDbBlockTableRecord
  2
*Paper_Space0
340
77
 70
     0
280
     1
281
     0
  0
ENDTAB
  0
ENDSEC
  0
SECTION
  2
BLOCKS
  0
BLOCK
  5
71
330
70
100
AcDbEntity
  8
0
100
AcDbBlockBegin
  2
*Model_Space
 70
     0
 10
0.0
 20
0.0
 30
0.0
  3
*Model_Space
  1

  0
ENDBLK
  5
72
330
70
100
AcDbEntity
  8
0
100
AcDbBlockEnd
  0
BLOCK
  5
6D
330
6C
100
AcDbEntity
 67
     1
  8
0
100
AcDbBlockBegin
  2
*Paper_Space
 70
     0
 10
0.0
 20
0.0
 30
0.0
  3
*Paper_Space
  1

  0
ENDBLK
  5
6E
330
6C
100
AcDbEntity
 67
     1
  8
0
100
AcDbBlockEnd
  0
BLOCK
  5
75
330
74
100
AcDbEntity
 67
     1
  8
0
100
AcDbBlockBegin
  2
*Paper_Space0
 70
     0
 10
0.0
 20
0.0
 30
0.0
  3
*Paper_Space0
  1

  0
ENDBLK
  5
76
330
74
100
AcDbEntity
 67
     1
  8
0
100
AcDbBlockEnd
  0
ENDSEC
  0
SECTION
  2
ENTITIES
  0
SPLINE
  5
79
330
70
100
AcDbEntity
  8
レイヤー 1
 62
    18
420
        0
370
    25
100
AcDbSpline
210
0.0
220
0.0
230
1.0
 70
    24
 71
     3
 72
     8
 73
     4
 74
     0
 42
0.0000000001
 43
0.0000000001
 40
0.0
 40
0.0
 40
0.0
 40
0.0
 40
1.0
 40
1.0
 40
1.0
 40
1.0
 10
122.4703345946265
 20
122.5126769713249
 30
0.0
 10
122.4703345946265
 20
122.5126769713249
 30
0.0
 10
122.4703345946265
 20
122.2163341640531
 30
0.0
 10
122.4703345946265
 20
122.2163341640531
 30
0.0
  0
SPLINE
  5
7A
330
70
100
AcDbEntity
  8
レイヤー 1
 62
    18
420
        0
370
    25
100
AcDbSpline
210
0.0
220
0.0
230
1.0
 70
    24
 71
     3
 72
     8
 73
     4
 74
     0
 42
0.0000000001
 43
0.0000000001
 40
0.0
 40
0.0
 40
0.0
 40
0.0
 40
1.0
 40
1.0
 40
1.0
 40
1.0
 10
111.5906584566672
 20
171.4500107230609
 30
0.0
 10
111.5906584566672
 20
171.4500107230609
 30
0.0
 10
119.6339982475437
 20
122.5126769713249
 30
0.0
 10
119.6339982475437
 20
122.5126769713249
 30
0.0
  0
SPLINE
  5
7B
330
70
100
AcDbEntity
  8
レイヤー 1
 62
    18
420
        0
370
    25
100
AcDbSpline
210
0.0
220
0.0
230
1.0
 70
    24
 71
     3
 72
     8
 73
     4
 74
     0
 42
0.0000000001
 43
0.0000000001
 40
0.0
 40
0.0
 40
0.0
 40
0.0
 40
1.0
 40
1.0
 40
1.0
 40
1.0
 10
110.4053302912734
 20
171.4500107230609
 30
0.0
 10
110.4053302912734
 20
171.4500107230609
 30
0.0
 10
118.4486593162266
 20
122.5126769713249
 30
0.0
 10
118.4486593162266
 20
122.5126769713249
 30
0.0
  0
SPLINE
  5
7C
330
70
100
AcDbEntity
  8
レイヤー 1
 62
    18
420
        0
370
    25
100
AcDbSpline
210
0.0
220
0.0
230
1.0
 70
    24
 71
     3
 72
     8
 73
     4
 74
     0
 42
0.0000000001
 43
0.0000000001
 40
0.0
 40
0.0
 40
0.0
 40
0.0
 40
1.0
 40
1.0
 40
1.0
 40
1.0
 10
108.5849956664844
 20
174.9636743743906
 30
0.0
 10
108.5849956664844
 20
174.9636743743906
 30
0.0
 10
90.59332900431565
 20
187.5366580070438
 30
0.0
 10
90.59332900431565
 20
187.5366580070438
 30
0.0
  0
SPLINE
  5
7D
330
70
100
AcDbEntity
  8
レイヤー 1
 62
    18
420
        0
370
    25
100
AcDbSpline
210
0.0
220
0.0
230
1.0
 70
    24
 71
     3
 72
     8
 73
     4
 74
     0
 42
0.0000000001
 43
0.0000000001
 40
0.0
 40
0.0
 40
0.0
 40
0.0
 40
1.0
 40
1.0
 40
1.0
 40
1.0
 10
89.78900148478203
 20
188.1293436215874
 30
0.0
 10
89.78900148478203
 20
188.1293436215874
 30
0.0
 10
86.57166987480078
 20
190.37300512005
 30
0.0
 10
86.57166987480078
 20
190.37300512005
 30
0.0
  0
SPLINE
  5
7E
330
70
100
AcDbEntity
  8
レイヤー 1
 62
    18
420
        0
370
    25
100
AcDbSpline
210
0.0
220
0.0
230
1.0
 70
    24
 71
     3
 72
     8
 73
     4
 74
     0
 42
0.0000000001
 43
0.0000000001
 40
0.0
 40
0.0
 40
0.0
 40
0.0
 40
1.0
 40
1.0
 40
1.0
 40
1.0
 10
109.2623337366547
 20
175.9373337199859
 30
0.0
 10
109.2623337366547
 20
175.9373337199859
 30
0.0
 10
87.24900256200937
 20
191.3466752315687
 30
0.0
 10
87.24900256200937
 20
191.3466752315687
 30
0.0
  0
LWPOLYLINE
  5
7F
330
70
100
AcDbEntity
  8
レイヤー 1
 62
    18
420
        0
370
    25
100
AcDbPolyline
 90
        6
 70
     0
 43
0.0
 10
110.4053302912734
 20
171.4500107230609
 10
110.3206563038
 20
172.2543436255562
 10
110.108998249925
 20
173.0586765280515
 10
109.7279922211031
 20
173.7783462089968
 10
109.2199913599563
 20
174.4133526683921
 10
108.5849956664844
 20
174.9636743743906
  0
LWPOLYLINE
  5
80
330
70
100
AcDbEntity
  8
レイヤー 1
 62
    18
420
        0
370
    25
100
AcDbPolyline
 90
        7
 70
     0
 43
0.0
 10
111.5906692225906
 20
171.4500107230609
 10
111.5059952351172
 20
172.2966860022546
 10
111.2943371812421
 20
173.1433397496015
 10
110.9556627631953
 20
173.9900150287952
 10
110.4899935128234
 20
174.7096847097405
 10
109.9396610409016
 20
175.3870120139874
 10
109.2623229707313
 20
175.9373444859093
  0
SPLINE
  5
81
330
70
100
AcDbEntity
  8
レイヤー 1
 62
    18
420
        0
370
    25
100
AcDbSpline
210
0.0
220
0.0
230
1.0
 70
    24
 71
     3
 72
     8
 73
     4
 74
     0
 42
0.0000000001
 43
0.0000000001
 40
0.0
 40
0.0
 40
0.0
 40
0.0
 40
1.0
 40
1.0
 40
1.0
 40
1.0
 10
110.9979943739703
 20
173.9900150287952
 30
0.0
 10
110.9979943739703
 20
173.9900150287952
 30
0.0
 10
111.0403259847453
 20
173.9900150287952
 30
0.0
 10
111.0403259847453
 20
173.9900150287952
 30
0.0
  0
SPLINE
  5
82
330
70
100
AcDbEntity
  8
レイヤー 1
 62
    18
420
        0
370
    25
100
AcDbSpline
210
0.0
220
0.0
230
1.0
 70
    24
 71
     3
 72
     8
 73
     4
 74
     0
 42
0.0000000001
 43
0.0000000001
 40
0.0
 40
0.0
 40
0.0
 40
0.0
 40
1.0
 40
1.0
 40
1.0
 40
1.0
 10
90.59331823839226
 20
187.5366795388906
 30
0.0
 10
90.59331823839226
 20
187.5366795388906
 30
0.0
 10
89.02698942713833
 20
185.2929965085812
 30
0.0
 10
89.02698942713833
 20
185.2929965085812
 30
0.0
  0
SPLINE
  5
83
330
70
100
AcDbEntity
  8
レイヤー 1
 62
    18
420
        0
370
    25
100
AcDbSpline
210
0.0
220
0.0
230
1.0
 70
    24
 71
     3
 72
     8
 73
     4
 74
     0
 42
0.0000000001
 43
0.0000000001
 40
0.0
 40
0.0
 40
0.0
 40
0.0
 40
1.0
 40
1.0
 40
1.0
 40
1.0
 10
89.78899071885864
 20
187.2826683423937
 30
0.0
 10
89.78899071885864
 20
187.2826683423937
 30
0.0
 10
90.2123283584555
 20
186.9863470669687
 30
0.0
 10
90.2123283584555
 20
186.9863470669687
 30
0.0
  0
SPLINE
  5
84
330
70
100
AcDbEntity
  8
レイヤー 1
 62
    18
420
        0
370
    25
100
AcDbSpline
210
0.0
220
0.0
230
1.0
 70
    24
 71
     3
 72
     8
 73
     4
 74
     0
 42
0.0000000001
 43
0.0000000001
 40
0.0
 40
0.0
 40
0.0
 40
0.0
 40
1.0
 40
1.0
 40
1.0
 40
1.0
 10
89.78899071885864
 20
188.1293436215874
 30
0.0
 10
89.78899071885864
 20
188.1293436215874
 30
0.0
 10
88.22265652464301
 20
185.8856605912782
 30
0.0
 10
88.22265652464301
 20
185.8856605912782
 30
0.0
  0
SPLINE
  5
85
330
70
100
AcDbEntity
  8
レイヤー 1
 62
    18
420
        0
370
    25
100
AcDbSpline
210
0.0
220
0.0
230
1.0
 70
    24
 71
     3
 72
     8
 73
     4
 74
     0
 42
0.0000000001
 43
0.0000000001
 40
0.0
 40
0.0
 40
0.0
 40
0.0
 40
1.0
 40
1.0
 40
1.0
 40
1.0
 10
89.78899071885864
 20
187.2826683423937
 30
0.0
 10
89.78899071885864
 20
187.2826683423937
 30
0.0
 10
89.40799007299849
 20
187.5366795388906
 30
0.0
 10
89.40799007299849
 20
187.5366795388906
 30
0.0
  0
LWPOLYLINE
  5
86
330
70
100
AcDbEntity
  8
レイヤー 1
 62
    18
420
        0
370
    25
100
AcDbPolyline
 90
        5
 70
     0
 43
0.0
 10
90.59332900431565
 20
187.5366795388906
 10
90.55099739354064
 20
187.8330008143156
 10
90.33932857374221
 20
188.0446804000374
 10
90.08533352613047
 20
188.1716752323624
 10
89.78899610182033
 20
188.1293436215874
  0
LWPOLYLINE
  5
87
330
70
100
AcDbEntity
  8
レイヤー 1
 62
    18
420
        0
370
    25
100
AcDbPolyline
 90
       15
 70
     0
 43
0.0
 10
134.6623337303046
 20
119.1260189182437
 10
134.8739917841797
 20
119.2953453613437
 10
134.9586657716531
 20
119.3800085828937
 10
135.0433289932031
 20
119.4646825703671
 10
135.0433289932031
 20
119.5070141811421
 10
135.0009973824281
 20
119.5916774026921
 10
134.9163233949547
 20
119.6763513901655
 10
134.8316601734047
 20
119.7610146117155
 10
134.7469969518547
 20
119.8456778332656
 10
134.6623337303046
 20
119.8880094440406
 10
134.6623337303046
 20
119.972683431514
 10
134.6623337303046
 20
120.057346653064
 10
134.7469969518547
 20
120.142009874614
 10
134.8316601734047
 20
120.2266838620874
 10
135.0433289932031
 20
120.3960103051874
  0
LWPOLYLINE
  5
88
330
70
100
AcDbEntity
  8
レイヤー 1
 62
    18
420
        0
370
    25
100
AcDbPolyline
 90
       15
 70
     0
 43
0.0
 10
135.2550085789249
 20
119.1260189182437
 10
135.508998243575
 20
119.2953453613437
 10
135.5936722310484
 20
119.3800085828937
 10
135.6360038418234
 20
119.4646825703671
 10
135.6360038418234
 20
119.5070141811421
 10
135.6360038418234
 20
119.5916774026921
 10
135.5513406202734
 20
119.6763513901655
 10
135.4666666328
 20
119.7610146117155
 10
135.38200341125
 20
119.8456778332656
 10
135.2973401897
 20
119.8880094440406
 10
135.2550085789249
 20
119.972683431514
 10
135.2973401897
 20
120.057346653064
 10
135.3396718004749
 20
120.142009874614
 10
135.424335022025
 20
120.2266838620874
 10
135.6360038418234
 20
120.3960103051874
  0
SPLINE
  5
89
330
70
100
AcDbEntity
  8
レイヤー 1
 62
    18
420
        0
370
    25
100
AcDbSpline
210
0.0
220
0.0
230
1.0
 70
    24
 71
     3
 72
     8
 73
     4
 74
     0
 42
0.0000000001
 43
0.0000000001
 40
0.0
 40
0.0
 40
0.0
 40
0.0
 40
1.0
 40
1.0
 40
1.0
 40
1.0
 10
120.6499999698375
 20
119.5070141811421
 30
0.0
 10
120.6499999698375
 20
119.5070141811421
 30
0.0
 10
135.0433289932031
 20
119.5070141811421
 30
0.0
 10
135.0433289932031
 20
119.5070141811421
 30
0.0
  0
SPLINE
  5
8A
330
70
100
AcDbEntity
  8
レイヤー 1
 62
    18
420
        0
370
    25
100
AcDbSpline
210
0.0
220
0.0
230
1.0
 70
    24
 71
     3
 72
     8
 73
     4
 74
     0
 42
0.0000000001
 43
0.0000000001
 40
0.0
 40
0.0
 40
0.0
 40
0.0
 40
1.0
 40
1.0
 40
1.0
 40
1.0
 10
135.6359930759
 20
119.5070141811421
 30
0.0
 10
135.6359930759
 20
119.5070141811421
 30
0.0
 10
152.7809952247984
 20
119.5070141811421
 30
0.0
 10
152.7809952247984
 20
119.5070141811421
 30
0.0
  0
SPLINE
  5
8B
330
70
100
AcDbEntity
  8
レイヤー 1
 62
    18
420
        0
370
    25
100
AcDbSpline
210
0.0
220
0.0
230
1.0
 70
    24
 71
     3
 72
     8
 73
     4
 74
     0
 42
0.0000000001
 43
0.0000000001
 40
0.0
 40
0.0
 40
0.0
 40
0.0
 40
1.0
 40
1.0
 40
1.0
 40
1.0
 10
135.2973294237765
 20
120.099678263839
 30
0.0
 10
135.2973294237765
 20
120.099678263839
 30
0.0
 10
152.7809952247984
 20
120.099678263839
 30
0.0
 10
152.7809952247984
 20
120.099678263839
 30
0.0
  0
SPLINE
  5
8C
330
70
100
AcDbEntity
  8
レイヤー 1
 62
    18
420
        0
370
    25
100
AcDbSpline
210
0.0
220
0.0
230
1.0
 70
    24
 71
     3
 72
     8
 73
     4
 74
     0
 42
0.0000000001
 43
0.0000000001
 40
0.0
 40
0.0
 40
0.0
 40
0.0
 40
1.0
 40
1.0
 40
1.0
 40
1.0
 10
121.3696588848594
 20
120.099678263839
 30
0.0
 10
121.3696588848594
 20
120.099678263839
 30
0.0
 10
134.7046653410797
 20
120.099678263839
 30
0.0
 10
134.7046653410797
 20
120.099678263839
 30
0.0
  0
SPLINE
  5
8D
330
70
100
AcDbEntity
  8
レイヤー 1
 62
    18
420
        0
370
    25
100
AcDbSpline
210
0.0
220
0.0
230
1.0
 70
    24
 71
     3
 72
     8
 73
     4
 74
     0
 42
0.0000000001
 43
0.0000000001
 40
0.0
 40
0.0
 40
0.0
 40
0.0
 40
1.0
 40
1.0
 40
1.0
 40
1.0
 10
135.2973294237765
 20
120.099678263839
 30
0.0
 10
135.2973294237765
 20
120.099678263839
 30
0.0
 10
135.6359930759
 20
120.099678263839
 30
0.0
 10
135.6359930759
 20
120.099678263839
 30
0.0
  0
SPLINE
  5
8E
330
70
100
AcDbEntity
  8
レイヤー 1
 62
    18
420
        0
370
    25
100
AcDbSpline
210
0.0
220
0.0
230
1.0
 70
    24
 71
     3
 72
     8
 73
     4
 74
     0
 42
0.0000000001
 43
0.0000000001
 40
0.0
 40
0.0
 40
0.0
 40
0.0
 40
1.0
 40
1.0
 40
1.0
 40
1.0
 10
155.7866580149813
 20
145.2456778269156
 30
0.0
 10
155.7866580149813
 20
145.2456778269156
 30
0.0
 10
155.7866580149813
 20
123.1053410540218
 30
0.0
 10
155.7866580149813
 20
123.1053410540218
 30
0.0
  0
LWPOLYLINE
  5
8F
330
70
100
AcDbEntity
  8
レイヤー 1
 62
    18
420
        0
370
    25
100
AcDbPolyline
 90
        8
 70
     0
 43
0.0
 10
152.7810059907218
 20
120.099678263839
 10
153.4583332949687
 20
120.142009874614
 10
154.0933289884406
 20
120.3960103051874
 10
154.6436722262859
 20
120.7346739573109
 10
155.1093307107344
 20
121.2003432076828
 10
155.4903367395562
 20
121.7930072903796
 10
155.7020055593546
 20
122.4280029838515
 10
155.7866687809046
 20
123.1053410540218
  0
LWPOLYLINE
  5
90
330
70
100
AcDbEntity
  8
レイヤー 1
 62
    18
420
        0
370
    25
100
AcDbPolyline
 90
        8
 70
     0
 43
0.0
 10
152.7810059907218
 20
119.5070141811421
 10
153.5853388932171
 20
119.5916774026921
 10
154.3473294190141
 20
119.8456778332656
 10
155.0246674891844
 20
120.269004706939
 10
155.5749999611062
 20
120.8616795555593
 10
155.9983376007031
 20
121.5390068598062
 10
156.2523380312765
 20
122.3010081515265
 10
156.3370012528265
 20
123.1053410540218
  0
SPLINE
  5
91
330
70
100
AcDbEntity
  8
レイヤー 1
 62
    18
420
        0
370
    25
100
AcDbSpline
210
0.0
220
0.0
230
1.0
 70
    24
 71
     3
 72
     8
 73
     4
 74
     0
 42
0.0000000001
 43
0.0000000001
 40
0.0
 40
0.0
 40
0.0
 40
0.0
 40
1.0
 40
1.0
 40
1.0
 40
1.0
 10
157.2259973768719
 20
149.9446804095624
 30
0.0
 10
157.2259973768719
 20
149.9446804095624
 30
0.0
 10
156.0829900563297
 20
149.9446804095624
 30
0.0
 10
156.0829900563297
 20
149.9446804095624
 30
0.0
  0
SPLINE
  5
92
330
70
100
AcDbEntity
  8
レイヤー 1
 62
    18
420
        0
370
    25
100
AcDbSpline
210
0.0
220
0.0
230
1.0
 70
    24
 71
     3
 72
     8
 73
     4
 74
     0
 42
0.0000000001
 43
0.0000000001
 40
0.0
 40
0.0
 40
0.0
 40
0.0
 40
1.0
 40
1.0
 40
1.0
 40
1.0
 10
157.1413233893984
 20
149.6483376022906
 30
0.0
 10
157.1413233893984
 20
149.6483376022906
 30
0.0
 10
156.0829900563297
 20
149.6483376022906
 30
0.0
 10
156.0829900563297
 20
149.6483376022906
 30
0.0
  0
SPLINE
  5
93
330
70
100
AcDbEntity
  8
レイヤー 1
 62
    18
420
        0
370
    25
100
AcDbSpline
210
0.0
220
0.0
230
1.0
 70
    24
 71
     3
 72
     8
 73
     4
 74
     0
 42
0.0000000001
 43
0.0000000001
 40
0.0
 40
0.0
 40
0.0
 40
0.0
 40
1.0
 40
1.0
 40
1.0
 40
1.0
 10
157.2259973768719
 20
149.733011589764
 30
0.0
 10
157.2259973768719
 20
149.733011589764
 30
0.0
 10
156.0829900563297
 20
149.733011589764
 30
0.0
 10
156.0829900563297
 20
149.733011589764
 30
0.0
  0
SPLINE
  5
94
330
70
100
AcDbEntity
  8
レイヤー 1
 62
    18
420
        0
370
    25
100
AcDbSpline
210
0.0
220
0.0
230
1.0
 70
    24
 71
     3
 72
     8
 73
     4
 74
     0
 42
0.0000000001
 43
0.0000000001
 40
0.0
 40
0.0
 40
0.0
 40
0.0
 40
1.0
 40
1.0
 40
1.0
 40
1.0
 10
156.84499134805
 20
147.0236700750062
 30
0.0
 10
156.84499134805
 20
147.0236700750062
 30
0.0
 10
156.0829900563297
 20
147.0236700750062
 30
0.0
 10
156.0829900563297
 20
147.0236700750062
 30
0.0
  0
SPLINE
  5
95
330
70
100
AcDbEntity
  8
レイヤー 1
 62
    18
420
        0
370
    25
100
AcDbSpline
210
0.0
220
0.0
230
1.0
 70
    24
 71
     3
 72
     8
 73
     4
 74
     0
 42
0.0000000001
 43
0.0000000001
 40
0.0
 40
0.0
 40
0.0
 40
0.0
 40
1.0
 40
1.0
 40
1.0
 40
1.0
 10
156.6333225282516
 20
146.8120120211312
 30
0.0
 10
156.6333225282516
 20
146.8120120211312
 30
0.0
 10
156.0829900563297
 20
146.8120120211312
 30
0.0
 10
156.0829900563297
 20
146.8120120211312
 30
0.0
  0
SPLINE
  5
96
330
70
100
AcDbEntity
  8
レイヤー 1
 62
    18
420
        0
370
    25
100
AcDbSpline
210
0.0
220
0.0
230
1.0
 70
    24
 71
     3
 72
     8
 73
     4
 74
     0
 42
0.0000000001
 43
0.0000000001
 40
0.0
 40
0.0
 40
0.0
 40
0.0
 40
1.0
 40
1.0
 40
1.0
 40
1.0
 10
156.0829900563297
 20
145.2456778269156
 30
0.0
 10
156.0829900563297
 20
145.2456778269156
 30
0.0
 10
156.4639960851516
 20
145.2456778269156
 30
0.0
 10
156.4639960851516
 20
145.2456778269156
 30
0.0
  0
LWPOLYLINE
  5
97
330
70
100
AcDbEntity
  8
レイヤー 1
 62
    18
420
        0
370
    25
100
AcDbPolyline
 90
        9
 70
     0
 43
0.0
 10
155.2786679197578
 20
147.320012882278
 10
155.4056627520828
 20
147.404676103828
 10
155.4479943628578
 20
147.5740025469281
 10
155.4903259736328
 20
147.8280029775016
 10
155.4479943628578
 20
148.1243457847734
 10
155.3633311413078
 20
148.4206778261218
 10
155.1093307107344
 20
149.0556735195937
 10
155.0246674891844
 20
149.3520055609421
 10
154.9823251124859
 20
149.6483376022906
  0
LWPOLYLINE
  5
98
330
70
100
AcDbEntity
  8
レイヤー 1
 62
    18
420
        0
370
    25
100
AcDbPolyline
 90
        5
 70
     0
 43
0.0
 10
155.4903259736328
 20
146.8120120211312
 10
155.5749999611062
 20
145.3303410484656
 10
155.6173208059578
 20
145.2880094376906
 10
155.6596631826562
 20
145.2456885928389
 10
156.0829900563297
 20
145.2456885928389
  0
LWPOLYLINE
  5
99
330
70
100
AcDbEntity
  8
レイヤー 1
 62
    18
420
        0
370
    25
100
AcDbPolyline
 90
        3
 70
     0
 43
0.0
 10
155.4903259736328
 20
146.8120120211312
 10
155.2786679197578
 20
147.0236808409296
 10
156.0829900563297
 20
147.0236808409296
  0
SPLINE
  5
9A
330
70
100
AcDbEntity
  8
レイヤー 1
 62
    18
420
        0
370
    25
100
AcDbSpline
210
0.0
220
0.0
230
1.0
 70
    24
 71
     3
 72
     8
 73
     4
 74
     0
 42
0.0000000001
 43
0.0000000001
 40
0.0
 40
0.0
 40
0.0
 40
0.0
 40
1.0
 40
1.0
 40
1.0
 40
1.0
 10
155.4903367395562
 20
146.8120120211312
 30
0.0
 10
155.4903367395562
 20
146.8120120211312
 30
0.0
 10
156.0830008222531
 20
146.8120120211312
 30
0.0
 10
156.0830008222531
 20
146.8120120211312
 30
0.0
  0
SPLINE
  5
9B
330
70
100
AcDbEntity
  8
レイヤー 1
 62
    18
420
        0
370
    25
100
AcDbSpline
210
0.0
220
0.0
230
1.0
 70
    24
 71
     3
 72
     8
 73
     4
 74
     0
 42
0.0000000001
 43
0.0000000001
 40
0.0
 40
0.0
 40
0.0
 40
0.0
 40
1.0
 40
1.0
 40
1.0
 40
1.0
 10
155.2786679197578
 20
147.0236700750062
 30
0.0
 10
155.2786679197578
 20
147.0236700750062
 30
0.0
 10
155.2786679197578
 20
147.3200021163547
 30
0.0
 10
155.2786679197578
 20
147.3200021163547
 30
0.0
  0
SPLINE
  5
9C
330
70
100
AcDbEntity
  8
レイヤー 1
 62
    18
420
        0
370
    25
100
AcDbSpline
210
0.0
220
0.0
230
1.0
 70
    24
 71
     3
 72
     8
 73
     4
 74
     0
 42
0.0000000001
 43
0.0000000001
 40
0.0
 40
0.0
 40
0.0
 40
0.0
 40
1.0
 40
1.0
 40
1.0
 40
1.0
 10
154.897661890936
 20
149.733011589764
 30
0.0
 10
154.897661890936
 20
149.733011589764
 30
0.0
 10
154.897661890936
 20
149.944669643639
 30
0.0
 10
154.897661890936
 20
149.944669643639
 30
0.0
  0
SPLINE
  5
9D
330
70
100
AcDbEntity
  8
レイヤー 1
 62
    18
420
        0
370
    25
100
AcDbSpline
210
0.0
220
0.0
230
1.0
 70
    24
 71
     3
 72
     8
 73
     4
 74
     0
 42
0.0000000001
 43
0.0000000001
 40
0.0
 40
0.0
 40
0.0
 40
0.0
 40
1.0
 40
1.0
 40
1.0
 40
1.0
 10
155.5326683503312
 20
151.5956778253281
 30
0.0
 10
155.5326683503312
 20
151.5956778253281
 30
0.0
 10
155.5326683503312
 20
149.944669643639
 30
0.0
 10
155.5326683503312
 20
149.944669643639
 30
0.0
  0
LWPOLYLINE
  5
9E
330
70
100
AcDbEntity
  8
レイヤー 1
 62
    18
420
        0
370
    25
100
AcDbPolyline
 90
        3
 70
     0
 43
0.0
 10
155.3633311413078
 20
149.944669643639
 10
155.3633311413078
 20
151.5956885912514
 10
155.5326683503312
 20
151.5956885912514
  0
LWPOLYLINE
  5
9F
330
70
100
AcDbEntity
  8
レイヤー 1
 62
    18
420
        0
370
    25
100
AcDbPolyline
 90
        4
 70
     0
 43
0.0
 10
156.0829900563297
 20
149.6483376022906
 10
154.9823358784093
 20
149.6483376022906
 10
154.897661890936
 20
149.733011589764
 10
156.0829900563297
 20
149.733011589764
  0
LINE
  5
A0
330
70
100
AcDbEntity
  8
レイヤー 1
 62
    18
420
        0
370
    25
100
AcDbLine
 10
154.897661890936
 20
149.944669643639
 30
0.0
 11
156.0829900563297
 21
149.944669643639
 31
0.0
  0
LWPOLYLINE
  5
A1
330
70
100
AcDbEntity
  8
レイヤー 1
 62
    18
420
        0
370
    25
100
AcDbPolyline
 90
        9
 70
     0
 43
0.0
 10
156.84499134805
 20
147.320012882278
 10
156.7603173605766
 20
147.404676103828
 10
156.6756541390266
 20
147.5740025469281
 10
156.6333225282516
 20
147.8280029775016
 10
156.6756541390266
 20
148.1243457847734
 10
156.7603173605766
 20
148.4206778261218
 10
157.01431779115
 20
149.0556735195937
 10
157.0989810127001
 20
149.3520055609421
 10
157.1413233893984
 20
149.6483376022906
  0
LINE
  5
A2
330
70
100
AcDbEntity
  8
レイヤー 1
 62
    18
420
        0
370
    25
100
AcDbLine
 10
156.5486593067016
 20
145.3303410484656
 30
0.0
 11
156.633333294175
 21
146.8120120211312
 31
0.0
  0
LWPOLYLINE
  5
A3
330
70
100
AcDbEntity
  8
レイヤー 1
 62
    18
420
        0
370
    25
100
AcDbPolyline
 90
        3
 70
     0
 43
0.0
 10
156.4639960851516
 20
145.2456885928389
 10
156.5486593067016
 20
145.2880094376906
 10
156.5486593067016
 20
145.3303410484656
  0
LWPOLYLINE
  5
A4
330
70
100
AcDbEntity
  8
レイヤー 1
 62
    18
420
        0
370
    25
100
AcDbPolyline
 90
        3
 70
     0
 43
0.0
 10
156.633333294175
 20
146.8120120211312
 10
156.84499134805
 20
147.0236808409296
 10
156.84499134805
 20
147.320012882278
  0
SPLINE
  5
A5
330
70
100
AcDbEntity
  8
レイヤー 1
 62
    18
420
        0
370
    25
100
AcDbSpline
210
0.0
220
0.0
230
1.0
 70
    24
 71
     3
 72
     8
 73
     4
 74
     0
 42
0.0000000001
 43
0.0000000001
 40
0.0
 40
0.0
 40
0.0
 40
0.0
 40
1.0
 40
1.0
 40
1.0
 40
1.0
 10
156.7603281265
 20
149.944669643639
 30
0.0
 10
156.7603281265
 20
149.944669643639
 30
0.0
 10
156.7603281265
 20
151.5956885912514
 30
0.0
 10
156.7603281265
 20
151.5956885912514
 30
0.0
  0
SPLINE
  5
A6
330
70
100
AcDbEntity
  8
レイヤー 1
 62
    18
420
        0
370
    25
100
AcDbSpline
210
0.0
220
0.0
230
1.0
 70
    24
 71
     3
 72
     8
 73
     4
 74
     0
 42
0.0000000001
 43
0.0000000001
 40
0.0
 40
0.0
 40
0.0
 40
0.0
 40
1.0
 40
1.0
 40
1.0
 40
1.0
 10
156.5910016834
 20
151.5956885912514
 30
0.0
 10
156.5910016834
 20
151.5956885912514
 30
0.0
 10
156.5910016834
 20
149.944669643639
 30
0.0
 10
156.5910016834
 20
149.944669643639
 30
0.0
  0
LWPOLYLINE
  5
A7
330
70
100
AcDbEntity
  8
レイヤー 1
 62
    18
420
        0
370
    25
100
AcDbPolyline
 90
        3
 70
     0
 43
0.0
 10
157.2259973768719
 20
149.944669643639
 10
157.2259973768719
 20
149.733011589764
 10
157.1413233893984
 20
149.6483376022906
  0
SPLINE
  5
A8
330
70
100
AcDbEntity
  8
レイヤー 1
 62
    18
420
        0
370
    25
100
AcDbSpline
210
0.0
220
0.0
230
1.0
 70
    24
 71
     3
 72
     8
 73
     4
 74
     0
 42
0.0000000001
 43
0.0000000001
 40
0.0
 40
0.0
 40
0.0
 40
0.0
 40
1.0
 40
1.0
 40
1.0
 40
1.0
 10
156.7603281265
 20
151.5956885912514
 30
0.0
 10
156.7603281265
 20
151.5956885912514
 30
0.0
 10
156.5910016834
 20
151.5956885912514
 30
0.0
 10
156.5910016834
 20
151.5956885912514
 30
0.0
  0
SPLINE
  5
A9
330
70
100
AcDbEntity
  8
レイヤー 1
 62
    18
420
        0
370
    25
100
AcDbSpline
210
0.0
220
0.0
230
1.0
 70
    24
 71
     3
 72
     8
 73
     4
 74
     0
 42
0.0000000001
 43
0.0000000001
 40
0.0
 40
0.0
 40
0.0
 40
0.0
 40
1.0
 40
1.0
 40
1.0
 40
1.0
 10
156.3370012528265
 20
145.2456885928389
 30
0.0
 10
156.3370012528265
 20
145.2456885928389
 30
0.0
 10
156.3370012528265
 20
123.1053410540218
 30
0.0
 10
156.3370012528265
 20
123.1053410540218
 30
0.0
  0
LWPOLYLINE
  5
AA
330
70
100
AcDbEntity
  8
レイヤー 1
 62
    18
420
        0
370
    25
100
AcDbPolyline
 90
        9
 70
     0
 43
0.0
 10
91.01666664391251
 20
179.4510189031624
 10
91.14366147623753
 20
180.3400150272077
 10
91.14366147623753
 20
181.1866795404781
 10
91.01666664391251
 20
182.0756648986
 10
90.76266621333907
 20
182.8800085670187
 10
90.38166018451722
 20
183.6843522354374
 10
89.91599631710704
 20
184.4040111504593
 10
89.32333223441016
 20
185.0390068439312
 10
88.64599954720157
 20
185.5893393158531
  0
LINE
  5
AB
330
70
100
AcDbEntity
  8
レイヤー 1
 62
    18
420
        0
370
    25
100
AcDbLine
 10
87.07966535298593
 20
164.2533462113781
 30
0.0
 11
91.01666664391251
 21
179.451008137239
 31
0.0
  0
LWPOLYLINE
  5
AC
330
70
100
AcDbEntity
  8
レイヤー 1
 62
    18
420
        0
370
    13
100
AcDbPolyline
 90
       42
 70
     1
 43
0.0
 10
70.73899610658283
 20
172.8046760974781
 10
70.69665911284613
 20
172.5930072776796
 10
70.78132771735784
 20
172.2543328596328
 10
70.99299115419457
 20
171.8733375967343
 10
71.33166018927972
 20
171.4076683463625
 10
71.79732943965158
 20
170.8573358744406
 10
72.38999352234846
 20
170.2646717917437
 10
73.06732620955706
 20
169.6296760982718
 10
73.82932750127737
 20
168.9946696388765
 10
74.63366040377268
 20
168.3173423346296
 10
75.52266191077972
 20
167.6823358752344
 10
76.41165803482504
 20
167.0473401817625
 10
77.34299115260707
 20
166.4546760990656
 10
78.2743242703891
 20
165.9043328612203
 10
79.12099416662112
 20
165.3963427659968
 10
79.96765867989144
 20
164.9730051264
 10
80.68732836083674
 20
164.6343414742765
 10
81.36466104804533
 20
164.4226726544781
 10
81.91499351996723
 20
164.2533354454547
 10
82.38066277033908
 20
164.1686722239047
 10
82.71932642246254
 20
164.2110038346797
 10
82.88865824852427
 20
164.3380094329281
 10
82.97332685303597
 20
164.5919990975781
 10
82.88865824852427
 20
164.8883419048499
 10
82.67699481168753
 20
165.3116687785234
 10
82.33832577660237
 20
165.7773380288953
 10
81.87266190919222
 20
166.3276705008172
 10
81.27999244353363
 20
166.878002972739
 10
80.60265975632503
 20
167.5130094321343
 10
79.84065846460473
 20
168.1903367363812
 10
78.9939939513344
 20
168.8253324298531
 10
78.10499244432738
 20
169.5026705000234
 10
77.21599093732035
 20
170.0953345827203
 10
76.28465781953832
 20
170.7303410421156
 10
75.39566169549299
 20
171.2806735140375
 10
74.50666018848597
 20
171.7463427644093
 10
73.70232728599065
 20
172.1696696380828
 10
72.94032599427035
 20
172.5083332902062
 10
72.26299330706175
 20
172.7623337207797
 10
71.71266083513987
 20
172.9316709298031
 10
71.28932857850471
 20
172.9740025405781
 10
70.95065954341956
 20
172.9316709298031
  0
LWPOLYLINE
  5
AD
330
70
100
AcDbEntity
  8
レイヤー 1
 62
    18
420
        0
370
    25
100
AcDbPolyline
 90
       40
 70
     0
 43
0.0
 10
82.59233159013751
 20
164.2110146006031
 10
83.48132771418283
 20
163.8723401825562
 10
84.32799761041485
 20
163.6606713627578
 10
85.04766190839847
 20
163.5336765304328
 10
85.68266298483205
 20
163.5336765304328
 10
86.19066384597891
 20
163.6183397519828
 10
86.52932749810238
 20
163.7876769610062
 10
86.7833279286758
 20
164.0840090023546
 10
86.91032814396253
 20
164.4226726544781
 10
86.86799653318752
 20
164.8883419048499
 10
86.6986647071258
 20
165.4386743767718
 10
86.40232728281565
 20
166.0736808361671
 10
85.9789950261805
 20
166.708676529639
 10
85.42866255425861
 20
167.4706778213593
 10
84.75132986705002
 20
168.2326791130796
 10
83.98932857532971
 20
169.0370120155749
 10
83.10032706832268
 20
169.8413449180702
 10
82.16899395054065
 20
170.6456778205656
 10
81.1529976112086
 20
171.4500107230609
 10
80.09466427813986
 20
172.2543436255562
 10
78.9939939513344
 20
173.0163449172765
 10
77.89332900749065
 20
173.7360145982218
 10
76.79266406364689
 20
174.4133419024687
 10
75.69199373684144
 20
175.0060059851656
 10
74.63366040377268
 20
175.5140068463124
 10
73.61766406444065
 20
175.9796760966843
 10
72.64399395292191
 20
176.3183397488078
 10
71.79732943965158
 20
176.5723401793812
 10
71.03532814793128
 20
176.7416773884046
 10
70.35799546072268
 20
176.7840089991796
 10
69.8076629888008
 20
176.7416773884046
 10
69.34199373842893
 20
176.6146717901562
 10
69.04566169708049
 20
176.3606713595828
 10
68.87632987101877
 20
176.0643393182343
 10
68.87632987101877
 20
175.6410124445609
 10
68.96099309256879
 20
175.133011583414
 10
69.21499352314221
 20
174.5403475007171
 10
69.59599416900236
 20
173.8630094305468
 10
70.10399503014925
 20
173.1856713603765
 10
70.69666449580783
 20
172.4236808345796
  0
LWPOLYLINE
  5
AE
330
70
100
AcDbEntity
  8
レイヤー 1
 62
    18
420
        0
370
    25
100
AcDbPolyline
 90
       55
 70
     0
 43
0.0
 10
82.50766836858749
 20
163.9993457808046
 10
83.10033245128439
 20
163.7876769610062
 10
83.60833331243126
 20
163.6183397519828
 10
84.15866578435313
 20
163.4913449196577
 10
84.624335034725
 20
163.4066709321843
 10
85.04766729136015
 20
163.3643393214093
 10
85.47099954799532
 20
163.3220077106343
 10
85.85200019385547
 20
163.3220077106343
 10
86.1483322352039
 20
163.4066709321843
 10
86.44466427655236
 20
163.4913449196577
 10
86.6986647071258
 20
163.6606713627578
 10
86.91033352692421
 20
163.8723401825562
 10
87.03733374221092
 20
164.1263406131296
 10
87.07966535298593
 20
164.3803410437031
 10
87.07966535298593
 20
164.6766730850515
 10
87.03733374221092
 20
165.015336737175
 10
86.95266513769922
 20
165.3540111552218
 10
86.7833333116375
 20
165.7350064181203
 10
86.57166449183907
 20
166.1160124469421
 10
86.31766406126564
 20
166.5393393206156
 10
86.02133201991719
 20
166.9626769602125
 10
85.68266836779375
 20
167.4283354446609
 10
85.30166772193359
 20
167.8940046950328
 10
84.41266621492657
 20
168.8676748065515
 10
83.39666449263281
 20
169.8413449180702
 10
82.21133094427736
 20
170.8573358744406
 10
80.98366578514688
 20
171.8310059859593
 10
79.6713320215047
 20
172.8046760974781
 10
78.3166666470875
 20
173.6936722215234
 10
76.91966427893361
 20
174.5403367347937
 10
75.60733051529142
 20
175.260006415739
 10
74.29499675164923
 20
175.8950021092109
 10
73.10966320329376
 20
176.3606713595828
 10
72.51699912059688
 20
176.5723401793812
 10
72.00899825945
 20
176.7416773884046
 10
71.50099739830314
 20
176.8263406099546
 10
71.03533353089297
 20
176.9533354422797
 10
70.56966428052111
 20
176.9956778189781
 10
70.18866363466095
 20
176.9956778189781
 10
69.8499999825375
 20
176.9533354422797
 10
69.51133094745235
 20
176.8686722207297
 10
69.25733051687892
 20
176.7840089991796
 10
69.00333008630548
 20
176.6146717901562
 10
68.83399826024376
 20
176.4030029703578
 10
68.70699804495704
 20
176.1490025397843
 10
68.66466643418204
 20
175.8526704984359
 10
68.66466643418204
 20
175.5563384570875
 10
68.74933503869375
 20
175.217674804964
 10
68.87632987101877
 20
174.8366687761422
 10
69.04566708004219
 20
174.4556735132437
 10
69.25733051687892
 20
174.0746782503453
 10
69.51133094745235
 20
173.6513406107484
 10
69.80766837176249
 20
173.2280029711516
 10
70.18866363466095
 20
172.7623444867031
 10
70.56966428052111
 20
172.2966752363312
  0
LINE
  5
AF
330
70
100
AcDbEntity
  8
レイヤー 1
 62
    18
420
        0
370
    25
100
AcDbLine
 10
80.17933288265156
 20
172.2120120147812
 30
0.0
 11
78.06266621651407
 21
169.5026705000234
 31
0.0
  0
LINE
  5
B0
330
70
100
AcDbEntity
  8
レイヤー 1
 62
    18
420
        0
370
    13
100
AcDbLine
 10
80.81433395908517
 20
171.7463427644093
 30
0.0
 11
78.61299868843595
 21
169.3756756676984
 31
0.0
  0
LINE
  5
B1
330
70
100
AcDbEntity
  8
レイヤー 1
 62
    18
420
        0
370
    25
100
AcDbLine
 10
78.95166234055939
 20
168.8676748065515
 30
0.0
 11
81.83033029841721
 21
170.942009861914
 31
0.0
  0
LINE
  5
B2
330
70
100
AcDbEntity
  8
レイヤー 1
 62
    18
420
        0
370
    13
100
AcDbLine
 10
82.08433072899063
 20
170.7303410421156
 30
0.0
 11
79.24799438190785
 21
168.8253431957765
 31
0.0
  0
LINE
  5
B3
330
70
100
AcDbEntity
  8
レイヤー 1
 62
    18
420
        0
370
    25
100
AcDbLine
 10
79.96766406285314
 20
168.0633526699796
 30
0.0
 11
83.1849956728344
 21
169.7566816965202
 31
0.0
  0
LINE
  5
B4
330
70
100
AcDbEntity
  8
レイヤー 1
 62
    18
420
        0
370
    13
100
AcDbLine
 10
83.48132771418283
 20
169.5026705000234
 30
0.0
 11
80.22166987638827
 21
168.0633526699796
 31
0.0
  0
LINE
  5
B5
330
70
100
AcDbEntity
  8
レイヤー 1
 62
    18
420
        0
370
    25
100
AcDbLine
 10
80.81433395908517
 20
167.3436829890343
 30
0.0
 11
84.45500320866328
 21
168.5290111544281
 31
0.0
  0
LINE
  5
B6
330
70
100
AcDbEntity
  8
レイヤー 1
 62
    18
420
        0
370
    13
100
AcDbLine
 10
84.6666666455
 20
168.3173423346296
 30
0.0
 11
80.98366040218518
 21
167.3860038338859
 31
0.0
  0
SPLINE
  5
B7
330
70
100
AcDbEntity
  8
レイヤー 1
 62
    18
420
        0
370
    25
100
AcDbSpline
210
0.0
220
0.0
230
1.0
 70
    24
 71
     3
 72
     8
 73
     4
 74
     0
 42
0.0000000001
 43
0.0000000001
 40
0.0
 40
0.0
 40
0.0
 40
0.0
 40
1.0
 40
1.0
 40
1.0
 40
1.0
 10
85.42866793722032
 20
167.4283462105843
 30
0.0
 10
85.42866793722032
 20
167.4283462105843
 30
0.0
 10
81.49166664629374
 20
166.666344918864
 30
0.0
 10
81.49166664629374
 20
166.666344918864
 30
0.0
  0
SPLINE
  5
B8
330
70
100
AcDbEntity
  8
レイヤー 1
 62
    18
420
        0
370
    25
100
AcDbSpline
210
0.0
220
0.0
230
1.0
 70
    24
 71
     3
 72
     8
 73
     4
 74
     0
 42
0.0000000001
 43
0.0000000001
 40
0.0
 40
0.0
 40
0.0
 40
0.0
 40
1.0
 40
1.0
 40
1.0
 40
1.0
 10
86.1483322352039
 20
166.4970077098406
 30
0.0
 10
86.1483322352039
 20
166.4970077098406
 30
0.0
 10
82.08433072899063
 20
166.0736700702437
 30
0.0
 10
82.08433072899063
 20
166.0736700702437
 30
0.0
  0
SPLINE
  5
B9
330
70
100
AcDbEntity
  8
レイヤー 1
 62
    18
420
        0
370
    25
100
AcDbSpline
210
0.0
220
0.0
230
1.0
 70
    24
 71
     3
 72
     8
 73
     4
 74
     0
 42
0.0000000001
 43
0.0000000001
 40
0.0
 40
0.0
 40
0.0
 40
0.0
 40
1.0
 40
1.0
 40
1.0
 40
1.0
 10
86.61399610261408
 20
165.6503431965703
 30
0.0
 10
86.61399610261408
 20
165.6503431965703
 30
0.0
 10
82.5499999793625
 20
165.4810059875468
 30
0.0
 10
82.5499999793625
 20
165.4810059875468
 30
0.0
  0
SPLINE
  5
BA
330
70
100
AcDbEntity
  8
レイヤー 1
 62
    18
420
        0
370
    25
100
AcDbSpline
210
0.0
220
0.0
230
1.0
 70
    24
 71
     3
 72
     8
 73
     4
 74
     0
 42
0.0000000001
 43
0.0000000001
 40
0.0
 40
0.0
 40
0.0
 40
0.0
 40
1.0
 40
1.0
 40
1.0
 40
1.0
 10
86.86799653318752
 20
164.9730051264
 30
0.0
 10
86.86799653318752
 20
164.9730051264
 30
0.0
 10
82.80400040993594
 20
165.1000107246484
 30
0.0
 10
82.80400040993594
 20
165.1000107246484
 30
0.0
  0
SPLINE
  5
BB
330
70
100
AcDbEntity
  8
レイヤー 1
 62
    18
420
        0
370
    25
100
AcDbSpline
210
0.0
220
0.0
230
1.0
 70
    24
 71
     3
 72
     8
 73
     4
 74
     0
 42
0.0000000001
 43
0.0000000001
 40
0.0
 40
0.0
 40
0.0
 40
0.0
 40
1.0
 40
1.0
 40
1.0
 40
1.0
 10
86.91033352692421
 20
164.4650042652531
 30
0.0
 10
86.91033352692421
 20
164.4650042652531
 30
0.0
 10
82.93100062522265
 20
164.7190046958265
 30
0.0
 10
82.93100062522265
 20
164.7190046958265
 30
0.0
  0
SPLINE
  5
BC
330
70
100
AcDbEntity
  8
レイヤー 1
 62
    18
420
        0
370
    25
100
AcDbSpline
210
0.0
220
0.0
230
1.0
 70
    24
 71
     3
 72
     8
 73
     4
 74
     0
 42
0.0000000001
 43
0.0000000001
 40
0.0
 40
0.0
 40
0.0
 40
0.0
 40
1.0
 40
1.0
 40
1.0
 40
1.0
 10
82.93100062522265
 20
164.4226726544781
 30
0.0
 10
82.93100062522265
 20
164.4226726544781
 30
0.0
 10
86.74099631790079
 20
163.9993457808046
 30
0.0
 10
86.74099631790079
 20
163.9993457808046
 30
0.0
  0
SPLINE
  5
BD
330
70
100
AcDbEntity
  8
レイヤー 1
 62
    18
420
        0
370
    25
100
AcDbSpline
210
0.0
220
0.0
230
1.0
 70
    24
 71
     3
 72
     8
 73
     4
 74
     0
 42
0.0000000001
 43
0.0000000001
 40
0.0
 40
0.0
 40
0.0
 40
0.0
 40
1.0
 40
1.0
 40
1.0
 40
1.0
 10
86.48700127028906
 20
163.7453453502312
 30
0.0
 10
86.48700127028906
 20
163.7453453502312
 30
0.0
 10
82.84633202071095
 20
164.2956778221531
 30
0.0
 10
82.84633202071095
 20
164.2956778221531
 30
0.0
  0
SPLINE
  5
BE
330
70
100
AcDbEntity
  8
レイヤー 1
 62
    18
420
        0
370
    25
100
AcDbSpline
210
0.0
220
0.0
230
1.0
 70
    24
 71
     3
 72
     8
 73
     4
 74
     0
 42
0.0000000001
 43
0.0000000001
 40
0.0
 40
0.0
 40
0.0
 40
0.0
 40
1.0
 40
1.0
 40
1.0
 40
1.0
 10
82.76166341619925
 20
164.2110038346797
 30
0.0
 10
82.76166341619925
 20
164.2110038346797
 30
0.0
 10
85.55566276954534
 20
163.5336765304328
 30
0.0
 10
85.55566276954534
 20
163.5336765304328
 30
0.0
  0
LWPOLYLINE
  5
BF
330
70
100
AcDbEntity
  8
レイヤー 1
 62
    18
420
        0
370
    25
100
AcDbPolyline
 90
        7
 70
     0
 43
0.0
 10
78.06266621651407
 20
169.5026705000234
 10
78.61299868843595
 20
169.3756756676984
 10
78.95166234055939
 20
168.8676748065515
 10
79.24799438190785
 20
168.8253431957765
 10
79.96766406285314
 20
168.0633526699796
 10
80.22166987638827
 20
168.0633526699796
 10
80.81433395908517
 20
167.3436829890343
  0
LWPOLYLINE
  5
C0
330
70
100
AcDbEntity
  8
レイヤー 1
 62
    18
420
        0
370
    25
100
AcDbPolyline
 90
        3
 70
     0
 43
0.0
 10
81.49166664629374
 20
166.666344918864
 10
80.98366040218518
 20
167.3860038338859
 10
80.81433395908517
 20
167.3436829890343
  0
SPLINE
  5
C1
330
70
100
AcDbEntity
  8
レイヤー 1
 62
    18
420
        0
370
    25
100
AcDbSpline
210
0.0
220
0.0
230
1.0
 70
    24
 71
     3
 72
     8
 73
     4
 74
     0
 42
0.0000000001
 43
0.0000000001
 40
0.0
 40
0.0
 40
0.0
 40
0.0
 40
1.0
 40
1.0
 40
1.0
 40
1.0
 10
82.08433072899063
 20
166.0736808361671
 30
0.0
 10
82.08433072899063
 20
166.0736808361671
 30
0.0
 10
81.61866147861877
 20
166.708676529639
 30
0.0
 10
81.61866147861877
 20
166.708676529639
 30
0.0
  0
SPLINE
  5
C2
330
70
100
AcDbEntity
  8
レイヤー 1
 62
    18
420
        0
370
    25
100
AcDbSpline
210
0.0
220
0.0
230
1.0
 70
    24
 71
     3
 72
     8
 73
     4
 74
     0
 42
0.0000000001
 43
0.0000000001
 40
0.0
 40
0.0
 40
0.0
 40
0.0
 40
1.0
 40
1.0
 40
1.0
 40
1.0
 10
82.5499945964008
 20
165.4810059875468
 30
0.0
 10
82.5499945964008
 20
165.4810059875468
 30
0.0
 10
82.16899395054065
 20
166.0736808361671
 30
0.0
 10
82.16899395054065
 20
166.0736808361671
 30
0.0
  0
SPLINE
  5
C3
330
70
100
AcDbEntity
  8
レイヤー 1
 62
    18
420
        0
370
    25
100
AcDbSpline
210
0.0
220
0.0
230
1.0
 70
    24
 71
     3
 72
     8
 73
     4
 74
     0
 42
0.0000000001
 43
0.0000000001
 40
0.0
 40
0.0
 40
0.0
 40
0.0
 40
1.0
 40
1.0
 40
1.0
 40
1.0
 10
82.80399502697425
 20
165.1000107246484
 30
0.0
 10
82.80399502697425
 20
165.1000107246484
 30
0.0
 10
82.59232620717581
 20
165.4810059875468
 30
0.0
 10
82.59232620717581
 20
165.4810059875468
 30
0.0
  0
SPLINE
  5
C4
330
70
100
AcDbEntity
  8
レイヤー 1
 62
    18
420
        0
370
    25
100
AcDbSpline
210
0.0
220
0.0
230
1.0
 70
    24
 71
     3
 72
     8
 73
     4
 74
     0
 42
0.0000000001
 43
0.0000000001
 40
0.0
 40
0.0
 40
0.0
 40
0.0
 40
1.0
 40
1.0
 40
1.0
 40
1.0
 10
82.93099524226096
 20
164.7190046958265
 30
0.0
 10
82.93099524226096
 20
164.7190046958265
 30
0.0
 10
82.84632663774926
 20
165.1000107246484
 30
0.0
 10
82.84632663774926
 20
165.1000107246484
 30
0.0
  0
LWPOLYLINE
  5
C5
330
70
100
AcDbEntity
  8
レイヤー 1
 62
    18
420
        0
370
    25
100
AcDbPolyline
 90
        4
 70
     0
 43
0.0
 10
82.97333223599766
 20
164.7190154617499
 10
82.93100062522265
 20
164.4226834204015
 10
82.84633202071095
 20
164.2956778221531
 10
82.76166341619925
 20
164.2110038346797
  0
LINE
  5
C6
330
70
100
AcDbEntity
  8
レイヤー 1
 62
    18
420
        0
370
    25
100
AcDbLine
 10
78.06266621651407
 20
169.5026705000234
 30
0.0
 11
77.80866040297893
 21
170.0106821270937
 31
0.0
  0
LWPOLYLINE
  5
C7
330
70
100
AcDbEntity
  8
レイヤー 1
 62
    18
420
        0
370
    25
100
AcDbPolyline
 90
       38
 70
     0
 43
0.0
 10
76.24233159172501
 20
167.7670098627077
 10
76.24233159172501
 20
167.1743350140875
 10
76.75032706991018
 20
167.4283354446609
 10
76.79266406364689
 20
166.835671361964
 10
77.30066492479377
 20
167.0473401817625
 10
77.42765975711879
 20
166.4123337223672
 10
77.89332900749065
 20
166.6663341529406
 10
78.02032922277736
 20
166.0313384594687
 10
78.40132986863752
 20
166.3700021115922
 10
78.61299330547424
 20
165.6926748073453
 10
78.86699373604769
 20
166.0736700702437
 10
79.20566277113284
 20
165.3540003892984
 10
79.37499459719456
 20
165.8196696396703
 10
79.84066384756641
 20
165.05766834795
 10
79.92532706911643
 20
165.5233375983218
 10
80.39099631948829
 20
164.7613363066015
 10
80.4333279302633
 20
165.2693371677484
 10
80.98366040218518
 20
164.5496674868031
 10
80.94132879141019
 20
165.015336737175
 10
81.49166126333206
 20
164.3380094329281
 10
81.36466104804533
 20
164.8036679173765
 10
81.95733051370392
 20
164.2533354454547
 10
81.83033029841721
 20
164.6766730850515
 10
82.38066277033908
 20
164.1686722239047
 10
82.12666233976564
 20
164.6343414742765
 10
82.63466320091252
 20
164.2110038346797
 10
82.29599416582736
 20
164.7613363066015
 10
82.80399502697425
 20
164.2533354454547
 10
82.33833115956407
 20
164.9306735156249
 10
82.88866363148596
 20
164.3803410437031
 10
82.29599416582736
 20
165.1846739461984
 10
82.93099524226096
 20
164.7190046958265
 10
82.21133094427736
 20
165.3963427659968
 10
82.80399502697425
 20
165.099999958725
 10
82.08433072899063
 20
165.6503431965703
 10
82.5499945964008
 20
165.4810059875468
 10
81.95733051370392
 20
165.9890068486937
 10
82.08433072899063
 20
166.0736700702437
  0
SPLINE
  5
C8
330
70
100
AcDbEntity
  8
レイヤー 1
 62
    18
420
        0
370
    13
100
AcDbSpline
210
0.0
220
0.0
230
1.0
 70
    24
 71
     3
 72
     8
 73
     4
 74
     0
 42
0.0000000001
 43
0.0000000001
 40
0.0
 40
0.0
 40
0.0
 40
0.0
 40
1.0
 40
1.0
 40
1.0
 40
1.0
 10
76.75033245287188
 20
167.4283462105843
 30
0.0
 10
76.75033245287188
 20
167.4283462105843
 30
0.0
 10
77.34299653556877
 20
168.2326791130796
 30
0.0
 10
77.34299653556877
 20
168.2326791130796
 30
0.0
  0
SPLINE
  5
C9
330
70
100
AcDbEntity
  8
レイヤー 1
 62
    18
420
        0
370
    13
100
AcDbSpline
210
0.0
220
0.0
230
1.0
 70
    24
 71
     3
 72
     8
 73
     4
 74
     0
 42
0.0000000001
 43
0.0000000001
 40
0.0
 40
0.0
 40
0.0
 40
0.0
 40
1.0
 40
1.0
 40
1.0
 40
1.0
 10
77.30066492479377
 20
167.0473401817625
 30
0.0
 10
77.30066492479377
 20
167.0473401817625
 30
0.0
 10
77.80866578594063
 20
167.8940046950328
 30
0.0
 10
77.80866578594063
 20
167.8940046950328
 30
0.0
  0
SPLINE
  5
CA
330
70
100
AcDbEntity
  8
レイヤー 1
 62
    18
420
        0
370
    13
100
AcDbSpline
210
0.0
220
0.0
230
1.0
 70
    24
 71
     3
 72
     8
 73
     4
 74
     0
 42
0.0000000001
 43
0.0000000001
 40
0.0
 40
0.0
 40
0.0
 40
0.0
 40
1.0
 40
1.0
 40
1.0
 40
1.0
 10
77.89332900749065
 20
166.666344918864
 30
0.0
 10
77.89332900749065
 20
166.666344918864
 30
0.0
 10
78.31666126412581
 20
167.5976726536843
 30
0.0
 10
78.31666126412581
 20
167.5976726536843
 30
0.0
  0
SPLINE
  5
CB
330
70
100
AcDbEntity
  8
レイヤー 1
 62
    18
420
        0
370
    13
100
AcDbSpline
210
0.0
220
0.0
230
1.0
 70
    24
 71
     3
 72
     8
 73
     4
 74
     0
 42
0.0000000001
 43
0.0000000001
 40
0.0
 40
0.0
 40
0.0
 40
0.0
 40
1.0
 40
1.0
 40
1.0
 40
1.0
 10
78.40132986863752
 20
166.3700128775155
 30
0.0
 10
78.40132986863752
 20
166.3700128775155
 30
0.0
 10
78.78233051449767
 20
167.3013406123359
 30
0.0
 10
78.78233051449767
 20
167.3013406123359
 30
0.0
  0
SPLINE
  5
CC
330
70
100
AcDbEntity
  8
レイヤー 1
 62
    18
420
        0
370
    13
100
AcDbSpline
210
0.0
220
0.0
230
1.0
 70
    24
 71
     3
 72
     8
 73
     4
 74
     0
 42
0.0000000001
 43
0.0000000001
 40
0.0
 40
0.0
 40
0.0
 40
0.0
 40
1.0
 40
1.0
 40
1.0
 40
1.0
 10
78.86699911900937
 20
166.0736700702437
 30
0.0
 10
78.86699911900937
 20
166.0736700702437
 30
0.0
 10
79.29033137564454
 20
167.0050085709875
 30
0.0
 10
79.29033137564454
 20
167.0050085709875
 30
0.0
  0
SPLINE
  5
CD
330
70
100
AcDbEntity
  8
レイヤー 1
 62
    18
420
        0
370
    13
100
AcDbSpline
210
0.0
220
0.0
230
1.0
 70
    24
 71
     3
 72
     8
 73
     4
 74
     0
 42
0.0000000001
 43
0.0000000001
 40
0.0
 40
0.0
 40
0.0
 40
0.0
 40
1.0
 40
1.0
 40
1.0
 40
1.0
 10
79.37499459719456
 20
165.8196696396703
 30
0.0
 10
79.37499459719456
 20
165.8196696396703
 30
0.0
 10
79.7136636322797
 20
166.793339751189
 30
0.0
 10
79.7136636322797
 20
166.793339751189
 30
0.0
  0
SPLINE
  5
CE
330
70
100
AcDbEntity
  8
レイヤー 1
 62
    18
420
        0
370
    13
100
AcDbSpline
210
0.0
220
0.0
230
1.0
 70
    24
 71
     3
 72
     8
 73
     4
 74
     0
 42
0.0000000001
 43
0.0000000001
 40
0.0
 40
0.0
 40
0.0
 40
0.0
 40
1.0
 40
1.0
 40
1.0
 40
1.0
 10
79.92533245207813
 20
165.5233375983218
 30
0.0
 10
79.92533245207813
 20
165.5233375983218
 30
0.0
 10
80.13699588891487
 20
166.5393393206156
 30
0.0
 10
80.13699588891487
 20
166.5393393206156
 30
0.0
  0
SPLINE
  5
CF
330
70
100
AcDbEntity
  8
レイヤー 1
 62
    18
420
        0
370
    13
100
AcDbSpline
210
0.0
220
0.0
230
1.0
 70
    24
 71
     3
 72
     8
 73
     4
 74
     0
 42
0.0000000001
 43
0.0000000001
 40
0.0
 40
0.0
 40
0.0
 40
0.0
 40
1.0
 40
1.0
 40
1.0
 40
1.0
 10
80.4333279302633
 20
165.2693371677484
 30
0.0
 10
80.4333279302633
 20
165.2693371677484
 30
0.0
 10
80.64499675006173
 20
166.2853388900422
 30
0.0
 10
80.64499675006173
 20
166.2853388900422
 30
0.0
  0
SPLINE
  5
D0
330
70
100
AcDbEntity
  8
レイヤー 1
 62
    18
420
        0
370
    13
100
AcDbSpline
210
0.0
220
0.0
230
1.0
 70
    24
 71
     3
 72
     8
 73
     4
 74
     0
 42
0.0000000001
 43
0.0000000001
 40
0.0
 40
0.0
 40
0.0
 40
0.0
 40
1.0
 40
1.0
 40
1.0
 40
1.0
 10
80.94132879141019
 20
165.015336737175
 30
0.0
 10
80.94132879141019
 20
165.015336737175
 30
0.0
 10
81.02599739592189
 20
166.1160124469421
 30
0.0
 10
81.02599739592189
 20
166.1160124469421
 30
0.0
  0
SPLINE
  5
D1
330
70
100
AcDbEntity
  8
レイヤー 1
 62
    18
420
        0
370
    13
100
AcDbSpline
210
0.0
220
0.0
230
1.0
 70
    24
 71
     3
 72
     8
 73
     4
 74
     0
 42
0.0000000001
 43
0.0000000001
 40
0.0
 40
0.0
 40
0.0
 40
0.0
 40
1.0
 40
1.0
 40
1.0
 40
1.0
 10
81.36466104804533
 20
164.8036786832999
 30
0.0
 10
81.36466104804533
 20
164.8036786832999
 30
0.0
 10
81.40699804178204
 20
165.9466752379187
 30
0.0
 10
81.40699804178204
 20
165.9466752379187
 30
0.0
  0
SPLINE
  5
D2
330
70
100
AcDbEntity
  8
レイヤー 1
 62
    18
420
        0
370
    13
100
AcDbSpline
210
0.0
220
0.0
230
1.0
 70
    24
 71
     3
 72
     8
 73
     4
 74
     0
 42
0.0000000001
 43
0.0000000001
 40
0.0
 40
0.0
 40
0.0
 40
0.0
 40
1.0
 40
1.0
 40
1.0
 40
1.0
 10
81.83033029841721
 20
164.6766730850515
 30
0.0
 10
81.83033029841721
 20
164.6766730850515
 30
0.0
 10
81.78799868764221
 20
165.8196696396703
 30
0.0
 10
81.78799868764221
 20
165.8196696396703
 30
0.0
  0
SPLINE
  5
D3
330
70
100
AcDbEntity
  8
レイヤー 1
 62
    18
420
        0
370
    13
100
AcDbSpline
210
0.0
220
0.0
230
1.0
 70
    24
 71
     3
 72
     8
 73
     4
 74
     0
 42
0.0000000001
 43
0.0000000001
 40
0.0
 40
0.0
 40
0.0
 40
0.0
 40
1.0
 40
1.0
 40
1.0
 40
1.0
 10
82.12666233976564
 20
164.6343414742765
 30
0.0
 10
82.12666233976564
 20
164.6343414742765
 30
0.0
 10
82.04199911821563
 20
165.4810059875468
 30
0.0
 10
82.04199911821563
 20
165.4810059875468
 30
0.0
  0
LWPOLYLINE
  5
D4
330
70
100
AcDbEntity
  8
レイヤー 1
 62
    18
420
        0
370
    25
100
AcDbPolyline
 90
        3
 70
     0
 43
0.0
 10
82.08433072899063
 20
166.0736808361671
 10
81.53399825706875
 20
166.4970077098406
 10
81.49166664629374
 20
166.666344918864
  0
LINE
  5
D5
330
70
100
AcDbEntity
  8
レイヤー 1
 62
    18
420
        0
370
    25
100
AcDbLine
 10
79.03633094507111
 20
172.9740133065015
 30
0.0
 11
77.25833331401876
 21
170.0953453486437
 31
0.0
  0
LINE
  5
D6
330
70
100
AcDbEntity
  8
レイヤー 1
 62
    18
420
        0
370
    13
100
AcDbLine
 10
78.40133525159922
 20
173.397340180175
 30
0.0
 11
76.9620012726703
 21
170.5610038330922
 31
0.0
  0
LINE
  5
D7
330
70
100
AcDbEntity
  8
レイヤー 1
 62
    18
420
        0
370
    25
100
AcDbLine
 10
76.36933718997342
 20
170.6880094313406
 30
0.0
 11
77.30066492479377
 21
174.0746782503453
 31
0.0
  0
LINE
  5
D8
330
70
100
AcDbEntity
  8
レイヤー 1
 62
    18
420
        0
370
    13
100
AcDbLine
 10
77.00433288344531
 20
174.2440154593687
 30
0.0
 11
76.19999998095
 21
170.942009861914
 31
0.0
  0
LINE
  5
D9
330
70
100
AcDbEntity
  8
レイヤー 1
 62
    18
420
        0
370
    25
100
AcDbLine
 10
75.22633525239296
 20
171.3653475015109
 30
0.0
 11
75.73433073057813
 21
174.9636743743906
 31
0.0
  0
LINE
  5
DA
330
70
100
AcDbEntity
  8
レイヤー 1
 62
    18
420
        0
370
    13
100
AcDbLine
 10
75.35333008471798
 20
175.133011583414
 30
0.0
 11
75.14166664788125
 21
171.5770163213093
 31
0.0
  0
LINE
  5
DB
330
70
100
AcDbEntity
  8
レイヤー 1
 62
    18
420
        0
370
    25
100
AcDbLine
 10
74.29499675164923
 20
171.8733483626578
 30
0.0
 11
74.12566492558751
 21
175.7256756661109
 31
0.0
  0
LINE
  5
DC
330
70
100
AcDbEntity
  8
レイヤー 1
 62
    18
420
        0
370
    13
100
AcDbLine
 10
73.82933288423906
 20
175.8526704984359
 30
0.0
 11
74.25267052383593
 21
172.0426748057578
 31
0.0
  0
SPLINE
  5
DD
330
70
100
AcDbEntity
  8
レイヤー 1
 62
    18
420
        0
370
    25
100
AcDbSpline
210
0.0
220
0.0
230
1.0
 70
    24
 71
     3
 72
     8
 73
     4
 74
     0
 42
0.0000000001
 43
0.0000000001
 40
0.0
 40
0.0
 40
0.0
 40
0.0
 40
1.0
 40
1.0
 40
1.0
 40
1.0
 10
72.72866794039531
 20
176.2760189039562
 30
0.0
 10
72.72866794039531
 20
176.2760189039562
 30
0.0
 10
73.4060006276039
 20
172.2966752363312
 30
0.0
 10
73.4060006276039
 20
172.2966752363312
 30
0.0
  0
SPLINE
  5
DE
330
70
100
AcDbEntity
  8
レイヤー 1
 62
    18
420
        0
370
    25
100
AcDbSpline
210
0.0
220
0.0
230
1.0
 70
    24
 71
     3
 72
     8
 73
     4
 74
     0
 42
0.0000000001
 43
0.0000000001
 40
0.0
 40
0.0
 40
0.0
 40
0.0
 40
1.0
 40
1.0
 40
1.0
 40
1.0
 10
71.62799761358986
 20
176.5723509453046
 30
0.0
 10
71.62799761358986
 20
176.5723509453046
 30
0.0
 10
72.64399933588361
 20
172.635349654378
 30
0.0
 10
72.64399933588361
 20
172.635349654378
 30
0.0
  0
SPLINE
  5
DF
330
70
100
AcDbEntity
  8
レイヤー 1
 62
    18
420
        0
370
    25
100
AcDbSpline
210
0.0
220
0.0
230
1.0
 70
    24
 71
     3
 72
     8
 73
     4
 74
     0
 42
0.0000000001
 43
0.0000000001
 40
0.0
 40
0.0
 40
0.0
 40
0.0
 40
1.0
 40
1.0
 40
1.0
 40
1.0
 10
70.69666449580783
 20
176.7416773884046
 30
0.0
 10
70.69666449580783
 20
176.7416773884046
 30
0.0
 10
71.9243296549383
 20
172.8470184741764
 30
0.0
 10
71.9243296549383
 20
172.8470184741764
 30
0.0
  0
SPLINE
  5
E0
330
70
100
AcDbEntity
  8
レイヤー 1
 62
    18
420
        0
370
    25
100
AcDbSpline
210
0.0
220
0.0
230
1.0
 70
    24
 71
     3
 72
     8
 73
     4
 74
     0
 42
0.0000000001
 43
0.0000000001
 40
0.0
 40
0.0
 40
0.0
 40
0.0
 40
1.0
 40
1.0
 40
1.0
 40
1.0
 10
69.97700019782422
 20
176.7416773884046
 30
0.0
 10
69.97700019782422
 20
176.7416773884046
 30
0.0
 10
71.45866578752813
 20
172.9740133065015
 30
0.0
 10
71.45866578752813
 20
172.9740133065015
 30
0.0
  0
SPLINE
  5
E1
330
70
100
AcDbEntity
  8
レイヤー 1
 62
    18
420
        0
370
    25
100
AcDbSpline
210
0.0
220
0.0
230
1.0
 70
    24
 71
     3
 72
     8
 73
     4
 74
     0
 42
0.0000000001
 43
0.0000000001
 40
0.0
 40
0.0
 40
0.0
 40
0.0
 40
1.0
 40
1.0
 40
1.0
 40
1.0
 10
69.46899933667736
 20
176.6146825560796
 30
0.0
 10
69.46899933667736
 20
176.6146825560796
 30
0.0
 10
71.07766514166797
 20
172.9740133065015
 30
0.0
 10
71.07766514166797
 20
172.9740133065015
 30
0.0
  0
SPLINE
  5
E2
330
70
100
AcDbEntity
  8
レイヤー 1
 62
    18
420
        0
370
    25
100
AcDbSpline
210
0.0
220
0.0
230
1.0
 70
    24
 71
     3
 72
     8
 73
     4
 74
     0
 42
0.0000000001
 43
0.0000000001
 40
0.0
 40
0.0
 40
0.0
 40
0.0
 40
1.0
 40
1.0
 40
1.0
 40
1.0
 10
70.78133310031953
 20
172.8893500849515
 30
0.0
 10
70.78133310031953
 20
172.8893500849515
 30
0.0
 10
69.04566708004219
 20
176.2760189039562
 30
0.0
 10
69.04566708004219
 20
176.2760189039562
 30
0.0
  0
SPLINE
  5
E3
330
70
100
AcDbEntity
  8
レイヤー 1
 62
    18
420
        0
370
    25
100
AcDbSpline
210
0.0
220
0.0
230
1.0
 70
    24
 71
     3
 72
     8
 73
     4
 74
     0
 42
0.0000000001
 43
0.0000000001
 40
0.0
 40
0.0
 40
0.0
 40
0.0
 40
1.0
 40
1.0
 40
1.0
 40
1.0
 10
68.91866686475546
 20
175.9373444859093
 30
0.0
 10
68.91866686475546
 20
175.9373444859093
 30
0.0
 10
70.69666449580783
 20
172.7200128759281
 30
0.0
 10
70.69666449580783
 20
172.7200128759281
 30
0.0
  0
SPLINE
  5
E4
330
70
100
AcDbEntity
  8
レイヤー 1
 62
    18
420
        0
370
    25
100
AcDbSpline
210
0.0
220
0.0
230
1.0
 70
    24
 71
     3
 72
     8
 73
     4
 74
     0
 42
0.0000000001
 43
0.0000000001
 40
0.0
 40
0.0
 40
0.0
 40
0.0
 40
1.0
 40
1.0
 40
1.0
 40
1.0
 10
70.69666449580783
 20
172.635349654378
 30
0.0
 10
70.69666449580783
 20
172.635349654378
 30
0.0
 10
69.04566708004219
 20
175.048348361864
 30
0.0
 10
69.04566708004219
 20
175.048348361864
 30
0.0
  0
LWPOLYLINE
  5
E5
330
70
100
AcDbEntity
  8
レイヤー 1
 62
    18
420
        0
370
    25
100
AcDbPolyline
 90
        9
 70
     0
 43
0.0
 10
77.25833331401876
 20
170.0953453486437
 10
76.96199588970862
 20
170.5610038330922
 10
76.36933180701173
 20
170.6880094313406
 10
76.19999998095
 20
170.942009861914
 10
75.22632986943126
 20
171.3653367355875
 10
75.14166664788125
 20
171.5770055553859
 10
74.29499675164923
 20
171.8733375967343
 10
74.25266514087422
 20
171.8733375967343
 10
74.29499675164923
 20
171.8733375967343
  0
LWPOLYLINE
  5
E6
330
70
100
AcDbEntity
  8
レイヤー 1
 62
    18
420
        0
370
    25
100
AcDbPolyline
 90
        3
 70
     0
 43
0.0
 10
73.4060006276039
 20
172.2966860022546
 10
74.25267052383593
 20
172.0426748057578
 10
74.29499675164923
 20
171.8733483626578
  0
SPLINE
  5
E7
330
70
100
AcDbEntity
  8
レイヤー 1
 62
    18
420
        0
370
    25
100
AcDbSpline
210
0.0
220
0.0
230
1.0
 70
    24
 71
     3
 72
     8
 73
     4
 74
     0
 42
0.0000000001
 43
0.0000000001
 40
0.0
 40
0.0
 40
0.0
 40
0.0
 40
1.0
 40
1.0
 40
1.0
 40
1.0
 10
72.64399933588361
 20
172.635349654378
 30
0.0
 10
72.64399933588361
 20
172.635349654378
 30
0.0
 10
73.40599524464221
 20
172.4236808345796
 30
0.0
 10
73.40599524464221
 20
172.4236808345796
 30
0.0
  0
SPLINE
  5
E8
330
70
100
AcDbEntity
  8
レイヤー 1
 62
    18
420
        0
370
    25
100
AcDbSpline
210
0.0
220
0.0
230
1.0
 70
    24
 71
     3
 72
     8
 73
     4
 74
     0
 42
0.0000000001
 43
0.0000000001
 40
0.0
 40
0.0
 40
0.0
 40
0.0
 40
1.0
 40
1.0
 40
1.0
 40
1.0
 10
71.9243296549383
 20
172.8470077082531
 30
0.0
 10
71.9243296549383
 20
172.8470077082531
 30
0.0
 10
72.6016623421469
 20
172.7200128759281
 30
0.0
 10
72.6016623421469
 20
172.7200128759281
 30
0.0
  0
SPLINE
  5
E9
330
70
100
AcDbEntity
  8
レイヤー 1
 62
    18
420
        0
370
    25
100
AcDbSpline
210
0.0
220
0.0
230
1.0
 70
    24
 71
     3
 72
     8
 73
     4
 74
     0
 42
0.0000000001
 43
0.0000000001
 40
0.0
 40
0.0
 40
0.0
 40
0.0
 40
1.0
 40
1.0
 40
1.0
 40
1.0
 10
71.45866578752813
 20
172.9740133065015
 30
0.0
 10
71.45866578752813
 20
172.9740133065015
 30
0.0
 10
71.9243296549383
 20
172.9316816957265
 30
0.0
 10
71.9243296549383
 20
172.9316816957265
 30
0.0
  0
SPLINE
  5
EA
330
70
100
AcDbEntity
  8
レイヤー 1
 62
    18
420
        0
370
    25
100
AcDbSpline
210
0.0
220
0.0
230
1.0
 70
    24
 71
     3
 72
     8
 73
     4
 74
     0
 42
0.0000000001
 43
0.0000000001
 40
0.0
 40
0.0
 40
0.0
 40
0.0
 40
1.0
 40
1.0
 40
1.0
 40
1.0
 10
71.07766514166797
 20
172.9740133065015
 30
0.0
 10
71.07766514166797
 20
172.9740133065015
 30
0.0
 10
71.45866578752813
 20
173.0163449172765
 30
0.0
 10
71.45866578752813
 20
173.0163449172765
 30
0.0
  0
LWPOLYLINE
  5
EB
330
70
100
AcDbEntity
  8
レイヤー 1
 62
    18
420
        0
370
    25
100
AcDbPolyline
 90
        3
 70
     0
 43
0.0
 10
71.07767052462967
 20
173.0163449172765
 10
70.78132771735784
 20
172.8893500849515
 10
70.69666987876953
 20
172.7623444867031
  0
SPLINE
  5
EC
330
70
100
AcDbEntity
  8
レイヤー 1
 62
    18
420
        0
370
    25
100
AcDbSpline
210
0.0
220
0.0
230
1.0
 70
    24
 71
     3
 72
     8
 73
     4
 74
     0
 42
0.0000000001
 43
0.0000000001
 40
0.0
 40
0.0
 40
0.0
 40
0.0
 40
1.0
 40
1.0
 40
1.0
 40
1.0
 10
70.69666987876953
 20
172.7200128759281
 30
0.0
 10
70.69666987876953
 20
172.7200128759281
 30
0.0
 10
70.69666987876953
 20
172.635349654378
 30
0.0
 10
70.69666987876953
 20
172.635349654378
 30
0.0
  0
SPLINE
  5
ED
330
70
100
AcDbEntity
  8
レイヤー 1
 62
    18
420
        0
370
    25
100
AcDbSpline
210
0.0
220
0.0
230
1.0
 70
    24
 71
     3
 72
     8
 73
     4
 74
     0
 42
0.0000000001
 43
0.0000000001
 40
0.0
 40
0.0
 40
0.0
 40
0.0
 40
1.0
 40
1.0
 40
1.0
 40
1.0
 10
77.25833331401876
 20
170.0953453486437
 30
0.0
 10
77.25833331401876
 20
170.0953453486437
 30
0.0
 10
77.80866040297893
 20
170.0106821270937
 30
0.0
 10
77.80866040297893
 20
170.0106821270937
 30
0.0
  0
LWPOLYLINE
  5
EE
330
70
100
AcDbEntity
  8
レイヤー 1
 62
    18
420
        0
370
    25
100
AcDbPolyline
 90
       38
 70
     0
 43
0.0
 10
76.24233159172501
 20
167.7670098627077
 10
75.73433073057813
 20
167.5553410429093
 10
75.73433073057813
 20
168.1056735148312
 10
75.18399825865626
 20
167.9363363058078
 10
75.22632986943126
 20
168.4866687777297
 10
74.59132879299769
 20
168.4020055561796
 10
74.67599739750939
 20
168.9100064173265
 10
73.99866471030079
 20
168.8253431957765
 10
74.21032814713753
 20
169.291001680225
 10
73.49066384915392
 20
169.24867006945
 10
73.74466427972736
 20
169.6296760982718
 10
72.98266298800704
 20
169.7143393198218
 10
73.3636636338672
 20
170.0106713611703
 10
72.47466212686018
 20
170.1800085701937
 10
72.89799438349534
 20
170.4340090007671
 10
72.00899825945
 20
170.6456670546422
 10
72.47466212686018
 20
170.8150042636656
 10
71.58566061985315
 20
171.069004694239
 10
72.05132987022501
 20
171.195999526564
 10
71.2469969677297
 20
171.4923423338359
 10
71.71266083513987
 20
171.5346739446109
 10
70.95066492638126
 20
171.9156692075094
 10
71.45866040456643
 20
171.9156692075094
 10
70.78132771735784
 20
172.2966752363312
 10
71.28932857850471
 20
172.2120012488578
 10
70.69666449580783
 20
172.5083332902062
 10
71.33166018927972
 20
172.4236700686562
 10
70.69666449580783
 20
172.6776704992297
 10
71.50099739830314
 20
172.5083332902062
 10
70.73899610658283
 20
172.8046760974781
 10
71.75499782887657
 20
172.5083332902062
 10
71.07765975870629
 20
172.9740025405781
 10
71.96666126571331
 20
172.5083332902062
 10
71.45866040456643
 20
172.9740025405781
 10
72.26299330706175
 20
172.5083332902062
 10
71.9243296549383
 20
172.8470077082531
 10
72.6016623421469
 20
172.4660016794312
 10
72.64399395292191
 20
172.6353388884547
  0
SPLINE
  5
EF
330
70
100
AcDbEntity
  8
レイヤー 1
 62
    18
420
        0
370
    13
100
AcDbSpline
210
0.0
220
0.0
230
1.0
 70
    24
 71
     3
 72
     8
 73
     4
 74
     0
 42
0.0000000001
 43
0.0000000001
 40
0.0
 40
0.0
 40
0.0
 40
0.0
 40
1.0
 40
1.0
 40
1.0
 40
1.0
 10
75.73433073057813
 20
168.1056735148312
 30
0.0
 10
75.73433073057813
 20
168.1056735148312
 30
0.0
 10
76.28466320250002
 20
168.9523380281015
 30
0.0
 10
76.28466320250002
 20
168.9523380281015
 30
0.0
  0
SPLINE
  5
F0
330
70
100
AcDbEntity
  8
レイヤー 1
 62
    18
420
        0
370
    13
100
AcDbSpline
210
0.0
220
0.0
230
1.0
 70
    24
 71
     3
 72
     8
 73
     4
 74
     0
 42
0.0000000001
 43
0.0000000001
 40
0.0
 40
0.0
 40
0.0
 40
0.0
 40
1.0
 40
1.0
 40
1.0
 40
1.0
 10
75.22632986943126
 20
168.4866687777297
 30
0.0
 10
75.22632986943126
 20
168.4866687777297
 30
0.0
 10
75.86132556290316
 20
169.24867006945
 30
0.0
 10
75.86132556290316
 20
169.24867006945
 30
0.0
  0
SPLINE
  5
F1
330
70
100
AcDbEntity
  8
レイヤー 1
 62
    18
420
        0
370
    13
100
AcDbSpline
210
0.0
220
0.0
230
1.0
 70
    24
 71
     3
 72
     8
 73
     4
 74
     0
 42
0.0000000001
 43
0.0000000001
 40
0.0
 40
0.0
 40
0.0
 40
0.0
 40
1.0
 40
1.0
 40
1.0
 40
1.0
 10
74.67599739750939
 20
168.9100064173265
 30
0.0
 10
74.67599739750939
 20
168.9100064173265
 30
0.0
 10
75.35333008471798
 20
169.6296653323484
 30
0.0
 10
75.35333008471798
 20
169.6296653323484
 30
0.0
  0
SPLINE
  5
F2
330
70
100
AcDbEntity
  8
レイヤー 1
 62
    18
420
        0
370
    13
100
AcDbSpline
210
0.0
220
0.0
230
1.0
 70
    24
 71
     3
 72
     8
 73
     4
 74
     0
 42
0.0000000001
 43
0.0000000001
 40
0.0
 40
0.0
 40
0.0
 40
0.0
 40
1.0
 40
1.0
 40
1.0
 40
1.0
 10
74.21032814713753
 20
169.291001680225
 30
0.0
 10
74.21032814713753
 20
169.291001680225
 30
0.0
 10
74.92999244512112
 20
169.9683397503953
 30
0.0
 10
74.92999244512112
 20
169.9683397503953
 30
0.0
  0
SPLINE
  5
F3
330
70
100
AcDbEntity
  8
レイヤー 1
 62
    18
420
        0
370
    13
100
AcDbSpline
210
0.0
220
0.0
230
1.0
 70
    24
 71
     3
 72
     8
 73
     4
 74
     0
 42
0.0000000001
 43
0.0000000001
 40
0.0
 40
0.0
 40
0.0
 40
0.0
 40
1.0
 40
1.0
 40
1.0
 40
1.0
 10
73.74465889676566
 20
169.6296653323484
 30
0.0
 10
73.74465889676566
 20
169.6296653323484
 30
0.0
 10
74.50666018848597
 20
170.3493350132937
 30
0.0
 10
74.50666018848597
 20
170.3493350132937
 30
0.0
  0
SPLINE
  5
F4
330
70
100
AcDbEntity
  8
レイヤー 1
 62
    18
420
        0
370
    13
100
AcDbSpline
210
0.0
220
0.0
230
1.0
 70
    24
 71
     3
 72
     8
 73
     4
 74
     0
 42
0.0000000001
 43
0.0000000001
 40
0.0
 40
0.0
 40
0.0
 40
0.0
 40
1.0
 40
1.0
 40
1.0
 40
1.0
 10
73.3636636338672
 20
170.0106713611703
 30
0.0
 10
73.3636636338672
 20
170.0106713611703
 30
0.0
 10
74.12565954262581
 20
170.6456670546422
 30
0.0
 10
74.12565954262581
 20
170.6456670546422
 30
0.0
  0
SPLINE
  5
F5
330
70
100
AcDbEntity
  8
レイヤー 1
 62
    18
420
        0
370
    13
100
AcDbSpline
210
0.0
220
0.0
230
1.0
 70
    24
 71
     3
 72
     8
 73
     4
 74
     0
 42
0.0000000001
 43
0.0000000001
 40
0.0
 40
0.0
 40
0.0
 40
0.0
 40
1.0
 40
1.0
 40
1.0
 40
1.0
 10
72.89799438349534
 20
170.4339982348437
 30
0.0
 10
72.89799438349534
 20
170.4339982348437
 30
0.0
 10
73.74465889676566
 20
170.9843307067656
 30
0.0
 10
73.74465889676566
 20
170.9843307067656
 30
0.0
  0
SPLINE
  5
F6
330
70
100
AcDbEntity
  8
レイヤー 1
 62
    18
420
        0
370
    13
100
AcDbSpline
210
0.0
220
0.0
230
1.0
 70
    24
 71
     3
 72
     8
 73
     4
 74
     0
 42
0.0000000001
 43
0.0000000001
 40
0.0
 40
0.0
 40
0.0
 40
0.0
 40
1.0
 40
1.0
 40
1.0
 40
1.0
 10
72.47466212686018
 20
170.8150042636656
 30
0.0
 10
72.47466212686018
 20
170.8150042636656
 30
0.0
 10
73.3636636338672
 20
171.3653367355875
 30
0.0
 10
73.3636636338672
 20
171.3653367355875
 30
0.0
  0
SPLINE
  5
F7
330
70
100
AcDbEntity
  8
レイヤー 1
 62
    18
420
        0
370
    13
100
AcDbSpline
210
0.0
220
0.0
230
1.0
 70
    24
 71
     3
 72
     8
 73
     4
 74
     0
 42
0.0000000001
 43
0.0000000001
 40
0.0
 40
0.0
 40
0.0
 40
0.0
 40
1.0
 40
1.0
 40
1.0
 40
1.0
 10
72.05132987022501
 20
171.195999526564
 30
0.0
 10
72.05132987022501
 20
171.195999526564
 30
0.0
 10
73.02499459878205
 20
171.6616687769359
 30
0.0
 10
73.02499459878205
 20
171.6616687769359
 30
0.0
  0
SPLINE
  5
F8
330
70
100
AcDbEntity
  8
レイヤー 1
 62
    18
420
        0
370
    13
100
AcDbSpline
210
0.0
220
0.0
230
1.0
 70
    24
 71
     3
 72
     8
 73
     4
 74
     0
 42
0.0000000001
 43
0.0000000001
 40
0.0
 40
0.0
 40
0.0
 40
0.0
 40
1.0
 40
1.0
 40
1.0
 40
1.0
 10
71.71266083513987
 20
171.5346631786875
 30
0.0
 10
71.71266083513987
 20
171.5346631786875
 30
0.0
 10
72.77099416820862
 20
171.9580008182844
 30
0.0
 10
72.77099416820862
 20
171.9580008182844
 30
0.0
  0
SPLINE
  5
F9
330
70
100
AcDbEntity
  8
レイヤー 1
 62
    18
420
        0
370
    13
100
AcDbSpline
210
0.0
220
0.0
230
1.0
 70
    24
 71
     3
 72
     8
 73
     4
 74
     0
 42
0.0000000001
 43
0.0000000001
 40
0.0
 40
0.0
 40
0.0
 40
0.0
 40
1.0
 40
1.0
 40
1.0
 40
1.0
 10
71.45866040456643
 20
171.9156692075094
 30
0.0
 10
71.45866040456643
 20
171.9156692075094
 30
0.0
 10
72.51699373763519
 20
172.2543328596328
 30
0.0
 10
72.51699373763519
 20
172.2543328596328
 30
0.0
  0
SPLINE
  5
FA
330
70
100
AcDbEntity
  8
レイヤー 1
 62
    18
420
        0
370
    13
100
AcDbSpline
210
0.0
220
0.0
230
1.0
 70
    24
 71
     3
 72
     8
 73
     4
 74
     0
 42
0.0000000001
 43
0.0000000001
 40
0.0
 40
0.0
 40
0.0
 40
0.0
 40
1.0
 40
1.0
 40
1.0
 40
1.0
 10
71.28932857850471
 20
172.2120012488578
 30
0.0
 10
71.28932857850471
 20
172.2120012488578
 30
0.0
 10
72.13599309177503
 20
172.3813384578812
 30
0.0
 10
72.13599309177503
 20
172.3813384578812
 30
0.0
  0
LWPOLYLINE
  5
FB
330
70
100
AcDbEntity
  8
レイヤー 1
 62
    18
420
        0
370
    25
100
AcDbPolyline
 90
        3
 70
     0
 43
0.0
 10
72.64399933588361
 20
172.635349654378
 10
73.23666341858049
 20
172.2543436255562
 10
73.4060006276039
 20
172.2966860022546
  0
LWPOLYLINE
  5
FC
330
70
100
AcDbEntity
  8
レイヤー 1
 62
    18
420
        0
370
    25
100
AcDbPolyline
 90
       10
 70
     0
 43
0.0
 10
88.64599954720157
 20
185.5893608476998
 10
87.88399825548125
 20
186.055008566225
 10
87.07966535298593
 20
186.3936829842718
 10
86.23299545675392
 20
186.5630094273718
 10
85.3439993327086
 20
186.6476941807686
 10
84.49732943647658
 20
186.6053410381468
 10
83.65066492320627
 20
186.4360145950468
 10
82.80399502697425
 20
186.1396933196217
 10
82.04199911821563
 20
185.7163556800249
 10
69.13033030159221
 20
176.699356543553
  0
LWPOLYLINE
  5
FD
330
70
100
AcDbEntity
  8
レイヤー 1
 62
    18
420
        0
370
    25
100
AcDbPolyline
 90
       33
 70
     1
 43
0.0
 10
87.24900256200937
 20
191.3466752315687
 10
87.20666556827266
 20
191.3466752315687
 10
87.16433395749765
 20
191.3466752315687
 10
87.07966535298593
 20
191.3466752315687
 10
87.03733374221092
 20
191.3043220889469
 10
86.95266513769922
 20
191.2619904781719
 10
86.86800191614921
 20
191.1773272566219
 10
86.7833333116375
 20
191.0926640350719
 10
86.7410017008625
 20
191.0080008135219
 10
86.65633309635079
 20
190.9233375919718
 10
86.61400148557579
 20
190.8386743704218
 10
86.57166449183907
 20
190.753989617025
 10
86.52933288106407
 20
190.6269947847
 10
86.52933288106407
 20
190.584663173925
 10
86.52933288106407
 20
190.499999952375
 10
86.52933288106407
 20
190.415336730825
 10
86.57166449183907
 20
190.37300512005
 10
86.61400148557579
 20
190.37300512005
 10
86.65633309635079
 20
190.330673509275
 10
86.7410017008625
 20
190.330673509275
 10
86.7833333116375
 20
190.37300512005
 10
86.86800191614921
 20
190.415336730825
 10
86.95266513769922
 20
190.4576683416
 10
87.03733374221092
 20
190.54233156315
 10
87.07966535298593
 20
190.6269947847
 10
87.16433395749765
 20
190.71165800625
 10
87.20666556827266
 20
190.7963212278
 10
87.24900256200937
 20
190.9233375919718
 10
87.29133417278438
 20
191.0080008135219
 10
87.33366578355939
 20
191.0926640350719
 10
87.33366578355939
 20
191.1773272566219
 10
87.33366578355939
 20
191.2196588673969
 10
87.29133417278438
 20
191.3043220889469
  0
LWPOLYLINE
  5
FE
330
70
100
AcDbEntity
  8
レイヤー 1
 62
    18
420
        0
370
    25
100
AcDbPolyline
 90
       18
 70
     0
 43
0.0
 10
118.44867008215
 20
122.5126769713249
 10
118.44867008215
 20
122.4703345946265
 10
118.491001692925
 20
122.4280029838515
 10
118.5333333037
 20
122.3856713730765
 10
118.61799652525
 20
122.3433397623015
 10
118.660328136025
 20
122.3433397623015
 10
118.7873337342734
 20
122.3010081515265
 10
118.8719969558234
 20
122.3010081515265
 10
118.9990025540718
 20
122.2586765407515
 10
119.0836657756219
 20
122.2586765407515
 10
119.2106606079469
 20
122.3010081515265
 10
119.2953345954203
 20
122.3010081515265
 10
119.3799978169703
 20
122.3433397623015
 10
119.4646610385203
 20
122.3433397623015
 10
119.5493350259937
 20
122.3856713730765
 10
119.5916666367687
 20
122.4280029838515
 10
119.5916666367687
 20
122.4703345946265
 10
119.6339982475437
 20
122.5126769713249
  0
LWPOLYLINE
  5
FF
330
70
100
AcDbEntity
  8
レイヤー 1
 62
    18
420
        0
370
    25
100
AcDbPolyline
 90
       57
 70
     0
 43
0.0
 10
118.44867008215
 20
126.111014610128
 10
117.3056627616078
 20
126.4496782622515
 10
116.078002985439
 20
126.788341914375
 10
114.7233268450984
 20
127.0846739557234
 10
113.3263298599062
 20
127.2963427755218
 10
111.844669653164
 20
127.4656799845452
 10
110.3629986804984
 20
127.5503432060953
 10
108.8389960970578
 20
127.5926748168703
 10
107.3149935136172
 20
127.5926748168703
 10
105.7910016961
 20
127.5080115953203
 10
104.3093307234344
 20
127.3810059970718
 10
102.8700021274672
 20
127.1693479431968
 10
101.4729943763516
 20
126.9153475126234
 10
100.2030029894078
 20
126.6190047053515
 10
99.01766405809064
 20
126.2380094424531
 10
97.95933072502188
 20
125.8570141795546
 10
97.02800299020156
 20
125.4336765399578
 10
96.22367008770623
 20
124.9256756788109
 10
95.54633201753594
 20
124.417674817664
 10
95.08066276716409
 20
123.9096739565171
 10
94.74199911504063
 20
123.3593414845953
 10
94.57266190601721
 20
122.8090090126734
 10
94.57266190601721
 20
122.2586765407515
 10
94.74199911504063
 20
121.7083440688296
 10
95.08066276716409
 20
121.1580115969077
 10
95.54633201753594
 20
120.6076791249859
 10
96.22367008770623
 20
120.142009874614
 10
97.02800299020156
 20
119.6340090134671
 10
97.95933072502188
 20
119.2106713738703
 10
99.01766405809064
 20
118.7873445001968
 10
100.2030029894078
 20
118.4486808480734
 10
101.4729943763516
 20
118.1523380408015
 10
102.8276597507688
 20
117.8983376102281
 10
104.2669991126593
 20
117.6866795563531
 10
105.748670085325
 20
117.5596739581046
 10
107.2726619028422
 20
117.4750107365546
 10
108.7966644862828
 20
117.4326791257796
 10
110.3206670697234
 20
117.4750107365546
 10
111.844669653164
 20
117.6020055688796
 10
113.3263298599062
 20
117.7713427779031
 10
114.7233268450984
 20
117.9830115977015
 10
116.0356606087406
 20
118.2370120282749
 10
117.3056627616078
 20
118.5756756803984
 10
118.44867008215
 20
118.9566709432968
 10
119.4646610385203
 20
119.3800085828937
 10
120.353667928489
 20
119.8456778332656
 10
121.0733268435109
 20
120.3113470836374
 10
121.6660016921312
 20
120.8193479447843
 10
122.0893285658047
 20
121.3696804167062
 10
122.3433289963781
 20
121.9200128886281
 10
122.4703345946265
 20
122.4703453605499
 10
122.3856606071531
 20
123.0206778324718
 10
122.1740025532781
 20
123.5710103043937
 10
121.7506649136812
 20
124.1213427763156
 10
121.2003324417594
 20
124.6293436374624
 10
120.4806627608141
 20
125.1373444986093
 10
119.6339982475437
 20
125.6030137489812
  0
LWPOLYLINE
  5
100
330
70
100
AcDbEntity
  8
レイヤー 1
 62
    18
420
        0
370
    25
100
AcDbPolyline
 90
       31
 70
     0
 43
0.0
 10
94.5303302952422
 20
122.3856821389999
 10
94.57266190601721
 20
121.8353389011546
 10
94.78431995989224
 20
121.2850064292328
 10
95.1229943779391
 20
120.7770055680859
 10
95.63099523908595
 20
120.2690154728624
 10
96.26599093255785
 20
119.7610146117155
 10
97.07032383505318
 20
119.3376769721187
 10
98.00166233579689
 20
118.9143393325218
 10
99.01765329216726
 20
118.4910124588484
 10
100.1606606127094
 20
118.1523488067249
 10
101.3883203888782
 20
117.8560059994531
 10
102.7429965292187
 20
117.6020055688796
 10
104.0976619036359
 20
117.4326791257796
 10
105.5369904996031
 20
117.2633419167562
 10
107.0186614722687
 20
117.1786786952062
 10
108.500321679011
 20
117.1363470844312
 10
109.9819926516766
 20
117.1786786952062
 10
111.4636636243422
 20
117.2633419167562
 10
112.9029922203094
 20
117.4326791257796
 10
114.2576575947266
 20
117.6020055688796
 10
115.6123229691438
 20
117.8560059994531
 10
116.8399935112359
 20
118.1523488067249
 10
117.9829900658547
 20
118.4910124588484
 10
118.9989917881485
 20
118.9143393325218
 10
119.9303302888922
 20
119.3376769721187
 10
120.7346631913875
 20
119.7610146117155
 10
121.3696588848594
 20
120.2690154728624
 10
121.8776597460063
 20
120.7770055680859
 10
122.2163233981297
 20
121.2850064292328
 10
122.4279922179281
 20
121.8353389011546
 10
122.4703238287031
 20
122.3856821389999
  0
LWPOLYLINE
  5
101
330
70
100
AcDbEntity
  8
レイヤー 1
 62
    18
420
        0
370
    25
100
AcDbPolyline
 90
       23
 70
     0
 43
0.0
 10
96.73167094885311
 20
119.5070141811421
 10
97.19732943330159
 20
118.9990133199952
 10
97.83233589269688
 20
118.5333440696234
 10
98.63666879519218
 20
118.0676748192515
 10
99.52566491923752
 20
117.6443371796547
 10
100.5839982523062
 20
117.3056735275312
 10
101.726994806925
 20
116.9670098754078
 10
102.9546653490172
 20
116.7130094448343
 10
104.2669991126593
 20
116.5013406250359
 10
105.6639960978515
 20
116.3320141819359
 10
107.0610038489671
 20
116.2473401944625
 10
108.5003324449344
 20
116.2050085836874
 10
109.9396610409016
 20
116.2473401944625
 10
111.3366687920172
 20
116.3320141819359
 10
112.7336657772094
 20
116.5013406250359
 10
114.0459995408515
 20
116.7130094448343
 10
115.2736700829437
 20
116.9670098754078
 10
116.4166666375625
 20
117.3056735275312
 10
117.4749999706312
 20
117.6443371796547
 10
118.3639960946766
 20
118.0676748192515
 10
119.1683289971719
 20
118.5333440696234
 10
119.8033354565672
 20
118.9990133199952
 10
120.2689939410156
 20
119.5070141811421
  0
LWPOLYLINE
  5
102
330
70
100
AcDbEntity
  8
レイヤー 1
 62
    18
420
        0
370
    25
100
AcDbPolyline
 90
       25
 70
     0
 43
0.0
 10
96.51999136313129
 20
119.6340090134671
 10
96.85865501525475
 20
119.1260081523203
 10
97.40898748717661
 20
118.6603389019484
 10
98.04398318064851
 20
118.1946696515765
 10
98.84831608314383
 20
117.7713320119797
 10
99.73732297311256
 20
117.3903367490812
 10
100.7956563061813
 20
117.0093414861828
 10
101.896321250025
 20
116.7129986789109
 10
103.1239810261938
 20
116.4590090142609
 10
104.393983179061
 20
116.2473401944625
 10
105.7486485534782
 20
116.120334596214
 10
107.1033246938188
 20
116.035671374664
 10
108.500321679011
 20
115.993339763889
 10
109.8973186642032
 20
116.035671374664
 10
111.2519840386204
 20
116.120334596214
 10
112.6066494130375
 20
116.2473401944625
 10
113.8766515659047
 20
116.4590090142609
 10
115.1043221079969
 20
116.7129986789109
 10
116.2049870518407
 20
117.0093414861828
 10
117.2633203849094
 20
117.3903367490812
 10
118.1523165089547
 20
117.7713320119797
 10
118.95664941145
 20
118.1946696515765
 10
119.5916558708453
 20
118.6603389019484
 10
120.1419883427672
 20
119.1260081523203
 10
120.4806519948907
 20
119.6340090134671
  0
LINE
  5
103
330
70
100
AcDbEntity
  8
レイヤー 1
 62
    18
420
        0
370
    25
100
AcDbLine
 10
194.944991338525
 20
253.5343306861282
 30
0.0
 11
194.944991338525
 21
43.60334624154057
 31
0.0
  0
LWPOLYLINE
  5
104
330
70
100
AcDbEntity
  8
レイヤー 1
 62
    18
420
        0
370
    25
100
AcDbPolyline
 90
        3
 70
     0
 43
0.0
 10
15.02833279128008
 20
253.5343306861282
 10
15.02833279128008
 20
43.60334624154057
 10
194.944991338525
 20
43.60334624154057
  0
SPLINE
  5
105
330
70
100
AcDbEntity
  8
レイヤー 1
 62
    18
420
        0
370
    25
100
AcDbSpline
210
0.0
220
0.0
230
1.0
 70
    24
 71
     3
 72
     8
 73
     4
 74
     0
 42
0.0000000001
 43
0.0000000001
 40
0.0
 40
0.0
 40
0.0
 40
0.0
 40
1.0
 40
1.0
 40
1.0
 40
1.0
 10
194.944991338525
 20
53.59401548953119
 30
0.0
 10
194.944991338525
 20
53.59401548953119
 30
0.0
 10
15.02832471683754
 20
53.59401548953119
 30
0.0
 10
15.02832471683754
 20
53.59401548953119
 30
0.0
  0
SPLINE
  5
106
330
70
100
AcDbEntity
  8
レイヤー 1
 62
    18
420
        0
370
    25
100
AcDbSpline
210
0.0
220
0.0
230
1.0
 70
    24
 71
     3
 72
     8
 73
     4
 74
     0
 42
0.0000000001
 43
0.0000000001
 40
0.0
 40
0.0
 40
0.0
 40
0.0
 40
1.0
 40
1.0
 40
1.0
 40
1.0
 10
194.944991338525
 20
63.5846793545601
 30
0.0
 10
194.944991338525
 20
63.5846793545601
 30
0.0
 10
15.02832471683754
 20
63.5846793545601
 30
0.0
 10
15.02832471683754
 20
63.5846793545601
 30
0.0
  0
SPLINE
  5
107
330
70
100
AcDbEntity
  8
レイヤー 1
 62
    18
420
        0
370
    25
100
AcDbSpline
210
0.0
220
0.0
230
1.0
 70
    24
 71
     3
 72
     8
 73
     4
 74
     0
 42
0.0000000001
 43
0.0000000001
 40
0.0
 40
0.0
 40
0.0
 40
0.0
 40
1.0
 40
1.0
 40
1.0
 40
1.0
 10
194.944991338525
 20
73.57534321958903
 30
0.0
 10
194.944991338525
 20
73.57534321958903
 30
0.0
 10
15.02832471683754
 20
73.57534321958903
 30
0.0
 10
15.02832471683754
 20
73.57534321958903
 30
0.0
  0
SPLINE
  5
108
330
70
100
AcDbEntity
  8
レイヤー 1
 62
    18
420
        0
370
    25
100
AcDbSpline
210
0.0
220
0.0
230
1.0
 70
    24
 71
     3
 72
     8
 73
     4
 74
     0
 42
0.0000000001
 43
0.0000000001
 40
0.0
 40
0.0
 40
0.0
 40
0.0
 40
1.0
 40
1.0
 40
1.0
 40
1.0
 10
194.944991338525
 20
253.5343306861282
 30
0.0
 10
194.944991338525
 20
253.5343306861282
 30
0.0
 10
15.02832471683754
 20
253.5343306861282
 30
0.0
 10
15.02832471683754
 20
253.5343306861282
 30
0.0
  0
LWPOLYLINE
  5
109
330
70
100
AcDbEntity
  8
レイヤー 1
 62
    18
420
        0
370
    13
100
AcDbPolyline
 90
        3
 70
     0
 43
0.0
 10
19.09233429749335
 20
55.7529922345969
 10
19.09233429749335
 20
60.74833762451561
 10
22.1826656921879
 20
60.74833762451561
  0
SPLINE
  5
10A
330
70
100
AcDbEntity
  8
レイヤー 1
 62
    18
420
        0
370
    13
100
AcDbSpline
210
0.0
220
0.0
230
1.0
 70
    24
 71
     3
 72
     8
 73
     4
 74
     0
 42
0.0000000001
 43
0.0000000001
 40
0.0
 40
0.0
 40
0.0
 40
0.0
 40
1.0
 40
1.0
 40
1.0
 40
1.0
 10
19.09233429749335
 20
58.33532815110627
 30
0.0
 10
19.09233429749335
 20
58.33532815110627
 30
0.0
 10
20.99733348957285
 20
58.33532815110627
 30
0.0
 10
20.99733348957285
 20
58.33532815110627
 30
0.0
  0
SPLINE
  5
10B
330
70
100
AcDbEntity
  8
レイヤー 1
 62
    18
420
        0
370
    13
100
AcDbSpline
210
0.0
220
0.0
230
1.0
 70
    24
 71
     3
 72
     8
 73
     4
 74
     0
 42
0.0000000001
 43
0.0000000001
 40
0.0
 40
0.0
 40
0.0
 40
0.0
 40
1.0
 40
1.0
 40
1.0
 40
1.0
 10
19.09233429749335
 20
55.7529922345969
 30
0.0
 10
19.09233429749335
 20
55.7529922345969
 30
0.0
 10
22.1826656921879
 20
55.7529922345969
 30
0.0
 10
22.1826656921879
 20
55.7529922345969
 30
0.0
  0
LWPOLYLINE
  5
10C
330
70
100
AcDbEntity
  8
レイヤー 1
 62
    18
420
        0
370
    13
100
AcDbPolyline
 90
        4
 70
     0
 43
0.0
 10
23.6219996711168
 20
59.77466751299687
 10
24.08766623000782
 20
60.0286787094937
 10
24.80733321947227
 20
60.74833762451561
 10
24.80733321947227
 20
55.7529922345969
  0
LWPOLYLINE
  5
10D
330
70
100
AcDbEntity
  8
レイヤー 1
 62
    18
420
        0
370
    13
100
AcDbPolyline
 90
        3
 70
     0
 43
0.0
 10
27.43199805527579
 20
60.74833762451561
 10
30.73400096124961
 20
60.74833762451561
 10
28.36333117305782
 20
55.7529922345969
  0
LWPOLYLINE
  5
10E
330
70
100
AcDbEntity
  8
レイヤー 1
 62
    18
420
        0
370
    13
100
AcDbPolyline
 90
        3
 70
     0
 43
0.0
 10
39.49699966714805
 20
55.7529922345969
 10
39.83566601075235
 20
56.04935657371552
 10
39.83566601075235
 20
56.38800945991558
  0
LWPOLYLINE
  5
10F
330
70
100
AcDbEntity
  8
レイヤー 1
 62
    18
420
        0
370
    13
100
AcDbPolyline
 90
        3
 70
     0
 43
0.0
 10
37.50733052481642
 20
56.04935657371552
 10
37.84599686842072
 20
55.7529922345969
 10
39.49699966714805
 20
55.7529922345969
  0
LINE
  5
110
330
70
100
AcDbEntity
  8
レイヤー 1
 62
    18
420
        0
370
    13
100
AcDbLine
 10
39.83566601075235
 20
59.73233590222187
 30
0.0
 11
39.83566601075235
 21
59.05500859797497
 31
0.0
  0
LWPOLYLINE
  5
111
330
70
100
AcDbEntity
  8
レイヤー 1
 62
    18
420
        0
370
    13
100
AcDbPolyline
 90
        4
 70
     1
 43
0.0
 10
39.20066762579961
 20
57.74266406840939
 10
39.20066762579961
 20
56.38800945991558
 10
35.85633310905079
 20
56.38800945991558
 10
35.85633310905079
 20
57.74266406840939
  0
SPLINE
  5
112
330
70
100
AcDbEntity
  8
レイヤー 1
 62
    18
420
        0
370
    13
100
AcDbSpline
210
0.0
220
0.0
230
1.0
 70
    24
 71
     3
 72
     8
 73
     4
 74
     0
 42
0.0000000001
 43
0.0000000001
 40
0.0
 40
0.0
 40
0.0
 40
0.0
 40
1.0
 40
1.0
 40
1.0
 40
1.0
 10
37.50733052481642
 20
57.74268560025618
 30
0.0
 10
37.50733052481642
 20
57.74268560025618
 30
0.0
 10
37.50733052481642
 20
56.04935119075383
 30
0.0
 10
37.50733052481642
 20
56.04935119075383
 30
0.0
  0
SPLINE
  5
113
330
70
100
AcDbEntity
  8
レイヤー 1
 62
    18
420
        0
370
    13
100
AcDbSpline
210
0.0
220
0.0
230
1.0
 70
    24
 71
     3
 72
     8
 73
     4
 74
     0
 42
0.0000000001
 43
0.0000000001
 40
0.0
 40
0.0
 40
0.0
 40
0.0
 40
1.0
 40
1.0
 40
1.0
 40
1.0
 10
37.50733052481642
 20
60.40968473831554
 30
0.0
 10
37.50733052481642
 20
60.40968473831554
 30
0.0
 10
37.50733052481642
 20
58.37768129372807
 30
0.0
 10
37.50733052481642
 20
58.37768129372807
 30
0.0
  0
SPLINE
  5
114
330
70
100
AcDbEntity
  8
レイヤー 1
 62
    18
420
        0
370
    13
100
AcDbSpline
210
0.0
220
0.0
230
1.0
 70
    24
 71
     3
 72
     8
 73
     4
 74
     0
 42
0.0000000001
 43
0.0000000001
 40
0.0
 40
0.0
 40
0.0
 40
0.0
 40
1.0
 40
1.0
 40
1.0
 40
1.0
 10
35.17899503888049
 20
59.73235205110695
 30
0.0
 10
35.17899503888049
 20
59.73235205110695
 30
0.0
 10
35.17899503888049
 20
59.05501398093666
 30
0.0
 10
35.17899503888049
 20
59.05501398093666
 30
0.0
  0
SPLINE
  5
115
330
70
100
AcDbEntity
  8
レイヤー 1
 62
    18
420
        0
370
    13
100
AcDbSpline
210
0.0
220
0.0
230
1.0
 70
    24
 71
     3
 72
     8
 73
     4
 74
     0
 42
0.0000000001
 43
0.0000000001
 40
0.0
 40
0.0
 40
0.0
 40
0.0
 40
1.0
 40
1.0
 40
1.0
 40
1.0
 10
35.85633041756994
 20
57.06534753008588
 30
0.0
 10
35.85633041756994
 20
57.06534753008588
 30
0.0
 10
39.20066224283792
 20
57.06534753008588
 30
0.0
 10
39.20066224283792
 20
57.06534753008588
 30
0.0
  0
SPLINE
  5
116
330
70
100
AcDbEntity
  8
レイヤー 1
 62
    18
420
        0
370
    13
100
AcDbSpline
210
0.0
220
0.0
230
1.0
 70
    24
 71
     3
 72
     8
 73
     4
 74
     0
 42
0.0000000001
 43
0.0000000001
 40
0.0
 40
0.0
 40
0.0
 40
0.0
 40
1.0
 40
1.0
 40
1.0
 40
1.0
 10
38.18466321202502
 20
58.37768129372807
 30
0.0
 10
38.18466321202502
 20
58.37768129372807
 30
0.0
 10
39.20066224283792
 20
58.37768129372807
 30
0.0
 10
39.20066224283792
 20
58.37768129372807
 30
0.0
  0
SPLINE
  5
117
330
70
100
AcDbEntity
  8
レイヤー 1
 62
    18
420
        0
370
    13
100
AcDbSpline
210
0.0
220
0.0
230
1.0
 70
    24
 71
     3
 72
     8
 73
     4
 74
     0
 42
0.0000000001
 43
0.0000000001
 40
0.0
 40
0.0
 40
0.0
 40
0.0
 40
1.0
 40
1.0
 40
1.0
 40
1.0
 10
35.85633041756994
 20
58.37768129372807
 30
0.0
 10
35.85633041756994
 20
58.37768129372807
 30
0.0
 10
36.82999514612698
 20
58.37768129372807
 30
0.0
 10
36.82999514612698
 20
58.37768129372807
 30
0.0
  0
SPLINE
  5
118
330
70
100
AcDbEntity
  8
レイヤー 1
 62
    18
420
        0
370
    13
100
AcDbSpline
210
0.0
220
0.0
230
1.0
 70
    24
 71
     3
 72
     8
 73
     4
 74
     0
 42
0.0000000001
 43
0.0000000001
 40
0.0
 40
0.0
 40
0.0
 40
0.0
 40
1.0
 40
1.0
 40
1.0
 40
1.0
 10
38.18466321202502
 20
59.05501398093666
 30
0.0
 10
38.18466321202502
 20
59.05501398093666
 30
0.0
 10
39.20066224283792
 20
59.05501398093666
 30
0.0
 10
39.20066224283792
 20
59.05501398093666
 30
0.0
  0
SPLINE
  5
119
330
70
100
AcDbEntity
  8
レイヤー 1
 62
    18
420
        0
370
    13
100
AcDbSpline
210
0.0
220
0.0
230
1.0
 70
    24
 71
     3
 72
     8
 73
     4
 74
     0
 42
0.0000000001
 43
0.0000000001
 40
0.0
 40
0.0
 40
0.0
 40
0.0
 40
1.0
 40
1.0
 40
1.0
 40
1.0
 10
35.85633041756994
 20
59.05501398093666
 30
0.0
 10
35.85633041756994
 20
59.05501398093666
 30
0.0
 10
36.82999514612698
 20
59.05501398093666
 30
0.0
 10
36.82999514612698
 20
59.05501398093666
 30
0.0
  0
SPLINE
  5
11A
330
70
100
AcDbEntity
  8
レイヤー 1
 62
    18
420
        0
370
    13
100
AcDbSpline
210
0.0
220
0.0
230
1.0
 70
    24
 71
     3
 72
     8
 73
     4
 74
     0
 42
0.0000000001
 43
0.0000000001
 40
0.0
 40
0.0
 40
0.0
 40
0.0
 40
1.0
 40
1.0
 40
1.0
 40
1.0
 10
35.17899503888049
 20
59.73235205110695
 30
0.0
 10
35.17899503888049
 20
59.73235205110695
 30
0.0
 10
39.8356633192715
 20
59.73235205110695
 30
0.0
 10
39.8356633192715
 20
59.73235205110695
 30
0.0
  0
SPLINE
  5
11B
330
70
100
AcDbEntity
  8
レイヤー 1
 62
    18
420
        0
370
    13
100
AcDbSpline
210
0.0
220
0.0
230
1.0
 70
    24
 71
     3
 72
     8
 73
     4
 74
     0
 42
0.0000000001
 43
0.0000000001
 40
0.0
 40
0.0
 40
0.0
 40
0.0
 40
1.0
 40
1.0
 40
1.0
 40
1.0
 10
35.51766138248479
 20
60.40968473831554
 30
0.0
 10
35.51766138248479
 20
60.40968473831554
 30
0.0
 10
39.4969969756672
 20
60.40968473831554
 30
0.0
 10
39.4969969756672
 20
60.40968473831554
 30
0.0
  0
SPLINE
  5
11C
330
70
100
AcDbEntity
  8
レイヤー 1
 62
    18
420
        0
370
    13
100
AcDbSpline
210
0.0
220
0.0
230
1.0
 70
    24
 71
     3
 72
     8
 73
     4
 74
     0
 42
0.0000000001
 43
0.0000000001
 40
0.0
 40
0.0
 40
0.0
 40
0.0
 40
1.0
 40
1.0
 40
1.0
 40
1.0
 10
44.83099525178595
 20
60.40968473831554
 30
0.0
 10
44.83099525178595
 20
60.40968473831554
 30
0.0
 10
45.50832793899455
 20
60.0710157032304
 30
0.0
 10
45.50832793899455
 20
60.0710157032304
 30
0.0
  0
LWPOLYLINE
  5
11D
330
70
100
AcDbEntity
  8
レイヤー 1
 62
    18
420
        0
370
    13
100
AcDbPolyline
 90
        4
 70
     0
 43
0.0
 10
45.8469969740797
 20
56.38800945991558
 10
45.1696642868711
 20
57.06533676416249
 10
44.83100063474765
 20
57.74266406840939
 10
44.19599686683322
 20
58.71633417992812
  0
SPLINE
  5
11E
330
70
100
AcDbEntity
  8
レイヤー 1
 62
    18
420
        0
370
    13
100
AcDbSpline
210
0.0
220
0.0
230
1.0
 70
    24
 71
     3
 72
     8
 73
     4
 74
     0
 42
0.0000000001
 43
0.0000000001
 40
0.0
 40
0.0
 40
0.0
 40
0.0
 40
1.0
 40
1.0
 40
1.0
 40
1.0
 10
45.50833332195625
 20
58.71633417992812
 30
0.0
 10
45.50833332195625
 20
58.71633417992812
 30
0.0
 10
44.83100063474765
 20
58.08133848645623
 30
0.0
 10
44.83100063474765
 20
58.08133848645623
 30
0.0
  0
SPLINE
  5
11F
330
70
100
AcDbEntity
  8
レイヤー 1
 62
    18
420
        0
370
    13
100
AcDbSpline
210
0.0
220
0.0
230
1.0
 70
    24
 71
     3
 72
     8
 73
     4
 74
     0
 42
0.0000000001
 43
0.0000000001
 40
0.0
 40
0.0
 40
0.0
 40
0.0
 40
1.0
 40
1.0
 40
1.0
 40
1.0
 10
42.84133149241602
 20
56.72668387796242
 30
0.0
 10
42.84133149241602
 20
56.72668387796242
 30
0.0
 10
43.85733052322891
 20
57.74266406840939
 30
0.0
 10
43.85733052322891
 20
57.74266406840939
 30
0.0
  0
SPLINE
  5
120
330
70
100
AcDbEntity
  8
レイヤー 1
 62
    18
420
        0
370
    13
100
AcDbSpline
210
0.0
220
0.0
230
1.0
 70
    24
 71
     3
 72
     8
 73
     4
 74
     0
 42
0.0000000001
 43
0.0000000001
 40
0.0
 40
0.0
 40
0.0
 40
0.0
 40
1.0
 40
1.0
 40
1.0
 40
1.0
 10
43.17999783602032
 20
58.71633417992812
 30
0.0
 10
43.17999783602032
 20
58.71633417992812
 30
0.0
 10
43.51866417962462
 20
58.37768129372807
 30
0.0
 10
43.51866417962462
 20
58.37768129372807
 30
0.0
  0
LWPOLYLINE
  5
121
330
70
100
AcDbEntity
  8
レイヤー 1
 62
    18
420
        0
370
    13
100
AcDbPolyline
 90
        3
 70
     0
 43
0.0
 10
42.50266514881173
 20
57.40401118220933
 10
41.82533246160313
 20
56.72668387796242
 10
41.19033138516954
 20
56.72668387796242
  0
LINE
  5
122
330
70
100
AcDbEntity
  8
レイヤー 1
 62
    18
420
        0
370
    13
100
AcDbLine
 10
41.82533246160313
 20
56.72668387796242
 30
0.0
 11
41.82533246160313
 21
60.0710103202687
 31
0.0
  0
LWPOLYLINE
  5
123
330
70
100
AcDbEntity
  8
レイヤー 1
 62
    18
420
        0
370
    13
100
AcDbPolyline
 90
        3
 70
     0
 43
0.0
 10
44.19599686683322
 20
60.74833762451561
 10
44.19599686683322
 20
55.7529922345969
 10
43.51866417962462
 20
55.7529922345969
  0
SPLINE
  5
124
330
70
100
AcDbEntity
  8
レイヤー 1
 62
    18
420
        0
370
    13
100
AcDbSpline
210
0.0
220
0.0
230
1.0
 70
    24
 71
     3
 72
     8
 73
     4
 74
     0
 42
0.0000000001
 43
0.0000000001
 40
0.0
 40
0.0
 40
0.0
 40
0.0
 40
1.0
 40
1.0
 40
1.0
 40
1.0
 10
41.19033138516954
 20
58.37768129372807
 30
0.0
 10
41.19033138516954
 20
58.37768129372807
 30
0.0
 10
42.50266514881173
 20
58.37768129372807
 30
0.0
 10
42.50266514881173
 20
58.37768129372807
 30
0.0
  0
SPLINE
  5
125
330
70
100
AcDbEntity
  8
レイヤー 1
 62
    18
420
        0
370
    13
100
AcDbSpline
210
0.0
220
0.0
230
1.0
 70
    24
 71
     3
 72
     8
 73
     4
 74
     0
 42
0.0000000001
 43
0.0000000001
 40
0.0
 40
0.0
 40
0.0
 40
0.0
 40
1.0
 40
1.0
 40
1.0
 40
1.0
 10
42.84133149241602
 20
59.39366148417502
 30
0.0
 10
42.84133149241602
 20
59.39366148417502
 30
0.0
 10
45.8469969740797
 20
59.39366148417502
 30
0.0
 10
45.8469969740797
 20
59.39366148417502
 30
0.0
  0
SPLINE
  5
126
330
70
100
AcDbEntity
  8
レイヤー 1
 62
    18
420
        0
370
    13
100
AcDbSpline
210
0.0
220
0.0
230
1.0
 70
    24
 71
     3
 72
     8
 73
     4
 74
     0
 42
0.0000000001
 43
0.0000000001
 40
0.0
 40
0.0
 40
0.0
 40
0.0
 40
1.0
 40
1.0
 40
1.0
 40
1.0
 10
41.19033138516954
 20
60.0710103202687
 30
0.0
 10
41.19033138516954
 20
60.0710103202687
 30
0.0
 10
42.50266514881173
 20
60.0710103202687
 30
0.0
 10
42.50266514881173
 20
60.0710103202687
 30
0.0
  0
LWPOLYLINE
  5
127
330
70
100
AcDbEntity
  8
レイヤー 1
 62
    18
420
        0
370
    13
100
AcDbPolyline
 90
        3
 70
     0
 43
0.0
 10
47.83666342493048
 20
58.37768129372807
 10
47.49799977280703
 20
58.08133848645623
 10
47.15933073772188
 20
58.08133848645623
  0
LINE
  5
128
330
70
100
AcDbEntity
  8
レイヤー 1
 62
    18
420
        0
370
    13
100
AcDbLine
 10
48.17533246001563
 20
59.05500859797497
 30
0.0
 11
47.83666342493048
 21
58.37768129372807
 31
0.0
  0
LWPOLYLINE
  5
129
330
70
100
AcDbEntity
  8
レイヤー 1
 62
    18
420
        0
370
    13
100
AcDbPolyline
 90
        3
 70
     0
 43
0.0
 10
51.85833332036875
 20
60.74833762451561
 10
51.85833332036875
 20
58.08133848645623
 10
51.18100063316015
 20
58.08133848645623
  0
SPLINE
  5
12A
330
70
100
AcDbEntity
  8
レイヤー 1
 62
    18
420
        0
370
    13
100
AcDbSpline
210
0.0
220
0.0
230
1.0
 70
    24
 71
     3
 72
     8
 73
     4
 74
     0
 42
0.0000000001
 43
0.0000000001
 40
0.0
 40
0.0
 40
0.0
 40
0.0
 40
1.0
 40
1.0
 40
1.0
 40
1.0
 10
50.84233159807501
 20
60.40968473831554
 30
0.0
 10
50.84233159807501
 20
60.40968473831554
 30
0.0
 10
50.84233159807501
 20
58.71635032881322
 30
0.0
 10
50.84233159807501
 20
58.71635032881322
 30
0.0
  0
SPLINE
  5
12B
330
70
100
AcDbEntity
  8
レイヤー 1
 62
    18
420
        0
370
    13
100
AcDbSpline
210
0.0
220
0.0
230
1.0
 70
    24
 71
     3
 72
     8
 73
     4
 74
     0
 42
0.0000000001
 43
0.0000000001
 40
0.0
 40
0.0
 40
0.0
 40
0.0
 40
1.0
 40
1.0
 40
1.0
 40
1.0
 10
49.52999783443282
 20
57.74268021729447
 30
0.0
 10
49.52999783443282
 20
57.74268021729447
 30
0.0
 10
49.52999783443282
 20
55.75301376644369
 30
0.0
 10
49.52999783443282
 20
55.75301376644369
 30
0.0
  0
SPLINE
  5
12C
330
70
100
AcDbEntity
  8
レイヤー 1
 62
    18
420
        0
370
    13
100
AcDbSpline
210
0.0
220
0.0
230
1.0
 70
    24
 71
     3
 72
     8
 73
     4
 74
     0
 42
0.0000000001
 43
0.0000000001
 40
0.0
 40
0.0
 40
0.0
 40
0.0
 40
1.0
 40
1.0
 40
1.0
 40
1.0
 10
49.19132879934767
 20
60.40968473831554
 30
0.0
 10
49.19132879934767
 20
60.40968473831554
 30
0.0
 10
49.19132879934767
 20
58.08134925237962
 30
0.0
 10
49.19132879934767
 20
58.08134925237962
 30
0.0
  0
SPLINE
  5
12D
330
70
100
AcDbEntity
  8
レイヤー 1
 62
    18
420
        0
370
    13
100
AcDbSpline
210
0.0
220
0.0
230
1.0
 70
    24
 71
     3
 72
     8
 73
     4
 74
     0
 42
0.0000000001
 43
0.0000000001
 40
0.0
 40
0.0
 40
0.0
 40
0.0
 40
1.0
 40
1.0
 40
1.0
 40
1.0
 10
48.17532707705393
 20
60.40968473831554
 30
0.0
 10
48.17532707705393
 20
60.40968473831554
 30
0.0
 10
48.17532707705393
 20
59.05501398093666
 30
0.0
 10
48.17532707705393
 20
59.05501398093666
 30
0.0
  0
SPLINE
  5
12E
330
70
100
AcDbEntity
  8
レイヤー 1
 62
    18
420
        0
370
    13
100
AcDbSpline
210
0.0
220
0.0
230
1.0
 70
    24
 71
     3
 72
     8
 73
     4
 74
     0
 42
0.0000000001
 43
0.0000000001
 40
0.0
 40
0.0
 40
0.0
 40
0.0
 40
1.0
 40
1.0
 40
1.0
 40
1.0
 10
47.15933073772188
 20
55.75301376644369
 30
0.0
 10
47.15933073772188
 20
55.75301376644369
 30
0.0
 10
51.85832793740705
 20
55.75301376644369
 30
0.0
 10
51.85832793740705
 20
55.75301376644369
 30
0.0
  0
SPLINE
  5
12F
330
70
100
AcDbEntity
  8
レイヤー 1
 62
    18
420
        0
370
    13
100
AcDbSpline
210
0.0
220
0.0
230
1.0
 70
    24
 71
     3
 72
     8
 73
     4
 74
     0
 42
0.0000000001
 43
0.0000000001
 40
0.0
 40
0.0
 40
0.0
 40
0.0
 40
1.0
 40
1.0
 40
1.0
 40
1.0
 10
47.83666342493048
 20
57.06534753008588
 30
0.0
 10
47.83666342493048
 20
57.06534753008588
 30
0.0
 10
51.18099525019846
 20
57.06534753008588
 30
0.0
 10
51.18099525019846
 20
57.06534753008588
 30
0.0
  0
SPLINE
  5
130
330
70
100
AcDbEntity
  8
レイヤー 1
 62
    18
420
        0
370
    13
100
AcDbSpline
210
0.0
220
0.0
230
1.0
 70
    24
 71
     3
 72
     8
 73
     4
 74
     0
 42
0.0000000001
 43
0.0000000001
 40
0.0
 40
0.0
 40
0.0
 40
0.0
 40
1.0
 40
1.0
 40
1.0
 40
1.0
 10
47.15933073772188
 20
59.39368301602181
 30
0.0
 10
47.15933073772188
 20
59.39368301602181
 30
0.0
 10
50.16499352790471
 20
59.39368301602181
 30
0.0
 10
50.16499352790471
 20
59.39368301602181
 30
0.0
  0
SPLINE
  5
131
330
70
100
AcDbEntity
  8
レイヤー 1
 62
    18
420
        0
370
    13
100
AcDbSpline
210
0.0
220
0.0
230
1.0
 70
    24
 71
     3
 72
     8
 73
     4
 74
     0
 42
0.0000000001
 43
0.0000000001
 40
0.0
 40
0.0
 40
0.0
 40
0.0
 40
1.0
 40
1.0
 40
1.0
 40
1.0
 10
47.49799438984534
 20
60.40968473831554
 30
0.0
 10
47.49799438984534
 20
60.40968473831554
 30
0.0
 10
49.82632987578127
 20
60.40968473831554
 30
0.0
 10
49.82632987578127
 20
60.40968473831554
 30
0.0
  0
LWPOLYLINE
  5
132
330
70
100
AcDbEntity
  8
レイヤー 1
 62
    18
420
        0
370
    13
100
AcDbPolyline
 90
        3
 70
     0
 43
0.0
 10
53.17066708401093
 20
60.74833762451561
 10
53.17066708401093
 20
55.7529922345969
 10
56.04932965890704
 20
55.7529922345969
  0
LWPOLYLINE
  5
133
330
70
100
AcDbEntity
  8
レイヤー 1
 62
    18
420
        0
370
    13
100
AcDbPolyline
 90
        3
 70
     0
 43
0.0
 10
57.23466859022421
 20
55.7529922345969
 10
57.23466859022421
 20
60.74833762451561
 10
60.32499998491875
 20
60.74833762451561
  0
SPLINE
  5
134
330
70
100
AcDbEntity
  8
レイヤー 1
 62
    18
420
        0
370
    13
100
AcDbSpline
210
0.0
220
0.0
230
1.0
 70
    24
 71
     3
 72
     8
 73
     4
 74
     0
 42
0.0000000001
 43
0.0000000001
 40
0.0
 40
0.0
 40
0.0
 40
0.0
 40
1.0
 40
1.0
 40
1.0
 40
1.0
 10
57.23466859022421
 20
58.33532815110627
 30
0.0
 10
57.23466859022421
 20
58.33532815110627
 30
0.0
 10
59.13966643656328
 20
58.33532815110627
 30
0.0
 10
59.13966643656328
 20
58.33532815110627
 30
0.0
  0
SPLINE
  5
135
330
70
100
AcDbEntity
  8
レイヤー 1
 62
    18
420
        0
370
    13
100
AcDbSpline
210
0.0
220
0.0
230
1.0
 70
    24
 71
     3
 72
     8
 73
     4
 74
     0
 42
0.0000000001
 43
0.0000000001
 40
0.0
 40
0.0
 40
0.0
 40
0.0
 40
1.0
 40
1.0
 40
1.0
 40
1.0
 10
57.23466859022421
 20
55.7529922345969
 30
0.0
 10
57.23466859022421
 20
55.7529922345969
 30
0.0
 10
60.32499998491875
 20
55.7529922345969
 30
0.0
 10
60.32499998491875
 20
55.7529922345969
 30
0.0
  0
LWPOLYLINE
  5
136
330
70
100
AcDbEntity
  8
レイヤー 1
 62
    18
420
        0
370
    13
100
AcDbPolyline
 90
       12
 70
     1
 43
0.0
 10
61.76433396384766
 20
55.75301376644369
 10
61.76433396384766
 20
60.7483430074773
 10
63.41533137961329
 20
60.7483430074773
 10
64.13499567759689
 20
60.49434257690387
 10
64.60066492796876
 20
60.0286787094937
 10
64.85466535854219
 20
59.52067784834683
 10
65.06632879537892
 20
58.84334516113823
 10
65.06632879537892
 20
57.65801161278276
 10
64.85466535854219
 20
56.93834193183747
 10
64.60066492796876
 20
56.43034645365229
 10
64.13499567759689
 20
55.96467720328043
 10
63.41533137961329
 20
55.75301376644369
  0
LWPOLYLINE
  5
137
330
70
100
AcDbEntity
  8
レイヤー 1
 62
    18
420
        0
370
    13
100
AcDbPolyline
 90
        3
 70
     0
 43
0.0
 10
69.42666234294065
 20
56.38800945991558
 10
68.74932965573205
 20
56.04935657371552
 10
68.07199696852345
 20
56.04935657371552
  0
LWPOLYLINE
  5
138
330
70
100
AcDbEntity
  8
レイヤー 1
 62
    18
420
        0
370
    13
100
AcDbPolyline
 90
        6
 70
     0
 43
0.0
 10
69.42666234294065
 20
56.38800945991558
 10
70.06166341937424
 20
56.72668387796242
 10
70.73899610658283
 20
57.40401118220933
 10
71.07767052462967
 20
58.08133848645623
 10
71.07767052462967
 20
58.71633417992812
 10
67.09833223996641
 20
58.71633417992812
  0
LINE
  5
139
330
70
100
AcDbEntity
  8
レイヤー 1
 62
    18
420
        0
370
    13
100
AcDbLine
 10
67.39466428131485
 20
60.0710103202687
 30
0.0
 11
70.73899610658283
 21
60.0710103202687
 31
0.0
  0
LWPOLYLINE
  5
13A
330
70
100
AcDbEntity
  8
レイヤー 1
 62
    18
420
        0
370
    13
100
AcDbPolyline
 90
        3
 70
     0
 43
0.0
 10
76.75032706991018
 20
57.74266406840939
 10
77.08899610499533
 20
58.37768129372807
 10
77.08899610499533
 20
59.05500859797497
  0
LWPOLYLINE
  5
13B
330
70
100
AcDbEntity
  8
レイヤー 1
 62
    18
420
        0
370
    13
100
AcDbPolyline
 90
        3
 70
     0
 43
0.0
 10
76.75032706991018
 20
57.74266406840939
 10
75.73433073057813
 20
56.72668387796242
 10
74.42199696693595
 20
56.04935657371552
  0
SPLINE
  5
13C
330
70
100
AcDbEntity
  8
レイヤー 1
 62
    18
420
        0
370
    13
100
AcDbSpline
210
0.0
220
0.0
230
1.0
 70
    24
 71
     3
 72
     8
 73
     4
 74
     0
 42
0.0000000001
 43
0.0000000001
 40
0.0
 40
0.0
 40
0.0
 40
0.0
 40
1.0
 40
1.0
 40
1.0
 40
1.0
 10
73.4060006276039
 20
60.0710103202687
 30
0.0
 10
73.4060006276039
 20
60.0710103202687
 30
0.0
 10
74.76066600202109
 20
59.39366148417502
 30
0.0
 10
74.76066600202109
 20
59.39366148417502
 30
0.0
  0
SPLINE
  5
13D
330
70
100
AcDbEntity
  8
レイヤー 1
 62
    18
420
        0
370
    13
100
AcDbSpline
210
0.0
220
0.0
230
1.0
 70
    24
 71
     3
 72
     8
 73
     4
 74
     0
 42
0.0000000001
 43
0.0000000001
 40
0.0
 40
0.0
 40
0.0
 40
0.0
 40
1.0
 40
1.0
 40
1.0
 40
1.0
 10
73.74466427972736
 20
56.04935657371552
 30
0.0
 10
73.74466427972736
 20
56.04935657371552
 30
0.0
 10
74.42199696693595
 20
56.04935657371552
 30
0.0
 10
74.42199696693595
 20
56.04935657371552
 30
0.0
  0
LWPOLYLINE
  5
13E
330
70
100
AcDbEntity
  8
レイヤー 1
 62
    18
420
        0
370
    13
100
AcDbPolyline
 90
        9
 70
     0
 43
0.0
 10
79.41733159093125
 20
56.04935657371552
 10
80.09466427813986
 20
56.04935657371552
 10
81.40699804178204
 20
56.72668926092413
 10
82.08433072899063
 20
57.40402194813272
 10
82.42299438111409
 20
58.08135463534132
 10
82.76166341619925
 20
58.71635571177491
 10
82.76166341619925
 20
59.3936883989835
 10
82.08433072899063
 20
59.73235205110695
 10
79.07866255584611
 20
59.73235205110695
  0
LWPOLYLINE
  5
13F
330
70
100
AcDbEntity
  8
レイヤー 1
 62
    18
420
        0
370
    13
100
AcDbPolyline
 90
        8
 70
     1
 43
0.0
 10
82.76166341619925
 20
60.74833762451561
 10
83.05799545754767
 20
60.74833762451561
 10
83.39665910967113
 20
60.40966858943046
 10
83.39665910967113
 20
60.07099955434532
 10
83.05799545754767
 20
59.73233590222187
 10
82.76166341619925
 20
59.73233590222187
 10
82.42299438111409
 20
60.07099955434532
 10
82.42299438111409
 20
60.40966858943046
  0
LWPOLYLINE
  5
140
330
70
100
AcDbEntity
  8
レイヤー 1
 62
    18
420
        0
370
    13
100
AcDbPolyline
 90
        3
 70
     0
 43
0.0
 10
87.75699804019454
 20
60.74833762451561
 10
87.75699804019454
 20
55.7529922345969
 10
90.59332900431565
 20
55.7529922345969
  0
LWPOLYLINE
  5
141
330
70
100
AcDbEntity
  8
レイヤー 1
 62
    18
420
        0
370
    13
100
AcDbPolyline
 90
       12
 70
     1
 43
0.0
 10
91.7786679356328
 20
55.75301376644369
 10
91.7786679356328
 20
60.7483430074773
 10
93.47199696217344
 20
60.7483430074773
 10
94.14932426642035
 20
60.49434257690387
 10
94.65732512756723
 20
60.0286787094937
 10
94.86899394736566
 20
59.52067784834683
 10
95.1229943779391
 20
58.84334516113823
 10
95.1229943779391
 20
57.65801161278276
 10
94.86899394736566
 20
56.93834193183747
 10
94.65732512756723
 20
56.43034645365229
 10
94.14932426642035
 20
55.96467720328043
 10
93.47199696217344
 20
55.75301376644369
  0
LWPOLYLINE
  5
142
330
70
100
AcDbEntity
  8
レイヤー 1
 62
    18
420
        0
370
    13
100
AcDbPolyline
 90
        3
 70
     0
 43
0.0
 10
96.77400255962812
 20
55.7529922345969
 10
98.6789896400438
 20
60.74833762451561
 10
100.5839982523062
 20
55.7529922345969
  0
LINE
  5
143
330
70
100
AcDbEntity
  8
レイヤー 1
 62
    18
420
        0
370
    13
100
AcDbLine
 10
97.49366147465003
 20
57.40401118220933
 30
0.0
 11
99.86432857136096
 21
57.40401118220933
 31
0.0
  0
LWPOLYLINE
  5
144
330
70
100
AcDbEntity
  8
レイヤー 1
 62
    18
420
        0
370
    13
100
AcDbPolyline
 90
       17
 70
     0
 43
0.0
 10
104.8596631953562
 20
60.74833762451561
 10
102.4889960986453
 20
60.74833762451561
 10
102.2773272788469
 20
58.58933396464141
 10
102.4889960986453
 20
58.84333439521483
 10
103.2086550136672
 20
59.05500321501327
 10
103.9283246946125
 20
59.05500321501327
 10
104.6479943755578
 20
58.84333439521483
 10
105.1136528600063
 20
58.33533353406797
 10
105.3676532905797
 20
57.65800084685937
 10
105.3676532905797
 20
57.14999998571251
 10
105.1136528600063
 20
56.4303356877289
 10
104.6479943755578
 20
55.96466643735703
 10
103.9283246946125
 20
55.7530030005203
 10
103.2086550136672
 20
55.7530030005203
 10
102.4889960986453
 20
55.96466643735703
 10
102.2773272788469
 20
56.21866686793048
 10
102.0233268482734
 20
56.68433611830233
  0
LWPOLYLINE
  5
145
330
70
100
AcDbEntity
  8
レイヤー 1
 62
    18
420
        0
370
    13
100
AcDbPolyline
 90
        3
 70
     0
 43
0.0
 10
106.7646610416953
 20
60.74833762451561
 10
106.7646610416953
 20
55.7529922345969
 10
109.6433289995531
 20
55.7529922345969
  0
SPLINE
  5
146
330
70
100
AcDbEntity
  8
レイヤー 1
 62
    18
420
        0
370
    13
100
AcDbSpline
210
0.0
220
0.0
230
1.0
 70
    24
 71
     3
 72
     8
 73
     4
 74
     0
 42
0.0000000001
 43
0.0000000001
 40
0.0
 40
0.0
 40
0.0
 40
0.0
 40
1.0
 40
1.0
 40
1.0
 40
1.0
 10
19.30400042581094
 20
65.82834623598433
 30
0.0
 10
19.30400042581094
 20
65.82834623598433
 30
0.0
 10
19.30400042581094
 20
70.82367547701792
 30
0.0
 10
19.30400042581094
 20
70.82367547701792
 30
0.0
  0
SPLINE
  5
147
330
70
100
AcDbEntity
  8
レイヤー 1
 62
    18
420
        0
370
    13
100
AcDbSpline
210
0.0
220
0.0
230
1.0
 70
    24
 71
     3
 72
     8
 73
     4
 74
     0
 42
0.0000000001
 43
0.0000000001
 40
0.0
 40
0.0
 40
0.0
 40
0.0
 40
1.0
 40
1.0
 40
1.0
 40
1.0
 10
22.60599794882306
 20
70.82367547701792
 30
0.0
 10
22.60599794882306
 20
70.82367547701792
 30
0.0
 10
19.30400042581094
 20
67.52167526252496
 30
0.0
 10
19.30400042581094
 20
67.52167526252496
 30
0.0
  0
SPLINE
  5
148
330
70
100
AcDbEntity
  8
レイヤー 1
 62
    18
420
        0
370
    13
100
AcDbSpline
210
0.0
220
0.0
230
1.0
 70
    24
 71
     3
 72
     8
 73
     4
 74
     0
 42
0.0000000001
 43
0.0000000001
 40
0.0
 40
0.0
 40
0.0
 40
0.0
 40
1.0
 40
1.0
 40
1.0
 40
1.0
 10
20.48933262842598
 20
68.70700881088044
 30
0.0
 10
20.48933262842598
 20
68.70700881088044
 30
0.0
 10
22.60599794882306
 20
65.82834623598433
 30
0.0
 10
22.60599794882306
 20
65.82834623598433
 30
0.0
  0
SPLINE
  5
149
330
70
100
AcDbEntity
  8
レイヤー 1
 62
    18
420
        0
370
    13
100
AcDbSpline
210
0.0
220
0.0
230
1.0
 70
    24
 71
     3
 72
     8
 73
     4
 74
     0
 42
0.0000000001
 43
0.0000000001
 40
0.0
 40
0.0
 40
0.0
 40
0.0
 40
1.0
 40
1.0
 40
1.0
 40
1.0
 10
25.95033246557188
 20
70.82367547701792
 30
0.0
 10
25.95033246557188
 20
70.82367547701792
 30
0.0
 10
25.95033246557188
 20
65.82834623598433
 30
0.0
 10
25.95033246557188
 20
65.82834623598433
 30
0.0
  0
SPLINE
  5
14A
330
70
100
AcDbEntity
  8
レイヤー 1
 62
    18
420
        0
370
    13
100
AcDbSpline
210
0.0
220
0.0
230
1.0
 70
    24
 71
     3
 72
     8
 73
     4
 74
     0
 42
0.0000000001
 43
0.0000000001
 40
0.0
 40
0.0
 40
0.0
 40
0.0
 40
1.0
 40
1.0
 40
1.0
 40
1.0
 10
24.2993323583254
 20
70.82367547701792
 30
0.0
 10
24.2993323583254
 20
70.82367547701792
 30
0.0
 10
27.60133257281836
 20
70.82367547701792
 30
0.0
 10
27.60133257281836
 20
70.82367547701792
 30
0.0
  0
LWPOLYLINE
  5
14B
330
70
100
AcDbEntity
  8
レイヤー 1
 62
    18
420
        0
370
    13
100
AcDbPolyline
 90
       15
 70
     0
 43
0.0
 10
29.04066655174727
 20
70.82367009405624
 10
31.66533138755079
 20
70.82367009405624
 10
30.22599740862189
 20
68.91866686475546
 10
30.94566439808634
 20
68.91866686475546
 10
31.41133095697736
 20
68.70700342791874
 10
31.66533138755079
 20
68.45300299734531
 10
31.91933181812423
 20
67.7333333164
 10
31.91933181812423
 20
67.26766944898983
 10
31.66533138755079
 20
66.54799976804453
 10
31.19966482865978
 20
66.08233590063436
 10
30.47999783919533
 20
65.82833547006093
 10
29.76033084973087
 20
65.82833547006093
 10
29.04066655174727
 20
66.08233590063436
 10
28.82899773194884
 20
66.3363363312078
 10
28.5749973013754
 20
66.80200019861797
  0
LWPOLYLINE
  5
14C
330
70
100
AcDbEntity
  8
レイヤー 1
 62
    18
420
        0
370
    13
100
AcDbPolyline
 90
       17
 70
     0
 43
0.0
 10
36.19500214413593
 20
70.82367009405624
 10
33.824335047425
 20
70.82367009405624
 10
33.57033461685156
 20
68.70700342791874
 10
33.824335047425
 20
68.91866686475546
 10
34.50166773463359
 20
69.1726672953289
 10
35.22133472409804
 20
69.1726672953289
 10
35.94100171356249
 20
68.91866686475546
 10
36.40666827245351
 20
68.45300299734531
 10
36.66066870302695
 20
67.7333333164
 10
36.66066870302695
 20
67.26766944898983
 10
36.40666827245351
 20
66.54799976804453
 10
35.94100171356249
 20
66.08233590063436
 10
35.22133472409804
 20
65.82833547006093
 10
34.50166773463359
 20
65.82833547006093
 10
33.824335047425
 20
66.08233590063436
 10
33.57033461685156
 20
66.3363363312078
 10
33.31633418627812
 20
66.80200019861797
  0
LWPOLYLINE
  5
14D
330
70
100
AcDbEntity
  8
レイヤー 1
 62
    18
420
        0
370
    13
100
AcDbPolyline
 90
       17
 70
     0
 43
0.0
 10
40.93633364607695
 20
70.82367009405624
 10
38.56566654936602
 20
70.82367009405624
 10
38.31166611879258
 20
68.70700342791874
 10
38.56566654936602
 20
68.91866686475546
 10
39.28533353883047
 20
69.1726672953289
 10
40.00499783681408
 20
69.1726672953289
 10
40.72466482627852
 20
68.91866686475546
 10
41.19033138516954
 20
68.45300299734531
 10
41.44433181574298
 20
67.7333333164
 10
41.44433181574298
 20
67.26766944898983
 10
41.19033138516954
 20
66.54799976804453
 10
40.72466482627852
 20
66.08233590063436
 10
40.00499783681408
 20
65.82833547006093
 10
39.28533353883047
 20
65.82833547006093
 10
38.56566654936602
 20
66.08233590063436
 10
38.31166611879258
 20
66.3363363312078
 10
38.099999990475
 20
66.80200019861797
  0
SPLINE
  5
14E
330
70
100
AcDbEntity
  8
レイヤー 1
 62
    18
420
        0
370
    13
100
AcDbSpline
210
0.0
220
0.0
230
1.0
 70
    24
 71
     3
 72
     8
 73
     4
 74
     0
 42
0.0000000001
 43
0.0000000001
 40
0.0
 40
0.0
 40
0.0
 40
0.0
 40
1.0
 40
1.0
 40
1.0
 40
1.0
 10
44.53466859339921
 20
70.82367009405624
 30
0.0
 10
44.53466859339921
 20
70.82367009405624
 30
0.0
 10
44.53466859339921
 20
65.82834623598433
 30
0.0
 10
44.53466859339921
 20
65.82834623598433
 30
0.0
  0
SPLINE
  5
14F
330
70
100
AcDbEntity
  8
レイヤー 1
 62
    18
420
        0
370
    13
100
AcDbSpline
210
0.0
220
0.0
230
1.0
 70
    24
 71
     3
 72
     8
 73
     4
 74
     0
 42
0.0000000001
 43
0.0000000001
 40
0.0
 40
0.0
 40
0.0
 40
0.0
 40
1.0
 40
1.0
 40
1.0
 40
1.0
 10
42.84133149241602
 20
70.82367009405624
 30
0.0
 10
42.84133149241602
 20
70.82367009405624
 30
0.0
 10
46.18566600916484
 20
70.82367009405624
 30
0.0
 10
46.18566600916484
 20
70.82367009405624
 30
0.0
  0
LWPOLYLINE
  5
150
330
70
100
AcDbEntity
  8
レイヤー 1
 62
    18
420
        0
370
    13
100
AcDbPolyline
 90
       11
 70
     0
 43
0.0
 10
47.15933612068358
 20
65.82834623598433
 10
47.15933612068358
 20
70.82367547701792
 10
49.27600278682108
 20
70.82367547701792
 10
49.99566708480468
 20
70.6120120401812
 10
50.24966751537812
 20
70.35801160960777
 10
50.46133095221486
 20
69.89234235923589
 10
50.46133095221486
 20
69.42667849182574
 10
50.24966751537812
 20
68.91867763067885
 10
49.99566708480468
 20
68.70700881088044
 10
49.27600278682108
 20
68.45300838030699
 10
47.15933612068358
 20
68.45300838030699
  0
LWPOLYLINE
  5
151
330
70
100
AcDbEntity
  8
レイヤー 1
 62
    18
420
        0
370
    13
100
AcDbPolyline
 90
        9
 70
     0
 43
0.0
 10
49.27600278682108
 20
68.4530137632687
 10
49.99566708480468
 20
68.24134494347027
 10
50.24966751537812
 20
67.98734451289682
 10
50.46133095221486
 20
67.52167526252496
 10
50.46133095221486
 20
66.80201096454137
 10
50.24966751537812
 20
66.3363470971312
 10
49.99566708480468
 20
66.08234666655775
 10
49.27600278682108
 20
65.82834623598433
 10
47.15933612068358
 20
65.82834623598433
  0
ENDSEC
  0
SECTION
  2
OBJECTS
  0
DICTIONARY
  5
C
330
0
100
AcDbDictionary
281
     1
  3
ACAD_COLOR
350
63
  3
ACAD_DETAILVIEWSTYLE
350
6A
  3
ACAD_GROUP
350
D
  3
ACAD_LAYOUT
350
62
  3
ACAD_MATERIAL
350
10
  3
ACAD_MLEADERSTYLE
350
66
  3
ACAD_MLINESTYLE
350
5F
  3
ACAD_PLOTSETTINGS
350
61
  3
ACAD_PLOTSTYLENAME
350
E
  3
ACAD_SCALELIST
350
42
  3
ACAD_SECTIONVIEWSTYLE
350
68
  3
ACAD_TABLESTYLE
350
64
  3
ACAD_VISUALSTYLE
350
29
  3
ACDB_RECOMPOSE_DATA
350
15A
  3
AcDbVariableDictionary
350
152
  0
DICTIONARY
  5
63
102
{ACAD_REACTORS
330
C
102
}
330
C
100
AcDbDictionary
281
     1
  0
DICTIONARY
  5
6A
102
{ACAD_REACTORS
330
C
102
}
330
C
100
AcDbDictionary
281
     1
  3
Imperial24
350
6B
  0
DICTIONARY
  5
D
102
{ACAD_REACTORS
330
C
102
}
330
C
100
AcDbDictionary
281
     1
  0
DICTIONARY
  5
62
102
{ACAD_REACTORS
330
C
102
}
330
C
100
AcDbDictionary
281
     1
  3
Layout1
350
6F
  3
Layout2
350
77
  3
Model
350
73
  0
DICTIONARY
  5
10
102
{ACAD_REACTORS
330
C
102
}
330
C
100
AcDbDictionary
281
     1
  3
ByBlock
350
19
  3
ByLayer
350
11
  3
Global
350
21
  0
DICTIONARY
  5
66
102
{ACAD_REACTORS
330
C
102
}
330
C
100
AcDbDictionary
281
     1
  3
Standard
350
67
  0
DICTIONARY
  5
5F
102
{ACAD_REACTORS
330
C
102
}
330
C
100
AcDbDictionary
281
     1
  3
Standard
350
60
  0
DICTIONARY
  5
61
102
{ACAD_REACTORS
330
C
102
}
330
C
100
AcDbDictionary
281
     1
  0
ACDBDICTIONARYWDFLT
  5
E
102
{ACAD_REACTORS
330
C
102
}
330
C
100
AcDbDictionary
281
     1
  3
Normal
350
F
100
AcDbDictionaryWithDefault
340
F
  0
DICTIONARY
  5
42
102
{ACAD_REACTORS
330
C
102
}
330
C
100
AcDbDictionary
281
     1
  3
A0
350
43
  3
A1
350
44
  3
A2
350
45
  3
A3
350
46
  3
A4
350
47
  3
A5
350
48
  3
A6
350
49
  3
A7
350
4A
  3
A8
350
4B
  3
A9
350
4C
  3
B0
350
4D
  3
B1
350
4E
  3
B2
350
4F
  3
B3
350
50
  3
B4
350
51
  3
B5
350
52
  3
B6
350
53
  0
DICTIONARY
  5
68
102
{ACAD_REACTORS
330
C
102
}
330
C
100
AcDbDictionary
281
     1
  3
Imperial24
350
69
  0
DICTIONARY
  5
64
102
{ACAD_REACTORS
330
C
102
}
330
C
100
AcDbDictionary
281
     1
  3
Standard
350
65
  0
DICTIONARY
  5
29
102
{ACAD_REACTORS
330
C
102
}
330
C
100
AcDbDictionary
281
     1
  3
2dWireframe
350
2F
  3
Basic
350
2E
  3
Brighten
350
35
  3
ColorChange
350
39
  3
Conceptual
350
32
  3
Dim
350
34
  3
EdgeColorOff
350
41
  3
Facepattern
350
38
  3
Flat
350
2A
  3
FlatWithEdges
350
2B
  3
Gouraud
350
2C
  3
GouraudWithEdges
350
2D
  3
Hidden
350
31
  3
JitterOff
350
3F
  3
Linepattern
350
37
  3
OverhangOff
350
40
  3
Realistic
350
33
  3
Shaded
350
3E
  3
Shaded with edges
350
3D
  3
Shades of Gray
350
3A
  3
Sketchy
350
3B
  3
Thicken
350
36
  3
Wireframe
350
30
  3
X-Ray
350
3C
  0
XRECORD
  5
15A
102
{ACAD_REACTORS
330
C
102
}
330
C
100
AcDbXrecord
280
     1
 90
        1
330
65
  0
DICTIONARY
  5
152
102
{ACAD_REACTORS
330
C
102
}
330
C
100
AcDbDictionary
281
     1
  3
CANNOSCALE
350
157
  3
CMLEADERSTYLE
350
154
  3
CTABLESTYLE
350
153
  3
CVIEWDETAILSTYLE
350
155
  3
CVIEWSECTIONSTYLE
350
156
  0
ACDBDETAILVIEWSTYLE
  5
6B
102
{ACAD_REACTORS
330
6A
102
}
330
6A
100
AcDbModelDocViewStyle
 70
     0
  3
Imperial24
290
     1
300
Imperial24
 90
        0
100
AcDbDetailViewStyle
 70
     0
 71
     0
 90
        3
 71
     1
340
55
 62
   256
 40
0.24
340
0
 62
   256
 40
0.24
300

 40
0.36
280
     3
 71
     2
340
5D
 90
       25
 62
   256
 71
     3
340
55
 62
   256
 40
0.24
 90
        1
 40
0.75
 90
        1
300
%<\AcVar ViewType \f "%tc1">% %<\AcVar ViewDetailId>%\PSCALE %<\AcVar ViewScale \f "%sn">%
 71
     4
340
5D
 90
       25
 62
   256
340
5D
 90
       25
 62
   256
280
     0
  0
LAYOUT
  5
6F
102
{ACAD_REACTORS
330
62
102
}
330
62
100
AcDbPlotSettings
  1

  2

  4

  6

 40
0.0
 41
0.0
 42
0.0
 43
0.0
 44
0.0
 45
0.0
 46
0.0
 47
0.0
 48
0.0
 49
0.0
140
0.0
141
0.0
142
1.0
143
1.0
 70
   688
 72
     0
 73
     0
 74
     5
  7

 75
    16
147
1.0
 76
     0
 77
     2
 78
   300
148
0.0
149
0.0
100
AcDbLayout
  1
Layout1
 70
     1
 71
     1
 10
0.0
 20
0.0
 11
12.0
 21
9.0
 12
0.0
 22
0.0
 32
0.0
 14
0.0
 24
0.0
 34
0.0
 15
0.0
 25
0.0
 35
0.0
146
0.0
 13
0.0
 23
0.0
 33
0.0
 16
1.0
 26
0.0
 36
0.0
 17
0.0
 27
1.0
 37
0.0
 76
     0
330
6C
  0
LAYOUT
  5
77
102
{ACAD_REACTORS
330
62
102
}
330
62
100
AcDbPlotSettings
  1

  2

  4

  6

 40
0.0
 41
0.0
 42
0.0
 43
0.0
 44
0.0
 45
0.0
 46
0.0
 47
0.0
 48
0.0
 49
0.0
140
0.0
141
0.0
142
1.0
143
1.0
 70
   688
 72
     0
 73
     0
 74
     5
  7

 75
    16
147
1.0
 76
     0
 77
     2
 78
   300
148
0.0
149
0.0
100
AcDbLayout
  1
Layout2
 70
     1
 71
     2
 10
0.0
 20
0.0
 11
12.0
 21
9.0
 12
0.0
 22
0.0
 32
0.0
 14
0.0
 24
0.0
 34
0.0
 15
0.0
 25
0.0
 35
0.0
146
0.0
 13
0.0
 23
0.0
 33
0.0
 16
1.0
 26
0.0
 36
0.0
 17
0.0
 27
1.0
 37
0.0
 76
     0
330
74
  0
LAYOUT
  5
73
102
{ACAD_REACTORS
330
62
102
}
330
62
100
AcDbPlotSettings
  1

  2

  4

  6

 40
0.0
 41
0.0
 42
0.0
 43
0.0
 44
0.0
 45
0.0
 46
0.0
 47
0.0
 48
0.0
 49
0.0
140
0.0
141
0.0
142
1.0
143
1.0
 70
  1712
 72
     0
 73
     0
 74
     0
  7

 75
     0
147
1.0
 76
     0
 77
     2
 78
   300
148
0.0
149
0.0
100
AcDbLayout
  1
Model
 70
     1
 71
     0
 10
0.0
 20
0.0
 11
12.0
 21
9.0
 12
0.0
 22
0.0
 32
0.0
 14
0.0
 24
0.0
 34
0.0
 15
0.0
 25
0.0
 35
0.0
146
0.0
 13
0.0
 23
0.0
 33
0.0
 16
1.0
 26
0.0
 36
0.0
 17
0.0
 27
1.0
 37
0.0
 76
     0
330
70
  0
MATERIAL
  5
19
102
{ACAD_XDICTIONARY
360
1A
102
}
102
{ACAD_REACTORS
330
10
102
}
330
10
100
AcDbMaterial
  1
ByBlock
 72
     0
 43
0.0208333333333333
 43
0.0
 43
0.0
 43
0.0
 43
0.0
 43
0.0208333333333333
 43
0.0
 43
0.0
 43
0.0
 43
0.0
 43
1.0
 43
0.0
 43
0.0
 43
0.0
 43
0.0
 43
1.0
 77
     0
 47
0.0208333333333333
 47
0.0
 47
0.0
 47
0.0
 47
0.0
 47
0.0208333333333333
 47
0.0
 47
0.0
 47
0.0
 47
0.0
 47
1.0
 47
0.0
 47
0.0
 47
0.0
 47
0.0
 47
1.0
171
     0
 49
0.0208333333333333
 49
0.0
 49
0.0
 49
0.0
 49
0.0
 49
0.0208333333333333
 49
0.0
 49
0.0
 49
0.0
 49
0.0
 49
1.0
 49
0.0
 49
0.0
 49
0.0
 49
0.0
 49
1.0
175
     0
142
0.0208333333333333
142
0.0
142
0.0
142
0.0
142
0.0
142
0.0208333333333333
142
0.0
142
0.0
142
0.0
142
0.0
142
1.0
142
0.0
142
0.0
142
0.0
142
0.0
142
1.0
179
     0
144
0.0208333333333333
144
0.0
144
0.0
144
0.0
144
0.0
144
0.0208333333333333
144
0.0
144
0.0
144
0.0
144
0.0
144
1.0
144
0.0
144
0.0
144
0.0
144
0.0
144
1.0
147
0.0208333333333333
147
0.0
147
0.0
147
0.0
147
0.0
147
0.0208333333333333
147
0.0
147
0.0
147
0.0
147
0.0
147
1.0
147
0.0
147
0.0
147
0.0
147
0.0
147
1.0
  0
MATERIAL
  5
11
102
{ACAD_XDICTIONARY
360
12
102
}
102
{ACAD_REACTORS
330
10
102
}
330
10
100
AcDbMaterial
  1
ByLayer
 72
     0
 43
0.0208333333333333
 43
0.0
 43
0.0
 43
0.0
 43
0.0
 43
0.0208333333333333
 43
0.0
 43
0.0
 43
0.0
 43
0.0
 43
1.0
 43
0.0
 43
0.0
 43
0.0
 43
0.0
 43
1.0
 77
     0
 47
0.0208333333333333
 47
0.0
 47
0.0
 47
0.0
 47
0.0
 47
0.0208333333333333
 47
0.0
 47
0.0
 47
0.0
 47
0.0
 47
1.0
 47
0.0
 47
0.0
 47
0.0
 47
0.0
 47
1.0
171
     0
 49
0.0208333333333333
 49
0.0
 49
0.0
 49
0.0
 49
0.0
 49
0.0208333333333333
 49
0.0
 49
0.0
 49
0.0
 49
0.0
 49
1.0
 49
0.0
 49
0.0
 49
0.0
 49
0.0
 49
1.0
175
     0
142
0.0208333333333333
142
0.0
142
0.0
142
0.0
142
0.0
142
0.0208333333333333
142
0.0
142
0.0
142
0.0
142
0.0
142
1.0
142
0.0
142
0.0
142
0.0
142
0.0
142
1.0
179
     0
144
0.0208333333333333
144
0.0
144
0.0
144
0.0
144
0.0
144
0.0208333333333333
144
0.0
144
0.0
144
0.0
144
0.0
144
1.0
144
0.0
144
0.0
144
0.0
144
0.0
144
1.0
147
0.0208333333333333
147
0.0
147
0.0
147
0.0
147
0.0
147
0.0208333333333333
147
0.0
147
0.0
147
0.0
147
0.0
147
1.0
147
0.0
147
0.0
147
0.0
147
0.0
147
1.0
  0
MATERIAL
  5
21
102
{ACAD_XDICTIONARY
360
22
102
}
102
{ACAD_REACTORS
330
10
102
}
330
10
100
AcDbMaterial
  1
Global
 72
     0
 43
0.0208333333333333
 43
0.0
 43
0.0
 43
0.0
 43
0.0
 43
0.0208333333333333
 43
0.0
 43
0.0
 43
0.0
 43
0.0
 43
1.0
 43
0.0
 43
0.0
 43
0.0
 43
0.0
 43
1.0
 77
     0
 47
0.0208333333333333
 47
0.0
 47
0.0
 47
0.0
 47
0.0
 47
0.0208333333333333
 47
0.0
 47
0.0
 47
0.0
 47
0.0
 47
1.0
 47
0.0
 47
0.0
 47
0.0
 47
0.0
 47
1.0
171
     0
 49
0.0208333333333333
 49
0.0
 49
0.0
 49
0.0
 49
0.0
 49
0.0208333333333333
 49
0.0
 49
0.0
 49
0.0
 49
0.0
 49
1.0
 49
0.0
 49
0.0
 49
0.0
 49
0.0
 49
1.0
175
     0
142
0.0208333333333333
142
0.0
142
0.0
142
0.0
142
0.0
142
0.0208333333333333
142
0.0
142
0.0
142
0.0
142
0.0
142
1.0
142
0.0
142
0.0
142
0.0
142
0.0
142
1.0
179
     0
144
0.0208333333333333
144
0.0
144
0.0
144
0.0
144
0.0
144
0.0208333333333333
144
0.0
144
0.0
144
0.0
144
0.0
144
1.0
144
0.0
144
0.0
144
0.0
144
0.0
144
1.0
147
0.0208333333333333
147
0.0
147
0.0
147
0.0
147
0.0
147
0.0208333333333333
147
0.0
147
0.0
147
0.0
147
0.0
147
1.0
147
0.0
147
0.0
147
0.0
147
0.0
147
1.0
  0
MLEADERSTYLE
  5
67
102
{ACAD_REACTORS
330
66
102
}
330
66
100
AcDbMLeaderStyle
179
     2
170
     2
171
     1
172
     0
 90
        2
 40
0.0
 41
0.0
173
     1
 91
-1056964608
340
5B
 92
       -2
290
     1
 42
0.09
291
     1
 43
0.36
  3
Standard
 44
0.18
300

342
55
174
     1
178
     6
175
     1
176
     0
 93
-1056964608
 45
0.18
292
     0
297
     0
 46
0.18
 94
-1056964608
 47
1.0
 49
1.0
140
1.0
293
     1
141
0.0
294
     1
177
     0
142
1.0
295
     1
296
     0
143
0.125
271
     0
272
     9
273
     9
298
     1
  0
MLINESTYLE
  5
60
102
{ACAD_REACTORS
330
5F
102
}
330
5F
100
AcDbMlineStyle
  2
STANDARD
 70
     0
  3

 62
   256
 51
90.0
 52
90.0
 71
     2
 49
0.5
 62
   256
  6
BYLAYER
 49
-0.5
 62
   256
  6
BYLAYER
  0
ACDBPLACEHOLDER
  5
F
102
{ACAD_REACTORS
330
E
102
}
330
E
  0
SCALE
  5
43
102
{ACAD_REACTORS
330
42
102
}
330
42
100
AcDbScale
 70
     0
300
1:1
140
1.0
141
1.0
290
     1
  0
SCALE
  5
44
102
{ACAD_REACTORS
330
42
102
}
330
42
100
AcDbScale
 70
     0
300
1/128" = 1'-0"
140
0.0078125
141
12.0
290
     0
  0
SCALE
  5
45
102
{ACAD_REACTORS
330
42
102
}
330
42
100
AcDbScale
 70
     0
300
1/64" = 1'-0"
140
0.015625
141
12.0
290
     0
  0
SCALE
  5
46
102
{ACAD_REACTORS
330
42
102
}
330
42
100
AcDbScale
 70
     0
300
1/32" = 1'-0"
140
0.03125
141
12.0
290
     0
  0
SCALE
  5
47
102
{ACAD_REACTORS
330
42
102
}
330
42
100
AcDbScale
 70
     0
300
1/16" = 1'-0"
140
0.0625
141
12.0
290
     0
  0
SCALE
  5
48
102
{ACAD_REACTORS
330
42
102
}
330
42
100
AcDbScale
 70
     0
300
3/32" = 1'-0"
140
0.09375
141
12.0
290
     0
  0
SCALE
  5
49
102
{ACAD_REACTORS
330
42
102
}
330
42
100
AcDbScale
 70
     0
300
1/8" = 1'-0"
140
0.125
141
12.0
290
     0
  0
SCALE
  5
4A
102
{ACAD_REACTORS
330
42
102
}
330
42
100
AcDbScale
 70
     0
300
3/16" = 1'-0"
140
0.1875
141
12.0
290
     0
  0
SCALE
  5
4B
102
{ACAD_REACTORS
330
42
102
}
330
42
100
AcDbScale
 70
     0
300
1/4" = 1'-0"
140
0.25
141
12.0
290
     0
  0
SCALE
  5
4C
102
{ACAD_REACTORS
330
42
102
}
330
42
100
AcDbScale
 70
     0
300
3/8" = 1'-0"
140
0.375
141
12.0
290
     0
  0
SCALE
  5
4D
102
{ACAD_REACTORS
330
42
102
}
330
42
100
AcDbScale
 70
     0
300
1/2" = 1'-0"
140
0.5
141
12.0
290
     0
  0
SCALE
  5
4E
102
{ACAD_REACTORS
330
42
102
}
330
42
100
AcDbScale
 70
     0
300
3/4" = 1'-0"
140
0.75
141
12.0
290
     0
  0
SCALE
  5
4F
102
{ACAD_REACTORS
330
42
102
}
330
42
100
AcDbScale
 70
     0
300
1" = 1'-0"
140
1.0
141
12.0
290
     0
  0
SCALE
  5
50
102
{ACAD_REACTORS
330
42
102
}
330
42
100
AcDbScale
 70
     0
300
1-1/2" = 1'-0"
140
1.5
141
12.0
290
     0
  0
SCALE
  5
51
102
{ACAD_REACTORS
330
42
102
}
330
42
100
AcDbScale
 70
     0
300
3" = 1'-0"
140
3.0
141
12.0
290
     0
  0
SCALE
  5
52
102
{ACAD_REACTORS
330
42
102
}
330
42
100
AcDbScale
 70
     0
300
6" = 1'-0"
140
6.0
141
12.0
290
     0
  0
SCALE
  5
53
102
{ACAD_REACTORS
330
42
102
}
330
42
100
AcDbScale
 70
     0
300
1'-0" = 1'-0"
140
12.0
141
12.0
290
     0
  0
ACDBSECTIONVIEWSTYLE
  5
69
102
{ACAD_REACTORS
330
68
102
}
330
68
100
AcDbModelDocViewStyle
 70
     0
  3
Imperial24
290
     1
300
Imperial24
 90
        0
100
AcDbSectionViewStyle
 70
     0
 71
     0
 90
       78
 71
     1
340
55
 62
   256
 40
0.24
340
0
340
0
 62
   256
 40
0.24
300
I, O, Q, S, X, Z
 40
0.48
 90
        3
 40
0.18
 90
        1
 71
     2
340
5D
 90
       25
 62
   256
340
5D
 90
       50
 62
   256
 40
0.24
 40
0.0
 40
0.24
 71
     3
340
55
 62
   256
 40
0.24
 90
        1
 40
0.75
 90
        1
300
%<\AcVar ViewType \f "%tc1">% %<\AcVar ViewSectionStartId>%-%<\AcVar ViewSectionEndId>%\PSCALE %<\AcVar ViewScale \f "%sn">%
 71
     4
 62
   256
 62
   257
300
ANSI31
 40
1.0
 90
        0
290
     0
290
     0
 90
        6
 40
0.0
 40
1.570796326794896
 40
0.2617993877991494
 40
1.308996938995747
 40
-0.2617993877991494
 40
1.832595714594046
  0
TABLESTYLE
  5
65
102
{ACAD_XDICTIONARY
360
158
102
}
102
{ACAD_REACTORS
330
64
102
}
330
64
100
AcDbTableStyle
280
     0
  3
Standard
 70
     0
 71
     0
 40
0.06
 41
0.06
280
     0
281
     0
  7
Standard
140
0.18
170
     2
 62
     0
 63
     7
283
     0
 90
      512
 91
        0
  1

274
    -2
284
     1
 64
     0
275
    -2
285
     1
 65
     0
276
    -2
286
     1
 66
     0
277
    -2
287
     1
 67
     0
278
    -2
288
     1
 68
     0
279
    -2
289
     1
 69
     0
  7
Standard
140
0.25
170
     5
 62
     0
 63
     7
283
     0
 90
      512
 91
        0
  1

274
    -2
284
     1
 64
     0
275
    -2
285
     1
 65
     0
276
    -2
286
     1
 66
     0
277
    -2
287
     1
 67
     0
278
    -2
288
     1
 68
     0
279
    -2
289
     1
 69
     0
  7
Standard
140
0.18
170
     5
 62
     0
 63
     7
283
     0
 90
      512
 91
        0
  1

274
    -2
284
     1
 64
     0
275
    -2
285
     1
 65
     0
276
    -2
286
     1
 66
     0
277
    -2
287
     1
 67
     0
278
    -2
288
     1
 68
     0
279
    -2
289
     1
 69
     0
  0
VISUALSTYLE
  5
2F
102
{ACAD_REACTORS
330
29
102
}
330
29
100
AcDbVisualStyle
  2
2dWireframe
 70
     4
177
     3
291
     0
 70
    58
 90
        0
176
     1
 90
        2
176
     1
 90
        0
176
     1
 90
        0
176
     1
 40
0.6
176
     1
 40
30.0
176
     1
 62
     7
420
 16777215
176
     1
 90
        1
176
     1
 90
        4
176
     1
 62
     7
176
     1
 62
   257
176
     1
 90
        1
176
     1
 90
        1
176
     1
 40
1.0
176
     1
 90
        0
176
     1
 62
   257
176
     1
 40
1.0
176
     1
 90
        1
176
     1
 90
        6
176
     1
 90
        2
176
     1
 62
     7
176
     1
 90
        5
176
     1
 90
        0
176
     1
 90
        0
176
     1
290
     0
176
     1
 90
        1
176
     1
 40
0.0
176
     1
 90
        0
176
     1
290
     1
176
     1
290
     1
176
     1
290
     0
176
     1
290
     0
176
     1
290
     0
176
     1
290
     0
176
     1
290
     0
176
     1
290
     0
176
     1
290
     0
176
     1
 90
       50
176
     1
 40
0.0
176
     1
 40
1.0
176
     1
 90
        0
176
     1
 62
    18
420
        0
176
     1
 90
       50
176
     1
 90
        3
176
     1
 62
     5
420
      255
176
     1
290
     0
176
     1
 90
       50
176
     1
 90
       50
176
     1
 90
       50
176
     1
290
     0
176
     1
 90
       50
176
     1
 62
   256
176
     0
 40
1.0
176
     0
 90
        2
176
     1
  1
strokes_ogs.tif
176
     1
290
     0
176
     1
 40
1.0
176
     1
 40
1.0
176
     1
  0
VISUALSTYLE
  5
2E
102
{ACAD_REACTORS
330
29
102
}
330
29
100
AcDbVisualStyle
  2
Basic
 70
     7
177
     3
291
     1
 70
    58
 90
        1
176
     1
 90
        0
176
     1
 90
        1
176
     1
 90
        0
176
     1
 40
0.6
176
     1
 40
30.0
176
     1
 62
     7
420
 16777215
176
     1
 90
        0
176
     1
 90
        4
176
     1
 62
     7
176
     1
 62
   257
176
     1
 90
        1
176
     1
 90
        1
176
     1
 40
1.0
176
     1
 90
        8
176
     1
 62
     7
176
     1
 40
1.0
176
     1
 90
        1
176
     1
 90
        6
176
     1
 90
        2
176
     1
 62
     7
176
     1
 90
        5
176
     1
 90
        0
176
     1
 90
        0
176
     1
290
     0
176
     1
 90
        1
176
     1
 40
0.0
176
     1
 90
        0
176
     1
290
     0
176
     1
290
     1
176
     1
290
     1
176
     1
290
     0
176
     1
290
     0
176
     1
290
     0
176
     1
290
     0
176
     1
290
     0
176
     1
290
     0
176
     1
 90
       50
176
     1
 40
0.0
176
     1
 40
1.0
176
     1
 90
        0
176
     1
 62
    18
420
        0
176
     1
 90
       50
176
     1
 90
        3
176
     1
 62
     5
420
      255
176
     1
290
     0
176
     1
 90
       50
176
     1
 90
       50
176
     1
 90
       50
176
     1
290
     0
176
     1
 90
       50
176
     1
 62
   256
176
     0
 40
1.0
176
     0
 90
        2
176
     1
  1
strokes_ogs.tif
176
     1
290
     0
176
     1
 40
1.0
176
     1
 40
1.0
176
     1
  0
VISUALSTYLE
  5
35
102
{ACAD_REACTORS
330
29
102
}
330
29
100
AcDbVisualStyle
  2
Brighten
 70
    12
177
     3
291
     1
 70
    58
 90
        2
176
     1
 90
        2
176
     1
 90
        0
176
     1
 90
        0
176
     1
 40
0.6
176
     1
 40
30.0
176
     1
 62
     7
420
 16777215
176
     1
 90
        1
176
     1
 90
        4
176
     1
 62
     7
176
     1
 62
   257
176
     1
 90
        1
176
     1
 90
        1
176
     1
 40
1.0
176
     1
 90
        8
176
     1
 62
     7
176
     1
 40
1.0
176
     1
 90
        1
176
     1
 90
        6
176
     1
 90
        2
176
     1
 62
     7
176
     1
 90
        5
176
     1
 90
        0
176
     1
 90
        0
176
     1
290
     0
176
     1
 90
        1
176
     1
 40
50.0
176
     1
 90
        0
176
     1
290
     0
176
     1
290
     1
176
     1
290
     1
176
     1
290
     0
176
     1
290
     0
176
     1
290
     0
176
     1
290
     0
176
     1
290
     0
176
     1
290
     0
176
     1
 90
       50
176
     1
 40
0.0
176
     1
 40
1.0
176
     1
 90
        0
176
     1
 62
    18
420
        0
176
     1
 90
       50
176
     1
 90
        3
176
     1
 62
     5
420
      255
176
     1
290
     0
176
     1
 90
       50
176
     1
 90
       50
176
     1
 90
       50
176
     1
290
     0
176
     1
 90
       50
176
     1
 62
   256
176
     0
 40
1.0
176
     0
 90
        2
176
     1
  1
strokes_ogs.tif
176
     1
290
     0
176
     1
 40
1.0
176
     1
 40
1.0
176
     1
  0
VISUALSTYLE
  5
39
102
{ACAD_REACTORS
330
29
102
}
330
29
100
AcDbVisualStyle
  2
ColorChange
 70
    16
177
     3
291
     1
 70
    58
 90
        2
176
     1
 90
        2
176
     1
 90
        3
176
     1
 90
        0
176
     1
 40
0.6
176
     1
 40
30.0
176
     1
 62
     8
420
  8421504
176
     1
 90
        1
176
     1
 90
        4
176
     1
 62
     7
176
     1
 62
   257
176
     1
 90
        1
176
     1
 90
        1
176
     1
 40
1.0
176
     1
 90
        8
176
     1
 62
     8
420
  8421504
176
     1
 40
1.0
176
     1
 90
        1
176
     1
 90
        6
176
     1
 90
        2
176
     1
 62
     7
176
     1
 90
        5
176
     1
 90
        0
176
     1
 90
        0
176
     1
290
     0
176
     1
 90
        1
176
     1
 40
0.0
176
     1
 90
        0
176
     1
290
     0
176
     1
290
     1
176
     1
290
     1
176
     1
290
     0
176
     1
290
     0
176
     1
290
     0
176
     1
290
     0
176
     1
290
     0
176
     1
290
     0
176
     1
 90
       50
176
     1
 40
0.0
176
     1
 40
1.0
176
     1
 90
        0
176
     1
 62
    18
420
        0
176
     1
 90
       50
176
     1
 90
        3
176
     1
 62
     5
420
      255
176
     1
290
     0
176
     1
 90
       50
176
     1
 90
       50
176
     1
 90
       50
176
     1
290
     0
176
     1
 90
       50
176
     1
 62
   256
176
     0
 40
1.0
176
     0
 90
        2
176
     1
  1
strokes_ogs.tif
176
     1
290
     0
176
     1
 40
1.0
176
     1
 40
1.0
176
     1
  0
VISUALSTYLE
  5
32
102
{ACAD_REACTORS
330
29
102
}
330
29
100
AcDbVisualStyle
  2
Conceptual
 70
     9
177
     3
291
     0
 70
    58
 90
        3
176
     1
 90
        2
176
     1
 90
        0
176
     1
 90
        0
176
     1
 40
0.6
176
     1
 40
30.0
176
     1
 62
     7
420
 16777215
176
     1
 90
        2
176
     1
 90
        2
176
     1
 62
     7
176
     1
 62
   257
176
     1
 90
        1
176
     1
 90
        1
176
     1
 40
179.0
176
     1
 90
        8
176
     1
 62
     7
176
     1
 40
1.0
176
     1
 90
        1
176
     1
 90
        6
176
     1
 90
        2
176
     1
 62
     7
176
     1
 90
        3
176
     1
 90
        0
176
     1
 90
        0
176
     1
290
     0
176
     1
 90
        1
176
     1
 40
0.0
176
     1
 90
        0
176
     1
290
     0
176
     1
290
     1
176
     1
290
     1
176
     1
290
     0
176
     1
290
     0
176
     1
290
     0
176
     1
290
     0
176
     1
290
     0
176
     1
290
     0
176
     1
 90
       50
176
     1
 40
0.0
176
     1
 40
1.0
176
     1
 90
        0
176
     1
 62
    18
420
        0
176
     1
 90
       50
176
     1
 90
        3
176
     1
 62
     5
420
      255
176
     1
290
     0
176
     1
 90
       50
176
     1
 90
       50
176
     1
 90
       50
176
     1
290
     0
176
     1
 90
       50
176
     1
 62
   256
176
     0
 40
1.0
176
     0
 90
        2
176
     1
  1
strokes_ogs.tif
176
     1
290
     0
176
     1
 40
1.0
176
     1
 40
1.0
176
     1
  0
VISUALSTYLE
  5
34
102
{ACAD_REACTORS
330
29
102
}
330
29
100
AcDbVisualStyle
  2
Dim
 70
    11
177
     3
291
     1
 70
    58
 90
        2
176
     1
 90
        2
176
     1
 90
        0
176
     1
 90
        0
176
     1
 40
0.6
176
     1
 40
30.0
176
     1
 62
     7
420
 16777215
176
     1
 90
        1
176
     1
 90
        4
176
     1
 62
     7
176
     1
 62
   257
176
     1
 90
        1
176
     1
 90
        1
176
     1
 40
1.0
176
     1
 90
        8
176
     1
 62
     7
176
     1
 40
1.0
176
     1
 90
        1
176
     1
 90
        6
176
     1
 90
        2
176
     1
 62
     7
176
     1
 90
        5
176
     1
 90
        0
176
     1
 90
        0
176
     1
290
     0
176
     1
 90
        1
176
     1
 40
-50.0
176
     1
 90
        0
176
     1
290
     0
176
     1
290
     1
176
     1
290
     1
176
     1
290
     0
176
     1
290
     0
176
     1
290
     0
176
     1
290
     0
176
     1
290
     0
176
     1
290
     0
176
     1
 90
       50
176
     1
 40
0.0
176
     1
 40
1.0
176
     1
 90
        0
176
     1
 62
    18
420
        0
176
     1
 90
       50
176
     1
 90
        3
176
     1
 62
     5
420
      255
176
     1
290
     0
176
     1
 90
       50
176
     1
 90
       50
176
     1
 90
       50
176
     1
290
     0
176
     1
 90
       50
176
     1
 62
   256
176
     0
 40
1.0
176
     0
 90
        2
176
     1
  1
strokes_ogs.tif
176
     1
290
     0
176
     1
 40
1.0
176
     1
 40
1.0
176
     1
  0
VISUALSTYLE
  5
41
102
{ACAD_REACTORS
330
29
102
}
330
29
100
AcDbVisualStyle
  2
EdgeColorOff
 70
    22
177
     3
291
     1
 70
    58
 90
        2
176
     0
 90
        2
176
     0
 90
        0
176
     0
 90
        0
176
     0
 40
0.6
176
     0
 40
30.0
176
     0
 62
     7
420
 16777215
176
     0
 90
        1
176
     0
 90
        4
176
     0
 62
     7
176
     0
 62
   257
176
     0
 90
        1
176
     0
 90
        1
176
     0
 40
1.0
176
     0
 90
        8
176
     2
 62
     7
176
     0
 40
1.0
176
     0
 90
        1
176
     0
 90
        6
176
     0
 90
        2
176
     0
 62
     7
176
     0
 90
        5
176
     0
 90
        0
176
     0
 90
        0
176
     0
290
     0
176
     0
 90
        1
176
     0
 40
0.0
176
     0
 90
        0
176
     0
290
     0
176
     0
290
     1
176
     0
290
     1
176
     0
290
     0
176
     0
290
     0
176
     0
290
     0
176
     0
290
     0
176
     0
290
     0
176
     0
290
     0
176
     0
 90
       50
176
     0
 40
0.0
176
     0
 40
1.0
176
     0
 90
        0
176
     0
 62
    18
420
        0
176
     0
 90
       50
176
     0
 90
        3
176
     0
 62
     5
420
      255
176
     0
290
     0
176
     0
 90
       50
176
     0
 90
       50
176
     0
 90
       50
176
     0
290
     0
176
     0
 90
       50
176
     0
 62
   256
176
     0
 40
1.0
176
     0
 90
        2
176
     0
  1
strokes_ogs.tif
176
     0
290
     0
176
     0
 40
1.0
176
     0
 40
1.0
176
     0
  0
VISUALSTYLE
  5
38
102
{ACAD_REACTORS
330
29
102
}
330
29
100
AcDbVisualStyle
  2
Facepattern
 70
    15
177
     3
291
     1
 70
    58
 90
        2
176
     1
 90
        2
176
     1
 90
        0
176
     1
 90
        0
176
     1
 40
0.6
176
     1
 40
30.0
176
     1
 62
     7
420
 16777215
176
     1
 90
        1
176
     1
 90
        4
176
     1
 62
     7
176
     1
 62
   257
176
     1
 90
        1
176
     1
 90
        1
176
     1
 40
1.0
176
     1
 90
        8
176
     1
 62
     7
176
     1
 40
1.0
176
     1
 90
        1
176
     1
 90
        6
176
     1
 90
        2
176
     1
 62
     7
176
     1
 90
        5
176
     1
 90
        0
176
     1
 90
        0
176
     1
290
     0
176
     1
 90
        1
176
     1
 40
0.0
176
     1
 90
        0
176
     1
290
     0
176
     1
290
     1
176
     1
290
     1
176
     1
290
     0
176
     1
290
     0
176
     1
290
     0
176
     1
290
     0
176
     1
290
     0
176
     1
290
     0
176
     1
 90
       50
176
     1
 40
0.0
176
     1
 40
1.0
176
     1
 90
        0
176
     1
 62
    18
420
        0
176
     1
 90
       50
176
     1
 90
        3
176
     1
 62
     5
420
      255
176
     1
290
     0
176
     1
 90
       50
176
     1
 90
       50
176
     1
 90
       50
176
     1
290
     0
176
     1
 90
       50
176
     1
 62
   256
176
     0
 40
1.0
176
     0
 90
        2
176
     1
  1
strokes_ogs.tif
176
     1
290
     0
176
     1
 40
1.0
176
     1
 40
1.0
176
     1
  0
VISUALSTYLE
  5
2A
102
{ACAD_REACTORS
330
29
102
}
330
29
100
AcDbVisualStyle
  2
Flat
 70
     0
177
     3
291
     1
 70
    58
 90
        2
176
     1
 90
        1
176
     1
 90
        1
176
     1
 90
        2
176
     1
 40
0.6
176
     1
 40
30.0
176
     1
 62
     7
420
 16777215
176
     1
 90
        0
176
     1
 90
        0
176
     1
 62
     7
176
     1
 62
   257
176
     1
 90
        1
176
     1
 90
        1
176
     1
 40
1.0
176
     1
 90
        8
176
     1
 62
     7
176
     1
 40
1.0
176
     1
 90
        1
176
     1
 90
        6
176
     1
 90
        2
176
     1
 62
     7
176
     1
 90
        5
176
     1
 90
        0
176
     1
 90
        0
176
     1
290
     0
176
     1
 90
       13
176
     1
 40
0.0
176
     1
 90
        0
176
     1
290
     0
176
     1
290
     1
176
     1
290
     1
176
     1
290
     0
176
     1
290
     0
176
     1
290
     0
176
     1
290
     0
176
     1
290
     0
176
     1
290
     0
176
     1
 90
       50
176
     1
 40
0.0
176
     1
 40
1.0
176
     1
 90
        0
176
     1
 62
    18
420
        0
176
     1
 90
       50
176
     1
 90
        3
176
     1
 62
     5
420
      255
176
     1
290
     0
176
     1
 90
       50
176
     1
 90
       50
176
     1
 90
       50
176
     1
290
     0
176
     1
 90
       50
176
     1
 62
   256
176
     0
 40
1.0
176
     0
 90
        2
176
     1
  1
strokes_ogs.tif
176
     1
290
     0
176
     1
 40
1.0
176
     1
 40
1.0
176
     1
  0
VISUALSTYLE
  5
2B
102
{ACAD_REACTORS
330
29
102
}
330
29
100
AcDbVisualStyle
  2
FlatWithEdges
 70
     1
177
     3
291
     1
 70
    58
 90
        2
176
     1
 90
        1
176
     1
 90
        1
176
     1
 90
        2
176
     1
 40
0.6
176
     1
 40
30.0
176
     1
 62
     7
420
 16777215
176
     1
 90
        1
176
     1
 90
        0
176
     1
 62
     7
176
     1
 62
   257
176
     1
 90
        1
176
     1
 90
        1
176
     1
 40
1.0
176
     1
 90
        0
176
     1
 62
   257
176
     1
 40
1.0
176
     1
 90
        1
176
     1
 90
        6
176
     1
 90
        2
176
     1
 62
     7
176
     1
 90
        5
176
     1
 90
        0
176
     1
 90
        0
176
     1
290
     0
176
     1
 90
       13
176
     1
 40
0.0
176
     1
 90
        0
176
     1
290
     0
176
     1
290
     1
176
     1
290
     1
176
     1
290
     0
176
     1
290
     0
176
     1
290
     0
176
     1
290
     0
176
     1
290
     0
176
     1
290
     0
176
     1
 90
       50
176
     1
 40
0.0
176
     1
 40
1.0
176
     1
 90
        0
176
     1
 62
    18
420
        0
176
     1
 90
       50
176
     1
 90
        3
176
     1
 62
     5
420
      255
176
     1
290
     0
176
     1
 90
       50
176
     1
 90
       50
176
     1
 90
       50
176
     1
290
     0
176
     1
 90
       50
176
     1
 62
   256
176
     0
 40
1.0
176
     0
 90
        2
176
     1
  1
strokes_ogs.tif
176
     1
290
     0
176
     1
 40
1.0
176
     1
 40
1.0
176
     1
  0
VISUALSTYLE
  5
2C
102
{ACAD_REACTORS
330
29
102
}
330
29
100
AcDbVisualStyle
  2
Gouraud
 70
     2
177
     3
291
     1
 70
    58
 90
        2
176
     1
 90
        2
176
     1
 90
        1
176
     1
 90
        2
176
     1
 40
0.6
176
     1
 40
30.0
176
     1
 62
     7
420
 16777215
176
     1
 90
        0
176
     1
 90
        0
176
     1
 62
     7
176
     1
 62
   257
176
     1
 90
        1
176
     1
 90
        1
176
     1
 40
1.0
176
     1
 90
        0
176
     1
 62
     7
176
     1
 40
1.0
176
     1
 90
        1
176
     1
 90
        6
176
     1
 90
        2
176
     1
 62
     7
176
     1
 90
        5
176
     1
 90
        0
176
     1
 90
        0
176
     1
290
     0
176
     1
 90
       13
176
     1
 40
0.0
176
     1
 90
        0
176
     1
290
     0
176
     1
290
     1
176
     1
290
     1
176
     1
290
     0
176
     1
290
     0
176
     1
290
     0
176
     1
290
     0
176
     1
290
     0
176
     1
290
     0
176
     1
 90
       50
176
     1
 40
0.0
176
     1
 40
1.0
176
     1
 90
        0
176
     1
 62
    18
420
        0
176
     1
 90
       50
176
     1
 90
        3
176
     1
 62
     5
420
      255
176
     1
290
     0
176
     1
 90
       50
176
     1
 90
       50
176
     1
 90
       50
176
     1
290
     0
176
     1
 90
       50
176
     1
 62
   256
176
     0
 40
1.0
176
     0
 90
        2
176
     1
  1
strokes_ogs.tif
176
     1
290
     0
176
     1
 40
1.0
176
     1
 40
1.0
176
     1
  0
VISUALSTYLE
  5
2D
102
{ACAD_REACTORS
330
29
102
}
330
29
100
AcDbVisualStyle
  2
GouraudWithEdges
 70
     3
177
     3
291
     1
 70
    58
 90
        2
176
     1
 90
        2
176
     1
 90
        1
176
     1
 90
        2
176
     1
 40
0.6
176
     1
 40
30.0
176
     1
 62
     7
420
 16777215
176
     1
 90
        1
176
     1
 90
        0
176
     1
 62
     7
176
     1
 62
   257
176
     1
 90
        1
176
     1
 90
        1
176
     1
 40
1.0
176
     1
 90
        0
176
     1
 62
   257
176
     1
 40
1.0
176
     1
 90
        1
176
     1
 90
        6
176
     1
 90
        2
176
     1
 62
     7
176
     1
 90
        5
176
     1
 90
        0
176
     1
 90
        0
176
     1
290
     0
176
     1
 90
       13
176
     1
 40
0.0
176
     1
 90
        0
176
     1
290
     0
176
     1
290
     1
176
     1
290
     1
176
     1
290
     0
176
     1
290
     0
176
     1
290
     0
176
     1
290
     0
176
     1
290
     0
176
     1
290
     0
176
     1
 90
       50
176
     1
 40
0.0
176
     1
 40
1.0
176
     1
 90
        0
176
     1
 62
    18
420
        0
176
     1
 90
       50
176
     1
 90
        3
176
     1
 62
     5
420
      255
176
     1
290
     0
176
     1
 90
       50
176
     1
 90
       50
176
     1
 90
       50
176
     1
290
     0
176
     1
 90
       50
176
     1
 62
   256
176
     0
 40
1.0
176
     0
 90
        2
176
     1
  1
strokes_ogs.tif
176
     1
290
     0
176
     1
 40
1.0
176
     1
 40
1.0
176
     1
  0
VISUALSTYLE
  5
31
102
{ACAD_REACTORS
330
29
102
}
330
29
100
AcDbVisualStyle
  2
Hidden
 70
     6
177
     3
291
     0
 70
    58
 90
        1
176
     1
 90
        2
176
     1
 90
        2
176
     1
 90
        0
176
     1
 40
0.6
176
     1
 40
30.0
176
     1
 62
     7
420
 16777215
176
     1
 90
        2
176
     1
 90
        2
176
     1
 62
     7
176
     1
 62
   257
176
     1
 90
        2
176
     1
 90
        1
176
     1
 40
40.0
176
     1
 90
        0
176
     1
 62
   257
176
     1
 40
1.0
176
     1
 90
        1
176
     1
 90
        6
176
     1
 90
        2
176
     1
 62
     7
176
     1
 90
        3
176
     1
 90
        0
176
     1
 90
        0
176
     1
290
     0
176
     1
 90
        1
176
     1
 40
0.0
176
     1
 90
        0
176
     1
290
     0
176
     1
290
     1
176
     1
290
     1
176
     1
290
     0
176
     1
290
     0
176
     1
290
     0
176
     1
290
     0
176
     1
290
     0
176
     1
290
     0
176
     1
 90
       50
176
     1
 40
0.0
176
     1
 40
1.0
176
     1
 90
        0
176
     1
 62
    18
420
        0
176
     1
 90
       50
176
     1
 90
        3
176
     1
 62
     5
420
      255
176
     1
290
     0
176
     1
 90
       50
176
     1
 90
       50
176
     1
 90
       50
176
     1
290
     0
176
     1
 90
       50
176
     1
 62
   256
176
     0
 40
1.0
176
     0
 90
        2
176
     1
  1
strokes_ogs.tif
176
     1
290
     0
176
     1
 40
1.0
176
     1
 40
1.0
176
     1
  0
VISUALSTYLE
  5
3F
102
{ACAD_REACTORS
330
29
102
}
330
29
100
AcDbVisualStyle
  2
JitterOff
 70
    20
177
     3
291
     1
 70
    58
 90
        2
176
     0
 90
        2
176
     0
 90
        0
176
     0
 90
        0
176
     0
 40
0.6
176
     0
 40
30.0
176
     0
 62
     7
420
 16777215
176
     0
 90
        1
176
     0
 90
        4
176
     0
 62
     7
176
     0
 62
   257
176
     0
 90
        1
176
     0
 90
        1
176
     0
 40
1.0
176
     0
 90
       10
176
     2
 62
     7
176
     0
 40
1.0
176
     0
 90
        1
176
     0
 90
        6
176
     0
 90
        2
176
     0
 62
     7
176
     0
 90
        5
176
     0
 90
        0
176
     0
 90
        0
176
     0
290
     0
176
     0
 90
        1
176
     0
 40
0.0
176
     0
 90
        0
176
     0
290
     0
176
     0
290
     1
176
     0
290
     1
176
     0
290
     0
176
     0
290
     0
176
     0
290
     0
176
     0
290
     0
176
     0
290
     0
176
     0
290
     0
176
     0
 90
       50
176
     0
 40
0.0
176
     0
 40
1.0
176
     0
 90
        0
176
     0
 62
    18
420
        0
176
     0
 90
       50
176
     0
 90
        3
176
     0
 62
     5
420
      255
176
     0
290
     0
176
     0
 90
       50
176
     0
 90
       50
176
     0
 90
       50
176
     0
290
     0
176
     0
 90
       50
176
     0
 62
   256
176
     0
 40
1.0
176
     0
 90
        2
176
     0
  1
strokes_ogs.tif
176
     0
290
     0
176
     0
 40
1.0
176
     0
 40
1.0
176
     0
  0
VISUALSTYLE
  5
37
102
{ACAD_REACTORS
330
29
102
}
330
29
100
AcDbVisualStyle
  2
Linepattern
 70
    14
177
     3
291
     1
 70
    58
 90
        2
176
     1
 90
        2
176
     1
 90
        0
176
     1
 90
        0
176
     1
 40
0.6
176
     1
 40
30.0
176
     1
 62
     7
420
 16777215
176
     1
 90
        1
176
     1
 90
        4
176
     1
 62
     7
176
     1
 62
   257
176
     1
 90
        7
176
     1
 90
        7
176
     1
 40
1.0
176
     1
 90
        8
176
     1
 62
     7
176
     1
 40
1.0
176
     1
 90
        1
176
     1
 90
        6
176
     1
 90
        2
176
     1
 62
     7
176
     1
 90
        5
176
     1
 90
        0
176
     1
 90
        0
176
     1
290
     0
176
     1
 90
        1
176
     1
 40
0.0
176
     1
 90
        0
176
     1
290
     0
176
     1
290
     1
176
     1
290
     1
176
     1
290
     0
176
     1
290
     0
176
     1
290
     0
176
     1
290
     0
176
     1
290
     0
176
     1
290
     0
176
     1
 90
       50
176
     1
 40
0.0
176
     1
 40
1.0
176
     1
 90
        0
176
     1
 62
    18
420
        0
176
     1
 90
       50
176
     1
 90
        3
176
     1
 62
     5
420
      255
176
     1
290
     0
176
     1
 90
       50
176
     1
 90
       50
176
     1
 90
       50
176
     1
290
     0
176
     1
 90
       50
176
     1
 62
   256
176
     0
 40
1.0
176
     0
 90
        2
176
     1
  1
strokes_ogs.tif
176
     1
290
     0
176
     1
 40
1.0
176
     1
 40
1.0
176
     1
  0
VISUALSTYLE
  5
40
102
{ACAD_REACTORS
330
29
102
}
330
29
100
AcDbVisualStyle
  2
OverhangOff
 70
    21
177
     3
291
     1
 70
    58
 90
        2
176
     0
 90
        2
176
     0
 90
        0
176
     0
 90
        0
176
     0
 40
0.6
176
     0
 40
30.0
176
     0
 62
     7
420
 16777215
176
     0
 90
        1
176
     0
 90
        4
176
     0
 62
     7
176
     0
 62
   257
176
     0
 90
        1
176
     0
 90
        1
176
     0
 40
1.0
176
     0
 90
        9
176
     2
 62
     7
176
     0
 40
1.0
176
     0
 90
        1
176
     0
 90
        6
176
     0
 90
        2
176
     0
 62
     7
176
     0
 90
        5
176
     0
 90
        0
176
     0
 90
        0
176
     0
290
     0
176
     0
 90
        1
176
     0
 40
0.0
176
     0
 90
        0
176
     0
290
     0
176
     0
290
     1
176
     0
290
     1
176
     0
290
     0
176
     0
290
     0
176
     0
290
     0
176
     0
290
     0
176
     0
290
     0
176
     0
290
     0
176
     0
 90
       50
176
     0
 40
0.0
176
     0
 40
1.0
176
     0
 90
        0
176
     0
 62
    18
420
        0
176
     0
 90
       50
176
     0
 90
        3
176
     0
 62
     5
420
      255
176
     0
290
     0
176
     0
 90
       50
176
     0
 90
       50
176
     0
 90
       50
176
     0
290
     0
176
     0
 90
       50
176
     0
 62
   256
176
     0
 40
1.0
176
     0
 90
        2
176
     0
  1
strokes_ogs.tif
176
     0
290
     0
176
     0
 40
1.0
176
     0
 40
1.0
176
     0
  0
VISUALSTYLE
  5
33
102
{ACAD_REACTORS
330
29
102
}
330
29
100
AcDbVisualStyle
  2
Realistic
 70
     8
177
     3
291
     0
 70
    58
 90
        2
176
     1
 90
        3
176
     1
 90
        0
176
     1
 90
        2
176
     1
 40
0.6
176
     1
 40
30.0
176
     1
 62
     7
420
 16777215
176
     1
 90
        0
176
     1
 90
        0
176
     1
 62
     7
176
     1
 62
   257
176
     1
 90
        1
176
     1
 90
        1
176
     1
 40
1.0
176
     1
 90
        8
176
     1
 62
   257
176
     1
 40
1.0
176
     1
 90
        1
176
     1
 90
        6
176
     1
 90
        2
176
     1
 62
     7
176
     1
 90
        3
176
     1
 90
        0
176
     1
 90
        0
176
     1
290
     0
176
     1
 90
       13
176
     1
 40
0.0
176
     1
 90
        0
176
     1
290
     0
176
     1
290
     1
176
     1
290
     1
176
     1
290
     0
176
     1
290
     0
176
     1
290
     0
176
     1
290
     0
176
     1
290
     0
176
     1
290
     0
176
     1
 90
       50
176
     1
 40
0.0
176
     1
 40
1.0
176
     1
 90
        0
176
     1
 62
    18
420
        0
176
     1
 90
       50
176
     1
 90
        3
176
     1
 62
     5
420
      255
176
     1
290
     0
176
     1
 90
       50
176
     1
 90
       50
176
     1
 90
       50
176
     1
290
     0
176
     1
 90
       50
176
     1
 62
   256
176
     0
 40
1.0
176
     0
 90
        2
176
     1
  1
strokes_ogs.tif
176
     1
290
     0
176
     1
 40
1.0
176
     1
 40
1.0
176
     1
  0
VISUALSTYLE
  5
3E
102
{ACAD_REACTORS
330
29
102
}
330
29
100
AcDbVisualStyle
  2
Shaded
 70
    27
177
     3
291
     0
 70
    58
 90
        2
176
     1
 90
        2
176
     1
 90
        1
176
     1
 90
        2
176
     1
 40
0.6
176
     1
 40
30.0
176
     1
 62
     7
420
 16777215
176
     1
 90
        0
176
     1
 90
        4
176
     1
 62
     7
176
     1
 62
   257
176
     1
 90
        1
176
     1
 90
        1
176
     1
 40
1.0
176
     1
 90
        8
176
     1
 62
   257
176
     1
 40
1.0
176
     1
 90
        1
176
     1
 90
        6
176
     1
 90
        2
176
     1
 62
     8
420
  7895160
176
     1
 90
        3
176
     1
 90
        0
176
     1
 90
        0
176
     1
290
     0
176
     1
 90
        5
176
     1
 40
0.0
176
     1
 90
        0
176
     1
290
     0
176
     1
290
     1
176
     1
290
     1
176
     1
290
     0
176
     1
290
     0
176
     1
290
     0
176
     1
290
     0
176
     1
290
     0
176
     1
290
     0
176
     1
 90
       50
176
     1
 40
0.0
176
     1
 40
1.0
176
     1
 90
        0
176
     1
 62
    18
420
        0
176
     1
 90
       50
176
     1
 90
        3
176
     1
 62
     5
420
      255
176
     1
290
     0
176
     1
 90
       50
176
     1
 90
       50
176
     1
 90
       50
176
     1
290
     0
176
     1
 90
       50
176
     1
 62
   256
176
     0
 40
1.0
176
     0
 90
        2
176
     1
  1
strokes_ogs.tif
176
     1
290
     0
176
     1
 40
1.0
176
     1
 40
1.0
176
     1
  0
VISUALSTYLE
  5
3D
102
{ACAD_REACTORS
330
29
102
}
330
29
100
AcDbVisualStyle
  2
Shaded with edges
 70
    26
177
     3
291
     0
 70
    58
 90
        2
176
     1
 90
        2
176
     1
 90
        1
176
     1
 90
        2
176
     1
 40
0.6
176
     1
 40
30.0
176
     1
 62
     7
420
 16777215
176
     1
 90
        1
176
     1
 90
        2
176
     1
 62
     7
176
     1
 62
   257
176
     1
 90
        2
176
     1
 90
        1
176
     1
 40
1.0
176
     1
 90
        8
176
     1
 62
   257
176
     1
 40
1.0
176
     1
 90
        1
176
     1
 90
        6
176
     1
 90
        2
176
     1
 62
     7
176
     1
 90
        3
176
     1
 90
        0
176
     1
 90
        0
176
     1
290
     0
176
     1
 90
        5
176
     1
 40
0.0
176
     1
 90
        0
176
     1
290
     0
176
     1
290
     1
176
     1
290
     1
176
     1
290
     0
176
     1
290
     0
176
     1
290
     0
176
     1
290
     0
176
     1
290
     0
176
     1
290
     0
176
     1
 90
       50
176
     1
 40
0.0
176
     1
 40
1.0
176
     1
 90
        0
176
     1
 62
    18
420
        0
176
     1
 90
       50
176
     1
 90
        3
176
     1
 62
     5
420
      255
176
     1
290
     0
176
     1
 90
       50
176
     1
 90
       50
176
     1
 90
       50
176
     1
290
     0
176
     1
 90
       50
176
     1
 62
   256
176
     0
 40
1.0
176
     0
 90
        2
176
     1
  1
strokes_ogs.tif
176
     1
290
     0
176
     1
 40
1.0
176
     1
 40
1.0
176
     1
  0
VISUALSTYLE
  5
3A
102
{ACAD_REACTORS
330
29
102
}
330
29
100
AcDbVisualStyle
  2
Shades of Gray
 70
    23
177
     3
291
     0
 70
    58
 90
        2
176
     1
 90
        2
176
     1
 90
        3
176
     1
 90
        0
176
     1
 40
0.6
176
     1
 40
30.0
176
     1
 62
     7
420
 16777215
176
     1
 90
        2
176
     1
 90
        2
176
     1
 62
     7
176
     1
 62
     7
176
     1
 90
        1
176
     1
 90
        1
176
     1
 40
40.0
176
     1
 90
        8
176
     1
 62
     7
176
     1
 40
1.0
176
     1
 90
        1
176
     1
 90
        6
176
     1
 90
        2
176
     1
 62
     7
176
     1
 90
        3
176
     1
 90
        0
176
     1
 90
        0
176
     1
290
     0
176
     1
 90
        1
176
     1
 40
0.0
176
     1
 90
        0
176
     1
290
     0
176
     1
290
     1
176
     1
290
     1
176
     1
290
     0
176
     1
290
     0
176
     1
290
     0
176
     1
290
     0
176
     1
290
     0
176
     1
290
     0
176
     1
 90
       50
176
     1
 40
0.0
176
     1
 40
1.0
176
     1
 90
        0
176
     1
 62
    18
420
        0
176
     1
 90
       50
176
     1
 90
        3
176
     1
 62
     5
420
      255
176
     1
290
     0
176
     1
 90
       50
176
     1
 90
       50
176
     1
 90
       50
176
     1
290
     0
176
     1
 90
       50
176
     1
 62
   256
176
     0
 40
1.0
176
     0
 90
        2
176
     1
  1
strokes_ogs.tif
176
     1
290
     0
176
     1
 40
1.0
176
     1
 40
1.0
176
     1
  0
VISUALSTYLE
  5
3B
102
{ACAD_REACTORS
330
29
102
}
330
29
100
AcDbVisualStyle
  2
Sketchy
 70
    24
177
     3
291
     0
 70
    58
 90
        1
176
     1
 90
        2
176
     1
 90
        2
176
     1
 90
        0
176
     1
 40
0.6
176
     1
 40
30.0
176
     1
 62
     7
420
 16777215
176
     1
 90
        2
176
     1
 90
        2
176
     1
 62
     7
176
     1
 62
     7
176
     1
 90
        1
176
     1
 90
        1
176
     1
 40
40.0
176
     1
 90
       11
176
     1
 62
     7
176
     1
 40
1.0
176
     1
 90
        1
176
     1
 90
        6
176
     1
 90
        2
176
     1
 62
     7
176
     1
 90
        6
176
     1
 90
        0
176
     1
 90
        0
176
     1
290
     0
176
     1
 90
        1
176
     1
 40
0.0
176
     1
 90
        0
176
     1
290
     0
176
     1
290
     1
176
     1
290
     1
176
     1
290
     0
176
     1
290
     0
176
     1
290
     0
176
     1
290
     0
176
     1
290
     0
176
     1
290
     0
176
     1
 90
       50
176
     1
 40
0.0
176
     1
 40
1.0
176
     1
 90
        0
176
     1
 62
    18
420
        0
176
     1
 90
       50
176
     1
 90
        3
176
     1
 62
     5
420
      255
176
     1
290
     0
176
     1
 90
       50
176
     1
 90
       50
176
     1
 90
       50
176
     1
290
     0
176
     1
 90
       50
176
     1
 62
   256
176
     0
 40
1.0
176
     0
 90
        2
176
     1
  1
strokes_ogs.tif
176
     1
290
     0
176
     1
 40
1.0
176
     1
 40
1.0
176
     1
  0
VISUALSTYLE
  5
36
102
{ACAD_REACTORS
330
29
102
}
330
29
100
AcDbVisualStyle
  2
Thicken
 70
    13
177
     3
291
     1
 70
    58
 90
        2
176
     1
 90
        2
176
     1
 90
        0
176
     1
 90
        0
176
     1
 40
0.6
176
     1
 40
30.0
176
     1
 62
     7
420
 16777215
176
     1
 90
        1
176
     1
 90
        4
176
     1
 62
     7
176
     1
 62
   257
176
     1
 90
        1
176
     1
 90
        1
176
     1
 40
1.0
176
     1
 90
       12
176
     1
 62
     7
176
     1
 40
1.0
176
     1
 90
        1
176
     1
 90
        6
176
     1
 90
        2
176
     1
 62
     7
176
     1
 90
        5
176
     1
 90
        0
176
     1
 90
        0
176
     1
290
     0
176
     1
 90
        1
176
     1
 40
0.0
176
     1
 90
        0
176
     1
290
     0
176
     1
290
     1
176
     1
290
     1
176
     1
290
     0
176
     1
290
     0
176
     1
290
     0
176
     1
290
     0
176
     1
290
     0
176
     1
290
     0
176
     1
 90
       50
176
     1
 40
0.0
176
     1
 40
1.0
176
     1
 90
        0
176
     1
 62
    18
420
        0
176
     1
 90
       50
176
     1
 90
        3
176
     1
 62
     5
420
      255
176
     1
290
     0
176
     1
 90
       50
176
     1
 90
       50
176
     1
 90
       50
176
     1
290
     0
176
     1
 90
       50
176
     1
 62
   256
176
     0
 40
1.0
176
     0
 90
        2
176
     1
  1
strokes_ogs.tif
176
     1
290
     0
176
     1
 40
1.0
176
     1
 40
1.0
176
     1
  0
VISUALSTYLE
  5
30
102
{ACAD_REACTORS
330
29
102
}
330
29
100
AcDbVisualStyle
  2
Wireframe
 70
     5
177
     3
291
     0
 70
    58
 90
        0
176
     1
 90
        2
176
     1
 90
        0
176
     1
 90
        0
176
     1
 40
0.6
176
     1
 40
30.0
176
     1
 62
     7
420
 16777215
176
     1
 90
        1
176
     1
 90
        4
176
     1
 62
     7
176
     1
 62
   257
176
     1
 90
        1
176
     1
 90
        1
176
     1
 40
1.0
176
     1
 90
        0
176
     1
 62
   257
176
     1
 40
1.0
176
     1
 90
        1
176
     1
 90
        6
176
     1
 90
        2
176
     1
 62
     7
176
     1
 90
        3
176
     1
 90
        0
176
     1
 90
        0
176
     1
290
     0
176
     1
 90
        1
176
     1
 40
0.0
176
     1
 90
        0
176
     1
290
     0
176
     1
290
     1
176
     1
290
     1
176
     1
290
     0
176
     1
290
     0
176
     1
290
     0
176
     1
290
     0
176
     1
290
     0
176
     1
290
     0
176
     1
 90
       50
176
     1
 40
0.0
176
     1
 40
1.0
176
     1
 90
        0
176
     1
 62
    18
420
        0
176
     1
 90
       50
176
     1
 90
        3
176
     1
 62
     5
420
      255
176
     1
290
     0
176
     1
 90
       50
176
     1
 90
       50
176
     1
 90
       50
176
     1
290
     0
176
     1
 90
       50
176
     1
 62
   256
176
     0
 40
1.0
176
     0
 90
        2
176
     1
  1
strokes_ogs.tif
176
     1
290
     0
176
     1
 40
1.0
176
     1
 40
1.0
176
     1
  0
VISUALSTYLE
  5
3C
102
{ACAD_REACTORS
330
29
102
}
330
29
100
AcDbVisualStyle
  2
X-Ray
 70
    25
177
     3
291
     0
 70
    58
 90
        2
176
     1
 90
        2
176
     1
 90
        1
176
     1
 90
        1
176
     1
 40
0.5
176
     1
 40
30.0
176
     1
 62
     7
420
 16777215
176
     1
 90
        1
176
     1
 90
        0
176
     1
 62
     7
176
     1
 62
   257
176
     1
 90
        1
176
     1
 90
        1
176
     1
 40
1.0
176
     1
 90
        8
176
     1
 62
     7
176
     1
 40
1.0
176
     1
 90
        1
176
     1
 90
        6
176
     1
 90
        2
176
     1
 62
     7
176
     1
 90
        3
176
     1
 90
        0
176
     1
 90
        0
176
     1
290
     0
176
     1
 90
       13
176
     1
 40
0.0
176
     1
 90
        0
176
     1
290
     0
176
     1
290
     1
176
     1
290
     1
176
     1
290
     0
176
     1
290
     0
176
     1
290
     0
176
     1
290
     0
176
     1
290
     0
176
     1
290
     0
176
     1
 90
       50
176
     1
 40
0.0
176
     1
 40
1.0
176
     1
 90
        0
176
     1
 62
    18
420
        0
176
     1
 90
       50
176
     1
 90
        3
176
     1
 62
     5
420
      255
176
     1
290
     0
176
     1
 90
       50
176
     1
 90
       50
176
     1
 90
       50
176
     1
290
     0
176
     1
 90
       50
176
     1
 62
   256
176
     0
 40
1.0
176
     0
 90
        2
176
     1
  1
strokes_ogs.tif
176
     1
290
     0
176
     1
 40
1.0
176
     1
 40
1.0
176
     1
  0
DICTIONARYVAR
  5
157
102
{ACAD_REACTORS
330
152
102
}
330
152
100
DictionaryVariables
280
     0
  1
1:1
  0
DICTIONARYVAR
  5
154
102
{ACAD_REACTORS
330
152
102
}
330
152
100
DictionaryVariables
280
     0
  1
STANDARD
  0
DICTIONARYVAR
  5
153
102
{ACAD_REACTORS
330
152
102
}
330
152
100
DictionaryVariables
280
     0
  1
STANDARD
  0
DICTIONARYVAR
  5
155
102
{ACAD_REACTORS
330
152
102
}
330
152
100
DictionaryVariables
280
     0
  1
Imperial24
  0
DICTIONARYVAR
  5
156
102
{ACAD_REACTORS
330
152
102
}
330
152
100
DictionaryVariables
280
     0
  1
Imperial24
  0
DICTIONARY
  5
1A
330
19
100
AcDbDictionary
280
     1
281
     1
  3
BUMPTILE
360
1C
  3
DIFFUSETILE
360
1B
  3
OPACITYTILE
360
1F
  3
REFLECTIONTILE
360
1E
  3
REFRACTIONTILE
360
20
  3
SPECULARTILE
360
1D
  0
DICTIONARY
  5
12
330
11
100
AcDbDictionary
280
     1
281
     1
  3
BUMPTILE
360
14
  3
DIFFUSETILE
360
13
  3
OPACITYTILE
360
17
  3
REFLECTIONTILE
360
16
  3
REFRACTIONTILE
360
18
  3
SPECULARTILE
360
15
  0
DICTIONARY
  5
22
330
21
100
AcDbDictionary
280
     1
281
     1
  3
BUMPTILE
360
24
  3
DIFFUSETILE
360
23
  3
OPACITYTILE
360
27
  3
REFLECTIONTILE
360
26
  3
REFRACTIONTILE
360
28
  3
SPECULARTILE
360
25
  0
DICTIONARY
  5
158
330
65
100
AcDbDictionary
280
     1
281
     1
  3
ACAD_ROUNDTRIP_2008_TABLESTYLE_CELLSTYLEMAP
360
159
  0
XRECORD
  5
1C
102
{ACAD_REACTORS
330
1A
102
}
330
1A
100
AcDbXrecord
280
     1
270
     1
271
     1
  0
XRECORD
  5
1B
102
{ACAD_REACTORS
330
1A
102
}
330
1A
100
AcDbXrecord
280
     1
270
     1
271
     1
  0
XRECORD
  5
1F
102
{ACAD_REACTORS
330
1A
102
}
330
1A
100
AcDbXrecord
280
     1
270
     1
271
     1
  0
XRECORD
  5
1E
102
{ACAD_REACTORS
330
1A
102
}
330
1A
100
AcDbXrecord
280
     1
270
     1
271
     1
  0
XRECORD
  5
20
102
{ACAD_REACTORS
330
1A
102
}
330
1A
100
AcDbXrecord
280
     1
270
     1
271
     1
  0
XRECORD
  5
1D
102
{ACAD_REACTORS
330
1A
102
}
330
1A
100
AcDbXrecord
280
     1
270
     1
271
     1
  0
XRECORD
  5
14
102
{ACAD_REACTORS
330
12
102
}
330
12
100
AcDbXrecord
280
     1
270
     1
271
     1
  0
XRECORD
  5
13
102
{ACAD_REACTORS
330
12
102
}
330
12
100
AcDbXrecord
280
     1
270
     1
271
     1
  0
XRECORD
  5
17
102
{ACAD_REACTORS
330
12
102
}
330
12
100
AcDbXrecord
280
     1
270
     1
271
     1
  0
XRECORD
  5
16
102
{ACAD_REACTORS
330
12
102
}
330
12
100
AcDbXrecord
280
     1
270
     1
271
     1
  0
XRECORD
  5
18
102
{ACAD_REACTORS
330
12
102
}
330
12
100
AcDbXrecord
280
     1
270
     1
271
     1
  0
XRECORD
  5
15
102
{ACAD_REACTORS
330
12
102
}
330
12
100
AcDbXrecord
280
     1
270
     1
271
     1
  0
XRECORD
  5
24
102
{ACAD_REACTORS
330
22
102
}
330
22
100
AcDbXrecord
280
     1
270
     1
271
     1
  0
XRECORD
  5
23
102
{ACAD_REACTORS
330
22
102
}
330
22
100
AcDbXrecord
280
     1
270
     1
271
     1
  0
XRECORD
  5
27
102
{ACAD_REACTORS
330
22
102
}
330
22
100
AcDbXrecord
280
     1
270
     1
271
     1
  0
XRECORD
  5
26
102
{ACAD_REACTORS
330
22
102
}
330
22
100
AcDbXrecord
280
     1
270
     1
271
     1
  0
XRECORD
  5
28
102
{ACAD_REACTORS
330
22
102
}
330
22
100
AcDbXrecord
280
     1
270
     1
271
     1
  0
XRECORD
  5
25
102
{ACAD_REACTORS
330
22
102
}
330
22
100
AcDbXrecord
280
     1
270
     1
271
     1
  0
CELLSTYLEMAP
  5
159
102
{ACAD_REACTORS
330
158
102
}
330
158
100
AcDbCellStyleMap
 90
        3
300
CELLSTYLE
  1
TABLEFORMAT_BEGIN
 90
        5
170
     1
 91
        0
 92
    32768
 62
   257
 93
        1
300
CONTENTFORMAT
  1
CONTENTFORMAT_BEGIN
 90
        0
 91
        0
 92
      512
 93
        0
300

 40
0.0
140
1.0
 94
        5
 62
     0
340
55
144
0.25
309
CONTENTFORMAT_END
171
     0
 94
        0
309
TABLEFORMAT_END
  1
CELLSTYLE_BEGIN
 90
        1
 91
        1
300
_TITLE
309
CELLSTYLE_END
300
CELLSTYLE
  1
TABLEFORMAT_BEGIN
 90
        5
170
     1
 91
        0
 92
        0
 62
   257
 93
        1
300
CONTENTFORMAT
  1
CONTENTFORMAT_BEGIN
 90
        0
 91
        0
 92
      512
 93
        0
300

 40
0.0
140
1.0
 94
        5
 62
     0
340
55
144
0.18
309
CONTENTFORMAT_END
171
     0
 94
        0
309
TABLEFORMAT_END
  1
CELLSTYLE_BEGIN
 90
        2
 91
        1
300
_HEADER
309
CELLSTYLE_END
300
CELLSTYLE
  1
TABLEFORMAT_BEGIN
 90
        5
170
     1
 91
        0
 92
        0
 62
   257
 93
        1
300
CONTENTFORMAT
  1
CONTENTFORMAT_BEGIN
 90
        0
 91
        0
 92
      512
 93
        0
300

 40
0.0
140
1.0
 94
        2
 62
     0
340
55
144
0.18
309
CONTENTFORMAT_END
171
     0
 94
        0
309
TABLEFORMAT_END
  1
CELLSTYLE_BEGIN
 90
        3
 91
        2
300
_DATA
309
CELLSTYLE_END
  0
ENDSEC
  0
EOF
