  0
SECTION
  2
HEADER
  9
$ACADVER
  1
AC1032
  9
$ACADMAINTVER
 90
      228
  9
$DWGCODEPAGE
  3
ANSI_932
  9
$REQUIREDVERSIONS
160
                 0
  9
$INSBASE
 10
0.0
 20
0.0
 30
0.0
  9
$EXTMIN
 10
1.000000000000000E+20
 20
1.000000000000000E+20
 30
1.000000000000000E+20
  9
$EXTMAX
 10
-1.000000000000000E+20
 20
-1.000000000000000E+20
 30
-1.000000000000000E+20
  9
$LIMMIN
 10
0.0
 20
0.0
  9
$LIMMAX
 10
12.0
 20
9.0
  9
$ORTHOMODE
 70
     0
  9
$REGENMODE
 70
     1
  9
$FILLMODE
 70
     1
  9
$QTEXTMODE
 70
     0
  9
$MIRRTEXT
 70
     0
  9
$LTSCALE
 40
1.0
  9
$ATTMODE
 70
     1
  9
$TEXTSIZE
 40
0.2
  9
$TRACEWID
 40
0.05
  9
$TEXTSTYLE
  7
Standard
  9
$CLAYER
  8
0
  9
$CELTYPE
  6
ByLayer
  9
$CECOLOR
 62
   256
  9
$CELTSCALE
 40
1.0
  9
$DISPSILH
 70
     0
  9
$DIMSCALE
 40
1.0
  9
$DIMASZ
 40
0.18
  9
$DIMEXO
 40
0.0625
  9
$DIMDLI
 40
0.38
  9
$DIMRND
 40
0.0
  9
$DIMDLE
 40
0.0
  9
$DIMEXE
 40
0.18
  9
$DIMTP
 40
0.0
  9
$DIMTM
 40
0.0
  9
$DIMTXT
 40
0.18
  9
$DIMCEN
 40
0.09
  9
$DIMTSZ
 40
0.0
  9
$DIMTOL
 70
     0
  9
$DIMLIM
 70
     0
  9
$DIMTIH
 70
     1
  9
$DIMTOH
 70
     1
  9
$DIMSE1
 70
     0
  9
$DIMSE2
 70
     0
  9
$DIMTAD
 70
     0
  9
$DIMZIN
 70
     0
  9
$DIMBLK
  1

  9
$DIMASO
 70
     1
  9
$DIMSHO
 70
     1
  9
$DIMPOST
  1

  9
$DIMAPOST
  1

  9
$DIMALT
 70
     0
  9
$DIMALTD
 70
     2
  9
$DIMALTF
 40
25.4
  9
$DIMLFAC
 40
1.0
  9
$DIMTOFL
 70
     0
  9
$DIMTVP
 40
0.0
  9
$DIMTIX
 70
     0
  9
$DIMSOXD
 70
     0
  9
$DIMSAH
 70
     0
  9
$DIMBLK1
  1

  9
$DIMBLK2
  1

  9
$DIMSTYLE
  2
Standard
  9
$DIMCLRD
 70
     0
  9
$DIMCLRE
 70
     0
  9
$DIMCLRT
 70
     0
  9
$DIMTFAC
 40
1.0
  9
$DIMGAP
 40
0.09
  9
$DIMJUST
 70
     0
  9
$DIMSD1
 70
     0
  9
$DIMSD2
 70
     0
  9
$DIMTOLJ
 70
     1
  9
$DIMTZIN
 70
     0
  9
$DIMALTZ
 70
     0
  9
$DIMALTTZ
 70
     0
  9
$DIMUPT
 70
     0
  9
$DIMDEC
 70
     4
  9
$DIMTDEC
 70
     4
  9
$DIMALTU
 70
     2
  9
$DIMALTTD
 70
     2
  9
$DIMTXSTY
  7
Standard
  9
$DIMAUNIT
 70
     0
  9
$DIMADEC
 70
     0
  9
$DIMALTRND
 40
0.0
  9
$DIMAZIN
 70
     0
  9
$DIMDSEP
 70
    46
  9
$DIMATFIT
 70
     3
  9
$DIMFRAC
 70
     0
  9
$DIMLDRBLK
  1

  9
$DIMLUNIT
 70
     2
  9
$DIMLWD
 70
    -2
  9
$DIMLWE
 70
    -2
  9
$DIMTMOVE
 70
     0
  9
$DIMFXL
 40
1.0
  9
$DIMFXLON
 70
     0
  9
$DIMJOGANG
 40
0.7853981633974483
  9
$DIMTFILL
 70
     0
  9
$DIMTFILLCLR
 70
     0
  9
$DIMARCSYM
 70
     0
  9
$DIMLTYPE
  6

  9
$DIMLTEX1
  6

  9
$DIMLTEX2
  6

  9
$DIMTXTDIRECTION
 70
     0
  9
$LUNITS
 70
     2
  9
$LUPREC
 70
     4
  9
$SKETCHINC
 40
0.1
  9
$FILLETRAD
 40
0.0
  9
$AUNITS
 70
     0
  9
$AUPREC
 70
     0
  9
$MENU
  1
.
  9
$ELEVATION
 40
0.0
  9
$PELEVATION
 40
0.0
  9
$THICKNESS
 40
0.0
  9
$LIMCHECK
 70
     0
  9
$CHAMFERA
 40
0.0
  9
$CHAMFERB
 40
0.0
  9
$CHAMFERC
 40
0.0
  9
$CHAMFERD
 40
0.0
  9
$SKPOLY
 70
     0
  9
$TDCREATE
 40
2460062.602152778
  9
$TDUCREATE
 40
2460062.227152778
  9
$TDUPDATE
 40
2460062.602152778
  9
$TDUUPDATE
 40
2460062.227152778
  9
$TDINDWG
 40
0.0000000000
  9
$TDUSRTIMER
 40
0.0000000000
  9
$USRTIMER
 70
     1
  9
$ANGBASE
 50
0.0
  9
$ANGDIR
 70
     0
  9
$PDMODE
 70
     0
  9
$PDSIZE
 40
0.0
  9
$PLINEWID
 40
0.0
  9
$SPLFRAME
 70
     0
  9
$SPLINETYPE
 70
     6
  9
$SPLINESEGS
 70
     8
  9
$HANDSEED
  5
105
  9
$SURFTAB1
 70
     6
  9
$SURFTAB2
 70
     6
  9
$SURFTYPE
 70
     6
  9
$SURFU
 70
     6
  9
$SURFV
 70
     6
  9
$UCSBASE
  2

  9
$UCSNAME
  2

  9
$UCSORG
 10
0.0
 20
0.0
 30
0.0
  9
$UCSXDIR
 10
1.0
 20
0.0
 30
0.0
  9
$UCSYDIR
 10
0.0
 20
1.0
 30
0.0
  9
$UCSORTHOREF
  2

  9
$UCSORTHOVIEW
 70
     0
  9
$UCSORGTOP
 10
0.0
 20
0.0
 30
0.0
  9
$UCSORGBOTTOM
 10
0.0
 20
0.0
 30
0.0
  9
$UCSORGLEFT
 10
0.0
 20
0.0
 30
0.0
  9
$UCSORGRIGHT
 10
0.0
 20
0.0
 30
0.0
  9
$UCSORGFRONT
 10
0.0
 20
0.0
 30
0.0
  9
$UCSORGBACK
 10
0.0
 20
0.0
 30
0.0
  9
$PUCSBASE
  2

  9
$PUCSNAME
  2

  9
$PUCSORG
 10
0.0
 20
0.0
 30
0.0
  9
$PUCSXDIR
 10
1.0
 20
0.0
 30
0.0
  9
$PUCSYDIR
 10
0.0
 20
1.0
 30
0.0
  9
$PUCSORTHOREF
  2

  9
$PUCSORTHOVIEW
 70
     0
  9
$PUCSORGTOP
 10
0.0
 20
0.0
 30
0.0
  9
$PUCSORGBOTTOM
 10
0.0
 20
0.0
 30
0.0
  9
$PUCSORGLEFT
 10
0.0
 20
0.0
 30
0.0
  9
$PUCSORGRIGHT
 10
0.0
 20
0.0
 30
0.0
  9
$PUCSORGFRONT
 10
0.0
 20
0.0
 30
0.0
  9
$PUCSORGBACK
 10
0.0
 20
0.0
 30
0.0
  9
$USERI1
 70
     0
  9
$USERI2
 70
     0
  9
$USERI3
 70
     0
  9
$USERI4
 70
     0
  9
$USERI5
 70
     0
  9
$USERR1
 40
0.0
  9
$USERR2
 40
0.0
  9
$USERR3
 40
0.0
  9
$USERR4
 40
0.0
  9
$USERR5
 40
0.0
  9
$WORLDVIEW
 70
     1
  9
$SHADEDGE
 70
     3
  9
$SHADEDIF
 70
    70
  9
$TILEMODE
 70
     1
  9
$MAXACTVP
 70
    64
  9
$PINSBASE
 10
0.0
 20
0.0
 30
0.0
  9
$PLIMCHECK
 70
     0
  9
$PEXTMIN
 10
1.000000000000000E+20
 20
1.000000000000000E+20
 30
1.000000000000000E+20
  9
$PEXTMAX
 10
-1.000000000000000E+20
 20
-1.000000000000000E+20
 30
-1.000000000000000E+20
  9
$PLIMMIN
 10
0.0
 20
0.0
  9
$PLIMMAX
 10
12.0
 20
9.0
  9
$UNITMODE
 70
     0
  9
$VISRETAIN
 70
     1
  9
$PLINEGEN
 70
     0
  9
$PSLTSCALE
 70
     1
  9
$TREEDEPTH
 70
  3020
  9
$CMLSTYLE
  2
Standard
  9
$CMLJUST
 70
     0
  9
$CMLSCALE
 40
1.0
  9
$PROXYGRAPHICS
 70
     1
  9
$MEASUREMENT
 70
     0
  9
$CELWEIGHT
370
    -1
  9
$ENDCAPS
280
     0
  9
$JOINSTYLE
280
     0
  9
$LWDISPLAY
290
     1
  9
$INSUNITS
 70
     4
  9
$HYPERLINKBASE
  1

  9
$STYLESHEET
  1

  9
$XEDIT
290
     1
  9
$CEPSNTYPE
380
     0
  9
$PSTYLEMODE
290
     1
  9
$FINGERPRINTGUID
  2
{275DB460-CF53-854D-9DC2-B2B29A702428}
  9
$VERSIONGUID
  2
{B7B2EF8C-C16C-C348-9E09-5F092F2CB3CD}
  9
$EXTNAMES
290
     1
  9
$PSVPSCALE
 40
0.0
  9
$OLESTARTUP
290
     0
  9
$SORTENTS
280
   127
  9
$INDEXCTL
280
     0
  9
$HIDETEXT
280
     1
  9
$XCLIPFRAME
280
     2
  9
$HALOGAP
280
     0
  9
$OBSCOLOR
 70
   257
  9
$OBSLTYPE
280
     0
  9
$INTERSECTIONDISPLAY
280
     0
  9
$INTERSECTIONCOLOR
 70
   257
  9
$DIMASSOC
280
     2
  9
$PROJECTNAME
  1

  9
$CAMERADISPLAY
290
     0
  9
$LENSLENGTH
 40
50.0
  9
$CAMERAHEIGHT
 40
0.0
  9
$STEPSPERSEC
 40
2.0
  9
$STEPSIZE
 40
6.0
  9
$3DDWFPREC
 40
2.0
  9
$PSOLWIDTH
 40
0.25
  9
$PSOLHEIGHT
 40
4.0
  9
$LOFTANG1
 40
1.570796326794896
  9
$LOFTANG2
 40
1.570796326794896
  9
$LOFTMAG1
 40
0.0
  9
$LOFTMAG2
 40
0.0
  9
$LOFTPARAM
 70
     7
  9
$LOFTNORMALS
280
     1
  9
$LATITUDE
 40
37.795
  9
$LONGITUDE
 40
-122.394
  9
$NORTHDIRECTION
 40
0.0
  9
$TIMEZONE
 70
 -8000
  9
$LIGHTGLYPHDISPLAY
280
     1
  9
$TILEMODELIGHTSYNCH
280
     1
  9
$CMATERIAL
347
11
  9
$SOLIDHIST
280
     0
  9
$SHOWHIST
280
     1
  9
$DWFFRAME
280
     2
  9
$DGNFRAME
280
     0
  9
$REALWORLDSCALE
290
     1
  9
$INTERFERECOLOR
 62
     1
  9
$INTERFEREOBJVS
345
33
  9
$INTERFEREVPVS
346
30
  9
$CSHADOW
280
     0
  9
$SHADOWPLANELOCATION
 40
0.0
  0
ENDSEC
  0
SECTION
  2
CLASSES
  0
CLASS
  1
ACDBDICTIONARYWDFLT
  2
AcDbDictionaryWithDefault
  3
ObjectDBX Classes
 90
        0
 91
        1
280
     0
281
     0
  0
CLASS
  1
MATERIAL
  2
AcDbMaterial
  3
ObjectDBX Classes
 90
     1153
 91
        3
280
     0
281
     0
  0
CLASS
  1
VISUALSTYLE
  2
AcDbVisualStyle
  3
ObjectDBX Classes
 90
     4095
 91
       24
280
     0
281
     0
  0
CLASS
  1
SCALE
  2
AcDbScale
  3
ObjectDBX Classes
 90
     1153
 91
       17
280
     0
281
     0
  0
CLASS
  1
TABLESTYLE
  2
AcDbTableStyle
  3
ObjectDBX Classes
 90
     4095
 91
        1
280
     0
281
     0
  0
CLASS
  1
MLEADERSTYLE
  2
AcDbMLeaderStyle
  3
ACDB_MLEADERSTYLE_CLASS
 90
     4095
 91
        1
280
     0
281
     0
  0
CLASS
  1
ACDBSECTIONVIEWSTYLE
  2
AcDbSectionViewStyle
  3
ObjectDBX Classes
 90
     1025
 91
        1
280
     0
281
     0
  0
CLASS
  1
ACDBDETAILVIEWSTYLE
  2
AcDbDetailViewStyle
  3
ObjectDBX Classes
 90
     1025
 91
        1
280
     0
281
     0
  0
CLASS
  1
DICTIONARYVAR
  2
AcDbDictionaryVar
  3
ObjectDBX Classes
 90
        0
 91
        5
280
     0
281
     0
  0
CLASS
  1
CELLSTYLEMAP
  2
AcDbCellStyleMap
  3
ObjectDBX Classes
 90
     1152
 91
        1
280
     0
281
     0
  0
ENDSEC
  0
SECTION
  2
TABLES
  0
TABLE
  2
VPORT
  5
8
330
0
100
AcDbSymbolTable
 70
     1
  0
VPORT
  5
57
330
8
100
AcDbSymbolTableRecord
100
AcDbViewportTableRecord
  2
*Active
 70
     0
 10
0.0
 20
0.0
 11
1.0
 21
1.0
 12
0.0
 22
0.0
 13
0.0
 23
0.0
 14
1.0
 24
1.0
 15
0.0
 25
0.0
 16
0.0
 26
0.0
 36
1.0
 17
338.666666582
 27
190.499999952375
 37
0.0
 40
388.619999902845
 41
1.777777777777777
 42
50.0
 43
0.0
 44
0.0
 50
0.0
 51
0.0
 71
     0
 72
   100
 73
     1
 74
     1
 75
     0
 76
     0
 77
     0
 78
     0
281
     0
 65
     1
110
0.0
120
0.0
130
0.0
111
1.0
121
0.0
131
0.0
112
0.0
122
1.0
132
0.0
 79
     0
146
0.0
 60
     3
 61
     5
292
     1
282
     1
141
0.0
142
0.0
 63
   250
421
  3355443
  0
ENDTAB
  0
TABLE
  2
LTYPE
  5
5
330
0
100
AcDbSymbolTable
 70
     1
  0
LTYPE
  5
5B
330
5
100
AcDbSymbolTableRecord
100
AcDbLinetypeTableRecord
  2
ByBlock
 70
     0
  3

 72
    65
 73
     0
 40
0.0
  0
LTYPE
  5
5C
330
5
100
AcDbSymbolTableRecord
100
AcDbLinetypeTableRecord
  2
ByLayer
 70
     0
  3

 72
    65
 73
     0
 40
0.0
  0
LTYPE
  5
5D
330
5
100
AcDbSymbolTableRecord
100
AcDbLinetypeTableRecord
  2
Continuous
 70
     0
  3
Solid line
 72
    65
 73
     0
 40
0.0
  0
ENDTAB
  0
TABLE
  2
LAYER
  5
2
330
0
100
AcDbSymbolTable
 70
     6
  0
LAYER
  5
54
330
2
100
AcDbSymbolTableRecord
100
AcDbLayerTableRecord
  2
0
 70
     0
 62
     7
  6
Continuous
370
    -3
390
F
347
21
348
0
  0
LAYER
  5
78
330
2
100
AcDbSymbolTableRecord
100
AcDbLayerTableRecord
  2
レイヤー_1
 70
     0
 62
     7
  6
Continuous
370
     0
390
F
347
21
348
0
  0
LAYER
  5
7F
330
2
100
AcDbSymbolTableRecord
100
AcDbLayerTableRecord
  2
FLAME
 70
     0
 62
     7
  6
Continuous
370
     0
390
F
347
21
348
0
  0
LAYER
  5
87
330
2
100
AcDbSymbolTableRecord
100
AcDbLayerTableRecord
  2
Defpoints
 70
     0
 62
     7
  6
Continuous
290
     0
370
     0
390
F
347
21
348
0
  0
LAYER
  5
89
330
2
100
AcDbSymbolTableRecord
100
AcDbLayerTableRecord
  2
text
 70
     0
 62
     7
  6
Continuous
370
     0
390
F
347
21
348
0
  0
LAYER
  5
8D
330
2
100
AcDbSymbolTableRecord
100
AcDbLayerTableRecord
  2
shade
 70
     0
 62
     7
  6
Continuous
370
     0
390
F
347
21
348
0
  0
ENDTAB
  0
TABLE
  2
STYLE
  5
3
330
0
100
AcDbSymbolTable
 70
     2
  0
STYLE
  5
55
330
3
100
AcDbSymbolTableRecord
100
AcDbTextStyleTableRecord
  2
Standard
 70
     0
 40
0.0
 41
1.0
 50
0.0
 71
     0
 42
0.2
  3
txt
  4

  0
STYLE
  5
5A
330
3
100
AcDbSymbolTableRecord
100
AcDbTextStyleTableRecord
  2
Annotative
 70
     0
 40
0.0
 41
1.0
 50
0.0
 71
     0
 42
0.2
  3
txt
  4

1001
AcadAnnotative
1000
AnnotativeData
1002
{
1070
     1
1070
     1
1002
}
  0
ENDTAB
  0
TABLE
  2
VIEW
  5
6
330
0
100
AcDbSymbolTable
 70
     0
  0
ENDTAB
  0
TABLE
  2
UCS
  5
7
330
0
100
AcDbSymbolTable
 70
     0
  0
ENDTAB
  0
TABLE
  2
APPID
  5
9
330
0
100
AcDbSymbolTable
 70
     2
  0
APPID
  5
56
330
9
100
AcDbSymbolTableRecord
100
AcDbRegAppTableRecord
  2
ACAD
 70
     0
  0
APPID
  5
5E
330
9
100
AcDbSymbolTableRecord
100
AcDbRegAppTableRecord
  2
AcadAnnotative
 70
     0
  0
ENDTAB
  0
TABLE
  2
DIMSTYLE
  5
A
330
0
100
AcDbSymbolTable
 70
     2
100
AcDbDimStyleTable
 71
     0
  0
DIMSTYLE
105
58
330
A
100
AcDbSymbolTableRecord
100
AcDbDimStyleTableRecord
  2
Standard
 70
     0
340
55
  0
DIMSTYLE
105
59
330
A
100
AcDbSymbolTableRecord
100
AcDbDimStyleTableRecord
  2
Annotative
 70
     0
340
55
1001
AcadAnnotative
1000
AnnotativeData
1002
{
1070
     1
1070
     1
1002
}
  0
ENDTAB
  0
TABLE
  2
BLOCK_RECORD
  5
1
330
0
100
AcDbSymbolTable
 70
     1
  0
BLOCK_RECORD
  5
70
330
1
100
AcDbSymbolTableRecord
100
AcDbBlockTableRecord
  2
*Model_Space
340
73
 70
     0
280
     1
281
     0
  0
BLOCK_RECORD
  5
6C
330
1
100
AcDbSymbolTableRecord
100
AcDbBlockTableRecord
  2
*Paper_Space
340
6F
 70
     0
280
     1
281
     0
  0
BLOCK_RECORD
  5
74
330
1
100
AcDbSymbolTableRecord
100
AcDbBlockTableRecord
  2
*Paper_Space0
340
77
 70
     0
280
     1
281
     0
  0
ENDTAB
  0
ENDSEC
  0
SECTION
  2
BLOCKS
  0
BLOCK
  5
71
330
70
100
AcDbEntity
  8
0
100
AcDbBlockBegin
  2
*Model_Space
 70
     0
 10
0.0
 20
0.0
 30
0.0
  3
*Model_Space
  1

  0
ENDBLK
  5
72
330
70
100
AcDbEntity
  8
0
100
AcDbBlockEnd
  0
BLOCK
  5
6D
330
6C
100
AcDbEntity
 67
     1
  8
0
100
AcDbBlockBegin
  2
*Paper_Space
 70
     0
 10
0.0
 20
0.0
 30
0.0
  3
*Paper_Space
  1

  0
ENDBLK
  5
6E
330
6C
100
AcDbEntity
 67
     1
  8
0
100
AcDbBlockEnd
  0
BLOCK
  5
75
330
74
100
AcDbEntity
 67
     1
  8
0
100
AcDbBlockBegin
  2
*Paper_Space0
 70
     0
 10
0.0
 20
0.0
 30
0.0
  3
*Paper_Space0
  1

  0
ENDBLK
  5
76
330
74
100
AcDbEntity
 67
     1
  8
0
100
AcDbBlockEnd
  0
ENDSEC
  0
SECTION
  2
ENTITIES
  0
SPLINE
  5
79
330
70
100
AcDbEntity
  8
レイヤー_1
 62
    18
420
        0
370
     0
100
AcDbSpline
210
0.0
220
0.0
230
1.0
 70
     9
 71
     3
 72
    11
 73
     7
 74
     0
 42
0.0000000001
 43
0.0000000001
 40
0.0
 40
0.0
 40
0.0
 40
0.0
 40
1.0
 40
1.0
 40
1.0
 40
2.0
 40
2.0
 40
2.0
 40
2.0
 10
171.21472419099
 20
317.3990337989791
 30
0.0
 10
171.220793716236
 20
317.3975815812824
 30
0.0
 10
171.2272914595209
 20
317.3983014840721
 30
0.0
 10
171.2334106332354
 20
317.3990337989791
 30
0.0
 10
171.2334106332354
 20
317.3990337989791
 30
0.0
 10
171.21472419099
 20
317.3990337989791
 30
0.0
 10
171.21472419099
 20
317.3990337989791
 30
0.0
  0
SPLINE
  5
7A
330
70
100
AcDbEntity
  8
レイヤー_1
100
AcDbSpline
210
0.0
220
0.0
230
1.0
 70
     9
 71
     3
 72
    11
 73
     7
 74
     0
 42
0.0000000001
 43
0.0000000001
 40
0.0
 40
0.0
 40
0.0
 40
0.0
 40
1.0
 40
1.0
 40
1.0
 40
2.0
 40
2.0
 40
2.0
 40
2.0
 10
171.21472419099
 20
317.3990337989788
 30
0.0
 10
171.220793716236
 20
317.3975815812828
 30
0.0
 10
171.2272914595213
 20
317.3983014840727
 30
0.0
 10
171.2334106332347
 20
317.3990337989788
 30
0.0
 10
171.2334106332347
 20
317.3990337989788
 30
0.0
 10
171.21472419099
 20
317.3990337989788
 30
0.0
 10
171.21472419099
 20
317.3990337989788
 30
0.0
  0
HATCH
  5
7B
330
70
100
AcDbEntity
  8
レイヤー_1
 62
    18
420
        0
440
 33554687
100
AcDbHatch
 10
0.0
 20
0.0
 30
0.0
210
0.0
220
0.0
230
1.0
  2
SOLID
 70
     1
 71
     1
 91
        1
 92
        1
 93
        1
 72
     4
 94
        3
 73
     0
 74
     0
 95
       11
 96
        7
 40
0.0
 40
0.0
 40
0.0
 40
0.0
 40
1.0
 40
1.0
 40
1.0
 40
2.0
 40
2.0
 40
2.0
 40
2.0
 10
171.21472419099
 20
317.3990337989788
 10
171.220793716236
 20
317.3975815812828
 10
171.2272914595213
 20
317.3983014840727
 10
171.2334106332347
 20
317.3990337989788
 10
171.2334106332347
 20
317.3990337989788
 10
171.21472419099
 20
317.3990337989788
 10
171.21472419099
 20
317.3990337989788
 97
        0
 97
        1
330
7A
 75
     0
 76
     1
 98
        1
 10
0.0
 20
0.0
450
        0
451
        0
460
0.0
461
0.0
452
        0
462
0.0
453
        0
470

  0
SPLINE
  5
7C
330
70
100
AcDbEntity
  8
レイヤー_1
 62
    18
420
        0
370
     0
100
AcDbSpline
210
0.0
220
0.0
230
1.0
 70
     9
 71
     3
 72
    11
 73
     7
 74
     0
 42
0.0000000001
 43
0.0000000001
 40
0.0
 40
0.0
 40
0.0
 40
0.0
 40
1.0
 40
1.0
 40
1.0
 40
2.0
 40
2.0
 40
2.0
 40
2.0
 10
97.49540573928234
 20
198.6332154734823
 30
0.0
 10
97.50147526452806
 20
198.6317632557854
 30
0.0
 10
97.50797300781302
 20
198.632483158575
 30
0.0
 10
97.51408597546863
 20
198.6332154734823
 30
0.0
 10
97.51408597546863
 20
198.6332154734823
 30
0.0
 10
97.49540573928234
 20
198.6332154734823
 30
0.0
 10
97.49540573928234
 20
198.6332154734823
 30
0.0
  0
SPLINE
  5
7D
330
70
100
AcDbEntity
  8
レイヤー_1
100
AcDbSpline
210
0.0
220
0.0
230
1.0
 70
     9
 71
     3
 72
    11
 73
     7
 74
     0
 42
0.0000000001
 43
0.0000000001
 40
0.0
 40
0.0
 40
0.0
 40
0.0
 40
1.0
 40
1.0
 40
1.0
 40
2.0
 40
2.0
 40
2.0
 40
2.0
 10
97.49540573928234
 20
198.633215473483
 30
0.0
 10
97.50147526452836
 20
198.6317632557854
 30
0.0
 10
97.5079730078127
 20
198.6324831585754
 30
0.0
 10
97.51408597546831
 20
198.633215473483
 30
0.0
 10
97.51408597546831
 20
198.633215473483
 30
0.0
 10
97.49540573928234
 20
198.633215473483
 30
0.0
 10
97.49540573928234
 20
198.633215473483
 30
0.0
  0
HATCH
  5
7E
330
70
100
AcDbEntity
  8
レイヤー_1
 62
    18
420
        0
440
 33554687
100
AcDbHatch
 10
0.0
 20
0.0
 30
0.0
210
0.0
220
0.0
230
1.0
  2
SOLID
 70
     1
 71
     1
 91
        1
 92
        1
 93
        1
 72
     4
 94
        3
 73
     0
 74
     0
 95
       11
 96
        7
 40
0.0
 40
0.0
 40
0.0
 40
0.0
 40
1.0
 40
1.0
 40
1.0
 40
2.0
 40
2.0
 40
2.0
 40
2.0
 10
97.49540573928234
 20
198.633215473483
 10
97.50147526452836
 20
198.6317632557854
 10
97.5079730078127
 20
198.6324831585754
 10
97.51408597546831
 20
198.633215473483
 10
97.51408597546831
 20
198.633215473483
 10
97.49540573928234
 20
198.633215473483
 10
97.49540573928234
 20
198.633215473483
 97
        0
 97
        1
330
7D
 75
     0
 76
     1
 98
        1
 10
0.0
 20
0.0
450
        0
451
        0
460
0.0
461
0.0
452
        0
462
0.0
453
        0
470

  0
LINE
  5
80
330
70
100
AcDbEntity
  8
FLAME
 62
     2
420
 16776960
370
    25
100
AcDbLine
 10
508.9070781474378
 20
266.8611060321842
 30
0.0
 11
508.9070781474378
 21
124.9994039399707
 31
0.0
  0
LINE
  5
81
330
70
100
AcDbEntity
  8
FLAME
 62
     2
420
 16776960
370
    25
100
AcDbLine
 10
387.3113334969852
 20
124.9994039399707
 30
0.0
 11
387.3113334969852
 21
266.8611060321842
 31
0.0
  0
LINE
  5
82
330
70
100
AcDbEntity
  8
FLAME
 62
     2
420
 16776960
370
    25
100
AcDbLine
 10
508.9070781474378
 20
124.9994039399707
 30
0.0
 11
387.3113334969852
 21
124.9994039399707
 31
0.0
  0
LINE
  5
83
330
70
100
AcDbEntity
  8
FLAME
 62
     2
420
 16776960
370
    25
100
AcDbLine
 10
508.9070781474378
 20
131.7547230872901
 30
0.0
 11
387.3113334969852
 21
131.7547230872901
 31
0.0
  0
LINE
  5
84
330
70
100
AcDbEntity
  8
FLAME
 62
     2
420
 16776960
370
    25
100
AcDbLine
 10
508.9070781474378
 20
138.5100422344914
 30
0.0
 11
387.3113334969852
 21
138.5100422344914
 31
0.0
  0
LINE
  5
85
330
70
100
AcDbEntity
  8
FLAME
 62
     2
420
 16776960
370
    25
100
AcDbLine
 10
508.9070781474378
 20
145.2653613817319
 30
0.0
 11
387.3113334969852
 21
145.2653613817319
 31
0.0
  0
LINE
  5
86
330
70
100
AcDbEntity
  8
FLAME
 62
     2
420
 16776960
370
    25
100
AcDbLine
 10
508.9070781474378
 20
266.8611060321842
 30
0.0
 11
387.3113334969852
 21
266.8611060321842
 31
0.0
  0
LWPOLYLINE
  5
88
330
70
100
AcDbEntity
  8
Defpoints
 62
    18
420
        0
370
     0
100
AcDbPolyline
 90
        4
 70
     1
 43
0.0
 10
316.3804824509177
 20
380.9999999047501
 10
579.8379291935443
 20
380.9999999047501
 10
579.8379291935443
 20
0.0
 10
316.3804824509177
 20
0.0
  0
MTEXT
  5
8A
330
70
100
AcDbEntity
  8
text
100
AcDbMText
 10
391.7435301755016
 20
133.3003905916749
 30
0.0
 40
0.2
 41
0.0
 46
0.0
 71
     7
 72
     1
  1
\C4;\c16776960;\FMS PMincho|b0|i0|c128;\H3.377660;\W1.000000;KF331BW
 73
     1
 44
1.0
  0
MTEXT
  5
8B
330
70
100
AcDbEntity
  8
text
100
AcDbMText
 10
391.7245821503328
 20
140.2692266325488
 30
0.0
 40
0.2
 41
0.0
 46
0.0
 71
     7
 72
     1
  1
\C4;\c16776960;\FMS PMincho|b0|i0|c128;\H3.377660;\W1.000000;フロアスタンド スワール
 73
     1
 44
1.0
  0
MTEXT
  5
8C
330
70
100
AcDbEntity
  8
text
100
AcDbMText
 10
391.7682487356083
 20
127.4255553880655
 30
0.0
 40
0.2
 41
0.0
 46
0.0
 71
     7
 72
     1
  1
\C4;\c16776960;\FMS PMincho|b0|i0|c128;\H3.377660;\W0.891461;E26 LED電球(100W相当 電球色 全方向/広配光タイプ）
 73
     1
 44
1.0
  0
LWPOLYLINE
  5
8E
330
70
100
AcDbEntity
  8
shade
 62
     6
420
 16711935
370
    25
100
AcDbPolyline
 90
        4
 70
     1
 43
0.0
 10
440.4686865677979
 20
167.4682322162865
 10
454.5737929472544
 20
167.4682322162865
 10
454.5737929472544
 20
167.85733859918
 10
440.4686865677979
 20
167.85733859918
  0
LWPOLYLINE
  5
8F
330
70
100
AcDbEntity
  8
shade
 62
     6
420
 16711935
370
    25
100
AcDbPolyline
 90
        4
 70
     0
 43
0.0
 10
447.1321333746712
 20
168.5869130670575
 10
447.1321333746712
 20
167.85733859918
 10
447.9103461404204
 20
167.85733859918
 10
447.9103461404204
 20
218.5608946465213
  0
SPLINE
  5
90
330
70
100
AcDbEntity
  8
shade
 62
     6
420
 16711935
370
    25
100
AcDbSpline
210
0.0
220
0.0
230
1.0
 70
     8
 71
     3
 72
     8
 73
     4
 74
     0
 42
0.0000000001
 43
0.0000000001
 40
0.0
 40
0.0
 40
0.0
 40
0.0
 40
1.0
 40
1.0
 40
1.0
 40
1.0
 10
447.1321333746712
 20
168.5869130670575
 30
0.0
 10
447.2459471214659
 20
168.7290663912538
 30
0.0
 10
447.2459471214659
 20
168.9311427214978
 30
0.0
 10
447.1321333746712
 20
169.0732960456947
 30
0.0
  0
LINE
  5
91
330
70
100
AcDbEntity
  8
shade
 62
     6
420
 16711935
370
    25
100
AcDbLine
 10
447.1321333746712
 20
218.5360909813792
 30
0.0
 11
447.1321333746712
 21
169.0732960456947
 31
0.0
  0
SPLINE
  5
92
330
70
100
AcDbEntity
  8
shade
 62
     6
420
 16711935
370
    25
100
AcDbSpline
210
0.0
220
0.0
230
1.0
 70
     8
 71
     3
 72
    11
 73
     7
 74
     0
 42
0.0000000001
 43
0.0000000001
 40
0.0
 40
0.0
 40
0.0
 40
0.0
 40
1.0
 40
1.0
 40
1.0
 40
2.0
 40
2.0
 40
2.0
 40
2.0
 10
445.5944829815833
 20
230.7876989647223
 30
0.0
 10
446.0314867259648
 20
230.6398768732633
 30
0.0
 10
446.4744213776833
 20
230.5037465002806
 30
0.0
 10
446.9216610044522
 20
230.3787999485296
 30
0.0
 10
447.0883463395129
 20
230.33223261282
 30
0.0
 10
447.2556296520806
 20
230.2872187527627
 30
0.0
 10
447.4232812371117
 20
230.2431616214879
 30
0.0
  0
SPLINE
  5
93
330
70
100
AcDbEntity
  8
shade
 62
     6
420
 16711935
370
    25
100
AcDbSpline
210
0.0
220
0.0
230
1.0
 70
     8
 71
     3
 72
    11
 73
     7
 74
     0
 42
0.0000000001
 43
0.0000000001
 40
0.0
 40
0.0
 40
0.0
 40
0.0
 40
1.0
 40
1.0
 40
1.0
 40
2.0
 40
2.0
 40
2.0
 40
2.0
 10
445.5473509666852
 20
230.7758400304295
 30
0.0
 10
445.9996289040745
 20
230.6218289999492
 30
0.0
 10
446.4583348385008
 20
230.4803854873186
 30
0.0
 10
446.9216610044522
 20
230.3509447953394
 30
0.0
 10
447.0883463395129
 20
230.3043774596694
 30
0.0
 10
447.2556296520806
 20
230.2593635995725
 30
0.0
 10
447.4232812371117
 20
230.2153064683369
 30
0.0
  0
SPLINE
  5
94
330
70
100
AcDbEntity
  8
shade
 62
     6
420
 16711935
370
    25
100
AcDbSpline
210
0.0
220
0.0
230
1.0
 70
     8
 71
     3
 72
    14
 73
    10
 74
     0
 42
0.0000000001
 43
0.0000000001
 40
0.0
 40
0.0
 40
0.0
 40
0.0
 40
1.0
 40
1.0
 40
1.0
 40
2.0
 40
2.0
 40
2.0
 40
3.0
 40
3.0
 40
3.0
 40
3.0
 10
447.5918940030847
 20
231.871655357792
 30
0.0
 10
447.8977705643906
 20
231.9397952229565
 30
0.0
 10
448.2029620711253
 20
232.0098127488551
 30
0.0
 10
448.5049770494793
 20
232.0885772519279
 30
0.0
 10
448.7703074569068
 20
232.1577745407073
 30
0.0
 10
449.0331861502117
 20
232.2337229378437
 30
0.0
 10
449.2995430068762
 20
232.3000578575299
 30
0.0
 10
449.5213497884297
 20
232.3552977909734
 30
0.0
 10
449.7455685397234
 20
232.4038711552938
 30
0.0
 10
449.9697872910562
 20
232.4524445195751
 30
0.0
  0
SPLINE
  5
95
330
70
100
AcDbEntity
  8
shade
 62
     6
420
 16711935
370
    25
100
AcDbSpline
210
0.0
220
0.0
230
1.0
 70
     8
 71
     3
 72
    20
 73
    16
 74
     0
 42
0.0000000001
 43
0.0000000001
 40
0.0
 40
0.0
 40
0.0
 40
0.0
 40
1.0
 40
1.0
 40
1.0
 40
2.0
 40
2.0
 40
2.0
 40
3.0
 40
3.0
 40
3.0
 40
4.0
 40
4.0
 40
4.0
 40
5.0
 40
5.0
 40
5.0
 40
5.0
 10
449.9697872910562
 20
232.4524445195751
 30
0.0
 10
450.0128587904934
 20
232.4625403797357
 30
0.0
 10
450.0559302898921
 20
232.4726362399355
 30
0.0
 10
450.0969738294856
 20
232.4866440815132
 30
0.0
 10
450.1556193453073
 20
232.5066593410693
 30
0.0
 10
450.2101244892375
 20
232.5346614739081
 30
0.0
 10
450.2666010743962
 20
232.5593748754651
 30
0.0
 10
450.3835786283649
 20
232.6105626951997
 30
0.0
 10
450.5090138779909
 20
232.6476415028363
 30
0.0
 10
450.6369323114646
 20
232.6748884893354
 30
0.0
 10
450.7585458075914
 20
232.7007925064461
 30
0.0
 10
450.8824037341195
 20
232.7178100131062
 30
0.0
 10
451.0059686840398
 20
232.7358540077321
 30
0.0
 10
451.0939484195604
 20
232.7487015496722
 30
0.0
 10
451.1817796272755
 20
232.7620694811454
 30
0.0
 10
451.2696108349523
 20
232.7754374125795
 30
0.0
  0
SPLINE
  5
96
330
70
100
AcDbEntity
  8
shade
 62
     6
420
 16711935
370
    25
100
AcDbSpline
210
0.0
220
0.0
230
1.0
 70
     8
 71
     3
 72
    20
 73
    16
 74
     0
 42
0.0000000001
 43
0.0000000001
 40
0.0
 40
0.0
 40
0.0
 40
0.0
 40
1.0
 40
1.0
 40
1.0
 40
2.0
 40
2.0
 40
2.0
 40
3.0
 40
3.0
 40
3.0
 40
4.0
 40
4.0
 40
4.0
 40
5.0
 40
5.0
 40
5.0
 40
5.0
 10
442.7625367483622
 20
230.5897634788408
 30
0.0
 10
442.8847214117271
 20
230.626479247373
 30
0.0
 10
443.0069060751319
 20
230.6631950159052
 30
0.0
 10
443.1287186548351
 20
230.7007649473383
 30
0.0
 10
443.4382426216341
 20
230.7962295884657
 30
0.0
 10
443.7453641904992
 20
230.8972092225858
 30
0.0
 10
444.0564229668721
 20
230.9889510271089
 30
0.0
 10
444.4602212908498
 20
231.1080448759335
 30
0.0
 10
444.8706544847188
 20
231.2115713975997
 30
0.0
 10
445.2803635390763
 20
231.3166730414358
 30
0.0
 10
445.743797718158
 20
231.4355566577641
 30
0.0
 10
446.206305393379
 20
231.5564555720584
 30
0.0
 10
446.6730610921958
 20
231.6656160406848
 30
0.0
 10
446.9223771950643
 20
231.723923765075
 30
0.0
 10
447.1729053138609
 20
231.7788823595457
 30
0.0
 10
447.4232812371117
 20
231.8342531319899
 30
0.0
  0
SPLINE
  5
97
330
70
100
AcDbEntity
  8
shade
 62
     6
420
 16711935
370
    25
100
AcDbSpline
210
0.0
220
0.0
230
1.0
 70
     8
 71
     3
 72
     8
 73
     4
 74
     0
 42
0.0000000001
 43
0.0000000001
 40
0.0
 40
0.0
 40
0.0
 40
0.0
 40
1.0
 40
1.0
 40
1.0
 40
1.0
 10
443.6689020927415
 20
231.4904411317689
 30
0.0
 10
443.9681616893984
 20
231.3695687476583
 30
0.0
 10
444.2675429463815
 20
231.2489142611317
 30
0.0
 10
444.5691863616515
 20
231.1323113732298
 30
0.0
  0
SPLINE
  5
98
330
70
100
AcDbEntity
  8
shade
 62
     6
420
 16711935
370
    25
100
AcDbSpline
210
0.0
220
0.0
230
1.0
 70
     8
 71
     3
 72
     8
 73
     4
 74
     0
 42
0.0000000001
 43
0.0000000001
 40
0.0
 40
0.0
 40
0.0
 40
0.0
 40
1.0
 40
1.0
 40
1.0
 40
1.0
 10
443.6916689710204
 20
231.5091012256233
 30
0.0
 10
443.9974669124971
 20
231.38560489897
 30
0.0
 10
444.3034485575818
 20
231.2624375914274
 30
0.0
 10
444.6118976184748
 20
231.1436895053793
 30
0.0
  0
SPLINE
  5
99
330
70
100
AcDbEntity
  8
shade
 62
     6
420
 16711935
370
    25
100
AcDbSpline
210
0.0
220
0.0
230
1.0
 70
     8
 71
     3
 72
    14
 73
    10
 74
     0
 42
0.0000000001
 43
0.0000000001
 40
0.0
 40
0.0
 40
0.0
 40
0.0
 40
1.0
 40
1.0
 40
1.0
 40
2.0
 40
2.0
 40
2.0
 40
3.0
 40
3.0
 40
3.0
 40
3.0
 10
447.5918940030847
 20
231.218160314319
 30
0.0
 10
447.7855644732863
 20
231.1726964675014
 30
0.0
 10
447.9792265655538
 20
231.1269417156737
 30
0.0
 10
448.1728039251016
 20
231.0803870548305
 30
0.0
 10
448.5164655332178
 20
230.9977376704638
 30
0.0
 10
448.8598600843194
 20
230.9125671660162
 30
0.0
 10
449.1896399669532
 20
230.7989937606509
 30
0.0
 10
449.2321101405429
 20
230.784367391686
 30
0.0
 10
449.2743545126557
 20
230.7692699559691
 30
0.0
 10
449.3164883970605
 20
230.7539420210209
 30
0.0
  0
SPLINE
  5
9A
330
70
100
AcDbEntity
  8
shade
 62
     6
420
 16711935
370
    25
100
AcDbSpline
210
0.0
220
0.0
230
1.0
 70
     8
 71
     3
 72
    11
 73
     7
 74
     0
 42
0.0000000001
 43
0.0000000001
 40
0.0
 40
0.0
 40
0.0
 40
0.0
 40
1.0
 40
1.0
 40
1.0
 40
2.0
 40
2.0
 40
2.0
 40
2.0
 10
444.3926035046323
 20
232.0148219896566
 30
0.0
 10
444.7127746702723
 20
231.9280810096648
 30
0.0
 10
445.0330049129578
 20
231.8414902689439
 30
0.0
 10
445.35456799188
 20
231.7582890817444
 30
0.0
 10
445.630333048539
 20
231.6869376686442
 30
0.0
 10
445.907078323768
 20
231.618079062129
 30
0.0
 10
446.1843381902541
 20
231.5507949089238
 30
0.0
  0
SPLINE
  5
9B
330
70
100
AcDbEntity
  8
shade
 62
     6
420
 16711935
370
    25
100
AcDbSpline
210
0.0
220
0.0
230
1.0
 70
     8
 71
     3
 72
    11
 73
     7
 74
     0
 42
0.0000000001
 43
0.0000000001
 40
0.0
 40
0.0
 40
0.0
 40
0.0
 40
1.0
 40
1.0
 40
1.0
 40
2.0
 40
2.0
 40
2.0
 40
2.0
 10
448.7949102822738
 20
231.5787000529695
 30
0.0
 10
449.0633891188286
 20
231.5078453558615
 30
0.0
 10
449.3310003210349
 20
231.4345120862949
 30
0.0
 10
449.6000355379491
 20
231.3651067938069
 30
0.0
 10
449.9080000607991
 20
231.2856585787088
 30
0.0
 10
450.2178305233678
 20
231.2113573386806
 30
0.0
 10
450.5278884742773
 20
231.1376835983981
 30
0.0
  0
SPLINE
  5
9C
330
70
100
AcDbEntity
  8
shade
 62
     6
420
 16711935
370
    25
100
AcDbSpline
210
0.0
220
0.0
230
1.0
 70
     8
 71
     3
 72
    11
 73
     7
 74
     0
 42
0.0000000001
 43
0.0000000001
 40
0.0
 40
0.0
 40
0.0
 40
0.0
 40
1.0
 40
1.0
 40
1.0
 40
2.0
 40
2.0
 40
2.0
 40
2.0
 10
448.7402510428289
 20
231.5652305305349
 30
0.0
 10
449.0270823789868
 20
231.489959185352
 30
0.0
 10
449.3127470582388
 20
231.4113658817864
 30
0.0
 10
449.6000355379491
 20
231.3372516406559
 30
0.0
 10
449.8907866533557
 20
231.2622441139757
 30
0.0
 10
450.1832009478215
 20
231.1918242710177
 30
0.0
 10
450.4758996391575
 20
231.12218890331
 30
0.0
  0
SPLINE
  5
9D
330
70
100
AcDbEntity
  8
shade
 62
     6
420
 16711935
370
    25
100
AcDbSpline
210
0.0
220
0.0
230
1.0
 70
     8
 71
     3
 72
    14
 73
    10
 74
     0
 42
0.0000000001
 43
0.0000000001
 40
0.0
 40
0.0
 40
0.0
 40
0.0
 40
1.0
 40
1.0
 40
1.0
 40
2.0
 40
2.0
 40
2.0
 40
3.0
 40
3.0
 40
3.0
 40
3.0
 10
445.524315319454
 20
232.296921965895
 30
0.0
 10
445.8018328626335
 20
232.2379454458068
 30
0.0
 10
446.0793433462535
 20
232.1789475962871
 30
0.0
 10
446.3558781597152
 20
232.1170019208077
 30
0.0
 10
446.6931244127392
 20
232.0414564707829
 30
0.0
 10
447.0289195646656
 20
231.9615267589414
 30
0.0
 10
447.3663534086179
 20
231.8863715562462
 30
0.0
 10
447.3853245341752
 20
231.8821461982718
 30
0.0
 10
447.4043008393742
 20
231.8779359319814
 30
0.0
 10
447.4232812371117
 20
231.8737376620053
 30
0.0
  0
SPLINE
  5
9E
330
70
100
AcDbEntity
  8
shade
 62
     6
420
 16711935
370
    25
100
AcDbSpline
210
0.0
220
0.0
230
1.0
 70
     8
 71
     3
 72
    14
 73
    10
 74
     0
 42
0.0000000001
 43
0.0000000001
 40
0.0
 40
0.0
 40
0.0
 40
0.0
 40
1.0
 40
1.0
 40
1.0
 40
2.0
 40
2.0
 40
2.0
 40
3.0
 40
3.0
 40
3.0
 40
3.0
 10
445.5978214236362
 20
232.3091533115695
 30
0.0
 10
445.8508286343314
 20
232.2553596570055
 30
0.0
 10
446.1037588920106
 20
232.2013335014571
 30
0.0
 10
446.3558781596368
 20
232.1448570739979
 30
0.0
 10
446.6931244127392
 20
232.0693116239339
 30
0.0
 10
447.0289195646656
 20
231.9893819121315
 30
0.0
 10
447.3663534086179
 20
231.9142267094364
 30
0.0
 10
447.3853245341752
 20
231.910001351462
 30
0.0
 10
447.4043008394134
 20
231.9057910851716
 30
0.0
 10
447.4232812371117
 20
231.9015928151563
 30
0.0
  0
SPLINE
  5
9F
330
70
100
AcDbEntity
  8
shade
 62
     6
420
 16711935
370
    25
100
AcDbSpline
210
0.0
220
0.0
230
1.0
 70
     8
 71
     3
 72
    17
 73
    13
 74
     0
 42
0.0000000001
 43
0.0000000001
 40
0.0
 40
0.0
 40
0.0
 40
0.0
 40
1.0
 40
1.0
 40
1.0
 40
2.0
 40
2.0
 40
2.0
 40
3.0
 40
3.0
 40
3.0
 40
4.0
 40
4.0
 40
4.0
 40
4.0
 10
447.5918940030847
 20
232.5629983103034
 30
0.0
 10
447.9160362175341
 20
232.5887771725049
 30
0.0
 10
448.2417583000917
 20
232.604969676488
 30
0.0
 10
448.5721500851599
 20
232.6085495575498
 30
0.0
 10
448.8855120638215
 20
232.6119449162535
 30
0.0
 10
449.2030747585102
 20
232.6039943597514
 30
0.0
 10
449.4985259007008
 20
232.6716151068286
 30
0.0
 10
449.695789112154
 20
232.7167633016468
 30
0.0
 10
449.8831954295656
 20
232.79559969322
 30
0.0
 10
450.0693304652267
 20
232.8728242402338
 30
0.0
 10
450.2674034498673
 20
232.9550016575985
 30
0.0
 10
450.4640368536828
 20
233.0353538456423
 30
0.0
 10
450.6606702575376
 20
233.1157060338035
 30
0.0
  0
LINE
  5
A0
330
70
100
AcDbEntity
  8
shade
 62
     6
420
 16711935
370
    25
100
AcDbLine
 10
447.4232812371117
 20
232.4094987113586
 30
0.0
 11
446.2518761373834
 21
232.4094987113586
 31
0.0
  0
LINE
  5
A1
330
70
100
AcDbEntity
  8
shade
 62
     6
420
 16711935
370
    25
100
AcDbLine
 10
449.011841547667
 20
232.6147582825951
 30
0.0
 11
449.0359921046328
 21
232.5487744773094
 31
0.0
  0
SPLINE
  5
A2
330
70
100
AcDbEntity
  8
shade
 62
     6
420
 16711935
370
    25
100
AcDbSpline
210
0.0
220
0.0
230
1.0
 70
     8
 71
     3
 72
    20
 73
    16
 74
     0
 42
0.0000000001
 43
0.0000000001
 40
0.0
 40
0.0
 40
0.0
 40
0.0
 40
1.0
 40
1.0
 40
1.0
 40
2.0
 40
2.0
 40
2.0
 40
3.0
 40
3.0
 40
3.0
 40
4.0
 40
4.0
 40
4.0
 40
5.0
 40
5.0
 40
5.0
 40
5.0
 10
442.4028647421169
 20
231.6419833502156
 30
0.0
 10
442.6978913355661
 20
231.6905289713721
 30
0.0
 10
442.9929179289761
 20
231.7390745924894
 30
0.0
 10
443.2836639732355
 20
231.801310526956
 30
0.0
 10
443.6669355438103
 20
231.883352105273
 30
0.0
 10
444.0427686193537
 20
231.9891839316671
 30
0.0
 10
444.4238188231443
 20
232.0787989437349
 30
0.0
 10
444.9523103382593
 20
232.203089058352
 30
0.0
 10
445.4908374490933
 20
232.29618473347
 30
0.0
 10
446.0322515578621
 20
232.3773092102602
 30
0.0
 10
446.4112468534209
 20
232.4340971560978
 30
0.0
 10
446.7916568184448
 20
232.4850190469646
 30
0.0
 10
447.1724064077709
 20
232.524462158564
 30
0.0
 10
447.2559971881155
 20
232.5331216044878
 30
0.0
 10
447.3396043379858
 20
232.5412277849236
 30
0.0
 10
447.4232812371117
 20
232.5487284183499
 30
0.0
  0
LINE
  5
A3
330
70
100
AcDbEntity
  8
shade
 62
     6
420
 16711935
370
    25
100
AcDbLine
 10
449.9697872910562
 20
232.5487744773094
 30
0.0
 11
449.9697872910562
 21
232.4524445195751
 31
0.0
  0
LINE
  5
A4
330
70
100
AcDbEntity
  8
shade
 62
     6
420
 16711935
370
    25
100
AcDbLine
 10
449.7723853218762
 20
232.4094987113586
 30
0.0
 11
447.5918940030847
 21
232.4094987113586
 31
0.0
  0
LINE
  5
A5
330
70
100
AcDbEntity
  8
shade
 62
     6
420
 16711935
370
    25
100
AcDbLine
 10
449.9697872910562
 20
232.5487744773094
 30
0.0
 11
447.5918940030847
 21
232.5487744773094
 31
0.0
  0
SPLINE
  5
A6
330
70
100
AcDbEntity
  8
shade
 62
     6
420
 16711935
370
    25
100
AcDbSpline
210
0.0
220
0.0
230
1.0
 70
     8
 71
     3
 72
     8
 73
     4
 74
     0
 42
0.0000000001
 43
0.0000000001
 40
0.0
 40
0.0
 40
0.0
 40
0.0
 40
1.0
 40
1.0
 40
1.0
 40
1.0
 10
451.2696108349523
 20
233.5558425381935
 30
0.0
 10
451.075746399564
 20
233.7061722416762
 30
0.0
 10
450.8723396150182
 20
233.8437750565673
 30
0.0
 10
450.6606702575376
 20
233.9677852260815
 30
0.0
  0
SPLINE
  5
A7
330
70
100
AcDbEntity
  8
shade
 62
     6
420
 16711935
370
    25
100
AcDbSpline
210
0.0
220
0.0
230
1.0
 70
     8
 71
     3
 72
     8
 73
     4
 74
     0
 42
0.0000000001
 43
0.0000000001
 40
0.0
 40
0.0
 40
0.0
 40
0.0
 40
1.0
 40
1.0
 40
1.0
 40
1.0
 10
451.3300471689724
 20
233.5921976180087
 30
0.0
 10
451.1328110619198
 20
233.7440999156806
 30
0.0
 10
450.9257946858852
 20
233.8828611221185
 30
0.0
 10
450.7103392689312
 20
234.0075822240865
 30
0.0
  0
LINE
  5
A8
330
70
100
AcDbEntity
  8
shade
 62
     6
420
 16711935
370
    25
100
AcDbLine
 10
451.2696108349523
 20
232.7754374125795
 30
0.0
 11
451.3300471689724
 21
232.809795270163
 31
0.0
  0
SPLINE
  5
A9
330
70
100
AcDbEntity
  8
shade
 62
     6
420
 16711935
370
    25
100
AcDbSpline
210
0.0
220
0.0
230
1.0
 70
     8
 71
     3
 72
     8
 73
     4
 74
     0
 42
0.0000000001
 43
0.0000000001
 40
0.0
 40
0.0
 40
0.0
 40
0.0
 40
1.0
 40
1.0
 40
1.0
 40
1.0
 10
452.3689945990303
 20
231.7674614823258
 30
0.0
 10
452.3757718059085
 20
231.7646899393412
 30
0.0
 10
452.3826593507207
 20
231.7621962693131
 30
0.0
 10
452.389640024001
 20
231.7599867028858
 30
0.0
  0
SPLINE
  5
AA
330
70
100
AcDbEntity
  8
shade
 62
     6
420
 16711935
370
    25
100
AcDbSpline
210
0.0
220
0.0
230
1.0
 70
     8
 71
     3
 72
     8
 73
     4
 74
     0
 42
0.0000000001
 43
0.0000000001
 40
0.0
 40
0.0
 40
0.0
 40
0.0
 40
1.0
 40
1.0
 40
1.0
 40
1.0
 10
452.389640024001
 20
231.7671711768015
 30
0.0
 10
452.3966194743338
 20
231.7649619975017
 30
0.0
 10
452.4037022855603
 20
231.7630937333729
 30
0.0
 10
452.4108633333735
 20
231.7615730116831
 30
0.0
  0
SPLINE
  5
AB
330
70
100
AcDbEntity
  8
shade
 62
     6
420
 16711935
370
    25
100
AcDbSpline
210
0.0
220
0.0
230
1.0
 70
     8
 71
     3
 72
     8
 73
     4
 74
     0
 42
0.0000000001
 43
0.0000000001
 40
0.0
 40
0.0
 40
0.0
 40
0.0
 40
1.0
 40
1.0
 40
1.0
 40
1.0
 10
452.4108633333735
 20
231.7653092161056
 30
0.0
 10
452.4166353121091
 20
231.7640834774069
 30
0.0
 10
452.4224578189541
 20
231.7631090852084
 30
0.0
 10
452.4283143842452
 20
231.7623887957017
 30
0.0
  0
SPLINE
  5
AC
330
70
100
AcDbEntity
  8
shade
 62
     6
420
 16711935
370
    25
100
AcDbSpline
210
0.0
220
0.0
230
1.0
 70
     8
 71
     3
 72
     8
 73
     4
 74
     0
 42
0.0000000001
 43
0.0000000001
 40
0.0
 40
0.0
 40
0.0
 40
0.0
 40
1.0
 40
1.0
 40
1.0
 40
1.0
 10
452.4283143842452
 20
231.7687565769136
 30
0.0
 10
452.4341695943166
 20
231.768036454092
 30
0.0
 10
452.4400588759016
 20
231.7676273686234
 30
0.0
 10
452.4459574166789
 20
231.7675310439818
 30
0.0
  0
SPLINE
  5
AD
330
70
100
AcDbEntity
  8
shade
 62
     6
420
 16711935
370
    25
100
AcDbSpline
210
0.0
220
0.0
230
1.0
 70
     8
 71
     3
 72
     8
 73
     4
 74
     0
 42
0.0000000001
 43
0.0000000001
 40
0.0
 40
0.0
 40
0.0
 40
0.0
 40
1.0
 40
1.0
 40
1.0
 40
1.0
 10
452.4459574166789
 20
231.7715499120299
 30
0.0
 10
452.456201592599
 20
231.7713826221311
 30
0.0
 10
452.4664342984721
 20
231.7723110016324
 30
0.0
 10
452.4764810972591
 20
231.7743192244221
 30
0.0
  0
SPLINE
  5
AE
330
70
100
AcDbEntity
  8
shade
 62
     6
420
 16711935
370
    25
100
AcDbSpline
210
0.0
220
0.0
230
1.0
 70
     8
 71
     3
 72
     8
 73
     4
 74
     0
 42
0.0000000001
 43
0.0000000001
 40
0.0
 40
0.0
 40
0.0
 40
0.0
 40
1.0
 40
1.0
 40
1.0
 40
1.0
 10
452.4764810972591
 20
231.779839322072
 30
0.0
 10
452.4865089247709
 20
231.7818437528121
 30
0.0
 10
452.4962129918788
 20
231.7852194354774
 30
0.0
 10
452.5053198895189
 20
231.7898712612707
 30
0.0
  0
SPLINE
  5
AF
330
70
100
AcDbEntity
  8
shade
 62
     6
420
 16711935
370
    25
100
AcDbSpline
210
0.0
220
0.0
230
1.0
 70
     8
 71
     3
 72
    11
 73
     7
 74
     0
 42
0.0000000001
 43
0.0000000001
 40
0.0
 40
0.0
 40
0.0
 40
0.0
 40
1.0
 40
1.0
 40
1.0
 40
2.0
 40
2.0
 40
2.0
 40
2.0
 10
451.4696145663558
 20
231.5085668399459
 30
0.0
 10
451.3538856677948
 20
231.5979855189
 30
0.0
 10
451.2378482668064
 20
231.6871185229858
 30
0.0
 10
451.1197130306844
 20
231.77430892125
 30
0.0
 10
450.9877168221767
 20
231.8717294907357
 30
0.0
 10
450.853101614434
 20
231.9667248537983
 30
0.0
 10
450.7181205620723
 20
232.0613814429751
 30
0.0
  0
SPLINE
  5
B0
330
70
100
AcDbEntity
  8
shade
 62
     6
420
 16711935
370
    25
100
AcDbSpline
210
0.0
220
0.0
230
1.0
 70
     8
 71
     3
 72
     8
 73
     4
 74
     0
 42
0.0000000001
 43
0.0000000001
 40
0.0
 40
0.0
 40
0.0
 40
0.0
 40
1.0
 40
1.0
 40
1.0
 40
1.0
 10
452.4989970042375
 20
232.3753500526501
 30
0.0
 10
452.3220346255807
 20
232.6252683802813
 30
0.0
 10
452.1251369468404
 20
232.8604555272495
 30
0.0
 10
451.9102320152075
 20
233.0786085109234
 30
0.0
  0
SPLINE
  5
B1
330
70
100
AcDbEntity
  8
shade
 62
     6
420
 16711935
370
    25
100
AcDbSpline
210
0.0
220
0.0
230
1.0
 70
     8
 71
     3
 72
     8
 73
     4
 74
     0
 42
0.0000000001
 43
0.0000000001
 40
0.0
 40
0.0
 40
0.0
 40
0.0
 40
1.0
 40
1.0
 40
1.0
 40
1.0
 10
452.4054233308429
 20
232.376143716973
 30
0.0
 10
452.2325040706997
 20
232.6174992654037
 30
0.0
 10
452.040913301942
 20
232.8449145557028
 30
0.0
 10
451.8324149902007
 20
233.0562957877906
 30
0.0
  0
SPLINE
  5
B2
330
70
100
AcDbEntity
  8
shade
 62
     6
420
 16711935
370
    25
100
AcDbSpline
210
0.0
220
0.0
230
1.0
 70
     8
 71
     3
 72
    17
 73
    13
 74
     0
 42
0.0000000001
 43
0.0000000001
 40
0.0
 40
0.0
 40
0.0
 40
0.0
 40
1.0
 40
1.0
 40
1.0
 40
2.0
 40
2.0
 40
2.0
 40
3.0
 40
3.0
 40
3.0
 40
4.0
 40
4.0
 40
4.0
 40
4.0
 10
447.5918940030847
 20
230.1984361337116
 30
0.0
 10
447.9520369249359
 20
230.3114232560227
 30
0.0
 10
448.3115564171747
 20
230.4246839917519
 30
0.0
 10
448.6689093684153
 20
230.5409531388538
 30
0.0
 10
449.2507525445349
 20
230.7302629223691
 30
0.0
 10
449.8268521223955
 20
230.9275481405499
 30
0.0
 10
450.4228413566028
 20
231.1063247240336
 30
0.0
 10
450.7562673703809
 20
231.2063412346698
 30
0.0
 10
451.095918528249
 20
231.3005648387841
 30
0.0
 10
451.385365008653
 20
231.4596819647419
 30
0.0
 10
451.5847237572359
 20
231.5692752514707
 30
0.0
 10
451.7602659897105
 20
231.7096532715559
 30
0.0
 10
451.9358082221454
 20
231.8500312916015
 30
0.0
  0
SPLINE
  5
B3
330
70
100
AcDbEntity
  8
shade
 62
     6
420
 16711935
370
    25
100
AcDbSpline
210
0.0
220
0.0
230
1.0
 70
     8
 71
     3
 72
    14
 73
    10
 74
     0
 42
0.0000000001
 43
0.0000000001
 40
0.0
 40
0.0
 40
0.0
 40
0.0
 40
1.0
 40
1.0
 40
1.0
 40
2.0
 40
2.0
 40
2.0
 40
3.0
 40
3.0
 40
3.0
 40
3.0
 10
441.4710230611119
 20
227.7257528373549
 30
0.0
 10
441.9116032359984
 20
227.9686849403185
 30
0.0
 10
442.3521834108848
 20
228.2116170432821
 30
0.0
 10
442.8069264333149
 20
228.4347673055413
 30
0.0
 10
443.6593206249379
 20
228.8530518707043
 30
0.0
 10
444.5614770032731
 20
229.2018315113618
 30
0.0
 10
445.4795337738798
 20
229.516923855278
 30
0.0
 10
446.1226623065177
 20
229.7376562579778
 30
0.0
 10
446.7735938878588
 20
229.9418567655473
 30
0.0
 10
447.4232812371117
 20
230.1455595325283
 30
0.0
  0
LINE
  5
B4
330
70
100
AcDbEntity
  8
shade
 62
     6
420
 16711935
370
    25
100
AcDbLine
 10
447.4232812371117
 20
232.6529162601875
 30
0.0
 11
447.4232812371117
 21
231.7959530596702
 31
0.0
  0
LWPOLYLINE
  5
B5
330
70
100
AcDbEntity
  8
shade
 62
     6
420
 16711935
370
    25
100
AcDbPolyline
 90
        4
 70
     0
 43
0.0
 10
447.5918940030847
 20
232.9914649448135
 10
447.5918940030847
 20
233.1333127975237
 10
447.4232812371117
 20
233.1333127975237
 10
447.4232812371117
 20
232.9675966928737
  0
LINE
  5
B6
330
70
100
AcDbEntity
  8
shade
 62
     6
420
 16711935
370
    25
100
AcDbLine
 10
447.5918940030847
 20
232.6529162601875
 30
0.0
 11
447.4232812371117
 21
232.6529162601875
 31
0.0
  0
LINE
  5
B7
330
70
100
AcDbEntity
  8
shade
 62
     6
420
 16711935
370
    25
100
AcDbLine
 10
447.4232812371117
 20
231.7959530596702
 30
0.0
 11
447.5918940030847
 21
231.7959530596702
 31
0.0
  0
LINE
  5
B8
330
70
100
AcDbEntity
  8
shade
 62
     6
420
 16711935
370
    25
100
AcDbLine
 10
447.4232812371117
 20
231.2420723176408
 30
0.0
 11
447.4232812371117
 21
229.825655216802
 31
0.0
  0
LINE
  5
B9
330
70
100
AcDbEntity
  8
shade
 62
     6
420
 16711935
370
    25
100
AcDbLine
 10
447.5918940030847
 20
231.7959530596702
 30
0.0
 11
447.5918940030847
 21
232.6529162601875
 31
0.0
  0
LINE
  5
BA
330
70
100
AcDbEntity
  8
shade
 62
     6
420
 16711935
370
    25
100
AcDbLine
 10
447.4232812371117
 20
226.9479431427511
 30
0.0
 11
447.4232812371117
 21
226.4159360038885
 31
0.0
  0
LINE
  5
BB
330
70
100
AcDbEntity
  8
shade
 62
     6
420
 16711935
370
    25
100
AcDbLine
 10
447.5918940030847
 20
229.825655216802
 30
0.0
 11
447.5918940030847
 21
231.2833980744829
 31
0.0
  0
LINE
  5
BC
330
70
100
AcDbEntity
  8
shade
 62
     6
420
 16711935
370
    25
100
AcDbLine
 10
447.5918940030847
 20
229.825655216802
 30
0.0
 11
447.4232812371117
 21
229.825655216802
 31
0.0
  0
LINE
  5
BD
330
70
100
AcDbEntity
  8
shade
 62
     6
420
 16711935
370
    25
100
AcDbLine
 10
447.5918940030847
 20
226.4159360038885
 30
0.0
 11
447.4232812371117
 21
226.4159360038885
 31
0.0
  0
LINE
  5
BE
330
70
100
AcDbEntity
  8
shade
 62
     6
420
 16711935
370
    25
100
AcDbLine
 10
446.3374349409679
 20
218.5742778854122
 30
0.0
 11
446.1861564249169
 21
218.8006237854859
 31
0.0
  0
SPLINE
  5
BF
330
70
100
AcDbEntity
  8
shade
 62
     6
420
 16711935
370
    25
100
AcDbSpline
210
0.0
220
0.0
230
1.0
 70
     8
 71
     3
 72
    62
 73
    58
 74
     0
 42
0.0000000001
 43
0.0000000001
 40
0.0
 40
0.0
 40
0.0
 40
0.0
 40
1.0
 40
1.0
 40
1.0
 40
2.0
 40
2.0
 40
2.0
 40
3.0
 40
3.0
 40
3.0
 40
4.0
 40
4.0
 40
4.0
 40
5.0
 40
5.0
 40
5.0
 40
6.0
 40
6.0
 40
6.0
 40
7.0
 40
7.0
 40
7.0
 40
8.0
 40
8.0
 40
8.0
 40
9.0
 40
9.0
 40
9.0
 40
10.0
 40
10.0
 40
10.0
 40
11.0
 40
11.0
 40
11.0
 40
12.0
 40
12.0
 40
12.0
 40
13.0
 40
13.0
 40
13.0
 40
14.0
 40
14.0
 40
14.0
 40
15.0
 40
15.0
 40
15.0
 40
16.0
 40
16.0
 40
16.0
 40
17.0
 40
17.0
 40
17.0
 40
18.0
 40
18.0
 40
18.0
 40
19.0
 40
19.0
 40
19.0
 40
19.0
 10
446.3253142665585
 20
218.5924130775391
 30
0.0
 10
445.8796055738921
 20
218.5980352063281
 30
0.0
 10
445.782361461836
 20
218.597552381557
 30
0.0
 10
445.6972405063006
 20
218.5986039893951
 30
0.0
 10
445.6210034560133
 20
218.5995458430511
 30
0.0
 10
445.5544910763534
 20
218.6017185519514
 30
0.0
 10
445.448288289893
 20
218.6252606277683
 30
0.0
 10
445.4225238159854
 20
218.6309718639797
 30
0.0
 10
445.3944234311482
 20
218.63794075766
 30
0.0
 10
445.3952706882269
 20
218.6500132205629
 30
0.0
 10
445.3958168062221
 20
218.6577947894327
 30
0.0
 10
445.4083898814626
 20
218.6676967523678
 30
0.0
 10
445.4206269324963
 20
218.6747658133184
 30
0.0
 10
445.4386489370314
 20
218.6851767079031
 30
0.0
 10
445.4559421167012
 20
218.6894431356594
 30
0.0
 10
445.4736445341232
 20
218.6938062692991
 30
0.0
 10
445.5286186760335
 20
218.7073558044124
 30
0.0
 10
445.5875394585493
 20
218.721837959181
 30
0.0
 10
445.6465280177612
 20
218.733791226839
 30
0.0
 10
445.8051689495118
 20
218.7659377574022
 30
0.0
 10
445.9643000836996
 20
218.7797938390593
 30
0.0
 10
446.1236864325988
 20
218.7947206859775
 30
0.0
 10
446.48459537398
 20
218.8285205223645
 30
0.0
 10
446.8468128906559
 20
218.8678105478992
 30
0.0
 10
447.2084068041681
 20
218.9076033892498
 30
0.0
 10
447.6182842116312
 20
218.9527097531769
 30
0.0
 10
448.0273603579592
 20
218.9984621798084
 30
0.0
 10
448.4367027926583
 20
219.0436066462612
 30
0.0
 10
448.9867863754609
 20
219.1042727969584
 30
0.0
 10
449.5373508374714
 20
219.1638410571589
 30
0.0
 10
450.0865051793307
 20
219.2312911408446
 30
0.0
 10
450.5354725459056
 20
219.2864357224866
 30
0.0
 10
450.9834973788993
 20
219.3468485666414
 30
0.0
 10
451.4300568235793
 20
219.413535505215
 30
0.0
 10
451.8479775188409
 20
219.4759456771533
 30
0.0
 10
452.2646147554229
 20
219.5438510079149
 30
0.0
 10
452.6814039431744
 20
219.6121002603422
 30
0.0
 10
453.021517645424
 20
219.6677938979245
 30
0.0
 10
453.3617325334971
 20
219.7237165562304
 30
0.0
 10
453.6989467325741
 20
219.7889044944214
 30
0.0
 10
454.276114885872
 20
219.900478686789
 30
0.0
 10
454.8444925305853
 20
220.0391954858556
 30
0.0
 10
455.4017734412938
 20
220.2163433020697
 30
0.0
 10
455.8491921809205
 20
220.3585682574402
 30
0.0
 10
456.2894581355035
 20
220.5255652593184
 30
0.0
 10
456.6517764716722
 20
220.7881120966844
 30
0.0
 10
456.8150753098533
 20
220.9064433795182
 30
0.0
 10
456.9625402293079
 20
221.0441842141772
 30
0.0
 10
457.0502029367343
 20
221.2060346414535
 30
0.0
 10
457.1322757413396
 20
221.3575645094192
 30
0.0
 10
457.1619298712018
 20
221.5302272561342
 30
0.0
 10
457.1462093138945
 20
221.6977082234863
 30
0.0
 10
457.1369778848455
 20
221.7960564339257
 30
0.0
 10
457.1121000119318
 20
221.892617823905
 30
0.0
 10
457.0694042122209
 20
221.9831961098584
 30
0.0
 10
457.0492424062487
 20
222.0259689783391
 30
0.0
 10
457.0251073517164
 20
222.0674076647798
 30
0.0
 10
456.9992093242483
 20
222.1082543602957
 30
0.0
  0
LINE
  5
C0
330
70
100
AcDbEntity
  8
shade
 62
     6
420
 16711935
370
    25
100
AcDbLine
 10
444.9140038777907
 20
219.2717539398636
 30
0.0
 11
445.3993559440054
 21
218.6503396439674
 31
0.0
  0
SPLINE
  5
C1
330
70
100
AcDbEntity
  8
shade
 62
     6
420
 16711935
370
    25
100
AcDbSpline
210
0.0
220
0.0
230
1.0
 70
     8
 71
     3
 72
    29
 73
    25
 74
     0
 42
0.0000000001
 43
0.0000000001
 40
0.0
 40
0.0
 40
0.0
 40
0.0
 40
1.0
 40
1.0
 40
1.0
 40
2.0
 40
2.0
 40
2.0
 40
3.0
 40
3.0
 40
3.0
 40
4.0
 40
4.0
 40
4.0
 40
5.0
 40
5.0
 40
5.0
 40
6.0
 40
6.0
 40
6.0
 40
7.0
 40
7.0
 40
7.0
 40
8.0
 40
8.0
 40
8.0
 40
8.0
 10
445.3993559440054
 20
218.6503396439674
 30
0.0
 10
445.0751724272077
 20
218.6760816283951
 30
0.0
 10
444.7509889103701
 20
218.7018236127835
 30
0.0
 10
444.4274005096096
 20
218.7363885342354
 30
0.0
 10
444.2637443300323
 20
218.7538698870148
 30
0.0
 10
444.1002403735868
 20
218.7736080348034
 30
0.0
 10
443.9507109462351
 20
218.8446698290534
 30
0.0
 10
443.9259302545397
 20
218.8564465103833
 30
0.0
 10
443.9015333679162
 20
218.869632775866
 30
0.0
 10
443.8911247507738
 20
218.8911200435875
 30
0.0
 10
443.8809629463565
 20
218.912097797909
 30
0.0
 10
443.8841338873283
 20
218.94098754951
 30
0.0
 10
443.9027626795957
 20
218.9564887229952
 30
0.0
 10
443.9083168674754
 20
218.9611104091321
 30
0.0
 10
443.9152451634525
 20
218.9645419329201
 30
0.0
 10
443.9221471047203
 20
218.9679642907862
 30
0.0
 10
443.9621307555393
 20
218.9877903593455
 30
0.0
 10
444.0012299457086
 20
219.0073088188212
 30
0.0
 10
444.0412540322538
 20
219.0257927410984
 30
0.0
 10
444.1307346788765
 20
219.067116690222
 30
0.0
 10
444.2248381607355
 20
219.1032697946206
 30
0.0
 10
444.3210875847431
 20
219.1338015110534
 30
0.0
 10
444.5130364869662
 20
219.1946904930685
 30
0.0
 10
444.7135201824179
 20
219.2332222165054
 30
0.0
 10
444.9140038777907
 20
219.2717539398636
 30
0.0
  0
LINE
  5
C2
330
70
100
AcDbEntity
  8
shade
 62
     6
420
 16711935
370
    25
100
AcDbLine
 10
442.9124045204477
 20
220.5839555261731
 30
0.0
 11
443.8940838939467
 21
218.8895530636851
 31
0.0
  0
SPLINE
  5
C3
330
70
100
AcDbEntity
  8
shade
 62
     6
420
 16711935
370
    25
100
AcDbSpline
210
0.0
220
0.0
230
1.0
 70
     8
 71
     3
 72
    68
 73
    64
 74
     0
 42
0.0000000001
 43
0.0000000001
 40
0.0
 40
0.0
 40
0.0
 40
0.0
 40
1.0
 40
1.0
 40
1.0
 40
2.0
 40
2.0
 40
2.0
 40
3.0
 40
3.0
 40
3.0
 40
4.0
 40
4.0
 40
4.0
 40
5.0
 40
5.0
 40
5.0
 40
6.0
 40
6.0
 40
6.0
 40
7.0
 40
7.0
 40
7.0
 40
8.0
 40
8.0
 40
8.0
 40
9.0
 40
9.0
 40
9.0
 40
10.0
 40
10.0
 40
10.0
 40
11.0
 40
11.0
 40
11.0
 40
12.0
 40
12.0
 40
12.0
 40
13.0
 40
13.0
 40
13.0
 40
14.0
 40
14.0
 40
14.0
 40
15.0
 40
15.0
 40
15.0
 40
16.0
 40
16.0
 40
16.0
 40
17.0
 40
17.0
 40
17.0
 40
18.0
 40
18.0
 40
18.0
 40
19.0
 40
19.0
 40
19.0
 40
20.0
 40
20.0
 40
20.0
 40
21.0
 40
21.0
 40
21.0
 40
21.0
 10
443.8540486085707
 20
218.9586549394901
 30
0.0
 10
443.7352576466312
 20
218.9817417530848
 30
0.0
 10
443.6165131701344
 20
219.0050671134955
 30
0.0
 10
443.4978158974989
 20
219.0286308794244
 30
0.0
 10
443.2852413981966
 20
219.0439911322773
 30
0.0
 10
443.1480507758764
 20
219.0729730354638
 30
0.0
 10
443.0112048844767
 20
219.1035202939607
 30
0.0
 10
442.8569692768783
 20
219.1045617763382
 30
0.0
 10
442.7897649133202
 20
219.1205414109572
 30
0.0
 10
442.7227149843373
 20
219.1371508060884
 30
0.0
 10
442.6130635370572
 20
219.1460145806807
 30
0.0
 10
442.5463198303114
 20
219.1642545361252
 30
0.0
 10
442.4799685594631
 20
219.18384875145
 30
0.0
 10
442.3573082960802
 20
219.1994024491865
 30
0.0
 10
442.2777800713246
 20
219.2261580874447
 30
0.0
 10
442.199105536175
 20
219.2552745704759
 30
0.0
 10
442.0695319761708
 20
219.2726780489976
 30
0.0
 10
441.9924512326432
 20
219.3073054014067
 30
0.0
 10
441.9175528255013
 20
219.3462785490523
 30
0.0
 10
441.8411846121812
 20
219.3450296933328
 30
0.0
 10
441.8150623665489
 20
219.3604052946857
 30
0.0
 10
441.789513953118
 20
219.376698660108
 30
0.0
 10
441.7469738820291
 20
219.3858623582525
 30
0.0
 10
441.7221514925005
 20
219.4038913268007
 30
0.0
 10
441.698327580284
 20
219.4231868206844
 30
0.0
 10
441.6623150924197
 20
219.4307903760819
 30
0.0
 10
441.6432865224932
 20
219.4479950594296
 30
0.0
 10
441.6250851198756
 20
219.4660530401943
 30
0.0
 10
441.5941414173844
 20
219.4759960669467
 30
0.0
 10
441.5768681790841
 20
219.4955780083053
 30
0.0
 10
441.5608800560351
 20
219.5161897080033
 30
0.0
 10
441.5371709789971
 20
219.5221481522275
 30
0.0
 10
441.526071949264
 20
219.5384395997884
 30
0.0
 10
441.516020232556
 20
219.555374991841
 30
0.0
 10
441.4980356698097
 20
219.5645058248996
 30
0.0
 10
441.4894267711437
 20
219.58273291678
 30
0.0
 10
441.4827118569463
 20
219.6016854138501
 30
0.0
 10
441.4568658051752
 20
219.6440325098965
 30
0.0
 10
441.4551029911946
 20
219.7002747354213
 30
0.0
 10
441.4711956626514
 20
219.7526551751704
 30
0.0
 10
441.4707831668454
 20
219.7839713333043
 30
0.0
 10
441.4918055680106
 20
219.8374635349947
 30
0.0
 10
441.5219634162924
 20
219.8858302374065
 30
0.0
 10
441.5395936756067
 20
219.8768708848424
 30
0.0
 10
441.5517128145344
 20
219.8957125762551
 30
0.0
 10
441.5649348930929
 20
219.9137720886169
 30
0.0
 10
441.5846529976099
 20
219.9213986080835
 30
0.0
 10
441.5982990284059
 20
219.9385747256708
 30
0.0
 10
441.6127284676742
 20
219.9550821245852
 30
0.0
 10
441.6503727730932
 20
219.9797921745838
 30
0.0
 10
441.6824780290894
 20
220.0114691428391
 30
0.0
 10
441.7168514468257
 20
220.0405682380658
 30
0.0
 10
441.7689696031223
 20
220.0511009103394
 30
0.0
 10
441.8030753242953
 20
220.078590215928
 30
0.0
 10
441.8377434409751
 20
220.1053589684843
 30
0.0
 10
441.9946216617075
 20
220.1948924390622
 30
0.0
 10
442.1335992745087
 20
220.2948022732282
 30
0.0
 10
442.2756419711908
 20
220.3902269624791
 30
0.0
 10
442.4992150100231
 20
220.4343937885684
 30
0.0
 10
442.6404783025633
 20
220.52811654613
 30
0.0
 10
442.7848649796959
 20
220.6168547210042
 30
0.0
 10
442.8833720340606
 20
220.5722365109105
 30
0.0
 10
442.8944738614609
 20
220.5795843350994
 30
0.0
 10
442.9051807458578
 20
220.5874820959766
 30
0.0
  0
SPLINE
  5
C4
330
70
100
AcDbEntity
  8
shade
 62
     6
420
 16711935
370
    25
100
AcDbSpline
210
0.0
220
0.0
230
1.0
 70
     8
 71
     3
 72
   215
 73
   211
 74
     0
 42
0.0000000001
 43
0.0000000001
 40
0.0
 40
0.0
 40
0.0
 40
0.0
 40
1.0
 40
1.0
 40
1.0
 40
2.0
 40
2.0
 40
2.0
 40
3.0
 40
3.0
 40
3.0
 40
4.0
 40
4.0
 40
4.0
 40
5.0
 40
5.0
 40
5.0
 40
6.0
 40
6.0
 40
6.0
 40
7.0
 40
7.0
 40
7.0
 40
8.0
 40
8.0
 40
8.0
 40
9.0
 40
9.0
 40
9.0
 40
10.0
 40
10.0
 40
10.0
 40
11.0
 40
11.0
 40
11.0
 40
12.0
 40
12.0
 40
12.0
 40
13.0
 40
13.0
 40
13.0
 40
14.0
 40
14.0
 40
14.0
 40
15.0
 40
15.0
 40
15.0
 40
16.0
 40
16.0
 40
16.0
 40
17.0
 40
17.0
 40
17.0
 40
18.0
 40
18.0
 40
18.0
 40
19.0
 40
19.0
 40
19.0
 40
20.0
 40
20.0
 40
20.0
 40
21.0
 40
21.0
 40
21.0
 40
22.0
 40
22.0
 40
22.0
 40
23.0
 40
23.0
 40
23.0
 40
24.0
 40
24.0
 40
24.0
 40
25.0
 40
25.0
 40
25.0
 40
26.0
 40
26.0
 40
26.0
 40
27.0
 40
27.0
 40
27.0
 40
28.0
 40
28.0
 40
28.0
 40
29.0
 40
29.0
 40
29.0
 40
30.0
 40
30.0
 40
30.0
 40
31.0
 40
31.0
 40
31.0
 40
32.0
 40
32.0
 40
32.0
 40
33.0
 40
33.0
 40
33.0
 40
34.0
 40
34.0
 40
34.0
 40
35.0
 40
35.0
 40
35.0
 40
36.0
 40
36.0
 40
36.0
 40
37.0
 40
37.0
 40
37.0
 40
38.0
 40
38.0
 40
38.0
 40
39.0
 40
39.0
 40
39.0
 40
40.0
 40
40.0
 40
40.0
 40
41.0
 40
41.0
 40
41.0
 40
42.0
 40
42.0
 40
42.0
 40
43.0
 40
43.0
 40
43.0
 40
44.0
 40
44.0
 40
44.0
 40
45.0
 40
45.0
 40
45.0
 40
46.0
 40
46.0
 40
46.0
 40
47.0
 40
47.0
 40
47.0
 40
48.0
 40
48.0
 40
48.0
 40
49.0
 40
49.0
 40
49.0
 40
50.0
 40
50.0
 40
50.0
 40
51.0
 40
51.0
 40
51.0
 40
52.0
 40
52.0
 40
52.0
 40
53.0
 40
53.0
 40
53.0
 40
54.0
 40
54.0
 40
54.0
 40
55.0
 40
55.0
 40
55.0
 40
56.0
 40
56.0
 40
56.0
 40
57.0
 40
57.0
 40
57.0
 40
58.0
 40
58.0
 40
58.0
 40
59.0
 40
59.0
 40
59.0
 40
60.0
 40
60.0
 40
60.0
 40
61.0
 40
61.0
 40
61.0
 40
62.0
 40
62.0
 40
62.0
 40
63.0
 40
63.0
 40
63.0
 40
64.0
 40
64.0
 40
64.0
 40
65.0
 40
65.0
 40
65.0
 40
66.0
 40
66.0
 40
66.0
 40
67.0
 40
67.0
 40
67.0
 40
68.0
 40
68.0
 40
68.0
 40
69.0
 40
69.0
 40
69.0
 40
70.0
 40
70.0
 40
70.0
 40
70.0
 10
443.8568516472949
 20
218.9538168264289
 30
0.0
 10
443.7279970925597
 20
218.9788050726699
 30
0.0
 10
443.599197123511
 20
219.0040739779584
 30
0.0
 10
443.4704526568777
 20
219.0296233624249
 30
0.0
 10
443.251518844939
 20
219.0439911322773
 30
0.0
 10
443.114328222697
 20
219.0729730354638
 30
0.0
 10
442.977482331298
 20
219.1035202939607
 30
0.0
 10
442.8232467237387
 20
219.1045617763382
 30
0.0
 10
442.7560423601018
 20
219.1205414109572
 30
0.0
 10
442.688992431158
 20
219.1371508060884
 30
0.0
 10
442.5793409838785
 20
219.1460145806807
 30
0.0
 10
442.5125972771327
 20
219.1642545361252
 30
0.0
 10
442.4462460062845
 20
219.18384875145
 30
0.0
 10
442.3235857429408
 20
219.1994024491865
 30
0.0
 10
442.2440575181453
 20
219.2261580874447
 30
0.0
 10
442.1653829829956
 20
219.2552745704759
 30
0.0
 10
442.035809422992
 20
219.2726780489976
 30
0.0
 10
441.9587286794646
 20
219.3073054014067
 30
0.0
 10
441.8838302723226
 20
219.3462785490523
 30
0.0
 10
441.7938079631598
 20
219.3524231596897
 30
0.0
 10
441.7548093813413
 20
219.376567621422
 30
0.0
 10
441.7173094883909
 20
219.4029126476369
 30
0.0
 10
441.6540159405125
 20
219.4188448815744
 30
0.0
 10
441.6187180099169
 20
219.4495695459747
 30
0.0
 10
441.5864605498601
 20
219.4833359704089
 30
0.0
 10
441.5426059573887
 20
219.4905136909437
 30
0.0
 10
441.5240255070179
 20
219.5131939430091
 30
0.0
 10
441.5070564682481
 20
219.5370618473747
 30
0.0
 10
441.4770172847063
 20
219.5503124619901
 30
0.0
 10
441.4631756688797
 20
219.5770197146402
 30
0.0
 10
441.4533171587994
 20
219.6052787895487
 30
0.0
 10
441.4256420415131
 20
219.6374087681272
 30
0.0
 10
441.422356884625
 20
219.686034033356
 30
0.0
 10
441.4330412167613
 20
219.7325398521299
 30
0.0
 10
441.4295463055771
 20
219.7598716168655
 30
0.0
 10
441.4446508403663
 20
219.8075067160889
 30
0.0
 10
441.4676883181922
 20
219.8514197207478
 30
0.0
 10
441.4776162568313
 20
219.8391742838146
 30
0.0
 10
441.4841067007961
 20
219.8517323622894
 30
0.0
 10
441.4911389230545
 20
219.8639874202724
 30
0.0
 10
441.5017181280929
 20
219.8694501177746
 30
0.0
 10
441.509002293512
 20
219.8813403613066
 30
0.0
 10
441.5167182882226
 20
219.8929493068308
 30
0.0
 10
441.537793131749
 20
219.9121139579854
 30
0.0
 10
441.5563869587662
 20
219.9363578974884
 30
0.0
 10
441.5766684151507
 20
219.9591546690456
 30
0.0
 10
441.6068690534306
 20
219.9681994867558
 30
0.0
 10
441.6275704120095
 20
219.9895544519189
 30
0.0
 10
441.6492504497909
 20
220.0098906087226
 30
0.0
 10
441.6832355439055
 20
220.018470626543
 30
0.0
 10
441.7055251535878
 20
220.0379077961652
 30
0.0
 10
441.7284759712977
 20
220.0565451759
 30
0.0
 10
441.7648153611595
 20
220.0643340893968
 30
0.0
 10
441.787730766772
 20
220.0824023374698
 30
0.0
 10
441.8108466537555
 20
220.1002118745218
 30
0.0
 10
441.9608991085282
 20
220.1948924390622
 30
0.0
 10
442.0998767213294
 20
220.2948022732282
 30
0.0
 10
442.2419194180121
 20
220.3902269624791
 30
0.0
 10
442.4685141548116
 20
220.4294765521692
 30
0.0
 10
442.6116856350265
 20
220.519642879767
 30
0.0
 10
442.7569940859337
 20
220.6062740662987
 30
0.0
 10
442.9162559376798
 20
220.5988428971387
 30
0.0
 10
442.9869392476417
 20
220.6395351602375
 30
0.0
 10
443.0580345414647
 20
220.6794988879723
 30
0.0
 10
443.1733778232732
 20
220.6975438510048
 30
0.0
 10
443.244653979678
 20
220.7366144119258
 30
0.0
 10
443.3162508620541
 20
220.7750911306482
 30
0.0
 10
443.3969059265843
 20
220.7735491977134
 30
0.0
 10
443.4328025264614
 20
220.7925716175513
 30
0.0
 10
443.4687709917668
 20
220.8114574836902
 30
0.0
 10
443.5273517588509
 20
220.8202859334122
 30
0.0
 10
443.5633572948661
 20
220.8389952023145
 30
0.0
 10
443.5994245992572
 20
220.8575848730705
 30
0.0
 10
443.5994245992572
 20
220.8575848730705
 30
0.0
 10
444.1490203764686
 20
221.027074408747
 30
0.0
 10
444.1490203764686
 20
221.027074408747
 30
0.0
 10
444.1490203764686
 20
221.027074408747
 30
0.0
 10
444.6792606037897
 20
221.2002569242415
 30
0.0
 10
444.6792606037897
 20
221.2002569242415
 30
0.0
 10
444.6792606037897
 20
221.2002569242415
 30
0.0
 10
446.0952580831854
 20
221.652232289125
 30
0.0
 10
446.0952580831854
 20
221.652232289125
 30
0.0
 10
446.1927638879969
 20
221.6972131175684
 30
0.0
 10
446.2903263927842
 20
221.7420709347424
 30
0.0
 10
446.387945364431
 20
221.786805633565
 30
0.0
 10
446.5471602829825
 20
221.8080098488854
 30
0.0
 10
446.6448189996794
 20
221.8525626672398
 30
0.0
 10
446.7425369498256
 20
221.896985303093
 30
0.0
 10
446.9019174968785
 20
221.9180339129216
 30
0.0
 10
446.9996839533695
 20
221.9622720419156
 30
0.0
 10
447.0975107646692
 20
222.0063764215872
 30
0.0
 10
447.2570585379759
 20
222.0272637710258
 30
0.0
 10
447.3549274175592
 20
222.0711714280629
 30
0.0
 10
447.4528591810309
 20
222.1149385134943
 30
0.0
 10
447.4528591810309
 20
222.1149385134943
 30
0.0
 10
448.7676596543225
 20
222.4703014971569
 30
0.0
 10
448.7676596543225
 20
222.4703014971569
 30
0.0
 10
448.7676596543225
 20
222.4703014971569
 30
0.0
 10
450.0195429629587
 20
222.8525941674587
 30
0.0
 10
450.0195429629587
 20
222.8525941674587
 30
0.0
 10
450.0195429629587
 20
222.8525941674587
 30
0.0
 10
450.6426465274103
 20
223.0495643628299
 30
0.0
 10
450.6426465274103
 20
223.0495643628299
 30
0.0
 10
450.6426465274103
 20
223.0495643628299
 30
0.0
 10
451.26256678126
 20
223.2527356127833
 30
0.0
 10
451.26256678126
 20
223.2527356127833
 30
0.0
 10
451.26256678126
 20
223.2527356127833
 30
0.0
 10
451.8783352865981
 20
223.4638467781441
 30
0.0
 10
451.8783352865981
 20
223.4638467781441
 30
0.0
 10
451.8783352865981
 20
223.4638467781441
 30
0.0
 10
452.4889836053176
 20
223.6846367197386
 30
0.0
 10
452.4889836053176
 20
223.6846367197386
 30
0.0
 10
452.4889836053176
 20
223.6846367197386
 30
0.0
 10
452.88851124514
 20
223.8362747094466
 30
0.0
 10
452.88851124514
 20
223.8362747094466
 30
0.0
 10
452.88851124514
 20
223.8362747094466
 30
0.0
 10
453.285445489372
 20
223.9926509777669
 30
0.0
 10
453.285445489372
 20
223.9926509777669
 30
0.0
 10
453.285445489372
 20
223.9926509777669
 30
0.0
 10
453.6798414132788
 20
224.1535372827426
 30
0.0
 10
453.6798414132788
 20
224.1535372827426
 30
0.0
 10
453.6798414132788
 20
224.1535372827426
 30
0.0
 10
454.0717540920081
 20
224.3187053826521
 30
0.0
 10
454.0717540920081
 20
224.3187053826521
 30
0.0
 10
454.1255456409551
 20
224.3524522888654
 30
0.0
 10
454.1792329685861
 20
224.3863650365269
 30
0.0
 10
454.2328153087299
 20
224.4204431417476
 30
0.0
 10
454.3204255376174
 20
224.4369763652976
 30
0.0
 10
454.3739421977766
 20
224.4712841300057
 30
0.0
 10
454.4273562340197
 20
224.505751192707
 30
0.0
 10
454.4273562340197
 20
224.505751192707
 30
0.0
 10
454.8483500147987
 20
224.6609739998791
 30
0.0
 10
454.8483500147987
 20
224.6609739998791
 30
0.0
 10
454.9014852968285
 20
224.6962629140902
 30
0.0
 10
454.9545225141837
 20
224.7316992643729
 30
0.0
 10
455.0074610537635
 20
224.7672826409977
 30
0.0
 10
455.0940106886813
 20
224.7845084738293
 30
0.0
 10
455.1468879183091
 20
224.8202955736333
 30
0.0
 10
455.199669174715
 20
224.8562238677977
 30
0.0
 10
455.2859611432199
 20
224.8736082543856
 30
0.0
 10
455.3386843778217
 20
224.9097369634112
 30
0.0
 10
455.3913125688803
 20
224.9460037875546
 30
0.0
 10
455.4773499753283
 20
224.9635432242132
 30
0.0
 10
455.5299193343872
 20
225.0000011674163
 30
0.0
 10
455.5823965009333
 20
225.0365915092345
 30
0.0
 10
455.7223856577883
 20
225.0921055210334
 30
0.0
 10
455.828637238212
 20
225.1672374148701
 30
0.0
 10
455.9344225412189
 20
225.2430222917525
 30
0.0
 10
456.1077969756505
 20
225.2802104565951
 30
0.0
 10
456.2129340035683
 20
225.3573877093813
 30
0.0
 10
456.3172473293689
 20
225.43566864427
 30
0.0
 10
456.4364471626134
 20
225.43531763601
 30
0.0
 10
456.4884644553132
 20
225.4749833857559
 30
0.0
 10
456.5402381869062
 20
225.5149655248323
 30
0.0
 10
456.6251171650799
 20
225.5345443891061
 30
0.0
 10
456.6766844631719
 20
225.5750339955292
 30
0.0
 10
456.7279579286674
 20
225.6158936888831
 30
0.0
 10
456.8635046731601
 20
225.6770134616324
 30
0.0
 10
456.9649571553439
 20
225.7607192542387
 30
0.0
 10
457.0650442547046
 20
225.8460398413952
 30
0.0
 10
457.2305215268034
 20
225.8892291919624
 30
0.0
 10
457.3292974623818
 20
225.9772857936244
 30
0.0
 10
457.4262454489777
 20
226.0673307340348
 30
0.0
 10
457.6685213062912
 20
226.1890253858584
 30
0.0
 10
457.8401471137434
 20
226.3630989459123
 30
0.0
 10
458.0041761253781
 20
226.544201037724
 30
0.0
 10
458.2834104829074
 20
226.6415936506667
 30
0.0
 10
458.4393353951607
 20
226.8350369939526
 30
0.0
 10
458.5840221260386
 20
227.0367821419443
 30
0.0
 10
458.8042553352656
 20
227.1008013512787
 30
0.0
 10
458.9103367489005
 20
227.2672114938845
 30
0.0
 10
459.0066643554232
 20
227.4392670924225
 30
0.0
 10
459.1787282062539
 20
227.530579700323
 30
0.0
 10
459.2618355720717
 20
227.7139448381533
 30
0.0
 10
459.3276293613711
 20
227.9037614958861
 30
0.0
 10
459.4584388230861
 20
227.9988820189587
 30
0.0
 10
459.506318070974
 20
228.1914930483324
 30
0.0
 10
459.5328094942236
 20
228.3875934112924
 30
0.0
 10
459.6091235653313
 20
228.4905814612952
 30
0.0
 10
459.6175100743873
 20
228.6930330102803
 30
0.0
 10
459.600616761096
 20
228.8941600925654
 30
0.0
 10
459.6135747281584
 20
228.9853911435157
 30
0.0
 10
459.5813605474823
 20
229.1775391931963
 30
0.0
 10
459.5256299990485
 20
229.3634357948129
 30
0.0
 10
459.4733567102804
 20
229.4486466064807
 30
0.0
 10
459.3995208615844
 20
229.6260770665051
 30
0.0
 10
459.3014504332241
 20
229.7901950204861
 30
0.0
 10
459.218133720994
 20
229.7927641996708
 30
0.0
 10
459.1571586276529
 20
229.8864419651682
 30
0.0
 10
459.0895822498073
 20
229.9752872671275
 30
0.0
 10
458.9905294956909
 20
230.0117152871921
 30
0.0
 10
458.9210100550514
 20
230.0956074801909
 30
0.0
 10
458.8473779563345
 20
230.1758193539547
 30
0.0
 10
458.7201590281543
 20
230.2245380626586
 30
0.0
 10
458.6296500919301
 20
230.3146153425939
 30
0.0
 10
458.5350665083739
 20
230.4002995662615
 30
0.0
 10
458.3876447756188
 20
230.4352388060085
 30
0.0
 10
458.2922471673431
 20
230.5166496515222
 30
0.0
 10
458.1946434223611
 20
230.5953634930353
 30
0.0
 10
457.9551049710288
 20
230.6964958286438
 30
0.0
 10
457.76662709617
 20
230.8315506995308
 30
0.0
 10
457.5712537233619
 20
230.9561064137263
 30
0.0
 10
457.2646397926098
 20
231.0010447581138
 30
0.0
 10
457.0655912794229
 20
231.1109204445898
 30
0.0
 10
456.8610193816936
 20
231.2097490059688
 30
0.0
 10
456.8610193816936
 20
231.2097490059688
 30
0.0
 10
456.4535239724897
 20
231.2334789211722
 30
0.0
 10
456.4535239724897
 20
231.2334789211722
 30
0.0
 10
456.4535239724897
 20
231.2334789211722
 30
0.0
 10
456.1648325830987
 20
231.3152170948129
 30
0.0
 10
456.1648325830987
 20
231.3152170948129
 30
0.0
  0
LINE
  5
C5
330
70
100
AcDbEntity
  8
shade
 62
     6
420
 16711935
370
    25
100
AcDbLine
 10
440.7773940275699
 20
223.0972765235249
 30
0.0
 11
441.4229056135908
 21
219.6480103324911
 31
0.0
  0
SPLINE
  5
C6
330
70
100
AcDbEntity
  8
shade
 62
     6
420
 16711935
370
    25
100
AcDbSpline
210
0.0
220
0.0
230
1.0
 70
     8
 71
     3
 72
    23
 73
    19
 74
     0
 42
0.0000000001
 43
0.0000000001
 40
0.0
 40
0.0
 40
0.0
 40
0.0
 40
1.0
 40
1.0
 40
1.0
 40
2.0
 40
2.0
 40
2.0
 40
3.0
 40
3.0
 40
3.0
 40
4.0
 40
4.0
 40
4.0
 40
5.0
 40
5.0
 40
5.0
 40
6.0
 40
6.0
 40
6.0
 40
6.0
 10
441.3062298878129
 20
222.9968898578396
 30
0.0
 10
441.3034746023675
 20
223.0634051589647
 30
0.0
 10
441.3007457565043
 20
223.1299215525686
 30
0.0
 10
441.2980433508901
 20
223.1964390230738
 30
0.0
 10
441.2935251088324
 20
223.2282339365128
 30
0.0
 10
441.2908008624299
 20
223.2947501115973
 30
0.0
 10
441.2881294971528
 20
223.3612684208651
 30
0.0
 10
441.2881294971528
 20
223.3612684208651
 30
0.0
 10
441.2767444442308
 20
223.4913912583502
 30
0.0
 10
441.2767444442308
 20
223.4913912583502
 30
0.0
 10
441.2767444442308
 20
223.4913912583502
 30
0.0
 10
441.2674713303366
 20
223.6562457745231
 30
0.0
 10
441.2674713303366
 20
223.6562457745231
 30
0.0
 10
441.2674713303366
 20
223.6562457745231
 30
0.0
 10
441.2534345656137
 20
223.9217362822148
 30
0.0
 10
441.2534345656137
 20
223.9217362822148
 30
0.0
 10
441.2534345656137
 20
223.9217362822148
 30
0.0
 10
441.2401929001283
 20
224.1872564482637
 30
0.0
 10
441.2401929001283
 20
224.1872564482637
 30
0.0
  0
LINE
  5
C7
330
70
100
AcDbEntity
  8
shade
 62
     6
420
 16711935
370
    25
100
AcDbLine
 10
441.1936531251235
 20
222.9968898578396
 30
0.0
 11
441.3062298878129
 21
222.9968898578396
 31
0.0
  0
SPLINE
  5
C8
330
70
100
AcDbEntity
  8
shade
 62
     6
420
 16711935
370
    25
100
AcDbSpline
210
0.0
220
0.0
230
1.0
 70
     8
 71
     3
 72
    29
 73
    25
 74
     0
 42
0.0000000001
 43
0.0000000001
 40
0.0
 40
0.0
 40
0.0
 40
0.0
 40
1.0
 40
1.0
 40
1.0
 40
2.0
 40
2.0
 40
2.0
 40
3.0
 40
3.0
 40
3.0
 40
4.0
 40
4.0
 40
4.0
 40
5.0
 40
5.0
 40
5.0
 40
6.0
 40
6.0
 40
6.0
 40
7.0
 40
7.0
 40
7.0
 40
8.0
 40
8.0
 40
8.0
 40
8.0
 10
441.1936531251235
 20
222.9968898578396
 30
0.0
 10
441.1778121205093
 20
223.036230137638
 30
0.0
 10
441.162029451176
 20
223.0755938819536
 30
0.0
 10
441.1463051691131
 20
223.1149809609072
 30
0.0
 10
441.1205505852361
 20
223.1338429522114
 30
0.0
 10
441.105099813512
 20
223.1733561004883
 30
0.0
 10
441.0899439242501
 20
223.2129826615474
 30
0.0
 10
441.0622341202694
 20
223.2386045151268
 30
0.0
 10
441.0450567096158
 20
223.2850116597349
 30
0.0
 10
441.0284670450642
 20
223.3316300521358
 30
0.0
 10
441.0004533807698
 20
223.3542357481878
 30
0.0
 10
440.9846035341479
 20
223.4012788560543
 30
0.0
 10
440.9697049246816
 20
223.4486265517957
 30
0.0
 10
440.9395159961174
 20
223.4853286164317
 30
0.0
 10
440.9213808584535
 20
223.5468587714823
 30
0.0
 10
440.9047070812682
 20
223.6087916351144
 30
0.0
 10
440.8751612422668
 20
223.6390578029789
 30
0.0
 10
440.8589486339567
 20
223.701453137969
 30
0.0
 10
440.8437064862246
 20
223.7640886208641
 30
0.0
 10
440.822439398121
 20
223.7736136438605
 30
0.0
 10
440.8123654853204
 20
223.8156480869473
 30
0.0
 10
440.8026330885109
 20
223.8577621830135
 30
0.0
 10
440.7862013972998
 20
223.8780164057457
 30
0.0
 10
440.7765419881007
 20
223.9202111043635
 30
0.0
 10
440.7670744061383
 20
223.9624490297049
 30
0.0
  0
SPLINE
  5
C9
330
70
100
AcDbEntity
  8
shade
 62
     6
420
 16711935
370
    25
100
AcDbSpline
210
0.0
220
0.0
230
1.0
 70
     8
 71
     3
 72
    32
 73
    28
 74
     0
 42
0.0000000001
 43
0.0000000001
 40
0.0
 40
0.0
 40
0.0
 40
0.0
 40
1.0
 40
1.0
 40
1.0
 40
2.0
 40
2.0
 40
2.0
 40
3.0
 40
3.0
 40
3.0
 40
4.0
 40
4.0
 40
4.0
 40
5.0
 40
5.0
 40
5.0
 40
6.0
 40
6.0
 40
6.0
 40
7.0
 40
7.0
 40
7.0
 40
8.0
 40
8.0
 40
8.0
 40
9.0
 40
9.0
 40
9.0
 40
9.0
 10
441.3062298878129
 20
222.9968898578396
 30
0.0
 10
441.3062298878129
 20
222.9968898578396
 30
0.0
 10
441.2488518776219
 20
223.0944811489863
 30
0.0
 10
441.2488518776219
 20
223.0944811489863
 30
0.0
 10
441.2331710016812
 20
223.1338687760625
 30
0.0
 10
441.2177243667174
 20
223.1733492554461
 30
0.0
 10
441.2025127912858
 20
223.2129204950966
 30
0.0
 10
441.1773113850411
 20
223.2319712725741
 30
0.0
 10
441.1624925883726
 20
223.271762024356
 30
0.0
 10
441.148150794068
 20
223.3117255691215
 30
0.0
 10
441.1312480623154
 20
223.3110367079036
 30
0.0
 10
441.1241499312327
 20
223.3310717545431
 30
0.0
 10
441.1171942716454
 20
223.3511564247261
 30
0.0
 10
441.1056143342573
 20
223.360831994074
 30
0.0
 10
441.0987825964307
 20
223.3809981311156
 30
0.0
 10
441.0921248555822
 20
223.4012219638889
 30
0.0
 10
441.0681584943535
 20
223.4496250093319
 30
0.0
 10
441.0500502812988
 20
223.5089877309051
 30
0.0
 10
441.0333898693427
 20
223.5687634579532
 30
0.0
 10
441.0038888293123
 20
223.5980143541049
 30
0.0
 10
440.9877295166441
 20
223.6582758093786
 30
0.0
 10
440.9725763782375
 20
223.7187936558917
 30
0.0
 10
440.9461867887567
 20
223.748319948656
 30
0.0
 10
440.9314212254582
 20
223.809345135187
 30
0.0
 10
440.9174426525596
 20
223.8705527200949
 30
0.0
 10
440.8933668499589
 20
223.9001003547297
 30
0.0
 10
440.8794418894351
 20
223.961469756234
 30
0.0
 10
440.8658439460731
 20
224.022911987571
 30
0.0
  0
SPLINE
  5
CA
330
70
100
AcDbEntity
  8
shade
 62
     6
420
 16711935
370
    25
100
AcDbSpline
210
0.0
220
0.0
230
1.0
 70
     8
 71
     3
 72
    38
 73
    34
 74
     0
 42
0.0000000001
 43
0.0000000001
 40
0.0
 40
0.0
 40
0.0
 40
0.0
 40
1.0
 40
1.0
 40
1.0
 40
2.0
 40
2.0
 40
2.0
 40
3.0
 40
3.0
 40
3.0
 40
4.0
 40
4.0
 40
4.0
 40
5.0
 40
5.0
 40
5.0
 40
6.0
 40
6.0
 40
6.0
 40
7.0
 40
7.0
 40
7.0
 40
8.0
 40
8.0
 40
8.0
 40
9.0
 40
9.0
 40
9.0
 40
10.0
 40
10.0
 40
10.0
 40
11.0
 40
11.0
 40
11.0
 40
11.0
 10
439.9407901386643
 20
226.2079408601684
 30
0.0
 10
439.9407901386643
 20
226.2079408601684
 30
0.0
 10
440.0011047674299
 20
226.3445783362075
 30
0.0
 10
440.0011047674299
 20
226.3445783362075
 30
0.0
 10
440.0094332270586
 20
226.3721410050369
 30
0.0
 10
440.0177871023001
 20
226.3996959877862
 30
0.0
 10
440.026166382483
 20
226.4272432492969
 30
0.0
 10
440.0397997236201
 20
226.4404003578519
 30
0.0
 10
440.0482100502221
 20
226.4679322359401
 30
0.0
 10
440.0566602442206
 20
226.4954518882473
 30
0.0
 10
440.0703883674938
 20
226.5085970545587
 30
0.0
 10
440.0788741739807
 20
226.5361049140424
 30
0.0
 10
440.0874070534286
 20
226.5635981859785
 30
0.0
 10
440.1012560934983
 20
226.5767195288578
 30
0.0
 10
440.1098340504332
 20
226.6041876149611
 30
0.0
 10
440.1184734203996
 20
226.6316364094069
 30
0.0
 10
440.1324773986311
 20
226.6447434127653
 30
0.0
 10
440.1411683007027
 20
226.6721762725264
 30
0.0
 10
440.1499277499192
 20
226.6995872745093
 30
0.0
 10
440.1641118595227
 20
226.7126588060099
 30
0.0
 10
440.1729302249453
 20
226.7400342387453
 30
0.0
 10
440.1818312780935
 20
226.7673828284873
 30
0.0
 10
440.1999127768965
 20
226.7917845193188
 30
0.0
 10
440.2127567289828
 20
226.8303968332612
 30
0.0
 10
440.2258822326361
 20
226.868913775822
 30
0.0
 10
440.2468458236963
 20
226.8871873000949
 30
0.0
 10
440.2605943180399
 20
226.9254143472924
 30
0.0
 10
440.2750578766142
 20
226.9633727718577
 30
0.0
 10
440.2984154480044
 20
226.9835913499651
 30
0.0
 10
440.3145351033209
 20
227.0235084755614
 30
0.0
 10
440.33163142616
 20
227.0630100290127
 30
0.0
 10
440.3579387516522
 20
227.0813332269765
 30
0.0
 10
440.3754136142625
 20
227.1203685750532
 30
0.0
 10
440.3936026244133
 20
227.1590723109412
 30
0.0
  0
LINE
  5
CB
330
70
100
AcDbEntity
  8
shade
 62
     6
420
 16711935
370
    25
100
AcDbLine
 10
438.1345530739563
 20
222.1215561167894
 30
0.0
 11
439.9407901386643
 21
226.2079408601684
 31
0.0
  0
LINE
  5
CC
330
70
100
AcDbEntity
  8
shade
 62
     6
420
 16711935
370
    25
100
AcDbLine
 10
440.4876209910956
 20
226.4877839867387
 30
0.0
 11
440.3937896117749
 21
226.4886157490355
 31
0.0
  0
SPLINE
  5
CD
330
70
100
AcDbEntity
  8
shade
 62
     6
420
 16711935
370
    25
100
AcDbSpline
210
0.0
220
0.0
230
1.0
 70
     8
 71
     3
 72
    47
 73
    43
 74
     0
 42
0.0000000001
 43
0.0000000001
 40
0.0
 40
0.0
 40
0.0
 40
0.0
 40
1.0
 40
1.0
 40
1.0
 40
2.0
 40
2.0
 40
2.0
 40
3.0
 40
3.0
 40
3.0
 40
4.0
 40
4.0
 40
4.0
 40
5.0
 40
5.0
 40
5.0
 40
6.0
 40
6.0
 40
6.0
 40
7.0
 40
7.0
 40
7.0
 40
8.0
 40
8.0
 40
8.0
 40
9.0
 40
9.0
 40
9.0
 40
10.0
 40
10.0
 40
10.0
 40
11.0
 40
11.0
 40
11.0
 40
12.0
 40
12.0
 40
12.0
 40
13.0
 40
13.0
 40
13.0
 40
14.0
 40
14.0
 40
14.0
 40
14.0
 10
443.828310050019
 20
228.9271373625953
 30
0.0
 10
443.8123324053814
 20
228.9382262572538
 30
0.0
 10
443.7963562621663
 20
228.9493173151715
 30
0.0
 10
443.7803816209235
 20
228.9604105361123
 30
0.0
 10
443.7543098822116
 20
228.9657165841429
 30
0.0
 10
443.7383422368044
 20
228.9768215348115
 30
0.0
 10
443.722382118876
 20
228.9879372974977
 30
0.0
 10
443.6803823116698
 20
229.0043727307295
 30
0.0
 10
443.6485257000527
 20
229.0266680746509
 30
0.0
 10
443.6167175036683
 20
229.0490323577092
 30
0.0
 10
443.5647314843437
 20
229.0598242618163
 30
0.0
 10
443.5330040936098
 20
229.0823557583763
 30
0.0
 10
443.5013750504984
 20
229.1050247902265
 30
0.0
 10
443.4259882298427
 20
229.1330130734764
 30
0.0
 10
443.3711185812107
 20
229.1732534677002
 30
0.0
 10
443.3166642565006
 20
229.214051171687
 30
0.0
 10
443.2271439597851
 20
229.2343763215366
 30
0.0
 10
443.1732521640707
 20
229.2763344753661
 30
0.0
 10
443.120084732823
 20
229.3191989544118
 30
0.0
 10
443.0388262210544
 20
229.3356609710348
 30
0.0
 10
442.9927567565585
 20
229.3743909039321
 30
0.0
 10
442.9474087774414
 20
229.4139554778212
 30
0.0
 10
442.8722731898864
 20
229.4341161377933
 30
0.0
 10
442.8274111057593
 20
229.4748650608443
 30
0.0
 10
442.783298667594
 20
229.5164170846506
 30
0.0
 10
442.7317750774467
 20
229.5170418442918
 30
0.0
 10
442.7092238548978
 20
229.5386813863903
 30
0.0
 10
442.6868452812882
 20
229.5604987225394
 30
0.0
 10
442.6500497596399
 20
229.5711912473648
 30
0.0
 10
442.6277554757081
 20
229.5932312961353
 30
0.0
 10
442.6056062390452
 20
229.6154166310986
 30
0.0
 10
442.5691931929099
 20
229.6262720594665
 30
0.0
 10
442.5470896080283
 20
229.6486851327599
 30
0.0
 10
442.5251181497997
 20
229.6712273658421
 30
0.0
 10
442.489051017901
 20
229.6821940040237
 30
0.0
 10
442.4671357338126
 20
229.7048902257351
 30
0.0
 10
442.4453228794477
 20
229.7276846872031
 30
0.0
 10
442.409530901315
 20
229.7387582882952
 30
0.0
 10
442.3877391917253
 20
229.7617103893015
 30
0.0
 10
442.3660354483454
 20
229.784745531023
 30
0.0
 10
442.3304755132043
 20
229.795879355553
 30
0.0
 10
442.3087981854315
 20
229.81900329432
 30
0.0
 10
442.2871779332249
 20
229.8421805402258
 30
0.0
  0
SPLINE
  5
CE
330
70
100
AcDbEntity
  8
shade
 62
     6
420
 16711935
370
    25
100
AcDbSpline
210
0.0
220
0.0
230
1.0
 70
     8
 71
     3
 72
     8
 73
     4
 74
     0
 42
0.0000000001
 43
0.0000000001
 40
0.0
 40
0.0
 40
0.0
 40
0.0
 40
1.0
 40
1.0
 40
1.0
 40
1.0
 10
440.9270658441339
 20
229.9178260286613
 30
0.0
 10
440.5429558864269
 20
228.8007068480751
 30
0.0
 10
440.3623372250331
 20
227.6237471568593
 30
0.0
 10
440.3937896117749
 20
226.4428549219472
 30
0.0
  0
SPLINE
  5
CF
330
70
100
AcDbEntity
  8
shade
 62
     6
420
 16711935
370
    25
100
AcDbSpline
210
0.0
220
0.0
230
1.0
 70
     8
 71
     3
 72
     8
 73
     4
 74
     0
 42
0.0000000001
 43
0.0000000001
 40
0.0
 40
0.0
 40
0.0
 40
0.0
 40
1.0
 40
1.0
 40
1.0
 40
1.0
 10
441.0492018840665
 20
229.9764535972938
 30
0.0
 10
440.648882011735
 20
228.8436555758726
 30
0.0
 10
440.4585730938974
 20
227.6473309832069
 30
0.0
 10
440.4876209910956
 20
226.4462299977888
 30
0.0
  0
SPLINE
  5
D0
330
70
100
AcDbEntity
  8
shade
 62
     6
420
 16711935
370
    25
100
AcDbSpline
210
0.0
220
0.0
230
1.0
 70
     8
 71
     3
 72
     8
 73
     4
 74
     0
 42
0.0000000001
 43
0.0000000001
 40
0.0
 40
0.0
 40
0.0
 40
0.0
 40
1.0
 40
1.0
 40
1.0
 40
1.0
 10
442.2099608348984
 20
230.3974604846808
 30
0.0
 10
441.8201206302311
 20
229.6056260917879
 30
0.0
 10
441.5701258395547
 20
228.752349270385
 30
0.0
 10
441.4710230611119
 20
227.8753340309086
 30
0.0
  0
LINE
  5
D1
330
70
100
AcDbEntity
  8
shade
 62
     6
420
 16711935
370
    25
100
AcDbLine
 10
441.1401164194564
 20
229.8241690763344
 30
0.0
 11
441.2724153721384
 21
229.8779222665277
 31
0.0
  0
LINE
  5
D2
330
70
100
AcDbEntity
  8
shade
 62
     6
420
 16711935
370
    25
100
AcDbLine
 10
442.5233298119856
 20
231.6493415967835
 30
0.0
 11
442.4028647421169
 21
231.6419833502156
 31
0.0
  0
SPLINE
  5
D3
330
70
100
AcDbEntity
  8
shade
 62
     6
420
 16711935
370
    25
100
AcDbSpline
210
0.0
220
0.0
230
1.0
 70
     8
 71
     3
 72
     8
 73
     4
 74
     0
 42
0.0000000001
 43
0.0000000001
 40
0.0
 40
0.0
 40
0.0
 40
0.0
 40
1.0
 40
1.0
 40
1.0
 40
1.0
 10
442.4028647421169
 20
232.6817261229853
 30
0.0
 10
441.8890965466192
 20
232.0054851204258
 30
0.0
 10
441.4646803332244
 20
231.2658124503193
 30
0.0
 10
441.1401164194564
 20
230.4810080682801
 30
0.0
  0
SPLINE
  5
D4
330
70
100
AcDbEntity
  8
shade
 62
     6
420
 16711935
370
    25
100
AcDbSpline
210
0.0
220
0.0
230
1.0
 70
     8
 71
     3
 72
     8
 73
     4
 74
     0
 42
0.0000000001
 43
0.0000000001
 40
0.0
 40
0.0
 40
0.0
 40
0.0
 40
1.0
 40
1.0
 40
1.0
 40
1.0
 10
442.5233298119856
 20
232.6950163482981
 30
0.0
 10
442.0178277776682
 20
232.0356185894228
 30
0.0
 10
441.5975376440047
 20
231.3150789698859
 30
0.0
 10
441.2724153721384
 20
230.5504658524125
 30
0.0
  0
SPLINE
  5
D5
330
70
100
AcDbEntity
  8
shade
 62
     6
420
 16711935
370
    25
100
AcDbSpline
210
0.0
220
0.0
230
1.0
 70
     8
 71
     3
 72
    41
 73
    37
 74
     0
 42
0.0000000001
 43
0.0000000001
 40
0.0
 40
0.0
 40
0.0
 40
0.0
 40
1.0
 40
1.0
 40
1.0
 40
2.0
 40
2.0
 40
2.0
 40
3.0
 40
3.0
 40
3.0
 40
4.0
 40
4.0
 40
4.0
 40
5.0
 40
5.0
 40
5.0
 40
6.0
 40
6.0
 40
6.0
 40
7.0
 40
7.0
 40
7.0
 40
8.0
 40
8.0
 40
8.0
 40
9.0
 40
9.0
 40
9.0
 40
10.0
 40
10.0
 40
10.0
 40
11.0
 40
11.0
 40
11.0
 40
12.0
 40
12.0
 40
12.0
 40
12.0
 10
440.4521021858104
 20
227.8915425659856
 30
0.0
 10
440.4447815951949
 20
227.913275250325
 30
0.0
 10
440.4374854304799
 20
227.9350161548203
 30
0.0
 10
440.4302137055158
 20
227.9567652382319
 30
0.0
 10
440.418307521767
 20
227.9671737966337
 30
0.0
 10
440.4111505304318
 20
227.9889672100383
 30
0.0
 10
440.4041170595259
 20
228.010800607691
 30
0.0
 10
440.3872112475883
 20
228.0374444225234
 30
0.0
 10
440.3754887021539
 20
228.0756283874343
 30
0.0
 10
440.3643531847961
 20
228.1139852156051
 30
0.0
 10
440.3452422953574
 20
228.1325849772139
 30
0.0
 10
440.3350545996769
 20
228.1713444336445
 30
0.0
 10
440.3260290048783
 20
228.2103817175145
 30
0.0
 10
440.309665991711
 20
228.2286011884892
 30
0.0
 10
440.3018821597596
 20
228.2671943805983
 30
0.0
 10
440.2955347214443
 20
228.3060359864807
 30
0.0
 10
440.2828857724434
 20
228.3250596383692
 30
0.0
 10
440.2778975183644
 20
228.3643382977599
 30
0.0
 10
440.2747763924589
 20
228.4037869674172
 30
0.0
 10
440.2652757967365
 20
228.4380409654644
 30
0.0
 10
440.2634313035777
 20
228.4928715133039
 30
0.0
 10
440.2649390637635
 20
228.5476611298737
 30
0.0
 10
440.2620206907863
 20
228.5741932787053
 30
0.0
 10
440.2653649031383
 20
228.6290667973542
 30
0.0
 10
440.2716885998341
 20
228.6836361590856
 30
0.0
 10
440.279129912779
 20
228.7295867291785
 30
0.0
 10
440.2916509748897
 20
228.8035383011382
 30
0.0
 10
440.309377366263
 20
228.8763199502523
 30
0.0
 10
440.3298122403163
 20
228.9101309963785
 30
0.0
 10
440.3503870446225
 20
228.9816070932508
 30
0.0
 10
440.3755181186447
 20
229.0515285127916
 30
0.0
 10
440.398380142998
 20
229.0517677546788
 30
0.0
 10
440.4125294888415
 20
229.0893226633308
 30
0.0
 10
440.4279505101552
 20
229.1263608243336
 30
0.0
 10
440.4510346220991
 20
229.1433942152963
 30
0.0
 10
440.4672119577653
 20
229.1797458101422
 30
0.0
 10
440.4845711113167
 20
229.2155361545402
 30
0.0
  0
SPLINE
  5
D6
330
70
100
AcDbEntity
  8
shade
 62
     6
420
 16711935
370
    25
100
AcDbSpline
210
0.0
220
0.0
230
1.0
 70
     8
 71
     3
 72
   107
 73
   103
 74
     0
 42
0.0000000001
 43
0.0000000001
 40
0.0
 40
0.0
 40
0.0
 40
0.0
 40
1.0
 40
1.0
 40
1.0
 40
2.0
 40
2.0
 40
2.0
 40
3.0
 40
3.0
 40
3.0
 40
4.0
 40
4.0
 40
4.0
 40
5.0
 40
5.0
 40
5.0
 40
6.0
 40
6.0
 40
6.0
 40
7.0
 40
7.0
 40
7.0
 40
8.0
 40
8.0
 40
8.0
 40
9.0
 40
9.0
 40
9.0
 40
10.0
 40
10.0
 40
10.0
 40
11.0
 40
11.0
 40
11.0
 40
12.0
 40
12.0
 40
12.0
 40
13.0
 40
13.0
 40
13.0
 40
14.0
 40
14.0
 40
14.0
 40
15.0
 40
15.0
 40
15.0
 40
16.0
 40
16.0
 40
16.0
 40
17.0
 40
17.0
 40
17.0
 40
18.0
 40
18.0
 40
18.0
 40
19.0
 40
19.0
 40
19.0
 40
20.0
 40
20.0
 40
20.0
 40
21.0
 40
21.0
 40
21.0
 40
22.0
 40
22.0
 40
22.0
 40
23.0
 40
23.0
 40
23.0
 40
24.0
 40
24.0
 40
24.0
 40
25.0
 40
25.0
 40
25.0
 40
26.0
 40
26.0
 40
26.0
 40
27.0
 40
27.0
 40
27.0
 40
28.0
 40
28.0
 40
28.0
 40
29.0
 40
29.0
 40
29.0
 40
30.0
 40
30.0
 40
30.0
 40
31.0
 40
31.0
 40
31.0
 40
32.0
 40
32.0
 40
32.0
 40
33.0
 40
33.0
 40
33.0
 40
34.0
 40
34.0
 40
34.0
 40
34.0
 10
456.2744409274138
 20
231.808934033336
 30
0.0
 10
456.2985657606255
 20
231.7020892891085
 30
0.0
 10
456.2985257604071
 20
231.5912055618724
 30
0.0
 10
456.2743238469683
 20
231.4843782511233
 30
0.0
 10
456.2727543719665
 20
231.4287292498297
 30
0.0
 10
456.2356660110455
 20
231.323488619035
 30
0.0
 10
456.1797559438704
 20
231.2280885130702
 30
0.0
 10
456.149275385286
 20
231.2441166479521
 30
0.0
 10
456.1263869227642
 20
231.2058986291461
 30
0.0
 10
456.1012261699413
 20
231.1691873082611
 30
0.0
 10
456.0639772144682
 20
231.1535417680985
 30
0.0
 10
456.0386076035571
 20
231.1180346632304
 30
0.0
 10
456.0122383298982
 20
231.0832747092649
 30
0.0
 10
455.9160534373259
 20
230.995070282168
 30
0.0
 10
455.8288629057293
 20
230.8929407343365
 30
0.0
 10
455.7357695116253
 20
230.7963300483372
 30
0.0
 10
455.5939388071685
 20
230.7574640068233
 30
0.0
 10
455.4993002932947
 20
230.6665127718813
 30
0.0
 10
455.4011502760314
 20
230.5794411777716
 30
0.0
 10
455.2464109941166
 20
230.5427564972519
 30
0.0
 10
455.1465410151827
 20
230.4596223375278
 30
0.0
 10
455.0442955880749
 20
230.3794731095522
 30
0.0
 10
454.8814213250824
 20
230.3453786402995
 30
0.0
 10
454.7793284520435
 20
230.2673281944792
 30
0.0
 10
454.6765419867988
 20
230.1901977487742
 30
0.0
 10
454.6765419867988
 20
230.1901977487742
 30
0.0
 10
453.909004918985
 20
229.8780147341799
 30
0.0
 10
453.909004918985
 20
229.8780147341799
 30
0.0
 10
453.909004918985
 20
229.8780147341799
 30
0.0
 10
453.201790697974
 20
229.533508924018
 30
0.0
 10
453.201790697974
 20
229.533508924018
 30
0.0
 10
453.201790697974
 20
229.533508924018
 30
0.0
 10
452.4912202104206
 20
229.1967510823106
 30
0.0
 10
452.4912202104206
 20
229.1967510823106
 30
0.0
 10
452.4912202104206
 20
229.1967510823106
 30
0.0
 10
451.7776788320734
 20
228.8665990750887
 30
0.0
 10
451.7776788320734
 20
228.8665990750887
 30
0.0
 10
451.6793091360717
 20
228.8006058020583
 30
0.0
 10
451.5808021452736
 20
228.7348174114695
 30
0.0
 10
451.4821585000506
 20
228.6692343310221
 30
0.0
 10
451.3214011649886
 20
228.6381839878861
 30
0.0
 10
451.2226874576618
 20
228.5728647482681
 30
0.0
 10
451.1238563822702
 20
228.5077234028379
 30
0.0
 10
451.1238563822702
 20
228.5077234028379
 30
0.0
 10
450.3432249068596
 20
228.2215440280328
 30
0.0
 10
450.3432249068596
 20
228.2215440280328
 30
0.0
 10
450.3432249068596
 20
228.2215440280328
 30
0.0
 10
448.9015119294688
 20
227.5892067108663
 30
0.0
 10
448.9015119294688
 20
227.5892067108663
 30
0.0
 10
448.9015119294688
 20
227.5892067108663
 30
0.0
 10
446.1992033254566
 20
226.4169322704633
 30
0.0
 10
446.1992033254566
 20
226.4169322704633
 30
0.0
 10
446.1992033254566
 20
226.4169322704633
 30
0.0
 10
444.8466495708207
 20
225.8282709125232
 30
0.0
 10
444.8466495708207
 20
225.8282709125232
 30
0.0
 10
444.8466495708207
 20
225.8282709125232
 30
0.0
 10
443.4953291714719
 20
225.2340831600142
 30
0.0
 10
443.4953291714719
 20
225.2340831600142
 30
0.0
 10
443.4953291714719
 20
225.2340831600142
 30
0.0
 10
442.9820285257004
 20
225.0056779916417
 30
0.0
 10
442.9820285257004
 20
225.0056779916417
 30
0.0
 10
442.9820285257004
 20
225.0056779916417
 30
0.0
 10
442.4706394427438
 20
224.7743641685361
 30
0.0
 10
442.4706394427438
 20
224.7743641685361
 30
0.0
 10
442.4706394427438
 20
224.7743641685361
 30
0.0
 10
441.9626596564058
 20
224.5384506078699
 30
0.0
 10
441.9626596564058
 20
224.5384506078699
 30
0.0
 10
441.8235263672483
 20
224.4421796180973
 30
0.0
 10
441.6852123980093
 20
224.3447298777933
 30
0.0
 10
441.5477326834204
 20
224.2461119092773
 30
0.0
 10
441.3220545364382
 20
224.1972460656971
 30
0.0
 10
441.185428408571
 20
224.096563031195
 30
0.0
 10
441.0499647792294
 20
223.9943304474435
 30
0.0
 10
440.7593967864254
 20
223.8919172792329
 30
0.0
 10
440.5589571829848
 20
223.7337463476141
 30
0.0
 10
440.361718750579
 20
223.5716407785704
 30
0.0
 10
440.0348585161342
 20
223.4882788579147
 30
0.0
 10
439.8409278225813
 20
223.3192772233752
 30
0.0
 10
439.6515578569069
 20
223.1452466506112
 30
0.0
 10
439.3635382142648
 20
223.0804010089442
 30
0.0
 10
439.2056609218349
 20
222.924875849591
 30
0.0
 10
439.0529367414981
 20
222.7643674362453
 30
0.0
 10
438.7958634806314
 20
222.6801648456774
 30
0.0
 10
438.6524302181966
 20
222.5076059781184
 30
0.0
 10
438.5207799902388
 20
222.3261965445552
 30
0.0
 10
438.3675332618969
 20
222.3338876148793
 30
0.0
 10
438.315398965031
 20
222.2541952984389
 30
0.0
 10
438.2673949218554
 20
222.1720195452975
 30
0.0
 10
438.182805132438
 20
222.1289281390991
 30
0.0
 10
438.1431522803545
 20
222.0404643998471
 30
0.0
 10
438.1138345222356
 20
221.9483837506914
 30
0.0
 10
438.0607178720287
 20
221.926707238844
 30
0.0
 10
438.0430692549723
 20
221.8605280391479
 30
0.0
 10
438.0302124346526
 20
221.7933425729396
 30
0.0
 10
438.0017050994324
 20
221.7590869991519
 30
0.0
 10
437.9913703525327
 20
221.6903919924274
 30
0.0
 10
437.9852241194215
 20
221.6212604239707
 30
0.0
 10
437.9697229709307
 20
221.5980164286338
 30
0.0
 10
437.9668303737765
 20
221.5391106644653
 30
0.0
 10
437.9674453362657
 20
221.4801892722616
 30
0.0
 10
437.9628277488672
 20
221.4517485481565
 30
0.0
 10
437.9690563467709
 20
221.392942371627
 30
0.0
 10
437.9819828602348
 20
221.3354389326818
 30
0.0
  0
SPLINE
  5
D7
330
70
100
AcDbEntity
  8
shade
 62
     6
420
 16711935
370
    25
100
AcDbSpline
210
0.0
220
0.0
230
1.0
 70
     8
 71
     3
 72
   167
 73
   163
 74
     0
 42
0.0000000001
 43
0.0000000001
 40
0.0
 40
0.0
 40
0.0
 40
0.0
 40
1.0
 40
1.0
 40
1.0
 40
2.0
 40
2.0
 40
2.0
 40
3.0
 40
3.0
 40
3.0
 40
4.0
 40
4.0
 40
4.0
 40
5.0
 40
5.0
 40
5.0
 40
6.0
 40
6.0
 40
6.0
 40
7.0
 40
7.0
 40
7.0
 40
8.0
 40
8.0
 40
8.0
 40
9.0
 40
9.0
 40
9.0
 40
10.0
 40
10.0
 40
10.0
 40
11.0
 40
11.0
 40
11.0
 40
12.0
 40
12.0
 40
12.0
 40
13.0
 40
13.0
 40
13.0
 40
14.0
 40
14.0
 40
14.0
 40
15.0
 40
15.0
 40
15.0
 40
16.0
 40
16.0
 40
16.0
 40
17.0
 40
17.0
 40
17.0
 40
18.0
 40
18.0
 40
18.0
 40
19.0
 40
19.0
 40
19.0
 40
20.0
 40
20.0
 40
20.0
 40
21.0
 40
21.0
 40
21.0
 40
22.0
 40
22.0
 40
22.0
 40
23.0
 40
23.0
 40
23.0
 40
24.0
 40
24.0
 40
24.0
 40
25.0
 40
25.0
 40
25.0
 40
26.0
 40
26.0
 40
26.0
 40
27.0
 40
27.0
 40
27.0
 40
28.0
 40
28.0
 40
28.0
 40
29.0
 40
29.0
 40
29.0
 40
30.0
 40
30.0
 40
30.0
 40
31.0
 40
31.0
 40
31.0
 40
32.0
 40
32.0
 40
32.0
 40
33.0
 40
33.0
 40
33.0
 40
34.0
 40
34.0
 40
34.0
 40
35.0
 40
35.0
 40
35.0
 40
36.0
 40
36.0
 40
36.0
 40
37.0
 40
37.0
 40
37.0
 40
38.0
 40
38.0
 40
38.0
 40
39.0
 40
39.0
 40
39.0
 40
40.0
 40
40.0
 40
40.0
 40
41.0
 40
41.0
 40
41.0
 40
42.0
 40
42.0
 40
42.0
 40
43.0
 40
43.0
 40
43.0
 40
44.0
 40
44.0
 40
44.0
 40
45.0
 40
45.0
 40
45.0
 40
46.0
 40
46.0
 40
46.0
 40
47.0
 40
47.0
 40
47.0
 40
48.0
 40
48.0
 40
48.0
 40
49.0
 40
49.0
 40
49.0
 40
50.0
 40
50.0
 40
50.0
 40
51.0
 40
51.0
 40
51.0
 40
52.0
 40
52.0
 40
52.0
 40
53.0
 40
53.0
 40
53.0
 40
54.0
 40
54.0
 40
54.0
 40
54.0
 10
453.3660962602663
 20
232.9924550381102
 30
0.0
 10
453.4298348087087
 20
232.9673579138832
 30
0.0
 10
453.4943061069288
 20
232.944163141033
 30
0.0
 10
453.5594245496195
 20
232.9229015178351
 30
0.0
 10
453.6645476671282
 20
232.9155254490923
 30
0.0
 10
453.7295648297837
 20
232.8955202398554
 30
0.0
 10
453.7947219499626
 20
232.8759786883928
 30
0.0
 10
453.7947219499626
 20
232.8759786883928
 30
0.0
 10
454.2710731061354
 20
232.7954778124514
 30
0.0
 10
454.2710731061354
 20
232.7954778124514
 30
0.0
 10
454.2710731061354
 20
232.7954778124514
 30
0.0
 10
454.7048129188422
 20
232.6977448755053
 30
0.0
 10
454.7048129188422
 20
232.6977448755053
 30
0.0
 10
454.8379896338448
 20
232.651973270027
 30
0.0
 10
454.9699048969732
 20
232.6026104953886
 30
0.0
 10
455.1004142099071
 20
232.5497106228202
 30
0.0
 10
455.3152436969305
 20
232.519265339469
 30
0.0
 10
455.441020261255
 20
232.4537402735661
 30
0.0
 10
455.5604493125535
 20
232.3777459539415
 30
0.0
 10
455.7341490753601
 20
232.3448841626801
 30
0.0
 10
455.8193832126407
 20
232.274838303156
 30
0.0
 10
455.8970258460078
 20
232.1968470586885
 30
0.0
 10
456.0337181841688
 20
232.1471622959323
 30
0.0
 10
456.0972908979904
 20
232.0519095013386
 30
0.0
 10
456.1419747199127
 20
231.9475107355434
 30
0.0
 10
456.2264462978335
 20
231.9098240602528
 30
0.0
 10
456.2490748688055
 20
231.8255188719418
 30
0.0
 10
456.2578117455916
 20
231.7392338213446
 30
0.0
 10
456.2929782650492
 20
231.6911697407612
 30
0.0
 10
456.290086526709
 20
231.6010101650142
 30
0.0
 10
456.2713613110364
 20
231.5134979607381
 30
0.0
 10
456.2691106422988
 20
231.4901479210248
 30
0.0
 10
456.2499825857726
 20
231.4233065521534
 30
0.0
 10
456.222521211889
 20
231.3597492226957
 30
0.0
 10
456.1916235033786
 20
231.3319373037628
 30
0.0
 10
456.1608022995054
 20
231.2714896714815
 30
0.0
 10
456.1240950918765
 20
231.2146326494468
 30
0.0
 10
456.0933549838622
 20
231.2223849487745
 30
0.0
 10
456.0771650587912
 20
231.1979487303211
 30
0.0
 10
456.0602138153182
 20
231.1740433506575
 30
0.0
 10
456.0338072496058
 20
231.1633422922001
 30
0.0
 10
456.0167178794007
 20
231.1399290880042
 30
0.0
 10
455.9992264826588
 20
231.1168174139036
 30
0.0
 10
455.9078745168748
 20
231.0220937501255
 30
0.0
 10
455.8206839851991
 20
230.9199642022941
 30
0.0
 10
455.7275905911343
 20
230.8233535162951
 30
0.0
 10
455.585759886639
 20
230.7844874747813
 30
0.0
 10
455.4911213728038
 20
230.6935362398389
 30
0.0
 10
455.3929713554627
 20
230.6064646457291
 30
0.0
 10
455.2382320736263
 20
230.5697799652095
 30
0.0
 10
455.1383620946532
 20
230.4866458054854
 30
0.0
 10
455.0361166675454
 20
230.4064965774706
 30
0.0
 10
454.8732424045921
 20
230.3724021082571
 30
0.0
 10
454.771149531514
 20
230.2943516624369
 30
0.0
 10
454.6683630662688
 20
230.2172212167318
 30
0.0
 10
454.6683630662688
 20
230.2172212167318
 30
0.0
 10
453.9008259985338
 20
229.9050382021375
 30
0.0
 10
453.9008259985338
 20
229.9050382021375
 30
0.0
 10
453.9008259985338
 20
229.9050382021375
 30
0.0
 10
453.1936117775229
 20
229.5605323919756
 30
0.0
 10
453.1936117775229
 20
229.5605323919756
 30
0.0
 10
453.1936117775229
 20
229.5605323919756
 30
0.0
 10
452.4830412898514
 20
229.2237745502681
 30
0.0
 10
452.4830412898514
 20
229.2237745502681
 30
0.0
 10
452.4830412898514
 20
229.2237745502681
 30
0.0
 10
451.7694999115433
 20
228.8936225430467
 30
0.0
 10
451.7694999115433
 20
228.8936225430467
 30
0.0
 10
451.6711302155421
 20
228.8276292700159
 30
0.0
 10
451.5726232247043
 20
228.7618408794271
 30
0.0
 10
451.4739795795603
 20
228.6962577989796
 30
0.0
 10
451.3132222444585
 20
228.6652074558045
 30
0.0
 10
451.2145085371708
 20
228.5998882162257
 30
0.0
 10
451.1156774617017
 20
228.5347468707563
 30
0.0
 10
451.1156774617017
 20
228.5347468707563
 30
0.0
 10
450.3350459863301
 20
228.2485674959904
 30
0.0
 10
450.3350459863301
 20
228.2485674959904
 30
0.0
 10
450.3350459863301
 20
228.2485674959904
 30
0.0
 10
448.8933330088996
 20
227.6162301788239
 30
0.0
 10
448.8933330088996
 20
227.6162301788239
 30
0.0
 10
448.8933330088996
 20
227.6162301788239
 30
0.0
 10
446.1910244049266
 20
226.4439557384209
 30
0.0
 10
446.1910244049266
 20
226.4439557384209
 30
0.0
 10
446.1910244049266
 20
226.4439557384209
 30
0.0
 10
444.8384706502906
 20
225.8552943804807
 30
0.0
 10
444.8384706502906
 20
225.8552943804807
 30
0.0
 10
444.8384706502906
 20
225.8552943804807
 30
0.0
 10
443.4871502510207
 20
225.2611066279718
 30
0.0
 10
443.4871502510207
 20
225.2611066279718
 30
0.0
 10
443.4871502510207
 20
225.2611066279718
 30
0.0
 10
442.9738496051704
 20
225.0327014595997
 30
0.0
 10
442.9738496051704
 20
225.0327014595997
 30
0.0
 10
442.9738496051704
 20
225.0327014595997
 30
0.0
 10
442.4624605222535
 20
224.8013876364937
 30
0.0
 10
442.4624605222535
 20
224.8013876364937
 30
0.0
 10
442.4624605222535
 20
224.8013876364937
 30
0.0
 10
441.9544807358763
 20
224.5654740758276
 30
0.0
 10
441.9544807358763
 20
224.5654740758276
 30
0.0
 10
441.8153474467182
 20
224.4692030860552
 30
0.0
 10
441.6770334774798
 20
224.3717533457118
 30
0.0
 10
441.5395537629692
 20
224.273135377235
 30
0.0
 10
441.3138756159472
 20
224.224269533655
 30
0.0
 10
441.1772494880024
 20
224.1235864991526
 30
0.0
 10
441.0417858587
 20
224.0213539154011
 30
0.0
 10
440.7512178659351
 20
223.9189407471909
 30
0.0
 10
440.5507782624553
 20
223.7607698155717
 30
0.0
 10
440.353539830088
 20
223.5986642464494
 30
0.0
 10
440.0266795956439
 20
223.5153023258723
 30
0.0
 10
439.8327489020904
 20
223.3463006913328
 30
0.0
 10
439.6433789363774
 20
223.1722701185688
 30
0.0
 10
439.3553592937739
 20
223.1074244769018
 30
0.0
 10
439.1974820013446
 20
222.9518993175485
 30
0.0
 10
439.044757820968
 20
222.7913909042029
 30
0.0
 10
438.7876845600621
 20
222.7071883136351
 30
0.0
 10
438.6442512976665
 20
222.5346294460759
 30
0.0
 10
438.5126010697093
 20
222.3532200125128
 30
0.0
 10
438.3593543413668
 20
222.3609110827978
 30
0.0
 10
438.3072200445016
 20
222.2812187663573
 30
0.0
 10
438.2592160012861
 20
222.1990430132551
 30
0.0
 10
438.1746262119086
 20
222.1559516070569
 30
0.0
 10
438.1349733598636
 20
222.0674878678051
 30
0.0
 10
438.1056556017055
 20
221.9754072186491
 30
0.0
 10
438.0525389514986
 20
221.9537307068017
 30
0.0
 10
438.0348903344429
 20
221.887551507066
 30
0.0
 10
438.0220335141231
 20
221.8203660408972
 30
0.0
 10
437.9935261789421
 20
221.78611046707
 30
0.0
 10
437.9831914320416
 20
221.717415460385
 30
0.0
 10
437.9770451988914
 20
221.6482838919286
 30
0.0
 10
437.9626664762342
 20
221.6353376271665
 30
0.0
 10
437.9597017288983
 20
221.5868348612624
 30
0.0
 10
437.9590446557471
 20
221.5382734258836
 30
0.0
 10
437.9542724101922
 20
221.514823431416
 30
0.0
 10
437.9569092599326
 20
221.4661792923021
 30
0.0
 10
437.963607571017
 20
221.4180130490912
 30
0.0
 10
437.9729798015703
 20
221.3493914050978
 30
0.0
 10
438.0026693166516
 20
221.2586959221207
 30
0.0
 10
438.0498779256114
 20
221.1769233947633
 30
0.0
 10
438.0971685076463
 20
221.1427268104402
 30
0.0
 10
438.1452336634041
 20
221.064844737973
 30
0.0
 10
438.1998153647087
 20
220.9916001177584
 30
0.0
 10
438.311794283459
 20
220.9152607025693
 30
0.0
 10
438.4083921932383
 20
220.8044549434891
 30
0.0
 10
438.5142284279236
 20
220.7028534852789
 30
0.0
 10
438.6706662797276
 20
220.6659692694293
 30
0.0
 10
438.7793921502743
 20
220.5744181502625
 30
0.0
 10
438.893845336665
 20
220.4904024657934
 30
0.0
 10
439.0830454413356
 20
220.451359195852
 30
0.0
 10
439.2131760954874
 20
220.3687137600183
 30
0.0
 10
439.3479395654285
 20
220.2941503576669
 30
0.0
 10
439.559528441683
 20
220.2697053520999
 30
0.0
 10
439.6949074464857
 20
220.2028829514822
 30
0.0
 10
439.8324724993234
 20
220.1407945244222
 30
0.0
 10
439.9713651154478
 20
220.1538678506536
 30
0.0
 10
440.026572749938
 20
220.130267848893
 30
0.0
 10
440.082025085925
 20
220.1072530655677
 30
0.0
 10
440.1721127964796
 20
220.0971033533633
 30
0.0
 10
440.2276324205247
 20
220.074712180422
 30
0.0
 10
440.2833034252112
 20
220.0527019902029
 30
0.0
 10
440.2833034252112
 20
220.0527019902029
 30
0.0
 10
440.8565298924726
 20
219.926842455126
 30
0.0
 10
440.8565298924726
 20
219.926842455126
 30
0.0
 10
440.8565298924726
 20
219.926842455126
 30
0.0
 10
441.3949871918971
 20
219.7971913388526
 30
0.0
 10
441.3949871918971
 20
219.7971913388526
 30
0.0
  0
SPLINE
  5
D8
330
70
100
AcDbEntity
  8
shade
 62
     6
420
 16711935
370
    25
100
AcDbSpline
210
0.0
220
0.0
230
1.0
 70
     8
 71
     3
 72
   125
 73
   121
 74
     0
 42
0.0000000001
 43
0.0000000001
 40
0.0
 40
0.0
 40
0.0
 40
0.0
 40
1.0
 40
1.0
 40
1.0
 40
2.0
 40
2.0
 40
2.0
 40
3.0
 40
3.0
 40
3.0
 40
4.0
 40
4.0
 40
4.0
 40
5.0
 40
5.0
 40
5.0
 40
6.0
 40
6.0
 40
6.0
 40
7.0
 40
7.0
 40
7.0
 40
8.0
 40
8.0
 40
8.0
 40
9.0
 40
9.0
 40
9.0
 40
10.0
 40
10.0
 40
10.0
 40
11.0
 40
11.0
 40
11.0
 40
12.0
 40
12.0
 40
12.0
 40
13.0
 40
13.0
 40
13.0
 40
14.0
 40
14.0
 40
14.0
 40
15.0
 40
15.0
 40
15.0
 40
16.0
 40
16.0
 40
16.0
 40
17.0
 40
17.0
 40
17.0
 40
18.0
 40
18.0
 40
18.0
 40
19.0
 40
19.0
 40
19.0
 40
20.0
 40
20.0
 40
20.0
 40
21.0
 40
21.0
 40
21.0
 40
22.0
 40
22.0
 40
22.0
 40
23.0
 40
23.0
 40
23.0
 40
24.0
 40
24.0
 40
24.0
 40
25.0
 40
25.0
 40
25.0
 40
26.0
 40
26.0
 40
26.0
 40
27.0
 40
27.0
 40
27.0
 40
28.0
 40
28.0
 40
28.0
 40
29.0
 40
29.0
 40
29.0
 40
30.0
 40
30.0
 40
30.0
 40
31.0
 40
31.0
 40
31.0
 40
32.0
 40
32.0
 40
32.0
 40
33.0
 40
33.0
 40
33.0
 40
34.0
 40
34.0
 40
34.0
 40
35.0
 40
35.0
 40
35.0
 40
36.0
 40
36.0
 40
36.0
 40
37.0
 40
37.0
 40
37.0
 40
38.0
 40
38.0
 40
38.0
 40
39.0
 40
39.0
 40
39.0
 40
40.0
 40
40.0
 40
40.0
 40
40.0
 10
453.3933049768088
 20
233.0633627554444
 30
0.0
 10
453.3969459350997
 20
233.0259620108965
 30
0.0
 10
453.3846227734072
 20
232.9887629165562
 30
0.0
 10
453.3593725166173
 20
232.9609331338944
 30
0.0
 10
453.3400184772141
 20
232.9483190344276
 30
0.0
 10
453.3168200982649
 20
232.9199808403798
 30
0.0
 10
453.2919259410515
 20
232.8931685515869
 30
0.0
 10
453.2262632531022
 20
232.8521192448725
 30
0.0
 10
453.1676773684131
 20
232.8018670382993
 30
0.0
 10
453.1038825989403
 20
232.7588790496155
 30
0.0
 10
453.0095061434466
 20
232.7474934067818
 30
0.0
 10
452.946358762156
 20
232.7091194206656
 30
0.0
 10
452.8819064645225
 20
232.673027862278
 30
0.0
 10
452.6303386230783
 20
232.5772790728571
 30
0.0
 10
452.4132847754493
 20
232.4686532043076
 30
0.0
 10
452.1922672845362
 20
232.3685583027208
 30
0.0
 10
451.8385656918338
 20
232.3328595507208
 30
0.0
 10
451.6173120236797
 20
232.2402230187498
 30
0.0
 10
451.394421635
 20
232.1516510815547
 30
0.0
 10
451.0731007460728
 20
232.1306972443667
 30
0.0
 10
450.8899754884617
 20
232.0605386275796
 30
0.0
 10
450.7063829590126
 20
231.9916183935152
 30
0.0
 10
450.4075429130908
 20
231.9604801396925
 30
0.0
 10
450.2240174224178
 20
231.8923432986406
 30
0.0
 10
450.0403938634609
 20
231.8244714819306
 30
0.0
 10
449.5978967909294
 20
231.7396365451109
 30
0.0
 10
449.2709407737266
 20
231.6201019317166
 30
0.0
 10
448.9436197177859
 20
231.5015729689069
 30
0.0
 10
448.4100522275054
 20
231.4463837913134
 30
0.0
 10
448.0827414172915
 20
231.3286044714056
 30
0.0
 10
447.7553131282826
 20
231.2111523966748
 30
0.0
 10
447.7553131282826
 20
231.2111523966748
 30
0.0
 10
446.5100386653754
 20
231.0180628630438
 30
0.0
 10
446.5100386653754
 20
231.0180628630438
 30
0.0
 10
446.5100386653754
 20
231.0180628630438
 30
0.0
 10
445.4734726338158
 20
230.7572514278245
 30
0.0
 10
445.4734726338158
 20
230.7572514278245
 30
0.0
 10
445.4734726338158
 20
230.7572514278245
 30
0.0
 10
444.9569519743586
 20
230.6225296887164
 30
0.0
 10
444.9569519743586
 20
230.6225296887164
 30
0.0
 10
444.9569519743586
 20
230.6225296887164
 30
0.0
 10
444.4421562985143
 20
230.4838434877299
 30
0.0
 10
444.4421562985143
 20
230.4838434877299
 30
0.0
 10
444.4421562985143
 20
230.4838434877299
 30
0.0
 10
443.929498165852
 20
230.340377489343
 30
0.0
 10
443.929498165852
 20
230.340377489343
 30
0.0
 10
443.929498165852
 20
230.340377489343
 30
0.0
 10
443.4193901359402
 20
230.1913163577587
 30
0.0
 10
443.4193901359402
 20
230.1913163577587
 30
0.0
 10
443.4193901359402
 20
230.1913163577587
 30
0.0
 10
442.8149330573456
 20
230.0054017477018
 30
0.0
 10
442.8149330573456
 20
230.0054017477018
 30
0.0
 10
442.7319727061766
 20
229.9669699382896
 30
0.0
 10
442.6491838000308
 20
229.9281691181414
 30
0.0
 10
442.5665687983784
 20
229.8890004400063
 30
0.0
 10
442.4314708248004
 20
229.8697362185954
 30
0.0
 10
442.348968602385
 20
229.8300507576139
 30
0.0
 10
442.2666410544002
 20
229.7900051926874
 30
0.0
 10
442.2666410544002
 20
229.7900051926874
 30
0.0
 10
441.6174961565383
 20
229.6068609047476
 30
0.0
 10
441.6174961565383
 20
229.6068609047476
 30
0.0
 10
441.4153676502851
 20
229.5033210796926
 30
0.0
 10
441.2142680120482
 20
229.3977848968308
 30
0.0
 10
441.0142267406817
 20
229.2902678368569
 30
0.0
 10
440.686114827149
 20
229.2359523489
 30
0.0
 10
440.4872639583488
 20
229.1247689852591
 30
0.0
 10
440.2900142479682
 20
229.0107918996885
 30
0.0
 10
439.987251390248
 20
228.9647689212241
 30
0.0
 10
439.8127470113729
 20
228.859395144792
 30
0.0
 10
439.6399547521544
 20
228.7512611020557
 30
0.0
 10
439.3553118901106
 20
228.6954808813827
 30
0.0
 10
439.1843535550373
 20
228.5824205331656
 30
0.0
 10
439.0159091849011
 20
228.4656900959809
 30
0.0
 10
438.8219793296787
 20
228.4637163316743
 30
0.0
 10
438.7382620755402
 20
228.4037004979611
 30
0.0
 10
438.6552699022059
 20
228.3426921158368
 30
0.0
 10
438.5186897708702
 20
228.3120583999697
 30
0.0
 10
438.4362808912824
 20
228.2495127915709
 30
0.0
 10
438.3547217728972
 20
228.185870631376
 30
0.0
 10
438.2748694834035
 20
228.1965779712142
 30
0.0
 10
438.2477077897934
 20
228.17509769874
 30
0.0
 10
438.2206459886661
 20
228.1534920102633
 30
0.0
 10
438.1763235078405
 20
228.1429792359218
 30
0.0
 10
438.1493312767666
 20
228.1211906364558
 30
0.0
 10
438.1224439408121
 20
228.0992730420031
 30
0.0
 10
437.9770892817994
 20
228.0059273859641
 30
0.0
 10
437.8514184617166
 20
227.8981765263679
 30
0.0
 10
437.7284204174565
 20
227.7874209452326
 30
0.0
 10
437.5235408693259
 20
227.729953452774
 30
0.0
 10
437.4023590591522
 20
227.6149352381689
 30
0.0
 10
437.2839825809594
 20
227.4970656870475
 30
0.0
 10
437.1364817433091
 20
227.4863972728802
 30
0.0
 10
437.0681374488292
 20
227.416355996847
 30
0.0
 10
437.0007168550099
 20
227.3454309004585
 30
0.0
 10
436.8892265138295
 20
227.3102085511002
 30
0.0
 10
436.8223637541574
 20
227.2380782507079
 30
0.0
 10
436.7563883989652
 20
227.165140321474
 30
0.0
 10
436.6369320252965
 20
227.1175926567776
 30
0.0
 10
436.5613450025308
 20
227.0318667523847
 30
0.0
 10
436.4868469217993
 20
226.9451988338896
 30
0.0
 10
436.3635445933712
 20
226.9023666199333
 30
0.0
 10
436.2902624488504
 20
226.8139457667749
 30
0.0
 10
436.2186007346295
 20
226.7242186651263
 30
0.0
 10
436.0588307601753
 20
226.6290111355401
 30
0.0
 10
435.9529643344313
 20
226.4832086573033
 30
0.0
 10
435.8540470619782
 20
226.3327216726087
 30
0.0
 10
435.6820003213394
 20
226.2534810768782
 30
0.0
 10
435.5930822449139
 20
226.0932220852257
 30
0.0
 10
435.5171597303289
 20
225.9267247573358
 30
0.0
 10
435.4100045410147
 20
225.9135698466875
 30
0.0
 10
435.3705894306511
 20
225.8192626202248
 30
0.0
 10
435.3354491516795
 20
225.7233349465499
 30
0.0
 10
435.2713842298225
 20
225.6747587337092
 30
0.0
 10
435.239662702892
 20
225.5762576905679
 30
0.0
 10
435.2129104941205
 20
225.476359178049
 30
0.0
 10
435.1524066233479
 20
225.3941990170395
 30
0.0
 10
435.1245140869131
 20
225.2591283274177
 30
0.0
 10
435.1063793200921
 20
225.1225832150094
 30
0.0
 10
435.0614024995498
 20
225.0539375256116
 30
0.0
 10
435.0523283772175
 20
224.9147272336438
 30
0.0
 10
435.0556994404891
 20
224.7755397525974
 30
0.0
  0
SPLINE
  5
D9
330
70
100
AcDbEntity
  8
shade
 62
     6
420
 16711935
370
    25
100
AcDbSpline
210
0.0
220
0.0
230
1.0
 70
     8
 71
     3
 72
   185
 73
   181
 74
     0
 42
0.0000000001
 43
0.0000000001
 40
0.0
 40
0.0
 40
0.0
 40
0.0
 40
1.0
 40
1.0
 40
1.0
 40
2.0
 40
2.0
 40
2.0
 40
3.0
 40
3.0
 40
3.0
 40
4.0
 40
4.0
 40
4.0
 40
5.0
 40
5.0
 40
5.0
 40
6.0
 40
6.0
 40
6.0
 40
7.0
 40
7.0
 40
7.0
 40
8.0
 40
8.0
 40
8.0
 40
9.0
 40
9.0
 40
9.0
 40
10.0
 40
10.0
 40
10.0
 40
11.0
 40
11.0
 40
11.0
 40
12.0
 40
12.0
 40
12.0
 40
13.0
 40
13.0
 40
13.0
 40
14.0
 40
14.0
 40
14.0
 40
15.0
 40
15.0
 40
15.0
 40
16.0
 40
16.0
 40
16.0
 40
17.0
 40
17.0
 40
17.0
 40
18.0
 40
18.0
 40
18.0
 40
19.0
 40
19.0
 40
19.0
 40
20.0
 40
20.0
 40
20.0
 40
21.0
 40
21.0
 40
21.0
 40
22.0
 40
22.0
 40
22.0
 40
23.0
 40
23.0
 40
23.0
 40
24.0
 40
24.0
 40
24.0
 40
25.0
 40
25.0
 40
25.0
 40
26.0
 40
26.0
 40
26.0
 40
27.0
 40
27.0
 40
27.0
 40
28.0
 40
28.0
 40
28.0
 40
29.0
 40
29.0
 40
29.0
 40
30.0
 40
30.0
 40
30.0
 40
31.0
 40
31.0
 40
31.0
 40
32.0
 40
32.0
 40
32.0
 40
33.0
 40
33.0
 40
33.0
 40
34.0
 40
34.0
 40
34.0
 40
35.0
 40
35.0
 40
35.0
 40
36.0
 40
36.0
 40
36.0
 40
37.0
 40
37.0
 40
37.0
 40
38.0
 40
38.0
 40
38.0
 40
39.0
 40
39.0
 40
39.0
 40
40.0
 40
40.0
 40
40.0
 40
41.0
 40
41.0
 40
41.0
 40
42.0
 40
42.0
 40
42.0
 40
43.0
 40
43.0
 40
43.0
 40
44.0
 40
44.0
 40
44.0
 40
45.0
 40
45.0
 40
45.0
 40
46.0
 40
46.0
 40
46.0
 40
47.0
 40
47.0
 40
47.0
 40
48.0
 40
48.0
 40
48.0
 40
49.0
 40
49.0
 40
49.0
 40
50.0
 40
50.0
 40
50.0
 40
51.0
 40
51.0
 40
51.0
 40
52.0
 40
52.0
 40
52.0
 40
53.0
 40
53.0
 40
53.0
 40
54.0
 40
54.0
 40
54.0
 40
55.0
 40
55.0
 40
55.0
 40
56.0
 40
56.0
 40
56.0
 40
57.0
 40
57.0
 40
57.0
 40
58.0
 40
58.0
 40
58.0
 40
59.0
 40
59.0
 40
59.0
 40
60.0
 40
60.0
 40
60.0
 40
60.0
 10
451.3594872235137
 20
233.6382122092783
 30
0.0
 10
451.4702452012198
 20
233.6188557562743
 30
0.0
 10
451.5809063349627
 20
233.5989491896946
 30
0.0
 10
451.6914665280831
 20
233.5784932464785
 30
0.0
 10
451.8720478078024
 20
233.5679090435514
 30
0.0
 10
451.9828067891912
 20
233.5481215909143
 30
0.0
 10
452.0937212491737
 20
233.5292361761754
 30
0.0
 10
452.2676820583606
 20
233.5226589161607
 30
0.0
 10
452.3716514247092
 20
233.5046347683393
 30
0.0
 10
452.4755053138979
 20
233.4859625408355
 30
0.0
 10
452.644967834167
 20
233.4761216141249
 30
0.0
 10
452.7468163063165
 20
233.4482047270888
 30
0.0
 10
452.8456606973776
 20
233.4115981360896
 30
0.0
 10
452.9614533936134
 20
233.4008369206252
 30
0.0
 10
453.0108987487781
 20
233.3774393679293
 30
0.0
 10
453.058918451184
 20
233.35132986791
 30
0.0
 10
453.1390776246336
 20
233.3348463499515
 30
0.0
 10
453.1833997293182
 20
233.3012298333404
 30
0.0
 10
453.2225961801644
 20
233.2621146199647
 30
0.0
 10
453.2691775340314
 20
233.259038574489
 30
0.0
 10
453.2843562045499
 20
233.2407138055326
 30
0.0
 10
453.298060666133
 20
233.2213049288453
 30
0.0
 10
453.3226049388773
 20
233.2102481589594
 30
0.0
 10
453.3349350165555
 20
233.1890835297337
 30
0.0
 10
453.3452936384078
 20
233.1669418425231
 30
0.0
 10
453.3627711329422
 20
233.1595447186651
 30
0.0
 10
453.3700162133814
 20
233.1411873045942
 30
0.0
 10
453.3758568523068
 20
233.122364987122
 30
0.0
 10
453.3875282325165
 20
233.1125976520596
 30
0.0
 10
453.3905879838822
 20
233.0926992067944
 30
0.0
 10
453.3903147759549
 20
233.0727065754257
 30
0.0
 10
453.3951262143562
 20
233.0587504831386
 30
0.0
 10
453.3888439943854
 20
233.0353632119556
 30
0.0
 10
453.3761799436939
 20
233.015352794629
 30
0.0
 10
453.3661865133752
 20
233.0063355669741
 30
0.0
 10
453.3535557538605
 20
232.986932142165
 30
0.0
 10
453.3390375083253
 20
232.968975899663
 30
0.0
 10
453.2770040686757
 20
232.9092593175428
 30
0.0
 10
453.211606059455
 20
232.8473727654488
 30
0.0
 10
453.1383025206408
 20
232.7959123610512
 30
0.0
 10
453.0337110703651
 20
232.7837155794512
 30
0.0
 10
452.9614187636972
 20
232.7386023079359
 30
0.0
 10
452.8871828863326
 20
232.6968546129306
 30
0.0
 10
452.7367318880299
 20
232.6636412384862
 30
0.0
 10
452.629328690119
 20
232.6074364941059
 30
0.0
 10
452.5207989883939
 20
232.5534680849854
 30
0.0
 10
452.3455906578721
 20
232.5308972827291
 30
0.0
 10
452.2366585333012
 20
232.4795323426688
 30
0.0
 10
452.126948661316
 20
232.4298678617935
 30
0.0
 10
451.9490181000358
 20
232.408505012984
 30
0.0
 10
451.83876333779
 20
232.3608826686339
 30
0.0
 10
451.7279046521846
 20
232.3146967605727
 30
0.0
 10
451.5480003352693
 20
232.2947065297777
 30
0.0
 10
451.4370029191693
 20
232.2499903348994
 30
0.0
 10
451.3256586159526
 20
232.206150093171
 30
0.0
 10
451.0731007460728
 20
232.1585523975178
 30
0.0
 10
450.8899754884617
 20
232.0883937807303
 30
0.0
 10
450.7063829590126
 20
232.0194735466662
 30
0.0
 10
450.4075429130908
 20
231.9883352928432
 30
0.0
 10
450.2240174224178
 20
231.9201984517916
 30
0.0
 10
450.0403938634609
 20
231.8523266351599
 30
0.0
 10
449.5978967909294
 20
231.7674916982619
 30
0.0
 10
449.2709407737266
 20
231.6479570849068
 30
0.0
 10
448.9436197177859
 20
231.5294281221365
 30
0.0
 10
448.4100522275451
 20
231.4742389445036
 30
0.0
 10
448.0827414172915
 20
231.3564596245566
 30
0.0
 10
447.7553131282826
 20
231.2390075499042
 30
0.0
 10
447.7553131282826
 20
231.2390075499042
 30
0.0
 10
446.5100386653754
 20
231.0459180162339
 30
0.0
 10
446.5100386653754
 20
231.0459180162339
 30
0.0
 10
446.5100386653754
 20
231.0459180162339
 30
0.0
 10
445.4734726338158
 20
230.7851065809755
 30
0.0
 10
445.4734726338158
 20
230.7851065809755
 30
0.0
 10
445.4734726338158
 20
230.7851065809755
 30
0.0
 10
444.9569519743586
 20
230.6503848419066
 30
0.0
 10
444.9569519743586
 20
230.6503848419066
 30
0.0
 10
444.9569519743586
 20
230.6503848419066
 30
0.0
 10
444.4421562985143
 20
230.5116986409592
 30
0.0
 10
444.4421562985143
 20
230.5116986409592
 30
0.0
 10
444.4421562985143
 20
230.5116986409592
 30
0.0
 10
443.929498165852
 20
230.3682326425331
 30
0.0
 10
443.929498165852
 20
230.3682326425331
 30
0.0
 10
443.929498165852
 20
230.3682326425331
 30
0.0
 10
443.4193901359402
 20
230.2191715109489
 30
0.0
 10
443.4193901359402
 20
230.2191715109489
 30
0.0
 10
443.4193901359402
 20
230.2191715109489
 30
0.0
 10
442.8149330573456
 20
230.033256900892
 30
0.0
 10
442.8149330573456
 20
230.033256900892
 30
0.0
 10
442.7319727061766
 20
229.9948250914406
 30
0.0
 10
442.6491838000308
 20
229.9560242713316
 30
0.0
 10
442.5665687983393
 20
229.9168555931964
 30
0.0
 10
442.4314708248004
 20
229.8975913717461
 30
0.0
 10
442.348968602385
 20
229.8579059107649
 30
0.0
 10
442.2666410544002
 20
229.8178603458776
 30
0.0
 10
442.2666410544002
 20
229.8178603458776
 30
0.0
 10
441.6174961565383
 20
229.6347160579377
 30
0.0
 10
441.6174961565383
 20
229.6347160579377
 30
0.0
 10
441.4153676502851
 20
229.5311762328828
 30
0.0
 10
441.2142680120482
 20
229.4256400499818
 30
0.0
 10
441.0142267406817
 20
229.318122990047
 30
0.0
 10
440.686114827149
 20
229.2638075020902
 30
0.0
 10
440.4872639583488
 20
229.1526241384101
 30
0.0
 10
440.2900142479682
 20
229.0386470529178
 30
0.0
 10
439.987251390248
 20
228.9926240744142
 30
0.0
 10
439.8127470113729
 20
228.8872502979431
 30
0.0
 10
439.6399547521544
 20
228.7791162552064
 30
0.0
 10
439.3553118901106
 20
228.7233360345334
 30
0.0
 10
439.1843535550373
 20
228.6102756863558
 30
0.0
 10
439.0159091849011
 20
228.4935452491711
 30
0.0
 10
438.8219793296787
 20
228.4915714848254
 30
0.0
 10
438.7382620755402
 20
228.4315556511122
 30
0.0
 10
438.6552699022059
 20
228.3705472690661
 30
0.0
 10
438.5186897708702
 20
228.339913553199
 30
0.0
 10
438.4362808912824
 20
228.2773679447611
 30
0.0
 10
438.3547217728972
 20
228.2137257846053
 30
0.0
 10
438.2748694834035
 20
228.2244331243652
 30
0.0
 10
438.2477077897934
 20
228.202952851891
 30
0.0
 10
438.2206459886661
 20
228.1813471634143
 30
0.0
 10
438.1763235078405
 20
228.1708343890725
 30
0.0
 10
438.1493312767666
 20
228.1490457896065
 30
0.0
 10
438.1224439408121
 20
228.1271281951932
 30
0.0
 10
437.9770892817994
 20
228.0337825391542
 30
0.0
 10
437.8514184617166
 20
227.926031679519
 30
0.0
 10
437.7284204174565
 20
227.8152760984228
 30
0.0
 10
437.5235408693259
 20
227.7578086059642
 30
0.0
 10
437.4023590591522
 20
227.642790391359
 30
0.0
 10
437.2839825809594
 20
227.5249208402376
 30
0.0
 10
437.0903375175037
 20
227.4681821463944
 30
0.0
 10
436.9774353671887
 20
227.3505024858141
 30
0.0
 10
436.8671041971068
 20
227.2304346927772
 30
0.0
 10
436.6830131739255
 20
227.1694335862199
 30
0.0
 10
436.5741513368834
 20
227.0461945277082
 30
0.0
 10
436.4676840078122
 20
226.920900889391
 30
0.0
 10
436.3501029078419
 20
226.9284226803449
 30
0.0
 10
436.3033185763671
 20
226.8722781289141
 30
0.0
 10
436.2570902081467
 20
226.8156772135218
 30
0.0
 10
436.1807643524556
 20
226.7879437081801
 30
0.0
 10
436.1352763642174
 20
226.7303959040845
 30
0.0
 10
436.0907356178678
 20
226.6721180041482
 30
0.0
 10
435.9862781756926
 20
226.6036261154269
 30
0.0
 10
435.9145663919821
 20
226.5029233867581
 30
0.0
 10
435.8464031075815
 20
226.3998300563529
 30
0.0
 10
435.7296486410018
 20
226.3468540437903
 30
0.0
 10
435.6656799970532
 20
226.2392381984486
 30
0.0
 10
435.6073115971976
 20
226.128576652152
 30
0.0
 10
435.4669681440123
 20
226.002868380079
 30
0.0
 10
435.3863941305307
 20
225.8147356191875
 30
0.0
 10
435.3228053010172
 20
225.6206205475951
 30
0.0
 10
435.1931091091405
 20
225.5165712818883
 30
0.0
 10
435.146525632352
 20
225.3120015855575
 30
0.0
 10
435.1232280614462
 20
225.1041550822171
 30
0.0
 10
435.0580407546423
 20
225.0561795261287
 30
0.0
 10
435.0504649681103
 20
224.9043542175327
 30
0.0
 10
435.0574178224961
 20
224.7528465799938
 30
0.0
 10
435.0455948077729
 20
224.6783142329298
 30
0.0
 10
435.0634694623649
 20
224.5266132445614
 30
0.0
 10
435.0969440694544
 20
224.3779998039699
 30
0.0
 10
435.124468755946
 20
224.3173945841022
 30
0.0
 10
435.16257367784
 20
224.180417308404
 30
0.0
 10
435.2120899058157
 20
224.0474135577796
 30
0.0
 10
435.2740421283606
 20
223.9876713972059
 30
0.0
 10
435.3286228066377
 20
223.8588495629626
 30
0.0
 10
435.3919534471988
 20
223.734286164374
 30
0.0
 10
435.5376042814259
 20
223.5631741419059
 30
0.0
 10
435.6842010184093
 20
223.3389253769896
 30
0.0
 10
435.8569337664481
 20
223.135492492903
 30
0.0
 10
436.092633782024
 20
223.0616546375493
 30
0.0
 10
436.2755013594495
 20
222.8816823789794
 30
0.0
 10
436.4756365879235
 20
222.7222550946506
 30
0.0
 10
436.634818171979
 20
222.7793314305446
 30
0.0
 10
436.6931833566304
 20
222.7355301902183
 30
0.0
 10
436.7525875463738
 20
222.6931673336668
 30
0.0
 10
436.8477916030764
 20
222.674970167397
 30
0.0
 10
436.9074366003243
 20
222.6340695392807
 30
0.0
 10
436.967679520655
 20
222.5940620393288
 30
0.0
 10
436.967679520655
 20
222.5940620393288
 30
0.0
 10
437.5929743837663
 20
222.3614637260415
 30
0.0
 10
437.5929743837663
 20
222.3614637260415
 30
0.0
 10
437.5929743837663
 20
222.3614637260415
 30
0.0
 10
438.1345530739563
 20
222.1215561167894
 30
0.0
 10
438.1345530739563
 20
222.1215561167894
 30
0.0
  0
SPLINE
  5
DA
330
70
100
AcDbEntity
  8
shade
 62
     6
420
 16711935
370
    25
100
AcDbSpline
210
0.0
220
0.0
230
1.0
 70
     8
 71
     3
 72
   104
 73
   100
 74
     0
 42
0.0000000001
 43
0.0000000001
 40
0.0
 40
0.0
 40
0.0
 40
0.0
 40
1.0
 40
1.0
 40
1.0
 40
2.0
 40
2.0
 40
2.0
 40
3.0
 40
3.0
 40
3.0
 40
4.0
 40
4.0
 40
4.0
 40
5.0
 40
5.0
 40
5.0
 40
6.0
 40
6.0
 40
6.0
 40
7.0
 40
7.0
 40
7.0
 40
8.0
 40
8.0
 40
8.0
 40
9.0
 40
9.0
 40
9.0
 40
10.0
 40
10.0
 40
10.0
 40
11.0
 40
11.0
 40
11.0
 40
12.0
 40
12.0
 40
12.0
 40
13.0
 40
13.0
 40
13.0
 40
14.0
 40
14.0
 40
14.0
 40
15.0
 40
15.0
 40
15.0
 40
16.0
 40
16.0
 40
16.0
 40
17.0
 40
17.0
 40
17.0
 40
18.0
 40
18.0
 40
18.0
 40
19.0
 40
19.0
 40
19.0
 40
20.0
 40
20.0
 40
20.0
 40
21.0
 40
21.0
 40
21.0
 40
22.0
 40
22.0
 40
22.0
 40
23.0
 40
23.0
 40
23.0
 40
24.0
 40
24.0
 40
24.0
 40
25.0
 40
25.0
 40
25.0
 40
26.0
 40
26.0
 40
26.0
 40
27.0
 40
27.0
 40
27.0
 40
28.0
 40
28.0
 40
28.0
 40
29.0
 40
29.0
 40
29.0
 40
30.0
 40
30.0
 40
30.0
 40
31.0
 40
31.0
 40
31.0
 40
32.0
 40
32.0
 40
32.0
 40
33.0
 40
33.0
 40
33.0
 40
33.0
 10
438.9307110952642
 20
231.3085677727071
 30
0.0
 10
438.9116543353251
 20
231.3673908716334
 30
0.0
 10
438.8938900065415
 20
231.4266248586065
 30
0.0
 10
438.8774309236652
 20
231.4862270034273
 30
0.0
 10
438.8485250474651
 20
231.5151709530376
 30
0.0
 10
438.8376438519066
 20
231.5763406945513
 30
0.0
 10
438.8329107326891
 20
231.63813612715
 30
0.0
 10
438.8196804249891
 20
231.6316457711971
 30
0.0
 10
438.8181982786099
 20
231.6561658254563
 30
0.0
 10
438.8178893344748
 20
231.6807146757668
 30
0.0
 10
438.8155035163455
 20
231.6925889493778
 30
0.0
 10
438.8163196445248
 20
231.7172019319887
 30
0.0
 10
438.818661101467
 20
231.7416930050694
 30
0.0
 10
438.8222240340777
 20
231.7832074458287
 30
0.0
 10
438.8352498804052
 20
231.8364744312841
 30
0.0
 10
438.8567547543726
 20
231.8865107156187
 30
0.0
 10
438.8777485319791
 20
231.9087382850808
 30
0.0
 10
438.9009544214155
 20
231.9568671605858
 30
0.0
 10
438.9285449182037
 20
232.0024842731413
 30
0.0
 10
438.9558635950487
 20
232.0037152518697
 30
0.0
 10
438.9724603211209
 20
232.0303389145826
 30
0.0
 10
438.9899261383114
 20
232.0563902995676
 30
0.0
 10
439.0169941571354
 20
232.0680650309427
 30
0.0
 10
439.034759922284
 20
232.0934897861398
 30
0.0
 10
439.0531215222023
 20
232.1184822110082
 30
0.0
 10
439.1164238502094
 20
232.1767594116751
 30
0.0
 10
439.1746033252228
 20
232.244159046003
 30
0.0
 10
439.2379278074162
 20
232.3065432646029
 30
0.0
 10
439.3322497033564
 20
232.3298906600716
 30
0.0
 10
439.3980643403558
 20
232.3857975899698
 30
0.0
 10
439.467804135068
 20
232.4365161441964
 30
0.0
 10
439.5861486070273
 20
232.4620883566924
 30
0.0
 10
439.6697059772633
 20
232.5136570910319
 30
0.0
 10
439.7564838269067
 20
232.5593558757027
 30
0.0
 10
439.8922019247219
 20
232.5731144943301
 30
0.0
 10
439.9793163507368
 20
232.6133011232669
 30
0.0
 10
440.0678613568877
 20
232.6501391782545
 30
0.0
 10
440.149894260745
 20
232.6388012890921
 30
0.0
 10
440.1780603614316
 20
232.6498652751773
 30
0.0
 10
440.2063241714095
 20
232.6606755061063
 30
0.0
 10
440.2522866399559
 20
232.6654731471061
 30
0.0
 10
440.2805785817943
 20
232.6760098662445
 30
0.0
 10
440.3089322258921
 20
232.6863786309012
 30
0.0
 10
440.3089322258921
 20
232.6863786309012
 30
0.0
 10
440.5331633777348
 20
232.7306251052611
 30
0.0
 10
440.5331633777348
 20
232.7306251052611
 30
0.0
 10
440.6123992506774
 20
232.7582218884527
 30
0.0
 10
440.6917078339325
 20
232.7856094612327
 30
0.0
 10
440.7710882987033
 20
232.8127875373176
 30
0.0
 10
440.9005131349062
 20
232.8254726201306
 30
0.0
 10
440.9800395955374
 20
232.8520558254965
 30
0.0
 10
441.0597332160702
 20
232.8781308810407
 30
0.0
 10
441.0597332160702
 20
232.8781308810407
 30
0.0
 10
441.3993400032161
 20
232.9260211322332
 30
0.0
 10
441.3993400032161
 20
232.9260211322332
 30
0.0
 10
441.5051292661356
 20
232.9579942148434
 30
0.0
 10
441.6114116594706
 20
232.988312360563
 30
0.0
 10
441.7181482648477
 20
233.0169644674411
 30
0.0
 10
441.8915500285554
 20
233.028234616596
 30
0.0
 10
441.9985111854678
 20
233.0546533837225
 30
0.0
 10
442.1058364131426
 20
233.0795265663383
 30
0.0
 10
442.3068229892328
 20
233.0951461440592
 30
0.0
 10
442.4408907203464
 20
233.1235107477107
 30
0.0
 10
442.5753305225257
 20
233.150022268303
 30
0.0
 10
442.794079018507
 20
233.1599919348323
 30
0.0
 10
442.9285387414559
 20
233.1848867297505
 30
0.0
 10
443.0631503840253
 20
233.2089389028756
 30
0.0
 10
443.2153396277374
 20
233.207363167329
 30
0.0
 10
443.2826851878919
 20
233.2191039135512
 30
0.0
 10
443.350050919825
 20
233.2307280589006
 30
0.0
 10
443.4599534636157
 20
233.2361139656773
 30
0.0
 10
443.5273105006854
 20
233.2476983478486
 30
0.0
 10
443.5946659335658
 20
233.2592920534848
 30
0.0
 10
443.5946659335658
 20
233.2592920534848
 30
0.0
 10
444.6832811051412
 20
233.3761437422875
 30
0.0
 10
444.6832811051412
 20
233.3761437422875
 30
0.0
 10
444.6832811051412
 20
233.3761437422875
 30
0.0
 10
445.2063841318603
 20
233.4350336804622
 30
0.0
 10
445.2063841318603
 20
233.4350336804622
 30
0.0
 10
445.2063841318603
 20
233.4350336804622
 30
0.0
 10
445.7300433701338
 20
233.4899949111333
 30
0.0
 10
445.7300433701338
 20
233.4899949111333
 30
0.0
 10
445.8045230432118
 20
233.50091819848
 30
0.0
 10
445.8790372463846
 20
233.5116047344867
 30
0.0
 10
445.9535848506013
 20
233.5220543572162
 30
0.0
 10
446.0751852061397
 20
233.5267026658257
 30
0.0
 10
446.1497467454068
 20
233.5368648514061
 30
0.0
 10
446.2243335215953
 20
233.546839219613
 30
0.0
 10
446.2243335215953
 20
233.546839219613
 30
0.0
 10
446.8135183067186
 20
233.5886777173804
 30
0.0
 10
446.8135183067186
 20
233.5886777173804
 30
0.0
 10
446.8135183067186
 20
233.5886777173804
 30
0.0
 10
447.8985645740519
 20
233.6776039219872
 30
0.0
 10
447.8985645740519
 20
233.6776039219872
 30
0.0
 10
447.8985645740519
 20
233.6776039219872
 30
0.0
 10
449.4397828860639
 20
233.802676595916
 30
0.0
 10
449.4397828860639
 20
233.802676595916
 30
0.0
 10
449.4397828860639
 20
233.802676595916
 30
0.0
 10
450.4600269303299
 20
233.8777677628371
 30
0.0
 10
450.4600269303299
 20
233.8777677628371
 30
0.0
  0
LINE
  5
DB
330
70
100
AcDbEntity
  8
shade
 62
     6
420
 16711935
370
    25
100
AcDbLine
 10
451.369565082689
 20
233.646651496616
 30
0.0
 11
450.6606702575376
 21
233.1157060338035
 31
0.0
  0
SPLINE
  5
DC
330
70
100
AcDbEntity
  8
shade
 62
     6
420
 16711935
370
    25
100
AcDbSpline
210
0.0
220
0.0
230
1.0
 70
     8
 71
     3
 72
    17
 73
    13
 74
     0
 42
0.0000000001
 43
0.0000000001
 40
0.0
 40
0.0
 40
0.0
 40
0.0
 40
1.0
 40
1.0
 40
1.0
 40
2.0
 40
2.0
 40
2.0
 40
3.0
 40
3.0
 40
3.0
 40
4.0
 40
4.0
 40
4.0
 40
4.0
 10
435.5597174052304
 20
228.6315552934699
 30
0.0
 10
435.5602653944321
 20
228.7197730702179
 30
0.0
 10
435.5661705262997
 20
228.8078761462577
 30
0.0
 10
435.5774001902085
 20
228.8953779809702
 30
0.0
 10
435.5871148263294
 20
228.9369351895585
 30
0.0
 10
435.602127877922
 20
229.023715381506
 30
0.0
 10
435.6226908077884
 20
229.1092560337435
 30
0.0
 10
435.6401073728276
 20
229.1165302890815
 30
0.0
 10
435.6537451600029
 20
229.1688367105027
 30
0.0
 10
435.6694730850875
 20
229.2205301515295
 30
0.0
 10
435.6917288421681
 20
229.2445063349835
 30
0.0
 10
435.7087677070614
 20
229.2953858230969
 30
0.0
 10
435.7278162887901
 20
229.3455246671919
 30
0.0
  0
SPLINE
  5
DD
330
70
100
AcDbEntity
  8
shade
 62
     6
420
 16711935
370
    25
100
AcDbSpline
210
0.0
220
0.0
230
1.0
 70
     8
 71
     3
 72
    47
 73
    43
 74
     0
 42
0.0000000001
 43
0.0000000001
 40
0.0
 40
0.0
 40
0.0
 40
0.0
 40
1.0
 40
1.0
 40
1.0
 40
2.0
 40
2.0
 40
2.0
 40
3.0
 40
3.0
 40
3.0
 40
4.0
 40
4.0
 40
4.0
 40
5.0
 40
5.0
 40
5.0
 40
6.0
 40
6.0
 40
6.0
 40
7.0
 40
7.0
 40
7.0
 40
8.0
 40
8.0
 40
8.0
 40
9.0
 40
9.0
 40
9.0
 40
10.0
 40
10.0
 40
10.0
 40
11.0
 40
11.0
 40
11.0
 40
12.0
 40
12.0
 40
12.0
 40
13.0
 40
13.0
 40
13.0
 40
14.0
 40
14.0
 40
14.0
 40
14.0
 10
435.7372764409782
 20
229.318676042156
 30
0.0
 10
435.7804346679432
 20
229.4463055117884
 30
0.0
 10
435.8338904522846
 20
229.5702177709931
 30
0.0
 10
435.8971162970783
 20
229.6891900644932
 30
0.0
 10
435.9839069970234
 20
229.740436704457
 30
0.0
 10
436.0521460233036
 20
229.8534144411887
 30
0.0
 10
436.1284161358897
 20
229.9609142011346
 30
0.0
 10
436.2273759438005
 20
229.9883805153047
 30
0.0
 10
436.293712022632
 20
230.0734338744451
 30
0.0
 10
436.3646542779469
 20
230.1545725560897
 30
0.0
 10
436.4726110286504
 20
230.1881652363594
 30
0.0
 10
436.5453996345189
 20
230.2647232821474
 30
0.0
 10
436.621518738837
 20
230.3378937531345
 30
0.0
 10
436.7485117624986
 20
230.376303539103
 30
0.0
 10
436.8352581681183
 20
230.4525957512158
 30
0.0
 10
436.9251978734467
 20
230.52500895765
 30
0.0
 10
437.0665175340048
 20
230.5542385944891
 30
0.0
 10
437.1574688090492
 20
230.6223444213753
 30
0.0
 10
437.2504863745954
 20
230.6875512843043
 30
0.0
 10
437.3687739200559
 20
230.6937788802135
 30
0.0
 10
437.4317981453652
 20
230.7358564212427
 30
0.0
 10
437.4955701291471
 20
230.7767802712253
 30
0.0
 10
437.59839593144
 20
230.7946808561232
 30
0.0
 10
437.662447514358
 20
230.834260355835
 30
0.0
 10
437.7270312272101
 20
230.8729586278767
 30
0.0
 10
437.7832477980414
 20
230.8614291476934
 30
0.0
 10
437.7993717867812
 20
230.870960452267
 30
0.0
 10
437.8155251353517
 20
230.880441825117
 30
0.0
 10
437.8418384619824
 20
230.8849012120237
 30
0.0
 10
437.8580082896325
 20
230.8943158437612
 30
0.0
 10
437.874204705775
 20
230.9036845851075
 30
0.0
 10
437.874204705775
 20
230.9036845851075
 30
0.0
 10
438.0020518085244
 20
230.9444809266153
 30
0.0
 10
438.0020518085244
 20
230.9444809266153
 30
0.0
 10
438.0663279304991
 20
230.9806266300014
 30
0.0
 10
438.1309092685579
 20
231.016226880524
 30
0.0
 10
438.1957888633158
 20
231.0512778420688
 30
0.0
 10
438.3011777979413
 20
231.0672337508423
 30
0.0
 10
438.3661087827228
 20
231.1017625169406
 30
0.0
 10
438.431194938311
 20
231.135997082935
 30
0.0
 10
438.431194938311
 20
231.135997082935
 30
0.0
 10
438.9307110952642
 20
231.2807126194774
 30
0.0
 10
438.9307110952642
 20
231.2807126194774
 30
0.0
  0
SPLINE
  5
DE
330
70
100
AcDbEntity
  8
shade
 62
     6
420
 16711935
370
    25
100
AcDbSpline
210
0.0
220
0.0
230
1.0
 70
     8
 71
     3
 72
    89
 73
    85
 74
     0
 42
0.0000000001
 43
0.0000000001
 40
0.0
 40
0.0
 40
0.0
 40
0.0
 40
1.0
 40
1.0
 40
1.0
 40
2.0
 40
2.0
 40
2.0
 40
3.0
 40
3.0
 40
3.0
 40
4.0
 40
4.0
 40
4.0
 40
5.0
 40
5.0
 40
5.0
 40
6.0
 40
6.0
 40
6.0
 40
7.0
 40
7.0
 40
7.0
 40
8.0
 40
8.0
 40
8.0
 40
9.0
 40
9.0
 40
9.0
 40
10.0
 40
10.0
 40
10.0
 40
11.0
 40
11.0
 40
11.0
 40
12.0
 40
12.0
 40
12.0
 40
13.0
 40
13.0
 40
13.0
 40
14.0
 40
14.0
 40
14.0
 40
15.0
 40
15.0
 40
15.0
 40
16.0
 40
16.0
 40
16.0
 40
17.0
 40
17.0
 40
17.0
 40
18.0
 40
18.0
 40
18.0
 40
19.0
 40
19.0
 40
19.0
 40
20.0
 40
20.0
 40
20.0
 40
21.0
 40
21.0
 40
21.0
 40
22.0
 40
22.0
 40
22.0
 40
23.0
 40
23.0
 40
23.0
 40
24.0
 40
24.0
 40
24.0
 40
25.0
 40
25.0
 40
25.0
 40
26.0
 40
26.0
 40
26.0
 40
27.0
 40
27.0
 40
27.0
 40
28.0
 40
28.0
 40
28.0
 40
28.0
 10
451.3719084870002
 20
233.6763339683041
 30
0.0
 10
451.3747419094052
 20
233.6704073815986
 30
0.0
 10
451.3758655828269
 20
233.6638077956901
 30
0.0
 10
451.3751531266632
 20
233.6572774726756
 30
0.0
 10
451.3766771149986
 20
233.6535214329852
 30
0.0
 10
451.3737291794845
 20
233.6472198829817
 30
0.0
 10
451.3687115031472
 20
233.642815409442
 30
0.0
 10
451.366848969098
 20
233.6440103373092
 30
0.0
 10
451.3649646424064
 20
233.6422593034777
 30
0.0
 10
451.3629776920736
 20
233.6406295094535
 30
0.0
 10
451.3599130175679
 20
233.6400135119311
 30
0.0
 10
451.3579435088358
 20
233.6384538867005
 30
0.0
 10
451.3559537922271
 20
233.6369203026633
 30
0.0
 10
451.3255108518865
 20
233.6153091690574
 30
0.0
 10
451.2947441181818
 20
233.594971393547
 30
0.0
 10
451.262653976668
 20
233.5768874956614
 30
0.0
 10
451.2126977056005
 20
233.5713261395315
 30
0.0
 10
451.1804831207683
 20
233.5553116771549
 30
0.0
 10
451.147691179213
 20
233.5405474255217
 30
0.0
 10
451.0750008641498
 20
233.5264308928116
 30
0.0
 10
451.0212202772693
 20
233.5057243805286
 30
0.0
 10
450.9665881014943
 20
233.4874745120605
 30
0.0
 10
450.879000346548
 20
233.4822573885225
 30
0.0
 10
450.8244982880994
 20
233.4656577156762
 30
0.0
 10
450.7698016776914
 20
233.4497182210428
 30
0.0
 10
450.5607708702348
 20
233.4086231392989
 30
0.0
 10
450.3852762440914
 20
233.3612488117462
 30
0.0
 10
450.2090751228602
 20
233.3166187699437
 30
0.0
 10
449.9227466802897
 20
233.299280861226
 30
0.0
 10
449.7464533620346
 20
233.2572505756958
 30
0.0
 10
449.569821831397
 20
233.216678906028
 30
0.0
 10
449.569821831397
 20
233.216678906028
 30
0.0
 10
449.0356841296499
 20
233.1751593947101
 30
0.0
 10
449.0356841296499
 20
233.1751593947101
 30
0.0
 10
449.0356841296499
 20
233.1751593947101
 30
0.0
 10
447.6941709387634
 20
232.9780877681567
 30
0.0
 10
447.6941709387634
 20
232.9780877681567
 30
0.0
 10
447.6941709387634
 20
232.9780877681567
 30
0.0
 10
446.3453031596337
 20
232.7871466148767
 30
0.0
 10
446.3453031596337
 20
232.7871466148767
 30
0.0
 10
446.3453031596337
 20
232.7871466148767
 30
0.0
 10
445.2565938168652
 20
232.634780320017
 30
0.0
 10
445.2565938168652
 20
232.634780320017
 30
0.0
 10
445.2565938168652
 20
232.634780320017
 30
0.0
 10
444.7135457638143
 20
232.555255546368
 30
0.0
 10
444.7135457638143
 20
232.555255546368
 30
0.0
 10
444.7135457638143
 20
232.555255546368
 30
0.0
 10
444.1715896865626
 20
232.4709060057765
 30
0.0
 10
444.1715896865626
 20
232.4709060057765
 30
0.0
 10
444.1715896865626
 20
232.4709060057765
 30
0.0
 10
443.7214261033708
 20
232.3957911213673
 30
0.0
 10
443.7214261033708
 20
232.3957911213673
 30
0.0
 10
443.7214261033708
 20
232.3957911213673
 30
0.0
 10
443.272278270563
 20
232.3159381001144
 30
0.0
 10
443.272278270563
 20
232.3159381001144
 30
0.0
 10
443.272278270563
 20
232.3159381001144
 30
0.0
 10
442.8242905284475
 20
232.2313014121116
 30
0.0
 10
442.8242905284475
 20
232.2313014121116
 30
0.0
 10
442.7626996020716
 20
232.2137372628372
 30
0.0
 10
442.7011662029763
 20
232.1959720093586
 30
0.0
 10
442.639691315734
 20
232.1780059359593
 30
0.0
 10
442.5392763064573
 20
232.1691230292924
 30
0.0
 10
442.4778411421347
 20
232.1508695162725
 30
0.0
 10
442.4164666604977
 20
232.1324136005674
 30
0.0
 10
442.4164666604977
 20
232.1324136005674
 30
0.0
 10
441.9323726778038
 20
232.0474949154046
 30
0.0
 10
441.9323726778038
 20
232.0474949154046
 30
0.0
 10
441.9323726778038
 20
232.0474949154046
 30
0.0
 10
441.4887312499323
 20
231.9482340465732
 30
0.0
 10
441.4887312499323
 20
231.9482340465732
 30
0.0
 10
441.4887312499323
 20
231.9482340465732
 30
0.0
 10
441.0468272741068
 20
231.8440073905803
 30
0.0
 10
441.0468272741068
 20
231.8440073905803
 30
0.0
 10
440.9278581123112
 20
231.8018082775111
 30
0.0
 10
440.8091840948163
 20
231.7587816565423
 30
0.0
 10
440.6908138444044
 20
231.7149306540424
 30
0.0
 10
440.4971648504258
 20
231.6927566058038
 30
0.0
 10
440.3789537867663
 20
231.6478580878864
 30
0.0
 10
440.2610106845688
 20
231.6022633636922
 30
0.0
 10
440.2610106845688
 20
231.6022633636922
 30
0.0
 10
439.7668904381356
 20
231.5124023346574
 30
0.0
 10
439.7668904381356
 20
231.5124023346574
 30
0.0
 10
439.7668904381356
 20
231.5124023346574
 30
0.0
 10
438.9307110952642
 20
231.2807126194774
 30
0.0
 10
438.9307110952642
 20
231.2807126194774
 30
0.0
  0
SPLINE
  5
DF
330
70
100
AcDbEntity
  8
shade
 62
     6
420
 16711935
370
    25
100
AcDbSpline
210
0.0
220
0.0
230
1.0
 70
     8
 71
     3
 72
    38
 73
    34
 74
     0
 42
0.0000000001
 43
0.0000000001
 40
0.0
 40
0.0
 40
0.0
 40
0.0
 40
1.0
 40
1.0
 40
1.0
 40
2.0
 40
2.0
 40
2.0
 40
3.0
 40
3.0
 40
3.0
 40
4.0
 40
4.0
 40
4.0
 40
5.0
 40
5.0
 40
5.0
 40
6.0
 40
6.0
 40
6.0
 40
7.0
 40
7.0
 40
7.0
 40
8.0
 40
8.0
 40
8.0
 40
9.0
 40
9.0
 40
9.0
 40
10.0
 40
10.0
 40
10.0
 40
11.0
 40
11.0
 40
11.0
 40
11.0
 10
443.6459300901541
 20
232.6678389279676
 30
0.0
 10
443.6459300901541
 20
232.6678389279676
 30
0.0
 10
443.7026396810224
 20
232.6632534583179
 30
0.0
 10
443.7026396810224
 20
232.6632534583179
 30
0.0
 10
443.7182435054195
 20
232.6613842800097
 30
0.0
 10
443.7338434020793
 20
232.6594824579605
 30
0.0
 10
443.74943926863
 20
232.6575480046479
 30
0.0
 10
443.7748967648403
 20
232.6565754588178
 30
0.0
 10
443.7904857006517
 20
232.6545618473627
 30
0.0
 10
443.8060659849972
 20
232.6524828774426
 30
0.0
 10
443.8470189726412
 20
232.6492960751619
 30
0.0
 10
443.8780664240948
 20
232.6447338844312
 30
0.0
 10
443.9090581669335
 20
232.6398141060432
 30
0.0
 10
443.9597134954264
 20
232.6369375848321
 30
0.0
 10
443.9906152279256
 20
232.6312458317625
 30
0.0
 10
444.021393533031
 20
232.6249362667026
 30
0.0
 10
444.0673093990857
 20
232.6219673040508
 30
0.0
 10
444.0935178624191
 20
232.6158051833413
 30
0.0
 10
444.1195896051731
 20
232.6090997680444
 30
0.0
 10
444.1623350223455
 20
232.6050931217747
 30
0.0
 10
444.1883362069025
 20
232.5977403166088
 30
0.0
 10
444.2142150878167
 20
232.5899739860181
 30
0.0
 10
444.2429635271058
 20
232.5898401788583
 30
0.0
 10
444.2551910432579
 20
232.5860136325305
 30
0.0
 10
444.2673954867676
 20
232.5821144960392
 30
0.0
 10
444.2873485135991
 20
232.5801439618871
 30
0.0
 10
444.2995440793547
 20
232.5761624313702
 30
0.0
 10
444.3117226205754
 20
232.5721293104003
 30
0.0
 10
444.3377393923197
 20
232.5680904549955
 30
0.0
 10
444.356009997051
 20
232.5619132414639
 30
0.0
 10
444.3742508693818
 20
232.5556491119419
 30
0.0
 10
444.4040656755293
 20
232.552527025517
 30
0.0
 10
444.4223107527778
 20
232.5462088113849
 30
0.0
 10
444.4405498171934
 20
232.5398732739956
 30
0.0
  0
LINE
  5
E0
330
70
100
AcDbEntity
  8
shade
 62
     6
420
 16711935
370
    25
100
AcDbLine
 10
443.6459300901541
 20
232.6678389279676
 30
0.0
 11
443.4845631787962
 21
232.6368997824422
 31
0.0
  0
SPLINE
  5
E1
330
70
100
AcDbEntity
  8
shade
 62
     6
420
 16711935
370
    25
100
AcDbSpline
210
0.0
220
0.0
230
1.0
 70
     8
 71
     3
 72
   107
 73
   103
 74
     0
 42
0.0000000001
 43
0.0000000001
 40
0.0
 40
0.0
 40
0.0
 40
0.0
 40
1.0
 40
1.0
 40
1.0
 40
2.0
 40
2.0
 40
2.0
 40
3.0
 40
3.0
 40
3.0
 40
4.0
 40
4.0
 40
4.0
 40
5.0
 40
5.0
 40
5.0
 40
6.0
 40
6.0
 40
6.0
 40
7.0
 40
7.0
 40
7.0
 40
8.0
 40
8.0
 40
8.0
 40
9.0
 40
9.0
 40
9.0
 40
10.0
 40
10.0
 40
10.0
 40
11.0
 40
11.0
 40
11.0
 40
12.0
 40
12.0
 40
12.0
 40
13.0
 40
13.0
 40
13.0
 40
14.0
 40
14.0
 40
14.0
 40
15.0
 40
15.0
 40
15.0
 40
16.0
 40
16.0
 40
16.0
 40
17.0
 40
17.0
 40
17.0
 40
18.0
 40
18.0
 40
18.0
 40
19.0
 40
19.0
 40
19.0
 40
20.0
 40
20.0
 40
20.0
 40
21.0
 40
21.0
 40
21.0
 40
22.0
 40
22.0
 40
22.0
 40
23.0
 40
23.0
 40
23.0
 40
24.0
 40
24.0
 40
24.0
 40
25.0
 40
25.0
 40
25.0
 40
26.0
 40
26.0
 40
26.0
 40
27.0
 40
27.0
 40
27.0
 40
28.0
 40
28.0
 40
28.0
 40
29.0
 40
29.0
 40
29.0
 40
30.0
 40
30.0
 40
30.0
 40
31.0
 40
31.0
 40
31.0
 40
32.0
 40
32.0
 40
32.0
 40
33.0
 40
33.0
 40
33.0
 40
34.0
 40
34.0
 40
34.0
 40
34.0
 10
450.4509507741871
 20
233.8494467661299
 30
0.0
 10
450.5045777311178
 20
233.8470401309848
 30
0.0
 10
450.5581884745359
 20
233.8442848646486
 30
0.0
 10
450.6117796054425
 20
233.8411811416942
 30
0.0
 10
450.6992486880369
 20
233.8391875637401
 30
0.0
 10
450.7527077927415
 20
233.8341533331416
 30
0.0
 10
450.8059547552903
 20
233.8273429835261
 30
0.0
 10
450.9032164837542
 20
233.8200361443635
 30
0.0
 10
450.9660610340755
 20
233.8073036124094
 30
0.0
 10
451.0279929514312
 20
233.7909064780526
 30
0.0
 10
451.1301290467589
 20
233.7776128050472
 30
0.0
 10
451.1917650001605
 20
233.7578760915446
 30
0.0
 10
451.252805194013
 20
233.7364064700917
 30
0.0
 10
451.306168223633
 20
233.7406672398105
 30
0.0
 10
451.3197540987562
 20
233.7342102385616
 30
0.0
 10
451.3326319944385
 20
233.7265031955306
 30
0.0
 10
451.3541547263665
 20
233.7211248384413
 30
0.0
 10
451.3635795107961
 20
233.7088767078229
 30
0.0
 10
451.3680977161268
 20
233.6945732336212
 30
0.0
 10
451.3771118264775
 20
233.6933017094162
 30
0.0
 10
451.3772469963515
 20
233.6878083759295
 30
0.0
 10
451.3757779475946
 20
233.6826392763377
 30
0.0
 10
451.3758295854089
 20
233.6797614695943
 30
0.0
 10
451.3731602346767
 20
233.6748584852145
 30
0.0
 10
451.3691831321877
 20
233.6711412098071
 30
0.0
 10
451.366848969098
 20
233.6718654904601
 30
0.0
 10
451.3649646424064
 20
233.6701144566287
 30
0.0
 10
451.3629776920736
 20
233.6684846626436
 30
0.0
 10
451.3599130175679
 20
233.6678686651212
 30
0.0
 10
451.3579435088358
 20
233.6663090398515
 30
0.0
 10
451.3559537922271
 20
233.6647754558143
 30
0.0
 10
451.3255108518865
 20
233.6431643222867
 30
0.0
 10
451.2947441181818
 20
233.6228265467371
 30
0.0
 10
451.262653976668
 20
233.6047426488907
 30
0.0
 10
451.2126977056005
 20
233.5991812926825
 30
0.0
 10
451.1804831207683
 20
233.5831668303451
 30
0.0
 10
451.147691179213
 20
233.5684025786727
 30
0.0
 10
451.0750008641498
 20
233.5542860460412
 30
0.0
 10
451.0212202772693
 20
233.5335795336793
 30
0.0
 10
450.9665881014943
 20
233.5153296652507
 30
0.0
 10
450.879000346548
 20
233.5101125417126
 30
0.0
 10
450.8244982880994
 20
233.4935128688664
 30
0.0
 10
450.7698016776914
 20
233.477573374233
 30
0.0
 10
450.5607708702348
 20
233.4364782924499
 30
0.0
 10
450.3852762441304
 20
233.3891039649364
 30
0.0
 10
450.2090751228602
 20
233.3444739231338
 30
0.0
 10
449.9227466802897
 20
233.3271360144162
 30
0.0
 10
449.7464533620346
 20
233.2851057288468
 30
0.0
 10
449.569821831397
 20
233.244534059179
 30
0.0
 10
449.569821831397
 20
233.244534059179
 30
0.0
 10
449.0356841296499
 20
233.2030145479003
 30
0.0
 10
449.0356841296499
 20
233.2030145479003
 30
0.0
 10
449.0356841296499
 20
233.2030145479003
 30
0.0
 10
447.6941709387634
 20
233.0059429213077
 30
0.0
 10
447.6941709387634
 20
233.0059429213077
 30
0.0
 10
447.6941709387634
 20
233.0059429213077
 30
0.0
 10
446.3453031596337
 20
232.8150017680669
 30
0.0
 10
446.3453031596337
 20
232.8150017680669
 30
0.0
 10
446.3453031596337
 20
232.8150017680669
 30
0.0
 10
445.2565938168652
 20
232.6626354732072
 30
0.0
 10
445.2565938168652
 20
232.6626354732072
 30
0.0
 10
445.2565938168652
 20
232.6626354732072
 30
0.0
 10
444.7135457638143
 20
232.5831106995186
 30
0.0
 10
444.7135457638143
 20
232.5831106995186
 30
0.0
 10
444.7135457638143
 20
232.5831106995186
 30
0.0
 10
444.1715896865626
 20
232.4987611589666
 30
0.0
 10
444.1715896865626
 20
232.4987611589666
 30
0.0
 10
444.1715896865626
 20
232.4987611589666
 30
0.0
 10
443.7214261033708
 20
232.4236462745183
 30
0.0
 10
443.7214261033708
 20
232.4236462745183
 30
0.0
 10
443.7214261033708
 20
232.4236462745183
 30
0.0
 10
443.272278270563
 20
232.343793253344
 30
0.0
 10
443.272278270563
 20
232.343793253344
 30
0.0
 10
443.272278270563
 20
232.343793253344
 30
0.0
 10
442.8242905284475
 20
232.2591565653412
 30
0.0
 10
442.8242905284475
 20
232.2591565653412
 30
0.0
 10
442.7626996020716
 20
232.2415924160274
 30
0.0
 10
442.7011662029763
 20
232.2238271625487
 30
0.0
 10
442.639691315734
 20
232.2058610891103
 30
0.0
 10
442.5392763064182
 20
232.1969781824829
 30
0.0
 10
442.4778411421347
 20
232.1787246695018
 30
0.0
 10
442.4164666604977
 20
232.1602687537576
 30
0.0
 10
442.4164666604977
 20
232.1602687537576
 30
0.0
 10
441.9323726778038
 20
232.0753500685556
 30
0.0
 10
441.9323726778038
 20
232.0753500685556
 30
0.0
 10
441.9323726778038
 20
232.0753500685556
 30
0.0
 10
441.4887312499323
 20
231.9760891997242
 30
0.0
 10
441.4887312499323
 20
231.9760891997242
 30
0.0
 10
441.4887312499323
 20
231.9760891997242
 30
0.0
 10
441.0468272741068
 20
231.8718625438096
 30
0.0
 10
441.0468272741068
 20
231.8718625438096
 30
0.0
 10
440.9278581123112
 20
231.8296634306621
 30
0.0
 10
440.8091840948163
 20
231.7866368096933
 30
0.0
 10
440.6908138444044
 20
231.7427858071931
 30
0.0
 10
440.4971648504258
 20
231.720611758994
 30
0.0
 10
440.3789537867663
 20
231.6757132410374
 30
0.0
 10
440.2610106845688
 20
231.6301185169218
 30
0.0
 10
440.2610106845688
 20
231.6301185169218
 30
0.0
 10
439.7668904381356
 20
231.5402574878081
 30
0.0
 10
439.7668904381356
 20
231.5402574878081
 30
0.0
 10
439.7668904381356
 20
231.5402574878081
 30
0.0
 10
438.9307110952642
 20
231.3085677727071
 30
0.0
 10
438.9307110952642
 20
231.3085677727071
 30
0.0
  0
SPLINE
  5
E2
330
70
100
AcDbEntity
  8
shade
 62
     6
420
 16711935
370
    25
100
AcDbSpline
210
0.0
220
0.0
230
1.0
 70
     8
 71
     3
 72
    38
 73
    34
 74
     0
 42
0.0000000001
 43
0.0000000001
 40
0.0
 40
0.0
 40
0.0
 40
0.0
 40
1.0
 40
1.0
 40
1.0
 40
2.0
 40
2.0
 40
2.0
 40
3.0
 40
3.0
 40
3.0
 40
4.0
 40
4.0
 40
4.0
 40
5.0
 40
5.0
 40
5.0
 40
6.0
 40
6.0
 40
6.0
 40
7.0
 40
7.0
 40
7.0
 40
8.0
 40
8.0
 40
8.0
 40
9.0
 40
9.0
 40
9.0
 40
10.0
 40
10.0
 40
10.0
 40
11.0
 40
11.0
 40
11.0
 40
11.0
 10
443.7540995163045
 20
233.6761270707289
 30
0.0
 10
443.7824336686674
 20
233.6886122593362
 30
0.0
 10
443.8108171631941
 20
233.7009851685272
 30
0.0
 10
443.8392493319673
 20
233.7132455070732
 30
0.0
 10
443.8855662585458
 20
233.718940568735
 30
0.0
 10
443.9142191271616
 20
233.7305848528235
 30
0.0
 10
443.9430955391567
 20
233.7416545879799
 30
0.0
 10
443.99458876536
 20
233.7479013187888
 30
0.0
 10
444.0285043640923
 20
233.7595105738657
 30
0.0
 10
444.0627453986353
 20
233.7700943107961
 30
0.0
 10
444.1180422475517
 20
233.773673121431
 30
0.0
 10
444.1523473645621
 20
233.7831807932718
 30
0.0
 10
444.1868249062635
 20
233.7920297595605
 30
0.0
 10
444.2344382168862
 20
233.7932214179168
 30
0.0
 10
444.2605633489828
 20
233.7994595186449
 30
0.0
 10
444.2867478130565
 20
233.805440783365
 30
0.0
 10
444.3293784725081
 20
233.8079249536299
 30
0.0
 10
444.3555698665361
 20
233.8136703004753
 30
0.0
 10
444.3817889502859
 20
233.8192871625917
 30
0.0
 10
444.438079060617
 20
233.8246598633304
 30
0.0
 10
444.4779191600959
 20
233.8327051965931
 30
0.0
 10
444.5178358575214
 20
233.8403561759798
 30
0.0
 10
444.5828440609244
 20
233.8434370475972
 30
0.0
 10
444.6228401311269
 20
233.8503256836716
 30
0.0
 10
444.6629324487499
 20
233.8566154410874
 30
0.0
 10
444.7200007512242
 20
233.8575135452061
 30
0.0
 10
444.7519364771939
 20
233.8618543450257
 30
0.0
 10
444.7839302603991
 20
233.8657300560026
 30
0.0
 10
444.836034955764
 20
233.8669032164575
 30
0.0
 10
444.8680448293917
 20
233.8702304889911
 30
0.0
 10
444.9000885292923
 20
233.8732038457294
 30
0.0
 10
444.9000885292923
 20
233.8732038457294
 30
0.0
 10
445.0361745940991
 20
233.8777677628371
 30
0.0
 10
445.0361745940991
 20
233.8777677628371
 30
0.0
  0
SPLINE
  5
E3
330
70
100
AcDbEntity
  8
shade
 62
     6
420
 16711935
370
    25
100
AcDbSpline
210
0.0
220
0.0
230
1.0
 70
     8
 71
     3
 72
    74
 73
    70
 74
     0
 42
0.0000000001
 43
0.0000000001
 40
0.0
 40
0.0
 40
0.0
 40
0.0
 40
1.0
 40
1.0
 40
1.0
 40
2.0
 40
2.0
 40
2.0
 40
3.0
 40
3.0
 40
3.0
 40
4.0
 40
4.0
 40
4.0
 40
5.0
 40
5.0
 40
5.0
 40
6.0
 40
6.0
 40
6.0
 40
7.0
 40
7.0
 40
7.0
 40
8.0
 40
8.0
 40
8.0
 40
9.0
 40
9.0
 40
9.0
 40
10.0
 40
10.0
 40
10.0
 40
11.0
 40
11.0
 40
11.0
 40
12.0
 40
12.0
 40
12.0
 40
13.0
 40
13.0
 40
13.0
 40
14.0
 40
14.0
 40
14.0
 40
15.0
 40
15.0
 40
15.0
 40
16.0
 40
16.0
 40
16.0
 40
17.0
 40
17.0
 40
17.0
 40
18.0
 40
18.0
 40
18.0
 40
19.0
 40
19.0
 40
19.0
 40
20.0
 40
20.0
 40
20.0
 40
21.0
 40
21.0
 40
21.0
 40
22.0
 40
22.0
 40
22.0
 40
23.0
 40
23.0
 40
23.0
 40
23.0
 10
441.6900830691154
 20
232.9831616129449
 30
0.0
 10
441.6970584249874
 20
233.0162028438029
 30
0.0
 10
441.7048499326212
 20
233.0490664970887
 30
0.0
 10
441.7134504446813
 20
233.081722426358
 30
0.0
 10
441.7261458016692
 20
233.0969622542698
 30
0.0
 10
441.7381773815657
 20
233.128368725312
 30
0.0
 10
441.7537094668824
 20
233.158072639831
 30
0.0
 10
441.7726874142137
 20
233.1696847744267
 30
0.0
 10
441.7893267517498
 20
233.196605798652
 30
0.0
 10
441.8085572104542
 20
233.2216391737035
 30
0.0
 10
441.8354686989346
 20
233.2314175389494
 30
0.0
 10
441.8552993415675
 20
233.2546936466593
 30
0.0
 10
441.8765729834455
 20
233.2766140760168
 30
0.0
 10
441.9204994271407
 20
233.2973910631541
 30
0.0
 10
441.9557397284749
 20
233.3280625655202
 30
0.0
 10
441.9934099622769
 20
233.3555500760641
 30
0.0
 10
442.050495346691
 20
233.3644983316219
 30
0.0
 10
442.0887213694881
 20
233.388666421496
 30
0.0
 10
442.1282657023827
 20
233.4105307961163
 30
0.0
 10
442.1884748717004
 20
233.4167321325483
 30
0.0
 10
442.2263627136628
 20
233.4350914911232
 30
0.0
 10
442.2649679233141
 20
233.4518439393829
 30
0.0
 10
442.3266901633206
 20
233.4575658334825
 30
0.0
 10
442.3654002330902
 20
233.4727434078735
 30
0.0
 10
442.4044596132695
 20
233.4869803215379
 30
0.0
 10
442.49980190563
 20
233.5038835337662
 30
0.0
 10
442.5719052904383
 20
233.5263751243979
 30
0.0
 10
442.6448107320218
 20
233.546000033388
 30
0.0
 10
442.7622870740901
 20
233.5512562801634
 30
0.0
 10
442.835260077107
 20
233.5681166290561
 30
0.0
 10
442.9085755478843
 20
233.58337543974
 30
0.0
 10
443.0241872859145
 20
233.5876589992304
 30
0.0
 10
443.0941113037124
 20
233.600757773604
 30
0.0
 10
443.1641805161198
 20
233.6130423004219
 30
0.0
 10
443.2782764448096
 20
233.6177253956668
 30
0.0
 10
443.3483552903914
 20
233.6292899869877
 30
0.0
 10
443.4184951157337
 20
233.640475493632
 30
0.0
 10
443.5271253970865
 20
233.6443666831065
 30
0.0
 10
443.5915706190333
 20
233.6541216639211
 30
0.0
 10
443.656070297494
 20
233.6635060998514
 30
0.0
 10
443.7612364825356
 20
233.6674498303322
 30
0.0
 10
443.8257670038852
 20
233.6763180776451
 30
0.0
 10
443.8903455624829
 20
233.6848255772261
 30
0.0
 10
444.1464396456598
 20
233.7078801301649
 30
0.0
 10
444.3622850102391
 20
233.7317742036018
 30
0.0
 10
444.5785162030672
 20
233.7516786482801
 30
0.0
 10
444.9306248530729
 20
233.7553651880367
 30
0.0
 10
445.1469283566074
 20
233.7705870573804
 30
0.0
 10
445.3634123279055
 20
233.7827954326288
 30
0.0
 10
445.3634123279055
 20
233.7827954326288
 30
0.0
 10
445.8582758930896
 20
233.7847577297132
 30
0.0
 10
445.8582758930896
 20
233.7847577297132
 30
0.0
 10
445.8582758930896
 20
233.7847577297132
 30
0.0
 10
446.2166424289446
 20
233.7957562686153
 30
0.0
 10
446.2166424289446
 20
233.7957562686153
 30
0.0
 10
446.2166424289446
 20
233.7957562686153
 30
0.0
 10
446.5749284513582
 20
233.808210668247
 30
0.0
 10
446.5749284513582
 20
233.808210668247
 30
0.0
 10
446.5749284513582
 20
233.808210668247
 30
0.0
 10
447.0905892349041
 20
233.8303918094362
 30
0.0
 10
447.0905892349041
 20
233.8303918094362
 30
0.0
 10
447.0905892349041
 20
233.8303918094362
 30
0.0
 10
447.6062720922752
 20
233.85214819188
 30
0.0
 10
447.6062720922752
 20
233.85214819188
 30
0.0
 10
447.6062720922752
 20
233.85214819188
 30
0.0
 10
448.0346965637401
 20
233.865710936916
 30
0.0
 10
448.0346965637401
 20
233.865710936916
 30
0.0
 10
448.0346965637401
 20
233.865710936916
 30
0.0
 10
448.4632625101996
 20
233.8765579271969
 30
0.0
 10
448.4632625101996
 20
233.8765579271969
 30
0.0
  0
SPLINE
  5
E4
330
70
100
AcDbEntity
  8
shade
 62
     6
420
 16711935
370
    25
100
AcDbSpline
210
0.0
220
0.0
230
1.0
 70
     8
 71
     3
 72
     8
 73
     4
 74
     0
 42
0.0000000001
 43
0.0000000001
 40
0.0
 40
0.0
 40
0.0
 40
0.0
 40
1.0
 40
1.0
 40
1.0
 40
1.0
 10
443.4845631787962
 20
233.8862114142829
 30
0.0
 10
443.3487832127039
 20
233.7579271819813
 30
0.0
 10
443.2166693337213
 20
233.6258173716799
 30
0.0
 10
443.0883809198097
 20
233.4900413564355
 30
0.0
  0
SPLINE
  5
E5
330
70
100
AcDbEntity
  8
shade
 62
     6
420
 16711935
370
    25
100
AcDbSpline
210
0.0
220
0.0
230
1.0
 70
     8
 71
     3
 72
     8
 73
     4
 74
     0
 42
0.0000000001
 43
0.0000000001
 40
0.0
 40
0.0
 40
0.0
 40
0.0
 40
1.0
 40
1.0
 40
1.0
 40
1.0
 10
444.5381309627892
 20
233.1687890890097
 30
0.0
 10
443.8467837831906
 20
232.6620555763396
 30
0.0
 10
443.2464028704977
 20
232.0417198034737
 30
0.0
 10
442.7625367483622
 20
231.334179450208
 30
0.0
  0
SPLINE
  5
E6
330
70
100
AcDbEntity
  8
shade
 62
     6
420
 16711935
370
    25
100
AcDbSpline
210
0.0
220
0.0
230
1.0
 70
     8
 71
     3
 72
     8
 73
     4
 74
     0
 42
0.0000000001
 43
0.0000000001
 40
0.0
 40
0.0
 40
0.0
 40
0.0
 40
1.0
 40
1.0
 40
1.0
 40
1.0
 10
443.6459300901541
 20
233.92804961113
 30
0.0
 10
443.506527434677
 20
233.7987697622395
 30
0.0
 10
443.3708861206809
 20
233.6654923241931
 30
0.0
 10
443.2391756565729
 20
233.5283838513243
 30
0.0
  0
LINE
  5
E7
330
70
100
AcDbEntity
  8
shade
 62
     6
420
 16711935
370
    25
100
AcDbLine
 10
447.5918940030847
 20
226.4159360038885
 30
0.0
 11
447.5918940030847
 21
227.0210881697549
 31
0.0
  0
LINE
  5
E8
330
70
100
AcDbEntity
  8
shade
 62
     6
420
 16711935
370
    25
100
AcDbLine
 10
447.5075876200783
 20
233.8777677628371
 30
0.0
 11
445.0361745940991
 21
233.8777677628371
 31
0.0
  0
LINE
  5
E9
330
70
100
AcDbEntity
  8
shade
 62
     6
420
 16711935
370
    25
100
AcDbLine
 10
450.4600269303299
 20
233.8777677628371
 30
0.0
 11
450.3102405607906
 21
233.4143486399287
 31
0.0
  0
LINE
  5
EA
330
70
100
AcDbEntity
  8
shade
 62
     6
420
 16711935
370
    25
100
AcDbLine
 10
447.5075876200783
 20
233.8777677628371
 30
0.0
 11
450.4600269303299
 21
233.8777677628371
 31
0.0
  0
SPLINE
  5
EB
330
70
100
AcDbEntity
  8
shade
 62
     6
420
 16711935
370
    25
100
AcDbSpline
210
0.0
220
0.0
230
1.0
 70
     8
 71
     3
 72
    80
 73
    76
 74
     0
 42
0.0000000001
 43
0.0000000001
 40
0.0
 40
0.0
 40
0.0
 40
0.0
 40
1.0
 40
1.0
 40
1.0
 40
2.0
 40
2.0
 40
2.0
 40
3.0
 40
3.0
 40
3.0
 40
4.0
 40
4.0
 40
4.0
 40
5.0
 40
5.0
 40
5.0
 40
6.0
 40
6.0
 40
6.0
 40
7.0
 40
7.0
 40
7.0
 40
8.0
 40
8.0
 40
8.0
 40
9.0
 40
9.0
 40
9.0
 40
10.0
 40
10.0
 40
10.0
 40
11.0
 40
11.0
 40
11.0
 40
12.0
 40
12.0
 40
12.0
 40
13.0
 40
13.0
 40
13.0
 40
14.0
 40
14.0
 40
14.0
 40
15.0
 40
15.0
 40
15.0
 40
16.0
 40
16.0
 40
16.0
 40
17.0
 40
17.0
 40
17.0
 40
18.0
 40
18.0
 40
18.0
 40
19.0
 40
19.0
 40
19.0
 40
20.0
 40
20.0
 40
20.0
 40
21.0
 40
21.0
 40
21.0
 40
22.0
 40
22.0
 40
22.0
 40
23.0
 40
23.0
 40
23.0
 40
24.0
 40
24.0
 40
24.0
 40
25.0
 40
25.0
 40
25.0
 40
25.0
 10
451.2350666190394
 20
218.9329628661462
 30
0.0
 10
451.1547936668701
 20
218.9144355521084
 30
0.0
 10
451.0740875802178
 20
218.8978376403653
 30
0.0
 10
450.9930180822053
 20
218.8831834700068
 30
0.0
 10
450.8613921778534
 20
218.879005990914
 30
0.0
 10
450.7802649298034
 20
218.8663908069336
 30
0.0
 10
450.6989602709453
 20
218.8550088212476
 30
0.0
 10
450.5591802539115
 20
218.8503764361396
 30
0.0
 10
450.4703737621443
 20
218.8396978741848
 30
0.0
 10
450.3814371240934
 20
218.8302008980194
 30
0.0
 10
450.2365388575687
 20
218.8273883285337
 30
0.0
 10
450.1475834688813
 20
218.8191039086503
 30
0.0
 10
450.0585656477054
 20
218.8115368039939
 30
0.0
 10
450.0585656477054
 20
218.8115368039939
 30
0.0
 10
449.7336064505787
 20
218.8024287403029
 30
0.0
 10
449.7336064505787
 20
218.8024287403029
 30
0.0
 10
449.7336064505787
 20
218.8024287403029
 30
0.0
 10
449.4611747228011
 20
218.7902485844563
 30
0.0
 10
449.4611747228011
 20
218.7902485844563
 30
0.0
 10
449.4611747228011
 20
218.7902485844563
 30
0.0
 10
449.1867267727543
 20
218.7790283548214
 30
0.0
 10
449.1867267727543
 20
218.7790283548214
 30
0.0
 10
449.1867267727543
 20
218.7790283548214
 30
0.0
 10
448.6382671728688
 20
218.7568037641122
 30
0.0
 10
448.6382671728688
 20
218.7568037641122
 30
0.0
 10
448.5642978763591
 20
218.7521458248792
 30
0.0
 10
448.490343102497
 20
218.7472600587933
 30
0.0
 10
448.416403903777
 20
218.7421465353465
 30
0.0
 10
448.2957178466827
 20
218.739368350301
 30
0.0
 10
448.2218038002074
 20
218.7337449911491
 30
0.0
 10
448.147922968668
 20
218.7277080149113
 30
0.0
 10
448.0831632415849
 20
218.728911163366
 30
0.0
 10
448.0651313196316
 20
218.7273665186178
 30
0.0
 10
448.0471018866954
 20
218.7257932197439
 30
0.0
 10
448.0176753964398
 20
218.7249991456924
 30
0.0
 10
447.9996479570951
 20
218.7233817600263
 30
0.0
 10
447.9816234321516
 20
218.7217323693043
 30
0.0
 10
447.9816234321516
 20
218.7217323693043
 30
0.0
 10
447.8409871480518
 20
218.714016886813
 30
0.0
 10
447.8409871480518
 20
218.714016886813
 30
0.0
 10
447.8234532641932
 20
218.7122326635503
 30
0.0
 10
447.8059231966727
 20
218.7104111328521
 30
0.0
 10
447.7883970646981
 20
218.7085523071174
 30
0.0
 10
447.75978965948
 20
218.7076090740706
 30
0.0
 10
447.7422666399043
 20
218.7056933462823
 30
0.0
 10
447.7247481945595
 20
218.7037364494386
 30
0.0
 10
447.6964301066431
 20
218.7027719554315
 30
0.0
 10
447.6791926432002
 20
218.7007871478358
 30
0.0
 10
447.6619600749592
 20
218.6987604973812
 30
0.0
 10
447.6338302414158
 20
218.6977303696115
 30
0.0
 10
447.6166015320473
 20
218.6956400217761
 30
0.0
 10
447.5993785022986
 20
218.6935036342472
 30
0.0
 10
447.5387187043565
 20
218.6883417958612
 30
0.0
 10
447.489002991904
 20
218.6816924636316
 30
0.0
 10
447.4393461268721
 20
218.6746234021321
 30
0.0
 10
447.35822317595
 20
218.6706284048766
 30
0.0
 10
447.3086313280869
 20
218.662826493973
 30
0.0
 10
447.2591314621815
 20
218.6544702628111
 30
0.0
 10
447.2119434575258
 20
218.6555116100901
 30
0.0
 10
447.196153734126
 20
218.6527081999732
 30
0.0
 10
447.1803753501096
 20
218.6498420117167
 30
0.0
 10
447.1546085427662
 20
218.6483798242857
 30
0.0
 10
447.1388385322891
 20
218.645421198551
 30
0.0
 10
447.1230810958743
 20
218.6423966912236
 30
0.0
 10
447.0937962014676
 20
218.640166726534
 30
0.0
 10
447.0748818664878
 20
218.6346061259418
 30
0.0
 10
447.0566185640452
 20
218.6272992535446
 30
0.0
 10
447.0261488955235
 20
218.6211825748081
 30
0.0
 10
447.0089364159923
 20
218.6107560208757
 30
0.0
 10
446.9932994039297
 20
218.5982251678517
 30
0.0
 10
446.9758122462425
 20
218.5972670131413
 30
0.0
 10
446.9699884271833
 20
218.5919062134848
 30
0.0
 10
446.9643974204654
 20
218.5863079626302
 30
0.0
 10
446.9549183537418
 20
218.5832652536125
 30
0.0
 10
446.9494432651073
 20
218.5773722316944
 30
0.0
 10
446.9441687414609
 20
218.5713019850368
 30
0.0
  0
SPLINE
  5
EC
330
70
100
AcDbEntity
  8
shade
 62
     6
420
 16711935
370
    25
100
AcDbSpline
210
0.0
220
0.0
230
1.0
 70
     8
 71
     3
 72
    62
 73
    58
 74
     0
 42
0.0000000001
 43
0.0000000001
 40
0.0
 40
0.0
 40
0.0
 40
0.0
 40
1.0
 40
1.0
 40
1.0
 40
2.0
 40
2.0
 40
2.0
 40
3.0
 40
3.0
 40
3.0
 40
4.0
 40
4.0
 40
4.0
 40
5.0
 40
5.0
 40
5.0
 40
6.0
 40
6.0
 40
6.0
 40
7.0
 40
7.0
 40
7.0
 40
8.0
 40
8.0
 40
8.0
 40
9.0
 40
9.0
 40
9.0
 40
10.0
 40
10.0
 40
10.0
 40
11.0
 40
11.0
 40
11.0
 40
12.0
 40
12.0
 40
12.0
 40
13.0
 40
13.0
 40
13.0
 40
14.0
 40
14.0
 40
14.0
 40
15.0
 40
15.0
 40
15.0
 40
16.0
 40
16.0
 40
16.0
 40
17.0
 40
17.0
 40
17.0
 40
18.0
 40
18.0
 40
18.0
 40
19.0
 40
19.0
 40
19.0
 40
19.0
 10
456.9952191818574
 20
222.1065816270489
 30
0.0
 10
456.7455897359413
 20
221.9692346238054
 30
0.0
 10
456.4932097373734
 20
221.8369471461933
 30
0.0
 10
456.2382338088774
 20
221.7098002412591
 30
0.0
 10
455.8265197671815
 20
221.6564442276433
 30
0.0
 10
455.5703385342305
 20
221.5358654774642
 30
0.0
 10
455.3121100721838
 20
221.4197883770601
 30
0.0
 10
454.8952491393488
 20
221.3713077614182
 30
0.0
 10
454.6370696889997
 20
221.2616840864564
 30
0.0
 10
454.3771891757414
 20
221.1562039134036
 30
0.0
 10
453.9559549361705
 20
221.111796036335
 30
0.0
 10
453.6953537897149
 20
221.0114362812904
 30
0.0
 10
453.4334725389248
 20
220.9145003852988
 30
0.0
 10
453.4334725389248
 20
220.9145003852988
 30
0.0
 10
452.8899911458593
 20
220.8756549150891
 30
0.0
 10
452.8899911458593
 20
220.8756549150891
 30
0.0
 10
452.8899911458593
 20
220.8756549150891
 30
0.0
 10
452.5095026565128
 20
220.7855876007175
 30
0.0
 10
452.5095026565128
 20
220.7855876007175
 30
0.0
 10
452.5095026565128
 20
220.7855876007175
 30
0.0
 10
452.1283207702501
 20
220.6982372528258
 30
0.0
 10
452.1283207702501
 20
220.6982372528258
 30
0.0
 10
452.1283207702501
 20
220.6982372528258
 30
0.0
 10
451.7465657008306
 20
220.6133910516866
 30
0.0
 10
451.7465657008306
 20
220.6133910516866
 30
0.0
 10
451.6939950704832
 20
220.5965157332983
 30
0.0
 10
451.6413951151108
 20
220.5797319058373
 30
0.0
 10
451.5887660737136
 20
220.5630396457005
 30
0.0
 10
451.5029269418624
 20
220.5551943311077
 30
0.0
 10
451.4502810932341
 20
220.538626101226
 30
0.0
 10
451.3976084325328
 20
220.522143431094
 30
0.0
 10
451.2066344304511
 20
220.4815794331452
 30
0.0
 10
451.0486893691733
 20
220.4330358321449
 30
0.0
 10
450.8905273185659
 20
220.3852068618287
 30
0.0
 10
450.6327756342025
 20
220.3633883203506
 30
0.0
 10
450.4745257662171
 20
220.3164099827242
 30
0.0
 10
450.3161138139894
 20
220.2699829083618
 30
0.0
 10
449.9012865153201
 20
220.2029193044405
 30
0.0
 10
449.5858635922867
 20
220.1127408243989
 30
0.0
 10
449.2699627697004
 20
220.0242597862173
 30
0.0
 10
448.7552248342809
 20
219.9844448018243
 30
0.0
 10
448.4393903774125
 20
219.8970483723322
 30
0.0
 10
448.1234532703005
 20
219.8100241814546
 30
0.0
 10
447.7153114624319
 20
219.798468265574
 30
0.0
 10
447.5067090041243
 20
219.7410159829468
 30
0.0
 10
447.2981296479267
 20
219.6834799176038
 30
0.0
 10
446.9577081454628
 20
219.6558533170216
 30
0.0
 10
446.7492557759858
 20
219.5977949950984
 30
0.0
 10
446.5409398408445
 20
219.5392501179583
 30
0.0
 10
446.3057291150962
 20
219.5401455035536
 30
0.0
 10
446.2023726405806
 20
219.5108323574519
 30
0.0
 10
446.0990611719806
 20
219.4813612132111
 30
0.0
 10
445.930393220992
 20
219.4670415362471
 30
0.0
 10
445.8271263566228
 20
219.4372940559843
 30
0.0
 10
445.7239202027977
 20
219.4073370221691
 30
0.0
 10
445.7239202027977
 20
219.4073370221691
 30
0.0
 10
444.9140038777907
 20
219.2717539398636
 30
0.0
 10
444.9140038777907
 20
219.2717539398636
 30
0.0
  0
SPLINE
  5
ED
330
70
100
AcDbEntity
  8
shade
 62
     6
420
 16711935
370
    25
100
AcDbSpline
210
0.0
220
0.0
230
1.0
 70
     8
 71
     3
 72
    47
 73
    43
 74
     0
 42
0.0000000001
 43
0.0000000001
 40
0.0
 40
0.0
 40
0.0
 40
0.0
 40
1.0
 40
1.0
 40
1.0
 40
2.0
 40
2.0
 40
2.0
 40
3.0
 40
3.0
 40
3.0
 40
4.0
 40
4.0
 40
4.0
 40
5.0
 40
5.0
 40
5.0
 40
6.0
 40
6.0
 40
6.0
 40
7.0
 40
7.0
 40
7.0
 40
8.0
 40
8.0
 40
8.0
 40
9.0
 40
9.0
 40
9.0
 40
10.0
 40
10.0
 40
10.0
 40
11.0
 40
11.0
 40
11.0
 40
12.0
 40
12.0
 40
12.0
 40
13.0
 40
13.0
 40
13.0
 40
14.0
 40
14.0
 40
14.0
 40
14.0
 10
440.7773940275308
 20
223.0972765235249
 30
0.0
 10
440.7766616114378
 20
223.1100723083267
 30
0.0
 10
440.7760575629075
 20
223.1228751178046
 30
0.0
 10
440.7755819731311
 20
223.1356830198537
 30
0.0
 10
440.7745989384129
 20
223.1418153070062
 30
0.0
 10
440.7742396347368
 20
223.15463215018
 30
0.0
 10
440.7740413544906
 20
223.1674519896857
 30
0.0
 10
440.7733721639741
 20
223.1779359150827
 30
0.0
 10
440.7733625485747
 20
223.1951108909861
 30
0.0
 10
440.7736838017161
 20
223.2122812708423
 30
0.0
 10
440.7736748475246
 20
223.2204928807083
 30
0.0
 10
440.7743621902901
 20
223.2376550953425
 30
0.0
 10
440.7755299254707
 20
223.2547879480669
 30
0.0
 10
440.776893717133
 20
223.2669545947972
 30
0.0
 10
440.7789919536764
 20
223.2880195359725
 30
0.0
 10
440.7819495479873
 20
223.3089721380888
 30
0.0
 10
440.7853855359812
 20
223.3188950965357
 30
0.0
 10
440.7886723288804
 20
223.3397457775378
 30
0.0
 10
440.7925840225608
 20
223.3604834475994
 30
0.0
 10
440.7980571605701
 20
223.3708411802679
 30
0.0
 10
440.8024529764053
 20
223.3920076161523
 30
0.0
 10
440.8074443421772
 20
223.4130371379319
 30
0.0
 10
440.8146230839731
 20
223.4229211844017
 30
0.0
 10
440.8200293756315
 20
223.4437579063785
 30
0.0
 10
440.8260527127956
 20
223.4644197249282
 30
0.0
 10
440.8326673006105
 20
223.4662297167156
 30
0.0
 10
440.8365244491776
 20
223.4789099845697
 30
0.0
 10
440.8406415583164
 20
223.4915067669792
 30
0.0
 10
440.8469376622094
 20
223.4974149988465
 30
0.0
 10
440.8513314173551
 20
223.509858154798
 30
0.0
 10
440.8560879866896
 20
223.5221641308822
 30
0.0
 10
440.8613612551739
 20
223.5228432053462
 30
0.0
 10
440.8642459040559
 20
223.5300173409713
 30
0.0
 10
440.8672819624583
 20
223.5371277755665
 30
0.0
 10
440.8719893972785
 20
223.5404383722784
 30
0.0
 10
440.8752127945016
 20
223.5474190813048
 30
0.0
 10
440.8786718741291
 20
223.5542835429195
 30
0.0
 10
440.8811404463363
 20
223.5517728209682
 30
0.0
 10
440.8817347161176
 20
223.55295267163
 30
0.0
 10
440.8823374117032
 20
223.5541282214753
 30
0.0
 10
440.8833073175657
 20
223.5546839782954
 30
0.0
 10
440.8839165467569
 20
223.5558528857262
 30
0.0
 10
440.8845352022189
 20
223.5570168072364
 30
0.0
  0
SPLINE
  5
EE
330
70
100
AcDbEntity
  8
shade
 62
     6
420
 16711935
370
    25
100
AcDbSpline
210
0.0
220
0.0
230
1.0
 70
     8
 71
     3
 72
    62
 73
    58
 74
     0
 42
0.0000000001
 43
0.0000000001
 40
0.0
 40
0.0
 40
0.0
 40
0.0
 40
1.0
 40
1.0
 40
1.0
 40
2.0
 40
2.0
 40
2.0
 40
3.0
 40
3.0
 40
3.0
 40
4.0
 40
4.0
 40
4.0
 40
5.0
 40
5.0
 40
5.0
 40
6.0
 40
6.0
 40
6.0
 40
7.0
 40
7.0
 40
7.0
 40
8.0
 40
8.0
 40
8.0
 40
9.0
 40
9.0
 40
9.0
 40
10.0
 40
10.0
 40
10.0
 40
11.0
 40
11.0
 40
11.0
 40
12.0
 40
12.0
 40
12.0
 40
13.0
 40
13.0
 40
13.0
 40
14.0
 40
14.0
 40
14.0
 40
15.0
 40
15.0
 40
15.0
 40
16.0
 40
16.0
 40
16.0
 40
17.0
 40
17.0
 40
17.0
 40
18.0
 40
18.0
 40
18.0
 40
19.0
 40
19.0
 40
19.0
 40
19.0
 10
440.4876209910956
 20
226.4877839867387
 30
0.0
 10
440.4876209910956
 20
226.4877839867387
 30
0.0
 10
440.5296320175754
 20
226.5763028037671
 30
0.0
 10
440.5296320175754
 20
226.5763028037671
 30
0.0
 10
440.5436376933825
 20
226.6191133763456
 30
0.0
 10
440.5577949045883
 20
226.6618742249294
 30
0.0
 10
440.5721033850757
 20
226.7045845453646
 30
0.0
 10
440.5952094773793
 20
226.7249282676691
 30
0.0
 10
440.6096340117541
 20
226.7675611053289
 30
0.0
 10
440.6242270186773
 20
226.8101363838467
 30
0.0
 10
440.6419808645369
 20
226.8134579485094
 30
0.0
 10
440.6507942453331
 20
226.8390386453153
 30
0.0
 10
440.6596754244455
 20
226.8645958324014
 30
0.0
 10
440.6740593773618
 20
226.8767787799115
 30
0.0
 10
440.682999826259
 20
226.9022973528406
 30
0.0
 10
440.6920230414379
 20
226.9277867021757
 30
0.0
 10
440.711048497709
 20
226.9524884040612
 30
0.0
 10
440.7246875799915
 20
226.9904502435553
 30
0.0
 10
440.7385368633787
 20
227.0283355725261
 30
0.0
 10
440.7607979323739
 20
227.0463354677638
 30
0.0
 10
440.7749223873021
 20
227.0840610807329
 30
0.0
 10
440.7893937983674
 20
227.121654050514
 30
0.0
 10
440.8084012598144
 20
227.1288492510642
 30
0.0
 10
440.8189328993698
 20
227.1557135988181
 30
0.0
 10
440.8296921468657
 20
227.1824870403774
 30
0.0
 10
440.8468813634084
 20
227.1951544994444
 30
0.0
 10
440.8580234953613
 20
227.221702208782
 30
0.0
 10
440.86962375073
 20
227.2480505911461
 30
0.0
 10
440.8832023701019
 20
227.2497888814047
 30
0.0
 10
440.8903692952173
 20
227.2653309236532
 30
0.0
 10
440.897866326116
 20
227.2807142701409
 30
0.0
 10
440.9095605604087
 20
227.2878455570667
 30
0.0
 10
440.9175057051731
 20
227.3028843376708
 30
0.0
 10
440.9260010391651
 20
227.3176125424449
 30
0.0
 10
440.9478165575115
 20
227.3398418960825
 30
0.0
 10
440.9669837056098
 20
227.3688725713372
 30
0.0
 10
440.9880309654368
 20
227.3965213060546
 30
0.0
 10
441.0191930778103
 20
227.4079843423961
 30
0.0
 10
441.0407562039112
 20
227.4342414606711
 30
0.0
 10
441.0634612820705
 20
227.4594947508335
 30
0.0
 10
441.0912233756559
 20
227.4619780477665
 30
0.0
 10
441.1065031909554
 20
227.4783003789072
 30
0.0
 10
441.1221340716068
 20
227.4942831053651
 30
0.0
 10
441.1470633857491
 20
227.5014422693367
 30
0.0
 10
441.1627186907705
 20
227.5171423329534
 30
0.0
 10
441.1785213622151
 20
227.532693351837
 30
0.0
 10
441.2100879644023
 20
227.5458299445317
 30
0.0
 10
441.231928391989
 20
227.5671647285782
 30
0.0
 10
441.2538400558528
 20
227.5884262208766
 30
0.0
 10
441.2894814330533
 20
227.5984815707967
 30
0.0
 10
441.3110224108143
 20
227.6200632020188
 30
0.0
 10
441.3322105755792
 20
227.6419885504739
 30
0.0
 10
441.3628843315701
 20
227.6483624900539
 30
0.0
 10
441.3794063380047
 20
227.6661259428765
 30
0.0
 10
441.3955951628661
 20
227.6841907701744
 30
0.0
 10
441.4225379506195
 20
227.6932777525783
 30
0.0
 10
441.4383502991852
 20
227.7119031805736
 30
0.0
 10
441.4536583968245
 20
227.7309396585924
 30
0.0
  0
LINE
  5
EF
330
70
100
AcDbEntity
  8
shade
 62
     6
420
 16711935
370
    25
100
AcDbLine
 10
447.4110538690457
 20
230.1427740108999
 30
0.0
 11
447.4110538690457
 21
230.1427740108999
 31
0.0
  0
SPLINE
  5
F0
330
70
100
AcDbEntity
  8
shade
 62
     6
420
 16711935
370
    25
100
AcDbSpline
210
0.0
220
0.0
230
1.0
 70
     8
 71
     3
 72
    23
 73
    19
 74
     0
 42
0.0000000001
 43
0.0000000001
 40
0.0
 40
0.0
 40
0.0
 40
0.0
 40
1.0
 40
1.0
 40
1.0
 40
2.0
 40
2.0
 40
2.0
 40
3.0
 40
3.0
 40
3.0
 40
4.0
 40
4.0
 40
4.0
 40
5.0
 40
5.0
 40
5.0
 40
6.0
 40
6.0
 40
6.0
 40
6.0
 10
441.2724153721384
 20
229.8779222665277
 30
0.0
 10
441.2757644440239
 20
229.8810461406203
 30
0.0
 10
441.2789963081745
 20
229.8842933545264
 30
0.0
 10
441.2821042786985
 20
229.8876571903763
 30
0.0
 10
441.2873669312405
 20
229.8894447045736
 30
0.0
 10
441.2903990689304
 20
229.8929665369929
 30
0.0
 10
441.2933096524723
 20
229.8965877717272
 30
0.0
 10
441.2985442073307
 20
229.8988397327073
 30
0.0
 10
441.3016468631935
 20
229.9029872481676
 30
0.0
 10
441.3045996690711
 20
229.9072407706494
 30
0.0
 10
441.3096520337514
 20
229.9094394631017
 30
0.0
 10
441.3125144804581
 20
229.9138378324617
 30
0.0
 10
441.3152321961188
 20
229.9183254622738
 30
0.0
 10
441.3192076163745
 20
229.9194859558284
 30
0.0
 10
441.3212065731446
 20
229.9229388270979
 30
0.0
 10
441.3231233516622
 20
229.9264373538372
 30
0.0
 10
441.3263815694228
 20
229.9281803331775
 30
0.0
 10
441.3282469616842
 20
229.9317427899821
 30
0.0
 10
441.3300316259491
 20
229.9353457998368
 30
0.0
  0
SPLINE
  5
F1
330
70
100
AcDbEntity
  8
shade
 62
     6
420
 16711935
370
    25
100
AcDbSpline
210
0.0
220
0.0
230
1.0
 70
     8
 71
     3
 72
    89
 73
    85
 74
     0
 42
0.0000000001
 43
0.0000000001
 40
0.0
 40
0.0
 40
0.0
 40
0.0
 40
1.0
 40
1.0
 40
1.0
 40
2.0
 40
2.0
 40
2.0
 40
3.0
 40
3.0
 40
3.0
 40
4.0
 40
4.0
 40
4.0
 40
5.0
 40
5.0
 40
5.0
 40
6.0
 40
6.0
 40
6.0
 40
7.0
 40
7.0
 40
7.0
 40
8.0
 40
8.0
 40
8.0
 40
9.0
 40
9.0
 40
9.0
 40
10.0
 40
10.0
 40
10.0
 40
11.0
 40
11.0
 40
11.0
 40
12.0
 40
12.0
 40
12.0
 40
13.0
 40
13.0
 40
13.0
 40
14.0
 40
14.0
 40
14.0
 40
15.0
 40
15.0
 40
15.0
 40
16.0
 40
16.0
 40
16.0
 40
17.0
 40
17.0
 40
17.0
 40
18.0
 40
18.0
 40
18.0
 40
19.0
 40
19.0
 40
19.0
 40
20.0
 40
20.0
 40
20.0
 40
21.0
 40
21.0
 40
21.0
 40
22.0
 40
22.0
 40
22.0
 40
23.0
 40
23.0
 40
23.0
 40
24.0
 40
24.0
 40
24.0
 40
25.0
 40
25.0
 40
25.0
 40
26.0
 40
26.0
 40
26.0
 40
27.0
 40
27.0
 40
27.0
 40
28.0
 40
28.0
 40
28.0
 40
28.0
 10
451.9467985122864
 20
231.8615967632779
 30
0.0
 10
451.9461671578276
 20
231.8634976936317
 30
0.0
 10
451.9455133459859
 20
231.8653910914453
 30
0.0
 10
451.9448372138618
 20
231.8672765595465
 30
0.0
 10
451.9437699633914
 20
231.8681668035226
 30
0.0
 10
451.943089930527
 20
231.8700449977438
 30
0.0
 10
451.9423982316967
 20
231.8719189064514
 30
0.0
 10
451.9401674693669
 20
231.875860154154
 30
0.0
 10
451.9382930600539
 20
231.8807594374784
 30
0.0
 10
451.9363531931201
 20
231.8856329196707
 30
0.0
 10
451.9332936626669
 20
231.8879264833308
 30
0.0
 10
451.9313138103861
 20
231.8927647104585
 30
0.0
 10
451.9292714982298
 20
231.8975766666512
 30
0.0
 10
451.9275337775576
 20
231.8962898618287
 30
0.0
 10
451.9270023472463
 20
231.8975391700863
 30
0.0
 10
451.9264660507707
 20
231.8987863915604
 30
0.0
 10
451.9255987188337
 20
231.8993795765922
 30
0.0
 10
451.9250585297784
 20
231.9006235256133
 30
0.0
 10
451.9245127655578
 20
231.9018650312517
 30
0.0
 10
451.9245127655578
 20
231.9018650312517
 30
0.0
 10
451.9202926348609
 20
231.9071148874455
 30
0.0
 10
451.9202926348609
 20
231.9071148874455
 30
0.0
 10
451.9174309018242
 20
231.9096100082397
 30
0.0
 10
451.9143257352453
 20
231.9118113128788
 30
0.0
 10
451.9110239116383
 20
231.9136856406932
 30
0.0
 10
451.9060181709526
 20
231.9141448725588
 30
0.0
 10
451.9026023131043
 20
231.9154916679382
 30
0.0
 10
451.8990598004942
 20
231.9164026255366
 30
0.0
 10
451.8936522677996
 20
231.9162296341236
 30
0.0
 10
451.8901742471889
 20
231.9165438219766
 30
0.0
 10
451.8866966239082
 20
231.9164343546671
 30
0.0
 10
451.8811194185554
 20
231.9157747401156
 30
0.0
 10
451.8777045285646
 20
231.9151512851163
 30
0.0
 10
451.8743760901761
 20
231.9141958158115
 30
0.0
 10
451.8692977897757
 20
231.9133834473493
 30
0.0
 10
451.8664579380603
 20
231.9122144958145
 30
0.0
 10
451.8637139578998
 20
231.9108444629907
 30
0.0
 10
451.8591103471049
 20
231.9098831215631
 30
0.0
 10
451.85641811651
 20
231.9082805263078
 30
0.0
 10
451.8538144256344
 20
231.9065415611859
 30
0.0
 10
451.8495875895053
 20
231.9056051603501
 30
0.0
 10
451.8471791021838
 20
231.9038060924095
 30
0.0
 10
451.8448483738382
 20
231.9019094170417
 30
0.0
 10
451.8409275340893
 20
231.9008535601033
 30
0.0
 10
451.8386311361135
 20
231.8988422770226
 30
0.0
 10
451.8363971894985
 20
231.8967628740663
 30
0.0
 10
451.8318016212665
 20
231.8948668542955
 30
0.0
 10
451.8287957301447
 20
231.8918514748679
 30
0.0
 10
451.8258973841551
 20
231.8887343403443
 30
0.0
 10
451.8210011098759
 20
231.8870877115825
 30
0.0
 10
451.8181354819057
 20
231.8838616926768
 30
0.0
 10
451.8153402783692
 20
231.8805751221032
 30
0.0
 10
451.8153402783692
 20
231.8805751221032
 30
0.0
 10
451.808051697204
 20
231.8777875924827
 30
0.0
 10
451.808051697204
 20
231.8777875924827
 30
0.0
 10
451.8077973436208
 20
231.8761596659768
 30
0.0
 10
451.8075489220383
 20
231.8745308181109
 30
0.0
 10
451.8073064375586
 20
231.8729010813753
 30
0.0
 10
451.806901159953
 20
231.872120677671
 30
0.0
 10
451.8066631639284
 20
231.8704895754344
 30
0.0
 10
451.8064317257587
 20
231.8688575365355
 30
0.0
 10
451.8050940740134
 20
231.8614446532714
 30
0.0
 10
451.8041028919659
 20
231.8531545576146
 30
0.0
 10
451.8033044473711
 20
231.8448448133476
 30
0.0
 10
451.8016920905924
 20
231.8408364468614
 30
0.0
 10
451.8011076718776
 20
231.832489596256
 30
0.0
 10
451.8008048526006
 20
231.8241301680176
 30
0.0
 10
451.7998985369586
 20
231.820937076548
 30
0.0
 10
451.7998046247797
 20
231.8133944743069
 30
0.0
 10
451.7999771324205
 20
231.8058556136159
 30
0.0
 10
451.7998297244051
 20
231.8022409263388
 30
0.0
 10
451.8002551101436
 20
231.7947059325252
 30
0.0
 10
451.8010245759531
 20
231.7872022437917
 30
0.0
 10
451.8016496154433
 20
231.7844956517019
 30
0.0
 10
451.8025240903216
 20
231.7778876032221
 30
0.0
 10
451.8036957747798
 20
231.771329189861
 30
0.0
 10
451.8051254811528
 20
231.76824226115
 30
0.0
 10
451.8065413353071
 20
231.7617577293709
 30
0.0
 10
451.8082998287738
 20
231.7553625091328
 30
0.0
 10
451.8095911494794
 20
231.7563655342683
 30
0.0
 10
451.8102601639323
 20
231.7539722354719
 30
0.0
 10
451.8109793536616
 20
231.7515938208269
 30
0.0
 10
451.8120715493152
 20
231.7504766653939
 30
0.0
 10
451.8128249371807
 20
231.7481193914436
 30
0.0
 10
451.8136296214457
 20
231.7457794445959
 30
0.0
  0
SPLINE
  5
F2
330
70
100
AcDbEntity
  8
shade
 62
     6
420
 16711935
370
    25
100
AcDbSpline
210
0.0
220
0.0
230
1.0
 70
     8
 71
     3
 72
    29
 73
    25
 74
     0
 42
0.0000000001
 43
0.0000000001
 40
0.0
 40
0.0
 40
0.0
 40
0.0
 40
1.0
 40
1.0
 40
1.0
 40
2.0
 40
2.0
 40
2.0
 40
3.0
 40
3.0
 40
3.0
 40
4.0
 40
4.0
 40
4.0
 40
5.0
 40
5.0
 40
5.0
 40
6.0
 40
6.0
 40
6.0
 40
7.0
 40
7.0
 40
7.0
 40
8.0
 40
8.0
 40
8.0
 40
8.0
 10
441.3312600587641
 20
229.9335095707419
 30
0.0
 10
441.3964583332442
 20
229.9871862426819
 30
0.0
 10
441.4627945226891
 20
230.0394656227589
 30
0.0
 10
441.5302233332503
 20
230.090312015064
 30
0.0
 10
441.6384428176291
 20
230.1125667708954
 30
0.0
 10
441.7062953354615
 20
230.1617280032711
 30
0.0
 10
441.7749395313629
 20
230.2097678116518
 30
0.0
 10
441.8360514385937
 20
230.1965948344506
 30
0.0
 10
441.8548656065783
 20
230.2095753208916
 30
0.0
 10
441.8737327890994
 20
230.2224784589883
 30
0.0
 10
441.9044364225951
 20
230.2285336258119
 30
0.0
 10
441.9233334226246
 20
230.2413332586177
 30
0.0
 10
441.9422784655132
 20
230.2540615285622
 30
0.0
 10
442.0046981778266
 20
230.2812284937107
 30
0.0
 10
442.0555199788805
 20
230.3146450500776
 30
0.0
 10
442.1066479632858
 20
230.3475888246548
 30
0.0
 10
442.1895828133799
 20
230.3626499772186
 30
0.0
 10
442.2408317473449
 20
230.3950377846182
 30
0.0
 10
442.2923065563993
 20
230.4270639683251
 30
0.0
 10
442.388333229528
 20
230.4495328787784
 30
0.0
 10
442.4524063926512
 20
230.4886322348089
 30
0.0
 10
442.5167598577129
 20
230.5272665978172
 30
0.0
 10
442.6213215011138
 20
230.5450579057909
 30
0.0
 10
442.6857263016565
 20
230.5832464301786
 30
0.0
 10
442.7502799375155
 20
230.6211822552398
 30
0.0
  0
SPLINE
  5
F3
330
70
100
AcDbEntity
  8
shade
 62
     6
420
 16711935
370
    25
100
AcDbSpline
210
0.0
220
0.0
230
1.0
 70
     8
 71
     3
 72
    41
 73
    37
 74
     0
 42
0.0000000001
 43
0.0000000001
 40
0.0
 40
0.0
 40
0.0
 40
0.0
 40
1.0
 40
1.0
 40
1.0
 40
2.0
 40
2.0
 40
2.0
 40
3.0
 40
3.0
 40
3.0
 40
4.0
 40
4.0
 40
4.0
 40
5.0
 40
5.0
 40
5.0
 40
6.0
 40
6.0
 40
6.0
 40
7.0
 40
7.0
 40
7.0
 40
8.0
 40
8.0
 40
8.0
 40
9.0
 40
9.0
 40
9.0
 40
10.0
 40
10.0
 40
10.0
 40
11.0
 40
11.0
 40
11.0
 40
12.0
 40
12.0
 40
12.0
 40
12.0
 10
452.3689945990303
 20
231.8107808051931
 30
0.0
 10
452.3599044358347
 20
231.8130308705604
 30
0.0
 10
452.3508655091212
 20
231.8154830960005
 30
0.0
 10
452.3418845415468
 20
231.8181356576684
 30
0.0
 10
452.3271432784676
 20
231.819699668078
 30
0.0
 10
452.3181791862437
 20
231.8225516466931
 30
0.0
 10
452.3092523136391
 20
231.8255168739557
 30
0.0
 10
452.2945026072148
 20
231.8271431722985
 30
0.0
 10
452.2854645594052
 20
231.8302739258061
 30
0.0
 10
452.2764530603782
 20
231.8334798014213
 30
0.0
 10
452.2617053511948
 20
231.8351228398978
 30
0.0
 10
452.2526834635339
 20
231.8383567402525
 30
0.0
 10
452.2436602018183
 20
231.8415868031587
 30
0.0
 10
452.2271424892942
 20
231.8437674069279
 30
0.0
 10
452.2163013482606
 20
231.8475715704268
 30
0.0
 10
452.2054371602074
 20
231.851309073487
 30
0.0
 10
452.1877465375697
 20
231.8529980125174
 30
0.0
 10
452.1768220696928
 20
231.8565008769183
 30
0.0
 10
452.1658340801455
 20
231.8597954853457
 30
0.0
 10
452.1517595819752
 20
231.8599714914149
 30
0.0
 10
452.1445089573687
 20
231.8619658654791
 30
0.0
 10
452.1372274129647
 20
231.8638422332259
 30
0.0
 10
452.1253986670239
 20
231.8645672035347
 30
0.0
 10
452.1180893340966
 20
231.8662305232642
 30
0.0
 10
452.110745392363
 20
231.8677289590047
 30
0.0
 10
452.0934882993402
 20
231.8692460367308
 30
0.0
 10
452.0807145259358
 20
231.8711234212651
 30
0.0
 10
452.0678740353146
 20
231.8724017243951
 30
0.0
 10
452.0470900419824
 20
231.8721433317557
 30
0.0
 10
452.0342427238587
 20
231.8723327082722
 30
0.0
 10
452.0214243179323
 20
231.8716813045775
 30
0.0
 10
452.0040624247477
 20
231.8704163080926
 30
0.0
 10
451.9948038626934
 20
231.8691981255952
 30
0.0
 10
451.9856284082567
 20
231.8674964495059
 30
0.0
 10
451.970573929812
 20
231.8659694692724
 30
0.0
 10
451.961502172817
 20
231.8635412922187
 30
0.0
 10
451.9525903121247
 20
231.8606037529509
 30
0.0
  0
SPLINE
  5
F4
330
70
100
AcDbEntity
  8
shade
 62
     6
420
 16711935
370
    25
100
AcDbSpline
210
0.0
220
0.0
230
1.0
 70
     8
 71
     3
 72
    41
 73
    37
 74
     0
 42
0.0000000001
 43
0.0000000001
 40
0.0
 40
0.0
 40
0.0
 40
0.0
 40
1.0
 40
1.0
 40
1.0
 40
2.0
 40
2.0
 40
2.0
 40
3.0
 40
3.0
 40
3.0
 40
4.0
 40
4.0
 40
4.0
 40
5.0
 40
5.0
 40
5.0
 40
6.0
 40
6.0
 40
6.0
 40
7.0
 40
7.0
 40
7.0
 40
8.0
 40
8.0
 40
8.0
 40
9.0
 40
9.0
 40
9.0
 40
10.0
 40
10.0
 40
10.0
 40
11.0
 40
11.0
 40
11.0
 40
12.0
 40
12.0
 40
12.0
 40
12.0
 10
441.5594327204628
 20
230.5564563954336
 30
0.0
 10
441.5501862182108
 20
230.5891591346878
 30
0.0
 10
441.5439692867037
 20
230.6226435133065
 30
0.0
 10
441.5408605915616
 20
230.6564858384972
 30
0.0
 10
441.530905717758
 20
230.6737172898925
 30
0.0
 10
441.5300267423396
 20
230.7082282572805
 30
0.0
 10
441.5324295517681
 20
230.7425883895995
 30
0.0
 10
441.5309449560424
 20
230.7551489721197
 30
0.0
 10
441.5345009105926
 20
230.7852969289198
 30
0.0
 10
441.5404590402029
 20
230.8150134244856
 30
0.0
 10
441.5462785258383
 20
230.8289707053074
 30
0.0
 10
441.5534880822717
 20
230.8582613081731
 30
0.0
 10
441.5627376095784
 20
230.8869334814345
 30
0.0
 10
441.5737871691905
 20
230.897697410988
 30
0.0
 10
441.5831737659857
 20
230.9234096182448
 30
0.0
 10
441.5940678267957
 20
230.9484937298012
 30
0.0
 10
441.609355599078
 20
230.959746952557
 30
0.0
 10
441.6209631539498
 20
230.9841006587591
 30
0.0
 10
441.6337800067372
 20
231.0078205877593
 30
0.0
 10
441.654502488156
 20
231.0217933762327
 30
0.0
 10
441.6701186323103
 20
231.0479607178724
 30
0.0
 10
441.6870923011471
 20
231.0732426396767
 30
0.0
 10
441.712520675705
 20
231.0841789037905
 30
0.0
 10
441.7301236406259
 20
231.1083879019014
 30
0.0
 10
441.7487963348717
 20
231.1317620360672
 30
0.0
 10
441.7833492118247
 20
231.1492218104076
 30
0.0
 10
441.809183095456
 20
231.1783258163742
 30
0.0
 10
441.8365753113697
 20
231.2059257299363
 30
0.0
 10
441.8786107377734
 20
231.2170947343892
 30
0.0
 10
441.9067732494308
 20
231.2427538008787
 30
0.0
 10
441.9361829013388
 20
231.2669347423098
 30
0.0
 10
441.9769280181356
 20
231.2723004895907
 30
0.0
 10
442.0015676767014
 20
231.2907487484871
 30
0.0
 10
442.0269443874303
 20
231.3081455719593
 30
0.0
 10
442.0670815746542
 20
231.3149828525018
 30
0.0
 10
442.0929214854014
 20
231.3308289616939
 30
0.0
 10
442.1194308362603
 20
231.3454964843714
 30
0.0
  0
SPLINE
  5
F5
330
70
100
AcDbEntity
  8
shade
 62
     6
420
 16711935
370
    25
100
AcDbSpline
210
0.0
220
0.0
230
1.0
 70
     8
 71
     3
 72
    35
 73
    31
 74
     0
 42
0.0000000001
 43
0.0000000001
 40
0.0
 40
0.0
 40
0.0
 40
0.0
 40
1.0
 40
1.0
 40
1.0
 40
2.0
 40
2.0
 40
2.0
 40
3.0
 40
3.0
 40
3.0
 40
4.0
 40
4.0
 40
4.0
 40
5.0
 40
5.0
 40
5.0
 40
6.0
 40
6.0
 40
6.0
 40
7.0
 40
7.0
 40
7.0
 40
8.0
 40
8.0
 40
8.0
 40
9.0
 40
9.0
 40
9.0
 40
10.0
 40
10.0
 40
10.0
 40
10.0
 10
439.3046730297499
 20
228.6879780024143
 30
0.0
 10
439.3505717000722
 20
228.7324307990346
 30
0.0
 10
439.3967623065142
 20
228.7765811702543
 30
0.0
 10
439.4432418507435
 20
228.8204262501313
 30
0.0
 10
439.5186231481462
 20
228.8409420059577
 30
0.0
 10
439.5652196604415
 20
228.8844276949711
 30
0.0
 10
439.6120329363284
 20
228.9276793589369
 30
0.0
 10
439.6884184388468
 20
228.9483296652579
 30
0.0
 10
439.7356830961872
 20
228.991597523157
 30
0.0
 10
439.7831321976055
 20
229.0346625968552
 30
0.0
 10
439.8602663673599
 20
229.0549534502372
 30
0.0
 10
439.9077706698812
 20
229.0978015489664
 30
0.0
 10
439.9553942031982
 20
229.1405169031154
 30
0.0
 10
439.9553942031982
 20
229.1405169031154
 30
0.0
 10
440.2170177518296
 20
229.259035095265
 30
0.0
 10
440.2170177518296
 20
229.259035095265
 30
0.0
 10
440.2170177518296
 20
229.259035095265
 30
0.0
 10
440.449370420719
 20
229.399617461401
 30
0.0
 10
440.449370420719
 20
229.399617461401
 30
0.0
 10
440.449370420719
 20
229.399617461401
 30
0.0
 10
440.681360737493
 20
229.5403322014313
 30
0.0
 10
440.681360737493
 20
229.5403322014313
 30
0.0
 10
440.681360737493
 20
229.5403322014313
 30
0.0
 10
440.7968967407452
 20
229.6108962642358
 30
0.0
 10
440.7968967407452
 20
229.6108962642358
 30
0.0
 10
440.8443845557113
 20
229.6535457951391
 30
0.0
 10
440.891745561708
 20
229.6963363098885
 30
0.0
 10
440.9389791316637
 20
229.739267241958
 30
0.0
 10
441.0162649130174
 20
229.7599958095069
 30
0.0
 10
441.0633500219135
 20
229.8031971889562
 30
0.0
 10
441.1102412997016
 20
229.84660840781
 30
0.0
  0
SPLINE
  5
F6
330
70
100
AcDbEntity
  8
shade
 62
     6
420
 16711935
370
    25
100
AcDbSpline
210
0.0
220
0.0
230
1.0
 70
     8
 71
     3
 72
    47
 73
    43
 74
     0
 42
0.0000000001
 43
0.0000000001
 40
0.0
 40
0.0
 40
0.0
 40
0.0
 40
1.0
 40
1.0
 40
1.0
 40
2.0
 40
2.0
 40
2.0
 40
3.0
 40
3.0
 40
3.0
 40
4.0
 40
4.0
 40
4.0
 40
5.0
 40
5.0
 40
5.0
 40
6.0
 40
6.0
 40
6.0
 40
7.0
 40
7.0
 40
7.0
 40
8.0
 40
8.0
 40
8.0
 40
9.0
 40
9.0
 40
9.0
 40
10.0
 40
10.0
 40
10.0
 40
11.0
 40
11.0
 40
11.0
 40
12.0
 40
12.0
 40
12.0
 40
13.0
 40
13.0
 40
13.0
 40
14.0
 40
14.0
 40
14.0
 40
14.0
 10
435.7372764409782
 20
229.3465311953853
 30
0.0
 10
435.7804346679432
 20
229.4741606649786
 30
0.0
 10
435.8338904522846
 20
229.5980729241441
 30
0.0
 10
435.8971162970783
 20
229.7170452176442
 30
0.0
 10
435.9839069970234
 20
229.7682918576863
 30
0.0
 10
436.0521460233427
 20
229.8812695943394
 30
0.0
 10
436.1284161358897
 20
229.9887693542853
 30
0.0
 10
436.2273759438005
 20
230.0162356685343
 30
0.0
 10
436.293712022632
 20
230.1012890276748
 30
0.0
 10
436.3646542779077
 20
230.1824277092407
 30
0.0
 10
436.4726110286504
 20
230.2160203895496
 30
0.0
 10
436.5453996345189
 20
230.2925784353771
 30
0.0
 10
436.621518738837
 20
230.3657489062852
 30
0.0
 10
436.7485117624986
 20
230.4041586922931
 30
0.0
 10
436.8352581681183
 20
230.480450904406
 30
0.0
 10
436.9251978734467
 20
230.5528641108796
 30
0.0
 10
437.0665175340048
 20
230.5820937476401
 30
0.0
 10
437.1574688090492
 20
230.6501995745654
 30
0.0
 10
437.2504863745954
 20
230.7154064374945
 30
0.0
 10
437.3687739200559
 20
230.7216340333646
 30
0.0
 10
437.4317981453652
 20
230.7637115743937
 30
0.0
 10
437.4955701291471
 20
230.8046354243764
 30
0.0
 10
437.59839593144
 20
230.8225360093525
 30
0.0
 10
437.662447514358
 20
230.8621155090643
 30
0.0
 10
437.7270312272499
 20
230.9008137810668
 30
0.0
 10
437.7832477980414
 20
230.8892843008444
 30
0.0
 10
437.7993717867812
 20
230.8988156054177
 30
0.0
 10
437.8155251353125
 20
230.9082969783071
 30
0.0
 10
437.8418384619433
 20
230.9127563652531
 30
0.0
 10
437.8580082896325
 20
230.9221709969514
 30
0.0
 10
437.874204705775
 20
230.9315397383371
 30
0.0
 10
437.874204705775
 20
230.9315397383371
 30
0.0
 10
438.0020518085244
 20
230.9723360798054
 30
0.0
 10
438.0020518085244
 20
230.9723360798054
 30
0.0
 10
438.0663279304991
 20
231.0084817831915
 30
0.0
 10
438.1309092685579
 20
231.0440820337533
 30
0.0
 10
438.1957888633158
 20
231.079132995259
 30
0.0
 10
438.3011777979413
 20
231.0950889039933
 30
0.0
 10
438.3661087827228
 20
231.1296176701307
 30
0.0
 10
438.431194938311
 20
231.1638522361251
 30
0.0
 10
438.431194938311
 20
231.1638522361251
 30
0.0
 10
438.9307110952642
 20
231.3085677727071
 30
0.0
 10
438.9307110952642
 20
231.3085677727071
 30
0.0
  0
SPLINE
  5
F7
330
70
100
AcDbEntity
  8
shade
 62
     6
420
 16711935
370
    25
100
AcDbSpline
210
0.0
220
0.0
230
1.0
 70
     8
 71
     3
 72
    29
 73
    25
 74
     0
 42
0.0000000001
 43
0.0000000001
 40
0.0
 40
0.0
 40
0.0
 40
0.0
 40
1.0
 40
1.0
 40
1.0
 40
2.0
 40
2.0
 40
2.0
 40
3.0
 40
3.0
 40
3.0
 40
4.0
 40
4.0
 40
4.0
 40
5.0
 40
5.0
 40
5.0
 40
6.0
 40
6.0
 40
6.0
 40
7.0
 40
7.0
 40
7.0
 40
8.0
 40
8.0
 40
8.0
 40
8.0
 10
436.3974364048893
 20
226.9841027100083
 30
0.0
 10
436.3187546850095
 20
227.0934325938885
 30
0.0
 10
436.2462900023062
 20
227.2071051249377
 30
0.0
 10
436.1803862785237
 20
227.324580806347
 30
0.0
 10
436.0627505433872
 20
227.3869740766063
 30
0.0
 10
436.0019215710384
 20
227.5102646984574
 30
0.0
 10
435.9486233169162
 20
227.6368595064267
 30
0.0
 10
435.8590316049563
 20
227.6822035420726
 30
0.0
 10
435.8181069058913
 20
227.7920902152164
 30
0.0
 10
435.7831490298877
 20
227.9039301025904
 30
0.0
 10
435.7167447230785
 20
227.9608216033166
 30
0.0
 10
435.6868975805843
 20
228.0758859051334
 30
0.0
 10
435.6643256645821
 20
228.1924772594999
 30
0.0
 10
435.6163437663709
 20
228.2497976232034
 30
0.0
 10
435.5995124786647
 20
228.3673928507679
 30
0.0
 10
435.5906676087989
 20
228.4857210615394
 30
0.0
 10
435.5635510915172
 20
228.544326539513
 30
0.0
 10
435.561450323853
 20
228.6640337926648
 30
0.0
 10
435.5688283668038
 20
228.7833437011411
 30
0.0
 10
435.5660278116427
 20
228.8517632643233
 30
0.0
 10
435.5825302907526
 20
228.9813008866695
 30
0.0
 10
435.610854596876
 20
229.1084918684297
 30
0.0
 10
435.6378175042589
 20
229.1679454450303
 30
0.0
 10
435.6741368490828
 20
229.2923220780338
 30
0.0
 10
435.7221171687668
 20
229.412360679299
 30
0.0
  0
SPLINE
  5
F8
330
70
100
AcDbEntity
  8
shade
 62
     6
420
 16711935
370
    25
100
AcDbSpline
210
0.0
220
0.0
230
1.0
 70
     8
 71
     3
 72
    29
 73
    25
 74
     0
 42
0.0000000001
 43
0.0000000001
 40
0.0
 40
0.0
 40
0.0
 40
0.0
 40
1.0
 40
1.0
 40
1.0
 40
2.0
 40
2.0
 40
2.0
 40
3.0
 40
3.0
 40
3.0
 40
4.0
 40
4.0
 40
4.0
 40
5.0
 40
5.0
 40
5.0
 40
6.0
 40
6.0
 40
6.0
 40
7.0
 40
7.0
 40
7.0
 40
8.0
 40
8.0
 40
8.0
 40
8.0
 10
446.9405909068056
 20
218.5742778854122
 30
0.0
 10
446.9198148473453
 20
218.5742369873772
 30
0.0
 10
446.89903965639
 20
218.5739970623867
 30
0.0
 10
446.8782681936048
 20
218.5735581436357
 30
0.0
 10
446.8443683179826
 20
218.57305672063
 30
0.0
 10
446.8235984951324
 20
218.5724510167055
 30
0.0
 10
446.8028313389312
 20
218.5717623924491
 30
0.0
 10
446.7689446295986
 20
218.5713119482072
 30
0.0
 10
446.7481848542417
 20
218.5705637553254
 30
0.0
 10
446.727425997969
 20
218.5697906825539
 30
0.0
 10
446.6935478983132
 20
218.5693846784865
 30
0.0
 10
446.6727854899732
 20
218.5686923577652
 30
0.0
 10
446.6520203400377
 20
218.5680912878314
 30
0.0
 10
446.6233395255519
 20
218.5680785654867
 30
0.0
 10
446.6077745065215
 20
218.5677367346849
 30
0.0
 10
446.5922080406482
 20
218.5674747943732
 30
0.0
 10
446.5668081587887
 20
218.5674666200871
 30
0.0
 10
446.5512409862696
 20
218.56736731371
 30
0.0
 10
446.5356737924831
 20
218.5673970005149
 30
0.0
 10
446.4998663566491
 20
218.5676563371545
 30
0.0
 10
446.4738989649728
 20
218.5682470186119
 30
0.0
 10
446.4479476768636
 20
218.5692879325801
 30
0.0
 10
446.4055895860274
 20
218.570445325742
 30
0.0
 10
446.3796760683679
 20
218.5723476616981
 30
0.0
 10
446.3538248260077
 20
218.5749198729217
 30
0.0
  0
SPLINE
  5
F9
330
70
100
AcDbEntity
  8
shade
 62
     6
420
 16711935
370
    25
100
AcDbSpline
210
0.0
220
0.0
230
1.0
 70
     8
 71
     3
 72
   104
 73
   100
 74
     0
 42
0.0000000001
 43
0.0000000001
 40
0.0
 40
0.0
 40
0.0
 40
0.0
 40
1.0
 40
1.0
 40
1.0
 40
2.0
 40
2.0
 40
2.0
 40
3.0
 40
3.0
 40
3.0
 40
4.0
 40
4.0
 40
4.0
 40
5.0
 40
5.0
 40
5.0
 40
6.0
 40
6.0
 40
6.0
 40
7.0
 40
7.0
 40
7.0
 40
8.0
 40
8.0
 40
8.0
 40
9.0
 40
9.0
 40
9.0
 40
10.0
 40
10.0
 40
10.0
 40
11.0
 40
11.0
 40
11.0
 40
12.0
 40
12.0
 40
12.0
 40
13.0
 40
13.0
 40
13.0
 40
14.0
 40
14.0
 40
14.0
 40
15.0
 40
15.0
 40
15.0
 40
16.0
 40
16.0
 40
16.0
 40
17.0
 40
17.0
 40
17.0
 40
18.0
 40
18.0
 40
18.0
 40
19.0
 40
19.0
 40
19.0
 40
20.0
 40
20.0
 40
20.0
 40
21.0
 40
21.0
 40
21.0
 40
22.0
 40
22.0
 40
22.0
 40
23.0
 40
23.0
 40
23.0
 40
24.0
 40
24.0
 40
24.0
 40
25.0
 40
25.0
 40
25.0
 40
26.0
 40
26.0
 40
26.0
 40
27.0
 40
27.0
 40
27.0
 40
28.0
 40
28.0
 40
28.0
 40
29.0
 40
29.0
 40
29.0
 40
30.0
 40
30.0
 40
30.0
 40
31.0
 40
31.0
 40
31.0
 40
32.0
 40
32.0
 40
32.0
 40
33.0
 40
33.0
 40
33.0
 40
33.0
 10
451.2350666190394
 20
218.9329628661462
 30
0.0
 10
451.2270730377753
 20
218.919965139712
 30
0.0
 10
451.2180987912494
 20
218.9075966627866
 30
0.0
 10
451.2082221150685
 20
218.8959652613322
 30
0.0
 10
451.1936549911295
 20
218.8913387378315
 30
0.0
 10
451.1834301101627
 20
218.8805512327153
 30
0.0
 10
451.1725754456906
 20
218.8704179872305
 30
0.0
 10
451.150876737829
 20
218.8617252688862
 30
0.0
 10
451.1341004155586
 20
218.8483215439171
 30
0.0
 10
451.1163810522361
 20
218.8362466585849
 30
0.0
 10
451.0891612974658
 20
218.8322589066046
 30
0.0
 10
451.0712435919776
 20
218.8215501423293
 30
0.0
 10
451.0528241852436
 20
218.8117571690926
 30
0.0
 10
451.0155415731654
 20
218.8041614498631
 30
0.0
 10
450.9884504374377
 20
218.7920332954147
 30
0.0
 10
450.9607385157545
 20
218.7814663347954
 30
0.0
 10
450.9166752066888
 20
218.7786190601724
 30
0.0
 10
450.8888961330256
 20
218.769582435073
 30
0.0
 10
450.860841760768
 20
218.7614691337874
 30
0.0
 10
450.8185111747992
 20
218.7597395688806
 30
0.0
 10
450.7933576223241
 20
218.7534161157389
 30
0.0
 10
450.7680649098088
 20
218.747690968648
 30
0.0
 10
450.7270400840466
 20
218.745823339006
 30
0.0
 10
450.7017195800259
 20
218.7407355107473
 30
0.0
 10
450.6763253289721
 20
218.7360379516346
 30
0.0
 10
450.6058558034947
 20
218.7291495347467
 30
0.0
 10
450.551111422229
 20
218.7206782900673
 30
0.0
 10
450.4961915914532
 20
218.7134891107072
 30
0.0
 10
450.4069029914499
 20
218.7119207051514
 30
0.0
 10
450.3520273964554
 20
218.7054976179126
 30
0.0
 10
450.2971255315072
 20
218.6993052647082
 30
0.0
 10
450.2217965239057
 20
218.6982622202453
 30
0.0
 10
450.1811349538449
 20
218.6936701092407
 30
0.0
 10
450.1404820833552
 20
218.6890019237703
 30
0.0
 10
450.0741277798796
 20
218.6866590873588
 30
0.0
 10
450.033535241048
 20
218.6814402755049
 30
0.0
 10
449.9930142744151
 20
218.6757039856163
 30
0.0
 10
449.9410061841685
 20
218.6742908774907
 30
0.0
 10
449.9147329243831
 20
218.670105961835
 30
0.0
 10
449.8885132662204
 20
218.6656031555437
 30
0.0
 10
449.8456459716936
 20
218.6629836999647
 30
0.0
 10
449.8193665129281
 20
218.6585938304925
 30
0.0
 10
449.793047435617
 20
218.6544519040493
 30
0.0
 10
449.7157399535176
 20
218.6475499970757
 30
0.0
 10
449.6548610995925
 20
218.6392292143457
 30
0.0
 10
449.5938575356833
 20
218.6319132831474
 30
0.0
 10
449.4945363177726
 20
218.629883519077
 30
0.0
 10
449.4335222443361
 20
218.6235397985333
 30
0.0
 10
449.3724545799889
 20
218.6177478504127
 30
0.0
 10
449.283399274137
 20
218.6167434023313
 30
0.0
 10
449.2328317318661
 20
218.6124444796656
 30
0.0
 10
449.1822396960873
 20
218.6084499382047
 30
0.0
 10
449.0997205224345
 20
218.6069860912983
 30
0.0
 10
449.0491230090364
 20
218.603316418298
 30
0.0
 10
448.9985117951174
 20
218.5998436071899
 30
0.0
 10
448.9985117951174
 20
218.5998436071899
 30
0.0
 10
448.7133277886388
 20
218.5911457258015
 30
0.0
 10
448.7133277886388
 20
218.5911457258015
 30
0.0
 10
448.7133277886388
 20
218.5911457258015
 30
0.0
 10
448.4588305892367
 20
218.5815421347314
 30
0.0
 10
448.4588305892367
 20
218.5815421347314
 30
0.0
 10
448.4588305892367
 20
218.5815421347314
 30
0.0
 10
447.9643722406815
 20
218.5632497413214
 30
0.0
 10
447.9643722406815
 20
218.5632497413214
 30
0.0
 10
447.9437097859969
 20
218.5620458868087
 30
0.0
 10
447.9230552966539
 20
218.5607090062182
 30
0.0
 10
447.9024100570855
 20
218.5592391828144
 30
0.0
 10
447.8687053929834
 20
218.5583416626043
 30
0.0
 10
447.8480633304799
 20
218.5567355157136
 30
0.0
 10
447.8274277462162
 20
218.5550491365259
 30
0.0
 10
447.8274277462162
 20
218.5550491365259
 30
0.0
 10
447.6658671806762
 20
218.5469026462797
 30
0.0
 10
447.6658671806762
 20
218.5469026462797
 30
0.0
 10
447.6459616815414
 20
218.5451086287293
 30
0.0
 10
447.6260541884226
 20
218.543336804878
 30
0.0
 10
447.6061447384
 20
218.5415871780224
 30
0.0
 10
447.5736574034756
 20
218.5407833313427
 30
0.0
 10
447.5537419845681
 20
218.5391209872788
 30
0.0
 10
447.5338202882431
 20
218.5375366085851
 30
0.0
 10
447.5338202882431
 20
218.5375366085851
 30
0.0
 10
447.4511349170128
 20
218.5350306271569
 30
0.0
 10
447.4511349170128
 20
218.5350306271569
 30
0.0
 10
447.4155468984709
 20
218.5327576572848
 30
0.0
 10
447.3799252488289
 20
218.5310460354078
 30
0.0
 10
447.3442832540534
 20
218.529896399819
 30
0.0
 10
447.286178750001
 20
218.5301695935814
 30
0.0
 10
447.2505373724469
 20
218.5305525328542
 30
0.0
 10
447.2149452586985
 20
218.5322306615938
 30
0.0
 10
447.1769645206383
 20
218.5336749765852
 30
0.0
 10
447.1614926644882
 20
218.5349717488159
 30
0.0
 10
447.1460535289077
 20
218.5365961953362
 30
0.0
 10
447.1208214645878
 20
218.5378536154117
 30
0.0
 10
447.1054353023829
 20
218.5400931617948
 30
0.0
 10
447.090129341869
 20
218.5428064131325
 30
0.0
 10
447.0605487943952
 20
218.5456575336795
 30
0.0
 10
447.0409202718515
 20
218.5504102515572
 30
0.0
 10
447.0215637013279
 20
218.5561276263995
 30
0.0
 10
446.9896601046433
 20
218.560286796956
 30
0.0
 10
446.9708303706205
 20
218.5680803423247
 30
0.0
 10
446.9527794191618
 20
218.57745628598
 30
0.0
  0
SPLINE
  5
FA
330
70
100
AcDbEntity
  8
shade
 62
     6
420
 16711935
370
    25
100
AcDbSpline
210
0.0
220
0.0
230
1.0
 70
     8
 71
     3
 72
    65
 73
    61
 74
     0
 42
0.0000000001
 43
0.0000000001
 40
0.0
 40
0.0
 40
0.0
 40
0.0
 40
1.0
 40
1.0
 40
1.0
 40
2.0
 40
2.0
 40
2.0
 40
3.0
 40
3.0
 40
3.0
 40
4.0
 40
4.0
 40
4.0
 40
5.0
 40
5.0
 40
5.0
 40
6.0
 40
6.0
 40
6.0
 40
7.0
 40
7.0
 40
7.0
 40
8.0
 40
8.0
 40
8.0
 40
9.0
 40
9.0
 40
9.0
 40
10.0
 40
10.0
 40
10.0
 40
11.0
 40
11.0
 40
11.0
 40
12.0
 40
12.0
 40
12.0
 40
13.0
 40
13.0
 40
13.0
 40
14.0
 40
14.0
 40
14.0
 40
15.0
 40
15.0
 40
15.0
 40
16.0
 40
16.0
 40
16.0
 40
17.0
 40
17.0
 40
17.0
 40
18.0
 40
18.0
 40
18.0
 40
19.0
 40
19.0
 40
19.0
 40
20.0
 40
20.0
 40
20.0
 40
20.0
 10
453.6959246344916
 20
219.7899145337169
 30
0.0
 10
453.7016623772256
 20
219.7608253813743
 30
0.0
 10
453.7040952164828
 20
219.731181095123
 30
0.0
 10
453.7031768647383
 20
219.7015456922372
 30
0.0
 10
453.7069822071979
 20
219.6867258725814
 30
0.0
 10
453.7030764696101
 20
219.6569801307416
 30
0.0
 10
453.6951613434517
 20
219.628188607008
 30
0.0
 10
453.6879794198829
 20
219.6111473946702
 30
0.0
 10
453.6759059639307
 20
219.5800031680383
 30
0.0
 10
453.6594671409227
 20
219.5511339913517
 30
0.0
 10
453.6400814437633
 20
219.5392721186827
 30
0.0
 10
453.6223489349471
 20
219.5123738410273
 30
0.0
 10
453.6020025824068
 20
219.4875037150528
 30
0.0
 10
453.5770964724336
 20
219.4827059938496
 30
0.0
 10
453.5602402292635
 20
219.4641822622493
 30
0.0
 10
453.5422376295887
 20
219.4468084073585
 30
0.0
 10
453.5148350568642
 20
219.440025053217
 30
0.0
 10
453.4965695168453
 20
219.4237979187285
 30
0.0
 10
453.4776584386229
 20
219.4083443241853
 30
0.0
 10
453.4496080264736
 20
219.4034229879495
 30
0.0
 10
453.4322613056474
 20
219.3901447202617
 30
0.0
 10
453.4145484080877
 20
219.37736652291
 30
0.0
 10
453.3862589372948
 20
219.3719688754974
 30
0.0
 10
453.3684293838492
 20
219.3597461957285
 30
0.0
 10
453.3503599011367
 20
219.3478850601156
 30
0.0
 10
453.303958000953
 20
219.331456893897
 30
0.0
 10
453.2677397691653
 20
219.3099125141563
 30
0.0
 10
453.2306901274814
 20
219.2898682033414
 30
0.0
 10
453.1716815648645
 20
219.2824104135136
 30
0.0
 10
453.1343830717014
 20
219.2640574466189
 30
0.0
 10
453.0965665162028
 20
219.2468190620912
 30
0.0
 10
453.0377772541435
 20
219.2410829633334
 30
0.0
 10
453.0018065303077
 20
219.2260648868562
 30
0.0
 10
452.9654895620823
 20
219.2119202019596
 30
0.0
 10
452.9068212278452
 20
219.2064203775584
 30
0.0
 10
452.8703897746453
 20
219.1932888745311
 30
0.0
 10
452.8337307437963
 20
219.1808165257094
 30
0.0
 10
452.7534302844045
 20
219.1688523426012
 30
0.0
 10
452.6955496388157
 20
219.1510445042238
 30
0.0
 10
452.6372753789582
 20
219.1346009371605
 30
0.0
 10
452.5428703023392
 20
219.1287186966535
 30
0.0
 10
452.4845247397343
 20
219.113666992686
 30
0.0
 10
452.4259743136785
 20
219.0994458759787
 30
0.0
 10
452.3398981335299
 20
219.0960225519035
 30
0.0
 10
452.2904395062106
 20
219.0847639213734
 30
0.0
 10
452.2408811132272
 20
219.0739578638142
 30
0.0
 10
452.1601741946007
 20
219.0694533736412
 30
0.0
 10
452.1106080906595
 20
219.0590439570931
 30
0.0
 10
452.0609991625434
 20
219.0488416782205
 30
0.0
 10
451.9721999036524
 20
219.0426540474504
 30
0.0
 10
451.9146726008984
 20
219.0310308322498
 30
0.0
 10
451.8571240743826
 20
219.0195134121044
 30
0.0
 10
451.763244597779
 20
219.0141627809924
 30
0.0
 10
451.7057722358595
 20
219.0023505122088
 30
0.0
 10
451.648371084712
 20
218.9901993814878
 30
0.0
 10
451.5598547805971
 20
218.985021437141
 30
0.0
 10
451.5078053130958
 20
218.9733619977235
 30
0.0
 10
451.4558696412271
 20
218.9612109375926
 30
0.0
 10
451.3709461408303
 20
218.9546813381759
 30
0.0
 10
451.3192600997572
 20
218.9411699673497
 30
0.0
 10
451.2678934930797
 20
218.9265149089449
 30
0.0
  0
SPLINE
  5
FB
330
70
100
AcDbEntity
  8
shade
 62
     6
420
 16711935
370
    25
100
AcDbSpline
210
0.0
220
0.0
230
1.0
 70
     8
 71
     3
 72
    86
 73
    82
 74
     0
 42
0.0000000001
 43
0.0000000001
 40
0.0
 40
0.0
 40
0.0
 40
0.0
 40
1.0
 40
1.0
 40
1.0
 40
2.0
 40
2.0
 40
2.0
 40
3.0
 40
3.0
 40
3.0
 40
4.0
 40
4.0
 40
4.0
 40
5.0
 40
5.0
 40
5.0
 40
6.0
 40
6.0
 40
6.0
 40
7.0
 40
7.0
 40
7.0
 40
8.0
 40
8.0
 40
8.0
 40
9.0
 40
9.0
 40
9.0
 40
10.0
 40
10.0
 40
10.0
 40
11.0
 40
11.0
 40
11.0
 40
12.0
 40
12.0
 40
12.0
 40
13.0
 40
13.0
 40
13.0
 40
14.0
 40
14.0
 40
14.0
 40
15.0
 40
15.0
 40
15.0
 40
16.0
 40
16.0
 40
16.0
 40
17.0
 40
17.0
 40
17.0
 40
18.0
 40
18.0
 40
18.0
 40
19.0
 40
19.0
 40
19.0
 40
20.0
 40
20.0
 40
20.0
 40
21.0
 40
21.0
 40
21.0
 40
22.0
 40
22.0
 40
22.0
 40
23.0
 40
23.0
 40
23.0
 40
24.0
 40
24.0
 40
24.0
 40
25.0
 40
25.0
 40
25.0
 40
26.0
 40
26.0
 40
26.0
 40
27.0
 40
27.0
 40
27.0
 40
27.0
 10
458.7182321063225
 20
226.9807510191871
 30
0.0
 10
458.7182321063225
 20
226.9807510191871
 30
0.0
 10
458.9128126777419
 20
226.8067745706643
 30
0.0
 10
458.9128126777419
 20
226.8067745706643
 30
0.0
 10
458.9635687344588
 20
226.7398399924146
 30
0.0
 10
459.0138550129377
 20
226.6725504792667
 30
0.0
 10
459.0636678076495
 20
226.6049109897533
 30
0.0
 10
459.1457136433851
 20
226.5720619860513
 30
0.0
 10
459.1945723934253
 20
226.5034617039395
 30
0.0
 10
459.2422969001672
 20
226.4340744231878
 30
0.0
 10
459.3197903128563
 20
226.4028918923441
 30
0.0
 10
459.3643353909028
 20
226.3353956683965
 30
0.0
 10
459.4074765137188
 20
226.2670037015084
 30
0.0
 10
459.4800981416735
 20
226.2329518229616
 30
0.0
 10
459.5216290916089
 20
226.1628717774655
 30
0.0
 10
459.5610217968554
 20
226.091588970956
 30
0.0
 10
459.656561549496
 20
226.0056924661884
 30
0.0
 10
459.7170756135725
 20
225.8798871784833
 30
0.0
 10
459.7697684053616
 20
225.7507504992201
 30
0.0
 10
459.8678635559513
 20
225.6833136996963
 30
0.0
 10
459.9134253790382
 20
225.5486101402261
 30
0.0
 10
459.9489364161164
 20
225.4111127299667
 30
0.0
 10
460.0231448943604
 20
225.3377798563952
 30
0.0
 10
460.0504658883576
 20
225.1933328091517
 30
0.0
 10
460.0653721878676
 20
225.0473497534404
 30
0.0
 10
460.1092170660974
 20
224.9734697743189
 30
0.0
 10
460.1128294770306
 20
224.8246247743109
 30
0.0
 10
460.1009374719244
 20
224.6766174605961
 30
0.0
 10
460.1063122556792
 20
224.6042189147718
 30
0.0
 10
460.0837523401502
 20
224.4567239404151
 30
0.0
 10
460.045592854112
 20
224.3129207393314
 30
0.0
 10
460.008820349936
 20
224.2462370767427
 30
0.0
 10
459.9624858516421
 20
224.1060997991439
 30
0.0
 10
459.9031082059337
 20
223.9713396826831
 30
0.0
 10
459.8368156704022
 20
223.9338921855169
 30
0.0
 10
459.7831671115275
 20
223.8253828605908
 30
0.0
 10
459.7220685869469
 20
223.7210616022915
 30
0.0
 10
459.6348496165655
 20
223.6762291427758
 30
0.0
 10
459.5709146127817
 20
223.5764585344519
 30
0.0
 10
459.5017135325806
 20
223.4803730250462
 30
0.0
 10
459.385373699639
 20
223.4219924309966
 30
0.0
 10
459.2997728110546
 20
223.3143983293278
 30
0.0
 10
459.2084810066321
 20
223.2117264351466
 30
0.0
 10
459.0691456950499
 20
223.1691946185867
 30
0.0
 10
458.9760415705052
 20
223.0718416219529
 30
0.0
 10
458.8792411166641
 20
222.9782371186571
 30
0.0
 10
458.7530758973496
 20
222.963376880422
 30
0.0
 10
458.6815378297481
 20
222.8976748024133
 30
0.0
 10
458.6083945339473
 20
222.8337875452376
 30
0.0
 10
458.4917032921599
 20
222.8058240303224
 30
0.0
 10
458.4178981700109
 20
222.7441095084548
 30
0.0
 10
458.3428934372313
 20
222.6838736747184
 30
0.0
 10
458.2537920717136
 20
222.6822354099219
 30
0.0
 10
458.2101678782188
 20
222.6480968119304
 30
0.0
 10
458.1661881714103
 20
222.6144199694696
 30
0.0
 10
458.0949993685448
 20
222.5989905642967
 30
0.0
 10
458.0508378728517
 20
222.5659107251286
 30
0.0
 10
458.006373873203
 20
222.5332406086231
 30
0.0
 10
457.9564339051914
 20
222.534430153397
 30
0.0
 10
457.9341322734148
 20
222.5182404610891
 30
0.0
 10
457.9117596349848
 20
222.5021492649218
 30
0.0
 10
457.8753646161635
 20
222.4946009157682
 30
0.0
 10
457.8529508427761
 20
222.4786432000215
 30
0.0
 10
457.830471547613
 20
222.4627781195543
 30
0.0
 10
457.830471547613
 20
222.4627781195543
 30
0.0
 10
457.6526772999699
 20
222.3938658998794
 30
0.0
 10
457.6526772999699
 20
222.3938658998794
 30
0.0
 10
457.6526772999699
 20
222.3938658998794
 30
0.0
 10
457.4881871760027
 20
222.3188061745098
 30
0.0
 10
457.4881871760027
 20
222.3188061745098
 30
0.0
 10
457.4655808965913
 20
222.3039294763824
 30
0.0
 10
457.4429269124001
 20
222.2891253960816
 30
0.0
 10
457.4202255737889
 20
222.2743941626037
 30
0.0
 10
457.3832556209881
 20
222.2674586472882
 30
0.0
 10
457.3605270892589
 20
222.2528256920203
 30
0.0
 10
457.3377550553916
 20
222.2382606394823
 30
0.0
 10
457.3377550553916
 20
222.2382606394823
 30
0.0
 10
457.1589173075696
 20
222.1752065723757
 30
0.0
 10
457.1589173075696
 20
222.1752065723757
 30
0.0
 10
457.1589173075696
 20
222.1752065723757
 30
0.0
 10
456.9952191818574
 20
222.1065816270489
 30
0.0
 10
456.9952191818574
 20
222.1065816270489
 30
0.0
  0
ENDSEC
  0
SECTION
  2
OBJECTS
  0
DICTIONARY
  5
C
330
0
100
AcDbDictionary
281
     1
  3
ACAD_COLOR
350
63
  3
ACAD_DETAILVIEWSTYLE
350
6A
  3
ACAD_GROUP
350
D
  3
ACAD_LAYOUT
350
62
  3
ACAD_MATERIAL
350
10
  3
ACAD_MLEADERSTYLE
350
66
  3
ACAD_MLINESTYLE
350
5F
  3
ACAD_PLOTSETTINGS
350
61
  3
ACAD_PLOTSTYLENAME
350
E
  3
ACAD_SCALELIST
350
42
  3
ACAD_SECTIONVIEWSTYLE
350
68
  3
ACAD_TABLESTYLE
350
64
  3
ACAD_VISUALSTYLE
350
29
  3
ACDB_RECOMPOSE_DATA
350
104
  3
AcDbVariableDictionary
350
FC
  0
DICTIONARY
  5
63
102
{ACAD_REACTORS
330
C
102
}
330
C
100
AcDbDictionary
281
     1
  0
DICTIONARY
  5
6A
102
{ACAD_REACTORS
330
C
102
}
330
C
100
AcDbDictionary
281
     1
  3
Imperial24
350
6B
  0
DICTIONARY
  5
D
102
{ACAD_REACTORS
330
C
102
}
330
C
100
AcDbDictionary
281
     1
  0
DICTIONARY
  5
62
102
{ACAD_REACTORS
330
C
102
}
330
C
100
AcDbDictionary
281
     1
  3
Layout1
350
6F
  3
Layout2
350
77
  3
Model
350
73
  0
DICTIONARY
  5
10
102
{ACAD_REACTORS
330
C
102
}
330
C
100
AcDbDictionary
281
     1
  3
ByBlock
350
19
  3
ByLayer
350
11
  3
Global
350
21
  0
DICTIONARY
  5
66
102
{ACAD_REACTORS
330
C
102
}
330
C
100
AcDbDictionary
281
     1
  3
Standard
350
67
  0
DICTIONARY
  5
5F
102
{ACAD_REACTORS
330
C
102
}
330
C
100
AcDbDictionary
281
     1
  3
Standard
350
60
  0
DICTIONARY
  5
61
102
{ACAD_REACTORS
330
C
102
}
330
C
100
AcDbDictionary
281
     1
  0
ACDBDICTIONARYWDFLT
  5
E
102
{ACAD_REACTORS
330
C
102
}
330
C
100
AcDbDictionary
281
     1
  3
Normal
350
F
100
AcDbDictionaryWithDefault
340
F
  0
DICTIONARY
  5
42
102
{ACAD_REACTORS
330
C
102
}
330
C
100
AcDbDictionary
281
     1
  3
A0
350
43
  3
A1
350
44
  3
A2
350
45
  3
A3
350
46
  3
A4
350
47
  3
A5
350
48
  3
A6
350
49
  3
A7
350
4A
  3
A8
350
4B
  3
A9
350
4C
  3
B0
350
4D
  3
B1
350
4E
  3
B2
350
4F
  3
B3
350
50
  3
B4
350
51
  3
B5
350
52
  3
B6
350
53
  0
DICTIONARY
  5
68
102
{ACAD_REACTORS
330
C
102
}
330
C
100
AcDbDictionary
281
     1
  3
Imperial24
350
69
  0
DICTIONARY
  5
64
102
{ACAD_REACTORS
330
C
102
}
330
C
100
AcDbDictionary
281
     1
  3
Standard
350
65
  0
DICTIONARY
  5
29
102
{ACAD_REACTORS
330
C
102
}
330
C
100
AcDbDictionary
281
     1
  3
2dWireframe
350
2F
  3
Basic
350
2E
  3
Brighten
350
35
  3
ColorChange
350
39
  3
Conceptual
350
32
  3
Dim
350
34
  3
EdgeColorOff
350
41
  3
Facepattern
350
38
  3
Flat
350
2A
  3
FlatWithEdges
350
2B
  3
Gouraud
350
2C
  3
GouraudWithEdges
350
2D
  3
Hidden
350
31
  3
JitterOff
350
3F
  3
Linepattern
350
37
  3
OverhangOff
350
40
  3
Realistic
350
33
  3
Shaded
350
3E
  3
Shaded with edges
350
3D
  3
Shades of Gray
350
3A
  3
Sketchy
350
3B
  3
Thicken
350
36
  3
Wireframe
350
30
  3
X-Ray
350
3C
  0
XRECORD
  5
104
102
{ACAD_REACTORS
330
C
102
}
330
C
100
AcDbXrecord
280
     1
 90
        1
330
65
  0
DICTIONARY
  5
FC
102
{ACAD_REACTORS
330
C
102
}
330
C
100
AcDbDictionary
281
     1
  3
CANNOSCALE
350
101
  3
CMLEADERSTYLE
350
FE
  3
CTABLESTYLE
350
FD
  3
CVIEWDETAILSTYLE
350
FF
  3
CVIEWSECTIONSTYLE
350
100
  0
ACDBDETAILVIEWSTYLE
  5
6B
102
{ACAD_REACTORS
330
6A
102
}
330
6A
100
AcDbModelDocViewStyle
 70
     0
  3
Imperial24
290
     1
300
Imperial24
 90
        0
100
AcDbDetailViewStyle
 70
     0
 71
     0
 90
        3
 71
     1
340
55
 62
   256
 40
0.24
340
0
 62
   256
 40
0.24
300

 40
0.36
280
     3
 71
     2
340
5D
 90
       25
 62
   256
 71
     3
340
55
 62
   256
 40
0.24
 90
        1
 40
0.75
 90
        1
300
%<\AcVar ViewType \f "%tc1">% %<\AcVar ViewDetailId>%\PSCALE %<\AcVar ViewScale \f "%sn">%
 71
     4
340
5D
 90
       25
 62
   256
340
5D
 90
       25
 62
   256
280
     0
  0
LAYOUT
  5
6F
102
{ACAD_REACTORS
330
62
102
}
330
62
100
AcDbPlotSettings
  1

  2

  4

  6

 40
0.0
 41
0.0
 42
0.0
 43
0.0
 44
0.0
 45
0.0
 46
0.0
 47
0.0
 48
0.0
 49
0.0
140
0.0
141
0.0
142
1.0
143
1.0
 70
   688
 72
     0
 73
     0
 74
     5
  7

 75
    16
147
1.0
 76
     0
 77
     2
 78
   300
148
0.0
149
0.0
100
AcDbLayout
  1
Layout1
 70
     1
 71
     1
 10
0.0
 20
0.0
 11
12.0
 21
9.0
 12
0.0
 22
0.0
 32
0.0
 14
0.0
 24
0.0
 34
0.0
 15
0.0
 25
0.0
 35
0.0
146
0.0
 13
0.0
 23
0.0
 33
0.0
 16
1.0
 26
0.0
 36
0.0
 17
0.0
 27
1.0
 37
0.0
 76
     0
330
6C
  0
LAYOUT
  5
77
102
{ACAD_REACTORS
330
62
102
}
330
62
100
AcDbPlotSettings
  1

  2

  4

  6

 40
0.0
 41
0.0
 42
0.0
 43
0.0
 44
0.0
 45
0.0
 46
0.0
 47
0.0
 48
0.0
 49
0.0
140
0.0
141
0.0
142
1.0
143
1.0
 70
   688
 72
     0
 73
     0
 74
     5
  7

 75
    16
147
1.0
 76
     0
 77
     2
 78
   300
148
0.0
149
0.0
100
AcDbLayout
  1
Layout2
 70
     1
 71
     2
 10
0.0
 20
0.0
 11
12.0
 21
9.0
 12
0.0
 22
0.0
 32
0.0
 14
0.0
 24
0.0
 34
0.0
 15
0.0
 25
0.0
 35
0.0
146
0.0
 13
0.0
 23
0.0
 33
0.0
 16
1.0
 26
0.0
 36
0.0
 17
0.0
 27
1.0
 37
0.0
 76
     0
330
74
  0
LAYOUT
  5
73
102
{ACAD_REACTORS
330
62
102
}
330
62
100
AcDbPlotSettings
  1

  2

  4

  6

 40
0.0
 41
0.0
 42
0.0
 43
0.0
 44
0.0
 45
0.0
 46
0.0
 47
0.0
 48
0.0
 49
0.0
140
0.0
141
0.0
142
1.0
143
1.0
 70
  1712
 72
     0
 73
     0
 74
     0
  7

 75
     0
147
1.0
 76
     0
 77
     2
 78
   300
148
0.0
149
0.0
100
AcDbLayout
  1
Model
 70
     1
 71
     0
 10
0.0
 20
0.0
 11
12.0
 21
9.0
 12
0.0
 22
0.0
 32
0.0
 14
0.0
 24
0.0
 34
0.0
 15
0.0
 25
0.0
 35
0.0
146
0.0
 13
0.0
 23
0.0
 33
0.0
 16
1.0
 26
0.0
 36
0.0
 17
0.0
 27
1.0
 37
0.0
 76
     0
330
70
  0
MATERIAL
  5
19
102
{ACAD_XDICTIONARY
360
1A
102
}
102
{ACAD_REACTORS
330
10
102
}
330
10
100
AcDbMaterial
  1
ByBlock
 72
     0
 43
0.0208333333333333
 43
0.0
 43
0.0
 43
0.0
 43
0.0
 43
0.0208333333333333
 43
0.0
 43
0.0
 43
0.0
 43
0.0
 43
1.0
 43
0.0
 43
0.0
 43
0.0
 43
0.0
 43
1.0
 77
     0
 47
0.0208333333333333
 47
0.0
 47
0.0
 47
0.0
 47
0.0
 47
0.0208333333333333
 47
0.0
 47
0.0
 47
0.0
 47
0.0
 47
1.0
 47
0.0
 47
0.0
 47
0.0
 47
0.0
 47
1.0
171
     0
 49
0.0208333333333333
 49
0.0
 49
0.0
 49
0.0
 49
0.0
 49
0.0208333333333333
 49
0.0
 49
0.0
 49
0.0
 49
0.0
 49
1.0
 49
0.0
 49
0.0
 49
0.0
 49
0.0
 49
1.0
175
     0
142
0.0208333333333333
142
0.0
142
0.0
142
0.0
142
0.0
142
0.0208333333333333
142
0.0
142
0.0
142
0.0
142
0.0
142
1.0
142
0.0
142
0.0
142
0.0
142
0.0
142
1.0
179
     0
144
0.0208333333333333
144
0.0
144
0.0
144
0.0
144
0.0
144
0.0208333333333333
144
0.0
144
0.0
144
0.0
144
0.0
144
1.0
144
0.0
144
0.0
144
0.0
144
0.0
144
1.0
147
0.0208333333333333
147
0.0
147
0.0
147
0.0
147
0.0
147
0.0208333333333333
147
0.0
147
0.0
147
0.0
147
0.0
147
1.0
147
0.0
147
0.0
147
0.0
147
0.0
147
1.0
  0
MATERIAL
  5
11
102
{ACAD_XDICTIONARY
360
12
102
}
102
{ACAD_REACTORS
330
10
102
}
330
10
100
AcDbMaterial
  1
ByLayer
 72
     0
 43
0.0208333333333333
 43
0.0
 43
0.0
 43
0.0
 43
0.0
 43
0.0208333333333333
 43
0.0
 43
0.0
 43
0.0
 43
0.0
 43
1.0
 43
0.0
 43
0.0
 43
0.0
 43
0.0
 43
1.0
 77
     0
 47
0.0208333333333333
 47
0.0
 47
0.0
 47
0.0
 47
0.0
 47
0.0208333333333333
 47
0.0
 47
0.0
 47
0.0
 47
0.0
 47
1.0
 47
0.0
 47
0.0
 47
0.0
 47
0.0
 47
1.0
171
     0
 49
0.0208333333333333
 49
0.0
 49
0.0
 49
0.0
 49
0.0
 49
0.0208333333333333
 49
0.0
 49
0.0
 49
0.0
 49
0.0
 49
1.0
 49
0.0
 49
0.0
 49
0.0
 49
0.0
 49
1.0
175
     0
142
0.0208333333333333
142
0.0
142
0.0
142
0.0
142
0.0
142
0.0208333333333333
142
0.0
142
0.0
142
0.0
142
0.0
142
1.0
142
0.0
142
0.0
142
0.0
142
0.0
142
1.0
179
     0
144
0.0208333333333333
144
0.0
144
0.0
144
0.0
144
0.0
144
0.0208333333333333
144
0.0
144
0.0
144
0.0
144
0.0
144
1.0
144
0.0
144
0.0
144
0.0
144
0.0
144
1.0
147
0.0208333333333333
147
0.0
147
0.0
147
0.0
147
0.0
147
0.0208333333333333
147
0.0
147
0.0
147
0.0
147
0.0
147
1.0
147
0.0
147
0.0
147
0.0
147
0.0
147
1.0
  0
MATERIAL
  5
21
102
{ACAD_XDICTIONARY
360
22
102
}
102
{ACAD_REACTORS
330
10
102
}
330
10
100
AcDbMaterial
  1
Global
 72
     0
 43
0.0208333333333333
 43
0.0
 43
0.0
 43
0.0
 43
0.0
 43
0.0208333333333333
 43
0.0
 43
0.0
 43
0.0
 43
0.0
 43
1.0
 43
0.0
 43
0.0
 43
0.0
 43
0.0
 43
1.0
 77
     0
 47
0.0208333333333333
 47
0.0
 47
0.0
 47
0.0
 47
0.0
 47
0.0208333333333333
 47
0.0
 47
0.0
 47
0.0
 47
0.0
 47
1.0
 47
0.0
 47
0.0
 47
0.0
 47
0.0
 47
1.0
171
     0
 49
0.0208333333333333
 49
0.0
 49
0.0
 49
0.0
 49
0.0
 49
0.0208333333333333
 49
0.0
 49
0.0
 49
0.0
 49
0.0
 49
1.0
 49
0.0
 49
0.0
 49
0.0
 49
0.0
 49
1.0
175
     0
142
0.0208333333333333
142
0.0
142
0.0
142
0.0
142
0.0
142
0.0208333333333333
142
0.0
142
0.0
142
0.0
142
0.0
142
1.0
142
0.0
142
0.0
142
0.0
142
0.0
142
1.0
179
     0
144
0.0208333333333333
144
0.0
144
0.0
144
0.0
144
0.0
144
0.0208333333333333
144
0.0
144
0.0
144
0.0
144
0.0
144
1.0
144
0.0
144
0.0
144
0.0
144
0.0
144
1.0
147
0.0208333333333333
147
0.0
147
0.0
147
0.0
147
0.0
147
0.0208333333333333
147
0.0
147
0.0
147
0.0
147
0.0
147
1.0
147
0.0
147
0.0
147
0.0
147
0.0
147
1.0
  0
MLEADERSTYLE
  5
67
102
{ACAD_REACTORS
330
66
102
}
330
66
100
AcDbMLeaderStyle
179
     2
170
     2
171
     1
172
     0
 90
        2
 40
0.0
 41
0.0
173
     1
 91
-1056964608
340
5B
 92
       -2
290
     1
 42
0.09
291
     1
 43
0.36
  3
Standard
 44
0.18
300

342
55
174
     1
178
     6
175
     1
176
     0
 93
-1056964608
 45
0.18
292
     0
297
     0
 46
0.18
 94
-1056964608
 47
1.0
 49
1.0
140
1.0
293
     1
141
0.0
294
     1
177
     0
142
1.0
295
     1
296
     0
143
0.125
271
     0
272
     9
273
     9
298
     1
  0
MLINESTYLE
  5
60
102
{ACAD_REACTORS
330
5F
102
}
330
5F
100
AcDbMlineStyle
  2
STANDARD
 70
     0
  3

 62
   256
 51
90.0
 52
90.0
 71
     2
 49
0.5
 62
   256
  6
BYLAYER
 49
-0.5
 62
   256
  6
BYLAYER
  0
ACDBPLACEHOLDER
  5
F
102
{ACAD_REACTORS
330
E
102
}
330
E
  0
SCALE
  5
43
102
{ACAD_REACTORS
330
42
102
}
330
42
100
AcDbScale
 70
     0
300
1:1
140
1.0
141
1.0
290
     1
  0
SCALE
  5
44
102
{ACAD_REACTORS
330
42
102
}
330
42
100
AcDbScale
 70
     0
300
1/128" = 1'-0"
140
0.0078125
141
12.0
290
     0
  0
SCALE
  5
45
102
{ACAD_REACTORS
330
42
102
}
330
42
100
AcDbScale
 70
     0
300
1/64" = 1'-0"
140
0.015625
141
12.0
290
     0
  0
SCALE
  5
46
102
{ACAD_REACTORS
330
42
102
}
330
42
100
AcDbScale
 70
     0
300
1/32" = 1'-0"
140
0.03125
141
12.0
290
     0
  0
SCALE
  5
47
102
{ACAD_REACTORS
330
42
102
}
330
42
100
AcDbScale
 70
     0
300
1/16" = 1'-0"
140
0.0625
141
12.0
290
     0
  0
SCALE
  5
48
102
{ACAD_REACTORS
330
42
102
}
330
42
100
AcDbScale
 70
     0
300
3/32" = 1'-0"
140
0.09375
141
12.0
290
     0
  0
SCALE
  5
49
102
{ACAD_REACTORS
330
42
102
}
330
42
100
AcDbScale
 70
     0
300
1/8" = 1'-0"
140
0.125
141
12.0
290
     0
  0
SCALE
  5
4A
102
{ACAD_REACTORS
330
42
102
}
330
42
100
AcDbScale
 70
     0
300
3/16" = 1'-0"
140
0.1875
141
12.0
290
     0
  0
SCALE
  5
4B
102
{ACAD_REACTORS
330
42
102
}
330
42
100
AcDbScale
 70
     0
300
1/4" = 1'-0"
140
0.25
141
12.0
290
     0
  0
SCALE
  5
4C
102
{ACAD_REACTORS
330
42
102
}
330
42
100
AcDbScale
 70
     0
300
3/8" = 1'-0"
140
0.375
141
12.0
290
     0
  0
SCALE
  5
4D
102
{ACAD_REACTORS
330
42
102
}
330
42
100
AcDbScale
 70
     0
300
1/2" = 1'-0"
140
0.5
141
12.0
290
     0
  0
SCALE
  5
4E
102
{ACAD_REACTORS
330
42
102
}
330
42
100
AcDbScale
 70
     0
300
3/4" = 1'-0"
140
0.75
141
12.0
290
     0
  0
SCALE
  5
4F
102
{ACAD_REACTORS
330
42
102
}
330
42
100
AcDbScale
 70
     0
300
1" = 1'-0"
140
1.0
141
12.0
290
     0
  0
SCALE
  5
50
102
{ACAD_REACTORS
330
42
102
}
330
42
100
AcDbScale
 70
     0
300
1-1/2" = 1'-0"
140
1.5
141
12.0
290
     0
  0
SCALE
  5
51
102
{ACAD_REACTORS
330
42
102
}
330
42
100
AcDbScale
 70
     0
300
3" = 1'-0"
140
3.0
141
12.0
290
     0
  0
SCALE
  5
52
102
{ACAD_REACTORS
330
42
102
}
330
42
100
AcDbScale
 70
     0
300
6" = 1'-0"
140
6.0
141
12.0
290
     0
  0
SCALE
  5
53
102
{ACAD_REACTORS
330
42
102
}
330
42
100
AcDbScale
 70
     0
300
1'-0" = 1'-0"
140
12.0
141
12.0
290
     0
  0
ACDBSECTIONVIEWSTYLE
  5
69
102
{ACAD_REACTORS
330
68
102
}
330
68
100
AcDbModelDocViewStyle
 70
     0
  3
Imperial24
290
     1
300
Imperial24
 90
        0
100
AcDbSectionViewStyle
 70
     0
 71
     0
 90
       78
 71
     1
340
55
 62
   256
 40
0.24
340
0
340
0
 62
   256
 40
0.24
300
I, O, Q, S, X, Z
 40
0.48
 90
        3
 40
0.18
 90
        1
 71
     2
340
5D
 90
       25
 62
   256
340
5D
 90
       50
 62
   256
 40
0.24
 40
0.0
 40
0.24
 71
     3
340
55
 62
   256
 40
0.24
 90
        1
 40
0.75
 90
        1
300
%<\AcVar ViewType \f "%tc1">% %<\AcVar ViewSectionStartId>%-%<\AcVar ViewSectionEndId>%\PSCALE %<\AcVar ViewScale \f "%sn">%
 71
     4
 62
   256
 62
   257
300
ANSI31
 40
1.0
 90
        0
290
     0
290
     0
 90
        6
 40
0.0
 40
1.570796326794896
 40
0.2617993877991494
 40
1.308996938995747
 40
-0.2617993877991494
 40
1.832595714594046
  0
TABLESTYLE
  5
65
102
{ACAD_XDICTIONARY
360
102
102
}
102
{ACAD_REACTORS
330
64
102
}
330
64
100
AcDbTableStyle
280
     0
  3
Standard
 70
     0
 71
     0
 40
0.06
 41
0.06
280
     0
281
     0
  7
Standard
140
0.18
170
     2
 62
     0
 63
     7
283
     0
 90
      512
 91
        0
  1

274
    -2
284
     1
 64
     0
275
    -2
285
     1
 65
     0
276
    -2
286
     1
 66
     0
277
    -2
287
     1
 67
     0
278
    -2
288
     1
 68
     0
279
    -2
289
     1
 69
     0
  7
Standard
140
0.25
170
     5
 62
     0
 63
     7
283
     0
 90
      512
 91
        0
  1

274
    -2
284
     1
 64
     0
275
    -2
285
     1
 65
     0
276
    -2
286
     1
 66
     0
277
    -2
287
     1
 67
     0
278
    -2
288
     1
 68
     0
279
    -2
289
     1
 69
     0
  7
Standard
140
0.18
170
     5
 62
     0
 63
     7
283
     0
 90
      512
 91
        0
  1

274
    -2
284
     1
 64
     0
275
    -2
285
     1
 65
     0
276
    -2
286
     1
 66
     0
277
    -2
287
     1
 67
     0
278
    -2
288
     1
 68
     0
279
    -2
289
     1
 69
     0
  0
VISUALSTYLE
  5
2F
102
{ACAD_REACTORS
330
29
102
}
330
29
100
AcDbVisualStyle
  2
2dWireframe
 70
     4
177
     3
291
     0
 70
    58
 90
        0
176
     1
 90
        2
176
     1
 90
        0
176
     1
 90
        0
176
     1
 40
0.6
176
     1
 40
30.0
176
     1
 62
     7
420
 16777215
176
     1
 90
        1
176
     1
 90
        4
176
     1
 62
     7
176
     1
 62
   257
176
     1
 90
        1
176
     1
 90
        1
176
     1
 40
1.0
176
     1
 90
        0
176
     1
 62
   257
176
     1
 40
1.0
176
     1
 90
        1
176
     1
 90
        6
176
     1
 90
        2
176
     1
 62
     7
176
     1
 90
        5
176
     1
 90
        0
176
     1
 90
        0
176
     1
290
     0
176
     1
 90
        1
176
     1
 40
0.0
176
     1
 90
        0
176
     1
290
     1
176
     1
290
     1
176
     1
290
     0
176
     1
290
     0
176
     1
290
     0
176
     1
290
     0
176
     1
290
     0
176
     1
290
     0
176
     1
290
     0
176
     1
 90
       50
176
     1
 40
0.0
176
     1
 40
1.0
176
     1
 90
        0
176
     1
 62
    18
420
        0
176
     1
 90
       50
176
     1
 90
        3
176
     1
 62
     5
420
      255
176
     1
290
     0
176
     1
 90
       50
176
     1
 90
       50
176
     1
 90
       50
176
     1
290
     0
176
     1
 90
       50
176
     1
 62
   256
176
     0
 40
1.0
176
     0
 90
        2
176
     1
  1
strokes_ogs.tif
176
     1
290
     0
176
     1
 40
1.0
176
     1
 40
1.0
176
     1
  0
VISUALSTYLE
  5
2E
102
{ACAD_REACTORS
330
29
102
}
330
29
100
AcDbVisualStyle
  2
Basic
 70
     7
177
     3
291
     1
 70
    58
 90
        1
176
     1
 90
        0
176
     1
 90
        1
176
     1
 90
        0
176
     1
 40
0.6
176
     1
 40
30.0
176
     1
 62
     7
420
 16777215
176
     1
 90
        0
176
     1
 90
        4
176
     1
 62
     7
176
     1
 62
   257
176
     1
 90
        1
176
     1
 90
        1
176
     1
 40
1.0
176
     1
 90
        8
176
     1
 62
     7
176
     1
 40
1.0
176
     1
 90
        1
176
     1
 90
        6
176
     1
 90
        2
176
     1
 62
     7
176
     1
 90
        5
176
     1
 90
        0
176
     1
 90
        0
176
     1
290
     0
176
     1
 90
        1
176
     1
 40
0.0
176
     1
 90
        0
176
     1
290
     0
176
     1
290
     1
176
     1
290
     1
176
     1
290
     0
176
     1
290
     0
176
     1
290
     0
176
     1
290
     0
176
     1
290
     0
176
     1
290
     0
176
     1
 90
       50
176
     1
 40
0.0
176
     1
 40
1.0
176
     1
 90
        0
176
     1
 62
    18
420
        0
176
     1
 90
       50
176
     1
 90
        3
176
     1
 62
     5
420
      255
176
     1
290
     0
176
     1
 90
       50
176
     1
 90
       50
176
     1
 90
       50
176
     1
290
     0
176
     1
 90
       50
176
     1
 62
   256
176
     0
 40
1.0
176
     0
 90
        2
176
     1
  1
strokes_ogs.tif
176
     1
290
     0
176
     1
 40
1.0
176
     1
 40
1.0
176
     1
  0
VISUALSTYLE
  5
35
102
{ACAD_REACTORS
330
29
102
}
330
29
100
AcDbVisualStyle
  2
Brighten
 70
    12
177
     3
291
     1
 70
    58
 90
        2
176
     1
 90
        2
176
     1
 90
        0
176
     1
 90
        0
176
     1
 40
0.6
176
     1
 40
30.0
176
     1
 62
     7
420
 16777215
176
     1
 90
        1
176
     1
 90
        4
176
     1
 62
     7
176
     1
 62
   257
176
     1
 90
        1
176
     1
 90
        1
176
     1
 40
1.0
176
     1
 90
        8
176
     1
 62
     7
176
     1
 40
1.0
176
     1
 90
        1
176
     1
 90
        6
176
     1
 90
        2
176
     1
 62
     7
176
     1
 90
        5
176
     1
 90
        0
176
     1
 90
        0
176
     1
290
     0
176
     1
 90
        1
176
     1
 40
50.0
176
     1
 90
        0
176
     1
290
     0
176
     1
290
     1
176
     1
290
     1
176
     1
290
     0
176
     1
290
     0
176
     1
290
     0
176
     1
290
     0
176
     1
290
     0
176
     1
290
     0
176
     1
 90
       50
176
     1
 40
0.0
176
     1
 40
1.0
176
     1
 90
        0
176
     1
 62
    18
420
        0
176
     1
 90
       50
176
     1
 90
        3
176
     1
 62
     5
420
      255
176
     1
290
     0
176
     1
 90
       50
176
     1
 90
       50
176
     1
 90
       50
176
     1
290
     0
176
     1
 90
       50
176
     1
 62
   256
176
     0
 40
1.0
176
     0
 90
        2
176
     1
  1
strokes_ogs.tif
176
     1
290
     0
176
     1
 40
1.0
176
     1
 40
1.0
176
     1
  0
VISUALSTYLE
  5
39
102
{ACAD_REACTORS
330
29
102
}
330
29
100
AcDbVisualStyle
  2
ColorChange
 70
    16
177
     3
291
     1
 70
    58
 90
        2
176
     1
 90
        2
176
     1
 90
        3
176
     1
 90
        0
176
     1
 40
0.6
176
     1
 40
30.0
176
     1
 62
     8
420
  8421504
176
     1
 90
        1
176
     1
 90
        4
176
     1
 62
     7
176
     1
 62
   257
176
     1
 90
        1
176
     1
 90
        1
176
     1
 40
1.0
176
     1
 90
        8
176
     1
 62
     8
420
  8421504
176
     1
 40
1.0
176
     1
 90
        1
176
     1
 90
        6
176
     1
 90
        2
176
     1
 62
     7
176
     1
 90
        5
176
     1
 90
        0
176
     1
 90
        0
176
     1
290
     0
176
     1
 90
        1
176
     1
 40
0.0
176
     1
 90
        0
176
     1
290
     0
176
     1
290
     1
176
     1
290
     1
176
     1
290
     0
176
     1
290
     0
176
     1
290
     0
176
     1
290
     0
176
     1
290
     0
176
     1
290
     0
176
     1
 90
       50
176
     1
 40
0.0
176
     1
 40
1.0
176
     1
 90
        0
176
     1
 62
    18
420
        0
176
     1
 90
       50
176
     1
 90
        3
176
     1
 62
     5
420
      255
176
     1
290
     0
176
     1
 90
       50
176
     1
 90
       50
176
     1
 90
       50
176
     1
290
     0
176
     1
 90
       50
176
     1
 62
   256
176
     0
 40
1.0
176
     0
 90
        2
176
     1
  1
strokes_ogs.tif
176
     1
290
     0
176
     1
 40
1.0
176
     1
 40
1.0
176
     1
  0
VISUALSTYLE
  5
32
102
{ACAD_REACTORS
330
29
102
}
330
29
100
AcDbVisualStyle
  2
Conceptual
 70
     9
177
     3
291
     0
 70
    58
 90
        3
176
     1
 90
        2
176
     1
 90
        0
176
     1
 90
        0
176
     1
 40
0.6
176
     1
 40
30.0
176
     1
 62
     7
420
 16777215
176
     1
 90
        2
176
     1
 90
        2
176
     1
 62
     7
176
     1
 62
   257
176
     1
 90
        1
176
     1
 90
        1
176
     1
 40
179.0
176
     1
 90
        8
176
     1
 62
     7
176
     1
 40
1.0
176
     1
 90
        1
176
     1
 90
        6
176
     1
 90
        2
176
     1
 62
     7
176
     1
 90
        3
176
     1
 90
        0
176
     1
 90
        0
176
     1
290
     0
176
     1
 90
        1
176
     1
 40
0.0
176
     1
 90
        0
176
     1
290
     0
176
     1
290
     1
176
     1
290
     1
176
     1
290
     0
176
     1
290
     0
176
     1
290
     0
176
     1
290
     0
176
     1
290
     0
176
     1
290
     0
176
     1
 90
       50
176
     1
 40
0.0
176
     1
 40
1.0
176
     1
 90
        0
176
     1
 62
    18
420
        0
176
     1
 90
       50
176
     1
 90
        3
176
     1
 62
     5
420
      255
176
     1
290
     0
176
     1
 90
       50
176
     1
 90
       50
176
     1
 90
       50
176
     1
290
     0
176
     1
 90
       50
176
     1
 62
   256
176
     0
 40
1.0
176
     0
 90
        2
176
     1
  1
strokes_ogs.tif
176
     1
290
     0
176
     1
 40
1.0
176
     1
 40
1.0
176
     1
  0
VISUALSTYLE
  5
34
102
{ACAD_REACTORS
330
29
102
}
330
29
100
AcDbVisualStyle
  2
Dim
 70
    11
177
     3
291
     1
 70
    58
 90
        2
176
     1
 90
        2
176
     1
 90
        0
176
     1
 90
        0
176
     1
 40
0.6
176
     1
 40
30.0
176
     1
 62
     7
420
 16777215
176
     1
 90
        1
176
     1
 90
        4
176
     1
 62
     7
176
     1
 62
   257
176
     1
 90
        1
176
     1
 90
        1
176
     1
 40
1.0
176
     1
 90
        8
176
     1
 62
     7
176
     1
 40
1.0
176
     1
 90
        1
176
     1
 90
        6
176
     1
 90
        2
176
     1
 62
     7
176
     1
 90
        5
176
     1
 90
        0
176
     1
 90
        0
176
     1
290
     0
176
     1
 90
        1
176
     1
 40
-50.0
176
     1
 90
        0
176
     1
290
     0
176
     1
290
     1
176
     1
290
     1
176
     1
290
     0
176
     1
290
     0
176
     1
290
     0
176
     1
290
     0
176
     1
290
     0
176
     1
290
     0
176
     1
 90
       50
176
     1
 40
0.0
176
     1
 40
1.0
176
     1
 90
        0
176
     1
 62
    18
420
        0
176
     1
 90
       50
176
     1
 90
        3
176
     1
 62
     5
420
      255
176
     1
290
     0
176
     1
 90
       50
176
     1
 90
       50
176
     1
 90
       50
176
     1
290
     0
176
     1
 90
       50
176
     1
 62
   256
176
     0
 40
1.0
176
     0
 90
        2
176
     1
  1
strokes_ogs.tif
176
     1
290
     0
176
     1
 40
1.0
176
     1
 40
1.0
176
     1
  0
VISUALSTYLE
  5
41
102
{ACAD_REACTORS
330
29
102
}
330
29
100
AcDbVisualStyle
  2
EdgeColorOff
 70
    22
177
     3
291
     1
 70
    58
 90
        2
176
     0
 90
        2
176
     0
 90
        0
176
     0
 90
        0
176
     0
 40
0.6
176
     0
 40
30.0
176
     0
 62
     7
420
 16777215
176
     0
 90
        1
176
     0
 90
        4
176
     0
 62
     7
176
     0
 62
   257
176
     0
 90
        1
176
     0
 90
        1
176
     0
 40
1.0
176
     0
 90
        8
176
     2
 62
     7
176
     0
 40
1.0
176
     0
 90
        1
176
     0
 90
        6
176
     0
 90
        2
176
     0
 62
     7
176
     0
 90
        5
176
     0
 90
        0
176
     0
 90
        0
176
     0
290
     0
176
     0
 90
        1
176
     0
 40
0.0
176
     0
 90
        0
176
     0
290
     0
176
     0
290
     1
176
     0
290
     1
176
     0
290
     0
176
     0
290
     0
176
     0
290
     0
176
     0
290
     0
176
     0
290
     0
176
     0
290
     0
176
     0
 90
       50
176
     0
 40
0.0
176
     0
 40
1.0
176
     0
 90
        0
176
     0
 62
    18
420
        0
176
     0
 90
       50
176
     0
 90
        3
176
     0
 62
     5
420
      255
176
     0
290
     0
176
     0
 90
       50
176
     0
 90
       50
176
     0
 90
       50
176
     0
290
     0
176
     0
 90
       50
176
     0
 62
   256
176
     0
 40
1.0
176
     0
 90
        2
176
     0
  1
strokes_ogs.tif
176
     0
290
     0
176
     0
 40
1.0
176
     0
 40
1.0
176
     0
  0
VISUALSTYLE
  5
38
102
{ACAD_REACTORS
330
29
102
}
330
29
100
AcDbVisualStyle
  2
Facepattern
 70
    15
177
     3
291
     1
 70
    58
 90
        2
176
     1
 90
        2
176
     1
 90
        0
176
     1
 90
        0
176
     1
 40
0.6
176
     1
 40
30.0
176
     1
 62
     7
420
 16777215
176
     1
 90
        1
176
     1
 90
        4
176
     1
 62
     7
176
     1
 62
   257
176
     1
 90
        1
176
     1
 90
        1
176
     1
 40
1.0
176
     1
 90
        8
176
     1
 62
     7
176
     1
 40
1.0
176
     1
 90
        1
176
     1
 90
        6
176
     1
 90
        2
176
     1
 62
     7
176
     1
 90
        5
176
     1
 90
        0
176
     1
 90
        0
176
     1
290
     0
176
     1
 90
        1
176
     1
 40
0.0
176
     1
 90
        0
176
     1
290
     0
176
     1
290
     1
176
     1
290
     1
176
     1
290
     0
176
     1
290
     0
176
     1
290
     0
176
     1
290
     0
176
     1
290
     0
176
     1
290
     0
176
     1
 90
       50
176
     1
 40
0.0
176
     1
 40
1.0
176
     1
 90
        0
176
     1
 62
    18
420
        0
176
     1
 90
       50
176
     1
 90
        3
176
     1
 62
     5
420
      255
176
     1
290
     0
176
     1
 90
       50
176
     1
 90
       50
176
     1
 90
       50
176
     1
290
     0
176
     1
 90
       50
176
     1
 62
   256
176
     0
 40
1.0
176
     0
 90
        2
176
     1
  1
strokes_ogs.tif
176
     1
290
     0
176
     1
 40
1.0
176
     1
 40
1.0
176
     1
  0
VISUALSTYLE
  5
2A
102
{ACAD_REACTORS
330
29
102
}
330
29
100
AcDbVisualStyle
  2
Flat
 70
     0
177
     3
291
     1
 70
    58
 90
        2
176
     1
 90
        1
176
     1
 90
        1
176
     1
 90
        2
176
     1
 40
0.6
176
     1
 40
30.0
176
     1
 62
     7
420
 16777215
176
     1
 90
        0
176
     1
 90
        0
176
     1
 62
     7
176
     1
 62
   257
176
     1
 90
        1
176
     1
 90
        1
176
     1
 40
1.0
176
     1
 90
        8
176
     1
 62
     7
176
     1
 40
1.0
176
     1
 90
        1
176
     1
 90
        6
176
     1
 90
        2
176
     1
 62
     7
176
     1
 90
        5
176
     1
 90
        0
176
     1
 90
        0
176
     1
290
     0
176
     1
 90
       13
176
     1
 40
0.0
176
     1
 90
        0
176
     1
290
     0
176
     1
290
     1
176
     1
290
     1
176
     1
290
     0
176
     1
290
     0
176
     1
290
     0
176
     1
290
     0
176
     1
290
     0
176
     1
290
     0
176
     1
 90
       50
176
     1
 40
0.0
176
     1
 40
1.0
176
     1
 90
        0
176
     1
 62
    18
420
        0
176
     1
 90
       50
176
     1
 90
        3
176
     1
 62
     5
420
      255
176
     1
290
     0
176
     1
 90
       50
176
     1
 90
       50
176
     1
 90
       50
176
     1
290
     0
176
     1
 90
       50
176
     1
 62
   256
176
     0
 40
1.0
176
     0
 90
        2
176
     1
  1
strokes_ogs.tif
176
     1
290
     0
176
     1
 40
1.0
176
     1
 40
1.0
176
     1
  0
VISUALSTYLE
  5
2B
102
{ACAD_REACTORS
330
29
102
}
330
29
100
AcDbVisualStyle
  2
FlatWithEdges
 70
     1
177
     3
291
     1
 70
    58
 90
        2
176
     1
 90
        1
176
     1
 90
        1
176
     1
 90
        2
176
     1
 40
0.6
176
     1
 40
30.0
176
     1
 62
     7
420
 16777215
176
     1
 90
        1
176
     1
 90
        0
176
     1
 62
     7
176
     1
 62
   257
176
     1
 90
        1
176
     1
 90
        1
176
     1
 40
1.0
176
     1
 90
        0
176
     1
 62
   257
176
     1
 40
1.0
176
     1
 90
        1
176
     1
 90
        6
176
     1
 90
        2
176
     1
 62
     7
176
     1
 90
        5
176
     1
 90
        0
176
     1
 90
        0
176
     1
290
     0
176
     1
 90
       13
176
     1
 40
0.0
176
     1
 90
        0
176
     1
290
     0
176
     1
290
     1
176
     1
290
     1
176
     1
290
     0
176
     1
290
     0
176
     1
290
     0
176
     1
290
     0
176
     1
290
     0
176
     1
290
     0
176
     1
 90
       50
176
     1
 40
0.0
176
     1
 40
1.0
176
     1
 90
        0
176
     1
 62
    18
420
        0
176
     1
 90
       50
176
     1
 90
        3
176
     1
 62
     5
420
      255
176
     1
290
     0
176
     1
 90
       50
176
     1
 90
       50
176
     1
 90
       50
176
     1
290
     0
176
     1
 90
       50
176
     1
 62
   256
176
     0
 40
1.0
176
     0
 90
        2
176
     1
  1
strokes_ogs.tif
176
     1
290
     0
176
     1
 40
1.0
176
     1
 40
1.0
176
     1
  0
VISUALSTYLE
  5
2C
102
{ACAD_REACTORS
330
29
102
}
330
29
100
AcDbVisualStyle
  2
Gouraud
 70
     2
177
     3
291
     1
 70
    58
 90
        2
176
     1
 90
        2
176
     1
 90
        1
176
     1
 90
        2
176
     1
 40
0.6
176
     1
 40
30.0
176
     1
 62
     7
420
 16777215
176
     1
 90
        0
176
     1
 90
        0
176
     1
 62
     7
176
     1
 62
   257
176
     1
 90
        1
176
     1
 90
        1
176
     1
 40
1.0
176
     1
 90
        0
176
     1
 62
     7
176
     1
 40
1.0
176
     1
 90
        1
176
     1
 90
        6
176
     1
 90
        2
176
     1
 62
     7
176
     1
 90
        5
176
     1
 90
        0
176
     1
 90
        0
176
     1
290
     0
176
     1
 90
       13
176
     1
 40
0.0
176
     1
 90
        0
176
     1
290
     0
176
     1
290
     1
176
     1
290
     1
176
     1
290
     0
176
     1
290
     0
176
     1
290
     0
176
     1
290
     0
176
     1
290
     0
176
     1
290
     0
176
     1
 90
       50
176
     1
 40
0.0
176
     1
 40
1.0
176
     1
 90
        0
176
     1
 62
    18
420
        0
176
     1
 90
       50
176
     1
 90
        3
176
     1
 62
     5
420
      255
176
     1
290
     0
176
     1
 90
       50
176
     1
 90
       50
176
     1
 90
       50
176
     1
290
     0
176
     1
 90
       50
176
     1
 62
   256
176
     0
 40
1.0
176
     0
 90
        2
176
     1
  1
strokes_ogs.tif
176
     1
290
     0
176
     1
 40
1.0
176
     1
 40
1.0
176
     1
  0
VISUALSTYLE
  5
2D
102
{ACAD_REACTORS
330
29
102
}
330
29
100
AcDbVisualStyle
  2
GouraudWithEdges
 70
     3
177
     3
291
     1
 70
    58
 90
        2
176
     1
 90
        2
176
     1
 90
        1
176
     1
 90
        2
176
     1
 40
0.6
176
     1
 40
30.0
176
     1
 62
     7
420
 16777215
176
     1
 90
        1
176
     1
 90
        0
176
     1
 62
     7
176
     1
 62
   257
176
     1
 90
        1
176
     1
 90
        1
176
     1
 40
1.0
176
     1
 90
        0
176
     1
 62
   257
176
     1
 40
1.0
176
     1
 90
        1
176
     1
 90
        6
176
     1
 90
        2
176
     1
 62
     7
176
     1
 90
        5
176
     1
 90
        0
176
     1
 90
        0
176
     1
290
     0
176
     1
 90
       13
176
     1
 40
0.0
176
     1
 90
        0
176
     1
290
     0
176
     1
290
     1
176
     1
290
     1
176
     1
290
     0
176
     1
290
     0
176
     1
290
     0
176
     1
290
     0
176
     1
290
     0
176
     1
290
     0
176
     1
 90
       50
176
     1
 40
0.0
176
     1
 40
1.0
176
     1
 90
        0
176
     1
 62
    18
420
        0
176
     1
 90
       50
176
     1
 90
        3
176
     1
 62
     5
420
      255
176
     1
290
     0
176
     1
 90
       50
176
     1
 90
       50
176
     1
 90
       50
176
     1
290
     0
176
     1
 90
       50
176
     1
 62
   256
176
     0
 40
1.0
176
     0
 90
        2
176
     1
  1
strokes_ogs.tif
176
     1
290
     0
176
     1
 40
1.0
176
     1
 40
1.0
176
     1
  0
VISUALSTYLE
  5
31
102
{ACAD_REACTORS
330
29
102
}
330
29
100
AcDbVisualStyle
  2
Hidden
 70
     6
177
     3
291
     0
 70
    58
 90
        1
176
     1
 90
        2
176
     1
 90
        2
176
     1
 90
        0
176
     1
 40
0.6
176
     1
 40
30.0
176
     1
 62
     7
420
 16777215
176
     1
 90
        2
176
     1
 90
        2
176
     1
 62
     7
176
     1
 62
   257
176
     1
 90
        2
176
     1
 90
        1
176
     1
 40
40.0
176
     1
 90
        0
176
     1
 62
   257
176
     1
 40
1.0
176
     1
 90
        1
176
     1
 90
        6
176
     1
 90
        2
176
     1
 62
     7
176
     1
 90
        3
176
     1
 90
        0
176
     1
 90
        0
176
     1
290
     0
176
     1
 90
        1
176
     1
 40
0.0
176
     1
 90
        0
176
     1
290
     0
176
     1
290
     1
176
     1
290
     1
176
     1
290
     0
176
     1
290
     0
176
     1
290
     0
176
     1
290
     0
176
     1
290
     0
176
     1
290
     0
176
     1
 90
       50
176
     1
 40
0.0
176
     1
 40
1.0
176
     1
 90
        0
176
     1
 62
    18
420
        0
176
     1
 90
       50
176
     1
 90
        3
176
     1
 62
     5
420
      255
176
     1
290
     0
176
     1
 90
       50
176
     1
 90
       50
176
     1
 90
       50
176
     1
290
     0
176
     1
 90
       50
176
     1
 62
   256
176
     0
 40
1.0
176
     0
 90
        2
176
     1
  1
strokes_ogs.tif
176
     1
290
     0
176
     1
 40
1.0
176
     1
 40
1.0
176
     1
  0
VISUALSTYLE
  5
3F
102
{ACAD_REACTORS
330
29
102
}
330
29
100
AcDbVisualStyle
  2
JitterOff
 70
    20
177
     3
291
     1
 70
    58
 90
        2
176
     0
 90
        2
176
     0
 90
        0
176
     0
 90
        0
176
     0
 40
0.6
176
     0
 40
30.0
176
     0
 62
     7
420
 16777215
176
     0
 90
        1
176
     0
 90
        4
176
     0
 62
     7
176
     0
 62
   257
176
     0
 90
        1
176
     0
 90
        1
176
     0
 40
1.0
176
     0
 90
       10
176
     2
 62
     7
176
     0
 40
1.0
176
     0
 90
        1
176
     0
 90
        6
176
     0
 90
        2
176
     0
 62
     7
176
     0
 90
        5
176
     0
 90
        0
176
     0
 90
        0
176
     0
290
     0
176
     0
 90
        1
176
     0
 40
0.0
176
     0
 90
        0
176
     0
290
     0
176
     0
290
     1
176
     0
290
     1
176
     0
290
     0
176
     0
290
     0
176
     0
290
     0
176
     0
290
     0
176
     0
290
     0
176
     0
290
     0
176
     0
 90
       50
176
     0
 40
0.0
176
     0
 40
1.0
176
     0
 90
        0
176
     0
 62
    18
420
        0
176
     0
 90
       50
176
     0
 90
        3
176
     0
 62
     5
420
      255
176
     0
290
     0
176
     0
 90
       50
176
     0
 90
       50
176
     0
 90
       50
176
     0
290
     0
176
     0
 90
       50
176
     0
 62
   256
176
     0
 40
1.0
176
     0
 90
        2
176
     0
  1
strokes_ogs.tif
176
     0
290
     0
176
     0
 40
1.0
176
     0
 40
1.0
176
     0
  0
VISUALSTYLE
  5
37
102
{ACAD_REACTORS
330
29
102
}
330
29
100
AcDbVisualStyle
  2
Linepattern
 70
    14
177
     3
291
     1
 70
    58
 90
        2
176
     1
 90
        2
176
     1
 90
        0
176
     1
 90
        0
176
     1
 40
0.6
176
     1
 40
30.0
176
     1
 62
     7
420
 16777215
176
     1
 90
        1
176
     1
 90
        4
176
     1
 62
     7
176
     1
 62
   257
176
     1
 90
        7
176
     1
 90
        7
176
     1
 40
1.0
176
     1
 90
        8
176
     1
 62
     7
176
     1
 40
1.0
176
     1
 90
        1
176
     1
 90
        6
176
     1
 90
        2
176
     1
 62
     7
176
     1
 90
        5
176
     1
 90
        0
176
     1
 90
        0
176
     1
290
     0
176
     1
 90
        1
176
     1
 40
0.0
176
     1
 90
        0
176
     1
290
     0
176
     1
290
     1
176
     1
290
     1
176
     1
290
     0
176
     1
290
     0
176
     1
290
     0
176
     1
290
     0
176
     1
290
     0
176
     1
290
     0
176
     1
 90
       50
176
     1
 40
0.0
176
     1
 40
1.0
176
     1
 90
        0
176
     1
 62
    18
420
        0
176
     1
 90
       50
176
     1
 90
        3
176
     1
 62
     5
420
      255
176
     1
290
     0
176
     1
 90
       50
176
     1
 90
       50
176
     1
 90
       50
176
     1
290
     0
176
     1
 90
       50
176
     1
 62
   256
176
     0
 40
1.0
176
     0
 90
        2
176
     1
  1
strokes_ogs.tif
176
     1
290
     0
176
     1
 40
1.0
176
     1
 40
1.0
176
     1
  0
VISUALSTYLE
  5
40
102
{ACAD_REACTORS
330
29
102
}
330
29
100
AcDbVisualStyle
  2
OverhangOff
 70
    21
177
     3
291
     1
 70
    58
 90
        2
176
     0
 90
        2
176
     0
 90
        0
176
     0
 90
        0
176
     0
 40
0.6
176
     0
 40
30.0
176
     0
 62
     7
420
 16777215
176
     0
 90
        1
176
     0
 90
        4
176
     0
 62
     7
176
     0
 62
   257
176
     0
 90
        1
176
     0
 90
        1
176
     0
 40
1.0
176
     0
 90
        9
176
     2
 62
     7
176
     0
 40
1.0
176
     0
 90
        1
176
     0
 90
        6
176
     0
 90
        2
176
     0
 62
     7
176
     0
 90
        5
176
     0
 90
        0
176
     0
 90
        0
176
     0
290
     0
176
     0
 90
        1
176
     0
 40
0.0
176
     0
 90
        0
176
     0
290
     0
176
     0
290
     1
176
     0
290
     1
176
     0
290
     0
176
     0
290
     0
176
     0
290
     0
176
     0
290
     0
176
     0
290
     0
176
     0
290
     0
176
     0
 90
       50
176
     0
 40
0.0
176
     0
 40
1.0
176
     0
 90
        0
176
     0
 62
    18
420
        0
176
     0
 90
       50
176
     0
 90
        3
176
     0
 62
     5
420
      255
176
     0
290
     0
176
     0
 90
       50
176
     0
 90
       50
176
     0
 90
       50
176
     0
290
     0
176
     0
 90
       50
176
     0
 62
   256
176
     0
 40
1.0
176
     0
 90
        2
176
     0
  1
strokes_ogs.tif
176
     0
290
     0
176
     0
 40
1.0
176
     0
 40
1.0
176
     0
  0
VISUALSTYLE
  5
33
102
{ACAD_REACTORS
330
29
102
}
330
29
100
AcDbVisualStyle
  2
Realistic
 70
     8
177
     3
291
     0
 70
    58
 90
        2
176
     1
 90
        3
176
     1
 90
        0
176
     1
 90
        2
176
     1
 40
0.6
176
     1
 40
30.0
176
     1
 62
     7
420
 16777215
176
     1
 90
        0
176
     1
 90
        0
176
     1
 62
     7
176
     1
 62
   257
176
     1
 90
        1
176
     1
 90
        1
176
     1
 40
1.0
176
     1
 90
        8
176
     1
 62
   257
176
     1
 40
1.0
176
     1
 90
        1
176
     1
 90
        6
176
     1
 90
        2
176
     1
 62
     7
176
     1
 90
        3
176
     1
 90
        0
176
     1
 90
        0
176
     1
290
     0
176
     1
 90
       13
176
     1
 40
0.0
176
     1
 90
        0
176
     1
290
     0
176
     1
290
     1
176
     1
290
     1
176
     1
290
     0
176
     1
290
     0
176
     1
290
     0
176
     1
290
     0
176
     1
290
     0
176
     1
290
     0
176
     1
 90
       50
176
     1
 40
0.0
176
     1
 40
1.0
176
     1
 90
        0
176
     1
 62
    18
420
        0
176
     1
 90
       50
176
     1
 90
        3
176
     1
 62
     5
420
      255
176
     1
290
     0
176
     1
 90
       50
176
     1
 90
       50
176
     1
 90
       50
176
     1
290
     0
176
     1
 90
       50
176
     1
 62
   256
176
     0
 40
1.0
176
     0
 90
        2
176
     1
  1
strokes_ogs.tif
176
     1
290
     0
176
     1
 40
1.0
176
     1
 40
1.0
176
     1
  0
VISUALSTYLE
  5
3E
102
{ACAD_REACTORS
330
29
102
}
330
29
100
AcDbVisualStyle
  2
Shaded
 70
    27
177
     3
291
     0
 70
    58
 90
        2
176
     1
 90
        2
176
     1
 90
        1
176
     1
 90
        2
176
     1
 40
0.6
176
     1
 40
30.0
176
     1
 62
     7
420
 16777215
176
     1
 90
        0
176
     1
 90
        4
176
     1
 62
     7
176
     1
 62
   257
176
     1
 90
        1
176
     1
 90
        1
176
     1
 40
1.0
176
     1
 90
        8
176
     1
 62
   257
176
     1
 40
1.0
176
     1
 90
        1
176
     1
 90
        6
176
     1
 90
        2
176
     1
 62
     8
420
  7895160
176
     1
 90
        3
176
     1
 90
        0
176
     1
 90
        0
176
     1
290
     0
176
     1
 90
        5
176
     1
 40
0.0
176
     1
 90
        0
176
     1
290
     0
176
     1
290
     1
176
     1
290
     1
176
     1
290
     0
176
     1
290
     0
176
     1
290
     0
176
     1
290
     0
176
     1
290
     0
176
     1
290
     0
176
     1
 90
       50
176
     1
 40
0.0
176
     1
 40
1.0
176
     1
 90
        0
176
     1
 62
    18
420
        0
176
     1
 90
       50
176
     1
 90
        3
176
     1
 62
     5
420
      255
176
     1
290
     0
176
     1
 90
       50
176
     1
 90
       50
176
     1
 90
       50
176
     1
290
     0
176
     1
 90
       50
176
     1
 62
   256
176
     0
 40
1.0
176
     0
 90
        2
176
     1
  1
strokes_ogs.tif
176
     1
290
     0
176
     1
 40
1.0
176
     1
 40
1.0
176
     1
  0
VISUALSTYLE
  5
3D
102
{ACAD_REACTORS
330
29
102
}
330
29
100
AcDbVisualStyle
  2
Shaded with edges
 70
    26
177
     3
291
     0
 70
    58
 90
        2
176
     1
 90
        2
176
     1
 90
        1
176
     1
 90
        2
176
     1
 40
0.6
176
     1
 40
30.0
176
     1
 62
     7
420
 16777215
176
     1
 90
        1
176
     1
 90
        2
176
     1
 62
     7
176
     1
 62
   257
176
     1
 90
        2
176
     1
 90
        1
176
     1
 40
1.0
176
     1
 90
        8
176
     1
 62
   257
176
     1
 40
1.0
176
     1
 90
        1
176
     1
 90
        6
176
     1
 90
        2
176
     1
 62
     7
176
     1
 90
        3
176
     1
 90
        0
176
     1
 90
        0
176
     1
290
     0
176
     1
 90
        5
176
     1
 40
0.0
176
     1
 90
        0
176
     1
290
     0
176
     1
290
     1
176
     1
290
     1
176
     1
290
     0
176
     1
290
     0
176
     1
290
     0
176
     1
290
     0
176
     1
290
     0
176
     1
290
     0
176
     1
 90
       50
176
     1
 40
0.0
176
     1
 40
1.0
176
     1
 90
        0
176
     1
 62
    18
420
        0
176
     1
 90
       50
176
     1
 90
        3
176
     1
 62
     5
420
      255
176
     1
290
     0
176
     1
 90
       50
176
     1
 90
       50
176
     1
 90
       50
176
     1
290
     0
176
     1
 90
       50
176
     1
 62
   256
176
     0
 40
1.0
176
     0
 90
        2
176
     1
  1
strokes_ogs.tif
176
     1
290
     0
176
     1
 40
1.0
176
     1
 40
1.0
176
     1
  0
VISUALSTYLE
  5
3A
102
{ACAD_REACTORS
330
29
102
}
330
29
100
AcDbVisualStyle
  2
Shades of Gray
 70
    23
177
     3
291
     0
 70
    58
 90
        2
176
     1
 90
        2
176
     1
 90
        3
176
     1
 90
        0
176
     1
 40
0.6
176
     1
 40
30.0
176
     1
 62
     7
420
 16777215
176
     1
 90
        2
176
     1
 90
        2
176
     1
 62
     7
176
     1
 62
     7
176
     1
 90
        1
176
     1
 90
        1
176
     1
 40
40.0
176
     1
 90
        8
176
     1
 62
     7
176
     1
 40
1.0
176
     1
 90
        1
176
     1
 90
        6
176
     1
 90
        2
176
     1
 62
     7
176
     1
 90
        3
176
     1
 90
        0
176
     1
 90
        0
176
     1
290
     0
176
     1
 90
        1
176
     1
 40
0.0
176
     1
 90
        0
176
     1
290
     0
176
     1
290
     1
176
     1
290
     1
176
     1
290
     0
176
     1
290
     0
176
     1
290
     0
176
     1
290
     0
176
     1
290
     0
176
     1
290
     0
176
     1
 90
       50
176
     1
 40
0.0
176
     1
 40
1.0
176
     1
 90
        0
176
     1
 62
    18
420
        0
176
     1
 90
       50
176
     1
 90
        3
176
     1
 62
     5
420
      255
176
     1
290
     0
176
     1
 90
       50
176
     1
 90
       50
176
     1
 90
       50
176
     1
290
     0
176
     1
 90
       50
176
     1
 62
   256
176
     0
 40
1.0
176
     0
 90
        2
176
     1
  1
strokes_ogs.tif
176
     1
290
     0
176
     1
 40
1.0
176
     1
 40
1.0
176
     1
  0
VISUALSTYLE
  5
3B
102
{ACAD_REACTORS
330
29
102
}
330
29
100
AcDbVisualStyle
  2
Sketchy
 70
    24
177
     3
291
     0
 70
    58
 90
        1
176
     1
 90
        2
176
     1
 90
        2
176
     1
 90
        0
176
     1
 40
0.6
176
     1
 40
30.0
176
     1
 62
     7
420
 16777215
176
     1
 90
        2
176
     1
 90
        2
176
     1
 62
     7
176
     1
 62
     7
176
     1
 90
        1
176
     1
 90
        1
176
     1
 40
40.0
176
     1
 90
       11
176
     1
 62
     7
176
     1
 40
1.0
176
     1
 90
        1
176
     1
 90
        6
176
     1
 90
        2
176
     1
 62
     7
176
     1
 90
        6
176
     1
 90
        0
176
     1
 90
        0
176
     1
290
     0
176
     1
 90
        1
176
     1
 40
0.0
176
     1
 90
        0
176
     1
290
     0
176
     1
290
     1
176
     1
290
     1
176
     1
290
     0
176
     1
290
     0
176
     1
290
     0
176
     1
290
     0
176
     1
290
     0
176
     1
290
     0
176
     1
 90
       50
176
     1
 40
0.0
176
     1
 40
1.0
176
     1
 90
        0
176
     1
 62
    18
420
        0
176
     1
 90
       50
176
     1
 90
        3
176
     1
 62
     5
420
      255
176
     1
290
     0
176
     1
 90
       50
176
     1
 90
       50
176
     1
 90
       50
176
     1
290
     0
176
     1
 90
       50
176
     1
 62
   256
176
     0
 40
1.0
176
     0
 90
        2
176
     1
  1
strokes_ogs.tif
176
     1
290
     0
176
     1
 40
1.0
176
     1
 40
1.0
176
     1
  0
VISUALSTYLE
  5
36
102
{ACAD_REACTORS
330
29
102
}
330
29
100
AcDbVisualStyle
  2
Thicken
 70
    13
177
     3
291
     1
 70
    58
 90
        2
176
     1
 90
        2
176
     1
 90
        0
176
     1
 90
        0
176
     1
 40
0.6
176
     1
 40
30.0
176
     1
 62
     7
420
 16777215
176
     1
 90
        1
176
     1
 90
        4
176
     1
 62
     7
176
     1
 62
   257
176
     1
 90
        1
176
     1
 90
        1
176
     1
 40
1.0
176
     1
 90
       12
176
     1
 62
     7
176
     1
 40
1.0
176
     1
 90
        1
176
     1
 90
        6
176
     1
 90
        2
176
     1
 62
     7
176
     1
 90
        5
176
     1
 90
        0
176
     1
 90
        0
176
     1
290
     0
176
     1
 90
        1
176
     1
 40
0.0
176
     1
 90
        0
176
     1
290
     0
176
     1
290
     1
176
     1
290
     1
176
     1
290
     0
176
     1
290
     0
176
     1
290
     0
176
     1
290
     0
176
     1
290
     0
176
     1
290
     0
176
     1
 90
       50
176
     1
 40
0.0
176
     1
 40
1.0
176
     1
 90
        0
176
     1
 62
    18
420
        0
176
     1
 90
       50
176
     1
 90
        3
176
     1
 62
     5
420
      255
176
     1
290
     0
176
     1
 90
       50
176
     1
 90
       50
176
     1
 90
       50
176
     1
290
     0
176
     1
 90
       50
176
     1
 62
   256
176
     0
 40
1.0
176
     0
 90
        2
176
     1
  1
strokes_ogs.tif
176
     1
290
     0
176
     1
 40
1.0
176
     1
 40
1.0
176
     1
  0
VISUALSTYLE
  5
30
102
{ACAD_REACTORS
330
29
102
}
330
29
100
AcDbVisualStyle
  2
Wireframe
 70
     5
177
     3
291
     0
 70
    58
 90
        0
176
     1
 90
        2
176
     1
 90
        0
176
     1
 90
        0
176
     1
 40
0.6
176
     1
 40
30.0
176
     1
 62
     7
420
 16777215
176
     1
 90
        1
176
     1
 90
        4
176
     1
 62
     7
176
     1
 62
   257
176
     1
 90
        1
176
     1
 90
        1
176
     1
 40
1.0
176
     1
 90
        0
176
     1
 62
   257
176
     1
 40
1.0
176
     1
 90
        1
176
     1
 90
        6
176
     1
 90
        2
176
     1
 62
     7
176
     1
 90
        3
176
     1
 90
        0
176
     1
 90
        0
176
     1
290
     0
176
     1
 90
        1
176
     1
 40
0.0
176
     1
 90
        0
176
     1
290
     0
176
     1
290
     1
176
     1
290
     1
176
     1
290
     0
176
     1
290
     0
176
     1
290
     0
176
     1
290
     0
176
     1
290
     0
176
     1
290
     0
176
     1
 90
       50
176
     1
 40
0.0
176
     1
 40
1.0
176
     1
 90
        0
176
     1
 62
    18
420
        0
176
     1
 90
       50
176
     1
 90
        3
176
     1
 62
     5
420
      255
176
     1
290
     0
176
     1
 90
       50
176
     1
 90
       50
176
     1
 90
       50
176
     1
290
     0
176
     1
 90
       50
176
     1
 62
   256
176
     0
 40
1.0
176
     0
 90
        2
176
     1
  1
strokes_ogs.tif
176
     1
290
     0
176
     1
 40
1.0
176
     1
 40
1.0
176
     1
  0
VISUALSTYLE
  5
3C
102
{ACAD_REACTORS
330
29
102
}
330
29
100
AcDbVisualStyle
  2
X-Ray
 70
    25
177
     3
291
     0
 70
    58
 90
        2
176
     1
 90
        2
176
     1
 90
        1
176
     1
 90
        1
176
     1
 40
0.5
176
     1
 40
30.0
176
     1
 62
     7
420
 16777215
176
     1
 90
        1
176
     1
 90
        0
176
     1
 62
     7
176
     1
 62
   257
176
     1
 90
        1
176
     1
 90
        1
176
     1
 40
1.0
176
     1
 90
        8
176
     1
 62
     7
176
     1
 40
1.0
176
     1
 90
        1
176
     1
 90
        6
176
     1
 90
        2
176
     1
 62
     7
176
     1
 90
        3
176
     1
 90
        0
176
     1
 90
        0
176
     1
290
     0
176
     1
 90
       13
176
     1
 40
0.0
176
     1
 90
        0
176
     1
290
     0
176
     1
290
     1
176
     1
290
     1
176
     1
290
     0
176
     1
290
     0
176
     1
290
     0
176
     1
290
     0
176
     1
290
     0
176
     1
290
     0
176
     1
 90
       50
176
     1
 40
0.0
176
     1
 40
1.0
176
     1
 90
        0
176
     1
 62
    18
420
        0
176
     1
 90
       50
176
     1
 90
        3
176
     1
 62
     5
420
      255
176
     1
290
     0
176
     1
 90
       50
176
     1
 90
       50
176
     1
 90
       50
176
     1
290
     0
176
     1
 90
       50
176
     1
 62
   256
176
     0
 40
1.0
176
     0
 90
        2
176
     1
  1
strokes_ogs.tif
176
     1
290
     0
176
     1
 40
1.0
176
     1
 40
1.0
176
     1
  0
DICTIONARYVAR
  5
101
102
{ACAD_REACTORS
330
FC
102
}
330
FC
100
DictionaryVariables
280
     0
  1
1:1
  0
DICTIONARYVAR
  5
FE
102
{ACAD_REACTORS
330
FC
102
}
330
FC
100
DictionaryVariables
280
     0
  1
STANDARD
  0
DICTIONARYVAR
  5
FD
102
{ACAD_REACTORS
330
FC
102
}
330
FC
100
DictionaryVariables
280
     0
  1
STANDARD
  0
DICTIONARYVAR
  5
FF
102
{ACAD_REACTORS
330
FC
102
}
330
FC
100
DictionaryVariables
280
     0
  1
Imperial24
  0
DICTIONARYVAR
  5
100
102
{ACAD_REACTORS
330
FC
102
}
330
FC
100
DictionaryVariables
280
     0
  1
Imperial24
  0
DICTIONARY
  5
1A
330
19
100
AcDbDictionary
280
     1
281
     1
  3
BUMPTILE
360
1C
  3
DIFFUSETILE
360
1B
  3
OPACITYTILE
360
1F
  3
REFLECTIONTILE
360
1E
  3
REFRACTIONTILE
360
20
  3
SPECULARTILE
360
1D
  0
DICTIONARY
  5
12
330
11
100
AcDbDictionary
280
     1
281
     1
  3
BUMPTILE
360
14
  3
DIFFUSETILE
360
13
  3
OPACITYTILE
360
17
  3
REFLECTIONTILE
360
16
  3
REFRACTIONTILE
360
18
  3
SPECULARTILE
360
15
  0
DICTIONARY
  5
22
330
21
100
AcDbDictionary
280
     1
281
     1
  3
BUMPTILE
360
24
  3
DIFFUSETILE
360
23
  3
OPACITYTILE
360
27
  3
REFLECTIONTILE
360
26
  3
REFRACTIONTILE
360
28
  3
SPECULARTILE
360
25
  0
DICTIONARY
  5
102
330
65
100
AcDbDictionary
280
     1
281
     1
  3
ACAD_ROUNDTRIP_2008_TABLESTYLE_CELLSTYLEMAP
360
103
  0
XRECORD
  5
1C
102
{ACAD_REACTORS
330
1A
102
}
330
1A
100
AcDbXrecord
280
     1
270
     1
271
     1
  0
XRECORD
  5
1B
102
{ACAD_REACTORS
330
1A
102
}
330
1A
100
AcDbXrecord
280
     1
270
     1
271
     1
  0
XRECORD
  5
1F
102
{ACAD_REACTORS
330
1A
102
}
330
1A
100
AcDbXrecord
280
     1
270
     1
271
     1
  0
XRECORD
  5
1E
102
{ACAD_REACTORS
330
1A
102
}
330
1A
100
AcDbXrecord
280
     1
270
     1
271
     1
  0
XRECORD
  5
20
102
{ACAD_REACTORS
330
1A
102
}
330
1A
100
AcDbXrecord
280
     1
270
     1
271
     1
  0
XRECORD
  5
1D
102
{ACAD_REACTORS
330
1A
102
}
330
1A
100
AcDbXrecord
280
     1
270
     1
271
     1
  0
XRECORD
  5
14
102
{ACAD_REACTORS
330
12
102
}
330
12
100
AcDbXrecord
280
     1
270
     1
271
     1
  0
XRECORD
  5
13
102
{ACAD_REACTORS
330
12
102
}
330
12
100
AcDbXrecord
280
     1
270
     1
271
     1
  0
XRECORD
  5
17
102
{ACAD_REACTORS
330
12
102
}
330
12
100
AcDbXrecord
280
     1
270
     1
271
     1
  0
XRECORD
  5
16
102
{ACAD_REACTORS
330
12
102
}
330
12
100
AcDbXrecord
280
     1
270
     1
271
     1
  0
XRECORD
  5
18
102
{ACAD_REACTORS
330
12
102
}
330
12
100
AcDbXrecord
280
     1
270
     1
271
     1
  0
XRECORD
  5
15
102
{ACAD_REACTORS
330
12
102
}
330
12
100
AcDbXrecord
280
     1
270
     1
271
     1
  0
XRECORD
  5
24
102
{ACAD_REACTORS
330
22
102
}
330
22
100
AcDbXrecord
280
     1
270
     1
271
     1
  0
XRECORD
  5
23
102
{ACAD_REACTORS
330
22
102
}
330
22
100
AcDbXrecord
280
     1
270
     1
271
     1
  0
XRECORD
  5
27
102
{ACAD_REACTORS
330
22
102
}
330
22
100
AcDbXrecord
280
     1
270
     1
271
     1
  0
XRECORD
  5
26
102
{ACAD_REACTORS
330
22
102
}
330
22
100
AcDbXrecord
280
     1
270
     1
271
     1
  0
XRECORD
  5
28
102
{ACAD_REACTORS
330
22
102
}
330
22
100
AcDbXrecord
280
     1
270
     1
271
     1
  0
XRECORD
  5
25
102
{ACAD_REACTORS
330
22
102
}
330
22
100
AcDbXrecord
280
     1
270
     1
271
     1
  0
CELLSTYLEMAP
  5
103
102
{ACAD_REACTORS
330
102
102
}
330
102
100
AcDbCellStyleMap
 90
        3
300
CELLSTYLE
  1
TABLEFORMAT_BEGIN
 90
        5
170
     1
 91
        0
 92
    32768
 62
   257
 93
        1
300
CONTENTFORMAT
  1
CONTENTFORMAT_BEGIN
 90
        0
 91
        0
 92
      512
 93
        0
300

 40
0.0
140
1.0
 94
        5
 62
     0
340
55
144
0.25
309
CONTENTFORMAT_END
171
     0
 94
        0
309
TABLEFORMAT_END
  1
CELLSTYLE_BEGIN
 90
        1
 91
        1
300
_TITLE
309
CELLSTYLE_END
300
CELLSTYLE
  1
TABLEFORMAT_BEGIN
 90
        5
170
     1
 91
        0
 92
        0
 62
   257
 93
        1
300
CONTENTFORMAT
  1
CONTENTFORMAT_BEGIN
 90
        0
 91
        0
 92
      512
 93
        0
300

 40
0.0
140
1.0
 94
        5
 62
     0
340
55
144
0.18
309
CONTENTFORMAT_END
171
     0
 94
        0
309
TABLEFORMAT_END
  1
CELLSTYLE_BEGIN
 90
        2
 91
        1
300
_HEADER
309
CELLSTYLE_END
300
CELLSTYLE
  1
TABLEFORMAT_BEGIN
 90
        5
170
     1
 91
        0
 92
        0
 62
   257
 93
        1
300
CONTENTFORMAT
  1
CONTENTFORMAT_BEGIN
 90
        0
 91
        0
 92
      512
 93
        0
300

 40
0.0
140
1.0
 94
        2
 62
     0
340
55
144
0.18
309
CONTENTFORMAT_END
171
     0
 94
        0
309
TABLEFORMAT_END
  1
CELLSTYLE_BEGIN
 90
        3
 91
        2
300
_DATA
309
CELLSTYLE_END
  0
ENDSEC
  0
EOF
