  0
SECTION
  2
HEADER
  9
$ACADVER
  1
AC1032
  9
$ACADMAINTVER
 90
      228
  9
$DWGCODEPAGE
  3
ANSI_932
  9
$REQUIREDVERSIONS
160
                 0
  9
$INSBASE
 10
0.0
 20
0.0
 30
0.0
  9
$EXTMIN
 10
1.000000000000000E+20
 20
1.000000000000000E+20
 30
1.000000000000000E+20
  9
$EXTMAX
 10
-1.000000000000000E+20
 20
-1.000000000000000E+20
 30
-1.000000000000000E+20
  9
$LIMMIN
 10
0.0
 20
0.0
  9
$LIMMAX
 10
12.0
 20
9.0
  9
$ORTHOMODE
 70
     0
  9
$REGENMODE
 70
     1
  9
$FILLMODE
 70
     1
  9
$QTEXTMODE
 70
     0
  9
$MIRRTEXT
 70
     0
  9
$LTSCALE
 40
1.0
  9
$ATTMODE
 70
     1
  9
$TEXTSIZE
 40
0.2
  9
$TRACEWID
 40
0.05
  9
$TEXTSTYLE
  7
Standard
  9
$CLAYER
  8
0
  9
$CELTYPE
  6
ByLayer
  9
$CECOLOR
 62
   256
  9
$CELTSCALE
 40
1.0
  9
$DISPSILH
 70
     0
  9
$DIMSCALE
 40
1.0
  9
$DIMASZ
 40
0.18
  9
$DIMEXO
 40
0.0625
  9
$DIMDLI
 40
0.38
  9
$DIMRND
 40
0.0
  9
$DIMDLE
 40
0.0
  9
$DIMEXE
 40
0.18
  9
$DIMTP
 40
0.0
  9
$DIMTM
 40
0.0
  9
$DIMTXT
 40
0.18
  9
$DIMCEN
 40
0.09
  9
$DIMTSZ
 40
0.0
  9
$DIMTOL
 70
     0
  9
$DIMLIM
 70
     0
  9
$DIMTIH
 70
     1
  9
$DIMTOH
 70
     1
  9
$DIMSE1
 70
     0
  9
$DIMSE2
 70
     0
  9
$DIMTAD
 70
     0
  9
$DIMZIN
 70
     0
  9
$DIMBLK
  1

  9
$DIMASO
 70
     1
  9
$DIMSHO
 70
     1
  9
$DIMPOST
  1

  9
$DIMAPOST
  1

  9
$DIMALT
 70
     0
  9
$DIMALTD
 70
     2
  9
$DIMALTF
 40
25.4
  9
$DIMLFAC
 40
1.0
  9
$DIMTOFL
 70
     0
  9
$DIMTVP
 40
0.0
  9
$DIMTIX
 70
     0
  9
$DIMSOXD
 70
     0
  9
$DIMSAH
 70
     0
  9
$DIMBLK1
  1

  9
$DIMBLK2
  1

  9
$DIMSTYLE
  2
Standard
  9
$DIMCLRD
 70
     0
  9
$DIMCLRE
 70
     0
  9
$DIMCLRT
 70
     0
  9
$DIMTFAC
 40
1.0
  9
$DIMGAP
 40
0.09
  9
$DIMJUST
 70
     0
  9
$DIMSD1
 70
     0
  9
$DIMSD2
 70
     0
  9
$DIMTOLJ
 70
     1
  9
$DIMTZIN
 70
     0
  9
$DIMALTZ
 70
     0
  9
$DIMALTTZ
 70
     0
  9
$DIMUPT
 70
     0
  9
$DIMDEC
 70
     4
  9
$DIMTDEC
 70
     4
  9
$DIMALTU
 70
     2
  9
$DIMALTTD
 70
     2
  9
$DIMTXSTY
  7
Standard
  9
$DIMAUNIT
 70
     0
  9
$DIMADEC
 70
     0
  9
$DIMALTRND
 40
0.0
  9
$DIMAZIN
 70
     0
  9
$DIMDSEP
 70
    46
  9
$DIMATFIT
 70
     3
  9
$DIMFRAC
 70
     0
  9
$DIMLDRBLK
  1

  9
$DIMLUNIT
 70
     2
  9
$DIMLWD
 70
    -2
  9
$DIMLWE
 70
    -2
  9
$DIMTMOVE
 70
     0
  9
$DIMFXL
 40
1.0
  9
$DIMFXLON
 70
     0
  9
$DIMJOGANG
 40
0.7853981633974483
  9
$DIMTFILL
 70
     0
  9
$DIMTFILLCLR
 70
     0
  9
$DIMARCSYM
 70
     0
  9
$DIMLTYPE
  6

  9
$DIMLTEX1
  6

  9
$DIMLTEX2
  6

  9
$DIMTXTDIRECTION
 70
     0
  9
$LUNITS
 70
     2
  9
$LUPREC
 70
     4
  9
$SKETCHINC
 40
0.1
  9
$FILLETRAD
 40
0.0
  9
$AUNITS
 70
     0
  9
$AUPREC
 70
     0
  9
$MENU
  1
.
  9
$ELEVATION
 40
0.0
  9
$PELEVATION
 40
0.0
  9
$THICKNESS
 40
0.0
  9
$LIMCHECK
 70
     0
  9
$CHAMFERA
 40
0.0
  9
$CHAMFERB
 40
0.0
  9
$CHAMFERC
 40
0.0
  9
$CHAMFERD
 40
0.0
  9
$SKPOLY
 70
     0
  9
$TDCREATE
 40
2460061.764884259
  9
$TDUCREATE
 40
2460061.389884259
  9
$TDUPDATE
 40
2460061.764884259
  9
$TDUUPDATE
 40
2460061.389884259
  9
$TDINDWG
 40
0.0000000000
  9
$TDUSRTIMER
 40
0.0000000000
  9
$USRTIMER
 70
     1
  9
$ANGBASE
 50
0.0
  9
$ANGDIR
 70
     0
  9
$PDMODE
 70
     0
  9
$PDSIZE
 40
0.0
  9
$PLINEWID
 40
0.0
  9
$SPLFRAME
 70
     0
  9
$SPLINETYPE
 70
     6
  9
$SPLINESEGS
 70
     8
  9
$HANDSEED
  5
10E
  9
$SURFTAB1
 70
     6
  9
$SURFTAB2
 70
     6
  9
$SURFTYPE
 70
     6
  9
$SURFU
 70
     6
  9
$SURFV
 70
     6
  9
$UCSBASE
  2

  9
$UCSNAME
  2

  9
$UCSORG
 10
0.0
 20
0.0
 30
0.0
  9
$UCSXDIR
 10
1.0
 20
0.0
 30
0.0
  9
$UCSYDIR
 10
0.0
 20
1.0
 30
0.0
  9
$UCSORTHOREF
  2

  9
$UCSORTHOVIEW
 70
     0
  9
$UCSORGTOP
 10
0.0
 20
0.0
 30
0.0
  9
$UCSORGBOTTOM
 10
0.0
 20
0.0
 30
0.0
  9
$UCSORGLEFT
 10
0.0
 20
0.0
 30
0.0
  9
$UCSORGRIGHT
 10
0.0
 20
0.0
 30
0.0
  9
$UCSORGFRONT
 10
0.0
 20
0.0
 30
0.0
  9
$UCSORGBACK
 10
0.0
 20
0.0
 30
0.0
  9
$PUCSBASE
  2

  9
$PUCSNAME
  2

  9
$PUCSORG
 10
0.0
 20
0.0
 30
0.0
  9
$PUCSXDIR
 10
1.0
 20
0.0
 30
0.0
  9
$PUCSYDIR
 10
0.0
 20
1.0
 30
0.0
  9
$PUCSORTHOREF
  2

  9
$PUCSORTHOVIEW
 70
     0
  9
$PUCSORGTOP
 10
0.0
 20
0.0
 30
0.0
  9
$PUCSORGBOTTOM
 10
0.0
 20
0.0
 30
0.0
  9
$PUCSORGLEFT
 10
0.0
 20
0.0
 30
0.0
  9
$PUCSORGRIGHT
 10
0.0
 20
0.0
 30
0.0
  9
$PUCSORGFRONT
 10
0.0
 20
0.0
 30
0.0
  9
$PUCSORGBACK
 10
0.0
 20
0.0
 30
0.0
  9
$USERI1
 70
     0
  9
$USERI2
 70
     0
  9
$USERI3
 70
     0
  9
$USERI4
 70
     0
  9
$USERI5
 70
     0
  9
$USERR1
 40
0.0
  9
$USERR2
 40
0.0
  9
$USERR3
 40
0.0
  9
$USERR4
 40
0.0
  9
$USERR5
 40
0.0
  9
$WORLDVIEW
 70
     1
  9
$SHADEDGE
 70
     3
  9
$SHADEDIF
 70
    70
  9
$TILEMODE
 70
     1
  9
$MAXACTVP
 70
    64
  9
$PINSBASE
 10
0.0
 20
0.0
 30
0.0
  9
$PLIMCHECK
 70
     0
  9
$PEXTMIN
 10
1.000000000000000E+20
 20
1.000000000000000E+20
 30
1.000000000000000E+20
  9
$PEXTMAX
 10
-1.000000000000000E+20
 20
-1.000000000000000E+20
 30
-1.000000000000000E+20
  9
$PLIMMIN
 10
0.0
 20
0.0
  9
$PLIMMAX
 10
12.0
 20
9.0
  9
$UNITMODE
 70
     0
  9
$VISRETAIN
 70
     1
  9
$PLINEGEN
 70
     0
  9
$PSLTSCALE
 70
     1
  9
$TREEDEPTH
 70
  3020
  9
$CMLSTYLE
  2
Standard
  9
$CMLJUST
 70
     0
  9
$CMLSCALE
 40
1.0
  9
$PROXYGRAPHICS
 70
     1
  9
$MEASUREMENT
 70
     0
  9
$CELWEIGHT
370
    -1
  9
$ENDCAPS
280
     0
  9
$JOINSTYLE
280
     0
  9
$LWDISPLAY
290
     1
  9
$INSUNITS
 70
     4
  9
$HYPERLINKBASE
  1

  9
$STYLESHEET
  1

  9
$XEDIT
290
     1
  9
$CEPSNTYPE
380
     0
  9
$PSTYLEMODE
290
     1
  9
$FINGERPRINTGUID
  2
{4AA8CE99-FB26-4A48-A46F-81553E96809D}
  9
$VERSIONGUID
  2
{8622D9B1-F8FD-9D4C-980B-624607818114}
  9
$EXTNAMES
290
     1
  9
$PSVPSCALE
 40
0.0
  9
$OLESTARTUP
290
     0
  9
$SORTENTS
280
   127
  9
$INDEXCTL
280
     0
  9
$HIDETEXT
280
     1
  9
$XCLIPFRAME
280
     2
  9
$HALOGAP
280
     0
  9
$OBSCOLOR
 70
   257
  9
$OBSLTYPE
280
     0
  9
$INTERSECTIONDISPLAY
280
     0
  9
$INTERSECTIONCOLOR
 70
   257
  9
$DIMASSOC
280
     2
  9
$PROJECTNAME
  1

  9
$CAMERADISPLAY
290
     0
  9
$LENSLENGTH
 40
50.0
  9
$CAMERAHEIGHT
 40
0.0
  9
$STEPSPERSEC
 40
2.0
  9
$STEPSIZE
 40
6.0
  9
$3DDWFPREC
 40
2.0
  9
$PSOLWIDTH
 40
0.25
  9
$PSOLHEIGHT
 40
4.0
  9
$LOFTANG1
 40
1.570796326794896
  9
$LOFTANG2
 40
1.570796326794896
  9
$LOFTMAG1
 40
0.0
  9
$LOFTMAG2
 40
0.0
  9
$LOFTPARAM
 70
     7
  9
$LOFTNORMALS
280
     1
  9
$LATITUDE
 40
37.795
  9
$LONGITUDE
 40
-122.394
  9
$NORTHDIRECTION
 40
0.0
  9
$TIMEZONE
 70
 -8000
  9
$LIGHTGLYPHDISPLAY
280
     1
  9
$TILEMODELIGHTSYNCH
280
     1
  9
$CMATERIAL
347
11
  9
$SOLIDHIST
280
     0
  9
$SHOWHIST
280
     1
  9
$DWFFRAME
280
     2
  9
$DGNFRAME
280
     0
  9
$REALWORLDSCALE
290
     1
  9
$INTERFERECOLOR
 62
     1
  9
$INTERFEREOBJVS
345
33
  9
$INTERFEREVPVS
346
30
  9
$CSHADOW
280
     0
  9
$SHADOWPLANELOCATION
 40
0.0
  0
ENDSEC
  0
SECTION
  2
CLASSES
  0
CLASS
  1
ACDBDICTIONARYWDFLT
  2
AcDbDictionaryWithDefault
  3
ObjectDBX Classes
 90
        0
 91
        1
280
     0
281
     0
  0
CLASS
  1
MATERIAL
  2
AcDbMaterial
  3
ObjectDBX Classes
 90
     1153
 91
        3
280
     0
281
     0
  0
CLASS
  1
VISUALSTYLE
  2
AcDbVisualStyle
  3
ObjectDBX Classes
 90
     4095
 91
       24
280
     0
281
     0
  0
CLASS
  1
SCALE
  2
AcDbScale
  3
ObjectDBX Classes
 90
     1153
 91
       17
280
     0
281
     0
  0
CLASS
  1
TABLESTYLE
  2
AcDbTableStyle
  3
ObjectDBX Classes
 90
     4095
 91
        1
280
     0
281
     0
  0
CLASS
  1
MLEADERSTYLE
  2
AcDbMLeaderStyle
  3
ACDB_MLEADERSTYLE_CLASS
 90
     4095
 91
        1
280
     0
281
     0
  0
CLASS
  1
ACDBSECTIONVIEWSTYLE
  2
AcDbSectionViewStyle
  3
ObjectDBX Classes
 90
     1025
 91
        1
280
     0
281
     0
  0
CLASS
  1
ACDBDETAILVIEWSTYLE
  2
AcDbDetailViewStyle
  3
ObjectDBX Classes
 90
     1025
 91
        1
280
     0
281
     0
  0
CLASS
  1
DICTIONARYVAR
  2
AcDbDictionaryVar
  3
ObjectDBX Classes
 90
        0
 91
        5
280
     0
281
     0
  0
CLASS
  1
CELLSTYLEMAP
  2
AcDbCellStyleMap
  3
ObjectDBX Classes
 90
     1152
 91
        1
280
     0
281
     0
  0
ENDSEC
  0
SECTION
  2
TABLES
  0
TABLE
  2
VPORT
  5
8
330
0
100
AcDbSymbolTable
 70
     1
  0
VPORT
  5
57
330
8
100
AcDbSymbolTableRecord
100
AcDbViewportTableRecord
  2
*Active
 70
     0
 10
0.0
 20
0.0
 11
1.0
 21
1.0
 12
0.0
 22
0.0
 13
0.0
 23
0.0
 14
1.0
 24
1.0
 15
0.0
 25
0.0
 16
0.0
 26
0.0
 36
1.0
 17
338.666666582
 27
189.8688107664631
 37
0.0
 40
389.9076258421052
 41
1.771906867261567
 42
50.0
 43
0.0
 44
0.0
 50
0.0
 51
0.0
 71
     0
 72
   100
 73
     1
 74
     1
 75
     0
 76
     0
 77
     0
 78
     0
281
     0
 65
     1
110
0.0
120
0.0
130
0.0
111
1.0
121
0.0
131
0.0
112
0.0
122
1.0
132
0.0
 79
     0
146
0.0
 60
     3
 61
     5
292
     1
282
     1
141
0.0
142
0.0
 63
   250
421
  3355443
  0
ENDTAB
  0
TABLE
  2
LTYPE
  5
5
330
0
100
AcDbSymbolTable
 70
     4
  0
LTYPE
  5
5B
330
5
100
AcDbSymbolTableRecord
100
AcDbLinetypeTableRecord
  2
ByBlock
 70
     0
  3

 72
    65
 73
     0
 40
0.0
  0
LTYPE
  5
5C
330
5
100
AcDbSymbolTableRecord
100
AcDbLinetypeTableRecord
  2
ByLayer
 70
     0
  3

 72
    65
 73
     0
 40
0.0
  0
LTYPE
  5
5D
330
5
100
AcDbSymbolTableRecord
100
AcDbLinetypeTableRecord
  2
Continuous
 70
     0
  3
Solid line
 72
    65
 73
     0
 40
0.0
  0
LTYPE
  5
7F
330
5
100
AcDbSymbolTableRecord
100
AcDbLinetypeTableRecord
  2
AI-Linetype-0
 70
     0
  3
Adobe Illustrator Linetype No. 0
 72
    65
 73
     4
 40
1.574661751608441
 49
1.049774508081358
 74
     0
 49
-0.1749624145090275
 74
     0
 49
0.1749624145090275
 74
     0
 49
-0.1749624145090275
 74
     0
  0
LTYPE
  5
81
330
5
100
AcDbSymbolTableRecord
100
AcDbLinetypeTableRecord
  2
AI-Linetype-1
 70
     0
  3
Adobe Illustrator Linetype No. 1
 72
    65
 73
     4
 40
1.574661751608441
 49
1.049774508081358
 74
     0
 49
-0.1749624145090275
 74
     0
 49
0.1749624145090275
 74
     0
 49
-0.1749624145090275
 74
     0
  0
LTYPE
  5
83
330
5
100
AcDbSymbolTableRecord
100
AcDbLinetypeTableRecord
  2
AI-Linetype-2
 70
     0
  3
Adobe Illustrator Linetype No. 2
 72
    65
 73
     4
 40
1.574661751608441
 49
1.049774508081358
 74
     0
 49
-0.1749624145090275
 74
     0
 49
0.1749624145090275
 74
     0
 49
-0.1749624145090275
 74
     0
  0
ENDTAB
  0
TABLE
  2
LAYER
  5
2
330
0
100
AcDbSymbolTable
 70
     7
  0
LAYER
  5
54
330
2
100
AcDbSymbolTableRecord
100
AcDbLayerTableRecord
  2
0
 70
     0
 62
     7
  6
Continuous
370
    -3
390
F
347
21
348
0
  0
LAYER
  5
78
330
2
100
AcDbSymbolTableRecord
100
AcDbLayerTableRecord
  2
DIM
 70
     0
 62
     7
  6
Continuous
370
     0
390
F
347
21
348
0
  0
LAYER
  5
7D
330
2
100
AcDbSymbolTableRecord
100
AcDbLayerTableRecord
  2
中心線
 70
     5
 62
     7
  6
Continuous
370
     0
390
F
347
21
348
0
  0
LAYER
  5
84
330
2
100
AcDbSymbolTableRecord
100
AcDbLayerTableRecord
  2
FLAME
 70
     0
 62
     7
  6
Continuous
370
     0
390
F
347
21
348
0
  0
LAYER
  5
8C
330
2
100
AcDbSymbolTableRecord
100
AcDbLayerTableRecord
  2
Defpoints
 70
     0
 62
     7
  6
Continuous
290
     0
370
     0
390
F
347
21
348
0
  0
LAYER
  5
8E
330
2
100
AcDbSymbolTableRecord
100
AcDbLayerTableRecord
  2
text
 70
     0
 62
     7
  6
Continuous
370
     0
390
F
347
21
348
0
  0
LAYER
  5
92
330
2
100
AcDbSymbolTableRecord
100
AcDbLayerTableRecord
  2
shade
 70
     0
 62
     7
  6
Continuous
370
     0
390
F
347
21
348
0
  0
ENDTAB
  0
TABLE
  2
STYLE
  5
3
330
0
100
AcDbSymbolTable
 70
     2
  0
STYLE
  5
55
330
3
100
AcDbSymbolTableRecord
100
AcDbTextStyleTableRecord
  2
Standard
 70
     0
 40
0.0
 41
1.0
 50
0.0
 71
     0
 42
0.2
  3
txt
  4

  0
STYLE
  5
5A
330
3
100
AcDbSymbolTableRecord
100
AcDbTextStyleTableRecord
  2
Annotative
 70
     0
 40
0.0
 41
1.0
 50
0.0
 71
     0
 42
0.2
  3
txt
  4

1001
AcadAnnotative
1000
AnnotativeData
1002
{
1070
     1
1070
     1
1002
}
  0
ENDTAB
  0
TABLE
  2
VIEW
  5
6
330
0
100
AcDbSymbolTable
 70
     0
  0
ENDTAB
  0
TABLE
  2
UCS
  5
7
330
0
100
AcDbSymbolTable
 70
     0
  0
ENDTAB
  0
TABLE
  2
APPID
  5
9
330
0
100
AcDbSymbolTable
 70
     2
  0
APPID
  5
56
330
9
100
AcDbSymbolTableRecord
100
AcDbRegAppTableRecord
  2
ACAD
 70
     0
  0
APPID
  5
5E
330
9
100
AcDbSymbolTableRecord
100
AcDbRegAppTableRecord
  2
AcadAnnotative
 70
     0
  0
ENDTAB
  0
TABLE
  2
DIMSTYLE
  5
A
330
0
100
AcDbSymbolTable
 70
     2
100
AcDbDimStyleTable
 71
     0
  0
DIMSTYLE
105
58
330
A
100
AcDbSymbolTableRecord
100
AcDbDimStyleTableRecord
  2
Standard
 70
     0
340
55
  0
DIMSTYLE
105
59
330
A
100
AcDbSymbolTableRecord
100
AcDbDimStyleTableRecord
  2
Annotative
 70
     0
340
55
1001
AcadAnnotative
1000
AnnotativeData
1002
{
1070
     1
1070
     1
1002
}
  0
ENDTAB
  0
TABLE
  2
BLOCK_RECORD
  5
1
330
0
100
AcDbSymbolTable
 70
     2
  0
BLOCK_RECORD
  5
70
330
1
100
AcDbSymbolTableRecord
100
AcDbBlockTableRecord
  2
*Model_Space
340
73
 70
     0
280
     1
281
     0
  0
BLOCK_RECORD
  5
6C
330
1
100
AcDbSymbolTableRecord
100
AcDbBlockTableRecord
  2
*Paper_Space
340
6F
 70
     0
280
     1
281
     0
  0
BLOCK_RECORD
  5
74
330
1
100
AcDbSymbolTableRecord
100
AcDbBlockTableRecord
  2
*Paper_Space0
340
77
 70
     0
280
     1
281
     0
  0
BLOCK_RECORD
  5
79
330
1
100
AcDbSymbolTableRecord
100
AcDbBlockTableRecord
  2
Block_0
340
0
102
{BLKREFS
331
7A
102
}
 70
     0
280
     1
281
     0
  0
ENDTAB
  0
ENDSEC
  0
SECTION
  2
BLOCKS
  0
BLOCK
  5
71
330
70
100
AcDbEntity
  8
0
100
AcDbBlockBegin
  2
*Model_Space
 70
     0
 10
0.0
 20
0.0
 30
0.0
  3
*Model_Space
  1

  0
ENDBLK
  5
72
330
70
100
AcDbEntity
  8
0
100
AcDbBlockEnd
  0
BLOCK
  5
6D
330
6C
100
AcDbEntity
 67
     1
  8
0
100
AcDbBlockBegin
  2
*Paper_Space
 70
     0
 10
0.0
 20
0.0
 30
0.0
  3
*Paper_Space
  1

  0
ENDBLK
  5
6E
330
6C
100
AcDbEntity
 67
     1
  8
0
100
AcDbBlockEnd
  0
BLOCK
  5
75
330
74
100
AcDbEntity
 67
     1
  8
0
100
AcDbBlockBegin
  2
*Paper_Space0
 70
     0
 10
0.0
 20
0.0
 30
0.0
  3
*Paper_Space0
  1

  0
ENDBLK
  5
76
330
74
100
AcDbEntity
 67
     1
  8
0
100
AcDbBlockEnd
  0
BLOCK
  5
7B
330
79
100
AcDbEntity
  8
0
100
AcDbBlockBegin
  2
Block_0
 70
     0
 10
0.0
 20
0.0
 30
0.0
  3
Block_0
  1

  0
ENDBLK
  5
7C
330
79
100
AcDbEntity
  8
0
100
AcDbBlockEnd
  0
ENDSEC
  0
SECTION
  2
ENTITIES
  0
INSERT
  5
7A
330
70
100
AcDbEntity
  8
DIM
100
AcDbBlockReference
  2
Block_0
 10
0.0
 20
0.0
 30
0.0
  0
LINE
  5
7E
330
70
100
AcDbEntity
  8
中心線
  6
AI-Linetype-0
 62
     1
420
 16711680
370
    25
100
AcDbLine
 10
375.9785163979174
 20
347.0464549288057
 30
0.0
 11
374.4660004518964
 21
347.0464549288057
 31
0.0
  0
LINE
  5
80
330
70
100
AcDbEntity
  8
中心線
  6
AI-Linetype-1
 62
     1
420
 16711680
370
    25
100
AcDbLine
 10
375.2195033867537
 20
346.6139386401292
 30
0.0
 11
375.2195033867537
 21
346.3064741621807
 31
0.0
  0
LINE
  5
82
330
70
100
AcDbEntity
  8
中心線
  6
AI-Linetype-2
 62
     1
420
 16711680
370
    25
100
AcDbLine
 10
375.2195033867537
 20
345.3509765295659
 30
0.0
 11
375.2195033867537
 21
344.3165772865464
 31
0.0
  0
LINE
  5
85
330
70
100
AcDbEntity
  8
FLAME
 62
     2
420
 16776960
370
    25
100
AcDbLine
 10
352.8950198025737
 20
266.2363104395358
 30
0.0
 11
352.8950198025737
 21
124.0356733124754
 31
0.0
  0
LINE
  5
86
330
70
100
AcDbEntity
  8
FLAME
 62
     2
420
 16776960
370
    25
100
AcDbLine
 10
231.0087594079471
 20
124.0356733124754
 30
0.0
 11
231.0087594079471
 21
266.2363104395358
 31
0.0
  0
LINE
  5
87
330
70
100
AcDbEntity
  8
FLAME
 62
     2
420
 16776960
370
    25
100
AcDbLine
 10
352.8950198025737
 20
124.0356733124754
 30
0.0
 11
231.0087594079471
 21
124.0356733124754
 31
0.0
  0
LINE
  5
88
330
70
100
AcDbEntity
  8
FLAME
 62
     2
420
 16776960
370
    25
100
AcDbLine
 10
352.8950198025737
 20
130.8071322232783
 30
0.0
 11
231.0087594079471
 21
130.8071322232783
 31
0.0
  0
LINE
  5
89
330
70
100
AcDbEntity
  8
FLAME
 62
     2
420
 16776960
370
    25
100
AcDbLine
 10
352.8950198025737
 20
137.5785911340973
 30
0.0
 11
231.0087594079471
 21
137.5785911340973
 31
0.0
  0
LINE
  5
8A
330
70
100
AcDbEntity
  8
FLAME
 62
     2
420
 16776960
370
    25
100
AcDbLine
 10
352.8950198025737
 20
144.3500500449162
 30
0.0
 11
231.0087594079471
 21
144.3500500449162
 31
0.0
  0
LINE
  5
8B
330
70
100
AcDbEntity
  8
FLAME
 62
     2
420
 16776960
370
    25
100
AcDbLine
 10
352.8950198025737
 20
266.2363104395358
 30
0.0
 11
231.0087594079471
 21
266.2363104395358
 31
0.0
  0
LWPOLYLINE
  5
8D
330
70
100
AcDbEntity
  8
Defpoints
 62
    18
420
        0
370
     0
100
AcDbPolyline
 90
        4
 70
     1
 43
0.0
 10
159.9084408444167
 20
380.6479041980062
 10
423.9953383661037
 20
380.6479041980062
 10
423.9953383661037
 20
-1.262378371823681
 10
159.9084408444167
 20
-1.262378371823681
  0
MTEXT
  5
8F
330
70
100
AcDbEntity
  8
text
100
AcDbMText
 10
235.6808769484583
 20
132.3523097343171
 30
0.0
 40
0.2
 41
0.0
 46
0.0
 71
     7
 72
     1
  1
\C4;\c16776960;\FMS PMincho|b0|i0|c128;\H3.385730;\W1.000000;KP1311M/KP1311MCP
 73
     1
 44
1.0
  0
MTEXT
  5
90
330
70
100
AcDbEntity
  8
text
100
AcDbMText
 10
235.6808769484583
 20
139.1215778532845
 30
0.0
 40
0.2
 41
0.0
 46
0.0
 71
     7
 72
     1
  1
\C4;\c16776960;\FMS PMincho|b0|i0|c128;\H3.385730;\W1.000000;ペンダント　スワール1
 73
     1
 44
1.0
  0
MTEXT
  5
91
330
70
100
AcDbEntity
  8
text
100
AcDbMText
 10
235.7063706550491
 20
125.904813533672
 30
0.0
 40
0.2
 41
0.0
 46
0.0
 71
     7
 72
     1
  1
\C4;\c16776960;\FMS PMincho|b0|i0|c128;\H3.385730;\W0.825919;E26 LED電球（100W形相当　電球色　全方向/広配光タイプ）
 73
     1
 44
1.0
  0
LINE
  5
93
330
70
100
AcDbEntity
  8
shade
 62
     6
420
 16711935
370
     0
100
AcDbLine
 10
293.4562692172539
 20
206.6292160108748
 30
0.0
 11
293.4562692172539
 21
226.2635722627676
 31
0.0
  0
LINE
  5
94
330
70
100
AcDbEntity
  8
shade
 62
     6
420
 16711935
370
     0
100
AcDbLine
 10
293.0689418062815
 20
226.2635722627676
 30
0.0
 11
293.0689418062815
 21
206.6292160108748
 31
0.0
  0
LINE
  5
95
330
70
100
AcDbEntity
  8
shade
 62
     6
420
 16711935
370
     0
100
AcDbLine
 10
293.2626055117678
 20
210.2884601928935
 30
0.0
 11
293.2626055117678
 21
205.3035240833332
 31
0.0
  0
LINE
  5
96
330
70
100
AcDbEntity
  8
shade
 62
     6
420
 16711935
370
    25
100
AcDbLine
 10
293.4562690429517
 20
202.7198454568756
 30
0.0
 11
293.4562690429517
 21
201.0814269350978
 31
0.0
  0
LINE
  5
97
330
70
100
AcDbEntity
  8
shade
 62
     6
420
 16711935
370
    25
100
AcDbLine
 10
293.0689419805839
 20
202.6049488324177
 30
0.0
 11
293.0689419805839
 21
200.934356586329
 31
0.0
  0
LINE
  5
98
330
70
100
AcDbEntity
  8
shade
 62
     6
420
 16711935
370
    25
100
AcDbLine
 10
293.4562690429517
 20
204.4019764565842
 30
0.0
 11
293.4562690429517
 21
203.6099137248156
 31
0.0
  0
LINE
  5
99
330
70
100
AcDbEntity
  8
shade
 62
     6
420
 16711935
370
    25
100
AcDbLine
 10
293.0689419805839
 20
204.4019764565842
 30
0.0
 11
293.0689419805839
 21
203.5058221711589
 31
0.0
  0
SPLINE
  5
9A
330
70
100
AcDbEntity
  8
shade
 62
     6
420
 16711935
370
    25
100
AcDbSpline
210
0.0
220
0.0
230
1.0
 70
     8
 71
     3
 72
    86
 73
    82
 74
     0
 42
0.0000000001
 43
0.0000000001
 40
0.0
 40
0.0
 40
0.0
 40
0.0
 40
1.0
 40
1.0
 40
1.0
 40
2.0
 40
2.0
 40
2.0
 40
3.0
 40
3.0
 40
3.0
 40
4.0
 40
4.0
 40
4.0
 40
5.0
 40
5.0
 40
5.0
 40
6.0
 40
6.0
 40
6.0
 40
7.0
 40
7.0
 40
7.0
 40
8.0
 40
8.0
 40
8.0
 40
9.0
 40
9.0
 40
9.0
 40
10.0
 40
10.0
 40
10.0
 40
11.0
 40
11.0
 40
11.0
 40
12.0
 40
12.0
 40
12.0
 40
13.0
 40
13.0
 40
13.0
 40
14.0
 40
14.0
 40
14.0
 40
15.0
 40
15.0
 40
15.0
 40
16.0
 40
16.0
 40
16.0
 40
17.0
 40
17.0
 40
17.0
 40
18.0
 40
18.0
 40
18.0
 40
19.0
 40
19.0
 40
19.0
 40
20.0
 40
20.0
 40
20.0
 40
21.0
 40
21.0
 40
21.0
 40
22.0
 40
22.0
 40
22.0
 40
23.0
 40
23.0
 40
23.0
 40
24.0
 40
24.0
 40
24.0
 40
25.0
 40
25.0
 40
25.0
 40
26.0
 40
26.0
 40
26.0
 40
27.0
 40
27.0
 40
27.0
 40
27.0
 10
307.3093916160569
 20
196.1670268889344
 30
0.0
 10
307.3093916160569
 20
196.1670268889344
 30
0.0
 10
307.5531984436616
 20
195.9031193801217
 30
0.0
 10
307.5531984436616
 20
195.9031193801217
 30
0.0
 10
307.6301910744881
 20
195.819251257723
 30
0.0
 10
307.7065949150961
 20
195.7348445122245
 30
0.0
 10
307.7824043352408
 20
195.6499053635796
 30
0.0
 10
307.8582095934908
 20
195.5649708780206
 30
0.0
 10
307.9326174472619
 20
195.478799440663
 30
0.0
 10
308.0055979079485
 20
195.3914257811831
 30
0.0
 10
308.075255710721
 20
195.3080300738371
 30
0.0
 10
308.1431885944069
 20
195.2232086103666
 30
0.0
 10
308.2093533473177
 20
195.1370153451889
 30
0.0
 10
308.2755101069406
 20
195.0508324929192
 30
0.0
 10
308.3390558546498
 20
194.9626764188203
 30
0.0
 10
308.3999041436119
 20
194.8726670492927
 30
0.0
 10
308.5030525669902
 20
194.7200855270618
 30
0.0
 10
308.5968060252544
 20
194.5613594295652
 30
0.0
 10
308.6806431424714
 20
194.3973714545597
 30
0.0
 10
308.7644450124916
 20
194.2334524241444
 30
0.0
 10
308.8360943908138
 20
194.0635997769629
 30
0.0
 10
308.8950130737198
 20
193.8891842078284
 30
0.0
 10
308.9548388163109
 20
193.712083491563
 30
0.0
 10
308.9994618200466
 20
193.5302061477051
 30
0.0
 10
309.0283976439705
 20
193.3455266922343
 30
0.0
 10
309.0573069162093
 20
193.1610166997253
 30
0.0
 10
309.0668493752178
 20
192.9739901245924
 30
0.0
 10
309.0568694569875
 20
192.7874959300848
 30
0.0
 10
309.0469032723036
 20
192.6012583737225
 30
0.0
 10
309.0169070261165
 20
192.4166359290198
 30
0.0
 10
308.9673996854228
 20
192.2368227608239
 30
0.0
 10
308.9178622067225
 20
192.0569001298862
 30
0.0
 10
308.8512064718937
 20
191.8821355043662
 30
0.0
 10
308.7683454407133
 20
191.7149225729437
 30
0.0
 10
308.6988744225296
 20
191.5747305860134
 30
0.0
 10
308.6195813291347
 20
191.4396242127875
 30
0.0
 10
308.5310588857217
 20
191.3106133892889
 30
0.0
 10
308.4424910168905
 20
191.1815363637044
 30
0.0
 10
308.3469827203
 20
191.0573615201873
 30
0.0
 10
308.2449554003158
 20
190.9386367464556
 30
0.0
 10
308.1243219623131
 20
190.7982608389583
 30
0.0
 10
307.9960918941119
 20
190.6645962664697
 30
0.0
 10
307.8608411326391
 20
190.5382433745938
 30
0.0
 10
307.7255406131405
 20
190.4118439981698
 30
0.0
 10
307.5853504111904
 20
190.290782308695
 30
0.0
 10
307.4405916613017
 20
190.1753356228852
 30
0.0
 10
307.3346107572987
 20
190.0908146931619
 30
0.0
 10
307.2265377363491
 20
190.0089509055167
 30
0.0
 10
307.1164734627328
 20
189.9298206632125
 30
0.0
 10
307.0064028424085
 20
189.8506858579635
 30
0.0
 10
306.894776667733
 20
189.7737374610538
 30
0.0
 10
306.7816605240995
 20
189.6990206831005
 30
0.0
 10
306.7160365936604
 20
189.6556740087687
 30
0.0
 10
306.6499584515184
 20
189.6130189287492
 30
0.0
 10
306.5834370674095
 20
189.5710625242513
 30
0.0
 10
306.5169152595357
 20
189.5291058524767
 30
0.0
 10
306.4500075935517
 20
189.4877640943996
 30
0.0
 10
306.3827226198682
 20
189.447042533213
 30
0.0
 10
306.3490016332328
 20
189.4266342437435
 30
0.0
 10
306.3151908909365
 20
189.4063746286375
 30
0.0
 10
306.2812913775244
 20
189.3862642778502
 30
0.0
 10
306.2473918437138
 20
189.3661539149668
 30
0.0
 10
306.2134095206094
 20
189.3461834363907
 30
0.0
 10
306.1793452750866
 20
189.326353351554
 30
0.0
 10
306.1793452750866
 20
189.326353351554
 30
0.0
 10
305.9742658376034
 20
189.2091114042337
 30
0.0
 10
305.9742658376034
 20
189.2091114042337
 30
0.0
 10
305.9742658376034
 20
189.2091114042337
 30
0.0
 10
305.768161934217
 20
189.0952521704183
 30
0.0
 10
305.768161934217
 20
189.0952521704183
 30
0.0
 10
305.7338701267351
 20
189.0766118685676
 30
0.0
 10
305.6995185611948
 20
189.0580817117813
 30
0.0
 10
305.6651077687348
 20
189.0396619866067
 30
0.0
 10
305.630696964156
 20
189.0212422549343
 30
0.0
 10
305.5962312851289
 20
189.0029252209604
 30
0.0
 10
305.5617111917395
 20
188.9847111291915
 30
0.0
 10
305.5617111917395
 20
188.9847111291915
 30
0.0
 10
305.3555912369689
 20
188.877423759734
 30
0.0
 10
305.3555912369689
 20
188.877423759734
 30
0.0
 10
305.3555912369689
 20
188.877423759734
 30
0.0
 10
305.1504796967167
 20
188.7733255411296
 30
0.0
 10
305.1504796967167
 20
188.7733255411296
 30
0.0
  0
SPLINE
  5
9B
330
70
100
AcDbEntity
  8
shade
 62
     6
420
 16711935
370
    25
100
AcDbSpline
210
0.0
220
0.0
230
1.0
 70
     8
 71
     3
 72
    65
 73
    61
 74
     0
 42
0.0000000001
 43
0.0000000001
 40
0.0
 40
0.0
 40
0.0
 40
0.0
 40
1.0
 40
1.0
 40
1.0
 40
2.0
 40
2.0
 40
2.0
 40
3.0
 40
3.0
 40
3.0
 40
4.0
 40
4.0
 40
4.0
 40
5.0
 40
5.0
 40
5.0
 40
6.0
 40
6.0
 40
6.0
 40
7.0
 40
7.0
 40
7.0
 40
8.0
 40
8.0
 40
8.0
 40
9.0
 40
9.0
 40
9.0
 40
10.0
 40
10.0
 40
10.0
 40
11.0
 40
11.0
 40
11.0
 40
12.0
 40
12.0
 40
12.0
 40
13.0
 40
13.0
 40
13.0
 40
14.0
 40
14.0
 40
14.0
 40
15.0
 40
15.0
 40
15.0
 40
16.0
 40
16.0
 40
16.0
 40
17.0
 40
17.0
 40
17.0
 40
18.0
 40
18.0
 40
18.0
 40
19.0
 40
19.0
 40
19.0
 40
20.0
 40
20.0
 40
20.0
 40
20.0
 10
301.0165081968111
 20
185.259138152081
 30
0.0
 10
301.0252118656487
 20
185.2226898371276
 30
0.0
 10
301.0297696871081
 20
185.1853748529242
 30
0.0
 10
301.0300949433166
 20
185.1479031606491
 30
0.0
 10
301.0304196885642
 20
185.1104903346097
 30
0.0
 10
301.025582084627
 20
185.0732115278504
 30
0.0
 10
301.0157189110157
 20
185.0371207697937
 30
0.0
 10
301.0046222353726
 20
184.996516451973
 30
0.0
 10
300.9875742840934
 20
184.957779044811
 30
0.0
 10
300.9651296954711
 20
184.9221688317135
 30
0.0
 10
300.9426211654004
 20
184.8864571701528
 30
0.0
 10
300.9164967032398
 20
184.8531570823018
 30
0.0
 10
300.8871692719439
 20
184.8227949599953
 30
0.0
 10
300.8634998658242
 20
184.7982904816792
 30
0.0
 10
300.8382653115135
 20
184.7753477284957
 30
0.0
 10
300.8116246566668
 20
184.7541113033659
 30
0.0
 10
300.7849672739965
 20
184.732861543768
 30
0.0
 10
300.7574446448891
 20
184.7127204948802
 30
0.0
 10
300.7291269631633
 20
184.69373952454
 30
0.0
 10
300.7034006901412
 20
184.6764955414169
 30
0.0
 10
300.6771902604467
 20
184.6599850714535
 30
0.0
 10
300.6505273209825
 20
184.6442280496296
 30
0.0
 10
300.623861699518
 20
184.6284694428329
 30
0.0
 10
300.5968824156797
 20
184.6132477279578
 30
0.0
 10
300.5696057748908
 20
184.5985721045217
 30
0.0
 10
300.5160634501369
 20
184.5697647817314
 30
0.0
 10
300.4613705071255
 20
184.5431492351134
 30
0.0
 10
300.4056628132862
 20
184.5187915826332
 30
0.0
 10
300.3499442111432
 20
184.4944291605863
 30
0.0
 10
300.2935173221019
 20
184.4717198373134
 30
0.0
 10
300.236456137491
 20
184.4506933910435
 30
0.0
 10
300.1824643715474
 20
184.4307979932546
 30
0.0
 10
300.1280008572839
 20
184.4122069965844
 30
0.0
 10
300.0731130528916
 20
184.3949366007921
 30
0.0
 10
300.0182217243436
 20
184.3776650961213
 30
0.0
 10
299.9630238166477
 20
184.3613834892766
 30
0.0
 10
299.9075461762769
 20
184.3460996991129
 30
0.0
 10
299.8204156304947
 20
184.3220957045194
 30
0.0
 10
299.732734170678
 20
184.3001382229181
 30
0.0
 10
299.6445741014177
 20
184.280245361057
 30
0.0
 10
299.5564063541753
 20
184.2603507667073
 30
0.0
 10
299.4679605853137
 20
184.24170898837
 30
0.0
 10
299.3792635362366
 20
184.2243256623835
 30
0.0
 10
299.3043997255626
 20
184.2096534490587
 30
0.0
 10
299.2294034222131
 20
184.1956655475154
 30
0.0
 10
299.154284016669
 20
184.1823637091974
 30
0.0
 10
299.0791633709335
 20
184.1690616512765
 30
0.0
 10
299.0039874992442
 20
184.1560733783991
 30
0.0
 10
298.9287583683733
 20
184.1433992303549
 30
0.0
 10
298.8415269689637
 20
184.1287030128638
 30
0.0
 10
298.7542686238222
 20
184.1141671854058
 30
0.0
 10
298.6669837753639
 20
184.0997918217223
 30
0.0
 10
298.5796996131386
 20
184.0854165710496
 30
0.0
 10
298.4925010472588
 20
184.0705263332204
 30
0.0
 10
298.4053926331054
 20
184.0551218861408
 30
0.0
 10
298.3262759892887
 20
184.0411307216072
 30
0.0
 10
298.247293482354
 20
184.0263913696721
 30
0.0
 10
298.1684557158502
 20
184.0109058091079
 30
0.0
 10
298.0896259252555
 20
183.9954218151903
 30
0.0
 10
298.0111500830384
 20
183.9781873524811
 30
0.0
 10
297.9330863455205
 20
183.959215192935
 30
0.0
  0
SPLINE
  5
9C
330
70
100
AcDbEntity
  8
shade
 62
     6
420
 16711935
370
    25
100
AcDbSpline
210
0.0
220
0.0
230
1.0
 70
     8
 71
     3
 72
   104
 73
   100
 74
     0
 42
0.0000000001
 43
0.0000000001
 40
0.0
 40
0.0
 40
0.0
 40
0.0
 40
1.0
 40
1.0
 40
1.0
 40
2.0
 40
2.0
 40
2.0
 40
3.0
 40
3.0
 40
3.0
 40
4.0
 40
4.0
 40
4.0
 40
5.0
 40
5.0
 40
5.0
 40
6.0
 40
6.0
 40
6.0
 40
7.0
 40
7.0
 40
7.0
 40
8.0
 40
8.0
 40
8.0
 40
9.0
 40
9.0
 40
9.0
 40
10.0
 40
10.0
 40
10.0
 40
11.0
 40
11.0
 40
11.0
 40
12.0
 40
12.0
 40
12.0
 40
13.0
 40
13.0
 40
13.0
 40
14.0
 40
14.0
 40
14.0
 40
15.0
 40
15.0
 40
15.0
 40
16.0
 40
16.0
 40
16.0
 40
17.0
 40
17.0
 40
17.0
 40
18.0
 40
18.0
 40
18.0
 40
19.0
 40
19.0
 40
19.0
 40
20.0
 40
20.0
 40
20.0
 40
21.0
 40
21.0
 40
21.0
 40
22.0
 40
22.0
 40
22.0
 40
23.0
 40
23.0
 40
23.0
 40
24.0
 40
24.0
 40
24.0
 40
25.0
 40
25.0
 40
25.0
 40
26.0
 40
26.0
 40
26.0
 40
27.0
 40
27.0
 40
27.0
 40
28.0
 40
28.0
 40
28.0
 40
29.0
 40
29.0
 40
29.0
 40
30.0
 40
30.0
 40
30.0
 40
31.0
 40
31.0
 40
31.0
 40
32.0
 40
32.0
 40
32.0
 40
33.0
 40
33.0
 40
33.0
 40
33.0
 10
297.9330863455124
 20
183.959215192935
 30
0.0
 10
297.920960761066
 20
183.9429292173442
 30
0.0
 10
297.9076094950091
 20
183.9275927536485
 30
0.0
 10
297.8931489410606
 20
183.9133395021254
 30
0.0
 10
297.8786808214381
 20
183.8990787933818
 30
0.0
 10
297.8633542253334
 20
183.8857161237917
 30
0.0
 10
297.8472549534144
 20
183.8733262996251
 30
0.0
 10
297.8234569352249
 20
183.8550116042912
 30
0.0
 10
297.7983017880254
 20
183.8385315166738
 30
0.0
 10
297.7720067068214
 20
183.8240283294395
 30
0.0
 10
297.74569011442
 20
183.8095132776161
 30
0.0
 10
297.7186635069995
 20
183.7963245204468
 30
0.0
 10
297.6910283183024
 20
183.7845115567557
 30
0.0
 10
297.6510725003204
 20
183.7674320053339
 30
0.0
 10
297.6101813256438
 20
183.75262936721
 30
0.0
 10
297.5685512714961
 20
183.7401747672954
 30
0.0
 10
297.5268991356089
 20
183.7277135611142
 30
0.0
 10
297.4848472328887
 20
183.7166298775257
 30
0.0
 10
297.44246417886
 20
183.7069418016394
 30
0.0
 10
297.4045515716834
 20
183.6982755970949
 30
0.0
 10
297.3664390065436
 20
183.6905086455045
 30
0.0
 10
297.3281585504813
 20
183.6836474817869
 30
0.0
 10
297.2898749879913
 20
183.6767857613112
 30
0.0
 10
297.2514881606348
 20
183.6705132226417
 30
0.0
 10
297.2130116859047
 20
183.6648320909332
 30
0.0
 10
297.1303032144558
 20
183.6526200127193
 30
0.0
 10
297.0473207292928
 20
183.6423418503897
 30
0.0
 10
296.9641321485092
 20
183.6340060162677
 30
0.0
 10
296.8809325827546
 20
183.625669081388
 30
0.0
 10
296.7976983429783
 20
183.6176818845045
 30
0.0
 10
296.7144316348664
 20
183.6100446372578
 30
0.0
 10
296.6527386109257
 20
183.6043861347425
 30
0.0
 10
296.5910562292815
 20
183.5986121960693
 30
0.0
 10
296.5293848139047
 20
183.5927228515817
 30
0.0
 10
296.4677158567543
 20
183.5868337418514
 30
0.0
 10
296.4061245854481
 20
183.5801576766394
 30
0.0
 10
296.3446260524417
 20
183.5726962875176
 30
0.0
 10
296.3046992154639
 20
183.5678521123566
 30
0.0
 10
296.2648325451628
 20
183.5625242883846
 30
0.0
 10
296.2250348220377
 20
183.5567139890617
 30
0.0
 10
296.1852365215508
 20
183.5509036054471
 30
0.0
 10
296.145384346822
 20
183.5454684160386
 30
0.0
 10
296.1054836068051
 20
183.5404091448869
 30
0.0
 10
296.0133623430159
 20
183.5287284980631
 30
0.0
 10
295.9210548357131
 20
183.5185668172005
 30
0.0
 10
295.828598685232
 20
183.5099282415227
 30
0.0
 10
295.7361381445954
 20
183.5012892556723
 30
0.0
 10
295.6436014182433
 20
183.4934860457966
 30
0.0
 10
295.5509998424707
 20
183.4865195678662
 30
0.0
 10
295.4743344922826
 20
183.4807519827547
 30
0.0
 10
295.3976351318798
 20
183.4754457530276
 30
0.0
 10
295.3209059266029
 20
183.4706011668578
 30
0.0
 10
295.2441763170833
 20
183.4657565551722
 30
0.0
 10
295.1674281525258
 20
183.4612104361032
 30
0.0
 10
295.0906631749218
 20
183.4569629128529
 30
0.0
 10
295.0906631749218
 20
183.4569629128529
 30
0.0
 10
294.7733816554354
 20
183.440707597451
 30
0.0
 10
294.7733816554354
 20
183.440707597451
 30
0.0
 10
294.7733816554354
 20
183.440707597451
 30
0.0
 10
294.4545001024362
 20
183.426139764842
 30
0.0
 10
294.4545001024362
 20
183.426139764842
 30
0.0
 10
294.4545001024362
 20
183.426139764842
 30
0.0
 10
293.8349504709774
 20
183.3983917563035
 30
0.0
 10
293.8349504709774
 20
183.3983917563035
 30
0.0
 10
293.8036072806326
 20
183.3968833428193
 30
0.0
 10
293.7722741273012
 20
183.3951731368884
 30
0.0
 10
293.7409529593596
 20
183.3932612448667
 30
0.0
 10
293.7096315851651
 20
183.3913493402599
 30
0.0
 10
293.6783177623248
 20
183.3893156732168
 30
0.0
 10
293.647012200775
 20
183.3871602898671
 30
0.0
 10
293.647012200775
 20
183.3871602898671
 30
0.0
 10
293.4609276630943
 20
183.3735946003562
 30
0.0
 10
293.4609276630943
 20
183.3735946003562
 30
0.0
 10
293.4307327101036
 20
183.3713467205922
 30
0.0
 10
293.4005352602812
 20
183.3691325066494
 30
0.0
 10
293.3703353699266
 20
183.3669519626423
 30
0.0
 10
293.3401355858406
 20
183.364771426315
 30
0.0
 10
293.3099273830209
 20
183.3627090970996
 30
0.0
 10
293.2797114555934
 20
183.3607650223675
 30
0.0
 10
293.2797114555934
 20
183.3607650223675
 30
0.0
 10
293.1918710374282
 20
183.355585754734
 30
0.0
 10
293.1918710374282
 20
183.355585754734
 30
0.0
 10
293.1378870332551
 20
183.3527377542506
 30
0.0
 10
293.083861473798
 20
183.3507412336177
 30
0.0
 10
293.0298145090416
 20
183.3495969374982
 30
0.0
 10
292.9757820622354
 20
183.3484529487442
 30
0.0
 10
292.9217258820161
 20
183.3492747248032
 30
0.0
 10
292.8677531785776
 20
183.3520606358671
 30
0.0
 10
292.8442498876971
 20
183.3532738061137
 30
0.0
 10
292.8207749743816
 20
183.3549853865139
 30
0.0
 10
292.7973442785034
 20
183.3571942221531
 30
0.0
 10
292.7739165427606
 20
183.3594027787508
 30
0.0
 10
292.7505626622636
 20
183.3623348820769
 30
0.0
 10
292.7273160833411
 20
183.3659863329138
 30
0.0
 10
292.6972387320276
 20
183.3707107256925
 30
0.0
 10
292.6674145160647
 20
183.3769256647107
 30
0.0
 10
292.6379535979192
 20
183.3846081936843
 30
0.0
 10
292.6085298888001
 20
183.3922810196532
 30
0.0
 10
292.5798266793306
 20
183.4024900070195
 30
0.0
 10
292.5521662891707
 20
183.4151205150511
 30
0.0
  0
SPLINE
  5
9D
330
70
100
AcDbEntity
  8
shade
 62
     6
420
 16711935
370
    25
100
AcDbSpline
210
0.0
220
0.0
230
1.0
 70
     8
 71
     3
 72
    29
 73
    25
 74
     0
 42
0.0000000001
 43
0.0000000001
 40
0.0
 40
0.0
 40
0.0
 40
0.0
 40
1.0
 40
1.0
 40
1.0
 40
2.0
 40
2.0
 40
2.0
 40
3.0
 40
3.0
 40
3.0
 40
4.0
 40
4.0
 40
4.0
 40
5.0
 40
5.0
 40
5.0
 40
6.0
 40
6.0
 40
6.0
 40
7.0
 40
7.0
 40
7.0
 40
8.0
 40
8.0
 40
8.0
 40
8.0
 10
292.5521662891707
 20
183.4151205150511
 30
0.0
 10
292.5206507700914
 20
183.4150692703025
 30
0.0
 10
292.4891364649777
 20
183.414716118472
 30
0.0
 10
292.4576277117449
 20
183.4140611081804
 30
0.0
 10
292.4261183611843
 20
183.4134060854617
 30
0.0
 10
292.3946117515189
 20
183.4126252571727
 30
0.0
 10
292.3631086361711
 20
183.4117186419998
 30
0.0
 10
292.3316164923108
 20
183.4108123425665
 30
0.0
 10
292.3001254459519
 20
183.4098682999865
 30
0.0
 10
292.2686355649624
 20
183.4088865163113
 30
0.0
 10
292.2371458246995
 20
183.4079047370047
 30
0.0
 10
292.2056519219832
 20
183.4070613459317
 30
0.0
 10
292.1741547691299
 20
183.4063563675511
 30
0.0
 10
292.1505470837658
 20
183.4058279734927
 30
0.0
 10
292.1269368419655
 20
183.4054207452432
 30
0.0
 10
292.1033249765955
 20
183.4051346988907
 30
0.0
 10
292.0797133610436
 20
183.4048486555659
 30
0.0
 10
292.0560997805872
 20
183.4047582673228
 30
0.0
 10
292.0324866671397
 20
183.4048635434815
 30
0.0
 10
291.9930896852611
 20
183.4050391900947
 30
0.0
 10
291.9536987139144
 20
183.4058982083688
 30
0.0
 10
291.9143315288343
 20
183.4074402106665
 30
0.0
 10
291.874967982686
 20
183.4089820704319
 30
0.0
 10
291.8356509649767
 20
183.4115430303021
 30
0.0
 10
291.7964200116391
 20
183.4151205150511
 30
0.0
  0
SPLINE
  5
9E
330
70
100
AcDbEntity
  8
shade
 62
     6
420
 16711935
370
    25
100
AcDbSpline
210
0.0
220
0.0
230
1.0
 70
     8
 71
     3
 72
    29
 73
    25
 74
     0
 42
0.0000000001
 43
0.0000000001
 40
0.0
 40
0.0
 40
0.0
 40
0.0
 40
1.0
 40
1.0
 40
1.0
 40
2.0
 40
2.0
 40
2.0
 40
3.0
 40
3.0
 40
3.0
 40
4.0
 40
4.0
 40
4.0
 40
5.0
 40
5.0
 40
5.0
 40
6.0
 40
6.0
 40
6.0
 40
7.0
 40
7.0
 40
7.0
 40
8.0
 40
8.0
 40
8.0
 40
8.0
 10
279.3417361185428
 20
196.1721111195279
 30
0.0
 10
279.2223826264507
 20
196.30909998715
 30
0.0
 10
279.11083546331
 20
196.452699161062
 30
0.0
 10
279.0076240387703
 20
196.6022271108607
 30
0.0
 10
278.9044233228813
 20
196.7517395464686
 30
0.0
 10
278.8102656117371
 20
196.9072959499636
 30
0.0
 10
278.7256561555842
 20
197.0680616057868
 30
0.0
 10
278.6547925998391
 20
197.2027088016305
 30
0.0
 10
278.5911937814361
 20
197.341055887318
 30
0.0
 10
278.5351331374859
 20
197.4825080526541
 30
0.0
 10
278.4790871782971
 20
197.6239231653983
 30
0.0
 10
278.4319472133603
 20
197.7687075167261
 30
0.0
 10
278.3939897009921
 20
197.91601200039
 30
0.0
 10
278.3565178523692
 20
198.0614317333553
 30
0.0
 10
278.3289161872279
 20
198.2092175639822
 30
0.0
 10
278.3113733584199
 20
198.3583594002617
 30
0.0
 10
278.2938381229627
 20
198.5074366810897
 30
0.0
 10
278.2881597370456
 20
198.6576703445624
 30
0.0
 10
278.2943916621921
 20
198.8076459533934
 30
0.0
 10
278.301172115958
 20
198.9708222845189
 30
0.0
 10
278.3230267058609
 20
199.1330220873909
 30
0.0
 10
278.359676323961
 20
199.2921738862627
 30
0.0
 10
278.3963194486325
 20
199.4512974872414
 30
0.0
 10
278.4481878588096
 20
199.606526296173
 30
0.0
 10
278.5145646014549
 20
199.7557146570119
 30
0.0
  0
SPLINE
  5
9F
330
70
100
AcDbEntity
  8
shade
 62
     6
420
 16711935
370
    25
100
AcDbSpline
210
0.0
220
0.0
230
1.0
 70
     8
 71
     3
 72
    47
 73
    43
 74
     0
 42
0.0000000001
 43
0.0000000001
 40
0.0
 40
0.0
 40
0.0
 40
0.0
 40
1.0
 40
1.0
 40
1.0
 40
2.0
 40
2.0
 40
2.0
 40
3.0
 40
3.0
 40
3.0
 40
4.0
 40
4.0
 40
4.0
 40
5.0
 40
5.0
 40
5.0
 40
6.0
 40
6.0
 40
6.0
 40
7.0
 40
7.0
 40
7.0
 40
8.0
 40
8.0
 40
8.0
 40
9.0
 40
9.0
 40
9.0
 40
10.0
 40
10.0
 40
10.0
 40
11.0
 40
11.0
 40
11.0
 40
12.0
 40
12.0
 40
12.0
 40
13.0
 40
13.0
 40
13.0
 40
14.0
 40
14.0
 40
14.0
 40
14.0
 10
278.5145646014549
 20
199.7557146570119
 30
0.0
 10
278.58003196936
 20
199.9156326583929
 30
0.0
 10
278.6583832111401
 20
200.0699676412641
 30
0.0
 10
278.7488451636841
 20
200.2171966416955
 30
0.0
 10
278.8393334479392
 20
200.3644684976087
 30
0.0
 10
278.9405586847747
 20
200.5048670731731
 30
0.0
 10
279.051697431375
 20
200.6372502599382
 30
0.0
 10
279.1448624808347
 20
200.7482240338811
 30
0.0
 10
279.2441777589496
 20
200.8538856780766
 30
0.0
 10
279.3491754663368
 20
200.9537375002409
 30
0.0
 10
279.4542026218389
 20
201.0536173272686
 30
0.0
 10
279.563670225202
 20
201.1487213848499
 30
0.0
 10
279.6772462480089
 20
201.2387612109388
 30
0.0
 10
279.8036159043505
 20
201.3389434642087
 30
0.0
 10
279.9342846727937
 20
201.4335799122447
 30
0.0
 10
280.068881843271
 20
201.5224020694396
 30
0.0
 10
280.2035096852034
 20
201.6112444670696
 30
0.0
 10
280.3408886018461
 20
201.6958460902479
 30
0.0
 10
280.4808163198734
 20
201.7760823736041
 30
0.0
 10
280.575237235356
 20
201.830224493829
 30
0.0
 10
280.6706327175311
 20
201.882649013731
 30
0.0
 10
280.7669556687753
 20
201.933330050859
 30
0.0
 10
280.8632820457822
 20
201.9840128904958
 30
0.0
 10
280.9602968940047
 20
202.0333763157083
 30
0.0
 10
281.0579730114892
 20
202.0814064855304
 30
0.0
 10
281.0823868467917
 20
202.0934114739108
 30
0.0
 10
281.1068377492895
 20
202.1053409335463
 30
0.0
 10
281.1313253682095
 20
202.1171946932798
 30
0.0
 10
281.1558129964967
 20
202.1290484575707
 30
0.0
 10
281.1803341754337
 20
202.1408327871285
 30
0.0
 10
281.2048886095062
 20
202.1525475399556
 30
0.0
 10
281.2048886095062
 20
202.1525475399556
 30
0.0
 10
281.3522975436926
 20
202.2219227015433
 30
0.0
 10
281.3522975436926
 20
202.2219227015433
 30
0.0
 10
281.4497989662525
 20
202.2672127795767
 30
0.0
 10
281.5476825157243
 20
202.3116756233699
 30
0.0
 10
281.6459376441974
 20
202.355306441609
 30
0.0
 10
281.7441940349333
 20
202.3989378203597
 30
0.0
 10
281.842647261543
 20
202.4421245766515
 30
0.0
 10
281.9412943030823
 20
202.4848653853445
 30
0.0
 10
281.9412943030823
 20
202.4848653853445
 30
0.0
 10
282.515895085304
 20
202.7319576471229
 30
0.0
 10
282.515895085304
 20
202.7319576471229
 30
0.0
  0
SPLINE
  5
A0
330
70
100
AcDbEntity
  8
shade
 62
     6
420
 16711935
370
    25
100
AcDbSpline
210
0.0
220
0.0
230
1.0
 70
     8
 71
     3
 72
    35
 73
    31
 74
     0
 42
0.0000000001
 43
0.0000000001
 40
0.0
 40
0.0
 40
0.0
 40
0.0
 40
1.0
 40
1.0
 40
1.0
 40
2.0
 40
2.0
 40
2.0
 40
3.0
 40
3.0
 40
3.0
 40
4.0
 40
4.0
 40
4.0
 40
5.0
 40
5.0
 40
5.0
 40
6.0
 40
6.0
 40
6.0
 40
7.0
 40
7.0
 40
7.0
 40
8.0
 40
8.0
 40
8.0
 40
9.0
 40
9.0
 40
9.0
 40
10.0
 40
10.0
 40
10.0
 40
10.0
 10
282.9844643376675
 20
198.7567453478862
 30
0.0
 10
283.0540887255426
 20
198.8124441015511
 30
0.0
 10
283.1240787744287
 20
198.8676842285044
 30
0.0
 10
283.19442994104
 20
198.9224621428878
 30
0.0
 10
283.2647814282322
 20
198.9772403068862
 30
0.0
 10
283.3354066343267
 20
199.0316660254093
 30
0.0
 10
283.4063029057182
 20
199.085737253464
 30
0.0
 10
283.4777176261209
 20
199.1402038926626
 30
0.0
 10
283.5493650211736
 20
199.1943647795482
 30
0.0
 10
283.6212431241511
 20
199.2482184274127
 30
0.0
 10
283.6931214161918
 20
199.3020722169117
 30
0.0
 10
283.7651497729453
 20
199.3557254247355
 30
0.0
 10
283.8373273539531
 20
199.4091774248006
 30
0.0
 10
283.8373273539531
 20
199.4091774248006
 30
0.0
 10
284.1276199501199
 20
199.6229904980818
 30
0.0
 10
284.1276199501199
 20
199.6229904980818
 30
0.0
 10
284.1276199501199
 20
199.6229904980818
 30
0.0
 10
284.4187547055819
 20
199.8362420177448
 30
0.0
 10
284.4187547055819
 20
199.8362420177448
 30
0.0
 10
284.4187547055819
 20
199.8362420177448
 30
0.0
 10
284.7094354386804
 20
200.049694337313
 30
0.0
 10
284.7094354386804
 20
200.049694337313
 30
0.0
 10
284.7094354386804
 20
200.049694337313
 30
0.0
 10
284.8542004900722
 20
200.1567340325504
 30
0.0
 10
284.8542004900722
 20
200.1567340325504
 30
0.0
 10
284.9262354756515
 20
200.2101733186327
 30
0.0
 10
284.9981115435463
 20
200.2638264901059
 30
0.0
 10
285.0698277422329
 20
200.317692836672
 30
0.0
 10
285.1415437408562
 20
200.3715590329461
 30
0.0
 10
285.2130185780234
 20
200.4257455589143
 30
0.0
 10
285.2842501111822
 20
200.4802507902746
 30
0.0
  0
SPLINE
  5
A1
330
70
100
AcDbEntity
  8
shade
 62
     6
420
 16711935
370
    25
100
AcDbSpline
210
0.0
220
0.0
230
1.0
 70
     8
 71
     3
 72
    41
 73
    37
 74
     0
 42
0.0000000001
 43
0.0000000001
 40
0.0
 40
0.0
 40
0.0
 40
0.0
 40
1.0
 40
1.0
 40
1.0
 40
2.0
 40
2.0
 40
2.0
 40
3.0
 40
3.0
 40
3.0
 40
4.0
 40
4.0
 40
4.0
 40
5.0
 40
5.0
 40
5.0
 40
6.0
 40
6.0
 40
6.0
 40
7.0
 40
7.0
 40
7.0
 40
8.0
 40
8.0
 40
8.0
 40
9.0
 40
9.0
 40
9.0
 40
10.0
 40
10.0
 40
10.0
 40
11.0
 40
11.0
 40
11.0
 40
12.0
 40
12.0
 40
12.0
 40
12.0
 10
285.8096477720786
 20
201.59106851172
 30
0.0
 10
285.7956216128563
 20
201.6320446022494
 30
0.0
 10
285.7853966441265
 20
201.6742246913584
 30
0.0
 10
285.7791022470024
 20
201.7170750554448
 30
0.0
 10
285.7728088287706
 20
201.7599187555453
 30
0.0
 10
285.7706149847928
 20
201.8032649414526
 30
0.0
 10
285.7725504997079
 20
201.8465251256051
 30
0.0
 10
285.7742484077269
 20
201.8844746207935
 30
0.0
 10
285.7789989109491
 20
201.922225818902
 30
0.0
 10
285.7867559690612
 20
201.9594128479033
 30
0.0
 10
285.7945158967471
 20
201.9966136335312
 30
0.0
 10
285.8048978349263
 20
202.0332188480247
 30
0.0
 10
285.8178240399975
 20
202.0689543786945
 30
0.0
 10
285.8297000064434
 20
202.1017864404564
 30
0.0
 10
285.8435257460471
 20
202.1338801119686
 30
0.0
 10
285.8592274538478
 20
202.1650640698826
 30
0.0
 10
285.8749330952027
 20
202.1962558399303
 30
0.0
 10
285.8922080824826
 20
202.2266323359907
 30
0.0
 10
285.9109860615656
 20
202.2560768803179
 30
0.0
 10
285.9325146792518
 20
202.2898345245756
 30
0.0
 10
285.9558246152027
 20
202.3224225011438
 30
0.0
 10
285.9808169768307
 20
202.3537025552693
 30
0.0
 10
286.0058141861121
 20
202.3849886766606
 30
0.0
 10
286.0322174996594
 20
202.4151249651516
 30
0.0
 10
286.0599455325387
 20
202.4440185294222
 30
0.0
 10
286.0965874528413
 20
202.4822006710794
 30
0.0
 10
286.1353273546978
 20
202.5183125460439
 30
0.0
 10
286.1759852876918
 20
202.55218641132
 30
0.0
 10
286.2166485292137
 20
202.5860646993719
 30
0.0
 10
286.2590062232476
 20
202.6178558198504
 30
0.0
 10
286.302894677441
 20
202.647436915176
 30
0.0
 10
286.3390553497387
 20
202.6718094366943
 30
0.0
 10
286.3762173778688
 20
202.6946622963517
 30
0.0
 10
286.4142837678663
 20
202.7159358475322
 30
0.0
 10
286.4523476843796
 20
202.737208016389
 30
0.0
 10
286.4913441837643
 20
202.7567666999563
 30
0.0
 10
286.531156315566
 20
202.7745532417768
 30
0.0
  0
SPLINE
  5
A2
330
70
100
AcDbEntity
  8
shade
 62
     6
420
 16711935
370
    25
100
AcDbSpline
210
0.0
220
0.0
230
1.0
 70
     8
 71
     3
 72
    41
 73
    37
 74
     0
 42
0.0000000001
 43
0.0000000001
 40
0.0
 40
0.0
 40
0.0
 40
0.0
 40
1.0
 40
1.0
 40
1.0
 40
2.0
 40
2.0
 40
2.0
 40
3.0
 40
3.0
 40
3.0
 40
4.0
 40
4.0
 40
4.0
 40
5.0
 40
5.0
 40
5.0
 40
6.0
 40
6.0
 40
6.0
 40
7.0
 40
7.0
 40
7.0
 40
8.0
 40
8.0
 40
8.0
 40
9.0
 40
9.0
 40
9.0
 40
10.0
 40
10.0
 40
10.0
 40
11.0
 40
11.0
 40
11.0
 40
12.0
 40
12.0
 40
12.0
 40
12.0
 10
299.3538827869834
 20
203.4937721998856
 30
0.0
 10
299.3400937807783
 20
203.4965915013879
 30
0.0
 10
299.326369270673
 20
203.4997175362011
 30
0.0
 10
299.3127194643329
 20
203.5031479793278
 30
0.0
 10
299.2990685134636
 20
203.5065787100907
 30
0.0
 10
299.2854615881215
 20
203.5101823006325
 30
0.0
 10
299.2719019660111
 20
203.5139578828723
 30
0.0
 10
299.2581531690233
 20
203.5177861395581
 30
0.0
 10
299.2444365002033
 20
203.5217288582801
 30
0.0
 10
299.2307533871975
 20
203.5257856287072
 30
0.0
 10
299.2170700374384
 20
203.5298424693287
 30
0.0
 10
299.2033849629421
 20
203.5338934902648
 30
0.0
 10
299.1896981673991
 20
203.5379386903946
 30
0.0
 10
299.1732889664556
 20
203.5427885109162
 30
0.0
 10
299.1568501469196
 20
203.5475375491476
 30
0.0
 10
299.1403826380921
 20
203.5521855366297
 30
0.0
 10
299.1239164571959
 20
203.5568331492805
 30
0.0
 10
299.1073635473551
 20
203.5611678140283
 30
0.0
 10
299.0907328515922
 20
203.5651871889686
 30
0.0
 10
299.0797855135523
 20
203.56783298666
 30
0.0
 10
299.0687959726248
 20
203.5703010096023
 30
0.0
 10
299.0577685667727
 20
203.5725902836266
 30
0.0
 10
299.0467418282449
 20
203.5748794191081
 30
0.0
 10
299.0356650286854
 20
203.5769204121779
 30
0.0
 10
299.0245465605871
 20
203.5787117164534
 30
0.0
 10
299.0053343804694
 20
203.5818070044045
 30
0.0
 10
298.9859881046382
 20
203.584003202753
 30
0.0
 10
298.9665709793194
 20
203.5852931317411
 30
0.0
 10
298.9471641180916
 20
203.5865823788813
 30
0.0
 10
298.9276936244063
 20
203.5865983723806
 30
0.0
 10
298.9082846713379
 20
203.5853410094323
 30
0.0
 10
298.8941722821477
 20
203.584426771812
 30
0.0
 10
298.8801177063362
 20
203.5827713338786
 30
0.0
 10
298.8661791167148
 20
203.5803815476009
 30
0.0
 10
298.8522421769283
 20
203.5779920441806
 30
0.0
 10
298.8384524579172
 20
203.5748116222095
 30
0.0
 10
298.8248767934499
 20
203.5708556960805
 30
0.0
  0
SPLINE
  5
A3
330
70
100
AcDbEntity
  8
shade
 62
     6
420
 16711935
370
    25
100
AcDbSpline
210
0.0
220
0.0
230
1.0
 70
     8
 71
     3
 72
    29
 73
    25
 74
     0
 42
0.0000000001
 43
0.0000000001
 40
0.0
 40
0.0
 40
0.0
 40
0.0
 40
1.0
 40
1.0
 40
1.0
 40
2.0
 40
2.0
 40
2.0
 40
3.0
 40
3.0
 40
3.0
 40
4.0
 40
4.0
 40
4.0
 40
5.0
 40
5.0
 40
5.0
 40
6.0
 40
6.0
 40
6.0
 40
7.0
 40
7.0
 40
7.0
 40
8.0
 40
8.0
 40
8.0
 40
8.0
 10
285.523750509221
 20
200.6461110417203
 30
0.0
 10
285.6226507589382
 20
200.7133671865694
 30
0.0
 10
285.7229748417946
 20
200.7785053709327
 30
0.0
 10
285.8246542574132
 20
200.8414811190781
 30
0.0
 10
285.9263384237996
 20
200.9044598096328
 30
0.0
 10
286.0290475919283
 20
200.965768307661
 30
0.0
 10
286.1327404125329
 20
201.0253819312324
 30
0.0
 10
286.1611987697751
 20
201.0417428112339
 30
0.0
 10
286.1897241278036
 20
201.0579868719517
 30
0.0
 10
286.2183157664944
 20
201.0741137032604
 30
0.0
 10
286.2469074239435
 20
201.0902405451667
 30
0.0
 10
286.2755597654732
 20
201.1062595615033
 30
0.0
 10
286.304272180485
 20
201.122170410905
 30
0.0
 10
286.3808901686507
 20
201.1646279078165
 30
0.0
 10
286.4578997062405
 20
201.2063749472078
 30
0.0
 10
286.5352908868041
 20
201.2474061588028
 30
0.0
 10
286.6126827697258
 20
201.288437742752
 30
0.0
 10
286.6903622686912
 20
201.3289245261322
 30
0.0
 10
286.7683236205195
 20
201.3688635051559
 30
0.0
 10
286.8650843493425
 20
201.4184332551482
 30
0.0
 10
286.9622023733752
 20
201.4673024416035
 30
0.0
 10
287.059670070565
 20
201.5154672291461
 30
0.0
 10
287.157138668891
 20
201.5636324620135
 30
0.0
 10
287.254795547802
 20
201.611415743438
 30
0.0
 10
287.3526384600313
 20
201.6588159738442
 30
0.0
  0
SPLINE
  5
A4
330
70
100
AcDbEntity
  8
shade
 62
     6
420
 16711935
370
    25
100
AcDbSpline
210
0.0
220
0.0
230
1.0
 70
     8
 71
     3
 72
    89
 73
    85
 74
     0
 42
0.0000000001
 43
0.0000000001
 40
0.0
 40
0.0
 40
0.0
 40
0.0
 40
1.0
 40
1.0
 40
1.0
 40
2.0
 40
2.0
 40
2.0
 40
3.0
 40
3.0
 40
3.0
 40
4.0
 40
4.0
 40
4.0
 40
5.0
 40
5.0
 40
5.0
 40
6.0
 40
6.0
 40
6.0
 40
7.0
 40
7.0
 40
7.0
 40
8.0
 40
8.0
 40
8.0
 40
9.0
 40
9.0
 40
9.0
 40
10.0
 40
10.0
 40
10.0
 40
11.0
 40
11.0
 40
11.0
 40
12.0
 40
12.0
 40
12.0
 40
13.0
 40
13.0
 40
13.0
 40
14.0
 40
14.0
 40
14.0
 40
15.0
 40
15.0
 40
15.0
 40
16.0
 40
16.0
 40
16.0
 40
17.0
 40
17.0
 40
17.0
 40
18.0
 40
18.0
 40
18.0
 40
19.0
 40
19.0
 40
19.0
 40
20.0
 40
20.0
 40
20.0
 40
21.0
 40
21.0
 40
21.0
 40
22.0
 40
22.0
 40
22.0
 40
23.0
 40
23.0
 40
23.0
 40
24.0
 40
24.0
 40
24.0
 40
25.0
 40
25.0
 40
25.0
 40
26.0
 40
26.0
 40
26.0
 40
27.0
 40
27.0
 40
27.0
 40
28.0
 40
28.0
 40
28.0
 40
28.0
 10
298.8248767934578
 20
203.5708556960805
 30
0.0
 10
298.8239190823135
 20
203.5732375361297
 30
0.0
 10
298.8229332381721
 20
203.5756079674637
 30
0.0
 10
298.8219194678215
 20
203.5779664929229
 30
0.0
 10
298.8209056718279
 20
203.5803250780091
 30
0.0
 10
298.8198772107784
 20
203.5826773325279
 30
0.0
 10
298.8188341443788
 20
203.5850231199066
 30
0.0
 10
298.8160908855634
 20
203.5911925276799
 30
0.0
 10
298.813264996854
 20
203.5973248612561
 30
0.0
 10
298.810357240843
 20
203.6034184657844
 30
0.0
 10
298.8074494761896
 20
203.6095120884487
 30
0.0
 10
298.8044628462013
 20
203.6155677637725
 30
0.0
 10
298.8013981035583
 20
203.6215839656537
 30
0.0
 10
298.8005993688759
 20
203.6231519110413
 30
0.0
 10
298.7997945222818
 20
203.6247167354195
 30
0.0
 10
298.7989835821482
 20
203.6262784030857
 30
0.0
 10
298.7981726430091
 20
203.6278400688428
 30
0.0
 10
298.7973546985098
 20
203.6293980868605
 30
0.0
 10
298.7965297733709
 20
203.6309524100957
 30
0.0
 10
298.7965297733709
 20
203.6309524100957
 30
0.0
 10
298.7916652871152
 20
203.6399028277628
 30
0.0
 10
298.7916652871152
 20
203.6399028277628
 30
0.0
 10
298.7873242808626
 20
203.6430291804442
 30
0.0
 10
298.7826801664321
 20
203.6457115046902
 30
0.0
 10
298.777802902923
 20
203.6479093939086
 30
0.0
 10
298.7729321045263
 20
203.6501043696725
 30
0.0
 10
298.767807880068
 20
203.6516867797927
 30
0.0
 10
298.7625475602101
 20
203.6526203914069
 30
0.0
 10
298.757387458985
 20
203.6535362160176
 30
0.0
 10
298.7521350750892
 20
203.6538206203569
 30
0.0
 10
298.7469062543338
 20
203.6534673316394
 30
0.0
 10
298.7416708696316
 20
203.653113599427
 30
0.0
 10
298.7364833914332
 20
203.6522421979544
 30
0.0
 10
298.7314197811915
 20
203.6508658873806
 30
0.0
 10
298.7270005273068
 20
203.6496647155662
 30
0.0
 10
298.7226743389656
 20
203.6481441957014
 30
0.0
 10
298.718475350188
 20
203.6463163248462
 30
0.0
 10
298.7142736518988
 20
203.6444872744918
 30
0.0
 10
298.7101697613265
 20
203.642441284209
 30
0.0
 10
298.7061802536157
 20
203.640186617498
 30
0.0
 10
298.7024182716622
 20
203.6380605367575
 30
0.0
 10
298.6987462032161
 20
203.6357791472056
 30
0.0
 10
298.6951735390347
 20
203.6333483452353
 30
0.0
 10
298.6916001531454
 20
203.630917052238
 30
0.0
 10
298.6881012052176
 20
203.6283781157874
 30
0.0
 10
298.6846815050896
 20
203.6257350260465
 30
0.0
 10
298.6799669562328
 20
203.6220911464019
 30
0.0
 10
298.6753805773072
 20
203.6182843850331
 30
0.0
 10
298.6709306863533
 20
203.6143216460313
 30
0.0
 10
298.6664799647572
 20
203.6103581673337
 30
0.0
 10
298.6621150785774
 20
203.6062993394845
 30
0.0
 10
298.6578390610615
 20
203.6021479830345
 30
0.0
 10
298.6578390610615
 20
203.6021479830345
 30
0.0
 10
298.6510289084306
 20
203.5954158100187
 30
0.0
 10
298.6510289084306
 20
203.5954158100187
 30
0.0
 10
298.6506430755231
 20
203.5933760400696
 30
0.0
 10
298.650264675691
 20
203.591334871129
 30
0.0
 10
298.6498937164502
 20
203.589292343836
 30
0.0
 10
298.6495227574858
 20
203.5872498180106
 30
0.0
 10
298.6491600085652
 20
203.5852058096259
 30
0.0
 10
298.6488054784809
 20
203.583160368169
 30
0.0
 10
298.6470107874661
 20
203.5728059989038
 30
0.0
 10
298.6454566328636
 20
203.5624113744108
 30
0.0
 10
298.6441442698644
 20
203.5519848897447
 30
0.0
 10
298.6428321027334
 20
203.5415599612064
 30
0.0
 10
298.6418715943078
 20
203.531093777029
 30
0.0
 10
298.6412643796143
 20
203.5206041532025
 30
0.0
 10
298.6407180531561
 20
203.5111663725603
 30
0.0
 10
298.6405053565853
 20
203.5017122353055
 30
0.0
 10
298.6406266879532
 20
203.492259433898
 30
0.0
 10
298.6407479935522
 20
203.4828086402984
 30
0.0
 10
298.6413020910851
 20
203.4733683615152
 30
0.0
 10
298.6422872388775
 20
203.4639682711569
 30
0.0
 10
298.643158835871
 20
203.4556516605789
 30
0.0
 10
298.6444061130362
 20
203.447378723573
 30
0.0
 10
298.6460252475427
 20
203.439174816206
 30
0.0
 10
298.6476440563586
 20
203.4309725590381
 30
0.0
 10
298.6496995588781
 20
203.4228625635096
 30
0.0
 10
298.6521829816512
 20
203.4148794453396
 30
0.0
 10
298.6531210332231
 20
203.4118640197441
 30
0.0
 10
298.654122493195
 20
203.4088686863423
 30
0.0
 10
298.6551866952995
 20
203.4058954379283
 30
0.0
 10
298.6562508880598
 20
203.4029222156462
 30
0.0
 10
298.6573800100623
 20
203.399972634717
 30
0.0
 10
298.6585732506132
 20
203.3970488129152
 30
0.0
  0
SPLINE
  5
A5
330
70
100
AcDbEntity
  8
shade
 62
     6
420
 16711935
370
    25
100
AcDbSpline
210
0.0
220
0.0
230
1.0
 70
     8
 71
     3
 72
    23
 73
    19
 74
     0
 42
0.0000000001
 43
0.0000000001
 40
0.0
 40
0.0
 40
0.0
 40
0.0
 40
1.0
 40
1.0
 40
1.0
 40
2.0
 40
2.0
 40
2.0
 40
3.0
 40
3.0
 40
3.0
 40
4.0
 40
4.0
 40
4.0
 40
5.0
 40
5.0
 40
5.0
 40
6.0
 40
6.0
 40
6.0
 40
6.0
 10
285.4500189117838
 20
200.561789818273
 30
0.0
 10
285.4550991696332
 20
200.5657039904024
 30
0.0
 10
285.4600322626849
 20
200.56980554295
 30
0.0
 10
285.4648079855926
 20
200.574085990812
 30
0.0
 10
285.4695839926439
 20
200.5783666933501
 30
0.0
 10
285.4742139621805
 20
200.5828075861264
 30
0.0
 10
285.4786899661103
 20
200.5874010648128
 30
0.0
 10
285.4836148763134
 20
200.5924552314969
 30
0.0
 10
285.4883590799884
 20
200.5976823871039
 30
0.0
 10
285.492913640792
 20
200.6030726855453
 30
0.0
 10
285.4974684363622
 20
200.6084632618613
 30
0.0
 10
285.5018473259041
 20
200.6140000440003
 30
0.0
 10
285.5060434135202
 20
200.6196743126212
 30
0.0
 10
285.5091977934984
 20
200.6239399050075
 30
0.0
 10
285.5122512148737
 20
200.6282792394798
 30
0.0
 10
285.5152011348748
 20
200.6326887024249
 30
0.0
 10
285.5181510921252
 20
200.6370982210551
 30
0.0
 10
285.5210016028929
 20
200.6415734634721
 30
0.0
 10
285.523750509221
 20
200.6461110417203
 30
0.0
  0
LINE
  5
A6
330
70
100
AcDbEntity
  8
shade
 62
     6
420
 16711935
370
    25
100
AcDbLine
 10
293.1416500257281
 20
200.9635474393199
 30
0.0
 11
293.1416500257281
 21
200.9635474393199
 31
0.0
  0
SPLINE
  5
A7
330
70
100
AcDbEntity
  8
shade
 62
     6
420
 16711935
370
    25
100
AcDbSpline
210
0.0
220
0.0
230
1.0
 70
     8
 71
     3
 72
    62
 73
    58
 74
     0
 42
0.0000000001
 43
0.0000000001
 40
0.0
 40
0.0
 40
0.0
 40
0.0
 40
1.0
 40
1.0
 40
1.0
 40
2.0
 40
2.0
 40
2.0
 40
3.0
 40
3.0
 40
3.0
 40
4.0
 40
4.0
 40
4.0
 40
5.0
 40
5.0
 40
5.0
 40
6.0
 40
6.0
 40
6.0
 40
7.0
 40
7.0
 40
7.0
 40
8.0
 40
8.0
 40
8.0
 40
9.0
 40
9.0
 40
9.0
 40
10.0
 40
10.0
 40
10.0
 40
11.0
 40
11.0
 40
11.0
 40
12.0
 40
12.0
 40
12.0
 40
13.0
 40
13.0
 40
13.0
 40
14.0
 40
14.0
 40
14.0
 40
15.0
 40
15.0
 40
15.0
 40
16.0
 40
16.0
 40
16.0
 40
17.0
 40
17.0
 40
17.0
 40
18.0
 40
18.0
 40
18.0
 40
19.0
 40
19.0
 40
19.0
 40
19.0
 10
284.4666821535995
 20
195.4192377337392
 30
0.0
 10
284.4666821535995
 20
195.4192377337392
 30
0.0
 10
284.5193214022463
 20
195.5535132674392
 30
0.0
 10
284.5193214022463
 20
195.5535132674392
 30
0.0
 10
284.5405668238978
 20
195.6071543366479
 30
0.0
 10
284.5620021058382
 20
195.660720014077
 30
0.0
 10
284.5836268449852
 20
195.7142092924555
 30
0.0
 10
284.6052515673206
 20
195.767698529232
 30
0.0
 10
284.6270877930232
 20
195.8211020156176
 30
0.0
 10
284.6491350095872
 20
195.8744184981341
 30
0.0
 10
284.6624011750492
 20
195.9064998847766
 30
0.0
 10
284.6757524033208
 20
195.9385460305297
 30
0.0
 10
284.6891885535243
 20
195.9705565972616
 30
0.0
 10
284.7026246919633
 20
196.0025671359693
 30
0.0
 10
284.7161647063948
 20
196.0345339744538
 30
0.0
 10
284.7298083827983
 20
196.0664566074626
 30
0.0
 10
284.7501779016257
 20
196.114115951997
 30
0.0
 10
284.7708115606693
 20
196.1616619701229
 30
0.0
 10
284.7917084081158
 20
196.2090924686013
 30
0.0
 10
284.8126049720183
 20
196.2565223234903
 30
0.0
 10
284.8339384471454
 20
196.3037584808306
 30
0.0
 10
284.8557061126853
 20
196.3507949162341
 30
0.0
 10
284.8713347253804
 20
196.384565842682
 30
0.0
 10
284.8872499067675
 20
196.4182034103905
 30
0.0
 10
284.9034499345137
 20
196.451703979158
 30
0.0
 10
284.9196490347411
 20
196.485202629884
 30
0.0
 10
284.9364282510117
 20
196.5184176390208
 30
0.0
 10
284.9537800045792
 20
196.5513340041929
 30
0.0
 10
284.9641434108804
 20
196.5709934388874
 30
0.0
 10
284.9749263977266
 20
196.5904288157025
 30
0.0
 10
284.9861215576055
 20
196.6096267832485
 30
0.0
 10
284.997314135138
 20
196.6288203224352
 30
0.0
 10
285.009216022602
 20
196.6475913517969
 30
0.0
 10
285.0218025886033
 20
196.6659010239594
 30
0.0
 10
285.0478293960676
 20
196.7037622095852
 30
0.0
 10
285.0763688787714
 20
196.73983321106
 30
0.0
 10
285.1072284896088
 20
196.7738706684206
 30
0.0
 10
285.1381074376637
 20
196.8079294542807
 30
0.0
 10
285.1704956899782
 20
196.8405887400194
 30
0.0
 10
285.2042959712507
 20
196.8717504362698
 30
0.0
 10
285.2269250256152
 20
196.8926129762301
 30
0.0
 10
285.2500071957583
 20
196.9129786136868
 30
0.0
 10
285.27352595787
 20
196.9328327695253
 30
0.0
 10
285.2970470015085
 20
196.9526888513863
 30
0.0
 10
285.3207552312822
 20
196.9723221308014
 30
0.0
 10
285.3446474691015
 20
196.9917299759447
 30
0.0
 10
285.3776689281732
 20
197.0185535564425
 30
0.0
 10
285.4107800891998
 20
197.0452665193332
 30
0.0
 10
285.4439803955892
 20
197.0718684156022
 30
0.0
 10
285.4771786288971
 20
197.0984686508223
 30
0.0
 10
285.5099449795919
 20
197.125603455079
 30
0.0
 10
285.5422666227148
 20
197.1532622076569
 30
0.0
 10
285.5678216196128
 20
197.175130506047
 30
0.0
 10
285.5929694128564
 20
197.1974702206395
 30
0.0
 10
285.6176970657758
 20
197.2202698592811
 30
0.0
 10
285.6424224545794
 20
197.243067410348
 30
0.0
 10
285.6665363307758
 20
197.2665193872071
 30
0.0
 10
285.690013050204
 20
197.2906008496107
 30
0.0
  0
SPLINE
  5
A8
330
70
100
AcDbEntity
  8
shade
 62
     6
420
 16711935
370
    25
100
AcDbSpline
210
0.0
220
0.0
230
1.0
 70
     8
 71
     3
 72
    47
 73
    43
 74
     0
 42
0.0000000001
 43
0.0000000001
 40
0.0
 40
0.0
 40
0.0
 40
0.0
 40
1.0
 40
1.0
 40
1.0
 40
2.0
 40
2.0
 40
2.0
 40
3.0
 40
3.0
 40
3.0
 40
4.0
 40
4.0
 40
4.0
 40
5.0
 40
5.0
 40
5.0
 40
6.0
 40
6.0
 40
6.0
 40
7.0
 40
7.0
 40
7.0
 40
8.0
 40
8.0
 40
8.0
 40
9.0
 40
9.0
 40
9.0
 40
10.0
 40
10.0
 40
10.0
 40
11.0
 40
11.0
 40
11.0
 40
12.0
 40
12.0
 40
12.0
 40
13.0
 40
13.0
 40
13.0
 40
14.0
 40
14.0
 40
14.0
 40
14.0
 10
284.8297638539157
 20
190.2761256291623
 30
0.0
 10
284.8286528407906
 20
190.2921585746383
 30
0.0
 10
284.8277026754104
 20
190.3082022609356
 30
0.0
 10
284.8269135011673
 20
190.3242542668906
 30
0.0
 10
284.8261243382076
 20
190.3403060434163
 30
0.0
 10
284.8255368342141
 20
190.3563670994966
 30
0.0
 10
284.8251511282263
 20
190.3724336342429
 30
0.0
 10
284.8246346511059
 20
190.393947424044
 30
0.0
 10
284.8245327494332
 20
190.4154691683375
 30
0.0
 10
284.8248454799342
 20
190.4369868842728
 30
0.0
 10
284.8251581780504
 20
190.4585023718825
 30
0.0
 10
284.8260738050105
 20
190.4800048701902
 30
0.0
 10
284.8275912824592
 20
190.5014690554575
 30
0.0
 10
284.8294625551307
 20
190.5279375498244
 30
0.0
 10
284.8324170640721
 20
190.5543183022034
 30
0.0
 10
284.8364473819947
 20
190.5805449945824
 30
0.0
 10
284.8404784779582
 20
190.6067767499361
 30
0.0
 10
284.8452979982119
 20
190.6328812666785
 30
0.0
 10
284.8508993998858
 20
190.6588231059086
 30
0.0
 10
284.8566560890105
 20
190.685484129821
 30
0.0
 10
284.8631653952369
 20
190.7119770703185
 30
0.0
 10
284.8704195171396
 20
190.7382701755078
 30
0.0
 10
284.8776734781931
 20
190.7645626976968
 30
0.0
 10
284.8857093277715
 20
190.7906332185287
 30
0.0
 10
284.8945163668839
 20
190.8164470275367
 30
0.0
 10
284.899969271359
 20
190.8324297242258
 30
0.0
 10
284.9057508786629
 20
190.8482983819529
 30
0.0
 10
284.911857508489
 20
190.8640428994932
 30
0.0
 10
284.9179634667412
 20
190.8797856855235
 30
0.0
 10
284.924530931017
 20
190.8953455586995
 30
0.0
 10
284.9315513904754
 20
190.9107023548191
 30
0.0
 10
284.9356945207168
 20
190.9197651813745
 30
0.0
 10
284.9400297302764
 20
190.9287389610528
 30
0.0
 10
284.9445540845512
 20
190.9376176192723
 30
0.0
 10
284.9490776273603
 20
190.9464946850924
 30
0.0
 10
284.9539033233873
 20
190.9552145126243
 30
0.0
 10
284.9590227177915
 20
190.9637618243758
 30
0.0
 10
284.959911324135
 20
190.9652454364526
 30
0.0
 10
284.9608105431573
 20
190.9667226662672
 30
0.0
 10
284.9617203056988
 20
190.9681934001444
 30
0.0
 10
284.9626300650154
 20
190.9696641288334
 30
0.0
 10
284.963551707688
 20
190.9711274734608
 30
0.0
 10
284.9644851432492
 20
190.9725832903887
 30
0.0
  0
SPLINE
  5
A9
330
70
100
AcDbEntity
  8
shade
 62
     6
420
 16711935
370
    25
100
AcDbSpline
210
0.0
220
0.0
230
1.0
 70
     8
 71
     3
 72
    62
 73
    58
 74
     0
 42
0.0000000001
 43
0.0000000001
 40
0.0
 40
0.0
 40
0.0
 40
0.0
 40
1.0
 40
1.0
 40
1.0
 40
2.0
 40
2.0
 40
2.0
 40
3.0
 40
3.0
 40
3.0
 40
4.0
 40
4.0
 40
4.0
 40
5.0
 40
5.0
 40
5.0
 40
6.0
 40
6.0
 40
6.0
 40
7.0
 40
7.0
 40
7.0
 40
8.0
 40
8.0
 40
8.0
 40
9.0
 40
9.0
 40
9.0
 40
10.0
 40
10.0
 40
10.0
 40
11.0
 40
11.0
 40
11.0
 40
12.0
 40
12.0
 40
12.0
 40
13.0
 40
13.0
 40
13.0
 40
14.0
 40
14.0
 40
14.0
 40
15.0
 40
15.0
 40
15.0
 40
16.0
 40
16.0
 40
16.0
 40
17.0
 40
17.0
 40
17.0
 40
18.0
 40
18.0
 40
18.0
 40
19.0
 40
19.0
 40
19.0
 40
19.0
 10
305.1504796967167
 20
188.7733255411296
 30
0.0
 10
304.7718130107778
 20
188.6012316014622
 30
0.0
 10
304.389706648934
 20
188.4368088301376
 30
0.0
 10
304.0043947120712
 20
188.2801579622287
 30
0.0
 10
303.6190728116622
 20
188.123503043585
 30
0.0
 10
303.2310439956767
 20
187.9735905335887
 30
0.0
 10
302.8404858183237
 20
187.830489029173
 30
0.0
 10
302.4515796703062
 20
187.6879928324864
 30
0.0
 10
302.0604226907963
 20
187.5517164567809
 30
0.0
 10
301.6671644976282
 20
187.421712027852
 30
0.0
 10
301.2738980763586
 20
187.2917048788437
 30
0.0
 10
300.8789467154139
 20
187.166851135566
 30
0.0
 10
300.4824119165056
 20
187.0471828851918
 30
0.0
 10
300.4824119165056
 20
187.0471828851918
 30
0.0
 10
300.0066844223804
 20
186.9061141751161
 30
0.0
 10
300.0066844223804
 20
186.9061141751161
 30
0.0
 10
300.0066844223804
 20
186.9061141751161
 30
0.0
 10
299.529937484994
 20
186.7694897022768
 30
0.0
 10
299.529937484994
 20
186.7694897022768
 30
0.0
 10
299.529937484994
 20
186.7694897022768
 30
0.0
 10
299.0523217306036
 20
186.6369866370696
 30
0.0
 10
299.0523217306036
 20
186.6369866370696
 30
0.0
 10
299.0523217306036
 20
186.6369866370696
 30
0.0
 10
298.5739877854983
 20
186.5082821498946
 30
0.0
 10
298.5739877854983
 20
186.5082821498946
 30
0.0
 10
298.4942426003521
 20
186.4871376039096
 30
0.0
 10
298.4144606819164
 20
186.4661318386046
 30
0.0
 10
298.3346423925646
 20
186.4452649494213
 30
0.0
 10
298.2548240954541
 20
186.4243980581884
 30
0.0
 10
298.1749719512103
 20
186.4036608514296
 30
0.0
 10
298.0950862759599
 20
186.3830534111964
 30
0.0
 10
297.8558335178016
 20
186.3213353760699
 30
0.0
 10
297.6163030228766
 20
186.2606990522486
 30
0.0
 10
297.3765021313204
 20
186.2011462978459
 30
0.0
 10
297.1367007413802
 20
186.141593419678
 30
0.0
 10
296.8966927847897
 20
186.0828754280355
 30
0.0
 10
296.656482623483
 20
186.0249933900676
 30
0.0
 10
296.1787584862916
 20
185.909878998179
 30
0.0
 10
295.7004190185756
 20
185.7973333776785
 30
0.0
 10
295.2214849521192
 20
185.6873614064146
 30
0.0
 10
294.7425475922525
 20
185.5773886789276
 30
0.0
 10
294.2634808176737
 20
185.4679803216992
 30
0.0
 10
293.7842856261505
 20
185.3591365625961
 30
0.0
 10
293.4678184314007
 20
185.2872546244795
 30
0.0
 10
293.1513801220385
 20
185.2152455734258
 30
0.0
 10
292.8349707752134
 20
185.1431094270035
 30
0.0
 10
292.5185618469103
 20
185.0709733760077
 30
0.0
 10
292.2023218076375
 20
184.998098520948
 30
0.0
 10
291.8862532443076
 20
184.9244854579912
 30
0.0
 10
291.7294025227571
 20
184.8879545802688
 30
0.0
 10
291.5726077548624
 20
184.8511838723016
 30
0.0
 10
291.4158694905918
 20
184.8141734630728
 30
0.0
 10
291.2591312961918
 20
184.7771630703549
 30
0.0
 10
291.1024683994772
 20
184.7398345156632
 30
0.0
 10
290.9458817689639
 20
184.7021880297964
 30
0.0
 10
290.9458817689639
 20
184.7021880297964
 30
0.0
 10
290.0128801176246
 20
184.473132502119
 30
0.0
 10
290.0128801176246
 20
184.473132502119
 30
0.0
  0
SPLINE
  5
AA
330
70
100
AcDbEntity
  8
shade
 62
     6
420
 16711935
370
    25
100
AcDbSpline
210
0.0
220
0.0
230
1.0
 70
     8
 71
     3
 72
    80
 73
    76
 74
     0
 42
0.0000000001
 43
0.0000000001
 40
0.0
 40
0.0
 40
0.0
 40
0.0
 40
1.0
 40
1.0
 40
1.0
 40
2.0
 40
2.0
 40
2.0
 40
3.0
 40
3.0
 40
3.0
 40
4.0
 40
4.0
 40
4.0
 40
5.0
 40
5.0
 40
5.0
 40
6.0
 40
6.0
 40
6.0
 40
7.0
 40
7.0
 40
7.0
 40
8.0
 40
8.0
 40
8.0
 40
9.0
 40
9.0
 40
9.0
 40
10.0
 40
10.0
 40
10.0
 40
11.0
 40
11.0
 40
11.0
 40
12.0
 40
12.0
 40
12.0
 40
13.0
 40
13.0
 40
13.0
 40
14.0
 40
14.0
 40
14.0
 40
15.0
 40
15.0
 40
15.0
 40
16.0
 40
16.0
 40
16.0
 40
17.0
 40
17.0
 40
17.0
 40
18.0
 40
18.0
 40
18.0
 40
19.0
 40
19.0
 40
19.0
 40
20.0
 40
20.0
 40
20.0
 40
21.0
 40
21.0
 40
21.0
 40
22.0
 40
22.0
 40
22.0
 40
23.0
 40
23.0
 40
23.0
 40
24.0
 40
24.0
 40
24.0
 40
25.0
 40
25.0
 40
25.0
 40
25.0
 10
297.9330863455205
 20
183.959215192935
 30
0.0
 10
297.8113190890046
 20
183.9360007187686
 30
0.0
 10
297.68901217265
 20
183.9157122796539
 30
0.0
 10
297.566271259228
 20
183.8983674030905
 30
0.0
 10
297.4435197330862
 20
183.8810210268258
 30
0.0
 10
297.3205120317083
 20
183.8655384875854
 30
0.0
 10
297.1972906434494
 20
183.8519251332211
 30
0.0
 10
297.0628118416034
 20
183.8370680730239
 30
0.0
 10
296.9281415218737
 20
183.8239989485932
 30
0.0
 10
296.7933153624148
 20
183.8127212223034
 30
0.0
 10
296.6584854384433
 20
183.801443181141
 30
0.0
 10
296.5235668087488
 20
183.7912519833655
 30
0.0
 10
296.388572618429
 20
183.7821486218939
 30
0.0
 10
296.388572618429
 20
183.7821486218939
 30
0.0
 10
296.051777036614
 20
183.7612060011264
 30
0.0
 10
296.051777036614
 20
183.7612060011264
 30
0.0
 10
296.051777036614
 20
183.7612060011264
 30
0.0
 10
295.7104237617583
 20
183.7427297383117
 30
0.0
 10
295.7104237617583
 20
183.7427297383117
 30
0.0
 10
295.7104237617583
 20
183.7427297383117
 30
0.0
 10
295.3665441877507
 20
183.7257096020909
 30
0.0
 10
295.3665441877507
 20
183.7257096020909
 30
0.0
 10
295.3665441877507
 20
183.7257096020909
 30
0.0
 10
294.6793317178426
 20
183.6919967839531
 30
0.0
 10
294.6793317178426
 20
183.6919967839531
 30
0.0
 10
294.5671265720302
 20
183.6861604490316
 30
0.0
 10
294.4549396692533
 20
183.6799785171517
 30
0.0
 10
294.3427726060443
 20
183.6734510763099
 30
0.0
 10
294.2306061554916
 20
183.6669236711259
 30
0.0
 10
294.1184771227258
 20
183.6597684321746
 30
0.0
 10
294.0063907780474
 20
183.6519856957735
 30
0.0
 10
293.9790342107638
 20
183.650086187392
 30
0.0
 10
293.9516806795343
 20
183.6481432039557
 30
0.0
 10
293.9243302879851
 20
183.6461567528623
 30
0.0
 10
293.8969799007254
 20
183.6441703020845
 30
0.0
 10
293.8696330621129
 20
183.6421352903001
 30
0.0
 10
293.8422899014554
 20
183.6400517271293
 30
0.0
 10
293.8422899014554
 20
183.6400517271293
 30
0.0
 10
293.6803506166795
 20
183.6270927220097
 30
0.0
 10
293.6803506166795
 20
183.6270927220097
 30
0.0
 10
293.6537532027441
 20
183.6248571143259
 30
0.0
 10
293.6271605759515
 20
183.6225649139307
 30
0.0
 10
293.6005729169115
 20
183.6202161363743
 30
0.0
 10
293.5739852644727
 20
183.6178673594019
 30
0.0
 10
293.547403168093
 20
183.6154561077866
 30
0.0
 10
293.5208268479529
 20
183.6129824014763
 30
0.0
 10
293.4946718842927
 20
183.6105479147538
 30
0.0
 10
293.4685228699838
 20
183.608049928722
 30
0.0
 10
293.4423800362501
 20
183.6054884654607
 30
0.0
 10
293.4162372106854
 20
183.6029270030027
 30
0.0
 10
293.3901012784078
 20
183.600295667316
 30
0.0
 10
293.3639725195161
 20
183.5975944866289
 30
0.0
 10
293.2884768128252
 20
183.5897897705386
 30
0.0
 10
293.2130484040744
 20
183.5813472511727
 30
0.0
 10
293.1376953717343
 20
183.572267832743
 30
0.0
 10
293.062343354472
 20
183.5631885366429
 30
0.0
 10
292.9870953231848
 20
183.5532660998248
 30
0.0
 10
292.9119654182951
 20
183.5425023869332
 30
0.0
 10
292.8879971155133
 20
183.539068495578
 30
0.0
 10
292.8640425676629
 20
183.5355392712349
 30
0.0
 10
292.8401023433614
 20
183.5319147976611
 30
0.0
 10
292.816162128932
 20
183.5282903255863
 30
0.0
 10
292.7922371699075
 20
183.5245657956808
 30
0.0
 10
292.7683280933828
 20
183.5207413055803
 30
0.0
 10
292.7390334712992
 20
183.5160553448944
 30
0.0
 10
292.7102485397585
 20
183.5086052160404
 30
0.0
 10
292.6823589313928
 20
183.4984907286377
 30
0.0
 10
292.6545267637994
 20
183.4883970727771
 30
0.0
 10
292.6281381304646
 20
183.4746978230287
 30
0.0
 10
292.6038677122594
 20
183.4577432294883
 30
0.0
 10
292.5947037020341
 20
183.4513415240392
 30
0.0
 10
292.5858127901303
 20
183.4445575031681
 30
0.0
 10
292.5772185123344
 20
183.4374091253463
 30
0.0
 10
292.568622818664
 20
183.430259569872
 30
0.0
 10
292.5602674527733
 20
183.4228259184472
 30
0.0
 10
292.5521662891707
 20
183.4151205150511
 30
0.0
  0
LINE
  5
AB
330
70
100
AcDbEntity
  8
shade
 62
     6
420
 16711935
370
    25
100
AcDbLine
 10
296.9619720850502
 20
206.6292160108748
 30
0.0
 11
296.7742917873727
 21
205.9262485269736
 31
0.0
  0
LINE
  5
AC
330
70
100
AcDbEntity
  8
shade
 62
     6
420
 16711935
370
    25
100
AcDbLine
 10
296.9619720850502
 20
206.6292160108748
 30
0.0
 11
290.1659583748374
 21
206.6292160108748
 31
0.0
  0
LINE
  5
AD
330
70
100
AcDbEntity
  8
shade
 62
     6
420
 16711935
370
    25
100
AcDbLine
 10
293.3682402707747
 20
195.3102504407111
 30
0.0
 11
293.3682402707747
 21
196.2282149233132
 31
0.0
  0
SPLINE
  5
AE
330
70
100
AcDbEntity
  8
shade
 62
     6
420
 16711935
370
    25
100
AcDbSpline
210
0.0
220
0.0
230
1.0
 70
     8
 71
     3
 72
     8
 73
     4
 74
     0
 42
0.0000000001
 43
0.0000000001
 40
0.0
 40
0.0
 40
0.0
 40
0.0
 40
1.0
 40
1.0
 40
1.0
 40
1.0
 10
288.424000791305
 20
204.7938566424891
 30
0.0
 10
288.2493311470461
 20
204.6318707381608
 30
0.0
 10
288.0793744129115
 20
204.4648759086758
 30
0.0
 10
287.9143429805509
 20
204.2930808442622
 30
0.0
  0
SPLINE
  5
AF
330
70
100
AcDbEntity
  8
shade
 62
     6
420
 16711935
370
    25
100
AcDbSpline
210
0.0
220
0.0
230
1.0
 70
     8
 71
     3
 72
     8
 73
     4
 74
     0
 42
0.0000000001
 43
0.0000000001
 40
0.0
 40
0.0
 40
0.0
 40
0.0
 40
1.0
 40
1.0
 40
1.0
 40
1.0
 10
289.5419164325758
 20
203.9403336257568
 30
0.0
 10
288.6756677554261
 20
203.3054033795104
 30
0.0
 10
287.9233985819701
 20
202.5281310357845
 30
0.0
 10
287.3171208671296
 20
201.6415925308413
 30
0.0
  0
SPLINE
  5
B0
330
70
100
AcDbEntity
  8
shade
 62
     6
420
 16711935
370
    25
100
AcDbSpline
210
0.0
220
0.0
230
1.0
 70
     8
 71
     3
 72
     8
 73
     4
 74
     0
 42
0.0000000001
 43
0.0000000001
 40
0.0
 40
0.0
 40
0.0
 40
0.0
 40
1.0
 40
1.0
 40
1.0
 40
1.0
 10
288.2218102311164
 20
204.7469245842056
 30
0.0
 10
288.0516797677089
 20
204.58618617398
 30
0.0
 10
287.8861428620382
 20
204.4206543663179
 30
0.0
 10
287.7253992123349
 20
204.2505288533006
 30
0.0
  0
SPLINE
  5
B1
330
70
100
AcDbEntity
  8
shade
 62
     6
420
 16711935
370
    25
100
AcDbSpline
210
0.0
220
0.0
230
1.0
 70
     8
 71
     3
 72
    74
 73
    70
 74
     0
 42
0.0000000001
 43
0.0000000001
 40
0.0
 40
0.0
 40
0.0
 40
0.0
 40
1.0
 40
1.0
 40
1.0
 40
2.0
 40
2.0
 40
2.0
 40
3.0
 40
3.0
 40
3.0
 40
4.0
 40
4.0
 40
4.0
 40
5.0
 40
5.0
 40
5.0
 40
6.0
 40
6.0
 40
6.0
 40
7.0
 40
7.0
 40
7.0
 40
8.0
 40
8.0
 40
8.0
 40
9.0
 40
9.0
 40
9.0
 40
10.0
 40
10.0
 40
10.0
 40
11.0
 40
11.0
 40
11.0
 40
12.0
 40
12.0
 40
12.0
 40
13.0
 40
13.0
 40
13.0
 40
14.0
 40
14.0
 40
14.0
 40
15.0
 40
15.0
 40
15.0
 40
16.0
 40
16.0
 40
16.0
 40
17.0
 40
17.0
 40
17.0
 40
18.0
 40
18.0
 40
18.0
 40
19.0
 40
19.0
 40
19.0
 40
20.0
 40
20.0
 40
20.0
 40
21.0
 40
21.0
 40
21.0
 40
22.0
 40
22.0
 40
22.0
 40
23.0
 40
23.0
 40
23.0
 40
23.0
 10
285.9733508941318
 20
205.2721743974859
 30
0.0
 10
285.9839319170128
 20
205.3135746133437
 30
0.0
 10
285.9955352854603
 20
205.3547067931301
 30
0.0
 10
286.0081503554185
 20
205.3955332052738
 30
0.0
 10
286.020724852376
 20
205.436228310202
 30
0.0
 10
286.0379807063098
 20
205.4753262311141
 30
0.0
 10
286.0595714751885
 20
205.5120420075301
 30
0.0
 10
286.080493201908
 20
205.5476200568905
 30
0.0
 10
286.1049728426243
 20
205.5809821776548
 30
0.0
 10
286.1326338742609
 20
205.6116152247284
 30
0.0
 10
286.160337244379
 20
205.6422951593013
 30
0.0
 10
286.189999825047
 20
205.6711474215055
 30
0.0
 10
286.2214351249973
 20
205.6979906146354
 30
0.0
 10
286.2706165780359
 20
205.739987581254
 30
0.0
 10
286.3233134961015
 20
205.7776837581704
 30
0.0
 10
286.3789451580014
 20
205.8106637327281
 30
0.0
 10
286.4346314968485
 20
205.8436761212838
 30
0.0
 10
286.4922087115595
 20
205.8733893465347
 30
0.0
 10
286.5513793823784
 20
205.8996499224278
 30
0.0
 10
286.6076132409891
 20
205.9246071096784
 30
0.0
 10
286.6648660673448
 20
205.9472020240303
 30
0.0
 10
286.7229878407787
 20
205.967375459586
 30
0.0
 10
286.7811265621365
 20
205.9875547775782
 30
0.0
 10
286.8397438617357
 20
206.006327924352
 30
0.0
 10
286.8987885338589
 20
206.023678500431
 30
0.0
 10
287.0066917867998
 20
206.0553864180373
 30
0.0
 10
287.1158031842697
 20
206.0828279037832
 30
0.0
 10
287.225868528569
 20
206.1059390270557
 30
0.0
 10
287.3359634940712
 20
206.1290563700623
 30
0.0
 10
287.4465508558674
 20
206.1497632415675
 30
0.0
 10
287.557551297155
 20
206.1680447899108
 30
0.0
 10
287.6633783450127
 20
206.1854742908269
 30
0.0
 10
287.7694044612653
 20
206.2016727999558
 30
0.0
 10
287.8756081490027
 20
206.2166370330644
 30
0.0
 10
287.981814649989
 20
206.2316016625464
 30
0.0
 10
288.0881012718079
 20
206.2459920447557
 30
0.0
 10
288.1944633554273
 20
206.2598075488767
 30
0.0
 10
288.2921338410588
 20
206.2724940904647
 30
0.0
 10
288.3898764187433
 20
206.284619301807
 30
0.0
 10
288.4876862477112
 20
206.2961825823822
 30
0.0
 10
288.5854961207176
 20
206.3077458681769
 30
0.0
 10
288.6833698369059
 20
206.3187625792168
 30
0.0
 10
288.7813028133842
 20
206.3292321996845
 30
0.0
 10
289.1079693374181
 20
206.3641548033486
 30
0.0
 10
289.4352526559033
 20
206.3930446264082
 30
0.0
 10
289.762985529473
 20
206.4158869064008
 30
0.0
 10
290.0907304378018
 20
206.4387300252056
 30
0.0
 10
290.4187775048205
 20
206.4570088756919
 30
0.0
 10
290.747031353219
 20
206.4707181434259
 30
0.0
 10
290.747031353219
 20
206.4707181434259
 30
0.0
 10
291.1960401972381
 20
206.4881276834525
 30
0.0
 10
291.1960401972381
 20
206.4881276834525
 30
0.0
 10
291.1960401972381
 20
206.4881276834525
 30
0.0
 10
291.6450686257782
 20
206.5048115336338
 30
0.0
 10
291.6450686257782
 20
206.5048115336338
 30
0.0
 10
291.6450686257782
 20
206.5048115336338
 30
0.0
 10
292.09399617202
 20
206.5237038009394
 30
0.0
 10
292.09399617202
 20
206.5237038009394
 30
0.0
 10
292.09399617202
 20
206.5237038009394
 30
0.0
 10
292.7401121681157
 20
206.5573507099263
 30
0.0
 10
292.7401121681157
 20
206.5573507099263
 30
0.0
 10
292.7401121681157
 20
206.5573507099263
 30
0.0
 10
293.3862558223473
 20
206.5903532958084
 30
0.0
 10
293.3862558223473
 20
206.5903532958084
 30
0.0
 10
293.3862558223473
 20
206.5903532958084
 30
0.0
 10
293.9230658978275
 20
206.6109268290918
 30
0.0
 10
293.9230658978275
 20
206.6109268290918
 30
0.0
 10
293.9230658978275
 20
206.6109268290918
 30
0.0
 10
294.4600532395167
 20
206.6273807929546
 30
0.0
 10
294.4600532395167
 20
206.6273807929546
 30
0.0
  0
SPLINE
  5
B2
330
70
100
AcDbEntity
  8
shade
 62
     6
420
 16711935
370
    25
100
AcDbSpline
210
0.0
220
0.0
230
1.0
 70
     8
 71
     3
 72
    38
 73
    34
 74
     0
 42
0.0000000001
 43
0.0000000001
 40
0.0
 40
0.0
 40
0.0
 40
0.0
 40
1.0
 40
1.0
 40
1.0
 40
2.0
 40
2.0
 40
2.0
 40
3.0
 40
3.0
 40
3.0
 40
4.0
 40
4.0
 40
4.0
 40
5.0
 40
5.0
 40
5.0
 40
6.0
 40
6.0
 40
6.0
 40
7.0
 40
7.0
 40
7.0
 40
8.0
 40
8.0
 40
8.0
 40
9.0
 40
9.0
 40
9.0
 40
10.0
 40
10.0
 40
10.0
 40
11.0
 40
11.0
 40
11.0
 40
11.0
 10
288.5595356210255
 20
206.3233441920687
 30
0.0
 10
288.6025161256969
 20
206.3389879647897
 30
0.0
 10
288.6455584261578
 20
206.3544614320312
 30
0.0
 10
288.6886615094779
 20
206.3697642296384
 30
0.0
 10
288.7317604795463
 20
206.3850655669388
 30
0.0
 10
288.7751601981562
 20
206.3995062095724
 30
0.0
 10
288.8188347998394
 20
206.4130775511454
 30
0.0
 10
288.8697187131712
 20
206.4288890970306
 30
0.0
 10
288.9210658167812
 20
206.4431695636832
 30
0.0
 10
288.9728067326065
 20
206.4558996559604
 30
0.0
 10
289.0245545737814
 20
206.4686314521027
 30
0.0
 10
289.0765412251329
 20
206.4803722076471
 30
0.0
 10
289.1287381580486
 20
206.4911154796143
 30
0.0
 10
289.1682720395932
 20
206.4992524182803
 30
0.0
 10
289.2078848268218
 20
206.5070011669554
 30
0.0
 10
289.2475707968308
 20
206.5143606061466
 30
0.0
 10
289.2872574841017
 20
206.5217201783606
 30
0.0
 10
289.3269800075143
 20
206.5288851735107
 30
0.0
 10
289.3667369354727
 20
206.5358553334025
 30
0.0
 10
289.427045937069
 20
206.5464286700685
 30
0.0
 10
289.4874579735759
 20
206.5564056482008
 30
0.0
 10
289.5479641924698
 20
206.5657848058189
 30
0.0
 10
289.608468509982
 20
206.5751636687049
 30
0.0
 10
289.6691096271443
 20
206.5836376948769
 30
0.0
 10
289.7298672262543
 20
206.5912040451597
 30
0.0
 10
289.7782075768987
 20
206.5972240332914
 30
0.0
 10
289.8266329215528
 20
206.6025406770466
 30
0.0
 10
289.8751278984578
 20
206.607152289827
 30
0.0
 10
289.9236239599634
 20
206.611764005762
 30
0.0
 10
289.9721694901564
 20
206.6158398151576
 30
0.0
 10
290.0207556021119
 20
206.6193789719001
 30
0.0
 10
290.0207556021119
 20
206.6193789719001
 30
0.0
 10
290.1659583748374
 20
206.6292160108748
 30
0.0
 10
290.1659583748374
 20
206.6292160108748
 30
0.0
  0
SPLINE
  5
B3
330
70
100
AcDbEntity
  8
shade
 62
     6
420
 16711935
370
    25
100
AcDbSpline
210
0.0
220
0.0
230
1.0
 70
     8
 71
     3
 72
   107
 73
   103
 74
     0
 42
0.0000000001
 43
0.0000000001
 40
0.0
 40
0.0
 40
0.0
 40
0.0
 40
1.0
 40
1.0
 40
1.0
 40
2.0
 40
2.0
 40
2.0
 40
3.0
 40
3.0
 40
3.0
 40
4.0
 40
4.0
 40
4.0
 40
5.0
 40
5.0
 40
5.0
 40
6.0
 40
6.0
 40
6.0
 40
7.0
 40
7.0
 40
7.0
 40
8.0
 40
8.0
 40
8.0
 40
9.0
 40
9.0
 40
9.0
 40
10.0
 40
10.0
 40
10.0
 40
11.0
 40
11.0
 40
11.0
 40
12.0
 40
12.0
 40
12.0
 40
13.0
 40
13.0
 40
13.0
 40
14.0
 40
14.0
 40
14.0
 40
15.0
 40
15.0
 40
15.0
 40
16.0
 40
16.0
 40
16.0
 40
17.0
 40
17.0
 40
17.0
 40
18.0
 40
18.0
 40
18.0
 40
19.0
 40
19.0
 40
19.0
 40
20.0
 40
20.0
 40
20.0
 40
21.0
 40
21.0
 40
21.0
 40
22.0
 40
22.0
 40
22.0
 40
23.0
 40
23.0
 40
23.0
 40
24.0
 40
24.0
 40
24.0
 40
25.0
 40
25.0
 40
25.0
 40
26.0
 40
26.0
 40
26.0
 40
27.0
 40
27.0
 40
27.0
 40
28.0
 40
28.0
 40
28.0
 40
29.0
 40
29.0
 40
29.0
 40
30.0
 40
30.0
 40
30.0
 40
31.0
 40
31.0
 40
31.0
 40
32.0
 40
32.0
 40
32.0
 40
33.0
 40
33.0
 40
33.0
 40
34.0
 40
34.0
 40
34.0
 40
34.0
 10
296.9505997839817
 20
206.5862554621727
 30
0.0
 10
297.0319473268907
 20
206.5832399808919
 30
0.0
 10
297.1132744049441
 20
206.579695648857
 30
0.0
 10
297.1945758617419
 20
206.5756226907647
 30
0.0
 10
297.2758556107802
 20
206.5715508201676
 30
0.0
 10
297.3569771151744
 20
206.5647717788615
 30
0.0
 10
297.4378053495073
 20
206.5552968504214
 30
0.0
 10
297.5340236715961
 20
206.5440178496628
 30
0.0
 10
297.6294935545
 20
206.52707741882
 30
0.0
 10
297.7237183553038
 20
206.5045636835099
 30
0.0
 10
297.8180061556606
 20
206.4820348953101
 30
0.0
 10
297.9116370534994
 20
206.4568404804643
 30
0.0
 10
298.0044984601095
 20
206.4290107345651
 30
0.0
 10
298.0258992224997
 20
206.4225971145045
 30
0.0
 10
298.046637123196
 20
206.4141502543209
 30
0.0
 10
298.0664285925399
 20
206.4037856562039
 30
0.0
 10
298.0856457329985
 20
206.3937218285003
 30
0.0
 10
298.1006910245454
 20
206.3771941820536
 30
0.0
 10
298.1089100548856
 20
206.3571186582444
 30
0.0
 10
298.111521424905
 20
206.3507402147134
 30
0.0
 10
298.1121344345801
 20
206.3437191782161
 30
0.0
 10
298.1106679596399
 20
206.3369846963043
 30
0.0
 10
298.1092060895922
 20
206.3302713613734
 30
0.0
 10
298.1056138877594
 20
206.3242101839954
 30
0.0
 10
298.1004267986246
 20
206.3197046278511
 30
0.0
 10
298.0977404513428
 20
206.3173712404346
 30
0.0
 10
298.0949124636095
 20
206.315206104892
 30
0.0
 10
298.0919590067578
 20
206.313221602137
 30
0.0
 10
298.0890028542729
 20
206.3112352881358
 30
0.0
 10
298.086020766474
 20
206.3092878474818
 30
0.0
 10
298.083013513397
 20
206.3073797830764
 30
0.0
 10
298.0387019639977
 20
206.2792646598993
 30
0.0
 10
297.9924515923712
 20
206.2543286788945
 30
0.0
 10
297.9446107117685
 20
206.2327596338384
 30
0.0
 10
297.8967271134703
 20
206.2111713295177
 30
0.0
 10
297.8480344430342
 20
206.191424434779
 30
0.0
 10
297.7986397098563
 20
206.1735623463607
 30
0.0
 10
297.7185999721133
 20
206.144618433084
 30
0.0
 10
297.6372945752076
 20
206.1193020401891
 30
0.0
 10
297.5549717398991
 20
206.0976904571561
 30
0.0
 10
297.4726099577544
 20
206.0760686497024
 30
0.0
 10
297.3899899794359
 20
206.0554425986679
 30
0.0
 10
297.3071298896295
 20
206.0358168188485
 30
0.0
 10
297.0420881701168
 20
205.9730405119571
 30
0.0
 10
296.776083865754
 20
205.9144000536819
 30
0.0
 10
296.5092139440975
 20
205.859916820431
 30
0.0
 10
296.2423323599662
 20
205.8054312062291
 30
0.0
 10
295.9750051766042
 20
205.753151465071
 30
0.0
 10
295.707259764188
 20
205.7030829496194
 30
0.0
 10
295.707259764188
 20
205.7030829496194
 30
0.0
 10
295.177289796259
 20
205.6056726431383
 30
0.0
 10
295.177289796259
 20
205.6056726431383
 30
0.0
 10
295.177289796259
 20
205.6056726431383
 30
0.0
 10
293.4963918896562
 20
205.3067317090792
 30
0.0
 10
293.4963918896562
 20
205.3067317090792
 30
0.0
 10
293.4963918896562
 20
205.3067317090792
 30
0.0
 10
291.8062787833304
 20
205.0170901827573
 30
0.0
 10
291.8062787833304
 20
205.0170901827573
 30
0.0
 10
291.8062787833304
 20
205.0170901827573
 30
0.0
 10
290.4421406834558
 20
204.7859634431882
 30
0.0
 10
290.4421406834558
 20
204.7859634431882
 30
0.0
 10
290.4421406834558
 20
204.7859634431882
 30
0.0
 10
289.7617088086474
 20
204.6653311099569
 30
0.0
 10
289.7617088086474
 20
204.6653311099569
 30
0.0
 10
289.7617088086474
 20
204.6653311099569
 30
0.0
 10
289.0826451648139
 20
204.5373800148094
 30
0.0
 10
289.0826451648139
 20
204.5373800148094
 30
0.0
 10
289.0826451648139
 20
204.5373800148094
 30
0.0
 10
288.5185962759749
 20
204.4234371093147
 30
0.0
 10
288.5185962759749
 20
204.4234371093147
 30
0.0
 10
288.5185962759749
 20
204.4234371093147
 30
0.0
 10
287.9558201086833
 20
204.3023068524465
 30
0.0
 10
287.9558201086833
 20
204.3023068524465
 30
0.0
 10
287.9558201086833
 20
204.3023068524465
 30
0.0
 10
287.3944975194132
 20
204.1739201789734
 30
0.0
 10
287.3944975194132
 20
204.1739201789734
 30
0.0
 10
287.3010693106312
 20
204.1519125371844
 30
0.0
 10
287.2077132261608
 20
204.129599825041
 30
0.0
 10
287.1144307596473
 20
204.1069823995374
 30
0.0
 10
287.0211482978971
 20
204.0843649751851
 30
0.0
 10
286.9279406596397
 20
204.061440058619
 30
0.0
 10
286.8348093646535
 20
204.0382080236285
 30
0.0
 10
286.8348093646535
 20
204.0382080236285
 30
0.0
 10
286.2769365008854
 20
203.8951013211797
 30
0.0
 10
286.2769365008854
 20
203.8951013211797
 30
0.0
 10
286.2769365008854
 20
203.8951013211797
 30
0.0
 10
285.7210597845914
 20
203.7445310063628
 30
0.0
 10
285.7210597845914
 20
203.7445310063628
 30
0.0
 10
285.7210597845914
 20
203.7445310063628
 30
0.0
 10
285.1673600722523
 20
203.5864280139592
 30
0.0
 10
285.1673600722523
 20
203.5864280139592
 30
0.0
 10
284.9868939494907
 20
203.5335530952334
 30
0.0
 10
284.8067980187875
 20
203.4794227824772
 30
0.0
 10
284.6270853658251
 20
203.4240410087645
 30
0.0
 10
284.4473721001987
 20
203.3686590462486
 30
0.0
 10
284.2679871261406
 20
203.3122173408731
 30
0.0
 10
284.0889398086002
 20
203.2547188391789
 30
0.0
 10
284.0889398086002
 20
203.2547188391789
 30
0.0
 10
283.5636165065545
 20
203.0834112839166
 30
0.0
 10
283.5636165065545
 20
203.0834112839166
 30
0.0
 10
283.5636165065545
 20
203.0834112839166
 30
0.0
 10
282.515895085304
 20
202.7319576471229
 30
0.0
 10
282.515895085304
 20
202.7319576471229
 30
0.0
  0
LINE
  5
B4
330
70
100
AcDbEntity
  8
shade
 62
     6
420
 16711935
370
    25
100
AcDbLine
 10
288.424000791305
 20
204.7938566424891
 30
0.0
 11
288.2218102311325
 21
204.7469245842211
 31
0.0
  0
SPLINE
  5
B5
330
70
100
AcDbEntity
  8
shade
 62
     6
420
 16711935
370
    25
100
AcDbSpline
210
0.0
220
0.0
230
1.0
 70
     8
 71
     3
 72
    38
 73
    34
 74
     0
 42
0.0000000001
 43
0.0000000001
 40
0.0
 40
0.0
 40
0.0
 40
0.0
 40
1.0
 40
1.0
 40
1.0
 40
2.0
 40
2.0
 40
2.0
 40
3.0
 40
3.0
 40
3.0
 40
4.0
 40
4.0
 40
4.0
 40
5.0
 40
5.0
 40
5.0
 40
6.0
 40
6.0
 40
6.0
 40
7.0
 40
7.0
 40
7.0
 40
8.0
 40
8.0
 40
8.0
 40
9.0
 40
9.0
 40
9.0
 40
10.0
 40
10.0
 40
10.0
 40
11.0
 40
11.0
 40
11.0
 40
11.0
 10
288.424000791305
 20
204.7938566424891
 30
0.0
 10
288.424000791305
 20
204.7938566424891
 30
0.0
 10
288.495057142589
 20
204.7869008741559
 30
0.0
 10
288.495057142589
 20
204.7869008741559
 30
0.0
 10
288.5187268200293
 20
204.7845588189828
 30
0.0
 10
288.5423915716028
 20
204.7821672454931
 30
0.0
 10
288.5660512419315
 20
204.7797261693944
 30
0.0
 10
288.5897108340857
 20
204.7772851013539
 30
0.0
 10
288.6133600834631
 20
204.7747448071512
 30
0.0
 10
288.6369983659806
 20
204.7721053538427
 30
0.0
 10
288.6841698249018
 20
204.7668381833643
 30
0.0
 10
288.7312789695807
 20
204.7610271652429
 30
0.0
 10
288.7783164018546
 20
204.7546734587754
 30
0.0
 10
288.825350669705
 20
204.7483201797651
 30
0.0
 10
288.8722528107513
 20
204.7410243913572
 30
0.0
 10
288.9189945418478
 20
204.7327904931137
 30
0.0
 10
288.9589321294726
 20
204.7257551945645
 30
0.0
 10
288.9987189838142
 20
204.7178895327871
 30
0.0
 10
289.0383292640864
 20
204.7091986163806
 30
0.0
 10
289.0779413107058
 20
204.7005073124003
 30
0.0
 10
289.1174121200824
 20
204.691184347682
 30
0.0
 10
289.1567266127541
 20
204.6812332839845
 30
0.0
 10
289.1753087331043
 20
204.6765298819979
 30
0.0
 10
289.1938627273884
 20
204.6717160502441
 30
0.0
 10
289.2123876119739
 20
204.6667920439687
 30
0.0
 10
289.2309125771933
 20
204.6618680162449
 30
0.0
 10
289.2494166076464
 20
204.6568655631482
 30
0.0
 10
289.2678992055963
 20
204.6517848192474
 30
0.0
 10
289.295658320814
 20
204.6441540221232
 30
0.0
 10
289.3233809334406
 20
204.6363910527939
 30
0.0
 10
289.351066100122
 20
204.6284961754596
 30
0.0
 10
289.3787514175764
 20
204.62060125512
 30
0.0
 10
289.4064292308772
 20
204.6126800434646
 30
0.0
 10
289.4340995025859
 20
204.6047325512179
 30
0.0
  0
SPLINE
  5
B6
330
70
100
AcDbEntity
  8
shade
 62
     6
420
 16711935
370
    25
100
AcDbSpline
210
0.0
220
0.0
230
1.0
 70
     8
 71
     3
 72
    89
 73
    85
 74
     0
 42
0.0000000001
 43
0.0000000001
 40
0.0
 40
0.0
 40
0.0
 40
0.0
 40
1.0
 40
1.0
 40
1.0
 40
2.0
 40
2.0
 40
2.0
 40
3.0
 40
3.0
 40
3.0
 40
4.0
 40
4.0
 40
4.0
 40
5.0
 40
5.0
 40
5.0
 40
6.0
 40
6.0
 40
6.0
 40
7.0
 40
7.0
 40
7.0
 40
8.0
 40
8.0
 40
8.0
 40
9.0
 40
9.0
 40
9.0
 40
10.0
 40
10.0
 40
10.0
 40
11.0
 40
11.0
 40
11.0
 40
12.0
 40
12.0
 40
12.0
 40
13.0
 40
13.0
 40
13.0
 40
14.0
 40
14.0
 40
14.0
 40
15.0
 40
15.0
 40
15.0
 40
16.0
 40
16.0
 40
16.0
 40
17.0
 40
17.0
 40
17.0
 40
18.0
 40
18.0
 40
18.0
 40
19.0
 40
19.0
 40
19.0
 40
20.0
 40
20.0
 40
20.0
 40
21.0
 40
21.0
 40
21.0
 40
22.0
 40
22.0
 40
22.0
 40
23.0
 40
23.0
 40
23.0
 40
24.0
 40
24.0
 40
24.0
 40
25.0
 40
25.0
 40
25.0
 40
26.0
 40
26.0
 40
26.0
 40
27.0
 40
27.0
 40
27.0
 40
28.0
 40
28.0
 40
28.0
 40
28.0
 10
298.1045473575108
 20
206.3236580381907
 30
0.0
 10
298.1088454188784
 20
206.3162321050824
 30
0.0
 10
298.1109863562467
 20
206.3077542664804
 30
0.0
 10
298.1107293762708
 20
206.2991780333047
 30
0.0
 10
298.1104787832729
 20
206.290814954121
 30
0.0
 10
298.1067434443468
 20
206.2829374242376
 30
0.0
 10
298.1004267986246
 20
206.2774507242386
 30
0.0
 10
298.0977404513428
 20
206.2751173368381
 30
0.0
 10
298.0949124636095
 20
206.2729522012805
 30
0.0
 10
298.0919590067578
 20
206.2709676985406
 30
0.0
 10
298.0890028542729
 20
206.2689813845236
 30
0.0
 10
298.086020766474
 20
206.2670339438853
 30
0.0
 10
298.083013513397
 20
206.2651258794645
 30
0.0
 10
298.0387019639977
 20
206.2370107563029
 30
0.0
 10
297.9924515923712
 20
206.212074775282
 30
0.0
 10
297.9446107117685
 20
206.1905057302422
 30
0.0
 10
297.8967271134703
 20
206.1689174259213
 30
0.0
 10
297.8480344430342
 20
206.1491705311828
 30
0.0
 10
297.7986397098643
 20
206.1313084427488
 30
0.0
 10
297.7185999721133
 20
206.1023645294876
 30
0.0
 10
297.6372945752076
 20
206.0770481365775
 30
0.0
 10
297.5549717398991
 20
206.0554365535443
 30
0.0
 10
297.4726099577544
 20
206.0338147461059
 30
0.0
 10
297.3899899794359
 20
206.013188695056
 30
0.0
 10
297.3071298896295
 20
205.9935629152523
 30
0.0
 10
297.0420881701168
 20
205.930786608361
 30
0.0
 10
296.7760838657621
 20
205.8721461500697
 30
0.0
 10
296.5092139441056
 20
205.8176629168349
 30
0.0
 10
296.2423323599582
 20
205.7631773026166
 30
0.0
 10
295.9750051766042
 20
205.7108975614748
 30
0.0
 10
295.707259764188
 20
205.6608290460069
 30
0.0
 10
295.707259764188
 20
205.6608290460069
 30
0.0
 10
295.177289796259
 20
205.5634187395265
 30
0.0
 10
295.177289796259
 20
205.5634187395265
 30
0.0
 10
295.177289796259
 20
205.5634187395265
 30
0.0
 10
293.4963918896562
 20
205.264477805483
 30
0.0
 10
293.4963918896562
 20
205.264477805483
 30
0.0
 10
293.4963918896562
 20
205.264477805483
 30
0.0
 10
291.8062787833304
 20
204.9748362791611
 30
0.0
 10
291.8062787833304
 20
204.9748362791611
 30
0.0
 10
291.8062787833304
 20
204.9748362791611
 30
0.0
 10
290.4421406834558
 20
204.7437095395766
 30
0.0
 10
290.4421406834558
 20
204.7437095395766
 30
0.0
 10
290.4421406834558
 20
204.7437095395766
 30
0.0
 10
289.7617088086474
 20
204.6230772063608
 30
0.0
 10
289.7617088086474
 20
204.6230772063608
 30
0.0
 10
289.7617088086474
 20
204.6230772063608
 30
0.0
 10
289.0826451648139
 20
204.4951261112129
 30
0.0
 10
289.0826451648139
 20
204.4951261112129
 30
0.0
 10
289.0826451648139
 20
204.4951261112129
 30
0.0
 10
288.5185962759749
 20
204.3811832057025
 30
0.0
 10
288.5185962759749
 20
204.3811832057025
 30
0.0
 10
288.5185962759749
 20
204.3811832057025
 30
0.0
 10
287.9558201086833
 20
204.260052948835
 30
0.0
 10
287.9558201086833
 20
204.260052948835
 30
0.0
 10
287.9558201086833
 20
204.260052948835
 30
0.0
 10
287.3944975194132
 20
204.1316662753612
 30
0.0
 10
287.3944975194132
 20
204.1316662753612
 30
0.0
 10
287.3010693106312
 20
204.1096586335718
 30
0.0
 10
287.2077132261608
 20
204.0873459214288
 30
0.0
 10
287.1144307596473
 20
204.064728495941
 30
0.0
 10
287.0211482978971
 20
204.0421110715886
 30
0.0
 10
286.9279406596397
 20
204.0191861550229
 30
0.0
 10
286.8348093646615
 20
203.9959541200166
 30
0.0
 10
286.8348093646615
 20
203.9959541200166
 30
0.0
 10
286.2769365008854
 20
203.8528474175681
 30
0.0
 10
286.2769365008854
 20
203.8528474175681
 30
0.0
 10
286.2769365008854
 20
203.8528474175681
 30
0.0
 10
285.7210597845914
 20
203.7022771027663
 30
0.0
 10
285.7210597845914
 20
203.7022771027663
 30
0.0
 10
285.7210597845914
 20
203.7022771027663
 30
0.0
 10
285.1673600722523
 20
203.5441741103476
 30
0.0
 10
285.1673600722523
 20
203.5441741103476
 30
0.0
 10
284.9868939494907
 20
203.4912991916212
 30
0.0
 10
284.8067980187875
 20
203.4371688788653
 30
0.0
 10
284.6270853658251
 20
203.3817871051684
 30
0.0
 10
284.4473721001987
 20
203.3264051426521
 30
0.0
 10
284.2679871261406
 20
203.2699634372606
 30
0.0
 10
284.0889398086002
 20
203.2124649355824
 30
0.0
 10
284.0889398086002
 20
203.2124649355824
 30
0.0
 10
283.5636165065545
 20
203.0411573803201
 30
0.0
 10
283.5636165065545
 20
203.0411573803201
 30
0.0
 10
283.5636165065545
 20
203.0411573803201
 30
0.0
 10
282.515895085304
 20
202.6897037435104
 30
0.0
 10
282.515895085304
 20
202.6897037435104
 30
0.0
  0
SPLINE
  5
B7
330
70
100
AcDbEntity
  8
shade
 62
     6
420
 16711935
370
    25
100
AcDbSpline
210
0.0
220
0.0
230
1.0
 70
     8
 71
     3
 72
    47
 73
    43
 74
     0
 42
0.0000000001
 43
0.0000000001
 40
0.0
 40
0.0
 40
0.0
 40
0.0
 40
1.0
 40
1.0
 40
1.0
 40
2.0
 40
2.0
 40
2.0
 40
3.0
 40
3.0
 40
3.0
 40
4.0
 40
4.0
 40
4.0
 40
5.0
 40
5.0
 40
5.0
 40
6.0
 40
6.0
 40
6.0
 40
7.0
 40
7.0
 40
7.0
 40
8.0
 40
8.0
 40
8.0
 40
9.0
 40
9.0
 40
9.0
 40
10.0
 40
10.0
 40
10.0
 40
11.0
 40
11.0
 40
11.0
 40
12.0
 40
12.0
 40
12.0
 40
13.0
 40
13.0
 40
13.0
 40
14.0
 40
14.0
 40
14.0
 40
14.0
 10
278.5145646014549
 20
199.7134607534154
 30
0.0
 10
278.580031969352
 20
199.8733787547968
 30
0.0
 10
278.6583832111401
 20
200.027713737668
 30
0.0
 10
278.7488451636841
 20
200.1749427380991
 30
0.0
 10
278.8393334479392
 20
200.3222145940123
 30
0.0
 10
278.9405586847747
 20
200.4626131695766
 30
0.0
 10
279.051697431375
 20
200.5949963563267
 30
0.0
 10
279.1448624808347
 20
200.7059701302693
 30
0.0
 10
279.2441777589496
 20
200.8116317744802
 30
0.0
 10
279.3491754663368
 20
200.9114835966286
 30
0.0
 10
279.4542026218389
 20
201.0113634236561
 30
0.0
 10
279.563670225202
 20
201.1064674812534
 30
0.0
 10
279.6772462480089
 20
201.1965073073423
 30
0.0
 10
279.8036159043505
 20
201.2966895605968
 30
0.0
 10
279.9342846727937
 20
201.3913260086328
 30
0.0
 10
280.068881843271
 20
201.4801481658434
 30
0.0
 10
280.2035096852034
 20
201.5689905634732
 30
0.0
 10
280.3408886018461
 20
201.6535921866364
 30
0.0
 10
280.4808163198734
 20
201.7338284700076
 30
0.0
 10
280.575237235356
 20
201.7879705902165
 30
0.0
 10
280.6706327175311
 20
201.8403951101191
 30
0.0
 10
280.7669556687753
 20
201.8910761472625
 30
0.0
 10
280.8632820457822
 20
201.9417589868839
 30
0.0
 10
280.9602968940047
 20
201.9911224120964
 30
0.0
 10
281.0579730114812
 20
202.0391525819178
 30
0.0
 10
281.0823868467917
 20
202.051157570299
 30
0.0
 10
281.1068377492895
 20
202.0630870299341
 30
0.0
 10
281.1313253682095
 20
202.0749407896836
 30
0.0
 10
281.1558129964967
 20
202.0867945539585
 30
0.0
 10
281.1803341754337
 20
202.0985788835163
 30
0.0
 10
281.2048886095062
 20
202.1102936363434
 30
0.0
 10
281.2048886095062
 20
202.1102936363434
 30
0.0
 10
281.3522975436926
 20
202.1796687979311
 30
0.0
 10
281.3522975436926
 20
202.1796687979311
 30
0.0
 10
281.4497989662525
 20
202.2249588759802
 30
0.0
 10
281.5476825157243
 20
202.2694217197738
 30
0.0
 10
281.6459376441974
 20
202.3130525380125
 30
0.0
 10
281.7441940349333
 20
202.3566839167471
 30
0.0
 10
281.842647261543
 20
202.399870673039
 30
0.0
 10
281.9412943030823
 20
202.442611481733
 30
0.0
 10
281.9412943030823
 20
202.442611481733
 30
0.0
 10
282.515895085304
 20
202.6897037435104
 30
0.0
 10
282.515895085304
 20
202.6897037435104
 30
0.0
  0
SPLINE
  5
B8
330
70
100
AcDbEntity
  8
shade
 62
     6
420
 16711935
370
    25
100
AcDbSpline
210
0.0
220
0.0
230
1.0
 70
     8
 71
     3
 72
    17
 73
    13
 74
     0
 42
0.0000000001
 43
0.0000000001
 40
0.0
 40
0.0
 40
0.0
 40
0.0
 40
1.0
 40
1.0
 40
1.0
 40
2.0
 40
2.0
 40
2.0
 40
3.0
 40
3.0
 40
3.0
 40
4.0
 40
4.0
 40
4.0
 40
4.0
 10
278.2920855281714
 20
198.6711568864159
 30
0.0
 10
278.2929167812996
 20
198.7816925690354
 30
0.0
 10
278.3004603282763
 20
198.8920757495171
 30
0.0
 10
278.3146745106073
 20
199.001696847568
 30
0.0
 10
278.3288869554672
 20
199.1113045460189
 30
0.0
 10
278.3501683502028
 20
199.219879138502
 30
0.0
 10
278.3783856379137
 20
199.3267417878505
 30
0.0
 10
278.3958520613869
 20
199.3928894738734
 30
0.0
 10
278.4159777792344
 20
199.4583062125953
 30
0.0
 10
278.4387137787149
 20
199.5228326927731
 30
0.0
 10
278.4614499507473
 20
199.5873596626528
 30
0.0
 10
278.4867537160258
 20
199.6509530098002
 30
0.0
 10
278.5145646014549
 20
199.7134607534154
 30
0.0
  0
LINE
  5
B9
330
70
100
AcDbEntity
  8
shade
 62
     6
420
 16711935
370
    25
100
AcDbLine
 10
298.1016111036622
 20
206.2786322474806
 30
0.0
 11
297.2133754636546
 21
205.4732330361745
 31
0.0
  0
SPLINE
  5
BA
330
70
100
AcDbEntity
  8
shade
 62
     6
420
 16711935
370
    25
100
AcDbSpline
210
0.0
220
0.0
230
1.0
 70
     8
 71
     3
 72
   104
 73
   100
 74
     0
 42
0.0000000001
 43
0.0000000001
 40
0.0
 40
0.0
 40
0.0
 40
0.0
 40
1.0
 40
1.0
 40
1.0
 40
2.0
 40
2.0
 40
2.0
 40
3.0
 40
3.0
 40
3.0
 40
4.0
 40
4.0
 40
4.0
 40
5.0
 40
5.0
 40
5.0
 40
6.0
 40
6.0
 40
6.0
 40
7.0
 40
7.0
 40
7.0
 40
8.0
 40
8.0
 40
8.0
 40
9.0
 40
9.0
 40
9.0
 40
10.0
 40
10.0
 40
10.0
 40
11.0
 40
11.0
 40
11.0
 40
12.0
 40
12.0
 40
12.0
 40
13.0
 40
13.0
 40
13.0
 40
14.0
 40
14.0
 40
14.0
 40
15.0
 40
15.0
 40
15.0
 40
16.0
 40
16.0
 40
16.0
 40
17.0
 40
17.0
 40
17.0
 40
18.0
 40
18.0
 40
18.0
 40
19.0
 40
19.0
 40
19.0
 40
20.0
 40
20.0
 40
20.0
 40
21.0
 40
21.0
 40
21.0
 40
22.0
 40
22.0
 40
22.0
 40
23.0
 40
23.0
 40
23.0
 40
24.0
 40
24.0
 40
24.0
 40
25.0
 40
25.0
 40
25.0
 40
26.0
 40
26.0
 40
26.0
 40
27.0
 40
27.0
 40
27.0
 40
28.0
 40
28.0
 40
28.0
 40
29.0
 40
29.0
 40
29.0
 40
30.0
 40
30.0
 40
30.0
 40
31.0
 40
31.0
 40
31.0
 40
32.0
 40
32.0
 40
32.0
 40
33.0
 40
33.0
 40
33.0
 40
33.0
 10
282.515895085304
 20
202.7319576471229
 30
0.0
 10
282.4869875976351
 20
202.8056621955319
 30
0.0
 10
282.4597001136501
 20
202.8799918934619
 30
0.0
 10
282.4340523179801
 20
202.954893120937
 30
0.0
 10
282.4084651577466
 20
203.0296172701147
 30
0.0
 10
282.3903903333077
 20
203.1067059041003
 30
0.0
 10
282.3800959143261
 20
203.1850157130381
 30
0.0
 10
282.3760756717535
 20
203.2155977622006
 30
0.0
 10
282.3735194785641
 20
203.24635449267
 30
0.0
 10
282.3724360846609
 20
203.2771806234469
 30
0.0
 10
282.3713531197049
 20
203.3079945494039
 30
0.0
 10
282.3721874741679
 20
203.338846002042
 30
0.0
 10
282.3749343172074
 20
203.3695563537024
 30
0.0
 10
282.3810213479644
 20
203.4376107902355
 30
0.0
 10
282.3983942552865
 20
203.5041773083324
 30
0.0
 10
282.4263407639646
 20
203.5665267343655
 30
0.0
 10
282.4544190630395
 20
203.6291701884008
 30
0.0
 10
282.4883700922144
 20
203.6890120982417
 30
0.0
 10
282.5277386278397
 20
203.7452500890752
 30
0.0
 10
282.5515545733184
 20
203.7792711899975
 30
0.0
 10
282.5764926518487
 20
203.8124928062832
 30
0.0
 10
282.602511713754
 20
203.8448601198015
 30
0.0
 10
282.6285342710097
 20
203.8772317814866
 30
0.0
 10
282.6553215717284
 20
203.9089811823616
 30
0.0
 10
282.6828509823112
 20
203.940081496163
 30
0.0
 10
282.7624380416125
 20
204.0299919761483
 30
0.0
 10
282.8491608758224
 20
204.1133237602923
 30
0.0
 10
282.9421727009473
 20
204.1892631756661
 30
0.0
 10
283.0352041073123
 20
204.265218578136
 30
0.0
 10
283.1338324704816
 20
204.3340482175952
 30
0.0
 10
283.2372183798689
 20
204.39516629573
 30
0.0
 10
283.358198876928
 20
204.4666856692504
 30
0.0
 10
283.4839200299695
 20
204.5298638141324
 30
0.0
 10
283.6135052597454
 20
204.5842602265139
 30
0.0
 10
283.7431948478357
 20
204.6387004457268
 30
0.0
 10
283.8749046532178
 20
204.6881970164152
 30
0.0
 10
284.0083500815358
 20
204.7326429879353
 30
0.0
 10
284.0509222748
 20
204.7468222859074
 30
0.0
 10
284.0936210212305
 20
204.7606187517384
 30
0.0
 10
284.1364411494947
 20
204.7740307145078
 30
0.0
 10
284.1792617661121
 20
204.7874428302348
 30
0.0
 10
284.222161497198
 20
204.8006010403053
 30
0.0
 10
284.2651380824135
 20
204.813504651375
 30
0.0
 10
284.2651380824135
 20
204.813504651375
 30
0.0
 10
284.5237461488102
 20
204.8890979454236
 30
0.0
 10
284.5237461488102
 20
204.8890979454236
 30
0.0
 10
284.6439402441094
 20
204.9236763420358
 30
0.0
 10
284.76422540812
 20
204.9579373968289
 30
0.0
 10
284.8846003835801
 20
204.9918807517038
 30
0.0
 10
285.0049743439388
 20
205.0258238203457
 30
0.0
 10
285.1255636234149
 20
205.0589986033199
 30
0.0
 10
285.2463608602534
 20
205.0914030754074
 30
0.0
 10
285.2463608602534
 20
205.0914030754074
 30
0.0
 10
285.6090537599966
 20
205.1854971371165
 30
0.0
 10
285.6090537599966
 20
205.1854971371165
 30
0.0
 10
285.7695270945919
 20
205.2255589777404
 30
0.0
 10
285.9306166106128
 20
205.2631109345636
 30
0.0
 10
286.0922633205257
 20
205.2981392568409
 30
0.0
 10
286.2539115021166
 20
205.3331678980423
 30
0.0
 10
286.4160561554182
 20
205.3658648880057
 30
0.0
 10
286.5786467612379
 20
205.3962200393719
 30
0.0
 10
286.7813937009679
 20
205.4340722511535
 30
0.0
 10
286.9846530970916
 20
205.4691261500789
 30
0.0
 10
287.1883669499671
 20
205.5013717335535
 30
0.0
 10
287.3920884956894
 20
205.5336185347243
 30
0.0
 10
287.5960099548308
 20
205.5645894374484
 30
0.0
 10
287.800119335465
 20
205.5942826204032
 30
0.0
 10
287.9022457772813
 20
205.609139650069
 30
0.0
 10
288.0043978600029
 20
205.6238198884753
 30
0.0
 10
288.1065751245133
 20
205.6383232696057
 30
0.0
 10
288.2087524650369
 20
205.6528266615397
 30
0.0
 10
288.3109277976425
 20
205.6673441967901
 30
0.0
 10
288.4131011191359
 20
205.681875874915
 30
0.0
 10
288.4131011191359
 20
205.681875874915
 30
0.0
 10
289.7237876001394
 20
205.8682949393681
 30
0.0
 10
289.7237876001394
 20
205.8682949393681
 30
0.0
 10
289.7237876001394
 20
205.8682949393681
 30
0.0
 10
290.3792286264106
 20
205.9576259781797
 30
0.0
 10
290.3792286264106
 20
205.9576259781797
 30
0.0
 10
290.3792286264106
 20
205.9576259781797
 30
0.0
 10
291.0353665782164
 20
206.0409975011024
 30
0.0
 10
291.0353665782164
 20
206.0409975011024
 30
0.0
 10
291.1483459219394
 20
206.0546842326254
 30
0.0
 10
291.2613684817976
 20
206.0680118396912
 30
0.0
 10
291.3744325451665
 20
206.0809801203276
 30
0.0
 10
291.4874967148198
 20
206.0939484131698
 30
0.0
 10
291.6005933635002
 20
206.1066319539202
 30
0.0
 10
291.7137214153198
 20
206.1190306219195
 30
0.0
 10
291.7137214153198
 20
206.1190306219195
 30
0.0
 10
292.3929460378401
 20
206.1906909439813
 30
0.0
 10
292.3929460378401
 20
206.1906909439813
 30
0.0
 10
292.3929460378401
 20
206.1906909439813
 30
0.0
 10
293.7524943536532
 20
206.3255844501423
 30
0.0
 10
293.7524943536532
 20
206.3255844501423
 30
0.0
 10
293.7524943536532
 20
206.3255844501423
 30
0.0
 10
295.6836200793357
 20
206.515309082841
 30
0.0
 10
295.6836200793357
 20
206.515309082841
 30
0.0
 10
295.6836200793357
 20
206.515309082841
 30
0.0
 10
296.9619720850502
 20
206.6292160108748
 30
0.0
 10
296.9619720850502
 20
206.6292160108748
 30
0.0
  0
SPLINE
  5
BB
330
70
100
AcDbEntity
  8
shade
 62
     6
420
 16711935
370
    25
100
AcDbSpline
210
0.0
220
0.0
230
1.0
 70
     8
 71
     3
 72
   185
 73
   181
 74
     0
 42
0.0000000001
 43
0.0000000001
 40
0.0
 40
0.0
 40
0.0
 40
0.0
 40
1.0
 40
1.0
 40
1.0
 40
2.0
 40
2.0
 40
2.0
 40
3.0
 40
3.0
 40
3.0
 40
4.0
 40
4.0
 40
4.0
 40
5.0
 40
5.0
 40
5.0
 40
6.0
 40
6.0
 40
6.0
 40
7.0
 40
7.0
 40
7.0
 40
8.0
 40
8.0
 40
8.0
 40
9.0
 40
9.0
 40
9.0
 40
10.0
 40
10.0
 40
10.0
 40
11.0
 40
11.0
 40
11.0
 40
12.0
 40
12.0
 40
12.0
 40
13.0
 40
13.0
 40
13.0
 40
14.0
 40
14.0
 40
14.0
 40
15.0
 40
15.0
 40
15.0
 40
16.0
 40
16.0
 40
16.0
 40
17.0
 40
17.0
 40
17.0
 40
18.0
 40
18.0
 40
18.0
 40
19.0
 40
19.0
 40
19.0
 40
20.0
 40
20.0
 40
20.0
 40
21.0
 40
21.0
 40
21.0
 40
22.0
 40
22.0
 40
22.0
 40
23.0
 40
23.0
 40
23.0
 40
24.0
 40
24.0
 40
24.0
 40
25.0
 40
25.0
 40
25.0
 40
26.0
 40
26.0
 40
26.0
 40
27.0
 40
27.0
 40
27.0
 40
28.0
 40
28.0
 40
28.0
 40
29.0
 40
29.0
 40
29.0
 40
30.0
 40
30.0
 40
30.0
 40
31.0
 40
31.0
 40
31.0
 40
32.0
 40
32.0
 40
32.0
 40
33.0
 40
33.0
 40
33.0
 40
34.0
 40
34.0
 40
34.0
 40
35.0
 40
35.0
 40
35.0
 40
36.0
 40
36.0
 40
36.0
 40
37.0
 40
37.0
 40
37.0
 40
38.0
 40
38.0
 40
38.0
 40
39.0
 40
39.0
 40
39.0
 40
40.0
 40
40.0
 40
40.0
 40
41.0
 40
41.0
 40
41.0
 40
42.0
 40
42.0
 40
42.0
 40
43.0
 40
43.0
 40
43.0
 40
44.0
 40
44.0
 40
44.0
 40
45.0
 40
45.0
 40
45.0
 40
46.0
 40
46.0
 40
46.0
 40
47.0
 40
47.0
 40
47.0
 40
48.0
 40
48.0
 40
48.0
 40
49.0
 40
49.0
 40
49.0
 40
50.0
 40
50.0
 40
50.0
 40
51.0
 40
51.0
 40
51.0
 40
52.0
 40
52.0
 40
52.0
 40
53.0
 40
53.0
 40
53.0
 40
54.0
 40
54.0
 40
54.0
 40
55.0
 40
55.0
 40
55.0
 40
56.0
 40
56.0
 40
56.0
 40
57.0
 40
57.0
 40
57.0
 40
58.0
 40
58.0
 40
58.0
 40
59.0
 40
59.0
 40
59.0
 40
60.0
 40
60.0
 40
60.0
 40
60.0
 10
298.0889836821557
 20
206.2658305647829
 30
0.0
 10
298.2569941355336
 20
206.2415771906374
 30
0.0
 10
298.4248830642849
 20
206.2164893093561
 30
0.0
 10
298.5926442532738
 20
206.190567849688
 30
0.0
 10
298.7604037014232
 20
206.1646466590002
 30
0.0
 10
298.928371256841
 20
206.1400907129724
 30
0.0
 10
299.0965302441233
 20
206.1169024494566
 30
0.0
 10
299.2544089122617
 20
206.0951317893392
 30
0.0
 10
299.4121502268147
 20
206.072376406481
 30
0.0
 10
299.5697449791251
 20
206.0486376293169
 30
0.0
 10
299.7270416268883
 20
206.0249437561784
 30
0.0
 10
299.8819723575934
 20
205.9875775699
 30
0.0
 10
300.0327764470929
 20
205.9369637218648
 30
0.0
 10
300.1095905727016
 20
205.9111828660924
 30
0.0
 10
300.1848993496526
 20
205.8811169667431
 30
0.0
 10
300.2583484692857
 20
205.8469074762234
 30
0.0
 10
300.33151704395
 20
205.8128286516636
 30
0.0
 10
300.3997238193828
 20
205.7689804163955
 30
0.0
 10
300.4611026708015
 20
205.7165624500067
 30
0.0
 10
300.4861594901994
 20
205.6951637518123
 30
0.0
 10
300.5095313327118
 20
205.6718673551878
 30
0.0
 10
300.5310109347235
 20
205.6468798547137
 30
0.0
 10
300.5524788765778
 20
205.6219059186561
 30
0.0
 10
300.5716559358664
 20
205.5950508026333
 30
0.0
 10
300.5883101150266
 20
205.5666393907358
 30
0.0
 10
300.6013381046514
 20
205.5444141236861
 30
0.0
 10
300.612679640848
 20
205.5212424050331
 30
0.0
 10
300.622239161957
 20
205.497319475336
 30
0.0
 10
300.6317457209139
 20
205.4735290846793
 30
0.0
 10
300.6372220395379
 20
205.4483210138539
 30
0.0
 10
300.6384431831071
 20
205.4227306610067
 30
0.0
 10
300.6398580050735
 20
205.393081572882
 30
0.0
 10
300.6322268186027
 20
205.3637028098552
 30
0.0
 10
300.6165615964322
 20
205.3384902938754
 30
0.0
 10
300.600568064503
 20
205.3127493771502
 30
0.0
 10
300.5819665679502
 20
205.2887236767524
 30
0.0
 10
300.5610513769793
 20
205.2667932722103
 30
0.0
 10
300.4769785175891
 20
205.1786395555807
 30
0.0
 10
300.3804861840013
 20
205.1032321090844
 30
0.0
 10
300.274626968739
 20
205.042956492248
 30
0.0
 10
300.1682560249645
 20
204.9823895001949
 30
0.0
 10
300.0591768580753
 20
204.9267076622824
 30
0.0
 10
299.9477297709001
 20
204.8760846935169
 30
0.0
 10
299.7866213214867
 20
204.8029038845029
 30
0.0
 10
299.6240182354802
 20
204.7330591926935
 30
0.0
 10
299.4600245858214
 20
204.6665953216564
 30
0.0
 10
299.2960233218535
 20
204.6001283646845
 30
0.0
 10
299.1309999181778
 20
204.5362118428317
 30
0.0
 10
298.9650140444124
 20
204.4748688671856
 30
0.0
 10
298.7987252568157
 20
204.4134139444725
 30
0.0
 10
298.6316460967092
 20
204.354119188475
 30
0.0
 10
298.4638187517156
 20
204.2969995711974
 30
0.0
 10
298.2959869439442
 20
204.2398784350099
 30
0.0
 10
298.1277080127025
 20
204.1840795522327
 30
0.0
 10
297.9589976040922
 20
204.1296081108858
 30
0.0
 10
297.6819399218486
 20
204.0401546419827
 30
0.0
 10
297.4042816240811
 20
203.9525722076342
 30
0.0
 10
297.126041684066
 20
203.8668667926102
 30
0.0
 10
296.8477987200385
 20
203.7811604461077
 30
0.0
 10
296.5694321842688
 20
203.6958557866102
 30
0.0
 10
296.2909429467702
 20
203.6109530807638
 30
0.0
 10
295.7955391731734
 20
203.459919880171
 30
0.0
 10
295.2996724106538
 20
203.310409522265
 30
0.0
 10
294.803349684175
 20
203.1624241251517
 30
0.0
 10
294.3070259097374
 20
203.0144384155794
 30
0.0
 10
293.8105543430532
 20
202.8669488337416
 30
0.0
 10
293.3139357280756
 20
202.7199556006463
 30
0.0
 10
293.3139357280756
 20
202.7199556006463
 30
0.0
 10
292.0126901467197
 20
202.3335402549534
 30
0.0
 10
292.0126901467197
 20
202.3335402549534
 30
0.0
 10
292.0126901467197
 20
202.3335402549534
 30
0.0
 10
290.7138869114214
 20
201.9379114400865
 30
0.0
 10
290.7138869114214
 20
201.9379114400865
 30
0.0
 10
290.7138869114214
 20
201.9379114400865
 30
0.0
 10
290.0666935024319
 20
201.7335499942963
 30
0.0
 10
290.0666935024319
 20
201.7335499942963
 30
0.0
 10
290.0666935024319
 20
201.7335499942963
 30
0.0
 10
289.4216614746289
 20
201.5231747963035
 30
0.0
 10
289.4216614746289
 20
201.5231747963035
 30
0.0
 10
289.4216614746289
 20
201.5231747963035
 30
0.0
 10
288.7793077595637
 20
201.3055490511463
 30
0.0
 10
288.7793077595637
 20
201.3055490511463
 30
0.0
 10
288.7793077595637
 20
201.3055490511463
 30
0.0
 10
288.1401492887892
 20
201.0794359638625
 30
0.0
 10
288.1401492887892
 20
201.0794359638625
 30
0.0
 10
288.1401492887892
 20
201.0794359638625
 30
0.0
 10
287.3827727345091
 20
200.7974192770189
 30
0.0
 10
287.3827727345091
 20
200.7974192770189
 30
0.0
 10
287.2569289217668
 20
200.74926473894
 30
0.0
 10
287.1313000357275
 20
200.7005503927259
 30
0.0
 10
287.0058898085645
 20
200.6512776856103
 30
0.0
 10
286.8804795596544
 20
200.6020049699624
 30
0.0
 10
286.7552853162356
 20
200.5521842318221
 30
0.0
 10
286.6303106673281
 20
200.5018168994507
 30
0.0
 10
286.6303106673281
 20
200.5018168994507
 30
0.0
 10
285.8824004732026
 20
200.1928666382832
 30
0.0
 10
285.8824004732026
 20
200.1928666382832
 30
0.0
 10
285.5757886816907
 20
200.0631326361537
 30
0.0
 10
285.2704673523244
 20
199.9303696604137
 30
0.0
 10
284.9664812718531
 20
199.7945971857348
 30
0.0
 10
284.6625029423267
 20
199.6588281729256
 30
0.0
 10
284.3604588251673
 20
199.5187693554897
 30
0.0
 10
284.0604394269438
 20
199.3744627016184
 30
0.0
 10
283.7932347601426
 20
199.2459396407958
 30
0.0
 10
283.5280950392995
 20
199.1131668991434
 30
0.0
 10
283.2651212365572
 20
198.9761950400196
 30
0.0
 10
283.0021617178584
 20
198.8392306208316
 30
0.0
 10
282.7422061954365
 20
198.6965744068304
 30
0.0
 10
282.4854383516953
 20
198.5483271977151
 30
0.0
 10
282.357373619871
 20
198.474387880378
 30
0.0
 10
282.2301957926772
 20
198.3989229517038
 30
0.0
 10
282.1039320343692
 20
198.321948530456
 30
0.0
 10
281.9776694572153
 20
198.2449748292846
 30
0.0
 10
281.852444757591
 20
198.1663114342001
 30
0.0
 10
281.7282917097619
 20
198.0859795614607
 30
0.0
 10
281.68693952191
 20
198.0592230802422
 30
0.0
 10
281.6457114421981
 20
198.0322752756126
 30
0.0
 10
281.6046087964046
 20
198.0051370141382
 30
0.0
 10
281.5635061663735
 20
197.9779987630728
 30
0.0
 10
281.5225338441408
 20
197.9506636658193
 30
0.0
 10
281.4816932415271
 20
197.9231326643109
 30
0.0
 10
281.2871756431541
 20
197.7920066780747
 30
0.0
 10
281.0958726067095
 20
197.656174024213
 30
0.0
 10
280.9079534717848
 20
197.5157549404944
 30
0.0
 10
280.7200335393824
 20
197.3753352608761
 30
0.0
 10
280.5355027939951
 20
197.2304361032129
 30
0.0
 10
280.3545198852813
 20
197.0811820440733
 30
0.0
 10
280.1794758786961
 20
196.9368257139766
 30
0.0
 10
280.007558561703
 20
196.7887193028585
 30
0.0
 10
279.8388873220635
 20
196.6369656630471
 30
0.0
 10
279.6702120827676
 20
196.4852084247472
 30
0.0
 10
279.5044645036698
 20
196.3302283810959
 30
0.0
 10
279.3417361185428
 20
196.1721111195279
 30
0.0
 10
279.2699352202553
 20
196.1023447944574
 30
0.0
 10
279.198822721529
 20
196.03187347347
 30
0.0
 10
279.1284089549552
 20
195.9607073959686
 30
0.0
 10
279.0579981629385
 20
195.8895443248092
 30
0.0
 10
278.9887523416035
 20
195.8172379583357
 30
0.0
 10
278.9206991000092
 20
195.7438171258875
 30
0.0
 10
278.8067310700586
 20
195.6208600493875
 30
0.0
 10
278.6970537752596
 20
195.4939944303639
 30
0.0
 10
278.5918642591899
 20
195.3634481924933
 30
0.0
 10
278.486711502517
 20
195.2329475751596
 30
0.0
 10
278.3882759680279
 20
195.0971742251133
 30
0.0
 10
278.2969404448651
 20
194.9566561281641
 30
0.0
 10
278.150370131585
 20
194.7311602774796
 30
0.0
 10
278.0239597784446
 20
194.4931847891059
 30
0.0
 10
277.9191766895113
 20
194.2454919557636
 30
0.0
 10
277.8145212442681
 20
193.998100854578
 30
0.0
 10
277.7380014180623
 20
193.7397312884633
 30
0.0
 10
277.6910579618115
 20
193.4752479599102
 30
0.0
 10
277.6576848635742
 20
193.2872211546437
 30
0.0
 10
277.6423992571334
 20
193.0964298898996
 30
0.0
 10
277.6454105611281
 20
192.9054880787658
 30
0.0
 10
277.6484205713118
 20
192.714628305783
 30
0.0
 10
277.6713395552522
 20
192.5246036686538
 30
0.0
 10
277.7137951537944
 20
192.3385014514291
 30
0.0
 10
277.7536611500689
 20
192.163750639878
 30
0.0
 10
277.8083298153368
 20
191.9927103904707
 30
0.0
 10
277.8772091269142
 20
191.8272329472103
 30
0.0
 10
277.9461297995866
 20
191.6616561369575
 30
0.0
 10
278.0264956349997
 20
191.5010790664425
 30
0.0
 10
278.1177236158208
 20
191.3466666487844
 30
0.0
 10
278.2952693298022
 20
191.0461528952605
 30
0.0
 10
278.5097229012756
 20
190.7690378854061
 30
0.0
 10
278.7560859688048
 20
190.5217804576723
 30
0.0
 10
279.0027375535772
 20
190.2742334653067
 30
0.0
 10
279.2746648899565
 20
190.0532303311718
 30
0.0
 10
279.5674081938582
 20
189.8623956495353
 30
0.0
 10
279.6542886258424
 20
189.8057596843001
 30
0.0
 10
279.7425335382691
 20
189.7512449359957
 30
0.0
 10
279.8320646706216
 20
189.6988997513237
 30
0.0
 10
279.9216040976822
 20
189.6465497170811
 30
0.0
 10
280.011916612536
 20
189.5955333195101
 30
0.0
 10
280.1029722958008
 20
189.5458674597128
 30
0.0
 10
280.1029722958008
 20
189.5458674597128
 30
0.0
 10
280.839729056385
 20
189.1599600561478
 30
0.0
 10
280.839729056385
 20
189.1599600561478
 30
0.0
 10
280.839729056385
 20
189.1599600561478
 30
0.0
 10
281.5183198394073
 20
188.7960405713928
 30
0.0
 10
281.5183198394073
 20
188.7960405713928
 30
0.0
  0
SPLINE
  5
BC
330
70
100
AcDbEntity
  8
shade
 62
     6
420
 16711935
370
    25
100
AcDbSpline
210
0.0
220
0.0
230
1.0
 70
     8
 71
     3
 72
   125
 73
   121
 74
     0
 42
0.0000000001
 43
0.0000000001
 40
0.0
 40
0.0
 40
0.0
 40
0.0
 40
1.0
 40
1.0
 40
1.0
 40
2.0
 40
2.0
 40
2.0
 40
3.0
 40
3.0
 40
3.0
 40
4.0
 40
4.0
 40
4.0
 40
5.0
 40
5.0
 40
5.0
 40
6.0
 40
6.0
 40
6.0
 40
7.0
 40
7.0
 40
7.0
 40
8.0
 40
8.0
 40
8.0
 40
9.0
 40
9.0
 40
9.0
 40
10.0
 40
10.0
 40
10.0
 40
11.0
 40
11.0
 40
11.0
 40
12.0
 40
12.0
 40
12.0
 40
13.0
 40
13.0
 40
13.0
 40
14.0
 40
14.0
 40
14.0
 40
15.0
 40
15.0
 40
15.0
 40
16.0
 40
16.0
 40
16.0
 40
17.0
 40
17.0
 40
17.0
 40
18.0
 40
18.0
 40
18.0
 40
19.0
 40
19.0
 40
19.0
 40
20.0
 40
20.0
 40
20.0
 40
21.0
 40
21.0
 40
21.0
 40
22.0
 40
22.0
 40
22.0
 40
23.0
 40
23.0
 40
23.0
 40
24.0
 40
24.0
 40
24.0
 40
25.0
 40
25.0
 40
25.0
 40
26.0
 40
26.0
 40
26.0
 40
27.0
 40
27.0
 40
27.0
 40
28.0
 40
28.0
 40
28.0
 40
29.0
 40
29.0
 40
29.0
 40
30.0
 40
30.0
 40
30.0
 40
31.0
 40
31.0
 40
31.0
 40
32.0
 40
32.0
 40
32.0
 40
33.0
 40
33.0
 40
33.0
 40
34.0
 40
34.0
 40
34.0
 40
35.0
 40
35.0
 40
35.0
 40
36.0
 40
36.0
 40
36.0
 40
37.0
 40
37.0
 40
37.0
 40
38.0
 40
38.0
 40
38.0
 40
39.0
 40
39.0
 40
39.0
 40
40.0
 40
40.0
 40
40.0
 40
40.0
 10
300.6373298536182
 20
205.3938327247883
 30
0.0
 10
300.6428528783504
 20
205.3469700970903
 30
0.0
 10
300.628328388561
 20
205.2999543118207
 30
0.0
 10
300.5973359231404
 20
205.264372339354
 30
0.0
 10
300.5649230635051
 20
205.2271596341453
 30
0.0
 10
300.5302217672298
 20
205.1920038463055
 30
0.0
 10
300.4934339517259
 20
205.1591095378618
 30
0.0
 10
300.4142519176827
 20
205.0883078820151
 30
0.0
 10
300.3271143037357
 20
205.026942718322
 30
0.0
 10
300.2337726367181
 20
204.9762475293614
 30
0.0
 10
300.1401447474297
 20
204.9253968890096
 30
0.0
 10
300.0447367393815
 20
204.8778945771321
 30
0.0
 10
299.9477297709001
 20
204.8338307899207
 30
0.0
 10
299.6252317670896
 20
204.6873414846607
 30
0.0
 10
299.2971757684681
 20
204.5534101186174
 30
0.0
 10
298.9643008334919
 20
204.4323384180485
 30
0.0
 10
298.6313285570187
 20
204.3112313128629
 30
0.0
 10
298.2961715594647
 20
204.1962173858215
 30
0.0
 10
297.9589976040922
 20
204.0873542072733
 30
0.0
 10
297.6819399218486
 20
203.9979007383705
 30
0.0
 10
297.4042816240811
 20
203.9103183040217
 30
0.0
 10
297.126041684066
 20
203.8246128889983
 30
0.0
 10
296.8477987200385
 20
203.7389065424958
 30
0.0
 10
296.5694321842688
 20
203.653601883014
 30
0.0
 10
296.2909429467783
 20
203.5686991771677
 30
0.0
 10
295.7955391731734
 20
203.4176659765746
 30
0.0
 10
295.2996724106538
 20
203.2681556186685
 30
0.0
 10
294.803349684175
 20
203.1201702215391
 30
0.0
 10
294.3070259097374
 20
202.9721845119669
 30
0.0
 10
293.8105543430532
 20
202.82469493013
 30
0.0
 10
293.3139357280836
 20
202.6777016970498
 30
0.0
 10
293.3139357280836
 20
202.6777016970498
 30
0.0
 10
292.0126901467197
 20
202.2912863513569
 30
0.0
 10
292.0126901467197
 20
202.2912863513569
 30
0.0
 10
292.0126901467197
 20
202.2912863513569
 30
0.0
 10
290.7138869114214
 20
201.8956575364904
 30
0.0
 10
290.7138869114214
 20
201.8956575364904
 30
0.0
 10
290.7138869114214
 20
201.8956575364904
 30
0.0
 10
290.0666935024319
 20
201.6912960906998
 30
0.0
 10
290.0666935024319
 20
201.6912960906998
 30
0.0
 10
290.0666935024319
 20
201.6912960906998
 30
0.0
 10
289.4216614746289
 20
201.480920892707
 30
0.0
 10
289.4216614746289
 20
201.480920892707
 30
0.0
 10
289.4216614746289
 20
201.480920892707
 30
0.0
 10
288.7793077595637
 20
201.2632951475498
 30
0.0
 10
288.7793077595637
 20
201.2632951475498
 30
0.0
 10
288.7793077595637
 20
201.2632951475498
 30
0.0
 10
288.1401492887892
 20
201.037182060266
 30
0.0
 10
288.1401492887892
 20
201.037182060266
 30
0.0
 10
288.1401492887892
 20
201.037182060266
 30
0.0
 10
287.3827727345091
 20
200.7551653734224
 30
0.0
 10
287.3827727345091
 20
200.7551653734224
 30
0.0
 10
287.2569289217668
 20
200.7070108353278
 30
0.0
 10
287.1313000357275
 20
200.6582964891294
 30
0.0
 10
287.0058898085645
 20
200.6090237820139
 30
0.0
 10
286.8804795596544
 20
200.5597510663502
 30
0.0
 10
286.7552853162356
 20
200.5099303282099
 30
0.0
 10
286.6303106673281
 20
200.4595629958546
 30
0.0
 10
286.6303106673281
 20
200.4595629958546
 30
0.0
 10
285.8824004732026
 20
200.1506127346867
 30
0.0
 10
285.8824004732026
 20
200.1506127346867
 30
0.0
 10
285.5757886816907
 20
200.0208787325422
 30
0.0
 10
285.2704673523244
 20
199.8881157568176
 30
0.0
 10
284.9664812718531
 20
199.7523432821229
 30
0.0
 10
284.6625029423267
 20
199.6165742693291
 30
0.0
 10
284.3604588251673
 20
199.4765154518932
 30
0.0
 10
284.0604394269438
 20
199.3322087980062
 30
0.0
 10
283.7932347601426
 20
199.2036857371839
 30
0.0
 10
283.5280950392995
 20
199.0709129955472
 30
0.0
 10
283.2651212365572
 20
198.9339411364074
 30
0.0
 10
283.0021617178584
 20
198.7969767172197
 30
0.0
 10
282.7422061954365
 20
198.6543205032339
 30
0.0
 10
282.4854383516953
 20
198.5060732941026
 30
0.0
 10
282.357373619871
 20
198.4321339767661
 30
0.0
 10
282.2301957926772
 20
198.3566690480919
 30
0.0
 10
282.1039320343692
 20
198.2796946268598
 30
0.0
 10
281.9776694572153
 20
198.2027209256725
 30
0.0
 10
281.8524447575836
 20
198.1240575305875
 30
0.0
 10
281.7282917097619
 20
198.0437256578495
 30
0.0
 10
281.68693952191
 20
198.016969176631
 30
0.0
 10
281.6457114421981
 20
197.9900213720161
 30
0.0
 10
281.6046087964046
 20
197.9628831105424
 30
0.0
 10
281.5635061663735
 20
197.9357448594603
 30
0.0
 10
281.5225338441408
 20
197.9084097622228
 30
0.0
 10
281.4816932415271
 20
197.8808787606984
 30
0.0
 10
281.2871756431541
 20
197.7497527744628
 30
0.0
 10
281.0958726067095
 20
197.6139201206004
 30
0.0
 10
280.9079534717848
 20
197.4735010368832
 30
0.0
 10
280.7200335393824
 20
197.3330813572642
 30
0.0
 10
280.5355027939951
 20
197.1881821996171
 30
0.0
 10
280.3545198852813
 20
197.0389281404608
 30
0.0
 10
280.2494727535139
 20
196.9522972484616
 30
0.0
 10
280.1455618647608
 20
196.8642976994655
 30
0.0
 10
280.0428138188607
 20
196.7749520202075
 30
0.0
 10
279.9400652122604
 20
196.6856058533911
 30
0.0
 10
279.8384104732114
 20
196.5950094545432
 30
0.0
 10
279.7378722963218
 20
196.5031830494625
 30
0.0
 10
279.6215886614081
 20
196.3969755520392
 30
0.0
 10
279.506647711478
 20
196.2893072530764
 30
0.0
 10
279.3930768105014
 20
196.1802037851742
 30
0.0
 10
279.2795107306531
 20
196.0711049487528
 30
0.0
 10
279.1679314105406
 20
195.9599566721969
 30
0.0
 10
279.0583938253055
 20
195.8468137182842
 30
0.0
 10
278.887783213824
 20
195.6705875534537
 30
0.0
 10
278.7254654849413
 20
195.486517680246
 30
0.0
 10
278.5719672916008
 20
195.2952013281949
 30
0.0
 10
278.418624135545
 20
195.1040782108004
 30
0.0
 10
278.2805721925107
 20
194.9011744986564
 30
0.0
 10
278.1590920602146
 20
194.6883723676289
 30
0.0
 10
278.0929975166321
 20
194.5725916267075
 30
0.0
 10
278.0321168599742
 20
194.4539113691437
 30
0.0
 10
277.9766327550429
 20
194.3326876802206
 30
0.0
 10
277.9211554338253
 20
194.2114788125984
 30
0.0
 10
277.8717622836566
 20
194.0875765735213
 30
0.0
 10
277.8286376371992
 20
193.9614433596933
 30
0.0
 10
277.7718501425525
 20
193.7953483352983
 30
0.0
 10
277.727033384083
 20
193.6253988228607
 30
0.0
 10
277.6945314264754
 20
193.4528995491586
 30
0.0
 10
277.6620526959554
 20
193.2805235497363
 30
0.0
 10
277.6450432611864
 20
193.1055899358648
 30
0.0
 10
277.6437060705147
 20
192.9301859306765
 30
0.0
  0
SPLINE
  5
BD
330
70
100
AcDbEntity
  8
shade
 62
     6
420
 16711935
370
    25
100
AcDbSpline
210
0.0
220
0.0
230
1.0
 70
     8
 71
     3
 72
   167
 73
   163
 74
     0
 42
0.0000000001
 43
0.0000000001
 40
0.0
 40
0.0
 40
0.0
 40
0.0
 40
1.0
 40
1.0
 40
1.0
 40
2.0
 40
2.0
 40
2.0
 40
3.0
 40
3.0
 40
3.0
 40
4.0
 40
4.0
 40
4.0
 40
5.0
 40
5.0
 40
5.0
 40
6.0
 40
6.0
 40
6.0
 40
7.0
 40
7.0
 40
7.0
 40
8.0
 40
8.0
 40
8.0
 40
9.0
 40
9.0
 40
9.0
 40
10.0
 40
10.0
 40
10.0
 40
11.0
 40
11.0
 40
11.0
 40
12.0
 40
12.0
 40
12.0
 40
13.0
 40
13.0
 40
13.0
 40
14.0
 40
14.0
 40
14.0
 40
15.0
 40
15.0
 40
15.0
 40
16.0
 40
16.0
 40
16.0
 40
17.0
 40
17.0
 40
17.0
 40
18.0
 40
18.0
 40
18.0
 40
19.0
 40
19.0
 40
19.0
 40
20.0
 40
20.0
 40
20.0
 40
21.0
 40
21.0
 40
21.0
 40
22.0
 40
22.0
 40
22.0
 40
23.0
 40
23.0
 40
23.0
 40
24.0
 40
24.0
 40
24.0
 40
25.0
 40
25.0
 40
25.0
 40
26.0
 40
26.0
 40
26.0
 40
27.0
 40
27.0
 40
27.0
 40
28.0
 40
28.0
 40
28.0
 40
29.0
 40
29.0
 40
29.0
 40
30.0
 40
30.0
 40
30.0
 40
31.0
 40
31.0
 40
31.0
 40
32.0
 40
32.0
 40
32.0
 40
33.0
 40
33.0
 40
33.0
 40
34.0
 40
34.0
 40
34.0
 40
35.0
 40
35.0
 40
35.0
 40
36.0
 40
36.0
 40
36.0
 40
37.0
 40
37.0
 40
37.0
 40
38.0
 40
38.0
 40
38.0
 40
39.0
 40
39.0
 40
39.0
 40
40.0
 40
40.0
 40
40.0
 40
41.0
 40
41.0
 40
41.0
 40
42.0
 40
42.0
 40
42.0
 40
43.0
 40
43.0
 40
43.0
 40
44.0
 40
44.0
 40
44.0
 40
45.0
 40
45.0
 40
45.0
 40
46.0
 40
46.0
 40
46.0
 40
47.0
 40
47.0
 40
47.0
 40
48.0
 40
48.0
 40
48.0
 40
49.0
 40
49.0
 40
49.0
 40
50.0
 40
50.0
 40
50.0
 40
51.0
 40
51.0
 40
51.0
 40
52.0
 40
52.0
 40
52.0
 40
53.0
 40
53.0
 40
53.0
 40
54.0
 40
54.0
 40
54.0
 40
54.0
 10
300.6032376993366
 20
205.2862717347401
 30
0.0
 10
300.6999236684493
 20
205.2548253770936
 30
0.0
 10
300.7975240379321
 20
205.226263258296
 30
0.0
 10
300.8959092133376
 20
205.2006233032967
 30
0.0
 10
300.994314928871
 20
205.1749779953989
 30
0.0
 10
301.0929019866541
 20
205.1500336411187
 30
0.0
 10
301.1916628906068
 20
205.1257921371134
 30
0.0
 10
301.1916628906068
 20
205.1257921371134
 30
0.0
 10
301.7371614625265
 20
204.9874739989008
 30
0.0
 10
301.7371614625265
 20
204.9874739989008
 30
0.0
 10
301.7371614625265
 20
204.9874739989008
 30
0.0
 10
302.2806315887287
 20
204.8392214270787
 30
0.0
 10
302.2806315887287
 20
204.8392214270787
 30
0.0
 10
302.4826493640476
 20
204.7818702237808
 30
0.0
 10
302.6830801366943
 20
204.7190693147884
 30
0.0
 10
302.8817043573479
 20
204.6508874914494
 30
0.0
 10
303.0799935145076
 20
204.5828206855015
 30
0.0
 10
303.2720256476754
 20
204.4977354395654
 30
0.0
 10
303.4556550481752
 20
204.3965824702991
 30
0.0
 10
303.5945406470125
 20
204.3200767981655
 30
0.0
 10
303.7254422791619
 20
204.2298980560867
 30
0.0
 10
303.8464129965964
 20
204.1273875056109
 30
0.0
 10
303.9666524423331
 20
204.0254966345671
 30
0.0
 10
304.0670489524661
 20
203.9022840830369
 30
0.0
 10
304.1425555375044
 20
203.7639438158368
 30
0.0
 10
304.1966252717396
 20
203.6648793239232
 30
0.0
 10
304.2343243129862
 20
203.5577251933016
 30
0.0
 10
304.254193700393
 20
203.4466283114402
 30
0.0
 10
304.274033195425
 20
203.3356985685521
 30
0.0
 10
304.2738338355621
 20
203.222111270102
 30
0.0
 10
304.2536050729247
 20
203.1112518519973
 30
0.0
 10
304.2379520254682
 20
203.0254686647942
 30
0.0
 10
304.2112727800224
 20
202.9420694824896
 30
0.0
 10
304.1742308833693
 20
202.8631285489125
 30
0.0
 10
304.1371299635353
 20
202.7840618295239
 30
0.0
 10
304.0920729901791
 20
202.7089791896216
 30
0.0
 10
304.0397573721047
 20
202.6390427865593
 30
0.0
 10
304.0163904131398
 20
202.6078054406203
 30
0.0
 10
303.9920400492166
 20
202.5773159445976
 30
0.0
 10
303.9667428951089
 20
202.5476201444509
 30
0.0
 10
303.9414412981023
 20
202.5179191288926
 30
0.0
 10
303.915626644321
 20
202.4886590265327
 30
0.0
 10
303.8893105721693
 20
202.4598530291814
 30
0.0
 10
303.7667223472833
 20
202.325665979481
 30
0.0
 10
303.6361639745501
 20
202.1989835837988
 30
0.0
 10
303.4983444805867
 20
202.0804938193829
 30
0.0
 10
303.3604547524412
 20
201.9619436713995
 30
0.0
 10
303.2178920292867
 20
201.8489397959898
 30
0.0
 10
303.0709961508724
 20
201.7417515708147
 30
0.0
 10
302.9233010580631
 20
201.633980168111
 30
0.0
 10
302.7724733376029
 20
201.5305687400319
 30
0.0
 10
302.6187079649568
 20
201.4316509668422
 30
0.0
 10
302.4649125327693
 20
201.3327138562464
 30
0.0
 10
302.3102331532709
 20
201.2351576138201
 30
0.0
 10
302.1546884761852
 20
201.1389940019618
 30
0.0
 10
302.1546884761852
 20
201.1389940019618
 30
0.0
 10
301.2732468380382
 20
200.6029223915779
 30
0.0
 10
301.2732468380382
 20
200.6029223915779
 30
0.0
 10
301.2732468380382
 20
200.6029223915779
 30
0.0
 10
300.3871169723841
 20
200.0803363122122
 30
0.0
 10
300.3871169723841
 20
200.0803363122122
 30
0.0
 10
300.3871169723841
 20
200.0803363122122
 30
0.0
 10
299.4967817500165
 20
199.5695032435024
 30
0.0
 10
299.4967817500165
 20
199.5695032435024
 30
0.0
 10
299.4967817500165
 20
199.5695032435024
 30
0.0
 10
298.6027240417207
 20
199.0686906650859
 30
0.0
 10
298.6027240417207
 20
199.0686906650859
 30
0.0
 10
298.4535055605303
 20
198.9860019854521
 30
0.0
 10
298.3041150788651
 20
198.9036240761612
 30
0.0
 10
298.1545535681274
 20
198.8215574728712
 30
0.0
 10
298.0049920165208
 20
198.7394908471548
 30
0.0
 10
297.8552828238981
 20
198.6576935758217
 30
0.0
 10
297.7054267182756
 20
198.5761660566477
 30
0.0
 10
297.7054267182756
 20
198.5761660566477
 30
0.0
 10
296.8053726504654
 20
198.0901968978246
 30
0.0
 10
296.8053726504654
 20
198.0901968978246
 30
0.0
 10
296.8053726504654
 20
198.0901968978246
 30
0.0
 10
294.9989257649116
 20
197.1309948476072
 30
0.0
 10
294.9989257649116
 20
197.1309948476072
 30
0.0
 10
294.9989257649116
 20
197.1309948476072
 30
0.0
 10
291.6129695877504
 20
195.3527540002521
 30
0.0
 10
291.6129695877504
 20
195.3527540002521
 30
0.0
 10
291.6129695877504
 20
195.3527540002521
 30
0.0
 10
289.9182380039164
 20
194.4598046738146
 30
0.0
 10
289.9182380039164
 20
194.4598046738146
 30
0.0
 10
289.9182380039164
 20
194.4598046738146
 30
0.0
 10
288.2250517976397
 20
193.5584722758265
 30
0.0
 10
288.2250517976397
 20
193.5584722758265
 30
0.0
 10
288.2250517976397
 20
193.5584722758265
 30
0.0
 10
287.5818930222446
 20
193.2120010177571
 30
0.0
 10
287.5818930222446
 20
193.2120010177571
 30
0.0
 10
287.5818930222446
 20
193.2120010177571
 30
0.0
 10
286.9411294093258
 20
192.8611175773256
 30
0.0
 10
286.9411294093258
 20
192.8611175773256
 30
0.0
 10
286.9411294093258
 20
192.8611175773256
 30
0.0
 10
286.3046375990023
 20
192.5032567253329
 30
0.0
 10
286.3046375990023
 20
192.5032567253329
 30
0.0
 10
286.0935842061462
 20
192.3826304756107
 30
0.0
 10
285.8835580709491
 20
192.2602157040307
 30
0.0
 10
285.6745818714914
 20
192.1360256286612
 30
0.0
 10
285.4656087178248
 20
192.011837363322
 30
0.0
 10
285.2580598900831
 20
191.8852678658366
 30
0.0
 10
285.0519759465844
 20
191.7563418698771
 30
0.0
 10
284.7432501583179
 20
191.5632031951528
 30
0.0
 10
284.4383920253174
 20
191.3639499640466
 30
0.0
 10
284.1375820117126
 20
191.1587001266912
 30
0.0
 10
283.8367947139753
 20
190.9534657889216
 30
0.0
 10
283.541477194555
 20
190.7403276103653
 30
0.0
 10
283.2519379903367
 20
190.5195082699732
 30
0.0
 10
283.0050105396642
 20
190.3311871169435
 30
0.0
 10
282.7642406689214
 20
190.1349261679836
 30
0.0
 10
282.5300062305808
 20
189.9310334254469
 30
0.0
 10
282.2959636018449
 20
189.727307646344
 30
0.0
 10
282.0755665354628
 20
189.5084168052718
 30
0.0
 10
281.8702406000889
 20
189.2757767283228
 30
0.0
 10
281.7851958160991
 20
189.1794185889814
 30
0.0
 10
281.7050847626004
 20
189.0788159347345
 30
0.0
 10
281.6302151518986
 20
188.9743551876019
 30
0.0
 10
281.5555377985071
 20
188.8701626847101
 30
0.0
 10
281.4929019736535
 20
188.7578471593912
 30
0.0
 10
281.4435053269666
 20
188.639556178919
 30
0.0
 10
281.4096702787928
 20
188.5585308200671
 30
0.0
 10
281.3816773746835
 20
188.4751878622031
 30
0.0
 10
281.3597411302062
 20
188.3901659800763
 30
0.0
 10
281.3377969724918
 20
188.3051134273843
 30
0.0
 10
281.3210331184158
 20
188.2188078715022
 30
0.0
 10
281.3095419542593
 20
188.1317249459349
 30
0.0
 10
281.3015593596349
 20
188.0712308407077
 30
0.0
 10
281.296456461356
 20
188.0103915183201
 30
0.0
 10
281.2942505306706
 20
187.9494128953962
 30
0.0
 10
281.2920472540096
 20
187.888507637568
 30
0.0
 10
281.2949685208183
 20
187.8275249581359
 30
0.0
 10
281.3029834656648
 20
187.7671091860402
 30
0.0
 10
281.3185852768011
 20
187.6495044508157
 30
0.0
 10
281.3584707470304
 20
187.5364286881089
 30
0.0
 10
281.4201072651704
 20
187.4350618794853
 30
0.0
 10
281.4822980879957
 20
187.3327834668509
 30
0.0
 10
281.5533229145195
 20
187.2361455097543
 30
0.0
 10
281.6323684473113
 20
187.1462545987325
 30
0.0
 10
281.7631565535241
 20
186.9975218164876
 30
0.0
 10
281.9069032868643
 20
186.8607059304872
 30
0.0
 10
282.0619125270531
 20
186.7374212814072
 30
0.0
 10
282.2170558991957
 20
186.614029952161
 30
0.0
 10
282.3802513859583
 20
186.5011168802453
 30
0.0
 10
282.5504138122435
 20
186.3994328857562
 30
0.0
 10
282.7397023484086
 20
186.2863196980391
 30
0.0
 10
282.9356585424384
 20
186.1847579017847
 30
0.0
 10
283.1372092506974
 20
186.095303694732
 30
0.0
 10
283.3388842340426
 20
186.0057943306906
 30
0.0
 10
283.5435913330926
 20
185.9232790141322
 30
0.0
 10
283.7509642840049
 20
185.8479053822019
 30
0.0
 10
283.8343243682897
 20
185.8176065786177
 30
0.0
 10
283.9180022369196
 20
185.7881893301643
 30
0.0
 10
284.001983880263
 20
185.7596585619824
 30
0.0
 10
284.0859668825807
 20
185.7311273321238
 30
0.0
 10
284.170144285043
 20
185.7031715609882
 30
0.0
 10
284.2545101663635
 20
185.6757932150797
 30
0.0
 10
284.2545101663635
 20
185.6757932150797
 30
0.0
 10
284.9289200236493
 20
185.4668461891902
 30
0.0
 10
284.9289200236493
 20
185.4668461891902
 30
0.0
 10
284.9289200236493
 20
185.4668461891902
 30
0.0
 10
285.6035997461452
 20
185.2701764479512
 30
0.0
 10
285.6035997461452
 20
185.2701764479512
 30
0.0
  0
SPLINE
  5
BE
330
70
100
AcDbEntity
  8
shade
 62
     6
420
 16711935
370
    25
100
AcDbSpline
210
0.0
220
0.0
230
1.0
 70
     8
 71
     3
 72
   107
 73
   103
 74
     0
 42
0.0000000001
 43
0.0000000001
 40
0.0
 40
0.0
 40
0.0
 40
0.0
 40
1.0
 40
1.0
 40
1.0
 40
2.0
 40
2.0
 40
2.0
 40
3.0
 40
3.0
 40
3.0
 40
4.0
 40
4.0
 40
4.0
 40
5.0
 40
5.0
 40
5.0
 40
6.0
 40
6.0
 40
6.0
 40
7.0
 40
7.0
 40
7.0
 40
8.0
 40
8.0
 40
8.0
 40
9.0
 40
9.0
 40
9.0
 40
10.0
 40
10.0
 40
10.0
 40
11.0
 40
11.0
 40
11.0
 40
12.0
 40
12.0
 40
12.0
 40
13.0
 40
13.0
 40
13.0
 40
14.0
 40
14.0
 40
14.0
 40
15.0
 40
15.0
 40
15.0
 40
16.0
 40
16.0
 40
16.0
 40
17.0
 40
17.0
 40
17.0
 40
18.0
 40
18.0
 40
18.0
 40
19.0
 40
19.0
 40
19.0
 40
20.0
 40
20.0
 40
20.0
 40
21.0
 40
21.0
 40
21.0
 40
22.0
 40
22.0
 40
22.0
 40
23.0
 40
23.0
 40
23.0
 40
24.0
 40
24.0
 40
24.0
 40
25.0
 40
25.0
 40
25.0
 40
26.0
 40
26.0
 40
26.0
 40
27.0
 40
27.0
 40
27.0
 40
28.0
 40
28.0
 40
28.0
 40
29.0
 40
29.0
 40
29.0
 40
30.0
 40
30.0
 40
30.0
 40
31.0
 40
31.0
 40
31.0
 40
32.0
 40
32.0
 40
32.0
 40
33.0
 40
33.0
 40
33.0
 40
34.0
 40
34.0
 40
34.0
 40
34.0
 10
304.2473542804631
 20
203.4909708036487
 30
0.0
 10
304.2839496052158
 20
203.357095782485
 30
0.0
 10
304.2901863569944
 20
203.2167380524971
 30
0.0
 10
304.2656092029859
 20
203.0801448513896
 30
0.0
 10
304.2409507082499
 20
202.9430995804119
 30
0.0
 10
304.1902289903222
 20
202.8120575953141
 30
0.0
 10
304.1161942336025
 20
202.6941241290789
 30
0.0
 10
304.08511628219
 20
202.6446185901138
 30
0.0
 10
304.0510351597419
 20
202.5970631384692
 30
0.0
 10
304.0141423106427
 20
202.5517249080563
 30
0.0
 10
303.9772223777899
 20
202.5063533939868
 30
0.0
 10
303.9390121989399
 20
202.4620472140128
 30
0.0
 10
303.8995586490866
 20
202.4188607214971
 30
0.0
 10
303.7769704242002
 20
202.2846736717961
 30
0.0
 10
303.6464120514673
 20
202.1579912761139
 30
0.0
 10
303.508592557504
 20
202.0395015116982
 30
0.0
 10
303.3707028293656
 20
201.9209513637152
 30
0.0
 10
303.228140106204
 20
201.8079474883058
 30
0.0
 10
303.0812442277896
 20
201.7007592631297
 30
0.0
 10
302.9335491349884
 20
201.5929878604266
 30
0.0
 10
302.7827214145282
 20
201.4895764323476
 30
0.0
 10
302.6289560418817
 20
201.3906586591582
 30
0.0
 10
302.4751606096946
 20
201.2917215485614
 30
0.0
 10
302.320481230196
 20
201.1941653061358
 30
0.0
 10
302.1649365531025
 20
201.0980016942772
 30
0.0
 10
302.1649365531025
 20
201.0980016942772
 30
0.0
 10
301.2834949149555
 20
200.561930083909
 30
0.0
 10
301.2834949149555
 20
200.561930083909
 30
0.0
 10
301.2834949149555
 20
200.561930083909
 30
0.0
 10
300.3973650493095
 20
200.0393440045279
 30
0.0
 10
300.3973650493095
 20
200.0393440045279
 30
0.0
 10
300.3973650493095
 20
200.0393440045279
 30
0.0
 10
299.5070298269415
 20
199.5285109358178
 30
0.0
 10
299.5070298269415
 20
199.5285109358178
 30
0.0
 10
299.5070298269415
 20
199.5285109358178
 30
0.0
 10
298.6129721186379
 20
199.027698357401
 30
0.0
 10
298.6129721186379
 20
199.027698357401
 30
0.0
 10
298.4637536374473
 20
198.9450096777671
 30
0.0
 10
298.3143631557825
 20
198.8626317684766
 30
0.0
 10
298.1648016450447
 20
198.7805651651863
 30
0.0
 10
298.0152400934382
 20
198.6984985394705
 30
0.0
 10
297.8655309008234
 20
198.6167012681371
 30
0.0
 10
297.7156747951929
 20
198.5351737489628
 30
0.0
 10
297.7156747951929
 20
198.5351737489628
 30
0.0
 10
296.8156207273827
 20
198.04920459014
 30
0.0
 10
296.8156207273827
 20
198.04920459014
 30
0.0
 10
296.8156207273827
 20
198.04920459014
 30
0.0
 10
295.009173841829
 20
197.090002539922
 30
0.0
 10
295.009173841829
 20
197.090002539922
 30
0.0
 10
295.009173841829
 20
197.090002539922
 30
0.0
 10
291.6232176646751
 20
195.3117616925668
 30
0.0
 10
291.6232176646751
 20
195.3117616925668
 30
0.0
 10
291.6232176646751
 20
195.3117616925668
 30
0.0
 10
289.9284860808338
 20
194.41881236613
 30
0.0
 10
289.9284860808338
 20
194.41881236613
 30
0.0
 10
289.9284860808338
 20
194.41881236613
 30
0.0
 10
288.2352998745651
 20
193.5174799681418
 30
0.0
 10
288.2352998745651
 20
193.5174799681418
 30
0.0
 10
288.2352998745651
 20
193.5174799681418
 30
0.0
 10
287.59214109917
 20
193.1710087100718
 30
0.0
 10
287.59214109917
 20
193.1710087100718
 30
0.0
 10
287.59214109917
 20
193.1710087100718
 30
0.0
 10
286.9513774862431
 20
192.820125269641
 30
0.0
 10
286.9513774862431
 20
192.820125269641
 30
0.0
 10
286.9513774862431
 20
192.820125269641
 30
0.0
 10
286.3148856759193
 20
192.4622644176483
 30
0.0
 10
286.3148856759193
 20
192.4622644176483
 30
0.0
 10
286.1038322830635
 20
192.3416381679107
 30
0.0
 10
285.8938061478664
 20
192.2192233963461
 30
0.0
 10
285.6848299484164
 20
192.0950333209766
 30
0.0
 10
285.4758567947501
 20
191.9708450556381
 30
0.0
 10
285.2683079670001
 20
191.844275558152
 30
0.0
 10
285.0622240235095
 20
191.7153495622079
 30
0.0
 10
284.7534982352349
 20
191.5222108874681
 30
0.0
 10
284.4486401022427
 20
191.3229576563626
 30
0.0
 10
284.1478300886299
 20
191.1177078190059
 30
0.0
 10
283.8470427908926
 20
190.9124734812363
 30
0.0
 10
283.5517252714723
 20
190.6993353026813
 30
0.0
 10
283.262186067254
 20
190.4785159622879
 30
0.0
 10
283.0152586165896
 20
190.2901948092589
 30
0.0
 10
282.7744887458464
 20
190.0939338603151
 30
0.0
 10
282.5402543074978
 20
189.8900411177623
 30
0.0
 10
282.3062116787622
 20
189.6863153386593
 30
0.0
 10
282.0858146123797
 20
189.4674244975872
 30
0.0
 10
281.8804886770063
 20
189.2347844206382
 30
0.0
 10
281.7954438930165
 20
189.1384262812968
 30
0.0
 10
281.7153328395178
 20
189.0378236270505
 30
0.0
 10
281.6404632288159
 20
188.9333628799173
 30
0.0
 10
281.5657858754244
 20
188.8291703770415
 30
0.0
 10
281.5031500505705
 20
188.7168548517066
 30
0.0
 10
281.4537534038919
 20
188.5985638712344
 30
0.0
 10
281.4199183557101
 20
188.5175385123824
 30
0.0
 10
281.3919254516079
 20
188.4341955545185
 30
0.0
 10
281.3699892071235
 20
188.3491736723917
 30
0.0
 10
281.3480450494165
 20
188.2641211196997
 30
0.0
 10
281.3312811953407
 20
188.1778155638169
 30
0.0
 10
281.3197900311843
 20
188.0907326382503
 30
0.0
 10
281.3101048118446
 20
188.0173356156766
 30
0.0
 10
281.304796785365
 20
187.9434271892965
 30
0.0
 10
281.3038941087068
 20
187.8693994136193
 30
0.0
 10
281.3029936567541
 20
187.795554084418
 30
0.0
 10
281.3106418621003
 20
187.7218526092636
 30
0.0
 10
281.3266861072139
 20
187.6497656780204
 30
0.0
  0
SPLINE
  5
BF
330
70
100
AcDbEntity
  8
shade
 62
     6
420
 16711935
370
    25
100
AcDbSpline
210
0.0
220
0.0
230
1.0
 70
     8
 71
     3
 72
    41
 73
    37
 74
     0
 42
0.0000000001
 43
0.0000000001
 40
0.0
 40
0.0
 40
0.0
 40
0.0
 40
1.0
 40
1.0
 40
1.0
 40
2.0
 40
2.0
 40
2.0
 40
3.0
 40
3.0
 40
3.0
 40
4.0
 40
4.0
 40
4.0
 40
5.0
 40
5.0
 40
5.0
 40
6.0
 40
6.0
 40
6.0
 40
7.0
 40
7.0
 40
7.0
 40
8.0
 40
8.0
 40
8.0
 40
9.0
 40
9.0
 40
9.0
 40
10.0
 40
10.0
 40
10.0
 40
11.0
 40
11.0
 40
11.0
 40
12.0
 40
12.0
 40
12.0
 40
12.0
 10
284.4221775703713
 20
197.5486203760409
 30
0.0
 10
284.4110728556112
 20
197.5758511359163
 30
0.0
 10
284.3999987467965
 20
197.6030943668937
 30
0.0
 10
284.3889552648954
 20
197.6303500173258
 30
0.0
 10
284.3779118679565
 20
197.6576054580904
 30
0.0
 10
284.3670228249786
 20
197.6849231860673
 30
0.0
 10
284.3562886591927
 20
197.7123018885911
 30
0.0
 10
284.3376223415042
 20
197.7599124406888
 30
0.0
 10
284.3196865812652
 20
197.8078061932615
 30
0.0
 10
284.3024876932649
 20
197.8559662839702
 30
0.0
 10
284.2852916196412
 20
197.9041184939139
 30
0.0
 10
284.269535288434
 20
197.9527727904982
 30
0.0
 10
284.2552397074343
 20
198.0018643033546
 30
0.0
 10
284.2412776857332
 20
198.0498103621815
 30
0.0
 10
284.2290962252377
 20
198.0982570826061
 30
0.0
 10
284.2187203732796
 20
198.1471048492369
 30
0.0
 10
284.2083467857452
 20
198.1959419553014
 30
0.0
 10
284.2002926795839
 20
198.2452430922611
 30
0.0
 10
284.1945851392527
 20
198.2948424695911
 30
0.0
 10
284.1867177844203
 20
198.3632109573557
 30
0.0
 10
284.1830390965162
 20
198.4319966093661
 30
0.0
 10
284.1835696763912
 20
198.5008142224795
 30
0.0
 10
284.1841003583095
 20
198.569645071166
 30
0.0
 10
284.1883828760991
 20
198.6383958153101
 30
0.0
 10
284.1963981681782
 20
198.7067604439178
 30
0.0
 10
284.207351407027
 20
198.8001836277782
 30
0.0
 10
284.2249434678953
 20
198.8927082382169
 30
0.0
 10
284.249040875919
 20
198.9836322705036
 30
0.0
 10
284.2731435549617
 20
199.0745761913404
 30
0.0
 10
284.3031127363432
 20
199.1638630898081
 30
0.0
 10
284.3387601383363
 20
199.2509320200002
 30
0.0
 10
284.3582568097589
 20
199.2985527224298
 30
0.0
 10
284.3793769894024
 20
199.3454924594927
 30
0.0
 10
284.4020836177278
 20
199.391668866119
 30
0.0
 10
284.4247907501299
 20
199.4378462978207
 30
0.0
 10
284.4490104872276
 20
199.4832644150337
 30
0.0
 10
284.4747035521261
 20
199.5278495636543
 30
0.0
  0
SPLINE
  5
C0
330
70
100
AcDbEntity
  8
shade
 62
     6
420
 16711935
370
    25
100
AcDbSpline
210
0.0
220
0.0
230
1.0
 70
     8
 71
     3
 72
     8
 73
     4
 74
     0
 42
0.0000000001
 43
0.0000000001
 40
0.0
 40
0.0
 40
0.0
 40
0.0
 40
1.0
 40
1.0
 40
1.0
 40
1.0
 10
287.0173978071531
 20
203.248882620375
 30
0.0
 10
286.3840105866558
 20
202.4226661358844
 30
0.0
 10
285.857392726561
 20
201.5198397258268
 30
0.0
 10
285.4500189117838
 20
200.561789818273
 30
0.0
  0
SPLINE
  5
C1
330
70
100
AcDbEntity
  8
shade
 62
     6
420
 16711935
370
    25
100
AcDbSpline
210
0.0
220
0.0
230
1.0
 70
     8
 71
     3
 72
     8
 73
     4
 74
     0
 42
0.0000000001
 43
0.0000000001
 40
0.0
 40
0.0
 40
0.0
 40
0.0
 40
1.0
 40
1.0
 40
1.0
 40
1.0
 10
286.8664567019015
 20
203.2377207847614
 30
0.0
 10
286.2227120930705
 20
202.3903999434831
 30
0.0
 10
285.690924310838
 20
201.4636000795757
 30
0.0
 10
285.2842501111741
 20
200.4802507902585
 30
0.0
  0
LINE
  5
C2
330
70
100
AcDbEntity
  8
shade
 62
     6
420
 16711935
370
    25
100
AcDbLine
 10
287.0173978071451
 20
203.2488826203596
 30
0.0
 11
286.8664567019089
 21
203.2377207847768
 31
0.0
  0
LINE
  5
C3
330
70
100
AcDbEntity
  8
shade
 62
     6
420
 16711935
370
    25
100
AcDbLine
 10
285.2842501111822
 20
200.4802507902746
 30
0.0
 11
285.4500189117838
 21
200.561789818273
 31
0.0
  0
SPLINE
  5
C4
330
70
100
AcDbEntity
  8
shade
 62
     6
420
 16711935
370
    25
100
AcDbSpline
210
0.0
220
0.0
230
1.0
 70
     8
 71
     3
 72
     8
 73
     4
 74
     0
 42
0.0000000001
 43
0.0000000001
 40
0.0
 40
0.0
 40
0.0
 40
0.0
 40
1.0
 40
1.0
 40
1.0
 40
1.0
 10
286.6247507119329
 20
200.4573218033848
 30
0.0
 10
286.1362862015785
 20
199.4651640054696
 30
0.0
 10
285.8230461058909
 20
198.3960196745641
 30
0.0
 10
285.6988716632489
 20
197.2971314265526
 30
0.0
  0
SPLINE
  5
C5
330
70
100
AcDbEntity
  8
shade
 62
     6
420
 16711935
370
    25
100
AcDbSpline
210
0.0
220
0.0
230
1.0
 70
     8
 71
     3
 72
     8
 73
     4
 74
     0
 42
0.0000000001
 43
0.0000000001
 40
0.0
 40
0.0
 40
0.0
 40
0.0
 40
1.0
 40
1.0
 40
1.0
 40
1.0
 10
285.1703354264238
 20
199.8425602165827
 30
0.0
 10
284.668740034083
 20
198.4231795979223
 30
0.0
 10
284.4302855307693
 20
196.9242010436236
 30
0.0
 10
284.4666821535995
 20
195.4192377337392
 30
0.0
  0
SPLINE
  5
C6
330
70
100
AcDbEntity
  8
shade
 62
     6
420
 16711935
370
    25
100
AcDbSpline
210
0.0
220
0.0
230
1.0
 70
     8
 71
     3
 72
     8
 73
     4
 74
     0
 42
0.0000000001
 43
0.0000000001
 40
0.0
 40
0.0
 40
0.0
 40
0.0
 40
1.0
 40
1.0
 40
1.0
 40
1.0
 10
285.0173006182365
 20
199.7745913021951
 30
0.0
 10
284.5360160299554
 20
198.3748560593794
 30
0.0
 10
284.3097032870426
 20
196.900141465042
 30
0.0
 10
284.3491127027505
 20
195.4204994465565
 30
0.0
  0
SPLINE
  5
C7
330
70
100
AcDbEntity
  8
shade
 62
     6
420
 16711935
370
    25
100
AcDbSpline
210
0.0
220
0.0
230
1.0
 70
     8
 71
     3
 72
    47
 73
    43
 74
     0
 42
0.0000000001
 43
0.0000000001
 40
0.0
 40
0.0
 40
0.0
 40
0.0
 40
1.0
 40
1.0
 40
1.0
 40
2.0
 40
2.0
 40
2.0
 40
3.0
 40
3.0
 40
3.0
 40
4.0
 40
4.0
 40
4.0
 40
5.0
 40
5.0
 40
5.0
 40
6.0
 40
6.0
 40
6.0
 40
7.0
 40
7.0
 40
7.0
 40
8.0
 40
8.0
 40
8.0
 40
9.0
 40
9.0
 40
9.0
 40
10.0
 40
10.0
 40
10.0
 40
11.0
 40
11.0
 40
11.0
 40
12.0
 40
12.0
 40
12.0
 40
13.0
 40
13.0
 40
13.0
 40
14.0
 40
14.0
 40
14.0
 40
14.0
 10
288.6525204173164
 20
199.1195298022907
 30
0.0
 10
288.6282836862057
 20
199.1334240375092
 30
0.0
 10
288.6040488365344
 20
199.1473215542312
 30
0.0
 10
288.5798158688157
 20
199.1612223521581
 30
0.0
 10
288.555582903794
 20
199.1751231485399
 30
0.0
 10
288.5313593573331
 20
199.1890403576762
 30
0.0
 10
288.507145246135
 20
199.2029739700112
 30
0.0
 10
288.4587483680062
 20
199.2308231581275
 30
0.0
 10
288.4104118824023
 20
199.2587771661806
 30
0.0
 10
288.3621361296251
 20
199.2868357973725
 30
0.0
 10
288.3138605480508
 20
199.3148943290683
 30
0.0
 10
288.265707108648
 20
199.34316248572
 30
0.0
 10
288.217677175043
 20
199.3716394668694
 30
0.0
 10
288.1338275897433
 20
199.4213539444942
 30
0.0
 10
288.0504880201808
 20
199.4719236402791
 30
0.0
 10
287.9676715096707
 20
199.5233406396938
 30
0.0
 10
287.8848588142794
 20
199.5747552704588
 30
0.0
 10
287.8029255491634
 20
199.627573050455
 30
0.0
 10
287.7219071790403
 20
199.6817711175777
 30
0.0
 10
287.6509645002948
 20
199.7292289479183
 30
0.0
 10
287.5808977767153
 20
199.7779833081366
 30
0.0
 10
287.511742322318
 20
199.828009625763
 30
0.0
 10
287.4425867395889
 20
199.8780360362145
 30
0.0
 10
287.3743437364042
 20
199.9293120142124
 30
0.0
 10
287.3070469480997
 20
199.9818122870681
 30
0.0
 10
287.2725799896993
 20
200.0087010103719
 30
0.0
 10
287.2383267874046
 20
200.0358626169671
 30
0.0
 10
287.2042905717172
 20
200.0632945451599
 30
0.0
 10
287.1702541859144
 20
200.0907266104601
 30
0.0
 10
287.1363978089508
 20
200.1183812751784
 30
0.0
 10
287.1027236186936
 20
200.1462567603815
 30
0.0
 10
287.06899566409
 20
200.174176751723
 30
0.0
 10
287.0354318816075
 20
200.202294475107
 30
0.0
 10
287.0020340058072
 20
200.230608477466
 30
0.0
 10
286.9686360112956
 20
200.2589225804712
 30
0.0
 10
286.9353655558213
 20
200.2873867800142
 30
0.0
 10
286.9022236492573
 20
200.3160002120826
 30
0.0
 10
286.8690347620928
 20
200.3446542053877
 30
0.0
 10
286.8359555181859
 20
200.3734349494623
 30
0.0
 10
286.8029866424391
 20
200.4023418136173
 30
0.0
 10
286.7700176963161
 20
200.431248739482
 30
0.0
 10
286.7371200265074
 20
200.4602368564838
 30
0.0
 10
286.7042939325864
 20
200.4893059006586
 30
0.0
  0
LINE
  5
C8
330
70
100
AcDbEntity
  8
shade
 62
     6
420
 16711935
370
    25
100
AcDbLine
 10
284.4666821535995
 20
195.4192377337392
 30
0.0
 11
284.3491127027505
 21
195.4204994465257
 31
0.0
  0
LINE
  5
C9
330
70
100
AcDbEntity
  8
shade
 62
     6
420
 16711935
370
    25
100
AcDbLine
 10
281.5183198394073
 20
188.7960405713928
 30
0.0
 11
283.7815104822564
 21
194.9947394580585
 31
0.0
  0
SPLINE
  5
CA
330
70
100
AcDbEntity
  8
shade
 62
     6
420
 16711935
370
    25
100
AcDbSpline
210
0.0
220
0.0
230
1.0
 70
     8
 71
     3
 72
    38
 73
    34
 74
     0
 42
0.0000000001
 43
0.0000000001
 40
0.0
 40
0.0
 40
0.0
 40
0.0
 40
1.0
 40
1.0
 40
1.0
 40
2.0
 40
2.0
 40
2.0
 40
3.0
 40
3.0
 40
3.0
 40
4.0
 40
4.0
 40
4.0
 40
5.0
 40
5.0
 40
5.0
 40
6.0
 40
6.0
 40
6.0
 40
7.0
 40
7.0
 40
7.0
 40
8.0
 40
8.0
 40
8.0
 40
9.0
 40
9.0
 40
9.0
 40
10.0
 40
10.0
 40
10.0
 40
11.0
 40
11.0
 40
11.0
 40
11.0
 10
283.7815104822564
 20
194.9947394580585
 30
0.0
 10
283.7815104822564
 20
194.9947394580585
 30
0.0
 10
283.8570838973351
 20
195.202006914266
 30
0.0
 10
283.8570838973351
 20
195.202006914266
 30
0.0
 10
283.8697174638777
 20
195.2365425659628
 30
0.0
 10
283.8823828753283
 20
195.2710665600722
 30
0.0
 10
283.8950801155219
 20
195.3055788525802
 30
0.0
 10
283.9077773517563
 20
195.3400911343006
 30
0.0
 10
283.9205245732702
 20
195.3745850056615
 30
0.0
 10
283.9333217399253
 20
195.409060358068
 30
0.0
 10
283.9461225259578
 20
195.44354546101
 30
0.0
 10
283.958982338925
 20
195.4780086245557
 30
0.0
 10
283.9719011222905
 20
195.5124496972006
 30
0.0
 10
283.9848198989525
 20
195.5468907519929
 30
0.0
 10
283.9978157032266
 20
195.5813028647184
 30
0.0
 10
284.0108884375484
 20
195.6156857770742
 30
0.0
 10
284.0239676945452
 20
195.6500858448759
 30
0.0
 10
284.0371329388196
 20
195.6844531579131
 30
0.0
 10
284.0503840469373
 20
195.7187873939181
 30
0.0
 10
284.0636351454898
 20
195.7531216051471
 30
0.0
 10
284.0769899967652
 20
195.78741568348
 30
0.0
 10
284.0904484177244
 20
195.8216691589105
 30
0.0
 10
284.1095029536559
 20
195.8701654929522
 30
0.0
 10
284.1289115139233
 20
195.9185219815286
 30
0.0
 10
284.148672544905
 20
195.9667347538123
 30
0.0
 10
284.1684320926022
 20
196.0149439071836
 30
0.0
 10
284.1890964376743
 20
196.0627772319684
 30
0.0
 10
284.2106546215171
 20
196.1102093614225
 30
0.0
 10
284.2336029529576
 20
196.1607000815897
 30
0.0
 10
284.2577928452599
 20
196.2106172426254
 30
0.0
 10
284.2832022415708
 20
196.2599153289758
 30
0.0
 10
284.3086133473686
 20
196.3092167319978
 30
0.0
 10
284.3349300275562
 20
196.3580460919595
 30
0.0
 10
284.3621389025614
 20
196.4063785837184
 30
0.0
  0
SPLINE
  5
CB
330
70
100
AcDbEntity
  8
shade
 62
     6
420
 16711935
370
    25
100
AcDbSpline
210
0.0
220
0.0
230
1.0
 70
     8
 71
     3
 72
    32
 73
    28
 74
     0
 42
0.0000000001
 43
0.0000000001
 40
0.0
 40
0.0
 40
0.0
 40
0.0
 40
1.0
 40
1.0
 40
1.0
 40
2.0
 40
2.0
 40
2.0
 40
3.0
 40
3.0
 40
3.0
 40
4.0
 40
4.0
 40
4.0
 40
5.0
 40
5.0
 40
5.0
 40
6.0
 40
6.0
 40
6.0
 40
7.0
 40
7.0
 40
7.0
 40
8.0
 40
8.0
 40
8.0
 40
9.0
 40
9.0
 40
9.0
 40
9.0
 10
285.4923880431239
 20
190.1238475760871
 30
0.0
 10
285.4923880431239
 20
190.1238475760871
 30
0.0
 10
285.4204941714146
 20
190.2718852831778
 30
0.0
 10
285.4204941714146
 20
190.2718852831778
 30
0.0
 10
285.3967076133036
 20
190.3212374478697
 30
0.0
 10
285.3732145925544
 20
190.3707305533929
 30
0.0
 10
285.3500163540025
 20
190.4203619772545
 30
0.0
 10
285.3268187386102
 20
190.4699920679022
 30
0.0
 10
285.3042149686055
 20
190.5198975694743
 30
0.0
 10
285.2822098844512
 20
190.5700677950045
 30
0.0
 10
285.2712273186359
 20
190.5951073631113
 30
0.0
 10
285.2604226195428
 20
190.620224569018
 30
0.0
 10
285.2497966036676
 20
190.645417514647
 30
0.0
 10
285.2391706508743
 20
190.6706103107241
 30
0.0
 10
285.2287617963512
 20
190.6958941257505
 30
0.0
 10
285.2185711974243
 20
190.7212661485259
 30
0.0
 10
285.1889306292085
 20
190.7950636924352
 30
0.0
 10
285.1610848679598
 20
190.8695695018265
 30
0.0
 10
285.1350584924556
 20
190.9447178121795
 30
0.0
 10
285.1090300890665
 20
191.0198719778277
 30
0.0
 10
285.0842543103012
 20
191.0954541401691
 30
0.0
 10
285.0607414491953
 20
191.1714328987996
 30
0.0
 10
285.0371551068379
 20
191.2476491025304
 30
0.0
 10
285.0145504284901
 20
191.3241656412087
 30
0.0
 10
284.9929330274742
 20
191.4009635137762
 30
0.0
 10
284.9713148848476
 20
191.4777640210098
 30
0.0
 10
284.9501057751237
 20
191.5546790772844
 30
0.0
 10
284.9293066000293
 20
191.6317054124979
 30
0.0
  0
SPLINE
  5
CC
330
70
100
AcDbEntity
  8
shade
 62
     6
420
 16711935
370
    25
100
AcDbSpline
210
0.0
220
0.0
230
1.0
 70
     8
 71
     3
 72
    29
 73
    25
 74
     0
 42
0.0000000001
 43
0.0000000001
 40
0.0
 40
0.0
 40
0.0
 40
0.0
 40
1.0
 40
1.0
 40
1.0
 40
2.0
 40
2.0
 40
2.0
 40
3.0
 40
3.0
 40
3.0
 40
4.0
 40
4.0
 40
4.0
 40
5.0
 40
5.0
 40
5.0
 40
6.0
 40
6.0
 40
6.0
 40
7.0
 40
7.0
 40
7.0
 40
8.0
 40
8.0
 40
8.0
 40
8.0
 10
285.3513308801876
 20
190.1238475760871
 30
0.0
 10
285.3273014205059
 20
190.1731404152491
 30
0.0
 10
285.3033450563711
 20
190.2224688537761
 30
0.0
 10
285.2794618667775
 20
190.2718327290121
 30
0.0
 10
285.2555789951701
 20
190.3211959470174
 30
0.0
 10
285.2320640545403
 20
190.3707363325165
 30
0.0
 10
285.2089190008753
 20
190.4204497646913
 30
0.0
 10
285.1819769918574
 20
190.4783187053919
 30
0.0
 10
285.1557664645602
 20
190.5365253971704
 30
0.0
 10
285.130293681865
 20
190.5950559318457
 30
0.0
 10
285.1048224632458
 20
190.6535828726369
 30
0.0
 10
285.0805315210451
 20
190.7126164283038
 30
0.0
 10
285.0574356056461
 20
190.7721207513949
 30
0.0
 10
285.0277324222257
 20
190.8486480417445
 30
0.0
 10
284.9998419931375
 20
190.9258666342607
 30
0.0
 10
284.9737876787839
 20
191.0037118523443
 30
0.0
 10
284.9477312926343
 20
191.0815632605752
 30
0.0
 10
284.9228838253564
 20
191.1598140807743
 30
0.0
 10
284.8992542400143
 20
191.2384360860928
 30
0.0
 10
284.8834564272024
 20
191.290999671315
 30
0.0
 10
284.8680853282798
 20
191.3436905608791
 30
0.0
 10
284.8531424608401
 20
191.3965035526053
 30
0.0
 10
284.8381994246011
 20
191.4493171409255
 30
0.0
 10
284.8234963841198
 20
191.5021983391858
 30
0.0
 10
284.8090337945201
 20
191.555145510468
 30
0.0
  0
LINE
  5
CD
330
70
100
AcDbEntity
  8
shade
 62
     6
420
 16711935
370
    25
100
AcDbLine
 10
285.3513308801876
 20
190.1238475760871
 30
0.0
 11
285.4923880431239
 21
190.1238475760871
 31
0.0
  0
SPLINE
  5
CE
330
70
100
AcDbEntity
  8
shade
 62
     6
420
 16711935
370
    25
100
AcDbSpline
210
0.0
220
0.0
230
1.0
 70
     8
 71
     3
 72
    23
 73
    19
 74
     0
 42
0.0000000001
 43
0.0000000001
 40
0.0
 40
0.0
 40
0.0
 40
0.0
 40
1.0
 40
1.0
 40
1.0
 40
2.0
 40
2.0
 40
2.0
 40
3.0
 40
3.0
 40
3.0
 40
4.0
 40
4.0
 40
4.0
 40
5.0
 40
5.0
 40
5.0
 40
6.0
 40
6.0
 40
6.0
 40
6.0
 10
285.4923880431239
 20
190.1238475760871
 30
0.0
 10
285.488208508927
 20
190.2071903498637
 30
0.0
 10
285.4840621031823
 20
190.2905347815967
 30
0.0
 10
285.479948826875
 20
190.373880851717
 30
0.0
 10
285.4757361638714
 20
190.4572219673926
 30
0.0
 10
285.4715897571414
 20
190.5405664189342
 30
0.0
 10
285.4675096106187
 20
190.6239141273295
 30
0.0
 10
285.4675096106187
 20
190.6239141273295
 30
0.0
 10
285.4554431806268
 20
190.873964237462
 30
0.0
 10
285.4554431806268
 20
190.873964237462
 30
0.0
 10
285.4554431806268
 20
190.873964237462
 30
0.0
 10
285.4438240941497
 20
191.1240345489977
 30
0.0
 10
285.4438240941497
 20
191.1240345489977
 30
0.0
 10
285.4438240941497
 20
191.1240345489977
 30
0.0
 10
285.4262362175855
 20
191.526761119756
 30
0.0
 10
285.4262362175855
 20
191.526761119756
 30
0.0
 10
285.4262362175855
 20
191.526761119756
 30
0.0
 10
285.4096445896177
 20
191.9295326797158
 30
0.0
 10
285.4096445896177
 20
191.9295326797158
 30
0.0
  0
LINE
  5
CF
330
70
100
AcDbEntity
  8
shade
 62
     6
420
 16711935
370
    25
100
AcDbLine
 10
284.8297638539157
 20
190.2761256291623
 30
0.0
 11
285.6385811513926
 21
185.0438815207056
 31
0.0
  0
SPLINE
  5
D0
330
70
100
AcDbEntity
  8
shade
 62
     6
420
 16711935
370
    25
100
AcDbSpline
210
0.0
220
0.0
230
1.0
 70
     8
 71
     3
 72
   215
 73
   211
 74
     0
 42
0.0000000001
 43
0.0000000001
 40
0.0
 40
0.0
 40
0.0
 40
0.0
 40
1.0
 40
1.0
 40
1.0
 40
2.0
 40
2.0
 40
2.0
 40
3.0
 40
3.0
 40
3.0
 40
4.0
 40
4.0
 40
4.0
 40
5.0
 40
5.0
 40
5.0
 40
6.0
 40
6.0
 40
6.0
 40
7.0
 40
7.0
 40
7.0
 40
8.0
 40
8.0
 40
8.0
 40
9.0
 40
9.0
 40
9.0
 40
10.0
 40
10.0
 40
10.0
 40
11.0
 40
11.0
 40
11.0
 40
12.0
 40
12.0
 40
12.0
 40
13.0
 40
13.0
 40
13.0
 40
14.0
 40
14.0
 40
14.0
 40
15.0
 40
15.0
 40
15.0
 40
16.0
 40
16.0
 40
16.0
 40
17.0
 40
17.0
 40
17.0
 40
18.0
 40
18.0
 40
18.0
 40
19.0
 40
19.0
 40
19.0
 40
20.0
 40
20.0
 40
20.0
 40
21.0
 40
21.0
 40
21.0
 40
22.0
 40
22.0
 40
22.0
 40
23.0
 40
23.0
 40
23.0
 40
24.0
 40
24.0
 40
24.0
 40
25.0
 40
25.0
 40
25.0
 40
26.0
 40
26.0
 40
26.0
 40
27.0
 40
27.0
 40
27.0
 40
28.0
 40
28.0
 40
28.0
 40
29.0
 40
29.0
 40
29.0
 40
30.0
 40
30.0
 40
30.0
 40
31.0
 40
31.0
 40
31.0
 40
32.0
 40
32.0
 40
32.0
 40
33.0
 40
33.0
 40
33.0
 40
34.0
 40
34.0
 40
34.0
 40
35.0
 40
35.0
 40
35.0
 40
36.0
 40
36.0
 40
36.0
 40
37.0
 40
37.0
 40
37.0
 40
38.0
 40
38.0
 40
38.0
 40
39.0
 40
39.0
 40
39.0
 40
40.0
 40
40.0
 40
40.0
 40
41.0
 40
41.0
 40
41.0
 40
42.0
 40
42.0
 40
42.0
 40
43.0
 40
43.0
 40
43.0
 40
44.0
 40
44.0
 40
44.0
 40
45.0
 40
45.0
 40
45.0
 40
46.0
 40
46.0
 40
46.0
 40
47.0
 40
47.0
 40
47.0
 40
48.0
 40
48.0
 40
48.0
 40
49.0
 40
49.0
 40
49.0
 40
50.0
 40
50.0
 40
50.0
 40
51.0
 40
51.0
 40
51.0
 40
52.0
 40
52.0
 40
52.0
 40
53.0
 40
53.0
 40
53.0
 40
54.0
 40
54.0
 40
54.0
 40
55.0
 40
55.0
 40
55.0
 40
56.0
 40
56.0
 40
56.0
 40
57.0
 40
57.0
 40
57.0
 40
58.0
 40
58.0
 40
58.0
 40
59.0
 40
59.0
 40
59.0
 40
60.0
 40
60.0
 40
60.0
 40
61.0
 40
61.0
 40
61.0
 40
62.0
 40
62.0
 40
62.0
 40
63.0
 40
63.0
 40
63.0
 40
64.0
 40
64.0
 40
64.0
 40
65.0
 40
65.0
 40
65.0
 40
66.0
 40
66.0
 40
66.0
 40
67.0
 40
67.0
 40
67.0
 40
68.0
 40
68.0
 40
68.0
 40
69.0
 40
69.0
 40
69.0
 40
70.0
 40
70.0
 40
70.0
 40
70.0
 10
288.6882826531956
 20
183.9908488810079
 30
0.0
 10
288.4928212281785
 20
184.0221588160116
 30
0.0
 10
288.2974282386523
 20
184.0538944947975
 30
0.0
 10
288.1021050753349
 20
184.086055691485
 30
0.0
 10
287.8935164060976
 20
184.120401137765
 30
0.0
 10
287.6853271725149
 20
184.1571299486809
 30
0.0
 10
287.4775781811007
 20
184.1962349251108
 30
0.0
 10
287.3754140738468
 20
184.2154654637426
 30
0.0
 10
287.2734327333744
 20
184.235654588587
 30
0.0
 10
287.1716476382145
 20
184.2567996312759
 30
0.0
 10
287.0698708697916
 20
184.2779429441739
 30
0.0
 10
286.9685355667052
 20
184.3011582509538
 30
0.0
 10
286.8677048481412
 20
184.326431091409
 30
0.0
 10
286.7459342785734
 20
184.3569524267723
 30
0.0
 10
286.625104323242
 20
184.3911108954734
 30
0.0
 10
286.5053772139113
 20
184.4288606348039
 30
0.0
 10
286.3857225915714
 20
184.4665875191248
 30
0.0
 10
286.2683399840719
 20
184.5111740908974
 30
0.0
 10
286.1538124080821
 20
184.5623988972743
 30
0.0
 10
286.0926804043098
 20
184.5897414392744
 30
0.0
 10
286.0331883074069
 20
184.6206119777026
 30
0.0
 10
285.9756367271188
 20
184.6548545257159
 30
0.0
 10
285.9181586335546
 20
184.6890533499283
 30
0.0
 10
285.8639514075696
 20
184.7284717291428
 30
0.0
 10
285.8137014553172
 20
184.7726105229266
 30
0.0
 10
285.7832691339494
 20
184.7993418111588
 30
0.0
 10
285.7546993397794
 20
184.8281217423801
 30
0.0
 10
285.7281917824988
 20
184.8587491379898
 30
0.0
 10
285.7017884117524
 20
184.88925615426
 30
0.0
 10
285.6798746385593
 20
184.9233756982815
 30
0.0
 10
285.6631134313549
 20
184.9600755342649
 30
0.0
 10
285.6375646092605
 20
185.0160164679653
 30
0.0
 10
285.6291020603332
 20
185.0782558045894
 30
0.0
 10
285.6387871665199
 20
185.1389874198434
 30
0.0
 10
285.6486111227689
 20
185.2005897109737
 30
0.0
 10
285.6692327549387
 20
185.2599741044647
 30
0.0
 10
285.6997027711631
 20
185.3144069116705
 30
0.0
 10
285.7086979173391
 20
185.3304761862709
 30
0.0
 10
285.7183946693876
 20
185.3461425330827
 30
0.0
 10
285.7287649825461
 20
185.361360642215
 30
0.0
 10
285.7391367563988
 20
185.3765808948749
 30
0.0
 10
285.750067689387
 20
185.3914124923811
 30
0.0
 10
285.7615353855864
 20
185.4058250468991
 30
0.0
 10
285.7869567290206
 20
185.4377744892012
 30
0.0
 10
285.8146717367123
 20
185.4678296086179
 30
0.0
 10
285.8444603767836
 20
185.4957517949301
 30
0.0
 10
285.874271748548
 20
185.5236952886562
 30
0.0
 10
285.9053942330416
 20
185.5502062757219
 30
0.0
 10
285.9377225176697
 20
185.5751950479999
 30
0.0
 10
285.9704685285443
 20
185.6005067098384
 30
0.0
 10
286.0040928442083
 20
185.6246612494002
 30
0.0
 10
286.0385333711809
 20
185.6476140608793
 30
0.0
 10
286.0729834245765
 20
185.6705732212035
 30
0.0
 10
286.1076899077665
 20
185.693145262615
 30
0.0
 10
286.1426462719444
 20
185.715325925941
 30
0.0
 10
286.3484955236722
 20
185.8459422831063
 30
0.0
 10
286.5584393598933
 20
185.9699909716122
 30
0.0
 10
286.7721605790098
 20
186.0872845677507
 30
0.0
 10
286.9859037932473
 20
186.2045902351644
 30
0.0
 10
287.2024794439996
 20
186.316659360258
 30
0.0
 10
287.4216939021993
 20
186.4233917478262
 30
0.0
 10
287.5282726042426
 20
186.4752833950513
 30
0.0
 10
287.6353810179142
 20
186.5260799539379
 30
0.0
 10
287.7430022245763
 20
186.5757734007632
 30
0.0
 10
287.8506244096024
 20
186.6254672993613
 30
0.0
 10
287.9586573733444
 20
186.6742666993568
 30
0.0
 10
288.0670899431487
 20
186.7221665539836
 30
0.0
 10
288.1214318469321
 20
186.7461719731804
 30
0.0
 10
288.1758647363412
 20
186.7699708947218
 30
0.0
 10
288.2303874333902
 20
186.7935628035787
 30
0.0
 10
288.2849101770965
 20
186.8171547326228
 30
0.0
 10
288.3395110343867
 20
186.8405657236118
 30
0.0
 10
288.3941891039521
 20
186.8637953901095
 30
0.0
 10
288.3941891039521
 20
186.8637953901095
 30
0.0
 10
289.054366124121
 20
187.1358046975681
 30
0.0
 10
289.054366124121
 20
187.1358046975681
 30
0.0
 10
289.054366124121
 20
187.1358046975681
 30
0.0
 10
289.7187499662946
 20
187.3985078774277
 30
0.0
 10
289.7187499662946
 20
187.3985078774277
 30
0.0
 10
289.7187499662946
 20
187.3985078774277
 30
0.0
 10
291.492975680205
 20
188.0841161514476
 30
0.0
 10
291.492975680205
 20
188.0841161514476
 30
0.0
 10
291.6408837118817
 20
188.1404765219226
 30
0.0
 10
291.7888627774571
 20
188.1966502994107
 30
0.0
 10
291.9369125237537
 20
188.2526373498329
 30
0.0
 10
292.0849622632375
 20
188.3086243976832
 30
0.0
 10
292.2330865357795
 20
188.3644141548891
 30
0.0
 10
292.3812849469144
 20
188.4200064729083
 30
0.0
 10
292.5294963959714
 20
188.4756036817215
 30
0.0
 10
292.6777838002925
 20
188.5309981977565
 30
0.0
 10
292.8261467439646
 20
188.5861898656268
 30
0.0
 10
292.9745096805473
 20
188.6413815308641
 30
0.0
 10
293.122951775662
 20
188.6963601729404
 30
0.0
 10
293.2714725703884
 20
188.7511256218677
 30
0.0
 10
293.2714725703884
 20
188.7511256218677
 30
0.0
 10
294.8414587491937
 20
189.3250577190286
 30
0.0
 10
294.8414587491937
 20
189.3250577190286
 30
0.0
 10
294.8414587491937
 20
189.3250577190286
 30
0.0
 10
296.4100516241066
 20
189.9049632586763
 30
0.0
 10
296.4100516241066
 20
189.9049632586763
 30
0.0
 10
296.4100516241066
 20
189.9049632586763
 30
0.0
 10
297.1907919732824
 20
190.2037503302428
 30
0.0
 10
297.1907919732824
 20
190.2037503302428
 30
0.0
 10
297.1907919732824
 20
190.2037503302428
 30
0.0
 10
297.9675436773085
 20
190.5119438753774
 30
0.0
 10
297.9675436773085
 20
190.5119438753774
 30
0.0
 10
297.9675436773085
 20
190.5119438753774
 30
0.0
 10
298.7390932964456
 20
190.8321815983889
 30
0.0
 10
298.7390932964456
 20
190.8321815983889
 30
0.0
 10
298.7390932964456
 20
190.8321815983889
 30
0.0
 10
299.5042273909706
 20
191.1671012036181
 30
0.0
 10
299.5042273909706
 20
191.1671012036181
 30
0.0
 10
299.5042273909706
 20
191.1671012036181
 30
0.0
 10
300.0048301267213
 20
191.3971231661335
 30
0.0
 10
300.0048301267213
 20
191.3971231661335
 30
0.0
 10
300.0048301267213
 20
191.3971231661335
 30
0.0
 10
300.5021833728542
 20
191.6343326950986
 30
0.0
 10
300.5021833728542
 20
191.6343326950986
 30
0.0
 10
300.5021833728542
 20
191.6343326950986
 30
0.0
 10
300.996356137869
 20
191.8783835670275
 30
0.0
 10
300.996356137869
 20
191.8783835670275
 30
0.0
 10
300.996356137869
 20
191.8783835670275
 30
0.0
 10
301.4874174302405
 20
192.1289295584823
 30
0.0
 10
301.4874174302405
 20
192.1289295584823
 30
0.0
 10
301.5690146453139
 20
192.1712139761066
 30
0.0
 10
301.6504812386713
 20
192.2137499823529
 30
0.0
 10
301.7318160476561
 20
192.2565369701873
 30
0.0
 10
301.8131508694306
 20
192.2993239647551
 30
0.0
 10
301.8943579671504
 20
192.3423533145054
 30
0.0
 10
301.9754362584522
 20
192.3856244459459
 30
0.0
 10
301.9754362584522
 20
192.3856244459459
 30
0.0
 10
302.4604816309808
 20
192.6481220059635
 30
0.0
 10
302.4604816309808
 20
192.6481220059635
 30
0.0
 10
302.5410833447914
 20
192.6923385388555
 30
0.0
 10
302.6215621578442
 20
192.736778737575
 30
0.0
 10
302.7019171398735
 20
192.7814420884645
 30
0.0
 10
302.7822721330921
 20
192.8261054455515
 30
0.0
 10
302.8625075587196
 20
192.8709835815169
 30
0.0
 10
302.9426225563002
 20
192.9160760150649
 30
0.0
 10
303.0227425767039
 20
192.961171275709
 30
0.0
 10
303.1027441666566
 20
193.0064766273378
 30
0.0
 10
303.1826265004367
 20
193.0519916023465
 30
0.0
 10
303.2625088446171
 20
193.0975065833005
 30
0.0
 10
303.3422762790954
 20
193.143222944479
 30
0.0
 10
303.4219280429027
 20
193.1891402497818
 30
0.0
 10
303.5838007857557
 20
193.2824559504799
 30
0.0
 10
303.7450966137822
 20
193.3767688571175
 30
0.0
 10
303.9058063288343
 20
193.4720735913422
 30
0.0
 10
304.0665130914003
 20
193.5673765746904
 30
0.0
 10
304.2262090190941
 20
193.6643738895057
 30
0.0
 10
304.384867403354
 20
193.7630493133489
 30
0.0
 10
304.4641382740376
 20
193.8123507530369
 30
0.0
 10
304.5431074798818
 20
193.8621355876639
 30
0.0
 10
304.6217706078081
 20
193.9124010350319
 30
0.0
 10
304.7004334467973
 20
193.9626662977762
 30
0.0
 10
304.7787329745335
 20
194.0134978744161
 30
0.0
 10
304.8566630898283
 20
194.0648918040766
 30
0.0
 10
305.0125693945048
 20
194.1677100486749
 30
0.0
 10
305.1668124287622
 20
194.2730284326582
 30
0.0
 10
305.3193323862384
 20
194.3808061197218
 30
0.0
 10
305.4718463132336
 20
194.4885795453885
 30
0.0
 10
305.6221444185326
 20
194.5994549449907
 30
0.0
 10
305.7701327839264
 20
194.7133630347511
 30
0.0
 10
306.0412983676893
 20
194.9220818321537
 30
0.0
 10
306.303502222146
 20
195.1421919197431
 30
0.0
 10
306.5560394447085
 20
195.3731015588427
 30
0.0
 10
306.808489957481
 20
195.6039319140758
 30
0.0
 10
307.0477509275129
 20
195.8487855455211
 30
0.0
 10
307.2726876640555
 20
196.106501239368
 30
0.0
 10
307.4476128624965
 20
196.3069174522729
 30
0.0
 10
307.6109418740842
 20
196.5171664094316
 30
0.0
 10
307.7618758980023
 20
196.7362198364058
 30
0.0
 10
307.9126139868119
 20
196.954988899035
 30
0.0
 10
308.0429178232314
 20
197.1871544115842
 30
0.0
 10
308.1511419436605
 20
197.4297846115587
 30
0.0
 10
308.2549163889543
 20
197.6624389802555
 30
0.0
 10
308.3329099385758
 20
197.9057545916013
 30
0.0
 10
308.3837289016993
 20
198.1553835637904
 30
0.0
 10
308.4345003180256
 20
198.4047789802691
 30
0.0
 10
308.4538073975159
 20
198.6595554294666
 30
0.0
 10
308.4411985582988
 20
198.9137538316089
 30
0.0
 10
308.4291469653789
 20
199.1567179626125
 30
0.0
 10
308.3866944360634
 20
199.3972140930842
 30
0.0
 10
308.3148333017712
 20
199.6296206059486
 30
0.0
 10
308.2430656658106
 20
199.8617247352765
 30
0.0
 10
308.1381290133598
 20
200.0822379905689
 30
0.0
 10
308.0032775009161
 20
200.284322106754
 30
0.0
 10
307.9215400571645
 20
200.406811197017
 30
0.0
 10
307.8309366766753
 20
200.5231460401396
 30
0.0
 10
307.7321951816791
 20
200.6323921115285
 30
0.0
 10
307.6333844493321
 20
200.7417147860368
 30
0.0
 10
307.5290964595499
 20
200.845959230256
 30
0.0
 10
307.4197325274081
 20
200.9447242966392
 30
0.0
 10
307.2890724209406
 20
201.0627216458288
 30
0.0
 10
307.1529448768535
 20
201.1745200160822
 30
0.0
 10
307.0117994169783
 20
201.2797502256068
 30
0.0
 10
306.8706034086012
 20
201.3850181212677
 30
0.0
 10
306.7265094896157
 20
201.4863421529451
 30
0.0
 10
306.579684492427
 20
201.5836050073152
 30
0.0
 10
306.3054977709991
 20
201.7652374518487
 30
0.0
 10
306.021666757949
 20
201.9318733601722
 30
0.0
 10
305.7294406607064
 20
202.0827793282566
 30
0.0
 10
305.4372157596408
 20
202.233684678631
 30
0.0
 10
305.1370039253254
 20
202.3685936176856
 30
0.0
 10
304.8301338071873
 20
202.4869090780849
 30
0.0
 10
304.8301338071873
 20
202.4869090780849
 30
0.0
 10
304.4717429167885
 20
202.6180542314868
 30
0.0
 10
304.4717429167885
 20
202.6180542314868
 30
0.0
 10
304.4717429167885
 20
202.6180542314868
 30
0.0
 10
304.1100165055971
 20
202.7420441046023
 30
0.0
 10
304.1100165055971
 20
202.7420441046023
 30
0.0
  0
SPLINE
  5
D1
330
70
100
AcDbEntity
  8
shade
 62
     6
420
 16711935
370
    25
100
AcDbSpline
210
0.0
220
0.0
230
1.0
 70
     8
 71
     3
 72
    68
 73
    64
 74
     0
 42
0.0000000001
 43
0.0000000001
 40
0.0
 40
0.0
 40
0.0
 40
0.0
 40
1.0
 40
1.0
 40
1.0
 40
2.0
 40
2.0
 40
2.0
 40
3.0
 40
3.0
 40
3.0
 40
4.0
 40
4.0
 40
4.0
 40
5.0
 40
5.0
 40
5.0
 40
6.0
 40
6.0
 40
6.0
 40
7.0
 40
7.0
 40
7.0
 40
8.0
 40
8.0
 40
8.0
 40
9.0
 40
9.0
 40
9.0
 40
10.0
 40
10.0
 40
10.0
 40
11.0
 40
11.0
 40
11.0
 40
12.0
 40
12.0
 40
12.0
 40
13.0
 40
13.0
 40
13.0
 40
14.0
 40
14.0
 40
14.0
 40
15.0
 40
15.0
 40
15.0
 40
16.0
 40
16.0
 40
16.0
 40
17.0
 40
17.0
 40
17.0
 40
18.0
 40
18.0
 40
18.0
 40
19.0
 40
19.0
 40
19.0
 40
20.0
 40
20.0
 40
20.0
 40
21.0
 40
21.0
 40
21.0
 40
21.0
 10
288.6847704834791
 20
183.9981878879642
 30
0.0
 10
288.5045746747759
 20
184.0271153535862
 30
0.0
 10
288.3244371433224
 20
184.0564046804918
 30
0.0
 10
288.1443589789394
 20
184.0860556914696
 30
0.0
 10
287.935770309702
 20
184.120401137765
 30
0.0
 10
287.7275810761194
 20
184.1571299486809
 30
0.0
 10
287.5198320847048
 20
184.1962349251108
 30
0.0
 10
287.4176679774429
 20
184.2154654637426
 30
0.0
 10
287.3156866369789
 20
184.235654588587
 30
0.0
 10
287.2139015418186
 20
184.2567996312759
 30
0.0
 10
287.1121247733961
 20
184.2779429441739
 30
0.0
 10
287.0107894703094
 20
184.3011582509538
 30
0.0
 10
286.9099587517458
 20
184.326431091409
 30
0.0
 10
286.7881881821696
 20
184.3569524267723
 30
0.0
 10
286.6673582268382
 20
184.3911108954734
 30
0.0
 10
286.5476311175154
 20
184.4288606348039
 30
0.0
 10
286.4279764951679
 20
184.4665875191248
 30
0.0
 10
286.3105938876757
 20
184.5111740908974
 30
0.0
 10
286.1960663116864
 20
184.5623988972743
 30
0.0
 10
286.1556464126276
 20
184.5804775258088
 30
0.0
 10
286.1158851618466
 20
184.5999941471132
 30
0.0
 10
286.0768586050336
 20
184.6209114345061
 30
0.0
 10
286.0378466004796
 20
184.6418209222552
 30
0.0
 10
285.9999614665468
 20
184.6647680188743
 30
0.0
 10
285.9633602225812
 20
184.6896576174583
 30
0.0
 10
285.9333336615144
 20
184.7100762964646
 30
0.0
 10
285.9042695946102
 20
184.7318756685106
 30
0.0
 10
285.8762615709495
 20
184.7549855675122
 30
0.0
 10
285.8482664120362
 20
184.7780848516021
 30
0.0
 10
285.8217572459773
 20
184.8029282211163
 30
0.0
 10
285.7968921935256
 20
184.8293674914097
 30
0.0
 10
285.7785654301484
 20
184.8488545305591
 30
0.0
 10
285.761472924269
 20
184.869466532994
 30
0.0
 10
285.7457143782518
 20
184.8910832667327
 30
0.0
 10
285.7299805647411
 20
184.9126660737611
 30
0.0
 10
285.7164631751026
 20
184.9357804158669
 30
0.0
 10
285.7053673349674
 20
184.9600755342649
 30
0.0
 10
285.676028061271
 20
185.0243159269608
 30
0.0
 10
285.6688591356107
 20
185.0964823600172
 30
0.0
 10
285.6849866097201
 20
185.1652393641256
 30
0.0
 10
285.7014325069075
 20
185.2353539160115
 30
0.0
 10
285.7306104090369
 20
185.301853617166
 30
0.0
 10
285.7710695244962
 20
185.3614319512922
 30
0.0
 10
285.7876797335302
 20
185.3858914228385
 30
0.0
 10
285.805752229013
 20
185.4093252389206
 30
0.0
 10
285.8251882805567
 20
185.4316053801507
 30
0.0
 10
285.8446313449747
 20
185.4538935604504
 30
0.0
 10
285.8651106761736
 20
185.475256090016
 30
0.0
 10
285.8865585612073
 20
185.4956223356898
 30
0.0
 10
285.9313956523216
 20
185.5381982452317
 30
0.0
 10
285.979412978134
 20
185.5772943894983
 30
0.0
 10
286.0301932309282
 20
185.6125709927778
 30
0.0
 10
286.0810418214048
 20
185.6478950696633
 30
0.0
 10
286.1326220318215
 20
185.6821541721604
 30
0.0
 10
286.1849001755489
 20
185.715325925941
 30
0.0
 10
286.3907494272766
 20
185.8459422831063
 30
0.0
 10
286.6006932634978
 20
185.9699909716122
 30
0.0
 10
286.8144144826063
 20
186.0872845677507
 30
0.0
 10
287.0235740374436
 20
186.2107514659719
 30
0.0
 10
287.2369558233422
 20
186.3269217448901
 30
0.0
 10
287.4541745072435
 20
186.4355856197497
 30
0.0
 10
287.4715488093539
 20
186.4440675689836
 30
0.0
 10
287.4884802525616
 20
186.4534281172045
 30
0.0
 10
287.5049031611176
 20
186.4636309555828
 30
0.0
  0
LINE
  5
D2
330
70
100
AcDbEntity
  8
shade
 62
     6
420
 16711935
370
    25
100
AcDbLine
 10
287.5049031611176
 20
186.4636309555828
 30
0.0
 11
288.7349341552664
 21
183.8933662062949
 31
0.0
  0
SPLINE
  5
D3
330
70
100
AcDbEntity
  8
shade
 62
     6
420
 16711935
370
    25
100
AcDbSpline
210
0.0
220
0.0
230
1.0
 70
     8
 71
     3
 72
    29
 73
    25
 74
     0
 42
0.0000000001
 43
0.0000000001
 40
0.0
 40
0.0
 40
0.0
 40
0.0
 40
1.0
 40
1.0
 40
1.0
 40
2.0
 40
2.0
 40
2.0
 40
3.0
 40
3.0
 40
3.0
 40
4.0
 40
4.0
 40
4.0
 40
5.0
 40
5.0
 40
5.0
 40
6.0
 40
6.0
 40
6.0
 40
7.0
 40
7.0
 40
7.0
 40
8.0
 40
8.0
 40
8.0
 40
8.0
 10
290.6210197003278
 20
183.5304997481678
 30
0.0
 10
290.2148221329176
 20
183.5695481540909
 30
0.0
 10
289.8086245654994
 20
183.6085965599974
 30
0.0
 10
289.4031726705158
 20
183.6610286126614
 30
0.0
 10
289.1981136882298
 20
183.6875463413825
 30
0.0
 10
288.993245439448
 20
183.7174874365648
 30
0.0
 10
288.8058870868193
 20
183.8252821481804
 30
0.0
 10
288.7748372149115
 20
183.8431463743706
 30
0.0
 10
288.7442682455492
 20
183.8631488201218
 30
0.0
 10
288.7312263888579
 20
183.8957431818864
 30
0.0
 10
288.7184937851452
 20
183.9275646549824
 30
0.0
 10
288.7224669313786
 20
183.9713879565774
 30
0.0
 10
288.7458085564331
 20
183.9949019213751
 30
0.0
 10
288.7527678788616
 20
184.0019126270162
 30
0.0
 10
288.7614489400409
 20
184.0071179574366
 30
0.0
 10
288.7700969792891
 20
184.0123093839033
 30
0.0
 10
288.8201959535806
 20
184.0423838474762
 30
0.0
 10
288.8691867107665
 20
184.0719916941715
 30
0.0
 10
288.9193363505216
 20
184.1000302356925
 30
0.0
 10
289.0314543920313
 20
184.1627151597971
 30
0.0
 10
289.1493647836226
 20
184.2175563513002
 30
0.0
 10
289.2699640117656
 20
184.2638703741995
 30
0.0
 10
289.5104733933436
 20
184.3562337929168
 30
0.0
 10
289.7616767554842
 20
184.4146831475095
 30
0.0
 10
290.0128801176246
 20
184.473132502119
 30
0.0
  0
LINE
  5
D4
330
70
100
AcDbEntity
  8
shade
 62
     6
420
 16711935
370
    25
100
AcDbLine
 10
290.0128801176246
 20
184.473132502119
 30
0.0
 11
290.6210197003278
 21
183.5304997481678
 31
0.0
  0
SPLINE
  5
D5
330
70
100
AcDbEntity
  8
shade
 62
     6
420
 16711935
370
    25
100
AcDbSpline
210
0.0
220
0.0
230
1.0
 70
     8
 71
     3
 72
    62
 73
    58
 74
     0
 42
0.0000000001
 43
0.0000000001
 40
0.0
 40
0.0
 40
0.0
 40
0.0
 40
1.0
 40
1.0
 40
1.0
 40
2.0
 40
2.0
 40
2.0
 40
3.0
 40
3.0
 40
3.0
 40
4.0
 40
4.0
 40
4.0
 40
5.0
 40
5.0
 40
5.0
 40
6.0
 40
6.0
 40
6.0
 40
7.0
 40
7.0
 40
7.0
 40
8.0
 40
8.0
 40
8.0
 40
9.0
 40
9.0
 40
9.0
 40
10.0
 40
10.0
 40
10.0
 40
11.0
 40
11.0
 40
11.0
 40
12.0
 40
12.0
 40
12.0
 40
13.0
 40
13.0
 40
13.0
 40
14.0
 40
14.0
 40
14.0
 40
15.0
 40
15.0
 40
15.0
 40
16.0
 40
16.0
 40
16.0
 40
17.0
 40
17.0
 40
17.0
 40
18.0
 40
18.0
 40
18.0
 40
19.0
 40
19.0
 40
19.0
 40
19.0
 10
291.7812329703831
 20
183.4426300625444
 30
0.0
 10
291.2227659991711
 20
183.4511583548062
 30
0.0
 10
291.1009204403936
 20
183.4504259506514
 30
0.0
 10
290.9942650329519
 20
183.4520211505155
 30
0.0
 10
290.8987410387767
 20
183.4534498625174
 30
0.0
 10
290.8154019255304
 20
183.4567456775935
 30
0.0
 10
290.6823312686863
 20
183.4924570088435
 30
0.0
 10
290.650048730948
 20
183.5011204694803
 30
0.0
 10
290.6148393283288
 20
183.5116916898544
 30
0.0
 10
290.6159009299973
 20
183.530004591574
 30
0.0
 10
290.6165852084712
 20
183.5418085712327
 30
0.0
 10
290.6323391019067
 20
183.5568290087549
 30
0.0
 10
290.6476719615469
 20
183.5675521743032
 30
0.0
 10
290.6702532897895
 20
183.5833446179192
 30
0.0
 10
290.6919214102508
 20
183.5898164267969
 30
0.0
 10
290.7141023002281
 20
183.5964349302543
 30
0.0
 10
290.7829841574227
 20
183.6169884252158
 30
0.0
 10
290.8568111019779
 20
183.6389566250405
 30
0.0
 10
290.9307229698613
 20
183.6570887177552
 30
0.0
 10
291.1294979143433
 20
183.7058522766711
 30
0.0
 10
291.3288870758982
 20
183.726870776729
 30
0.0
 10
291.5285960180226
 20
183.7495135367892
 30
0.0
 10
291.9808100462946
 20
183.8007850203664
 30
0.0
 10
292.4346637017714
 20
183.8603846549504
 30
0.0
 10
292.8877359908801
 20
183.920747018503
 30
0.0
 10
293.4013068456524
 20
183.9891695448538
 30
0.0
 10
293.9138737310824
 20
184.0585720935315
 30
0.0
 10
294.4267742722315
 20
184.1270524181447
 30
0.0
 10
295.1160215707664
 20
184.2190778206377
 30
0.0
 10
295.8058714044772
 20
184.3094378165251
 30
0.0
 10
296.4939543766615
 20
184.4117538696555
 30
0.0
 10
297.0565044221942
 20
184.4954035204582
 30
0.0
 10
297.6178734858735
 20
184.5870446784299
 30
0.0
 10
298.1774064377599
 20
184.6882031051828
 30
0.0
 10
298.7010554236054
 20
184.7828740399207
 30
0.0
 10
299.2230962529141
 20
184.8858806642282
 30
0.0
 10
299.7453274750541
 20
184.9894089886612
 30
0.0
 10
300.1714853496395
 20
185.0738915106269
 30
0.0
 10
300.5977700086648
 20
185.158721437785
 30
0.0
 10
301.0202948448533
 20
185.2576060081891
 30
0.0
 10
301.7434787444184
 20
185.4268545898442
 30
0.0
 10
302.455648255386
 20
185.63727620254
 30
0.0
 10
303.153913708607
 20
185.9059944070694
 30
0.0
 10
303.7145233455283
 20
186.1217375952693
 30
0.0
 10
304.2661706392723
 20
186.3750578757951
 30
0.0
 10
304.7201506201913
 20
186.7733191484442
 30
0.0
 10
304.924761858592
 20
186.9528176629799
 30
0.0
 10
305.1095334106419
 20
187.1617588205162
 30
0.0
 10
305.2193735989216
 20
187.4072721840833
 30
0.0
 10
305.3222097144066
 20
187.6371301350211
 30
0.0
 10
305.3593659384633
 20
187.8990448696799
 30
0.0
 10
305.3396682925886
 20
188.1530992848303
 30
0.0
 10
305.3281014366602
 20
188.3022851742745
 30
0.0
 10
305.2969297979951
 20
188.448760608699
 30
0.0
 10
305.2434325376519
 20
188.5861601820525
 30
0.0
 10
305.2181700670914
 20
188.6510429939083
 30
0.0
 10
305.1879291698051
 20
188.7139019647188
 30
0.0
 10
305.155479291256
 20
188.7758629355819
 30
0.0
  0
LINE
  5
D6
330
70
100
AcDbEntity
  8
shade
 62
     6
420
 16711935
370
    25
100
AcDbLine
 10
291.7964200116391
 20
183.4151205150511
 30
0.0
 11
291.6068700745594
 21
183.7584680378371
 31
0.0
  0
LINE
  5
D7
330
70
100
AcDbEntity
  8
shade
 62
     6
420
 16711935
370
    25
100
AcDbLine
 10
293.3682402707747
 20
195.3102504407111
 30
0.0
 11
293.1569707527616
 21
195.3102504407111
 31
0.0
  0
LINE
  5
D8
330
70
100
AcDbEntity
  8
shade
 62
     6
420
 16711935
370
    25
100
AcDbLine
 10
293.3682402707747
 20
200.4825051392283
 30
0.0
 11
293.1569707527616
 21
200.4825051392283
 31
0.0
  0
LINE
  5
D9
330
70
100
AcDbEntity
  8
shade
 62
     6
420
 16711935
370
    25
100
AcDbLine
 10
293.3682402707747
 20
200.4825051392283
 30
0.0
 11
293.3682402707747
 21
202.6937773508699
 31
0.0
  0
LINE
  5
DA
330
70
100
AcDbEntity
  8
shade
 62
     6
420
 16711935
370
    25
100
AcDbLine
 10
293.1569707527616
 20
196.1172601244054
 30
0.0
 11
293.1569707527616
 21
195.3102504407111
 31
0.0
  0
LINE
  5
DB
330
70
100
AcDbEntity
  8
shade
 62
     6
420
 16711935
370
    25
100
AcDbLine
 10
293.3682402707747
 20
203.4712797681879
 30
0.0
 11
293.3682402707747
 21
204.7712202217651
 31
0.0
  0
LINE
  5
DC
330
70
100
AcDbEntity
  8
shade
 62
     6
420
 16711935
370
    25
100
AcDbLine
 10
293.1569707527616
 20
202.6310896846248
 30
0.0
 11
293.1569707527616
 21
200.4825051392283
 31
0.0
  0
LINE
  5
DD
330
70
100
AcDbEntity
  8
shade
 62
     6
420
 16711935
370
    25
100
AcDbLine
 10
293.1569707527616
 20
203.4712797681879
 30
0.0
 11
293.3682402707747
 21
203.4712797681879
 31
0.0
  0
LINE
  5
DE
330
70
100
AcDbEntity
  8
shade
 62
     6
420
 16711935
370
    25
100
AcDbLine
 10
293.3682402707747
 20
204.7712202217651
 30
0.0
 11
293.1569707527616
 21
204.7712202217651
 31
0.0
  0
LWPOLYLINE
  5
DF
330
70
100
AcDbEntity
  8
shade
 62
     6
420
 16711935
370
    25
100
AcDbPolyline
 90
        4
 70
     0
 43
0.0
 10
293.3682402707747
 20
205.2847698472662
 10
293.3682402707747
 20
205.4999410027202
 10
293.1569707527616
 20
205.4999410027202
 10
293.1569707527616
 20
205.2485637345369
  0
LINE
  5
E0
330
70
100
AcDbEntity
  8
shade
 62
     6
420
 16711935
370
    25
100
AcDbLine
 10
293.1569707527616
 20
204.7712202217651
 30
0.0
 11
293.1569707527616
 21
203.4712797681879
 31
0.0
  0
SPLINE
  5
E1
330
70
100
AcDbEntity
  8
shade
 62
     6
420
 16711935
370
    25
100
AcDbSpline
210
0.0
220
0.0
230
1.0
 70
     8
 71
     3
 72
    14
 73
    10
 74
     0
 42
0.0000000001
 43
0.0000000001
 40
0.0
 40
0.0
 40
0.0
 40
0.0
 40
1.0
 40
1.0
 40
1.0
 40
2.0
 40
2.0
 40
2.0
 40
3.0
 40
3.0
 40
3.0
 40
3.0
 10
285.6988716632489
 20
197.2971314265372
 30
0.0
 10
286.2509126708566
 20
197.6656388116255
 30
0.0
 10
286.802953678472
 20
198.0341461966984
 30
0.0
 10
287.372740542779
 20
198.3726462080952
 30
0.0
 10
288.4407789504546
 20
199.0071483979733
 30
0.0
 10
289.5711687058961
 20
199.5362175155274
 30
0.0
 10
290.721481438023
 20
200.0141858626165
 30
0.0
 10
291.5273128018683
 20
200.3490181862758
 30
0.0
 10
292.3429212803392
 20
200.6587730279043
 30
0.0
 10
293.1569707527616
 20
200.9677728392922
 30
0.0
  0
SPLINE
  5
E2
330
70
100
AcDbEntity
  8
shade
 62
     6
420
 16711935
370
    25
100
AcDbSpline
210
0.0
220
0.0
230
1.0
 70
     8
 71
     3
 72
    17
 73
    13
 74
     0
 42
0.0000000001
 43
0.0000000001
 40
0.0
 40
0.0
 40
0.0
 40
0.0
 40
1.0
 40
1.0
 40
1.0
 40
2.0
 40
2.0
 40
2.0
 40
3.0
 40
3.0
 40
3.0
 40
4.0
 40
4.0
 40
4.0
 40
4.0
 10
293.3682402707747
 20
201.04798215617
 30
0.0
 10
293.8194944870015
 20
201.2193740327096
 30
0.0
 10
294.269967554272
 20
201.3911809575493
 30
0.0
 10
294.7177259749557
 20
201.5675513871352
 30
0.0
 10
295.4467676148751
 20
201.8547182639361
 30
0.0
 10
296.168612603785
 20
202.1539831984546
 30
0.0
 10
296.9153790634696
 20
202.4251721046063
 30
0.0
 10
297.3331573546874
 20
202.5768886638336
 30
0.0
 10
297.7587356674164
 20
202.7198178755263
 30
0.0
 10
298.1214081974069
 20
202.9611850530301
 30
0.0
 10
298.371202016398
 20
203.1274287689311
 30
0.0
 10
298.5911540623867
 20
203.3403703129522
 30
0.0
 10
298.8111061083835
 20
203.5533118569738
 30
0.0
  0
SPLINE
  5
E3
330
70
100
AcDbEntity
  8
shade
 62
     6
420
 16711935
370
    25
100
AcDbSpline
210
0.0
220
0.0
230
1.0
 70
     8
 71
     3
 72
     8
 73
     4
 74
     0
 42
0.0000000001
 43
0.0000000001
 40
0.0
 40
0.0
 40
0.0
 40
0.0
 40
1.0
 40
1.0
 40
1.0
 40
1.0
 10
299.3995274958029
 20
203.4789277256942
 30
0.0
 10
299.1828619987413
 20
203.7813429675257
 30
0.0
 10
298.9428013535114
 20
204.0662912542879
 30
0.0
 10
298.6815557853929
 20
204.3311490826603
 30
0.0
  0
SPLINE
  5
E4
330
70
100
AcDbEntity
  8
shade
 62
     6
420
 16711935
370
    25
100
AcDbSpline
210
0.0
220
0.0
230
1.0
 70
     8
 71
     3
 72
     8
 73
     4
 74
     0
 42
0.0000000001
 43
0.0000000001
 40
0.0
 40
0.0
 40
0.0
 40
0.0
 40
1.0
 40
1.0
 40
1.0
 40
1.0
 10
299.516774044569
 20
203.4844988054948
 30
0.0
 10
299.2950425746242
 20
203.7976430940494
 30
0.0
 10
299.0483324428973
 20
204.0923294122175
 30
0.0
 10
298.7790594665485
 20
204.3656721538869
 30
0.0
  0
SPLINE
  5
E5
330
70
100
AcDbEntity
  8
shade
 62
     6
420
 16711935
370
    25
100
AcDbSpline
210
0.0
220
0.0
230
1.0
 70
     8
 71
     3
 72
    11
 73
     7
 74
     0
 42
0.0000000001
 43
0.0000000001
 40
0.0
 40
0.0
 40
0.0
 40
0.0
 40
1.0
 40
1.0
 40
1.0
 40
2.0
 40
2.0
 40
2.0
 40
2.0
 10
298.2269717551119
 20
203.0353392603165
 30
0.0
 10
298.0819650085371
 20
203.1709798082243
 30
0.0
 10
297.9365717126058
 20
203.3061870117139
 30
0.0
 10
297.7885498575547
 20
203.438447446861
 30
0.0
 10
297.623160391307
 20
203.5862261837742
 30
0.0
 10
297.4544893544352
 20
203.7303260883111
 30
0.0
 10
297.2853599192145
 20
203.8739121014969
 30
0.0
  0
SPLINE
  5
E6
330
70
100
AcDbEntity
  8
shade
 62
     6
420
 16711935
370
    25
100
AcDbSpline
210
0.0
220
0.0
230
1.0
 70
     8
 71
     3
 72
     8
 73
     4
 74
     0
 42
0.0000000001
 43
0.0000000001
 40
0.0
 40
0.0
 40
0.0
 40
0.0
 40
1.0
 40
1.0
 40
1.0
 40
1.0
 10
299.4885619172547
 20
203.4756670645333
 30
0.0
 10
299.5011266496801
 20
203.4781785891657
 30
0.0
 10
299.5132857146918
 20
203.4824082739537
 30
0.0
 10
299.5246965343913
 20
203.4882369488308
 30
0.0
  0
SPLINE
  5
E7
330
70
100
AcDbEntity
  8
shade
 62
     6
420
 16711935
370
    25
100
AcDbSpline
210
0.0
220
0.0
230
1.0
 70
     8
 71
     3
 72
     8
 73
     4
 74
     0
 42
0.0000000001
 43
0.0000000001
 40
0.0
 40
0.0
 40
0.0
 40
0.0
 40
1.0
 40
1.0
 40
1.0
 40
1.0
 10
299.4503161578773
 20
203.4721971534525
 30
0.0
 10
299.4631519718426
 20
203.4719875414444
 30
0.0
 10
299.4759734140892
 20
203.4731507884224
 30
0.0
 10
299.4885619172547
 20
203.4756670645333
 30
0.0
  0
SPLINE
  5
E8
330
70
100
AcDbEntity
  8
shade
 62
     6
420
 16711935
370
    25
100
AcDbSpline
210
0.0
220
0.0
230
1.0
 70
     8
 71
     3
 72
     8
 73
     4
 74
     0
 42
0.0000000001
 43
0.0000000001
 40
0.0
 40
0.0
 40
0.0
 40
0.0
 40
1.0
 40
1.0
 40
1.0
 40
1.0
 10
299.4282096765529
 20
203.4737327296928
 30
0.0
 10
299.4355461756772
 20
203.4728304255153
 30
0.0
 10
299.4429253659486
 20
203.4723178469235
 30
0.0
 10
299.4503161578692
 20
203.4721971534525
 30
0.0
  0
SPLINE
  5
E9
330
70
100
AcDbEntity
  8
shade
 62
     6
420
 16711935
370
    25
100
AcDbSpline
210
0.0
220
0.0
230
1.0
 70
     8
 71
     3
 72
     8
 73
     4
 74
     0
 42
0.0000000001
 43
0.0000000001
 40
0.0
 40
0.0
 40
0.0
 40
0.0
 40
1.0
 40
1.0
 40
1.0
 40
1.0
 10
299.4063437454965
 20
203.4773919769732
 30
0.0
 10
299.4135759569031
 20
203.4758561429655
 30
0.0
 10
299.4208714793595
 20
203.4746352427016
 30
0.0
 10
299.4282096765529
 20
203.4737327296928
 30
0.0
  0
SPLINE
  5
EA
330
70
100
AcDbEntity
  8
shade
 62
     6
420
 16711935
370
    25
100
AcDbSpline
210
0.0
220
0.0
230
1.0
 70
     8
 71
     3
 72
     8
 73
     4
 74
     0
 42
0.0000000001
 43
0.0000000001
 40
0.0
 40
0.0
 40
0.0
 40
0.0
 40
1.0
 40
1.0
 40
1.0
 40
1.0
 10
299.3797512255564
 20
203.4844064022365
 30
0.0
 10
299.3884963825433
 20
203.4816383303596
 30
0.0
 10
299.3973710493228
 20
203.4792974207008
 30
0.0
 10
299.4063437454965
 20
203.4773919769732
 30
0.0
  0
SPLINE
  5
EB
330
70
100
AcDbEntity
  8
shade
 62
     6
420
 16711935
370
    25
100
AcDbSpline
210
0.0
220
0.0
230
1.0
 70
     8
 71
     3
 72
     8
 73
     4
 74
     0
 42
0.0000000001
 43
0.0000000001
 40
0.0
 40
0.0
 40
0.0
 40
0.0
 40
1.0
 40
1.0
 40
1.0
 40
1.0
 10
299.3538827869834
 20
203.4937721998856
 30
0.0
 10
299.3623745356582
 20
203.4902994940225
 30
0.0
 10
299.3710045362228
 20
203.4871749591317
 30
0.0
 10
299.3797512255564
 20
203.4844064022365
 30
0.0
  0
LINE
  5
EC
330
70
100
AcDbEntity
  8
shade
 62
     6
420
 16711935
370
    25
100
AcDbLine
 10
297.9763697814181
 20
204.9570744129156
 30
0.0
 11
298.0520956915301
 21
205.0091923672728
 31
0.0
  0
SPLINE
  5
ED
330
70
100
AcDbEntity
  8
shade
 62
     6
420
 16711935
370
    25
100
AcDbSpline
210
0.0
220
0.0
230
1.0
 70
     8
 71
     3
 72
     8
 73
     4
 74
     0
 42
0.0000000001
 43
0.0000000001
 40
0.0
 40
0.0
 40
0.0
 40
0.0
 40
1.0
 40
1.0
 40
1.0
 40
1.0
 10
298.0520956915455
 20
205.0091923672728
 30
0.0
 10
297.8049615137202
 20
205.1995238943911
 30
0.0
 10
297.5455727910182
 20
205.3733898115727
 30
0.0
 10
297.275610063994
 20
205.5296636676255
 30
0.0
  0
SPLINE
  5
EE
330
70
100
AcDbEntity
  8
shade
 62
     6
420
 16711935
370
    25
100
AcDbSpline
210
0.0
220
0.0
230
1.0
 70
     8
 71
     3
 72
     8
 73
     4
 74
     0
 42
0.0000000001
 43
0.0000000001
 40
0.0
 40
0.0
 40
0.0
 40
0.0
 40
1.0
 40
1.0
 40
1.0
 40
1.0
 10
297.9763697814101
 20
204.9570744129156
 30
0.0
 10
297.7334602626318
 20
205.1454355006557
 30
0.0
 10
297.478594309327
 20
205.317849968914
 30
0.0
 10
297.2133754636546
 20
205.4732330361745
 30
0.0
  0
LINE
  5
EF
330
70
100
AcDbEntity
  8
shade
 62
     6
420
 16711935
370
    25
100
AcDbLine
 10
296.3477084393184
 20
204.613245974598
 30
0.0
 11
293.3682402707747
 21
204.613245974598
 31
0.0
  0
LINE
  5
F0
330
70
100
AcDbEntity
  8
shade
 62
     6
420
 16711935
370
    25
100
AcDbLine
 10
296.10036643851
 20
204.4019764565842
 30
0.0
 11
293.3682402707747
 21
204.4019764565842
 31
0.0
  0
LINE
  5
F1
330
70
100
AcDbEntity
  8
shade
 62
     6
420
 16711935
370
    25
100
AcDbLine
 10
296.3477084393184
 20
204.613245974598
 30
0.0
 11
296.3477084393184
 21
204.4671216032304
 31
0.0
  0
SPLINE
  5
F2
330
70
100
AcDbEntity
  8
shade
 62
     6
420
 16711935
370
    25
100
AcDbSpline
210
0.0
220
0.0
230
1.0
 70
     8
 71
     3
 72
    20
 73
    16
 74
     0
 42
0.0000000001
 43
0.0000000001
 40
0.0
 40
0.0
 40
0.0
 40
0.0
 40
1.0
 40
1.0
 40
1.0
 40
2.0
 40
2.0
 40
2.0
 40
3.0
 40
3.0
 40
3.0
 40
4.0
 40
4.0
 40
4.0
 40
5.0
 40
5.0
 40
5.0
 40
5.0
 10
286.8664567019089
 20
203.2377207847768
 30
0.0
 10
287.2361210381581
 20
203.311360372451
 30
0.0
 10
287.6057853744147
 20
203.3849999601409
 30
0.0
 10
287.9700862403462
 20
203.4794065914061
 30
0.0
 10
288.4503203409005
 20
203.6038567036622
 30
0.0
 10
288.9212341076799
 20
203.7643946034956
 30
0.0
 10
289.3986848657259
 20
203.9003329721067
 30
0.0
 10
290.0608775951249
 20
204.0888705287593
 30
0.0
 10
290.7356447903903
 20
204.2300887678436
 30
0.0
 10
291.4140293550998
 20
204.3531477149641
 30
0.0
 10
291.8889053408609
 20
204.4392902097512
 30
0.0
 10
292.3655538883415
 20
204.516534397004
 30
0.0
 10
292.8426279804794
 20
204.5763662501902
 30
0.0
 10
292.9473660990648
 20
204.5895018948121
 30
0.0
 10
293.0521247284689
 20
204.6017982826481
 30
0.0
 10
293.1569707527616
 20
204.6131761070932
 30
0.0
  0
LINE
  5
F3
330
70
100
AcDbEntity
  8
shade
 62
     6
420
 16711935
370
    25
100
AcDbLine
 10
295.147415363083
 20
204.7133378078476
 30
0.0
 11
295.1776756847658
 21
204.613245974598
 31
0.0
  0
LINE
  5
F4
330
70
100
AcDbEntity
  8
shade
 62
     6
420
 16711935
370
    25
100
AcDbLine
 10
293.1569707527616
 20
204.4019764565842
 30
0.0
 11
291.6892159865214
 21
204.4019764565842
 31
0.0
  0
SPLINE
  5
F5
330
70
100
AcDbEntity
  8
shade
 62
     6
420
 16711935
370
    25
100
AcDbSpline
210
0.0
220
0.0
230
1.0
 70
     8
 71
     3
 72
    17
 73
    13
 74
     0
 42
0.0000000001
 43
0.0000000001
 40
0.0
 40
0.0
 40
0.0
 40
0.0
 40
1.0
 40
1.0
 40
1.0
 40
2.0
 40
2.0
 40
2.0
 40
3.0
 40
3.0
 40
3.0
 40
4.0
 40
4.0
 40
4.0
 40
4.0
 10
293.3682402707747
 20
204.6348223221828
 30
0.0
 10
293.774386086906
 20
204.6739266686327
 30
0.0
 10
294.1825114564202
 20
204.6984893230705
 30
0.0
 10
294.5964879000325
 20
204.7039196988812
 30
0.0
 10
294.989126226274
 20
204.7090701698831
 30
0.0
 10
295.3870279930267
 20
204.6970098503915
 30
0.0
 10
295.7572242831547
 20
204.7995847853997
 30
0.0
 10
296.0043924224319
 20
204.8680707656719
 30
0.0
 10
296.2392100066015
 20
204.9876588816984
 30
0.0
 10
296.4724346919027
 20
205.1048019662061
 30
0.0
 10
296.7206174660327
 20
205.2294581347658
 30
0.0
 10
296.9669964648395
 20
205.3513455854623
 30
0.0
 10
297.2133754636546
 20
205.4732330361745
 30
0.0
  0
SPLINE
  5
F6
330
70
100
AcDbEntity
  8
shade
 62
     6
420
 16711935
370
    25
100
AcDbSpline
210
0.0
220
0.0
230
1.0
 70
     8
 71
     3
 72
    11
 73
     7
 74
     0
 42
0.0000000001
 43
0.0000000001
 40
0.0
 40
0.0
 40
0.0
 40
0.0
 40
1.0
 40
1.0
 40
1.0
 40
2.0
 40
2.0
 40
2.0
 40
2.0
 10
290.8696942653179
 20
204.249761000309
 30
0.0
 10
291.1867088826627
 20
204.1681605912813
 30
0.0
 10
291.5036270788389
 20
204.0862074979682
 30
0.0
 10
291.8195291155207
 20
204.0005375500752
 30
0.0
 10
292.2365305326779
 20
203.8874503093269
 30
0.0
 10
292.6517613024203
 20
203.7678864879096
 30
0.0
 10
293.0689419805839
 20
203.6551975996105
 30
0.0
  0
SPLINE
  5
F7
330
70
100
AcDbEntity
  8
shade
 62
     6
420
 16711935
370
    25
100
AcDbSpline
210
0.0
220
0.0
230
1.0
 70
     8
 71
     3
 72
    11
 73
     7
 74
     0
 42
0.0000000001
 43
0.0000000001
 40
0.0
 40
0.0
 40
0.0
 40
0.0
 40
1.0
 40
1.0
 40
1.0
 40
2.0
 40
2.0
 40
2.0
 40
2.0
 10
290.7775921097447
 20
204.2312070868883
 30
0.0
 10
291.125317842589
 20
204.1417447106141
 30
0.0
 10
291.4730347298498
 20
204.0522499794334
 30
0.0
 10
291.8195291155207
 20
203.9582836464787
 30
0.0
 10
292.2365305326779
 20
203.8451964057144
 30
0.0
 10
292.6517613024203
 20
203.7256325842974
 30
0.0
 10
293.0689419805839
 20
203.612943696014
 30
0.0
  0
SPLINE
  5
F8
330
70
100
AcDbEntity
  8
shade
 62
     6
420
 16711935
370
    25
100
AcDbSpline
210
0.0
220
0.0
230
1.0
 70
     8
 71
     3
 72
    11
 73
     7
 74
     0
 42
0.0000000001
 43
0.0000000001
 40
0.0
 40
0.0
 40
0.0
 40
0.0
 40
1.0
 40
1.0
 40
1.0
 40
2.0
 40
2.0
 40
2.0
 40
2.0
 10
294.8071161292922
 20
203.121293270457
 30
0.0
 10
295.166511918839
 20
203.0071130273685
 30
0.0
 10
295.5244459031238
 20
202.8878936552994
 30
0.0
 10
295.8844144874035
 20
202.7754686407133
 30
0.0
 10
296.2487217074482
 20
202.6616885879087
 30
0.0
 10
296.6151128683882
 20
202.5548676619017
 30
0.0
 10
296.9818603747581
 20
202.4492367183449
 30
0.0
  0
SPLINE
  5
F9
330
70
100
AcDbEntity
  8
shade
 62
     6
420
 16711935
370
    25
100
AcDbSpline
210
0.0
220
0.0
230
1.0
 70
     8
 71
     3
 72
    11
 73
     7
 74
     0
 42
0.0000000001
 43
0.0000000001
 40
0.0
 40
0.0
 40
0.0
 40
0.0
 40
1.0
 40
1.0
 40
1.0
 40
2.0
 40
2.0
 40
2.0
 40
2.0
 10
294.8756034179074
 20
203.1417253930001
 30
0.0
 10
295.2120037734782
 20
203.0342448302508
 30
0.0
 10
295.5473169948093
 20
202.9230044832872
 30
0.0
 10
295.8844144874115
 20
202.8177225443255
 30
0.0
 10
296.270289874464
 20
202.6972063439874
 30
0.0
 10
296.6585032587695
 20
202.5844976680209
 30
0.0
 10
297.0470016828588
 20
202.4727408559149
 30
0.0
  0
SPLINE
  5
FA
330
70
100
AcDbEntity
  8
shade
 62
     6
420
 16711935
370
    25
100
AcDbSpline
210
0.0
220
0.0
230
1.0
 70
     8
 71
     3
 72
    11
 73
     7
 74
     0
 42
0.0000000001
 43
0.0000000001
 40
0.0
 40
0.0
 40
0.0
 40
0.0
 40
1.0
 40
1.0
 40
1.0
 40
2.0
 40
2.0
 40
2.0
 40
2.0
 10
289.3595724932567
 20
203.8032853618415
 30
0.0
 10
289.760742638902
 20
203.6717066559787
 30
0.0
 10
290.1619868071573
 20
203.5403558504365
 30
0.0
 10
290.5649010013245
 20
203.4141467098647
 30
0.0
 10
290.9104308921759
 20
203.3059126709684
 30
0.0
 10
291.257188983676
 20
203.2014600082603
 30
0.0
 10
291.6045918510402
 20
203.09939565752
 30
0.0
  0
SPLINE
  5
FB
330
70
100
AcDbEntity
  8
shade
 62
     6
420
 16711935
370
    25
100
AcDbSpline
210
0.0
220
0.0
230
1.0
 70
     8
 71
     3
 72
    14
 73
    10
 74
     0
 42
0.0000000001
 43
0.0000000001
 40
0.0
 40
0.0
 40
0.0
 40
0.0
 40
1.0
 40
1.0
 40
1.0
 40
2.0
 40
2.0
 40
2.0
 40
3.0
 40
3.0
 40
3.0
 40
3.0
 10
293.4562690429517
 20
202.5697788960102
 30
0.0
 10
293.6695889306226
 20
202.5090495556508
 30
0.0
 10
293.8828917660645
 20
202.4479070533687
 30
0.0
 10
294.0961125559996
 20
202.3858268615325
 30
0.0
 10
294.5267159087297
 20
202.260454758946
 30
0.0
 10
294.9569846425575
 20
202.1312583312964
 30
0.0
 10
295.3701943806718
 20
201.9589771131507
 30
0.0
 10
295.4234089345007
 20
201.9367901526116
 30
0.0
 10
295.4763405621027
 20
201.9138886237787
 30
0.0
 10
295.5291337501382
 20
201.8906374472026
 30
0.0
  0
SPLINE
  5
FC
330
70
100
AcDbEntity
  8
shade
 62
     6
420
 16711935
370
    25
100
AcDbSpline
210
0.0
220
0.0
230
1.0
 70
     8
 71
     3
 72
     8
 73
     4
 74
     0
 42
0.0000000001
 43
0.0000000001
 40
0.0
 40
0.0
 40
0.0
 40
0.0
 40
1.0
 40
1.0
 40
1.0
 40
1.0
 10
288.4813109911246
 20
203.0361498780315
 30
0.0
 10
288.8644716809917
 20
202.8488164303662
 30
0.0
 10
289.2478625489837
 20
202.661982076737
 30
0.0
 10
289.6343450556896
 20
202.4818513071563
 30
0.0
  0
SPLINE
  5
FD
330
70
100
AcDbEntity
  8
shade
 62
     6
420
 16711935
370
    25
100
AcDbSpline
210
0.0
220
0.0
230
1.0
 70
     8
 71
     3
 72
     8
 73
     4
 74
     0
 42
0.0000000001
 43
0.0000000001
 40
0.0
 40
0.0
 40
0.0
 40
0.0
 40
1.0
 40
1.0
 40
1.0
 40
1.0
 10
288.4527844002058
 20
203.0078440992087
 30
0.0
 10
288.8277526323051
 20
202.824490949667
 30
0.0
 10
289.2028733031529
 20
202.6414683322879
 30
0.0
 10
289.5808284277943
 20
202.4645916462412
 30
0.0
  0
SPLINE
  5
FE
330
70
100
AcDbEntity
  8
shade
 62
     6
420
 16711935
370
    25
100
AcDbSpline
210
0.0
220
0.0
230
1.0
 70
     8
 71
     3
 72
    20
 73
    16
 74
     0
 42
0.0000000001
 43
0.0000000001
 40
0.0
 40
0.0
 40
0.0
 40
0.0
 40
1.0
 40
1.0
 40
1.0
 40
2.0
 40
2.0
 40
2.0
 40
3.0
 40
3.0
 40
3.0
 40
4.0
 40
4.0
 40
4.0
 40
5.0
 40
5.0
 40
5.0
 40
5.0
 10
287.3171208671216
 20
201.6415925308253
 30
0.0
 10
287.4702165998479
 20
201.6972872360405
 30
0.0
 10
287.6233123325745
 20
201.7529819412403
 30
0.0
 10
287.7759418494254
 20
201.8099723390031
 30
0.0
 10
288.1637711987584
 20
201.9547840985062
 30
0.0
 10
288.5485903758434
 20
202.1079616343882
 30
0.0
 10
288.9383428206999
 20
202.2471261666409
 30
0.0
 10
289.444296666074
 20
202.4277814291105
 30
0.0
 10
289.9585639136882
 20
202.5848223772019
 30
0.0
 10
290.4719238243428
 20
202.7442526520378
 30
0.0
 10
291.0526005904988
 20
202.9245890096204
 30
0.0
 10
291.6321164598843
 20
203.1079824031143
 30
0.0
 10
292.2169550453598
 20
203.2735695707319
 30
0.0
 10
292.529344754463
 20
203.3620174406433
 30
0.0
 10
292.8432531031117
 20
203.4453849646989
 30
0.0
 10
293.1569707527616
 20
203.5293777277562
 30
0.0
  0
SPLINE
  5
FF
330
70
100
AcDbEntity
  8
shade
 62
     6
420
 16711935
370
    25
100
AcDbSpline
210
0.0
220
0.0
230
1.0
 70
     8
 71
     3
 72
    20
 73
    16
 74
     0
 42
0.0000000001
 43
0.0000000001
 40
0.0
 40
0.0
 40
0.0
 40
0.0
 40
1.0
 40
1.0
 40
1.0
 40
2.0
 40
2.0
 40
2.0
 40
3.0
 40
3.0
 40
3.0
 40
4.0
 40
4.0
 40
4.0
 40
5.0
 40
5.0
 40
5.0
 40
5.0
 10
296.3477084393184
 20
204.4671216032304
 30
0.0
 10
296.4016764462623
 20
204.4824361663728
 30
0.0
 10
296.4556444532134
 20
204.4977507295158
 30
0.0
 10
296.5070714539055
 20
204.5189994365663
 30
0.0
 10
296.5805534930333
 20
204.5493608868014
 30
0.0
 10
296.6488477020931
 20
204.5918377460847
 30
0.0
 10
296.7196121004276
 20
204.6293258790283
 30
0.0
 10
296.8661833953433
 20
204.7069734577668
 30
0.0
 10
297.0233520687046
 20
204.7632188624836
 30
0.0
 10
297.1836321378903
 20
204.8045502288479
 30
0.0
 10
297.3360122057123
 20
204.8438444245706
 30
0.0
 10
297.4912045146071
 20
204.869658538152
 30
0.0
 10
297.6460297276688
 20
204.8970297468044
 30
0.0
 10
297.7562671478089
 20
204.9165183776757
 30
0.0
 10
297.8663184646172
 20
204.9367963952881
 30
0.0
 10
297.9763697814181
 20
204.9570744129156
 30
0.0
  0
SPLINE
  5
100
330
70
100
AcDbEntity
  8
shade
 62
     6
420
 16711935
370
    25
100
AcDbSpline
210
0.0
220
0.0
230
1.0
 70
     8
 71
     3
 72
    14
 73
    10
 74
     0
 42
0.0000000001
 43
0.0000000001
 40
0.0
 40
0.0
 40
0.0
 40
0.0
 40
1.0
 40
1.0
 40
1.0
 40
2.0
 40
2.0
 40
2.0
 40
3.0
 40
3.0
 40
3.0
 40
3.0
 10
293.3682402707747
 20
203.5861137303663
 30
0.0
 10
293.75149947026
 20
203.6894761235231
 30
0.0
 10
294.1339003056031
 20
203.7956867686384
 30
0.0
 10
294.512320993754
 20
203.9151658358333
 30
0.0
 10
294.8447764100918
 20
204.0201322509079
 30
0.0
 10
295.1741598617502
 20
204.1353395243872
 30
0.0
 10
295.50790140511
 20
204.2359639683843
 30
0.0
 10
295.7858223061823
 20
204.3197582598144
 30
0.0
 10
296.0667653727464
 20
204.3934399315304
 30
0.0
 10
296.3477084393184
 20
204.4671216032304
 30
0.0
  0
SPLINE
  5
101
330
70
100
AcDbEntity
  8
shade
 62
     6
420
 16711935
370
    25
100
AcDbSpline
210
0.0
220
0.0
230
1.0
 70
     8
 71
     3
 72
    11
 73
     7
 74
     0
 42
0.0000000001
 43
0.0000000001
 40
0.0
 40
0.0
 40
0.0
 40
0.0
 40
1.0
 40
1.0
 40
1.0
 40
2.0
 40
2.0
 40
2.0
 40
2.0
 10
290.8064554645924
 20
201.923854869226
 30
0.0
 10
291.3731536106038
 20
201.6902332053524
 30
0.0
 10
291.9479059500805
 20
201.4756753994892
 30
0.0
 10
292.5284473773117
 20
201.2793248540229
 30
0.0
 10
292.7081188250612
 20
201.2185564314693
 30
0.0
 10
292.8883447731744
 20
201.1595319680354
 30
0.0
 10
293.0689419805839
 20
201.101675152261
 30
0.0
  0
SPLINE
  5
102
330
70
100
AcDbEntity
  8
shade
 62
     6
420
 16711935
370
    25
100
AcDbSpline
210
0.0
220
0.0
230
1.0
 70
     8
 71
     3
 72
    11
 73
     7
 74
     0
 42
0.0000000001
 43
0.0000000001
 40
0.0
 40
0.0
 40
0.0
 40
0.0
 40
1.0
 40
1.0
 40
1.0
 40
2.0
 40
2.0
 40
2.0
 40
2.0
 10
290.8655112425679
 20
201.9418438661809
 30
0.0
 10
291.4130710311258
 20
201.7176102975299
 30
0.0
 10
291.968062166407
 20
201.5111120737189
 30
0.0
 10
292.5284473773117
 20
201.3215787576345
 30
0.0
 10
292.7081188250612
 20
201.2608103350657
 30
0.0
 10
292.8883447731744
 20
201.2017858716476
 30
0.0
 10
293.0689419805839
 20
201.1439290558572
 30
0.0
  0
SPLINE
  5
103
330
70
100
AcDbEntity
  8
shade
 62
     6
420
 16711935
370
    25
100
AcDbSpline
210
0.0
220
0.0
230
1.0
 70
     8
 71
     3
 72
    14
 73
    10
 74
     0
 42
0.0000000001
 43
0.0000000001
 40
0.0
 40
0.0
 40
0.0
 40
0.0
 40
1.0
 40
1.0
 40
1.0
 40
2.0
 40
2.0
 40
2.0
 40
3.0
 40
3.0
 40
3.0
 40
3.0
 10
296.3097620216359
 20
232.3578852824876
 30
0.0
 10
296.3097620216359
 20
232.3578852824876
 30
0.0
 10
290.2154490019001
 20
232.3578852824876
 30
0.0
 10
290.2154490019001
 20
232.3578852824876
 30
0.0
 10
290.2154490019001
 20
230.0204223619399
 30
0.0
 10
291.2280751020033
 20
227.7975845812335
 30
0.0
 10
292.9917471553312
 20
226.2635722627676
 30
0.0
 10
292.9917471553312
 20
226.2635722627676
 30
0.0
 10
293.5334638681967
 20
226.2635722627676
 30
0.0
 10
293.5334638681967
 20
226.2635722627676
 30
0.0
  0
SPLINE
  5
104
330
70
100
AcDbEntity
  8
shade
 62
     6
420
 16711935
370
    25
100
AcDbSpline
210
0.0
220
0.0
230
1.0
 70
     8
 71
     3
 72
     8
 73
     4
 74
     0
 42
0.0000000001
 43
0.0000000001
 40
0.0
 40
0.0
 40
0.0
 40
0.0
 40
1.0
 40
1.0
 40
1.0
 40
1.0
 10
296.3097620216359
 20
232.3578852824876
 30
0.0
 10
296.3097620216359
 20
230.0204223619399
 30
0.0
 10
295.2971359215321
 20
227.7975845812335
 30
0.0
 10
293.5334638681967
 20
226.2635722627676
 30
0.0
  0
ENDSEC
  0
SECTION
  2
OBJECTS
  0
DICTIONARY
  5
C
330
0
100
AcDbDictionary
281
     1
  3
ACAD_COLOR
350
63
  3
ACAD_DETAILVIEWSTYLE
350
6A
  3
ACAD_GROUP
350
D
  3
ACAD_LAYOUT
350
62
  3
ACAD_MATERIAL
350
10
  3
ACAD_MLEADERSTYLE
350
66
  3
ACAD_MLINESTYLE
350
5F
  3
ACAD_PLOTSETTINGS
350
61
  3
ACAD_PLOTSTYLENAME
350
E
  3
ACAD_SCALELIST
350
42
  3
ACAD_SECTIONVIEWSTYLE
350
68
  3
ACAD_TABLESTYLE
350
64
  3
ACAD_VISUALSTYLE
350
29
  3
ACDB_RECOMPOSE_DATA
350
10D
  3
AcDbVariableDictionary
350
105
  0
DICTIONARY
  5
63
102
{ACAD_REACTORS
330
C
102
}
330
C
100
AcDbDictionary
281
     1
  0
DICTIONARY
  5
6A
102
{ACAD_REACTORS
330
C
102
}
330
C
100
AcDbDictionary
281
     1
  3
Imperial24
350
6B
  0
DICTIONARY
  5
D
102
{ACAD_REACTORS
330
C
102
}
330
C
100
AcDbDictionary
281
     1
  0
DICTIONARY
  5
62
102
{ACAD_REACTORS
330
C
102
}
330
C
100
AcDbDictionary
281
     1
  3
Layout1
350
6F
  3
Layout2
350
77
  3
Model
350
73
  0
DICTIONARY
  5
10
102
{ACAD_REACTORS
330
C
102
}
330
C
100
AcDbDictionary
281
     1
  3
ByBlock
350
19
  3
ByLayer
350
11
  3
Global
350
21
  0
DICTIONARY
  5
66
102
{ACAD_REACTORS
330
C
102
}
330
C
100
AcDbDictionary
281
     1
  3
Standard
350
67
  0
DICTIONARY
  5
5F
102
{ACAD_REACTORS
330
C
102
}
330
C
100
AcDbDictionary
281
     1
  3
Standard
350
60
  0
DICTIONARY
  5
61
102
{ACAD_REACTORS
330
C
102
}
330
C
100
AcDbDictionary
281
     1
  0
ACDBDICTIONARYWDFLT
  5
E
102
{ACAD_REACTORS
330
C
102
}
330
C
100
AcDbDictionary
281
     1
  3
Normal
350
F
100
AcDbDictionaryWithDefault
340
F
  0
DICTIONARY
  5
42
102
{ACAD_REACTORS
330
C
102
}
330
C
100
AcDbDictionary
281
     1
  3
A0
350
43
  3
A1
350
44
  3
A2
350
45
  3
A3
350
46
  3
A4
350
47
  3
A5
350
48
  3
A6
350
49
  3
A7
350
4A
  3
A8
350
4B
  3
A9
350
4C
  3
B0
350
4D
  3
B1
350
4E
  3
B2
350
4F
  3
B3
350
50
  3
B4
350
51
  3
B5
350
52
  3
B6
350
53
  0
DICTIONARY
  5
68
102
{ACAD_REACTORS
330
C
102
}
330
C
100
AcDbDictionary
281
     1
  3
Imperial24
350
69
  0
DICTIONARY
  5
64
102
{ACAD_REACTORS
330
C
102
}
330
C
100
AcDbDictionary
281
     1
  3
Standard
350
65
  0
DICTIONARY
  5
29
102
{ACAD_REACTORS
330
C
102
}
330
C
100
AcDbDictionary
281
     1
  3
2dWireframe
350
2F
  3
Basic
350
2E
  3
Brighten
350
35
  3
ColorChange
350
39
  3
Conceptual
350
32
  3
Dim
350
34
  3
EdgeColorOff
350
41
  3
Facepattern
350
38
  3
Flat
350
2A
  3
FlatWithEdges
350
2B
  3
Gouraud
350
2C
  3
GouraudWithEdges
350
2D
  3
Hidden
350
31
  3
JitterOff
350
3F
  3
Linepattern
350
37
  3
OverhangOff
350
40
  3
Realistic
350
33
  3
Shaded
350
3E
  3
Shaded with edges
350
3D
  3
Shades of Gray
350
3A
  3
Sketchy
350
3B
  3
Thicken
350
36
  3
Wireframe
350
30
  3
X-Ray
350
3C
  0
XRECORD
  5
10D
102
{ACAD_REACTORS
330
C
102
}
330
C
100
AcDbXrecord
280
     1
 90
        1
330
65
  0
DICTIONARY
  5
105
102
{ACAD_REACTORS
330
C
102
}
330
C
100
AcDbDictionary
281
     1
  3
CANNOSCALE
350
10A
  3
CMLEADERSTYLE
350
107
  3
CTABLESTYLE
350
106
  3
CVIEWDETAILSTYLE
350
108
  3
CVIEWSECTIONSTYLE
350
109
  0
ACDBDETAILVIEWSTYLE
  5
6B
102
{ACAD_REACTORS
330
6A
102
}
330
6A
100
AcDbModelDocViewStyle
 70
     0
  3
Imperial24
290
     1
300
Imperial24
 90
        0
100
AcDbDetailViewStyle
 70
     0
 71
     0
 90
        3
 71
     1
340
55
 62
   256
 40
0.24
340
0
 62
   256
 40
0.24
300

 40
0.36
280
     3
 71
     2
340
5D
 90
       25
 62
   256
 71
     3
340
55
 62
   256
 40
0.24
 90
        1
 40
0.75
 90
        1
300
%<\AcVar ViewType \f "%tc1">% %<\AcVar ViewDetailId>%\PSCALE %<\AcVar ViewScale \f "%sn">%
 71
     4
340
5D
 90
       25
 62
   256
340
5D
 90
       25
 62
   256
280
     0
  0
LAYOUT
  5
6F
102
{ACAD_REACTORS
330
62
102
}
330
62
100
AcDbPlotSettings
  1

  2

  4

  6

 40
0.0
 41
0.0
 42
0.0
 43
0.0
 44
0.0
 45
0.0
 46
0.0
 47
0.0
 48
0.0
 49
0.0
140
0.0
141
0.0
142
1.0
143
1.0
 70
   688
 72
     0
 73
     0
 74
     5
  7

 75
    16
147
1.0
 76
     0
 77
     2
 78
   300
148
0.0
149
0.0
100
AcDbLayout
  1
Layout1
 70
     1
 71
     1
 10
0.0
 20
0.0
 11
12.0
 21
9.0
 12
0.0
 22
0.0
 32
0.0
 14
0.0
 24
0.0
 34
0.0
 15
0.0
 25
0.0
 35
0.0
146
0.0
 13
0.0
 23
0.0
 33
0.0
 16
1.0
 26
0.0
 36
0.0
 17
0.0
 27
1.0
 37
0.0
 76
     0
330
6C
  0
LAYOUT
  5
77
102
{ACAD_REACTORS
330
62
102
}
330
62
100
AcDbPlotSettings
  1

  2

  4

  6

 40
0.0
 41
0.0
 42
0.0
 43
0.0
 44
0.0
 45
0.0
 46
0.0
 47
0.0
 48
0.0
 49
0.0
140
0.0
141
0.0
142
1.0
143
1.0
 70
   688
 72
     0
 73
     0
 74
     5
  7

 75
    16
147
1.0
 76
     0
 77
     2
 78
   300
148
0.0
149
0.0
100
AcDbLayout
  1
Layout2
 70
     1
 71
     2
 10
0.0
 20
0.0
 11
12.0
 21
9.0
 12
0.0
 22
0.0
 32
0.0
 14
0.0
 24
0.0
 34
0.0
 15
0.0
 25
0.0
 35
0.0
146
0.0
 13
0.0
 23
0.0
 33
0.0
 16
1.0
 26
0.0
 36
0.0
 17
0.0
 27
1.0
 37
0.0
 76
     0
330
74
  0
LAYOUT
  5
73
102
{ACAD_REACTORS
330
62
102
}
330
62
100
AcDbPlotSettings
  1

  2

  4

  6

 40
0.0
 41
0.0
 42
0.0
 43
0.0
 44
0.0
 45
0.0
 46
0.0
 47
0.0
 48
0.0
 49
0.0
140
0.0
141
0.0
142
1.0
143
1.0
 70
  1712
 72
     0
 73
     0
 74
     0
  7

 75
     0
147
1.0
 76
     0
 77
     2
 78
   300
148
0.0
149
0.0
100
AcDbLayout
  1
Model
 70
     1
 71
     0
 10
0.0
 20
0.0
 11
12.0
 21
9.0
 12
0.0
 22
0.0
 32
0.0
 14
0.0
 24
0.0
 34
0.0
 15
0.0
 25
0.0
 35
0.0
146
0.0
 13
0.0
 23
0.0
 33
0.0
 16
1.0
 26
0.0
 36
0.0
 17
0.0
 27
1.0
 37
0.0
 76
     0
330
70
  0
MATERIAL
  5
19
102
{ACAD_XDICTIONARY
360
1A
102
}
102
{ACAD_REACTORS
330
10
102
}
330
10
100
AcDbMaterial
  1
ByBlock
 72
     0
 43
0.0208333333333333
 43
0.0
 43
0.0
 43
0.0
 43
0.0
 43
0.0208333333333333
 43
0.0
 43
0.0
 43
0.0
 43
0.0
 43
1.0
 43
0.0
 43
0.0
 43
0.0
 43
0.0
 43
1.0
 77
     0
 47
0.0208333333333333
 47
0.0
 47
0.0
 47
0.0
 47
0.0
 47
0.0208333333333333
 47
0.0
 47
0.0
 47
0.0
 47
0.0
 47
1.0
 47
0.0
 47
0.0
 47
0.0
 47
0.0
 47
1.0
171
     0
 49
0.0208333333333333
 49
0.0
 49
0.0
 49
0.0
 49
0.0
 49
0.0208333333333333
 49
0.0
 49
0.0
 49
0.0
 49
0.0
 49
1.0
 49
0.0
 49
0.0
 49
0.0
 49
0.0
 49
1.0
175
     0
142
0.0208333333333333
142
0.0
142
0.0
142
0.0
142
0.0
142
0.0208333333333333
142
0.0
142
0.0
142
0.0
142
0.0
142
1.0
142
0.0
142
0.0
142
0.0
142
0.0
142
1.0
179
     0
144
0.0208333333333333
144
0.0
144
0.0
144
0.0
144
0.0
144
0.0208333333333333
144
0.0
144
0.0
144
0.0
144
0.0
144
1.0
144
0.0
144
0.0
144
0.0
144
0.0
144
1.0
147
0.0208333333333333
147
0.0
147
0.0
147
0.0
147
0.0
147
0.0208333333333333
147
0.0
147
0.0
147
0.0
147
0.0
147
1.0
147
0.0
147
0.0
147
0.0
147
0.0
147
1.0
  0
MATERIAL
  5
11
102
{ACAD_XDICTIONARY
360
12
102
}
102
{ACAD_REACTORS
330
10
102
}
330
10
100
AcDbMaterial
  1
ByLayer
 72
     0
 43
0.0208333333333333
 43
0.0
 43
0.0
 43
0.0
 43
0.0
 43
0.0208333333333333
 43
0.0
 43
0.0
 43
0.0
 43
0.0
 43
1.0
 43
0.0
 43
0.0
 43
0.0
 43
0.0
 43
1.0
 77
     0
 47
0.0208333333333333
 47
0.0
 47
0.0
 47
0.0
 47
0.0
 47
0.0208333333333333
 47
0.0
 47
0.0
 47
0.0
 47
0.0
 47
1.0
 47
0.0
 47
0.0
 47
0.0
 47
0.0
 47
1.0
171
     0
 49
0.0208333333333333
 49
0.0
 49
0.0
 49
0.0
 49
0.0
 49
0.0208333333333333
 49
0.0
 49
0.0
 49
0.0
 49
0.0
 49
1.0
 49
0.0
 49
0.0
 49
0.0
 49
0.0
 49
1.0
175
     0
142
0.0208333333333333
142
0.0
142
0.0
142
0.0
142
0.0
142
0.0208333333333333
142
0.0
142
0.0
142
0.0
142
0.0
142
1.0
142
0.0
142
0.0
142
0.0
142
0.0
142
1.0
179
     0
144
0.0208333333333333
144
0.0
144
0.0
144
0.0
144
0.0
144
0.0208333333333333
144
0.0
144
0.0
144
0.0
144
0.0
144
1.0
144
0.0
144
0.0
144
0.0
144
0.0
144
1.0
147
0.0208333333333333
147
0.0
147
0.0
147
0.0
147
0.0
147
0.0208333333333333
147
0.0
147
0.0
147
0.0
147
0.0
147
1.0
147
0.0
147
0.0
147
0.0
147
0.0
147
1.0
  0
MATERIAL
  5
21
102
{ACAD_XDICTIONARY
360
22
102
}
102
{ACAD_REACTORS
330
10
102
}
330
10
100
AcDbMaterial
  1
Global
 72
     0
 43
0.0208333333333333
 43
0.0
 43
0.0
 43
0.0
 43
0.0
 43
0.0208333333333333
 43
0.0
 43
0.0
 43
0.0
 43
0.0
 43
1.0
 43
0.0
 43
0.0
 43
0.0
 43
0.0
 43
1.0
 77
     0
 47
0.0208333333333333
 47
0.0
 47
0.0
 47
0.0
 47
0.0
 47
0.0208333333333333
 47
0.0
 47
0.0
 47
0.0
 47
0.0
 47
1.0
 47
0.0
 47
0.0
 47
0.0
 47
0.0
 47
1.0
171
     0
 49
0.0208333333333333
 49
0.0
 49
0.0
 49
0.0
 49
0.0
 49
0.0208333333333333
 49
0.0
 49
0.0
 49
0.0
 49
0.0
 49
1.0
 49
0.0
 49
0.0
 49
0.0
 49
0.0
 49
1.0
175
     0
142
0.0208333333333333
142
0.0
142
0.0
142
0.0
142
0.0
142
0.0208333333333333
142
0.0
142
0.0
142
0.0
142
0.0
142
1.0
142
0.0
142
0.0
142
0.0
142
0.0
142
1.0
179
     0
144
0.0208333333333333
144
0.0
144
0.0
144
0.0
144
0.0
144
0.0208333333333333
144
0.0
144
0.0
144
0.0
144
0.0
144
1.0
144
0.0
144
0.0
144
0.0
144
0.0
144
1.0
147
0.0208333333333333
147
0.0
147
0.0
147
0.0
147
0.0
147
0.0208333333333333
147
0.0
147
0.0
147
0.0
147
0.0
147
1.0
147
0.0
147
0.0
147
0.0
147
0.0
147
1.0
  0
MLEADERSTYLE
  5
67
102
{ACAD_REACTORS
330
66
102
}
330
66
100
AcDbMLeaderStyle
179
     2
170
     2
171
     1
172
     0
 90
        2
 40
0.0
 41
0.0
173
     1
 91
-1056964608
340
5B
 92
       -2
290
     1
 42
0.09
291
     1
 43
0.36
  3
Standard
 44
0.18
300

342
55
174
     1
178
     6
175
     1
176
     0
 93
-1056964608
 45
0.18
292
     0
297
     0
 46
0.18
 94
-1056964608
 47
1.0
 49
1.0
140
1.0
293
     1
141
0.0
294
     1
177
     0
142
1.0
295
     1
296
     0
143
0.125
271
     0
272
     9
273
     9
298
     1
  0
MLINESTYLE
  5
60
102
{ACAD_REACTORS
330
5F
102
}
330
5F
100
AcDbMlineStyle
  2
STANDARD
 70
     0
  3

 62
   256
 51
90.0
 52
90.0
 71
     2
 49
0.5
 62
   256
  6
BYLAYER
 49
-0.5
 62
   256
  6
BYLAYER
  0
ACDBPLACEHOLDER
  5
F
102
{ACAD_REACTORS
330
E
102
}
330
E
  0
SCALE
  5
43
102
{ACAD_REACTORS
330
42
102
}
330
42
100
AcDbScale
 70
     0
300
1:1
140
1.0
141
1.0
290
     1
  0
SCALE
  5
44
102
{ACAD_REACTORS
330
42
102
}
330
42
100
AcDbScale
 70
     0
300
1/128" = 1'-0"
140
0.0078125
141
12.0
290
     0
  0
SCALE
  5
45
102
{ACAD_REACTORS
330
42
102
}
330
42
100
AcDbScale
 70
     0
300
1/64" = 1'-0"
140
0.015625
141
12.0
290
     0
  0
SCALE
  5
46
102
{ACAD_REACTORS
330
42
102
}
330
42
100
AcDbScale
 70
     0
300
1/32" = 1'-0"
140
0.03125
141
12.0
290
     0
  0
SCALE
  5
47
102
{ACAD_REACTORS
330
42
102
}
330
42
100
AcDbScale
 70
     0
300
1/16" = 1'-0"
140
0.0625
141
12.0
290
     0
  0
SCALE
  5
48
102
{ACAD_REACTORS
330
42
102
}
330
42
100
AcDbScale
 70
     0
300
3/32" = 1'-0"
140
0.09375
141
12.0
290
     0
  0
SCALE
  5
49
102
{ACAD_REACTORS
330
42
102
}
330
42
100
AcDbScale
 70
     0
300
1/8" = 1'-0"
140
0.125
141
12.0
290
     0
  0
SCALE
  5
4A
102
{ACAD_REACTORS
330
42
102
}
330
42
100
AcDbScale
 70
     0
300
3/16" = 1'-0"
140
0.1875
141
12.0
290
     0
  0
SCALE
  5
4B
102
{ACAD_REACTORS
330
42
102
}
330
42
100
AcDbScale
 70
     0
300
1/4" = 1'-0"
140
0.25
141
12.0
290
     0
  0
SCALE
  5
4C
102
{ACAD_REACTORS
330
42
102
}
330
42
100
AcDbScale
 70
     0
300
3/8" = 1'-0"
140
0.375
141
12.0
290
     0
  0
SCALE
  5
4D
102
{ACAD_REACTORS
330
42
102
}
330
42
100
AcDbScale
 70
     0
300
1/2" = 1'-0"
140
0.5
141
12.0
290
     0
  0
SCALE
  5
4E
102
{ACAD_REACTORS
330
42
102
}
330
42
100
AcDbScale
 70
     0
300
3/4" = 1'-0"
140
0.75
141
12.0
290
     0
  0
SCALE
  5
4F
102
{ACAD_REACTORS
330
42
102
}
330
42
100
AcDbScale
 70
     0
300
1" = 1'-0"
140
1.0
141
12.0
290
     0
  0
SCALE
  5
50
102
{ACAD_REACTORS
330
42
102
}
330
42
100
AcDbScale
 70
     0
300
1-1/2" = 1'-0"
140
1.5
141
12.0
290
     0
  0
SCALE
  5
51
102
{ACAD_REACTORS
330
42
102
}
330
42
100
AcDbScale
 70
     0
300
3" = 1'-0"
140
3.0
141
12.0
290
     0
  0
SCALE
  5
52
102
{ACAD_REACTORS
330
42
102
}
330
42
100
AcDbScale
 70
     0
300
6" = 1'-0"
140
6.0
141
12.0
290
     0
  0
SCALE
  5
53
102
{ACAD_REACTORS
330
42
102
}
330
42
100
AcDbScale
 70
     0
300
1'-0" = 1'-0"
140
12.0
141
12.0
290
     0
  0
ACDBSECTIONVIEWSTYLE
  5
69
102
{ACAD_REACTORS
330
68
102
}
330
68
100
AcDbModelDocViewStyle
 70
     0
  3
Imperial24
290
     1
300
Imperial24
 90
        0
100
AcDbSectionViewStyle
 70
     0
 71
     0
 90
       78
 71
     1
340
55
 62
   256
 40
0.24
340
0
340
0
 62
   256
 40
0.24
300
I, O, Q, S, X, Z
 40
0.48
 90
        3
 40
0.18
 90
        1
 71
     2
340
5D
 90
       25
 62
   256
340
5D
 90
       50
 62
   256
 40
0.24
 40
0.0
 40
0.24
 71
     3
340
55
 62
   256
 40
0.24
 90
        1
 40
0.75
 90
        1
300
%<\AcVar ViewType \f "%tc1">% %<\AcVar ViewSectionStartId>%-%<\AcVar ViewSectionEndId>%\PSCALE %<\AcVar ViewScale \f "%sn">%
 71
     4
 62
   256
 62
   257
300
ANSI31
 40
1.0
 90
        0
290
     0
290
     0
 90
        6
 40
0.0
 40
1.570796326794896
 40
0.2617993877991494
 40
1.308996938995747
 40
-0.2617993877991494
 40
1.832595714594046
  0
TABLESTYLE
  5
65
102
{ACAD_XDICTIONARY
360
10B
102
}
102
{ACAD_REACTORS
330
64
102
}
330
64
100
AcDbTableStyle
280
     0
  3
Standard
 70
     0
 71
     0
 40
0.06
 41
0.06
280
     0
281
     0
  7
Standard
140
0.18
170
     2
 62
     0
 63
     7
283
     0
 90
      512
 91
        0
  1

274
    -2
284
     1
 64
     0
275
    -2
285
     1
 65
     0
276
    -2
286
     1
 66
     0
277
    -2
287
     1
 67
     0
278
    -2
288
     1
 68
     0
279
    -2
289
     1
 69
     0
  7
Standard
140
0.25
170
     5
 62
     0
 63
     7
283
     0
 90
      512
 91
        0
  1

274
    -2
284
     1
 64
     0
275
    -2
285
     1
 65
     0
276
    -2
286
     1
 66
     0
277
    -2
287
     1
 67
     0
278
    -2
288
     1
 68
     0
279
    -2
289
     1
 69
     0
  7
Standard
140
0.18
170
     5
 62
     0
 63
     7
283
     0
 90
      512
 91
        0
  1

274
    -2
284
     1
 64
     0
275
    -2
285
     1
 65
     0
276
    -2
286
     1
 66
     0
277
    -2
287
     1
 67
     0
278
    -2
288
     1
 68
     0
279
    -2
289
     1
 69
     0
  0
VISUALSTYLE
  5
2F
102
{ACAD_REACTORS
330
29
102
}
330
29
100
AcDbVisualStyle
  2
2dWireframe
 70
     4
177
     3
291
     0
 70
    58
 90
        0
176
     1
 90
        2
176
     1
 90
        0
176
     1
 90
        0
176
     1
 40
0.6
176
     1
 40
30.0
176
     1
 62
     7
420
 16777215
176
     1
 90
        1
176
     1
 90
        4
176
     1
 62
     7
176
     1
 62
   257
176
     1
 90
        1
176
     1
 90
        1
176
     1
 40
1.0
176
     1
 90
        0
176
     1
 62
   257
176
     1
 40
1.0
176
     1
 90
        1
176
     1
 90
        6
176
     1
 90
        2
176
     1
 62
     7
176
     1
 90
        5
176
     1
 90
        0
176
     1
 90
        0
176
     1
290
     0
176
     1
 90
        1
176
     1
 40
0.0
176
     1
 90
        0
176
     1
290
     1
176
     1
290
     1
176
     1
290
     0
176
     1
290
     0
176
     1
290
     0
176
     1
290
     0
176
     1
290
     0
176
     1
290
     0
176
     1
290
     0
176
     1
 90
       50
176
     1
 40
0.0
176
     1
 40
1.0
176
     1
 90
        0
176
     1
 62
    18
420
        0
176
     1
 90
       50
176
     1
 90
        3
176
     1
 62
     5
420
      255
176
     1
290
     0
176
     1
 90
       50
176
     1
 90
       50
176
     1
 90
       50
176
     1
290
     0
176
     1
 90
       50
176
     1
 62
   256
176
     0
 40
1.0
176
     0
 90
        2
176
     1
  1
strokes_ogs.tif
176
     1
290
     0
176
     1
 40
1.0
176
     1
 40
1.0
176
     1
  0
VISUALSTYLE
  5
2E
102
{ACAD_REACTORS
330
29
102
}
330
29
100
AcDbVisualStyle
  2
Basic
 70
     7
177
     3
291
     1
 70
    58
 90
        1
176
     1
 90
        0
176
     1
 90
        1
176
     1
 90
        0
176
     1
 40
0.6
176
     1
 40
30.0
176
     1
 62
     7
420
 16777215
176
     1
 90
        0
176
     1
 90
        4
176
     1
 62
     7
176
     1
 62
   257
176
     1
 90
        1
176
     1
 90
        1
176
     1
 40
1.0
176
     1
 90
        8
176
     1
 62
     7
176
     1
 40
1.0
176
     1
 90
        1
176
     1
 90
        6
176
     1
 90
        2
176
     1
 62
     7
176
     1
 90
        5
176
     1
 90
        0
176
     1
 90
        0
176
     1
290
     0
176
     1
 90
        1
176
     1
 40
0.0
176
     1
 90
        0
176
     1
290
     0
176
     1
290
     1
176
     1
290
     1
176
     1
290
     0
176
     1
290
     0
176
     1
290
     0
176
     1
290
     0
176
     1
290
     0
176
     1
290
     0
176
     1
 90
       50
176
     1
 40
0.0
176
     1
 40
1.0
176
     1
 90
        0
176
     1
 62
    18
420
        0
176
     1
 90
       50
176
     1
 90
        3
176
     1
 62
     5
420
      255
176
     1
290
     0
176
     1
 90
       50
176
     1
 90
       50
176
     1
 90
       50
176
     1
290
     0
176
     1
 90
       50
176
     1
 62
   256
176
     0
 40
1.0
176
     0
 90
        2
176
     1
  1
strokes_ogs.tif
176
     1
290
     0
176
     1
 40
1.0
176
     1
 40
1.0
176
     1
  0
VISUALSTYLE
  5
35
102
{ACAD_REACTORS
330
29
102
}
330
29
100
AcDbVisualStyle
  2
Brighten
 70
    12
177
     3
291
     1
 70
    58
 90
        2
176
     1
 90
        2
176
     1
 90
        0
176
     1
 90
        0
176
     1
 40
0.6
176
     1
 40
30.0
176
     1
 62
     7
420
 16777215
176
     1
 90
        1
176
     1
 90
        4
176
     1
 62
     7
176
     1
 62
   257
176
     1
 90
        1
176
     1
 90
        1
176
     1
 40
1.0
176
     1
 90
        8
176
     1
 62
     7
176
     1
 40
1.0
176
     1
 90
        1
176
     1
 90
        6
176
     1
 90
        2
176
     1
 62
     7
176
     1
 90
        5
176
     1
 90
        0
176
     1
 90
        0
176
     1
290
     0
176
     1
 90
        1
176
     1
 40
50.0
176
     1
 90
        0
176
     1
290
     0
176
     1
290
     1
176
     1
290
     1
176
     1
290
     0
176
     1
290
     0
176
     1
290
     0
176
     1
290
     0
176
     1
290
     0
176
     1
290
     0
176
     1
 90
       50
176
     1
 40
0.0
176
     1
 40
1.0
176
     1
 90
        0
176
     1
 62
    18
420
        0
176
     1
 90
       50
176
     1
 90
        3
176
     1
 62
     5
420
      255
176
     1
290
     0
176
     1
 90
       50
176
     1
 90
       50
176
     1
 90
       50
176
     1
290
     0
176
     1
 90
       50
176
     1
 62
   256
176
     0
 40
1.0
176
     0
 90
        2
176
     1
  1
strokes_ogs.tif
176
     1
290
     0
176
     1
 40
1.0
176
     1
 40
1.0
176
     1
  0
VISUALSTYLE
  5
39
102
{ACAD_REACTORS
330
29
102
}
330
29
100
AcDbVisualStyle
  2
ColorChange
 70
    16
177
     3
291
     1
 70
    58
 90
        2
176
     1
 90
        2
176
     1
 90
        3
176
     1
 90
        0
176
     1
 40
0.6
176
     1
 40
30.0
176
     1
 62
     8
420
  8421504
176
     1
 90
        1
176
     1
 90
        4
176
     1
 62
     7
176
     1
 62
   257
176
     1
 90
        1
176
     1
 90
        1
176
     1
 40
1.0
176
     1
 90
        8
176
     1
 62
     8
420
  8421504
176
     1
 40
1.0
176
     1
 90
        1
176
     1
 90
        6
176
     1
 90
        2
176
     1
 62
     7
176
     1
 90
        5
176
     1
 90
        0
176
     1
 90
        0
176
     1
290
     0
176
     1
 90
        1
176
     1
 40
0.0
176
     1
 90
        0
176
     1
290
     0
176
     1
290
     1
176
     1
290
     1
176
     1
290
     0
176
     1
290
     0
176
     1
290
     0
176
     1
290
     0
176
     1
290
     0
176
     1
290
     0
176
     1
 90
       50
176
     1
 40
0.0
176
     1
 40
1.0
176
     1
 90
        0
176
     1
 62
    18
420
        0
176
     1
 90
       50
176
     1
 90
        3
176
     1
 62
     5
420
      255
176
     1
290
     0
176
     1
 90
       50
176
     1
 90
       50
176
     1
 90
       50
176
     1
290
     0
176
     1
 90
       50
176
     1
 62
   256
176
     0
 40
1.0
176
     0
 90
        2
176
     1
  1
strokes_ogs.tif
176
     1
290
     0
176
     1
 40
1.0
176
     1
 40
1.0
176
     1
  0
VISUALSTYLE
  5
32
102
{ACAD_REACTORS
330
29
102
}
330
29
100
AcDbVisualStyle
  2
Conceptual
 70
     9
177
     3
291
     0
 70
    58
 90
        3
176
     1
 90
        2
176
     1
 90
        0
176
     1
 90
        0
176
     1
 40
0.6
176
     1
 40
30.0
176
     1
 62
     7
420
 16777215
176
     1
 90
        2
176
     1
 90
        2
176
     1
 62
     7
176
     1
 62
   257
176
     1
 90
        1
176
     1
 90
        1
176
     1
 40
179.0
176
     1
 90
        8
176
     1
 62
     7
176
     1
 40
1.0
176
     1
 90
        1
176
     1
 90
        6
176
     1
 90
        2
176
     1
 62
     7
176
     1
 90
        3
176
     1
 90
        0
176
     1
 90
        0
176
     1
290
     0
176
     1
 90
        1
176
     1
 40
0.0
176
     1
 90
        0
176
     1
290
     0
176
     1
290
     1
176
     1
290
     1
176
     1
290
     0
176
     1
290
     0
176
     1
290
     0
176
     1
290
     0
176
     1
290
     0
176
     1
290
     0
176
     1
 90
       50
176
     1
 40
0.0
176
     1
 40
1.0
176
     1
 90
        0
176
     1
 62
    18
420
        0
176
     1
 90
       50
176
     1
 90
        3
176
     1
 62
     5
420
      255
176
     1
290
     0
176
     1
 90
       50
176
     1
 90
       50
176
     1
 90
       50
176
     1
290
     0
176
     1
 90
       50
176
     1
 62
   256
176
     0
 40
1.0
176
     0
 90
        2
176
     1
  1
strokes_ogs.tif
176
     1
290
     0
176
     1
 40
1.0
176
     1
 40
1.0
176
     1
  0
VISUALSTYLE
  5
34
102
{ACAD_REACTORS
330
29
102
}
330
29
100
AcDbVisualStyle
  2
Dim
 70
    11
177
     3
291
     1
 70
    58
 90
        2
176
     1
 90
        2
176
     1
 90
        0
176
     1
 90
        0
176
     1
 40
0.6
176
     1
 40
30.0
176
     1
 62
     7
420
 16777215
176
     1
 90
        1
176
     1
 90
        4
176
     1
 62
     7
176
     1
 62
   257
176
     1
 90
        1
176
     1
 90
        1
176
     1
 40
1.0
176
     1
 90
        8
176
     1
 62
     7
176
     1
 40
1.0
176
     1
 90
        1
176
     1
 90
        6
176
     1
 90
        2
176
     1
 62
     7
176
     1
 90
        5
176
     1
 90
        0
176
     1
 90
        0
176
     1
290
     0
176
     1
 90
        1
176
     1
 40
-50.0
176
     1
 90
        0
176
     1
290
     0
176
     1
290
     1
176
     1
290
     1
176
     1
290
     0
176
     1
290
     0
176
     1
290
     0
176
     1
290
     0
176
     1
290
     0
176
     1
290
     0
176
     1
 90
       50
176
     1
 40
0.0
176
     1
 40
1.0
176
     1
 90
        0
176
     1
 62
    18
420
        0
176
     1
 90
       50
176
     1
 90
        3
176
     1
 62
     5
420
      255
176
     1
290
     0
176
     1
 90
       50
176
     1
 90
       50
176
     1
 90
       50
176
     1
290
     0
176
     1
 90
       50
176
     1
 62
   256
176
     0
 40
1.0
176
     0
 90
        2
176
     1
  1
strokes_ogs.tif
176
     1
290
     0
176
     1
 40
1.0
176
     1
 40
1.0
176
     1
  0
VISUALSTYLE
  5
41
102
{ACAD_REACTORS
330
29
102
}
330
29
100
AcDbVisualStyle
  2
EdgeColorOff
 70
    22
177
     3
291
     1
 70
    58
 90
        2
176
     0
 90
        2
176
     0
 90
        0
176
     0
 90
        0
176
     0
 40
0.6
176
     0
 40
30.0
176
     0
 62
     7
420
 16777215
176
     0
 90
        1
176
     0
 90
        4
176
     0
 62
     7
176
     0
 62
   257
176
     0
 90
        1
176
     0
 90
        1
176
     0
 40
1.0
176
     0
 90
        8
176
     2
 62
     7
176
     0
 40
1.0
176
     0
 90
        1
176
     0
 90
        6
176
     0
 90
        2
176
     0
 62
     7
176
     0
 90
        5
176
     0
 90
        0
176
     0
 90
        0
176
     0
290
     0
176
     0
 90
        1
176
     0
 40
0.0
176
     0
 90
        0
176
     0
290
     0
176
     0
290
     1
176
     0
290
     1
176
     0
290
     0
176
     0
290
     0
176
     0
290
     0
176
     0
290
     0
176
     0
290
     0
176
     0
290
     0
176
     0
 90
       50
176
     0
 40
0.0
176
     0
 40
1.0
176
     0
 90
        0
176
     0
 62
    18
420
        0
176
     0
 90
       50
176
     0
 90
        3
176
     0
 62
     5
420
      255
176
     0
290
     0
176
     0
 90
       50
176
     0
 90
       50
176
     0
 90
       50
176
     0
290
     0
176
     0
 90
       50
176
     0
 62
   256
176
     0
 40
1.0
176
     0
 90
        2
176
     0
  1
strokes_ogs.tif
176
     0
290
     0
176
     0
 40
1.0
176
     0
 40
1.0
176
     0
  0
VISUALSTYLE
  5
38
102
{ACAD_REACTORS
330
29
102
}
330
29
100
AcDbVisualStyle
  2
Facepattern
 70
    15
177
     3
291
     1
 70
    58
 90
        2
176
     1
 90
        2
176
     1
 90
        0
176
     1
 90
        0
176
     1
 40
0.6
176
     1
 40
30.0
176
     1
 62
     7
420
 16777215
176
     1
 90
        1
176
     1
 90
        4
176
     1
 62
     7
176
     1
 62
   257
176
     1
 90
        1
176
     1
 90
        1
176
     1
 40
1.0
176
     1
 90
        8
176
     1
 62
     7
176
     1
 40
1.0
176
     1
 90
        1
176
     1
 90
        6
176
     1
 90
        2
176
     1
 62
     7
176
     1
 90
        5
176
     1
 90
        0
176
     1
 90
        0
176
     1
290
     0
176
     1
 90
        1
176
     1
 40
0.0
176
     1
 90
        0
176
     1
290
     0
176
     1
290
     1
176
     1
290
     1
176
     1
290
     0
176
     1
290
     0
176
     1
290
     0
176
     1
290
     0
176
     1
290
     0
176
     1
290
     0
176
     1
 90
       50
176
     1
 40
0.0
176
     1
 40
1.0
176
     1
 90
        0
176
     1
 62
    18
420
        0
176
     1
 90
       50
176
     1
 90
        3
176
     1
 62
     5
420
      255
176
     1
290
     0
176
     1
 90
       50
176
     1
 90
       50
176
     1
 90
       50
176
     1
290
     0
176
     1
 90
       50
176
     1
 62
   256
176
     0
 40
1.0
176
     0
 90
        2
176
     1
  1
strokes_ogs.tif
176
     1
290
     0
176
     1
 40
1.0
176
     1
 40
1.0
176
     1
  0
VISUALSTYLE
  5
2A
102
{ACAD_REACTORS
330
29
102
}
330
29
100
AcDbVisualStyle
  2
Flat
 70
     0
177
     3
291
     1
 70
    58
 90
        2
176
     1
 90
        1
176
     1
 90
        1
176
     1
 90
        2
176
     1
 40
0.6
176
     1
 40
30.0
176
     1
 62
     7
420
 16777215
176
     1
 90
        0
176
     1
 90
        0
176
     1
 62
     7
176
     1
 62
   257
176
     1
 90
        1
176
     1
 90
        1
176
     1
 40
1.0
176
     1
 90
        8
176
     1
 62
     7
176
     1
 40
1.0
176
     1
 90
        1
176
     1
 90
        6
176
     1
 90
        2
176
     1
 62
     7
176
     1
 90
        5
176
     1
 90
        0
176
     1
 90
        0
176
     1
290
     0
176
     1
 90
       13
176
     1
 40
0.0
176
     1
 90
        0
176
     1
290
     0
176
     1
290
     1
176
     1
290
     1
176
     1
290
     0
176
     1
290
     0
176
     1
290
     0
176
     1
290
     0
176
     1
290
     0
176
     1
290
     0
176
     1
 90
       50
176
     1
 40
0.0
176
     1
 40
1.0
176
     1
 90
        0
176
     1
 62
    18
420
        0
176
     1
 90
       50
176
     1
 90
        3
176
     1
 62
     5
420
      255
176
     1
290
     0
176
     1
 90
       50
176
     1
 90
       50
176
     1
 90
       50
176
     1
290
     0
176
     1
 90
       50
176
     1
 62
   256
176
     0
 40
1.0
176
     0
 90
        2
176
     1
  1
strokes_ogs.tif
176
     1
290
     0
176
     1
 40
1.0
176
     1
 40
1.0
176
     1
  0
VISUALSTYLE
  5
2B
102
{ACAD_REACTORS
330
29
102
}
330
29
100
AcDbVisualStyle
  2
FlatWithEdges
 70
     1
177
     3
291
     1
 70
    58
 90
        2
176
     1
 90
        1
176
     1
 90
        1
176
     1
 90
        2
176
     1
 40
0.6
176
     1
 40
30.0
176
     1
 62
     7
420
 16777215
176
     1
 90
        1
176
     1
 90
        0
176
     1
 62
     7
176
     1
 62
   257
176
     1
 90
        1
176
     1
 90
        1
176
     1
 40
1.0
176
     1
 90
        0
176
     1
 62
   257
176
     1
 40
1.0
176
     1
 90
        1
176
     1
 90
        6
176
     1
 90
        2
176
     1
 62
     7
176
     1
 90
        5
176
     1
 90
        0
176
     1
 90
        0
176
     1
290
     0
176
     1
 90
       13
176
     1
 40
0.0
176
     1
 90
        0
176
     1
290
     0
176
     1
290
     1
176
     1
290
     1
176
     1
290
     0
176
     1
290
     0
176
     1
290
     0
176
     1
290
     0
176
     1
290
     0
176
     1
290
     0
176
     1
 90
       50
176
     1
 40
0.0
176
     1
 40
1.0
176
     1
 90
        0
176
     1
 62
    18
420
        0
176
     1
 90
       50
176
     1
 90
        3
176
     1
 62
     5
420
      255
176
     1
290
     0
176
     1
 90
       50
176
     1
 90
       50
176
     1
 90
       50
176
     1
290
     0
176
     1
 90
       50
176
     1
 62
   256
176
     0
 40
1.0
176
     0
 90
        2
176
     1
  1
strokes_ogs.tif
176
     1
290
     0
176
     1
 40
1.0
176
     1
 40
1.0
176
     1
  0
VISUALSTYLE
  5
2C
102
{ACAD_REACTORS
330
29
102
}
330
29
100
AcDbVisualStyle
  2
Gouraud
 70
     2
177
     3
291
     1
 70
    58
 90
        2
176
     1
 90
        2
176
     1
 90
        1
176
     1
 90
        2
176
     1
 40
0.6
176
     1
 40
30.0
176
     1
 62
     7
420
 16777215
176
     1
 90
        0
176
     1
 90
        0
176
     1
 62
     7
176
     1
 62
   257
176
     1
 90
        1
176
     1
 90
        1
176
     1
 40
1.0
176
     1
 90
        0
176
     1
 62
     7
176
     1
 40
1.0
176
     1
 90
        1
176
     1
 90
        6
176
     1
 90
        2
176
     1
 62
     7
176
     1
 90
        5
176
     1
 90
        0
176
     1
 90
        0
176
     1
290
     0
176
     1
 90
       13
176
     1
 40
0.0
176
     1
 90
        0
176
     1
290
     0
176
     1
290
     1
176
     1
290
     1
176
     1
290
     0
176
     1
290
     0
176
     1
290
     0
176
     1
290
     0
176
     1
290
     0
176
     1
290
     0
176
     1
 90
       50
176
     1
 40
0.0
176
     1
 40
1.0
176
     1
 90
        0
176
     1
 62
    18
420
        0
176
     1
 90
       50
176
     1
 90
        3
176
     1
 62
     5
420
      255
176
     1
290
     0
176
     1
 90
       50
176
     1
 90
       50
176
     1
 90
       50
176
     1
290
     0
176
     1
 90
       50
176
     1
 62
   256
176
     0
 40
1.0
176
     0
 90
        2
176
     1
  1
strokes_ogs.tif
176
     1
290
     0
176
     1
 40
1.0
176
     1
 40
1.0
176
     1
  0
VISUALSTYLE
  5
2D
102
{ACAD_REACTORS
330
29
102
}
330
29
100
AcDbVisualStyle
  2
GouraudWithEdges
 70
     3
177
     3
291
     1
 70
    58
 90
        2
176
     1
 90
        2
176
     1
 90
        1
176
     1
 90
        2
176
     1
 40
0.6
176
     1
 40
30.0
176
     1
 62
     7
420
 16777215
176
     1
 90
        1
176
     1
 90
        0
176
     1
 62
     7
176
     1
 62
   257
176
     1
 90
        1
176
     1
 90
        1
176
     1
 40
1.0
176
     1
 90
        0
176
     1
 62
   257
176
     1
 40
1.0
176
     1
 90
        1
176
     1
 90
        6
176
     1
 90
        2
176
     1
 62
     7
176
     1
 90
        5
176
     1
 90
        0
176
     1
 90
        0
176
     1
290
     0
176
     1
 90
       13
176
     1
 40
0.0
176
     1
 90
        0
176
     1
290
     0
176
     1
290
     1
176
     1
290
     1
176
     1
290
     0
176
     1
290
     0
176
     1
290
     0
176
     1
290
     0
176
     1
290
     0
176
     1
290
     0
176
     1
 90
       50
176
     1
 40
0.0
176
     1
 40
1.0
176
     1
 90
        0
176
     1
 62
    18
420
        0
176
     1
 90
       50
176
     1
 90
        3
176
     1
 62
     5
420
      255
176
     1
290
     0
176
     1
 90
       50
176
     1
 90
       50
176
     1
 90
       50
176
     1
290
     0
176
     1
 90
       50
176
     1
 62
   256
176
     0
 40
1.0
176
     0
 90
        2
176
     1
  1
strokes_ogs.tif
176
     1
290
     0
176
     1
 40
1.0
176
     1
 40
1.0
176
     1
  0
VISUALSTYLE
  5
31
102
{ACAD_REACTORS
330
29
102
}
330
29
100
AcDbVisualStyle
  2
Hidden
 70
     6
177
     3
291
     0
 70
    58
 90
        1
176
     1
 90
        2
176
     1
 90
        2
176
     1
 90
        0
176
     1
 40
0.6
176
     1
 40
30.0
176
     1
 62
     7
420
 16777215
176
     1
 90
        2
176
     1
 90
        2
176
     1
 62
     7
176
     1
 62
   257
176
     1
 90
        2
176
     1
 90
        1
176
     1
 40
40.0
176
     1
 90
        0
176
     1
 62
   257
176
     1
 40
1.0
176
     1
 90
        1
176
     1
 90
        6
176
     1
 90
        2
176
     1
 62
     7
176
     1
 90
        3
176
     1
 90
        0
176
     1
 90
        0
176
     1
290
     0
176
     1
 90
        1
176
     1
 40
0.0
176
     1
 90
        0
176
     1
290
     0
176
     1
290
     1
176
     1
290
     1
176
     1
290
     0
176
     1
290
     0
176
     1
290
     0
176
     1
290
     0
176
     1
290
     0
176
     1
290
     0
176
     1
 90
       50
176
     1
 40
0.0
176
     1
 40
1.0
176
     1
 90
        0
176
     1
 62
    18
420
        0
176
     1
 90
       50
176
     1
 90
        3
176
     1
 62
     5
420
      255
176
     1
290
     0
176
     1
 90
       50
176
     1
 90
       50
176
     1
 90
       50
176
     1
290
     0
176
     1
 90
       50
176
     1
 62
   256
176
     0
 40
1.0
176
     0
 90
        2
176
     1
  1
strokes_ogs.tif
176
     1
290
     0
176
     1
 40
1.0
176
     1
 40
1.0
176
     1
  0
VISUALSTYLE
  5
3F
102
{ACAD_REACTORS
330
29
102
}
330
29
100
AcDbVisualStyle
  2
JitterOff
 70
    20
177
     3
291
     1
 70
    58
 90
        2
176
     0
 90
        2
176
     0
 90
        0
176
     0
 90
        0
176
     0
 40
0.6
176
     0
 40
30.0
176
     0
 62
     7
420
 16777215
176
     0
 90
        1
176
     0
 90
        4
176
     0
 62
     7
176
     0
 62
   257
176
     0
 90
        1
176
     0
 90
        1
176
     0
 40
1.0
176
     0
 90
       10
176
     2
 62
     7
176
     0
 40
1.0
176
     0
 90
        1
176
     0
 90
        6
176
     0
 90
        2
176
     0
 62
     7
176
     0
 90
        5
176
     0
 90
        0
176
     0
 90
        0
176
     0
290
     0
176
     0
 90
        1
176
     0
 40
0.0
176
     0
 90
        0
176
     0
290
     0
176
     0
290
     1
176
     0
290
     1
176
     0
290
     0
176
     0
290
     0
176
     0
290
     0
176
     0
290
     0
176
     0
290
     0
176
     0
290
     0
176
     0
 90
       50
176
     0
 40
0.0
176
     0
 40
1.0
176
     0
 90
        0
176
     0
 62
    18
420
        0
176
     0
 90
       50
176
     0
 90
        3
176
     0
 62
     5
420
      255
176
     0
290
     0
176
     0
 90
       50
176
     0
 90
       50
176
     0
 90
       50
176
     0
290
     0
176
     0
 90
       50
176
     0
 62
   256
176
     0
 40
1.0
176
     0
 90
        2
176
     0
  1
strokes_ogs.tif
176
     0
290
     0
176
     0
 40
1.0
176
     0
 40
1.0
176
     0
  0
VISUALSTYLE
  5
37
102
{ACAD_REACTORS
330
29
102
}
330
29
100
AcDbVisualStyle
  2
Linepattern
 70
    14
177
     3
291
     1
 70
    58
 90
        2
176
     1
 90
        2
176
     1
 90
        0
176
     1
 90
        0
176
     1
 40
0.6
176
     1
 40
30.0
176
     1
 62
     7
420
 16777215
176
     1
 90
        1
176
     1
 90
        4
176
     1
 62
     7
176
     1
 62
   257
176
     1
 90
        7
176
     1
 90
        7
176
     1
 40
1.0
176
     1
 90
        8
176
     1
 62
     7
176
     1
 40
1.0
176
     1
 90
        1
176
     1
 90
        6
176
     1
 90
        2
176
     1
 62
     7
176
     1
 90
        5
176
     1
 90
        0
176
     1
 90
        0
176
     1
290
     0
176
     1
 90
        1
176
     1
 40
0.0
176
     1
 90
        0
176
     1
290
     0
176
     1
290
     1
176
     1
290
     1
176
     1
290
     0
176
     1
290
     0
176
     1
290
     0
176
     1
290
     0
176
     1
290
     0
176
     1
290
     0
176
     1
 90
       50
176
     1
 40
0.0
176
     1
 40
1.0
176
     1
 90
        0
176
     1
 62
    18
420
        0
176
     1
 90
       50
176
     1
 90
        3
176
     1
 62
     5
420
      255
176
     1
290
     0
176
     1
 90
       50
176
     1
 90
       50
176
     1
 90
       50
176
     1
290
     0
176
     1
 90
       50
176
     1
 62
   256
176
     0
 40
1.0
176
     0
 90
        2
176
     1
  1
strokes_ogs.tif
176
     1
290
     0
176
     1
 40
1.0
176
     1
 40
1.0
176
     1
  0
VISUALSTYLE
  5
40
102
{ACAD_REACTORS
330
29
102
}
330
29
100
AcDbVisualStyle
  2
OverhangOff
 70
    21
177
     3
291
     1
 70
    58
 90
        2
176
     0
 90
        2
176
     0
 90
        0
176
     0
 90
        0
176
     0
 40
0.6
176
     0
 40
30.0
176
     0
 62
     7
420
 16777215
176
     0
 90
        1
176
     0
 90
        4
176
     0
 62
     7
176
     0
 62
   257
176
     0
 90
        1
176
     0
 90
        1
176
     0
 40
1.0
176
     0
 90
        9
176
     2
 62
     7
176
     0
 40
1.0
176
     0
 90
        1
176
     0
 90
        6
176
     0
 90
        2
176
     0
 62
     7
176
     0
 90
        5
176
     0
 90
        0
176
     0
 90
        0
176
     0
290
     0
176
     0
 90
        1
176
     0
 40
0.0
176
     0
 90
        0
176
     0
290
     0
176
     0
290
     1
176
     0
290
     1
176
     0
290
     0
176
     0
290
     0
176
     0
290
     0
176
     0
290
     0
176
     0
290
     0
176
     0
290
     0
176
     0
 90
       50
176
     0
 40
0.0
176
     0
 40
1.0
176
     0
 90
        0
176
     0
 62
    18
420
        0
176
     0
 90
       50
176
     0
 90
        3
176
     0
 62
     5
420
      255
176
     0
290
     0
176
     0
 90
       50
176
     0
 90
       50
176
     0
 90
       50
176
     0
290
     0
176
     0
 90
       50
176
     0
 62
   256
176
     0
 40
1.0
176
     0
 90
        2
176
     0
  1
strokes_ogs.tif
176
     0
290
     0
176
     0
 40
1.0
176
     0
 40
1.0
176
     0
  0
VISUALSTYLE
  5
33
102
{ACAD_REACTORS
330
29
102
}
330
29
100
AcDbVisualStyle
  2
Realistic
 70
     8
177
     3
291
     0
 70
    58
 90
        2
176
     1
 90
        3
176
     1
 90
        0
176
     1
 90
        2
176
     1
 40
0.6
176
     1
 40
30.0
176
     1
 62
     7
420
 16777215
176
     1
 90
        0
176
     1
 90
        0
176
     1
 62
     7
176
     1
 62
   257
176
     1
 90
        1
176
     1
 90
        1
176
     1
 40
1.0
176
     1
 90
        8
176
     1
 62
   257
176
     1
 40
1.0
176
     1
 90
        1
176
     1
 90
        6
176
     1
 90
        2
176
     1
 62
     7
176
     1
 90
        3
176
     1
 90
        0
176
     1
 90
        0
176
     1
290
     0
176
     1
 90
       13
176
     1
 40
0.0
176
     1
 90
        0
176
     1
290
     0
176
     1
290
     1
176
     1
290
     1
176
     1
290
     0
176
     1
290
     0
176
     1
290
     0
176
     1
290
     0
176
     1
290
     0
176
     1
290
     0
176
     1
 90
       50
176
     1
 40
0.0
176
     1
 40
1.0
176
     1
 90
        0
176
     1
 62
    18
420
        0
176
     1
 90
       50
176
     1
 90
        3
176
     1
 62
     5
420
      255
176
     1
290
     0
176
     1
 90
       50
176
     1
 90
       50
176
     1
 90
       50
176
     1
290
     0
176
     1
 90
       50
176
     1
 62
   256
176
     0
 40
1.0
176
     0
 90
        2
176
     1
  1
strokes_ogs.tif
176
     1
290
     0
176
     1
 40
1.0
176
     1
 40
1.0
176
     1
  0
VISUALSTYLE
  5
3E
102
{ACAD_REACTORS
330
29
102
}
330
29
100
AcDbVisualStyle
  2
Shaded
 70
    27
177
     3
291
     0
 70
    58
 90
        2
176
     1
 90
        2
176
     1
 90
        1
176
     1
 90
        2
176
     1
 40
0.6
176
     1
 40
30.0
176
     1
 62
     7
420
 16777215
176
     1
 90
        0
176
     1
 90
        4
176
     1
 62
     7
176
     1
 62
   257
176
     1
 90
        1
176
     1
 90
        1
176
     1
 40
1.0
176
     1
 90
        8
176
     1
 62
   257
176
     1
 40
1.0
176
     1
 90
        1
176
     1
 90
        6
176
     1
 90
        2
176
     1
 62
     8
420
  7895160
176
     1
 90
        3
176
     1
 90
        0
176
     1
 90
        0
176
     1
290
     0
176
     1
 90
        5
176
     1
 40
0.0
176
     1
 90
        0
176
     1
290
     0
176
     1
290
     1
176
     1
290
     1
176
     1
290
     0
176
     1
290
     0
176
     1
290
     0
176
     1
290
     0
176
     1
290
     0
176
     1
290
     0
176
     1
 90
       50
176
     1
 40
0.0
176
     1
 40
1.0
176
     1
 90
        0
176
     1
 62
    18
420
        0
176
     1
 90
       50
176
     1
 90
        3
176
     1
 62
     5
420
      255
176
     1
290
     0
176
     1
 90
       50
176
     1
 90
       50
176
     1
 90
       50
176
     1
290
     0
176
     1
 90
       50
176
     1
 62
   256
176
     0
 40
1.0
176
     0
 90
        2
176
     1
  1
strokes_ogs.tif
176
     1
290
     0
176
     1
 40
1.0
176
     1
 40
1.0
176
     1
  0
VISUALSTYLE
  5
3D
102
{ACAD_REACTORS
330
29
102
}
330
29
100
AcDbVisualStyle
  2
Shaded with edges
 70
    26
177
     3
291
     0
 70
    58
 90
        2
176
     1
 90
        2
176
     1
 90
        1
176
     1
 90
        2
176
     1
 40
0.6
176
     1
 40
30.0
176
     1
 62
     7
420
 16777215
176
     1
 90
        1
176
     1
 90
        2
176
     1
 62
     7
176
     1
 62
   257
176
     1
 90
        2
176
     1
 90
        1
176
     1
 40
1.0
176
     1
 90
        8
176
     1
 62
   257
176
     1
 40
1.0
176
     1
 90
        1
176
     1
 90
        6
176
     1
 90
        2
176
     1
 62
     7
176
     1
 90
        3
176
     1
 90
        0
176
     1
 90
        0
176
     1
290
     0
176
     1
 90
        5
176
     1
 40
0.0
176
     1
 90
        0
176
     1
290
     0
176
     1
290
     1
176
     1
290
     1
176
     1
290
     0
176
     1
290
     0
176
     1
290
     0
176
     1
290
     0
176
     1
290
     0
176
     1
290
     0
176
     1
 90
       50
176
     1
 40
0.0
176
     1
 40
1.0
176
     1
 90
        0
176
     1
 62
    18
420
        0
176
     1
 90
       50
176
     1
 90
        3
176
     1
 62
     5
420
      255
176
     1
290
     0
176
     1
 90
       50
176
     1
 90
       50
176
     1
 90
       50
176
     1
290
     0
176
     1
 90
       50
176
     1
 62
   256
176
     0
 40
1.0
176
     0
 90
        2
176
     1
  1
strokes_ogs.tif
176
     1
290
     0
176
     1
 40
1.0
176
     1
 40
1.0
176
     1
  0
VISUALSTYLE
  5
3A
102
{ACAD_REACTORS
330
29
102
}
330
29
100
AcDbVisualStyle
  2
Shades of Gray
 70
    23
177
     3
291
     0
 70
    58
 90
        2
176
     1
 90
        2
176
     1
 90
        3
176
     1
 90
        0
176
     1
 40
0.6
176
     1
 40
30.0
176
     1
 62
     7
420
 16777215
176
     1
 90
        2
176
     1
 90
        2
176
     1
 62
     7
176
     1
 62
     7
176
     1
 90
        1
176
     1
 90
        1
176
     1
 40
40.0
176
     1
 90
        8
176
     1
 62
     7
176
     1
 40
1.0
176
     1
 90
        1
176
     1
 90
        6
176
     1
 90
        2
176
     1
 62
     7
176
     1
 90
        3
176
     1
 90
        0
176
     1
 90
        0
176
     1
290
     0
176
     1
 90
        1
176
     1
 40
0.0
176
     1
 90
        0
176
     1
290
     0
176
     1
290
     1
176
     1
290
     1
176
     1
290
     0
176
     1
290
     0
176
     1
290
     0
176
     1
290
     0
176
     1
290
     0
176
     1
290
     0
176
     1
 90
       50
176
     1
 40
0.0
176
     1
 40
1.0
176
     1
 90
        0
176
     1
 62
    18
420
        0
176
     1
 90
       50
176
     1
 90
        3
176
     1
 62
     5
420
      255
176
     1
290
     0
176
     1
 90
       50
176
     1
 90
       50
176
     1
 90
       50
176
     1
290
     0
176
     1
 90
       50
176
     1
 62
   256
176
     0
 40
1.0
176
     0
 90
        2
176
     1
  1
strokes_ogs.tif
176
     1
290
     0
176
     1
 40
1.0
176
     1
 40
1.0
176
     1
  0
VISUALSTYLE
  5
3B
102
{ACAD_REACTORS
330
29
102
}
330
29
100
AcDbVisualStyle
  2
Sketchy
 70
    24
177
     3
291
     0
 70
    58
 90
        1
176
     1
 90
        2
176
     1
 90
        2
176
     1
 90
        0
176
     1
 40
0.6
176
     1
 40
30.0
176
     1
 62
     7
420
 16777215
176
     1
 90
        2
176
     1
 90
        2
176
     1
 62
     7
176
     1
 62
     7
176
     1
 90
        1
176
     1
 90
        1
176
     1
 40
40.0
176
     1
 90
       11
176
     1
 62
     7
176
     1
 40
1.0
176
     1
 90
        1
176
     1
 90
        6
176
     1
 90
        2
176
     1
 62
     7
176
     1
 90
        6
176
     1
 90
        0
176
     1
 90
        0
176
     1
290
     0
176
     1
 90
        1
176
     1
 40
0.0
176
     1
 90
        0
176
     1
290
     0
176
     1
290
     1
176
     1
290
     1
176
     1
290
     0
176
     1
290
     0
176
     1
290
     0
176
     1
290
     0
176
     1
290
     0
176
     1
290
     0
176
     1
 90
       50
176
     1
 40
0.0
176
     1
 40
1.0
176
     1
 90
        0
176
     1
 62
    18
420
        0
176
     1
 90
       50
176
     1
 90
        3
176
     1
 62
     5
420
      255
176
     1
290
     0
176
     1
 90
       50
176
     1
 90
       50
176
     1
 90
       50
176
     1
290
     0
176
     1
 90
       50
176
     1
 62
   256
176
     0
 40
1.0
176
     0
 90
        2
176
     1
  1
strokes_ogs.tif
176
     1
290
     0
176
     1
 40
1.0
176
     1
 40
1.0
176
     1
  0
VISUALSTYLE
  5
36
102
{ACAD_REACTORS
330
29
102
}
330
29
100
AcDbVisualStyle
  2
Thicken
 70
    13
177
     3
291
     1
 70
    58
 90
        2
176
     1
 90
        2
176
     1
 90
        0
176
     1
 90
        0
176
     1
 40
0.6
176
     1
 40
30.0
176
     1
 62
     7
420
 16777215
176
     1
 90
        1
176
     1
 90
        4
176
     1
 62
     7
176
     1
 62
   257
176
     1
 90
        1
176
     1
 90
        1
176
     1
 40
1.0
176
     1
 90
       12
176
     1
 62
     7
176
     1
 40
1.0
176
     1
 90
        1
176
     1
 90
        6
176
     1
 90
        2
176
     1
 62
     7
176
     1
 90
        5
176
     1
 90
        0
176
     1
 90
        0
176
     1
290
     0
176
     1
 90
        1
176
     1
 40
0.0
176
     1
 90
        0
176
     1
290
     0
176
     1
290
     1
176
     1
290
     1
176
     1
290
     0
176
     1
290
     0
176
     1
290
     0
176
     1
290
     0
176
     1
290
     0
176
     1
290
     0
176
     1
 90
       50
176
     1
 40
0.0
176
     1
 40
1.0
176
     1
 90
        0
176
     1
 62
    18
420
        0
176
     1
 90
       50
176
     1
 90
        3
176
     1
 62
     5
420
      255
176
     1
290
     0
176
     1
 90
       50
176
     1
 90
       50
176
     1
 90
       50
176
     1
290
     0
176
     1
 90
       50
176
     1
 62
   256
176
     0
 40
1.0
176
     0
 90
        2
176
     1
  1
strokes_ogs.tif
176
     1
290
     0
176
     1
 40
1.0
176
     1
 40
1.0
176
     1
  0
VISUALSTYLE
  5
30
102
{ACAD_REACTORS
330
29
102
}
330
29
100
AcDbVisualStyle
  2
Wireframe
 70
     5
177
     3
291
     0
 70
    58
 90
        0
176
     1
 90
        2
176
     1
 90
        0
176
     1
 90
        0
176
     1
 40
0.6
176
     1
 40
30.0
176
     1
 62
     7
420
 16777215
176
     1
 90
        1
176
     1
 90
        4
176
     1
 62
     7
176
     1
 62
   257
176
     1
 90
        1
176
     1
 90
        1
176
     1
 40
1.0
176
     1
 90
        0
176
     1
 62
   257
176
     1
 40
1.0
176
     1
 90
        1
176
     1
 90
        6
176
     1
 90
        2
176
     1
 62
     7
176
     1
 90
        3
176
     1
 90
        0
176
     1
 90
        0
176
     1
290
     0
176
     1
 90
        1
176
     1
 40
0.0
176
     1
 90
        0
176
     1
290
     0
176
     1
290
     1
176
     1
290
     1
176
     1
290
     0
176
     1
290
     0
176
     1
290
     0
176
     1
290
     0
176
     1
290
     0
176
     1
290
     0
176
     1
 90
       50
176
     1
 40
0.0
176
     1
 40
1.0
176
     1
 90
        0
176
     1
 62
    18
420
        0
176
     1
 90
       50
176
     1
 90
        3
176
     1
 62
     5
420
      255
176
     1
290
     0
176
     1
 90
       50
176
     1
 90
       50
176
     1
 90
       50
176
     1
290
     0
176
     1
 90
       50
176
     1
 62
   256
176
     0
 40
1.0
176
     0
 90
        2
176
     1
  1
strokes_ogs.tif
176
     1
290
     0
176
     1
 40
1.0
176
     1
 40
1.0
176
     1
  0
VISUALSTYLE
  5
3C
102
{ACAD_REACTORS
330
29
102
}
330
29
100
AcDbVisualStyle
  2
X-Ray
 70
    25
177
     3
291
     0
 70
    58
 90
        2
176
     1
 90
        2
176
     1
 90
        1
176
     1
 90
        1
176
     1
 40
0.5
176
     1
 40
30.0
176
     1
 62
     7
420
 16777215
176
     1
 90
        1
176
     1
 90
        0
176
     1
 62
     7
176
     1
 62
   257
176
     1
 90
        1
176
     1
 90
        1
176
     1
 40
1.0
176
     1
 90
        8
176
     1
 62
     7
176
     1
 40
1.0
176
     1
 90
        1
176
     1
 90
        6
176
     1
 90
        2
176
     1
 62
     7
176
     1
 90
        3
176
     1
 90
        0
176
     1
 90
        0
176
     1
290
     0
176
     1
 90
       13
176
     1
 40
0.0
176
     1
 90
        0
176
     1
290
     0
176
     1
290
     1
176
     1
290
     1
176
     1
290
     0
176
     1
290
     0
176
     1
290
     0
176
     1
290
     0
176
     1
290
     0
176
     1
290
     0
176
     1
 90
       50
176
     1
 40
0.0
176
     1
 40
1.0
176
     1
 90
        0
176
     1
 62
    18
420
        0
176
     1
 90
       50
176
     1
 90
        3
176
     1
 62
     5
420
      255
176
     1
290
     0
176
     1
 90
       50
176
     1
 90
       50
176
     1
 90
       50
176
     1
290
     0
176
     1
 90
       50
176
     1
 62
   256
176
     0
 40
1.0
176
     0
 90
        2
176
     1
  1
strokes_ogs.tif
176
     1
290
     0
176
     1
 40
1.0
176
     1
 40
1.0
176
     1
  0
DICTIONARYVAR
  5
10A
102
{ACAD_REACTORS
330
105
102
}
330
105
100
DictionaryVariables
280
     0
  1
1:1
  0
DICTIONARYVAR
  5
107
102
{ACAD_REACTORS
330
105
102
}
330
105
100
DictionaryVariables
280
     0
  1
STANDARD
  0
DICTIONARYVAR
  5
106
102
{ACAD_REACTORS
330
105
102
}
330
105
100
DictionaryVariables
280
     0
  1
STANDARD
  0
DICTIONARYVAR
  5
108
102
{ACAD_REACTORS
330
105
102
}
330
105
100
DictionaryVariables
280
     0
  1
Imperial24
  0
DICTIONARYVAR
  5
109
102
{ACAD_REACTORS
330
105
102
}
330
105
100
DictionaryVariables
280
     0
  1
Imperial24
  0
DICTIONARY
  5
1A
330
19
100
AcDbDictionary
280
     1
281
     1
  3
BUMPTILE
360
1C
  3
DIFFUSETILE
360
1B
  3
OPACITYTILE
360
1F
  3
REFLECTIONTILE
360
1E
  3
REFRACTIONTILE
360
20
  3
SPECULARTILE
360
1D
  0
DICTIONARY
  5
12
330
11
100
AcDbDictionary
280
     1
281
     1
  3
BUMPTILE
360
14
  3
DIFFUSETILE
360
13
  3
OPACITYTILE
360
17
  3
REFLECTIONTILE
360
16
  3
REFRACTIONTILE
360
18
  3
SPECULARTILE
360
15
  0
DICTIONARY
  5
22
330
21
100
AcDbDictionary
280
     1
281
     1
  3
BUMPTILE
360
24
  3
DIFFUSETILE
360
23
  3
OPACITYTILE
360
27
  3
REFLECTIONTILE
360
26
  3
REFRACTIONTILE
360
28
  3
SPECULARTILE
360
25
  0
DICTIONARY
  5
10B
330
65
100
AcDbDictionary
280
     1
281
     1
  3
ACAD_ROUNDTRIP_2008_TABLESTYLE_CELLSTYLEMAP
360
10C
  0
XRECORD
  5
1C
102
{ACAD_REACTORS
330
1A
102
}
330
1A
100
AcDbXrecord
280
     1
270
     1
271
     1
  0
XRECORD
  5
1B
102
{ACAD_REACTORS
330
1A
102
}
330
1A
100
AcDbXrecord
280
     1
270
     1
271
     1
  0
XRECORD
  5
1F
102
{ACAD_REACTORS
330
1A
102
}
330
1A
100
AcDbXrecord
280
     1
270
     1
271
     1
  0
XRECORD
  5
1E
102
{ACAD_REACTORS
330
1A
102
}
330
1A
100
AcDbXrecord
280
     1
270
     1
271
     1
  0
XRECORD
  5
20
102
{ACAD_REACTORS
330
1A
102
}
330
1A
100
AcDbXrecord
280
     1
270
     1
271
     1
  0
XRECORD
  5
1D
102
{ACAD_REACTORS
330
1A
102
}
330
1A
100
AcDbXrecord
280
     1
270
     1
271
     1
  0
XRECORD
  5
14
102
{ACAD_REACTORS
330
12
102
}
330
12
100
AcDbXrecord
280
     1
270
     1
271
     1
  0
XRECORD
  5
13
102
{ACAD_REACTORS
330
12
102
}
330
12
100
AcDbXrecord
280
     1
270
     1
271
     1
  0
XRECORD
  5
17
102
{ACAD_REACTORS
330
12
102
}
330
12
100
AcDbXrecord
280
     1
270
     1
271
     1
  0
XRECORD
  5
16
102
{ACAD_REACTORS
330
12
102
}
330
12
100
AcDbXrecord
280
     1
270
     1
271
     1
  0
XRECORD
  5
18
102
{ACAD_REACTORS
330
12
102
}
330
12
100
AcDbXrecord
280
     1
270
     1
271
     1
  0
XRECORD
  5
15
102
{ACAD_REACTORS
330
12
102
}
330
12
100
AcDbXrecord
280
     1
270
     1
271
     1
  0
XRECORD
  5
24
102
{ACAD_REACTORS
330
22
102
}
330
22
100
AcDbXrecord
280
     1
270
     1
271
     1
  0
XRECORD
  5
23
102
{ACAD_REACTORS
330
22
102
}
330
22
100
AcDbXrecord
280
     1
270
     1
271
     1
  0
XRECORD
  5
27
102
{ACAD_REACTORS
330
22
102
}
330
22
100
AcDbXrecord
280
     1
270
     1
271
     1
  0
XRECORD
  5
26
102
{ACAD_REACTORS
330
22
102
}
330
22
100
AcDbXrecord
280
     1
270
     1
271
     1
  0
XRECORD
  5
28
102
{ACAD_REACTORS
330
22
102
}
330
22
100
AcDbXrecord
280
     1
270
     1
271
     1
  0
XRECORD
  5
25
102
{ACAD_REACTORS
330
22
102
}
330
22
100
AcDbXrecord
280
     1
270
     1
271
     1
  0
CELLSTYLEMAP
  5
10C
102
{ACAD_REACTORS
330
10B
102
}
330
10B
100
AcDbCellStyleMap
 90
        3
300
CELLSTYLE
  1
TABLEFORMAT_BEGIN
 90
        5
170
     1
 91
        0
 92
    32768
 62
   257
 93
        1
300
CONTENTFORMAT
  1
CONTENTFORMAT_BEGIN
 90
        0
 91
        0
 92
      512
 93
        0
300

 40
0.0
140
1.0
 94
        5
 62
     0
340
55
144
0.25
309
CONTENTFORMAT_END
171
     0
 94
        0
309
TABLEFORMAT_END
  1
CELLSTYLE_BEGIN
 90
        1
 91
        1
300
_TITLE
309
CELLSTYLE_END
300
CELLSTYLE
  1
TABLEFORMAT_BEGIN
 90
        5
170
     1
 91
        0
 92
        0
 62
   257
 93
        1
300
CONTENTFORMAT
  1
CONTENTFORMAT_BEGIN
 90
        0
 91
        0
 92
      512
 93
        0
300

 40
0.0
140
1.0
 94
        5
 62
     0
340
55
144
0.18
309
CONTENTFORMAT_END
171
     0
 94
        0
309
TABLEFORMAT_END
  1
CELLSTYLE_BEGIN
 90
        2
 91
        1
300
_HEADER
309
CELLSTYLE_END
300
CELLSTYLE
  1
TABLEFORMAT_BEGIN
 90
        5
170
     1
 91
        0
 92
        0
 62
   257
 93
        1
300
CONTENTFORMAT
  1
CONTENTFORMAT_BEGIN
 90
        0
 91
        0
 92
      512
 93
        0
300

 40
0.0
140
1.0
 94
        2
 62
     0
340
55
144
0.18
309
CONTENTFORMAT_END
171
     0
 94
        0
309
TABLEFORMAT_END
  1
CELLSTYLE_BEGIN
 90
        3
 91
        2
300
_DATA
309
CELLSTYLE_END
  0
ENDSEC
  0
EOF
