  0
SECTION
  2
HEADER
  9
$ACADVER
  1
AC1032
  9
$ACADMAINTVER
 90
      228
  9
$DWGCODEPAGE
  3
ANSI_932
  9
$REQUIREDVERSIONS
160
                 0
  9
$INSBASE
 10
0.0
 20
0.0
 30
0.0
  9
$EXTMIN
 10
1.000000000000000E+20
 20
1.000000000000000E+20
 30
1.000000000000000E+20
  9
$EXTMAX
 10
-1.000000000000000E+20
 20
-1.000000000000000E+20
 30
-1.000000000000000E+20
  9
$LIMMIN
 10
0.0
 20
0.0
  9
$LIMMAX
 10
12.0
 20
9.0
  9
$ORTHOMODE
 70
     0
  9
$REGENMODE
 70
     1
  9
$FILLMODE
 70
     1
  9
$QTEXTMODE
 70
     0
  9
$MIRRTEXT
 70
     0
  9
$LTSCALE
 40
1.0
  9
$ATTMODE
 70
     1
  9
$TEXTSIZE
 40
0.2
  9
$TRACEWID
 40
0.05
  9
$TEXTSTYLE
  7
Standard
  9
$CLAYER
  8
0
  9
$CELTYPE
  6
ByLayer
  9
$CECOLOR
 62
   256
  9
$CELTSCALE
 40
1.0
  9
$DISPSILH
 70
     0
  9
$DIMSCALE
 40
1.0
  9
$DIMASZ
 40
0.18
  9
$DIMEXO
 40
0.0625
  9
$DIMDLI
 40
0.38
  9
$DIMRND
 40
0.0
  9
$DIMDLE
 40
0.0
  9
$DIMEXE
 40
0.18
  9
$DIMTP
 40
0.0
  9
$DIMTM
 40
0.0
  9
$DIMTXT
 40
0.18
  9
$DIMCEN
 40
0.09
  9
$DIMTSZ
 40
0.0
  9
$DIMTOL
 70
     0
  9
$DIMLIM
 70
     0
  9
$DIMTIH
 70
     1
  9
$DIMTOH
 70
     1
  9
$DIMSE1
 70
     0
  9
$DIMSE2
 70
     0
  9
$DIMTAD
 70
     0
  9
$DIMZIN
 70
     0
  9
$DIMBLK
  1

  9
$DIMASO
 70
     1
  9
$DIMSHO
 70
     1
  9
$DIMPOST
  1

  9
$DIMAPOST
  1

  9
$DIMALT
 70
     0
  9
$DIMALTD
 70
     2
  9
$DIMALTF
 40
25.4
  9
$DIMLFAC
 40
1.0
  9
$DIMTOFL
 70
     0
  9
$DIMTVP
 40
0.0
  9
$DIMTIX
 70
     0
  9
$DIMSOXD
 70
     0
  9
$DIMSAH
 70
     0
  9
$DIMBLK1
  1

  9
$DIMBLK2
  1

  9
$DIMSTYLE
  2
Standard
  9
$DIMCLRD
 70
     0
  9
$DIMCLRE
 70
     0
  9
$DIMCLRT
 70
     0
  9
$DIMTFAC
 40
1.0
  9
$DIMGAP
 40
0.09
  9
$DIMJUST
 70
     0
  9
$DIMSD1
 70
     0
  9
$DIMSD2
 70
     0
  9
$DIMTOLJ
 70
     1
  9
$DIMTZIN
 70
     0
  9
$DIMALTZ
 70
     0
  9
$DIMALTTZ
 70
     0
  9
$DIMUPT
 70
     0
  9
$DIMDEC
 70
     4
  9
$DIMTDEC
 70
     4
  9
$DIMALTU
 70
     2
  9
$DIMALTTD
 70
     2
  9
$DIMTXSTY
  7
Standard
  9
$DIMAUNIT
 70
     0
  9
$DIMADEC
 70
     0
  9
$DIMALTRND
 40
0.0
  9
$DIMAZIN
 70
     0
  9
$DIMDSEP
 70
    46
  9
$DIMATFIT
 70
     3
  9
$DIMFRAC
 70
     0
  9
$DIMLDRBLK
  1

  9
$DIMLUNIT
 70
     2
  9
$DIMLWD
 70
    -2
  9
$DIMLWE
 70
    -2
  9
$DIMTMOVE
 70
     0
  9
$DIMFXL
 40
1.0
  9
$DIMFXLON
 70
     0
  9
$DIMJOGANG
 40
0.7853981633974483
  9
$DIMTFILL
 70
     0
  9
$DIMTFILLCLR
 70
     0
  9
$DIMARCSYM
 70
     0
  9
$DIMLTYPE
  6

  9
$DIMLTEX1
  6

  9
$DIMLTEX2
  6

  9
$DIMTXTDIRECTION
 70
     0
  9
$LUNITS
 70
     2
  9
$LUPREC
 70
     4
  9
$SKETCHINC
 40
0.1
  9
$FILLETRAD
 40
0.0
  9
$AUNITS
 70
     0
  9
$AUPREC
 70
     0
  9
$MENU
  1
.
  9
$ELEVATION
 40
0.0
  9
$PELEVATION
 40
0.0
  9
$THICKNESS
 40
0.0
  9
$LIMCHECK
 70
     0
  9
$CHAMFERA
 40
0.0
  9
$CHAMFERB
 40
0.0
  9
$CHAMFERC
 40
0.0
  9
$CHAMFERD
 40
0.0
  9
$SKPOLY
 70
     0
  9
$TDCREATE
 40
2460061.770844907
  9
$TDUCREATE
 40
2460061.395844908
  9
$TDUPDATE
 40
2460061.770844907
  9
$TDUUPDATE
 40
2460061.395844908
  9
$TDINDWG
 40
0.0000000000
  9
$TDUSRTIMER
 40
0.0000000000
  9
$USRTIMER
 70
     1
  9
$ANGBASE
 50
0.0
  9
$ANGDIR
 70
     0
  9
$PDMODE
 70
     0
  9
$PDSIZE
 40
0.0
  9
$PLINEWID
 40
0.0
  9
$SPLFRAME
 70
     0
  9
$SPLINETYPE
 70
     6
  9
$SPLINESEGS
 70
     8
  9
$HANDSEED
  5
111
  9
$SURFTAB1
 70
     6
  9
$SURFTAB2
 70
     6
  9
$SURFTYPE
 70
     6
  9
$SURFU
 70
     6
  9
$SURFV
 70
     6
  9
$UCSBASE
  2

  9
$UCSNAME
  2

  9
$UCSORG
 10
0.0
 20
0.0
 30
0.0
  9
$UCSXDIR
 10
1.0
 20
0.0
 30
0.0
  9
$UCSYDIR
 10
0.0
 20
1.0
 30
0.0
  9
$UCSORTHOREF
  2

  9
$UCSORTHOVIEW
 70
     0
  9
$UCSORGTOP
 10
0.0
 20
0.0
 30
0.0
  9
$UCSORGBOTTOM
 10
0.0
 20
0.0
 30
0.0
  9
$UCSORGLEFT
 10
0.0
 20
0.0
 30
0.0
  9
$UCSORGRIGHT
 10
0.0
 20
0.0
 30
0.0
  9
$UCSORGFRONT
 10
0.0
 20
0.0
 30
0.0
  9
$UCSORGBACK
 10
0.0
 20
0.0
 30
0.0
  9
$PUCSBASE
  2

  9
$PUCSNAME
  2

  9
$PUCSORG
 10
0.0
 20
0.0
 30
0.0
  9
$PUCSXDIR
 10
1.0
 20
0.0
 30
0.0
  9
$PUCSYDIR
 10
0.0
 20
1.0
 30
0.0
  9
$PUCSORTHOREF
  2

  9
$PUCSORTHOVIEW
 70
     0
  9
$PUCSORGTOP
 10
0.0
 20
0.0
 30
0.0
  9
$PUCSORGBOTTOM
 10
0.0
 20
0.0
 30
0.0
  9
$PUCSORGLEFT
 10
0.0
 20
0.0
 30
0.0
  9
$PUCSORGRIGHT
 10
0.0
 20
0.0
 30
0.0
  9
$PUCSORGFRONT
 10
0.0
 20
0.0
 30
0.0
  9
$PUCSORGBACK
 10
0.0
 20
0.0
 30
0.0
  9
$USERI1
 70
     0
  9
$USERI2
 70
     0
  9
$USERI3
 70
     0
  9
$USERI4
 70
     0
  9
$USERI5
 70
     0
  9
$USERR1
 40
0.0
  9
$USERR2
 40
0.0
  9
$USERR3
 40
0.0
  9
$USERR4
 40
0.0
  9
$USERR5
 40
0.0
  9
$WORLDVIEW
 70
     1
  9
$SHADEDGE
 70
     3
  9
$SHADEDIF
 70
    70
  9
$TILEMODE
 70
     1
  9
$MAXACTVP
 70
    64
  9
$PINSBASE
 10
0.0
 20
0.0
 30
0.0
  9
$PLIMCHECK
 70
     0
  9
$PEXTMIN
 10
1.000000000000000E+20
 20
1.000000000000000E+20
 30
1.000000000000000E+20
  9
$PEXTMAX
 10
-1.000000000000000E+20
 20
-1.000000000000000E+20
 30
-1.000000000000000E+20
  9
$PLIMMIN
 10
0.0
 20
0.0
  9
$PLIMMAX
 10
12.0
 20
9.0
  9
$UNITMODE
 70
     0
  9
$VISRETAIN
 70
     1
  9
$PLINEGEN
 70
     0
  9
$PSLTSCALE
 70
     1
  9
$TREEDEPTH
 70
  3020
  9
$CMLSTYLE
  2
Standard
  9
$CMLJUST
 70
     0
  9
$CMLSCALE
 40
1.0
  9
$PROXYGRAPHICS
 70
     1
  9
$MEASUREMENT
 70
     0
  9
$CELWEIGHT
370
    -1
  9
$ENDCAPS
280
     0
  9
$JOINSTYLE
280
     0
  9
$LWDISPLAY
290
     1
  9
$INSUNITS
 70
     4
  9
$HYPERLINKBASE
  1

  9
$STYLESHEET
  1

  9
$XEDIT
290
     1
  9
$CEPSNTYPE
380
     0
  9
$PSTYLEMODE
290
     1
  9
$FINGERPRINTGUID
  2
{6D4EA4B0-77AE-4D4C-AA0A-F83BCE02F782}
  9
$VERSIONGUID
  2
{FBC2FAB9-59DC-454A-BEE3-C27FA4BDEA4E}
  9
$EXTNAMES
290
     1
  9
$PSVPSCALE
 40
0.0
  9
$OLESTARTUP
290
     0
  9
$SORTENTS
280
   127
  9
$INDEXCTL
280
     0
  9
$HIDETEXT
280
     1
  9
$XCLIPFRAME
280
     2
  9
$HALOGAP
280
     0
  9
$OBSCOLOR
 70
   257
  9
$OBSLTYPE
280
     0
  9
$INTERSECTIONDISPLAY
280
     0
  9
$INTERSECTIONCOLOR
 70
   257
  9
$DIMASSOC
280
     2
  9
$PROJECTNAME
  1

  9
$CAMERADISPLAY
290
     0
  9
$LENSLENGTH
 40
50.0
  9
$CAMERAHEIGHT
 40
0.0
  9
$STEPSPERSEC
 40
2.0
  9
$STEPSIZE
 40
6.0
  9
$3DDWFPREC
 40
2.0
  9
$PSOLWIDTH
 40
0.25
  9
$PSOLHEIGHT
 40
4.0
  9
$LOFTANG1
 40
1.570796326794896
  9
$LOFTANG2
 40
1.570796326794896
  9
$LOFTMAG1
 40
0.0
  9
$LOFTMAG2
 40
0.0
  9
$LOFTPARAM
 70
     7
  9
$LOFTNORMALS
280
     1
  9
$LATITUDE
 40
37.795
  9
$LONGITUDE
 40
-122.394
  9
$NORTHDIRECTION
 40
0.0
  9
$TIMEZONE
 70
 -8000
  9
$LIGHTGLYPHDISPLAY
280
     1
  9
$TILEMODELIGHTSYNCH
280
     1
  9
$CMATERIAL
347
11
  9
$SOLIDHIST
280
     0
  9
$SHOWHIST
280
     1
  9
$DWFFRAME
280
     2
  9
$DGNFRAME
280
     0
  9
$REALWORLDSCALE
290
     1
  9
$INTERFERECOLOR
 62
     1
  9
$INTERFEREOBJVS
345
33
  9
$INTERFEREVPVS
346
30
  9
$CSHADOW
280
     0
  9
$SHADOWPLANELOCATION
 40
0.0
  0
ENDSEC
  0
SECTION
  2
CLASSES
  0
CLASS
  1
ACDBDICTIONARYWDFLT
  2
AcDbDictionaryWithDefault
  3
ObjectDBX Classes
 90
        0
 91
        1
280
     0
281
     0
  0
CLASS
  1
MATERIAL
  2
AcDbMaterial
  3
ObjectDBX Classes
 90
     1153
 91
        3
280
     0
281
     0
  0
CLASS
  1
VISUALSTYLE
  2
AcDbVisualStyle
  3
ObjectDBX Classes
 90
     4095
 91
       24
280
     0
281
     0
  0
CLASS
  1
SCALE
  2
AcDbScale
  3
ObjectDBX Classes
 90
     1153
 91
       17
280
     0
281
     0
  0
CLASS
  1
TABLESTYLE
  2
AcDbTableStyle
  3
ObjectDBX Classes
 90
     4095
 91
        1
280
     0
281
     0
  0
CLASS
  1
MLEADERSTYLE
  2
AcDbMLeaderStyle
  3
ACDB_MLEADERSTYLE_CLASS
 90
     4095
 91
        1
280
     0
281
     0
  0
CLASS
  1
ACDBSECTIONVIEWSTYLE
  2
AcDbSectionViewStyle
  3
ObjectDBX Classes
 90
     1025
 91
        1
280
     0
281
     0
  0
CLASS
  1
ACDBDETAILVIEWSTYLE
  2
AcDbDetailViewStyle
  3
ObjectDBX Classes
 90
     1025
 91
        1
280
     0
281
     0
  0
CLASS
  1
DICTIONARYVAR
  2
AcDbDictionaryVar
  3
ObjectDBX Classes
 90
        0
 91
        5
280
     0
281
     0
  0
CLASS
  1
CELLSTYLEMAP
  2
AcDbCellStyleMap
  3
ObjectDBX Classes
 90
     1152
 91
        1
280
     0
281
     0
  0
ENDSEC
  0
SECTION
  2
TABLES
  0
TABLE
  2
VPORT
  5
8
330
0
100
AcDbSymbolTable
 70
     1
  0
VPORT
  5
57
330
8
100
AcDbSymbolTableRecord
100
AcDbViewportTableRecord
  2
*Active
 70
     0
 10
0.0
 20
0.0
 11
1.0
 21
1.0
 12
0.0
 22
0.0
 13
0.0
 23
0.0
 14
1.0
 24
1.0
 15
0.0
 25
0.0
 16
0.0
 26
0.0
 36
1.0
 17
338.666666582
 27
190.7852538585537
 37
0.0
 40
389.2019178714495
 41
1.775119720904028
 42
50.0
 43
0.0
 44
0.0
 50
0.0
 51
0.0
 71
     0
 72
   100
 73
     1
 74
     1
 75
     0
 76
     0
 77
     0
 78
     0
281
     0
 65
     1
110
0.0
120
0.0
130
0.0
111
1.0
121
0.0
131
0.0
112
0.0
122
1.0
132
0.0
 79
     0
146
0.0
 60
     3
 61
     5
292
     1
282
     1
141
0.0
142
0.0
 63
   250
421
  3355443
  0
ENDTAB
  0
TABLE
  2
LTYPE
  5
5
330
0
100
AcDbSymbolTable
 70
     1
  0
LTYPE
  5
5B
330
5
100
AcDbSymbolTableRecord
100
AcDbLinetypeTableRecord
  2
ByBlock
 70
     0
  3

 72
    65
 73
     0
 40
0.0
  0
LTYPE
  5
5C
330
5
100
AcDbSymbolTableRecord
100
AcDbLinetypeTableRecord
  2
ByLayer
 70
     0
  3

 72
    65
 73
     0
 40
0.0
  0
LTYPE
  5
5D
330
5
100
AcDbSymbolTableRecord
100
AcDbLinetypeTableRecord
  2
Continuous
 70
     0
  3
Solid line
 72
    65
 73
     0
 40
0.0
  0
ENDTAB
  0
TABLE
  2
LAYER
  5
2
330
0
100
AcDbSymbolTable
 70
     5
  0
LAYER
  5
54
330
2
100
AcDbSymbolTableRecord
100
AcDbLayerTableRecord
  2
0
 70
     0
 62
     7
  6
Continuous
370
     0
390
F
347
21
348
0
  0
LAYER
  5
7A
330
2
100
AcDbSymbolTableRecord
100
AcDbLayerTableRecord
  2
FLAME
 70
     0
 62
     7
  6
Continuous
370
     0
390
F
347
21
348
0
  0
LAYER
  5
81
330
2
100
AcDbSymbolTableRecord
100
AcDbLayerTableRecord
  2
Defpoints
 70
     0
 62
     7
  6
Continuous
290
     0
370
     0
390
F
347
21
348
0
  0
LAYER
  5
83
330
2
100
AcDbSymbolTableRecord
100
AcDbLayerTableRecord
  2
TEXT
 70
     0
 62
     7
  6
Continuous
370
     0
390
F
347
21
348
0
  0
LAYER
  5
87
330
2
100
AcDbSymbolTableRecord
100
AcDbLayerTableRecord
  2
SHADE
 70
     0
 62
     7
  6
Continuous
370
     0
390
F
347
21
348
0
  0
ENDTAB
  0
TABLE
  2
STYLE
  5
3
330
0
100
AcDbSymbolTable
 70
     2
  0
STYLE
  5
55
330
3
100
AcDbSymbolTableRecord
100
AcDbTextStyleTableRecord
  2
Standard
 70
     0
 40
0.0
 41
1.0
 50
0.0
 71
     0
 42
0.2
  3
txt
  4

  0
STYLE
  5
5A
330
3
100
AcDbSymbolTableRecord
100
AcDbTextStyleTableRecord
  2
Annotative
 70
     0
 40
0.0
 41
1.0
 50
0.0
 71
     0
 42
0.2
  3
txt
  4

1001
AcadAnnotative
1000
AnnotativeData
1002
{
1070
     1
1070
     1
1002
}
  0
ENDTAB
  0
TABLE
  2
VIEW
  5
6
330
0
100
AcDbSymbolTable
 70
     0
  0
ENDTAB
  0
TABLE
  2
UCS
  5
7
330
0
100
AcDbSymbolTable
 70
     0
  0
ENDTAB
  0
TABLE
  2
APPID
  5
9
330
0
100
AcDbSymbolTable
 70
     2
  0
APPID
  5
56
330
9
100
AcDbSymbolTableRecord
100
AcDbRegAppTableRecord
  2
ACAD
 70
     0
  0
APPID
  5
5E
330
9
100
AcDbSymbolTableRecord
100
AcDbRegAppTableRecord
  2
AcadAnnotative
 70
     0
  0
ENDTAB
  0
TABLE
  2
DIMSTYLE
  5
A
330
0
100
AcDbSymbolTable
 70
     2
100
AcDbDimStyleTable
 71
     0
  0
DIMSTYLE
105
58
330
A
100
AcDbSymbolTableRecord
100
AcDbDimStyleTableRecord
  2
Standard
 70
     0
340
55
  0
DIMSTYLE
105
59
330
A
100
AcDbSymbolTableRecord
100
AcDbDimStyleTableRecord
  2
Annotative
 70
     0
340
55
1001
AcadAnnotative
1000
AnnotativeData
1002
{
1070
     1
1070
     1
1002
}
  0
ENDTAB
  0
TABLE
  2
BLOCK_RECORD
  5
1
330
0
100
AcDbSymbolTable
 70
     1
  0
BLOCK_RECORD
  5
70
330
1
100
AcDbSymbolTableRecord
100
AcDbBlockTableRecord
  2
*Model_Space
340
73
 70
     0
280
     1
281
     0
  0
BLOCK_RECORD
  5
6C
330
1
100
AcDbSymbolTableRecord
100
AcDbBlockTableRecord
  2
*Paper_Space
340
6F
 70
     0
280
     1
281
     0
  0
BLOCK_RECORD
  5
74
330
1
100
AcDbSymbolTableRecord
100
AcDbBlockTableRecord
  2
*Paper_Space0
340
77
 70
     0
280
     1
281
     0
  0
ENDTAB
  0
ENDSEC
  0
SECTION
  2
BLOCKS
  0
BLOCK
  5
71
330
70
100
AcDbEntity
  8
0
100
AcDbBlockBegin
  2
*Model_Space
 70
     0
 10
0.0
 20
0.0
 30
0.0
  3
*Model_Space
  1

  0
ENDBLK
  5
72
330
70
100
AcDbEntity
  8
0
100
AcDbBlockEnd
  0
BLOCK
  5
6D
330
6C
100
AcDbEntity
 67
     1
  8
0
100
AcDbBlockBegin
  2
*Paper_Space
 70
     0
 10
0.0
 20
0.0
 30
0.0
  3
*Paper_Space
  1

  0
ENDBLK
  5
6E
330
6C
100
AcDbEntity
 67
     1
  8
0
100
AcDbBlockEnd
  0
BLOCK
  5
75
330
74
100
AcDbEntity
 67
     1
  8
0
100
AcDbBlockBegin
  2
*Paper_Space0
 70
     0
 10
0.0
 20
0.0
 30
0.0
  3
*Paper_Space0
  1

  0
ENDBLK
  5
76
330
74
100
AcDbEntity
 67
     1
  8
0
100
AcDbBlockEnd
  0
ENDSEC
  0
SECTION
  2
ENTITIES
  0
MTEXT
  5
78
330
70
100
AcDbEntity
  8
0
100
AcDbMText
 10
189.9275112101136
 20
380.9999999047501
 30
0.0
 40
0.2
 41
0.0
 46
0.0
 71
     7
 72
     1
  1
\C4;\c16776960;\FKozuka Gothic Pr6N R|b0|i0|c128;\H0.458978;\W0.833333;　
 73
     1
 44
1.0
  0
MTEXT
  5
79
330
70
100
AcDbEntity
  8
0
100
AcDbMText
 10
193.4714163402498
 20
380.9871669240675
 30
0.0
 40
0.2
 41
0.0
 46
0.0
 71
     7
 72
     1
  1
\C4;\c16776960;\FKozuka Gothic Pr6N R|b0|i0|c128;\H0.458978;\W0.833333;　
 73
     1
 44
1.0
  0
LINE
  5
7B
330
70
100
AcDbEntity
  8
FLAME
 62
     2
420
 16776960
370
    25
100
AcDbLine
 10
472.6353613218048
 20
271.1252559465058
 30
0.0
 11
472.6353613218048
 21
134.5793585963913
 31
0.0
  0
LINE
  5
7C
330
70
100
AcDbEntity
  8
FLAME
 62
     2
420
 16776960
370
    25
100
AcDbLine
 10
355.5960207359899
 20
134.5793585963913
 30
0.0
 11
355.5960207359899
 21
271.1252559465058
 31
0.0
  0
LINE
  5
7D
330
70
100
AcDbEntity
  8
FLAME
 62
     2
420
 16776960
370
    25
100
AcDbLine
 10
472.6353613218048
 20
134.5793585963913
 30
0.0
 11
355.5960207359899
 21
134.5793585963913
 31
0.0
  0
LINE
  5
7E
330
70
100
AcDbEntity
  8
FLAME
 62
     2
420
 16776960
370
    25
100
AcDbLine
 10
472.6353613218048
 20
141.0815441844909
 30
0.0
 11
355.5960207359899
 21
141.0815441844909
 31
0.0
  0
LINE
  5
7F
330
70
100
AcDbEntity
  8
FLAME
 62
     2
420
 16776960
370
    25
100
AcDbLine
 10
472.6353613218048
 20
147.5837297725995
 30
0.0
 11
355.5960207359899
 21
147.5837297725995
 31
0.0
  0
LINE
  5
80
330
70
100
AcDbEntity
  8
FLAME
 62
     2
420
 16776960
370
    25
100
AcDbLine
 10
472.6353613218048
 20
271.1252559465058
 30
0.0
 11
355.5960207359899
 21
271.1252559465058
 31
0.0
  0
LWPOLYLINE
  5
82
330
70
100
AcDbEntity
  8
Defpoints
 62
     1
420
 16711680
370
     0
100
AcDbPolyline
 90
        4
 70
     1
 43
0.0
 10
293.3719154322067
 20
380.9871669240675
 10
546.9571533681277
 20
380.9871669240675
 10
546.9571533681277
 20
14.2638997552048
 10
293.3719154322067
 20
14.2638997552048
  0
MTEXT
  5
84
330
70
100
AcDbEntity
  8
TEXT
100
AcDbMText
 10
360.0822790729162
 20
142.5643815425924
 30
0.0
 40
0.2
 41
0.0
 46
0.0
 71
     7
 72
     1
  1
\C4;\c16776960;\FMS PMincho|b0|i0|c128;\H3.251093;\W1.000000;KP1313M/KP1313MCP
 73
     1
 44
1.0
  0
MTEXT
  5
85
330
70
100
AcDbEntity
  8
TEXT
100
AcDbMText
 10
360.0822790729162
 20
149.0652767232588
 30
0.0
 40
0.2
 41
0.0
 46
0.0
 71
     7
 72
     1
  1
\C4;\c16776960;\FMS PMincho|b0|i0|c128;\H3.251093;\W1.000000;ペンダント　スワール3M
 73
     1
 44
1.0
  0
MTEXT
  5
86
330
70
100
AcDbEntity
  8
TEXT
100
AcDbMText
 10
360.072977315106
 20
136.2767377724629
 30
0.0
 40
0.2
 41
0.0
 46
0.0
 71
     7
 72
     1
  1
\C4;\c16776960;\FMS PMincho|b0|i0|c128;\H3.251093;\W0.825919;E26 LED電球（100W相当　電球色　全方向/広配光タイプ）
 73
     1
 44
1.0
  0
SPLINE
  5
88
330
70
100
AcDbEntity
  8
SHADE
 62
     6
420
 16711935
370
     9
100
AcDbSpline
210
0.0
220
0.0
230
1.0
 70
     8
 71
     3
 72
    14
 73
    10
 74
     0
 42
0.0000000001
 43
0.0000000001
 40
0.0
 40
0.0
 40
0.0
 40
0.0
 40
1.0
 40
1.0
 40
1.0
 40
2.0
 40
2.0
 40
2.0
 40
3.0
 40
3.0
 40
3.0
 40
3.0
 10
424.1211000306531
 20
179.2260710908293
 30
0.0
 10
424.125546762282
 20
179.2178676376514
 30
0.0
 10
424.1299934939109
 20
179.2097408522563
 30
0.0
 10
424.1342868899655
 20
179.2015373990784
 30
0.0
 10
423.8857299254727
 20
178.071607558681
 30
0.0
 10
422.4201485148939
 20
177.8906715820609
 30
0.0
 10
421.3072389231327
 20
177.6698683563617
 30
0.0
 10
420.91577320424
 20
177.5922805562199
 30
0.0
 10
420.5224674584639
 20
177.5519533004183
 30
0.0
 10
420.2036828013612
 20
177.4550452180261
 30
0.0
  0
SPLINE
  5
89
330
70
100
AcDbEntity
  8
SHADE
 62
     6
420
 16711935
370
     9
100
AcDbSpline
210
0.0
220
0.0
230
1.0
 70
     8
 71
     3
 72
     8
 73
     4
 74
     0
 42
0.0000000001
 43
0.0000000001
 40
0.0
 40
0.0
 40
0.0
 40
0.0
 40
1.0
 40
1.0
 40
1.0
 40
1.0
 10
398.0358822867652
 20
200.6474340341009
 30
0.0
 10
398.6793550205427
 20
200.9635353186659
 30
0.0
 10
399.2985240659436
 20
201.4188653038908
 30
0.0
 10
399.9381634103984
 20
201.7683937434567
 30
0.0
  0
SPLINE
  5
8A
330
70
100
AcDbEntity
  8
SHADE
 62
     6
420
 16711935
370
     9
100
AcDbSpline
210
0.0
220
0.0
230
1.0
 70
     8
 71
     3
 72
     8
 73
     4
 74
     0
 42
0.0000000001
 43
0.0000000001
 40
0.0
 40
0.0
 40
0.0
 40
0.0
 40
1.0
 40
1.0
 40
1.0
 40
1.0
 10
399.9381634103984
 20
201.7683937434567
 30
0.0
 10
401.2319323109796
 20
202.6910905564075
 30
0.0
 10
402.6959036980415
 20
203.4185911844135
 30
0.0
 10
404.0063095083361
 20
204.3212777050423
 30
0.0
  0
SPLINE
  5
8B
330
70
100
AcDbEntity
  8
SHADE
 62
     6
420
 16711935
370
     9
100
AcDbSpline
210
0.0
220
0.0
230
1.0
 70
     8
 71
     3
 72
     8
 73
     4
 74
     0
 42
0.0000000001
 43
0.0000000001
 40
0.0
 40
0.0
 40
0.0
 40
0.0
 40
1.0
 40
1.0
 40
1.0
 40
1.0
 10
402.7820782902925
 20
195.0329753461819
 30
0.0
 10
402.8359757443377
 20
195.0786693470486
 30
0.0
 10
402.8700162416352
 20
195.0834227498268
 30
0.0
 10
402.9328071589473
 20
195.1084164482917
 30
0.0
  0
LINE
  5
8C
330
70
100
AcDbEntity
  8
SHADE
 62
     6
420
 16711935
370
     9
100
AcDbLine
 10
410.3722658415063
 20
177.5304863201365
 30
0.0
 11
410.3722658415063
 21
177.5304863201365
 31
0.0
  0
SPLINE
  5
8D
330
70
100
AcDbEntity
  8
SHADE
 62
     6
420
 16711935
370
     9
100
AcDbSpline
210
0.0
220
0.0
230
1.0
 70
     8
 71
     3
 72
     8
 73
     4
 74
     0
 42
0.0000000001
 43
0.0000000001
 40
0.0
 40
0.0
 40
0.0
 40
0.0
 40
1.0
 40
1.0
 40
1.0
 40
1.0
 10
414.4027680561808
 20
176.7861954468435
 30
0.0
 10
414.3665808608601
 20
176.9711181483702
 30
0.0
 10
414.2413823651764
 20
177.1091201644265
 30
0.0
 10
414.176751420981
 20
177.285456073844
 30
0.0
  0
SPLINE
  5
8E
330
70
100
AcDbEntity
  8
SHADE
 62
     6
420
 16711935
370
     9
100
AcDbSpline
210
0.0
220
0.0
230
1.0
 70
     8
 71
     3
 72
     8
 73
     4
 74
     0
 42
0.0000000001
 43
0.0000000001
 40
0.0
 40
0.0
 40
0.0
 40
0.0
 40
1.0
 40
1.0
 40
1.0
 40
1.0
 10
414.4027680561808
 20
176.7861954468435
 30
0.0
 10
414.5893007812248
 20
176.7773019835851
 30
0.0
 10
414.7802035701062
 20
176.8032156954875
 30
0.0
 10
414.9678096441705
 20
176.814562527926
 30
0.0
  0
SPLINE
  5
8F
330
70
100
AcDbEntity
  8
SHADE
 62
     6
420
 16711935
370
     9
100
AcDbSpline
210
0.0
220
0.0
230
1.0
 70
     8
 71
     3
 72
     8
 73
     4
 74
     0
 42
0.0000000001
 43
0.0000000001
 40
0.0
 40
0.0
 40
0.0
 40
0.0
 40
1.0
 40
1.0
 40
1.0
 40
1.0
 10
414.9678096441705
 20
176.814562527926
 30
0.0
 10
416.6775779553965
 20
177.123533708334
 30
0.0
 10
418.4841010134404
 20
177.2064882535416
 30
0.0
 10
420.2036828013612
 20
177.4550452180261
 30
0.0
  0
SPLINE
  5
90
330
70
100
AcDbEntity
  8
SHADE
 62
     6
420
 16711935
370
     9
100
AcDbSpline
210
0.0
220
0.0
230
1.0
 70
     8
 71
     3
 72
    14
 73
    10
 74
     0
 42
0.0000000001
 43
0.0000000001
 40
0.0
 40
0.0
 40
0.0
 40
0.0
 40
1.0
 40
1.0
 40
1.0
 40
2.0
 40
2.0
 40
2.0
 40
3.0
 40
3.0
 40
3.0
 40
3.0
 10
414.9678096441705
 20
176.814562527926
 30
0.0
 10
414.9759364295574
 20
176.8062824069565
 30
0.0
 10
414.9841398827352
 20
176.7980022859954
 30
0.0
 10
414.9922666681214
 20
176.7898755006002
 30
0.0
 10
416.1953375770401
 20
176.7125943716077
 30
0.0
 10
417.8451516790656
 20
176.896443724123
 30
0.0
 10
419.100050011798
 20
177.0894932110358
 30
0.0
 10
419.4838489520185
 20
177.1485274067899
 30
0.0
 10
419.9673926827432
 20
177.173521105256
 30
0.0
 10
420.2036828013612
 20
177.4550452180261
 30
0.0
  0
SPLINE
  5
91
330
70
100
AcDbEntity
  8
SHADE
 62
     6
420
 16711935
370
     9
100
AcDbSpline
210
0.0
220
0.0
230
1.0
 70
     8
 71
     3
 72
     8
 73
     4
 74
     0
 42
0.0000000001
 43
0.0000000001
 40
0.0
 40
0.0
 40
0.0
 40
0.0
 40
1.0
 40
1.0
 40
1.0
 40
1.0
 10
408.6394971942725
 20
197.2373275494129
 30
0.0
 10
408.4758881374541
 20
197.3833030152901
 30
0.0
 10
408.2056341893302
 20
197.4274636604316
 30
0.0
 10
408.055671998538
 20
197.5952894455226
 30
0.0
  0
SPLINE
  5
92
330
70
100
AcDbEntity
  8
SHADE
 62
     6
420
 16711935
370
     9
100
AcDbSpline
210
0.0
220
0.0
230
1.0
 70
     8
 71
     3
 72
     8
 73
     4
 74
     0
 42
0.0000000001
 43
0.0000000001
 40
0.0
 40
0.0
 40
0.0
 40
0.0
 40
1.0
 40
1.0
 40
1.0
 40
1.0
 10
404.0063095083361
 20
204.3212777050423
 30
0.0
 10
404.0682570799938
 20
204.317290980128
 30
0.0
 10
404.1066676411286
 20
204.3723384509761
 30
0.0
 10
404.1569617092082
 20
204.39664213937
 30
0.0
  0
SPLINE
  5
93
330
70
100
AcDbEntity
  8
SHADE
 62
     6
420
 16711935
370
     9
100
AcDbSpline
210
0.0
220
0.0
230
1.0
 70
     8
 71
     3
 72
     8
 73
     4
 74
     0
 42
0.0000000001
 43
0.0000000001
 40
0.0
 40
0.0
 40
0.0
 40
0.0
 40
1.0
 40
1.0
 40
1.0
 40
1.0
 10
404.1569617092082
 20
204.39664213937
 30
0.0
 10
405.1987235949052
 20
205.0991490689111
 30
0.0
 10
406.3315668112052
 20
205.6701707442646
 30
0.0
 10
407.4529865272845
 20
206.2429557787092
 30
0.0
  0
LINE
  5
94
330
70
100
AcDbEntity
  8
SHADE
 62
     6
420
 16711935
370
     9
100
AcDbLine
 10
416.6277740075333
 20
214.5494970740008
 30
0.0
 11
410.3286585414689
 21
214.5494970740008
 31
0.0
  0
LINE
  5
95
330
70
100
AcDbEntity
  8
SHADE
 62
     6
420
 16711935
370
     9
100
AcDbLine
 10
410.2592575239063
 20
214.3537176016232
 30
0.0
 11
410.3286585414689
 21
214.5494970740008
 31
0.0
  0
SPLINE
  5
96
330
70
100
AcDbEntity
  8
SHADE
 62
     6
420
 16711935
370
     9
100
AcDbSpline
210
0.0
220
0.0
230
1.0
 70
     8
 71
     3
 72
    32
 73
    28
 74
     0
 42
0.0000000001
 43
0.0000000001
 40
0.0
 40
0.0
 40
0.0
 40
0.0
 40
1.0
 40
1.0
 40
1.0
 40
2.0
 40
2.0
 40
2.0
 40
3.0
 40
3.0
 40
3.0
 40
4.0
 40
4.0
 40
4.0
 40
5.0
 40
5.0
 40
5.0
 40
6.0
 40
6.0
 40
6.0
 40
7.0
 40
7.0
 40
7.0
 40
8.0
 40
8.0
 40
8.0
 40
9.0
 40
9.0
 40
9.0
 40
9.0
 10
407.4228723170328
 20
213.1924278891373
 30
0.0
 10
407.4053359745305
 20
213.2200642371025
 30
0.0
 10
407.3907246879242
 20
213.249086814923
 30
0.0
 10
407.3817436153081
 20
213.2807776394067
 30
0.0
 10
407.3590759912198
 20
213.3607631519705
 30
0.0
 10
407.3722741644325
 20
213.4577460281045
 30
0.0
 10
407.4166949784206
 20
213.5254371812535
 30
0.0
 10
407.4766950590837
 20
213.6168689737865
 30
0.0
 10
407.5936591132473
 20
213.6548596450507
 30
0.0
 10
407.7079563377679
 20
213.6885435424872
 30
0.0
 10
408.0991225487823
 20
213.8038219544278
 30
0.0
 10
408.4590533958073
 20
213.8686570811672
 30
0.0
 10
408.8263999576397
 20
213.921552629964
 30
0.0
 10
409.8788392462034
 20
214.073097137323
 30
0.0
 10
410.9921473942996
 20
214.1266405061966
 30
0.0
 10
412.0885271822463
 20
214.189513080552
 30
0.0
 10
412.9371804064713
 20
214.2381796225084
 30
0.0
 10
413.7756909353679
 20
214.2924357955924
 30
0.0
 10
414.6167798032424
 20
214.3533475951798
 30
0.0
 10
415.3779917172
 20
214.4084746921169
 30
0.0
 10
416.1413155022122
 20
214.4690532929522
 30
0.0
 10
416.9052619123438
 20
214.496377727003
 30
0.0
 10
417.4143634606706
 20
214.5145870038582
 30
0.0
 10
417.9237415182513
 20
214.5180280279248
 30
0.0
 10
418.4330837749627
 20
214.5223832055173
 30
0.0
 10
418.7972790178133
 20
214.52549729028
 30
0.0
 10
419.161455956797
 20
214.5290787530285
 30
0.0
 10
419.5256328957715
 20
214.5326602157861
 30
0.0
  0
SPLINE
  5
97
330
70
100
AcDbEntity
  8
SHADE
 62
     6
420
 16711935
370
     9
100
AcDbSpline
210
0.0
220
0.0
230
1.0
 70
     8
 71
     3
 72
    35
 73
    31
 74
     0
 42
0.0000000001
 43
0.0000000001
 40
0.0
 40
0.0
 40
0.0
 40
0.0
 40
1.0
 40
1.0
 40
1.0
 40
2.0
 40
2.0
 40
2.0
 40
3.0
 40
3.0
 40
3.0
 40
4.0
 40
4.0
 40
4.0
 40
5.0
 40
5.0
 40
5.0
 40
6.0
 40
6.0
 40
6.0
 40
7.0
 40
7.0
 40
7.0
 40
8.0
 40
8.0
 40
8.0
 40
9.0
 40
9.0
 40
9.0
 40
10.0
 40
10.0
 40
10.0
 40
10.0
 10
404.8588628806127
 20
211.5705692104556
 30
0.0
 10
404.8338072425094
 20
211.6423471390406
 30
0.0
 10
404.8114414402392
 20
211.714742798925
 30
0.0
 10
404.8007918393351
 20
211.789829130209
 30
0.0
 10
404.7881176485346
 20
211.8791900834557
 30
0.0
 10
404.7920378228793
 20
211.9723619974739
 30
0.0
 10
404.8142832284958
 20
212.0596569135943
 30
0.0
 10
404.8689427137435
 20
212.2741504257319
 30
0.0
 10
405.0342390690595
 20
212.4531621127131
 30
0.0
 10
405.2190249035779
 20
212.5858210911944
 30
0.0
 10
405.5469409919155
 20
212.821234229992
 30
0.0
 10
405.9362316318406
 20
212.9106775011513
 30
0.0
 10
406.3253188154562
 20
212.9905627662758
 30
0.0
 10
407.9575557150048
 20
213.325684772231
 30
0.0
 10
409.5862121143086
 20
213.4926014175029
 30
0.0
 10
411.2226930838843
 20
213.6516408355645
 30
0.0
 10
412.5991846422654
 20
213.7854134980525
 30
0.0
 10
413.9812120680653
 20
213.9136130384381
 30
0.0
 10
415.364549558836
 20
214.0024169539671
 30
0.0
 10
416.3406073068961
 20
214.0650753799807
 30
0.0
 10
417.3173172651259
 20
214.1081208648297
 30
0.0
 10
418.2921810085519
 20
214.177805013164
 30
0.0
 10
418.4810064973041
 20
214.1913024310891
 30
0.0
 10
418.6697627207624
 20
214.2057992639391
 30
0.0
 10
418.8588193536611
 20
214.218279180673
 30
0.0
 10
419.1125325668237
 20
214.2350271769014
 30
0.0
 10
419.366786803192
 20
214.2481428023822
 30
0.0
 10
419.6185795566226
 20
214.2812302133432
 30
0.0
 10
419.7016525802056
 20
214.2921466167431
 30
0.0
 10
419.7844576682006
 20
214.3052369747698
 30
0.0
 10
419.8671127659484
 20
214.319412361916
 30
0.0
  0
SPLINE
  5
98
330
70
100
AcDbEntity
  8
SHADE
 62
     6
420
 16711935
370
     9
100
AcDbSpline
210
0.0
220
0.0
230
1.0
 70
     8
 71
     3
 72
    29
 73
    25
 74
     0
 42
0.0000000001
 43
0.0000000001
 40
0.0
 40
0.0
 40
0.0
 40
0.0
 40
1.0
 40
1.0
 40
1.0
 40
2.0
 40
2.0
 40
2.0
 40
3.0
 40
3.0
 40
3.0
 40
4.0
 40
4.0
 40
4.0
 40
5.0
 40
5.0
 40
5.0
 40
6.0
 40
6.0
 40
6.0
 40
7.0
 40
7.0
 40
7.0
 40
8.0
 40
8.0
 40
8.0
 40
8.0
 10
400.7093753225054
 20
208.7237889771782
 30
0.0
 10
400.7067377174825
 20
209.0113075655629
 30
0.0
 10
400.7918826634384
 20
209.3019123029786
 30
0.0
 10
400.9364762308115
 20
209.5502608803466
 30
0.0
 10
401.0962988798584
 20
209.8247663666065
 30
0.0
 10
401.3287522728065
 20
210.0476458224486
 30
0.0
 10
401.5825655194287
 20
210.2352712104463
 30
0.0
 10
402.0601868682887
 20
210.5883413992239
 30
0.0
 10
402.6134457171627
 20
210.8165732067324
 30
0.0
 10
403.1705440119286
 20
211.0214762483992
 30
0.0
 10
403.723909865737
 20
211.2250064829563
 30
0.0
 10
404.2810638908305
 20
211.4055195001128
 30
0.0
 10
404.8441487956863
 20
211.5663708291549
 30
0.0
 10
406.6185377874185
 20
212.0732443487731
 30
0.0
 10
408.4518205034787
 20
212.3848770129738
 30
0.0
 10
410.2892819298276
 20
212.6210516226493
 30
0.0
 10
412.0636820587972
 20
212.849120768396
 30
0.0
 10
413.8419789949856
 20
213.0068223912258
 30
0.0
 10
415.6111386223724
 20
213.2247249191168
 30
0.0
 10
417.0499774225958
 20
213.4019427387678
 30
0.0
 10
418.4827724442532
 20
213.6189798254533
 30
0.0
 10
419.9252087634529
 20
213.8274197152585
 30
0.0
 10
420.0269515989441
 20
213.8421221081043
 30
0.0
 10
420.1287424022361
 20
213.8567817278026
 30
0.0
 10
420.230556498971
 20
213.8705019244884
 30
0.0
  0
SPLINE
  5
99
330
70
100
AcDbEntity
  8
SHADE
 62
     6
420
 16711935
370
     9
100
AcDbSpline
210
0.0
220
0.0
230
1.0
 70
     8
 71
     3
 72
    29
 73
    25
 74
     0
 42
0.0000000001
 43
0.0000000001
 40
0.0
 40
0.0
 40
0.0
 40
0.0
 40
1.0
 40
1.0
 40
1.0
 40
2.0
 40
2.0
 40
2.0
 40
3.0
 40
3.0
 40
3.0
 40
4.0
 40
4.0
 40
4.0
 40
5.0
 40
5.0
 40
5.0
 40
6.0
 40
6.0
 40
6.0
 40
7.0
 40
7.0
 40
7.0
 40
8.0
 40
8.0
 40
8.0
 40
8.0
 10
396.7679053582167
 20
203.1182423860864
 30
0.0
 10
396.7668036975362
 20
203.3765059101348
 30
0.0
 10
396.7985088169685
 20
203.6331485925182
 30
0.0
 10
396.8633536165541
 20
203.8749277765636
 30
0.0
 10
397.1606495392365
 20
204.9834201469108
 30
0.0
 10
398.1545333420759
 20
205.7794854584792
 30
0.0
 10
399.1621533464697
 20
206.4389736291591
 30
0.0
 10
400.7243194557339
 20
207.4614127085776
 30
0.0
 10
402.3195017976495
 20
208.1555759805111
 30
0.0
 10
403.9807912418695
 20
208.7377733590747
 30
0.0
 10
406.0101622302766
 20
209.4489645808621
 30
0.0
 10
408.1381794288193
 20
209.9930782775696
 30
0.0
 10
410.2582828120088
 20
210.5060808436217
 30
0.0
 10
411.9473626939745
 20
210.9147884191962
 30
0.0
 10
413.6314194714438
 20
211.3037489507251
 30
0.0
 10
415.3305105063374
 20
211.6329451493299
 30
0.0
 10
416.4047558067841
 20
211.8410784759138
 30
0.0
 10
417.4850108462149
 20
212.0253218270075
 30
0.0
 10
418.560669006035
 20
212.2311797545223
 30
0.0
 10
419.2656249850128
 20
212.3660932263323
 30
0.0
 10
419.9686065483785
 20
212.5102904211447
 30
0.0
 10
420.672992225405
 20
212.6474770313361
 30
0.0
 10
421.242860990387
 20
212.7584650406981
 30
0.0
 10
421.8136487880016
 20
212.8648644214407
 30
0.0
 10
422.3844365856163
 20
212.9712638021832
 30
0.0
  0
SPLINE
  5
9A
330
70
100
AcDbEntity
  8
SHADE
 62
     6
420
 16711935
370
     9
100
AcDbSpline
210
0.0
220
0.0
230
1.0
 70
     8
 71
     3
 72
    32
 73
    28
 74
     0
 42
0.0000000001
 43
0.0000000001
 40
0.0
 40
0.0
 40
0.0
 40
0.0
 40
1.0
 40
1.0
 40
1.0
 40
2.0
 40
2.0
 40
2.0
 40
3.0
 40
3.0
 40
3.0
 40
4.0
 40
4.0
 40
4.0
 40
5.0
 40
5.0
 40
5.0
 40
6.0
 40
6.0
 40
6.0
 40
7.0
 40
7.0
 40
7.0
 40
8.0
 40
8.0
 40
8.0
 40
9.0
 40
9.0
 40
9.0
 40
9.0
 10
421.3972064999209
 20
213.9996380783598
 30
0.0
 10
421.3976646620479
 20
213.9995844418661
 30
0.0
 10
421.4043093392354
 20
213.9988065251389
 30
0.0
 10
421.4108951349898
 20
213.9980355048771
 30
0.0
 10
421.8114247209902
 20
213.9511442201484
 30
0.0
 10
421.9941677984552
 20
213.9297611270086
 30
0.0
 10
422.2420443213554
 20
213.8896210852449
 30
0.0
 10
422.4079946385462
 20
213.8627478154981
 30
0.0
 10
422.6031386755189
 20
213.827467419466
 30
0.0
 10
422.7901212299693
 20
213.7691632275922
 30
0.0
 10
422.9014427662669
 20
213.7344513678078
 30
0.0
 10
423.0098714569265
 20
213.6915787005865
 30
0.0
 10
423.0852393005068
 20
213.6125702052902
 30
0.0
 10
423.1165187220217
 20
213.5797798279931
 30
0.0
 10
423.1421035959938
 20
213.5407652547278
 30
0.0
 10
423.1635358039214
 20
213.4981372418086
 30
0.0
 10
423.1753115471527
 20
213.4747156449109
 30
0.0
 10
423.1858336590669
 20
213.450203201544
 30
0.0
 10
423.1876269946448
 20
213.4258638368685
 30
0.0
 10
423.1920060132445
 20
213.3664312734236
 30
0.0
 10
423.1443394563812
 20
213.308030696588
 30
0.0
 10
423.0972845841275
 20
213.2632484859191
 30
0.0
 10
422.9670395782656
 20
213.139294068198
 30
0.0
 10
422.84148098494
 20
213.1196765600422
 30
0.0
 10
422.6275048650964
 20
213.0524486630408
 30
0.0
 10
422.5210507068344
 20
213.0190024579615
 30
0.0
 10
422.3927122311072
 20
212.9737721541276
 30
0.0
 10
422.384652089627
 20
212.9709316060539
 30
0.0
  0
SPLINE
  5
9B
330
70
100
AcDbEntity
  8
SHADE
 62
     6
420
 16711935
370
     9
100
AcDbSpline
210
0.0
220
0.0
230
1.0
 70
     8
 71
     3
 72
    41
 73
    37
 74
     0
 42
0.0000000001
 43
0.0000000001
 40
0.0
 40
0.0
 40
0.0
 40
0.0
 40
1.0
 40
1.0
 40
1.0
 40
2.0
 40
2.0
 40
2.0
 40
3.0
 40
3.0
 40
3.0
 40
4.0
 40
4.0
 40
4.0
 40
5.0
 40
5.0
 40
5.0
 40
6.0
 40
6.0
 40
6.0
 40
7.0
 40
7.0
 40
7.0
 40
8.0
 40
8.0
 40
8.0
 40
9.0
 40
9.0
 40
9.0
 40
10.0
 40
10.0
 40
10.0
 40
11.0
 40
11.0
 40
11.0
 40
12.0
 40
12.0
 40
12.0
 40
12.0
 10
398.0054946630078
 20
191.4607587972336
 30
0.0
 10
398.0034949103531
 20
191.4622700180317
 30
0.0
 10
397.9741908199849
 20
191.4844152698943
 30
0.0
 10
397.9455013773486
 20
191.5060960298766
 30
0.0
 10
397.2495328218604
 20
192.0320430621239
 30
0.0
 10
396.9152749186599
 20
192.2846438335225
 30
0.0
 10
396.5182301334051
 20
192.6421311767946
 30
0.0
 10
396.0537471746054
 20
193.0603378504662
 30
0.0
 10
395.5033372465306
 20
193.6220870117113
 30
0.0
 10
395.1075696572917
 20
194.2434216670378
 30
0.0
 10
394.8217637565222
 20
194.6921221560875
 30
0.0
 10
394.616605250146
 20
195.1718970253948
 30
0.0
 10
394.5483886077452
 20
195.6794990840233
 30
0.0
 10
394.4705029656245
 20
196.2590484561957
 30
0.0
 10
394.571130535722
 20
196.8748724985618
 30
0.0
 10
394.802561034424
 20
197.4205837590346
 30
0.0
 10
395.0181398965494
 20
197.9289169875284
 30
0.0
 10
395.3472168703243
 20
198.376413135149
 30
0.0
 10
395.7175835582327
 20
198.7804090717775
 30
0.0
 10
396.4958757429528
 20
199.6293700890907
 30
0.0
 10
397.456500130718
 20
200.2862375192102
 30
0.0
 10
398.4499436918373
 20
200.8773365041987
 30
0.0
 10
400.2386801643593
 20
201.941634824412
 30
0.0
 10
402.1338147592971
 20
202.7927151272066
 30
0.0
 10
404.0417527322075
 20
203.5588641209794
 30
0.0
 10
406.5527783185881
 20
204.567188161712
 30
0.0
 10
409.0859806773866
 20
205.4284024073585
 30
0.0
 10
411.7050731793392
 20
206.3674825015402
 30
0.0
 10
412.9329741442171
 20
206.807748491715
 30
0.0
 10
414.1797536459979
 20
207.2651292897334
 30
0.0
 10
415.3143308782559
 20
207.6383504517255
 30
0.0
 10
417.4662227235534
 20
208.3462190323375
 30
0.0
 10
419.2144929754263
 20
208.7513428776077
 30
0.0
 10
422.1738906503457
 20
210.0083884879214
 30
0.0
 10
423.36691541665
 20
210.5151424663433
 30
0.0
 10
424.7567660168303
 20
211.1603461310728
 30
0.0
 10
424.8452894386832
 20
211.2014409643002
 30
0.0
  0
SPLINE
  5
9C
330
70
100
AcDbEntity
  8
SHADE
 62
     6
420
 16711935
370
     9
100
AcDbSpline
210
0.0
220
0.0
230
1.0
 70
     8
 71
     3
 72
    26
 73
    22
 74
     0
 42
0.0000000001
 43
0.0000000001
 40
0.0
 40
0.0
 40
0.0
 40
0.0
 40
1.0
 40
1.0
 40
1.0
 40
2.0
 40
2.0
 40
2.0
 40
3.0
 40
3.0
 40
3.0
 40
4.0
 40
4.0
 40
4.0
 40
5.0
 40
5.0
 40
5.0
 40
6.0
 40
6.0
 40
6.0
 40
7.0
 40
7.0
 40
7.0
 40
7.0
 10
423.0778329258593
 20
213.2200927218829
 30
0.0
 10
423.2396880580346
 20
213.1964459053913
 30
0.0
 10
423.4016747853646
 20
213.1724659137017
 30
0.0
 10
423.5642168270711
 20
213.1470799661553
 30
0.0
 10
424.0050520885869
 20
213.0782299584284
 30
0.0
 10
424.4499720499183
 20
212.9990382273543
 30
0.0
 10
424.8686939712858
 20
212.8721820566483
 30
0.0
 10
425.0667983580155
 20
212.8121642677074
 30
0.0
 10
425.2590385877472
 20
212.7414772929259
 30
0.0
 10
425.452803713731
 20
212.6342114208362
 30
0.0
 10
425.590691152796
 20
212.557878714805
 30
0.0
 10
425.7293508072916
 20
212.4630222639219
 30
0.0
 10
425.7773091262022
 20
212.3241284711404
 30
0.0
 10
425.7997072941876
 20
212.2592603403589
 30
0.0
 10
425.8023216138144
 20
212.1847867490958
 30
0.0
 10
425.7917315889768
 20
212.1150027608865
 30
0.0
 10
425.7517904120524
 20
211.8518065301236
 30
0.0
 10
425.5240193885466
 20
211.6553192090924
 30
0.0
 10
425.3013678545772
 20
211.494836861495
 30
0.0
 10
425.1532286231265
 20
211.3880613490497
 30
0.0
 10
425.0073556815125
 20
211.2972244775051
 30
0.0
 10
424.8452894386832
 20
211.2014409643002
 30
0.0
  0
SPLINE
  5
9D
330
70
100
AcDbEntity
  8
SHADE
 62
     6
420
 16711935
370
     9
100
AcDbSpline
210
0.0
220
0.0
230
1.0
 70
     8
 71
     3
 72
    29
 73
    25
 74
     0
 42
0.0000000001
 43
0.0000000001
 40
0.0
 40
0.0
 40
0.0
 40
0.0
 40
1.0
 40
1.0
 40
1.0
 40
2.0
 40
2.0
 40
2.0
 40
3.0
 40
3.0
 40
3.0
 40
4.0
 40
4.0
 40
4.0
 40
5.0
 40
5.0
 40
5.0
 40
6.0
 40
6.0
 40
6.0
 40
7.0
 40
7.0
 40
7.0
 40
8.0
 40
8.0
 40
8.0
 40
8.0
 10
401.5014195812319
 20
183.7288468715816
 30
0.0
 10
400.7767028463615
 20
184.1032811443406
 30
0.0
 10
400.051986111491
 20
184.4777154171002
 30
0.0
 10
399.3335132067205
 20
184.9120763267073
 30
0.0
 10
398.4882497550916
 20
185.4230898934977
 30
0.0
 10
397.6516283076139
 20
186.0170471399163
 30
0.0
 10
397.1835163640704
 20
186.866618910936
 30
0.0
 10
396.8314629245744
 20
187.50555724227
 30
0.0
 10
396.6878424624123
 20
188.2890739246208
 30
0.0
 10
396.7926078472179
 20
189.016615753586
 30
0.0
 10
396.8891967594989
 20
189.6873761772582
 30
0.0
 10
397.1969136416898
 20
190.3105579755506
 30
0.0
 10
397.5744248809146
 20
190.8734312086078
 30
0.0
 10
398.5606404533532
 20
192.3438890124276
 30
0.0
 10
400.0231819847996
 20
193.402758596308
 30
0.0
 10
401.5323736139784
 20
194.3427442956129
 30
0.0
 10
404.7473452437704
 20
196.3451588977532
 30
0.0
 10
408.1740155156357
 20
197.8080771611175
 30
0.0
 10
411.6471314873565
 20
199.1802371915809
 30
0.0
 10
413.8760788401794
 20
200.0608505924695
 30
0.0
 10
416.1241558226572
 20
200.9040833232701
 30
0.0
 10
418.3414398383373
 20
201.8188696802821
 30
0.0
 10
421.0108948924032
 20
202.920208546601
 30
0.0
 10
423.6357171490893
 20
204.1252606576267
 30
0.0
 10
426.2562006395344
 20
205.3434849559609
 30
0.0
  0
SPLINE
  5
9E
330
70
100
AcDbEntity
  8
SHADE
 62
     6
420
 16711935
370
     9
100
AcDbSpline
210
0.0
220
0.0
230
1.0
 70
     8
 71
     3
 72
    26
 73
    22
 74
     0
 42
0.0000000001
 43
0.0000000001
 40
0.0
 40
0.0
 40
0.0
 40
0.0
 40
1.0
 40
1.0
 40
1.0
 40
2.0
 40
2.0
 40
2.0
 40
3.0
 40
3.0
 40
3.0
 40
4.0
 40
4.0
 40
4.0
 40
5.0
 40
5.0
 40
5.0
 40
6.0
 40
6.0
 40
6.0
 40
7.0
 40
7.0
 40
7.0
 40
7.0
 10
425.5917622522651
 20
211.7017056385392
 30
0.0
 10
425.6014735258021
 20
211.6987423259994
 30
0.0
 10
425.6114963040833
 20
211.6956839604289
 30
0.0
 10
425.621511977103
 20
211.6926277629683
 30
0.0
 10
426.3725361757209
 20
211.4634591146937
 30
0.0
 10
427.0836093586133
 20
211.2464811791705
 30
0.0
 10
427.839631882975
 20
210.9717387935592
 30
0.0
 10
428.5103336207013
 20
210.7280024106958
 30
0.0
 10
429.2164116844073
 20
210.4388038708779
 30
0.0
 10
429.586401308846
 20
209.862678840628
 30
0.0
 10
429.8431630565894
 20
209.4628652785379
 30
0.0
 10
429.9380664466188
 20
208.9248694849268
 30
0.0
 10
429.8359397982624
 20
208.4486274006337
 30
0.0
 10
429.7449489899248
 20
208.0243145213481
 30
0.0
 10
429.497553650736
 20
207.6490223904459
 30
0.0
 10
429.1982303253233
 20
207.3395674476935
 30
0.0
 10
428.8037934987246
 20
206.9317795634037
 30
0.0
 10
428.3191839313523
 20
206.6383176934958
 30
0.0
 10
427.839631882975
 20
206.3414134900543
 30
0.0
 10
427.3070479838993
 20
206.0116757715746
 30
0.0
 10
426.7807020376801
 20
205.6776922728435
 30
0.0
 10
426.2550959608202
 20
205.3431988366075
 30
0.0
  0
SPLINE
  5
9F
330
70
100
AcDbEntity
  8
SHADE
 62
     6
420
 16711935
370
     9
100
AcDbSpline
210
0.0
220
0.0
230
1.0
 70
     8
 71
     3
 72
    44
 73
    40
 74
     0
 42
0.0000000001
 43
0.0000000001
 40
0.0
 40
0.0
 40
0.0
 40
0.0
 40
1.0
 40
1.0
 40
1.0
 40
2.0
 40
2.0
 40
2.0
 40
3.0
 40
3.0
 40
3.0
 40
4.0
 40
4.0
 40
4.0
 40
5.0
 40
5.0
 40
5.0
 40
6.0
 40
6.0
 40
6.0
 40
7.0
 40
7.0
 40
7.0
 40
8.0
 40
8.0
 40
8.0
 40
9.0
 40
9.0
 40
9.0
 40
10.0
 40
10.0
 40
10.0
 40
11.0
 40
11.0
 40
11.0
 40
12.0
 40
12.0
 40
12.0
 40
13.0
 40
13.0
 40
13.0
 40
13.0
 10
401.3576975153508
 20
182.6522176209934
 30
0.0
 10
401.35731707484
 20
182.6826497590172
 30
0.0
 10
401.3578233129409
 20
182.7130270200069
 30
0.0
 10
401.3592358665163
 20
182.7432811596875
 30
0.0
 10
401.3818484583937
 20
183.2275987264404
 30
0.0
 10
401.6367188072874
 20
183.6803645025192
 30
0.0
 10
401.9382014362695
 20
184.077419211717
 30
0.0
 10
402.5675927918298
 20
184.9063319835668
 30
0.0
 10
403.4001343723103
 20
185.4924393027814
 30
0.0
 10
404.2540637152562
 20
186.0408676656316
 30
0.0
 10
406.578402633402
 20
187.5336532200178
 30
0.0
 10
409.0612018193931
 20
188.7472783186226
 30
0.0
 10
411.5792367933503
 20
189.8670749091788
 30
0.0
 10
413.9096873915709
 20
190.9034507583394
 30
0.0
 10
416.2703194518455
 20
191.8594571388578
 30
0.0
 10
418.6275132946113
 20
192.8374200061406
 30
0.0
 10
421.0229624290814
 20
193.8312543957771
 30
0.0
 10
423.4148608416528
 20
194.8477637261786
 30
0.0
 10
425.7009622119443
 20
196.0594892638551
 30
0.0
 10
427.0444768042182
 20
196.7716059542463
 30
0.0
 10
428.3514514981998
 20
197.5511458939389
 30
0.0
 10
429.6530315358717
 20
198.3501791267707
 30
0.0
 10
430.7231881713682
 20
199.0071427335795
 30
0.0
 10
431.7896979667829
 20
199.6772839959723
 30
0.0
 10
432.6485490489046
 20
200.6156965735985
 30
0.0
 10
433.1511987821076
 20
201.1649103332319
 30
0.0
 10
433.5827197390223
 20
201.8060143394303
 30
0.0
 10
433.7309629401716
 20
202.5288001953721
 30
0.0
 10
433.8680548922949
 20
203.1972161712174
 30
0.0
 10
433.7628839925699
 20
203.9354875362033
 30
0.0
 10
433.454066363331
 20
204.5425934814471
 30
0.0
 10
433.1587073636397
 20
205.1232410472642
 30
0.0
 10
432.6770651648258
 20
205.5839067500549
 30
0.0
 10
432.1702731434612
 20
206.0025936138478
 30
0.0
 10
431.5350967625742
 20
206.5273453772271
 30
0.0
 10
430.8604142899491
 20
206.9861555276284
 30
0.0
 10
430.1313074413068
 20
207.3367316658773
 30
0.0
 10
429.9153050620717
 20
207.4405919987003
 30
0.0
 10
429.69452598056
 20
207.5349528812877
 30
0.0
 10
429.4709012534013
 20
207.6236546150225
 30
0.0
  0
SPLINE
  5
A0
330
70
100
AcDbEntity
  8
SHADE
 62
     6
420
 16711935
370
     9
100
AcDbSpline
210
0.0
220
0.0
230
1.0
 70
     8
 71
     3
 72
    74
 73
    70
 74
     0
 42
0.0000000001
 43
0.0000000001
 40
0.0
 40
0.0
 40
0.0
 40
0.0
 40
1.0
 40
1.0
 40
1.0
 40
2.0
 40
2.0
 40
2.0
 40
3.0
 40
3.0
 40
3.0
 40
4.0
 40
4.0
 40
4.0
 40
5.0
 40
5.0
 40
5.0
 40
6.0
 40
6.0
 40
6.0
 40
7.0
 40
7.0
 40
7.0
 40
8.0
 40
8.0
 40
8.0
 40
9.0
 40
9.0
 40
9.0
 40
10.0
 40
10.0
 40
10.0
 40
11.0
 40
11.0
 40
11.0
 40
12.0
 40
12.0
 40
12.0
 40
13.0
 40
13.0
 40
13.0
 40
14.0
 40
14.0
 40
14.0
 40
15.0
 40
15.0
 40
15.0
 40
16.0
 40
16.0
 40
16.0
 40
17.0
 40
17.0
 40
17.0
 40
18.0
 40
18.0
 40
18.0
 40
19.0
 40
19.0
 40
19.0
 40
20.0
 40
20.0
 40
20.0
 40
21.0
 40
21.0
 40
21.0
 40
22.0
 40
22.0
 40
22.0
 40
23.0
 40
23.0
 40
23.0
 40
23.0
 10
410.4520415934738
 20
177.519315745342
 30
0.0
 10
410.4254592207004
 20
177.5230379338072
 30
0.0
 10
410.3988614744557
 20
177.5267622749267
 30
0.0
 10
410.3722658415063
 20
177.5304863201365
 30
0.0
 10
410.0836091638917
 20
177.5709053814196
 30
0.0
 10
409.7952014299608
 20
177.6112895844386
 30
0.0
 10
409.5067152694118
 20
177.653839393028
 30
0.0
 10
409.2100824662717
 20
177.6975907777407
 30
0.0
 10
408.9133667445491
 20
177.7436318053129
 30
0.0
 10
408.6218423764411
 20
177.8125062565934
 30
0.0
 10
408.3625167539308
 20
177.8737735532847
 30
0.0
 10
408.1072990492246
 20
177.9531089367805
 30
0.0
 10
407.8529183453126
 20
178.0321988369158
 30
0.0
 10
407.6354848905004
 20
178.0998014103914
 30
0.0
 10
407.4186629551373
 20
178.1672246317751
 30
0.0
 10
407.2121483193702
 20
178.2701991322635
 30
0.0
 10
407.0203645613251
 20
178.3658283675238
 30
0.0
 10
406.8374700892475
 20
178.4921179598732
 30
0.0
 10
406.7117374419686
 20
178.660763719505
 30
0.0
 10
406.656557239896
 20
178.7347771702489
 30
0.0
 10
406.6123867645239
 20
178.8169486850027
 30
0.0
 10
406.5774808651011
 20
178.9048665865334
 30
0.0
 10
406.5459544611274
 20
178.9842725129448
 30
0.0
 10
406.5219855327304
 20
179.0683659909449
 30
0.0
 10
406.5164551483435
 20
179.1489694535619
 30
0.0
 10
406.4889293903036
 20
179.550147971665
 30
0.0
 10
406.9181704706108
 20
179.8648704607714
 30
0.0
 10
407.3165147492559
 20
180.1124285246367
 30
0.0
 10
407.8798907432555
 20
180.4625484529944
 30
0.0
 10
408.3814660887817
 20
180.6783242159762
 30
0.0
 10
408.8982016937552
 20
180.9094991108407
 30
0.0
 10
409.9976075347314
 20
181.4013464448676
 30
0.0
 10
411.1656389417147
 20
181.9629006428318
 30
0.0
 10
412.3355685967729
 20
182.4538233716102
 30
0.0
 10
413.3307803470541
 20
182.8714314440808
 30
0.0
 10
414.327365710533
 20
183.2379290634522
 30
0.0
 10
415.32458329504
 20
183.6120665671962
 30
0.0
 10
417.0772902990078
 20
184.2696496598273
 30
0.0
 10
418.8319503275926
 20
184.9508334899129
 30
0.0
 10
420.5802674728383
 20
185.6421057164372
 30
0.0
 10
422.2712047630379
 20
186.31069035435
 30
0.0
 10
423.9562086851059
 20
186.98871205215
 30
0.0
 10
425.6117755482565
 20
187.7344160052282
 30
0.0
 10
426.691490874376
 20
188.22074368235
 30
0.0
 10
427.7586857631585
 20
188.7358585911734
 30
0.0
 10
428.8125121209929
 20
189.278740265997
 30
0.0
 10
429.9554033948878
 20
189.8675039881347
 30
0.0
 10
431.0825709450032
 20
190.4889262694364
 30
0.0
 10
432.1626994286321
 20
191.1842371361471
 30
0.0
 10
432.7972978140206
 20
191.5927470125628
 30
0.0
 10
433.4156591997283
 20
192.0267618368416
 30
0.0
 10
433.9934709313312
 20
192.5168395224638
 30
0.0
 10
434.5899202797948
 20
193.0227249178261
 30
0.0
 10
435.1431618853454
 20
193.5883481766746
 30
0.0
 10
435.5502494200101
 20
194.2604314297843
 30
0.0
 10
435.838410058746
 20
194.7361717141376
 30
0.0
 10
436.0533380686312
 20
195.2652553313137
 30
0.0
 10
436.1106896759424
 20
195.8172099184722
 30
0.0
 10
436.1757949557052
 20
196.4437862168692
 30
0.0
 10
436.0378364804072
 20
197.0998356151192
 30
0.0
 10
435.7495170665618
 20
197.6604356490724
 30
0.0
 10
435.5028717827754
 20
198.1400056947424
 30
0.0
 10
435.1461909825209
 20
198.5497250185466
 30
0.0
 10
434.7656330617156
 20
198.9307668958391
 30
0.0
 10
434.387138421956
 20
199.3097428682036
 30
0.0
 10
433.9850248702095
 20
199.660351513634
 30
0.0
 10
433.5575729544989
 20
199.9769220402346
 30
0.0
 10
433.2666881690568
 20
200.1923510658673
 30
0.0
 10
432.9640693846051
 20
200.392017303767
 30
0.0
 10
432.6579261396384
 20
200.5869489816115
 30
0.0
  0
SPLINE
  5
A1
330
70
100
AcDbEntity
  8
SHADE
 62
     6
420
 16711935
370
     9
100
AcDbSpline
210
0.0
220
0.0
230
1.0
 70
     8
 71
     3
 72
    56
 73
    52
 74
     0
 42
0.0000000001
 43
0.0000000001
 40
0.0
 40
0.0
 40
0.0
 40
0.0
 40
1.0
 40
1.0
 40
1.0
 40
2.0
 40
2.0
 40
2.0
 40
3.0
 40
3.0
 40
3.0
 40
4.0
 40
4.0
 40
4.0
 40
5.0
 40
5.0
 40
5.0
 40
6.0
 40
6.0
 40
6.0
 40
7.0
 40
7.0
 40
7.0
 40
8.0
 40
8.0
 40
8.0
 40
9.0
 40
9.0
 40
9.0
 40
10.0
 40
10.0
 40
10.0
 40
11.0
 40
11.0
 40
11.0
 40
12.0
 40
12.0
 40
12.0
 40
13.0
 40
13.0
 40
13.0
 40
14.0
 40
14.0
 40
14.0
 40
15.0
 40
15.0
 40
15.0
 40
16.0
 40
16.0
 40
16.0
 40
17.0
 40
17.0
 40
17.0
 40
17.0
 10
432.6756924113172
 20
191.5233491935029
 30
0.0
 10
432.9564821657042
 20
191.1588344522883
 30
0.0
 10
433.2327073015064
 20
190.7910379356757
 30
0.0
 10
433.4474444721654
 20
190.3790340689851
 30
0.0
 10
433.7356071677668
 20
189.8261528679382
 30
0.0
 10
433.9130434624153
 20
189.1936638809184
 30
0.0
 10
433.880662226859
 20
188.5784727760314
 30
0.0
 10
433.8367623738188
 20
187.7444465682549
 30
0.0
 10
433.4072234111789
 20
186.9422134134983
 30
0.0
 10
432.8584009434541
 20
186.2852920592127
 30
0.0
 10
431.9569293704908
 20
185.2062620241999
 30
0.0
 10
430.7336321141574
 20
184.51928174874
 30
0.0
 10
429.4877015765602
 20
183.9092252923825
 30
0.0
 10
427.3967042209736
 20
182.8853909785942
 30
0.0
 10
425.2419588268306
 20
182.0782173659082
 30
0.0
 10
423.0502183594613
 20
181.367386425546
 30
0.0
 10
420.5708379053034
 20
180.5632673402931
 30
0.0
 10
418.0441148642503
 20
179.8824379511743
 30
0.0
 10
415.5075878089548
 20
179.2676064920743
 30
0.0
 10
414.6869773183276
 20
179.0686978526965
 30
0.0
 10
413.8653407055598
 20
178.876696785726
 30
0.0
 10
413.0486349921215
 20
178.6597754586948
 30
0.0
 10
412.3881954604194
 20
178.4843592502845
 30
0.0
 10
411.730980418992
 20
178.2926467984276
 30
0.0
 10
411.0904520607357
 20
178.0588515961545
 30
0.0
 10
411.0443156841178
 20
178.0420116493127
 30
0.0
 10
410.9982658800523
 20
178.0249533720025
 30
0.0
 10
410.9523086440604
 20
178.0070478149025
 30
0.0
 10
410.8000756710223
 20
177.9477358016564
 30
0.0
 10
410.6488584105901
 20
177.8791269239898
 30
0.0
 10
410.5378783940362
 20
177.7480289086337
 30
0.0
 10
410.4904973141059
 20
177.6920587823306
 30
0.0
 10
410.4504503635282
 20
177.6246986259363
 30
0.0
 10
410.4515387586134
 20
177.558081710707
 30
0.0
 10
410.4527901374297
 20
177.4814891225853
 30
0.0
 10
410.5084190622236
 20
177.4058790382015
 30
0.0
 10
410.572414248198
 20
177.3508665856907
 30
0.0
 10
410.7093745749789
 20
177.2331308004681
 30
0.0
 10
410.8846549788543
 20
177.2097385726672
 30
0.0
 10
411.0559162065733
 20
177.1781873148446
 30
0.0
 10
411.4083689054781
 20
177.1132553619529
 30
0.0
 10
411.7437992112082
 20
177.0137675172528
 30
0.0
 10
412.0919918316392
 20
176.9709721898367
 30
0.0
 10
412.2394093682357
 20
176.9528535354607
 30
0.0
 10
412.3891145497866
 20
176.9448970150491
 30
0.0
 10
412.5383933513185
 20
176.9420111752456
 30
0.0
 10
412.6657973240887
 20
176.9395482169996
 30
0.0
 10
412.7928907218488
 20
176.9407787401685
 30
0.0
 10
412.9201815889133
 20
176.9420111752456
 30
0.0
 10
412.9288874467757
 20
176.9420954656942
 30
0.0
 10
412.9375942283317
 20
176.9421797650964
 30
0.0
 10
412.9462921687881
 20
176.9422639788856
 30
0.0
  0
SPLINE
  5
A2
330
70
100
AcDbEntity
  8
SHADE
 62
     6
420
 16711935
370
     9
100
AcDbSpline
210
0.0
220
0.0
230
1.0
 70
     8
 71
     3
 72
    59
 73
    55
 74
     0
 42
0.0000000001
 43
0.0000000001
 40
0.0
 40
0.0
 40
0.0
 40
0.0
 40
1.0
 40
1.0
 40
1.0
 40
2.0
 40
2.0
 40
2.0
 40
3.0
 40
3.0
 40
3.0
 40
4.0
 40
4.0
 40
4.0
 40
5.0
 40
5.0
 40
5.0
 40
6.0
 40
6.0
 40
6.0
 40
7.0
 40
7.0
 40
7.0
 40
8.0
 40
8.0
 40
8.0
 40
9.0
 40
9.0
 40
9.0
 40
10.0
 40
10.0
 40
10.0
 40
11.0
 40
11.0
 40
11.0
 40
12.0
 40
12.0
 40
12.0
 40
13.0
 40
13.0
 40
13.0
 40
14.0
 40
14.0
 40
14.0
 40
15.0
 40
15.0
 40
15.0
 40
16.0
 40
16.0
 40
16.0
 40
17.0
 40
17.0
 40
17.0
 40
18.0
 40
18.0
 40
18.0
 40
18.0
 10
429.0682149073991
 20
183.7071005115157
 30
0.0
 10
429.1263420002407
 20
183.5529878984889
 30
0.0
 10
429.179269633478
 20
183.3974806969578
 30
0.0
 10
429.2109143675959
 20
183.236265039459
 30
0.0
 10
429.2782501011551
 20
182.8932198263973
 30
0.0
 10
429.2492208902014
 20
182.524327803652
 30
0.0
 10
429.1328030349243
 20
182.1915259649828
 30
0.0
 10
428.9905856395796
 20
181.7849713986832
 30
0.0
 10
428.7179551333663
 20
181.4322754682917
 30
0.0
 10
428.4005092911263
 20
181.141904932207
 30
0.0
 10
427.866584990329
 20
180.6535196241527
 30
0.0
 10
427.2058818576883
 20
180.341447636176
 30
0.0
 10
426.5363840448905
 20
180.0654829447269
 30
0.0
 10
425.1586817796768
 20
179.4975988183504
 30
0.0
 10
423.7437375595576
 20
179.0826146592501
 30
0.0
 10
422.3091490223872
 20
178.7418032912155
 30
0.0
 10
420.6158330434355
 20
178.3395267357001
 30
0.0
 10
418.8951481082416
 20
178.0405895769245
 30
0.0
 10
417.170994668438
 20
177.7739515015461
 30
0.0
 10
416.3923673818539
 20
177.6535378096255
 30
0.0
 10
415.613032720298
 20
177.5397112685615
 30
0.0
 10
414.8367638816081
 20
177.418123637704
 30
0.0
 10
414.3567087682629
 20
177.3429322078694
 30
0.0
 10
413.8778261335838
 20
177.2647726638574
 30
0.0
 10
413.399219311666
 20
177.161927575735
 30
0.0
 10
413.2892295516981
 20
177.1382925040177
 30
0.0
 10
413.1792543584235
 20
177.113353696952
 30
0.0
 10
413.0734630721679
 20
177.0813624485498
 30
0.0
 10
413.036200050245
 20
177.0700941235944
 30
0.0
 10
412.9994561131955
 20
177.0579508232701
 30
0.0
 10
412.9627012249011
 20
177.0400982309379
 30
0.0
 10
412.9482483142097
 20
177.0330781600215
 30
0.0
 10
412.9337937101809
 20
177.025175288382
 30
0.0
 10
412.9257806091509
 20
177.0118648188943
 30
0.0
 10
412.9204196214531
 20
177.0029597442201
 30
0.0
 10
412.917941839247
 20
176.9916342381955
 30
0.0
 10
412.9192652063719
 20
176.9814596059146
 30
0.0
 10
412.92208236476
 20
176.9598000449831
 30
0.0
 10
412.942125219367
 20
176.9433559070085
 30
0.0
 10
412.9627012249011
 20
176.9315081846064
 30
0.0
 10
413.0074043628842
 20
176.9057679908387
 30
0.0
 10
413.0546240421542
 20
176.9017234722815
 30
0.0
 10
413.1016964842205
 20
176.8945875688478
 30
0.0
 10
413.1769801800065
 20
176.8831750064233
 30
0.0
 10
413.2518872709055
 20
176.8638552666146
 30
0.0
 10
413.3275637806075
 20
176.8511515503102
 30
0.0
 10
413.4366374826914
 20
176.8328414911749
 30
0.0
 10
413.5473095672562
 20
176.8282754894308
 30
0.0
 10
413.6576775214822
 20
176.8207463373389
 30
0.0
 10
413.7997553074556
 20
176.8110539835415
 30
0.0
 10
413.9413290985352
 20
176.7964511936644
 30
0.0
 10
414.0833505031304
 20
176.79034112436
 30
0.0
 10
414.1867149449994
 20
176.7858941615584
 30
0.0
 10
414.2903164903287
 20
176.7859458420373
 30
0.0
 10
414.3939180356669
 20
176.7859975225073
 30
0.0
  0
LINE
  5
A3
330
70
100
AcDbEntity
  8
SHADE
 62
     6
420
 16711935
370
     9
100
AcDbLine
 10
402.8431321653571
 20
198.8825172730198
 30
0.0
 11
397.9876189840575
 21
191.4333344663114
 31
0.0
  0
LINE
  5
A4
330
70
100
AcDbEntity
  8
SHADE
 62
     6
420
 16711935
370
     9
100
AcDbLine
 10
402.93300785592
 20
193.434083813989
 30
0.0
 11
401.3613948725529
 21
182.7799875952157
 31
0.0
  0
LINE
  5
A5
330
70
100
AcDbEntity
  8
SHADE
 62
     6
420
 16711935
370
     9
100
AcDbLine
 10
404.9349382195035
 20
186.4243091713574
 30
0.0
 11
406.5158133465931
 21
179.211178342667
 31
0.0
  0
LINE
  5
A6
330
70
100
AcDbEntity
  8
SHADE
 62
     6
420
 16711935
370
     9
100
AcDbLine
 10
408.8339770912865
 20
180.8808028342258
 30
0.0
 11
410.4657434959624
 21
177.4908503978549
 31
0.0
  0
SPLINE
  5
A7
330
70
100
AcDbEntity
  8
SHADE
 62
     6
420
 16711935
370
     9
100
AcDbSpline
210
0.0
220
0.0
230
1.0
 70
     8
 71
     3
 72
    17
 73
    13
 74
     0
 42
0.0000000001
 43
0.0000000001
 40
0.0
 40
0.0
 40
0.0
 40
0.0
 40
1.0
 40
1.0
 40
1.0
 40
2.0
 40
2.0
 40
2.0
 40
3.0
 40
3.0
 40
3.0
 40
4.0
 40
4.0
 40
4.0
 40
4.0
 10
410.6229762165027
 20
209.87252163055
 30
0.0
 10
409.7162914230329
 20
209.0888076114502
 30
0.0
 10
408.8204151076845
 20
208.2964643782557
 30
0.0
 10
408.0931635896488
 20
207.3694953947082
 30
0.0
 10
406.9285148991249
 20
205.8850114354733
 30
0.0
 10
406.1963223342803
 20
204.0552655020712
 30
0.0
 10
405.6903674646714
 20
202.198260256176
 30
0.0
 10
405.2865301827099
 20
200.7160570081308
 30
0.0
 10
405.026822848071
 20
199.2164875856865
 30
0.0
 10
404.9590816875083
 20
197.7060761964354
 30
0.0
 10
404.919594886682
 20
196.8256467323637
 30
0.0
 10
404.9453344757222
 20
195.9415333778628
 30
0.0
 10
404.9915486576574
 20
195.0562636484953
 30
0.0
  0
SPLINE
  5
A8
330
70
100
AcDbEntity
  8
SHADE
 62
     6
420
 16711935
370
     9
100
AcDbSpline
210
0.0
220
0.0
230
1.0
 70
     8
 71
     3
 72
    11
 73
     7
 74
     0
 42
0.0000000001
 43
0.0000000001
 40
0.0
 40
0.0
 40
0.0
 40
0.0
 40
1.0
 40
1.0
 40
1.0
 40
2.0
 40
2.0
 40
2.0
 40
2.0
 10
405.8039763467665
 20
184.8658856707403
 30
0.0
 10
405.7930144798438
 20
184.8912975790383
 30
0.0
 10
405.7820526129301
 20
184.9167094873362
 30
0.0
 10
405.7710907460075
 20
184.9421213956342
 30
0.0
 10
405.5436510432156
 20
185.4693743638051
 30
0.0
 10
405.316211340432
 20
185.9966273319856
 30
0.0
 10
405.0961992954233
 20
186.5267559990271
 30
0.0
  0
SPLINE
  5
A9
330
70
100
AcDbEntity
  8
SHADE
 62
     6
420
 16711935
370
     9
100
AcDbSpline
210
0.0
220
0.0
230
1.0
 70
     8
 71
     3
 72
    20
 73
    16
 74
     0
 42
0.0000000001
 43
0.0000000001
 40
0.0
 40
0.0
 40
0.0
 40
0.0
 40
1.0
 40
1.0
 40
1.0
 40
2.0
 40
2.0
 40
2.0
 40
3.0
 40
3.0
 40
3.0
 40
4.0
 40
4.0
 40
4.0
 40
5.0
 40
5.0
 40
5.0
 40
5.0
 10
406.0597093792045
 20
208.5513714962304
 30
0.0
 10
406.4854427092247
 20
208.6719734277632
 30
0.0
 10
406.9728088271218
 20
208.8100353572766
 30
0.0
 10
407.4582418420398
 20
208.954940742321
 30
0.0
 10
408.2676161751296
 20
209.196545033276
 30
0.0
 10
409.0716165383566
 20
209.4571739308415
 30
0.0
 10
409.8858785472216
 20
209.6805443331727
 30
0.0
 10
410.9222559296303
 20
209.9648459834331
 30
0.0
 10
411.9752568906413
 20
210.188789914616
 30
0.0
 10
413.0301607742373
 20
210.3971898549976
 30
0.0
 10
413.7215634040292
 20
210.5337788552473
 30
0.0
 10
414.4137834766635
 20
210.6636905875832
 30
0.0
 10
415.1084327875297
 20
210.7823868229783
 30
0.0
 10
415.1095320840889
 20
210.7825746621645
 30
0.0
 10
415.1106313867307
 20
210.7827624732674
 30
0.0
 10
415.1117306954295
 20
210.7829502564256
 30
0.0
  0
SPLINE
  5
AA
330
70
100
AcDbEntity
  8
SHADE
 62
     6
420
 16711935
370
     9
100
AcDbSpline
210
0.0
220
0.0
230
1.0
 70
     8
 71
     3
 72
    11
 73
     7
 74
     0
 42
0.0000000001
 43
0.0000000001
 40
0.0
 40
0.0
 40
0.0
 40
0.0
 40
1.0
 40
1.0
 40
1.0
 40
2.0
 40
2.0
 40
2.0
 40
2.0
 10
407.2702656872476
 20
206.1496653472016
 30
0.0
 10
408.4042858214137
 20
206.6313382393206
 30
0.0
 10
409.5383059555707
 20
207.1130111314388
 30
0.0
 10
410.6934493182307
 20
207.5373252821593
 30
0.0
 10
412.1407240581833
 20
208.0689468730256
 30
0.0
 10
413.6211569630434
 20
208.5105296420752
 30
0.0
 10
415.1117306954295
 20
208.9140406717818
 30
0.0
  0
SPLINE
  5
AB
330
70
100
AcDbEntity
  8
SHADE
 62
     6
420
 16711935
370
     9
100
AcDbSpline
210
0.0
220
0.0
230
1.0
 70
     8
 71
     3
 72
    14
 73
    10
 74
     0
 42
0.0000000001
 43
0.0000000001
 40
0.0
 40
0.0
 40
0.0
 40
0.0
 40
1.0
 40
1.0
 40
1.0
 40
2.0
 40
2.0
 40
2.0
 40
3.0
 40
3.0
 40
3.0
 40
3.0
 10
405.3713950303969
 20
200.8800892930434
 30
0.0
 10
406.1775087282316
 20
201.3090329379073
 30
0.0
 10
406.9836193511478
 20
201.7379739503613
 30
0.0
 10
407.8074167133316
 20
202.1291583933853
 30
0.0
 10
409.0606229581745
 20
202.7242498678041
 30
0.0
 10
410.3547601771412
 20
203.2319644016916
 30
0.0
 10
411.6457971441934
 20
203.7448487607903
 30
0.0
 10
412.8016290460584
 20
204.2040208211925
 30
0.0
 10
413.9549760475486
 20
204.6673365773339
 30
0.0
 10
415.1117306954295
 20
205.1196775428502
 30
0.0
  0
SPLINE
  5
AC
330
70
100
AcDbEntity
  8
SHADE
 62
     6
420
 16711935
370
     9
100
AcDbSpline
210
0.0
220
0.0
230
1.0
 70
     8
 71
     3
 72
    23
 73
    19
 74
     0
 42
0.0000000001
 43
0.0000000001
 40
0.0
 40
0.0
 40
0.0
 40
0.0
 40
1.0
 40
1.0
 40
1.0
 40
2.0
 40
2.0
 40
2.0
 40
3.0
 40
3.0
 40
3.0
 40
4.0
 40
4.0
 40
4.0
 40
5.0
 40
5.0
 40
5.0
 40
6.0
 40
6.0
 40
6.0
 40
6.0
 10
409.1392108437628
 20
213.9635988611465
 30
0.0
 10
409.1183568200831
 20
213.9822092052134
 30
0.0
 10
409.0999613919866
 20
214.0029019170215
 30
0.0
 10
409.0878447753764
 20
214.0289126219821
 30
0.0
 10
409.0699105019839
 20
214.0674120735273
 30
0.0
 10
409.0657319155412
 20
214.1175622409951
 30
0.0
 10
409.0819906440607
 20
214.1518493797827
 30
0.0
 10
409.107593046619
 20
214.2058408791138
 30
0.0
 10
409.1838725921668
 20
214.2204978095887
 30
0.0
 10
409.2576145837801
 20
214.2338072183229
 30
0.0
 10
409.7195746174322
 20
214.3171846098484
 30
0.0
 10
410.081949550998
 20
214.3476791498119
 30
0.0
 10
410.4635656365648
 20
214.3743063701058
 30
0.0
 10
411.2299144996046
 20
214.4277782775354
 30
0.0
 10
412.0738578307945
 20
214.4656543094017
 30
0.0
 10
412.8988842674302
 20
214.4913889965915
 30
0.0
 10
413.7172102635187
 20
214.5169146798771
 30
0.0
 10
414.5169253839117
 20
214.530495429193
 30
0.0
 10
415.3067962630657
 20
214.5494970740008
 30
0.0
  0
SPLINE
  5
AD
330
70
100
AcDbEntity
  8
SHADE
 62
     6
420
 16711935
370
     9
100
AcDbSpline
210
0.0
220
0.0
230
1.0
 70
     8
 71
     3
 72
    20
 73
    16
 74
     0
 42
0.0000000001
 43
0.0000000001
 40
0.0
 40
0.0
 40
0.0
 40
0.0
 40
1.0
 40
1.0
 40
1.0
 40
2.0
 40
2.0
 40
2.0
 40
3.0
 40
3.0
 40
3.0
 40
4.0
 40
4.0
 40
4.0
 40
5.0
 40
5.0
 40
5.0
 40
5.0
 10
419.5265151077711
 20
214.5308060132979
 30
0.0
 10
419.5331380008862
 20
214.5307569730389
 30
0.0
 10
419.539760894011
 20
214.5307079327902
 30
0.0
 10
419.5463837871263
 20
214.5306588925313
 30
0.0
 10
419.6709689876133
 20
214.5297363817801
 30
0.0
 10
419.7955541880908
 20
214.5288138710289
 30
0.0
 10
419.91171873408
 20
214.5237657803196
 30
0.0
 10
419.993066390984
 20
214.520230705591
 30
0.0
 10
420.0702846308307
 20
214.51467248169
 30
0.0
 10
420.1667638857386
 20
214.5030864437012
 30
0.0
 10
420.2381304854224
 20
214.4945161439388
 30
0.0
 10
420.3200361310715
 20
214.4826476062868
 30
0.0
 10
420.352877915313
 20
214.4686208826678
 30
0.0
 10
420.4433360649053
 20
214.4299862136852
 30
0.0
 10
420.1615708443894
 20
214.3749784499692
 30
0.0
 10
419.8671127659484
 20
214.319412361916
 30
0.0
  0
SPLINE
  5
AE
330
70
100
AcDbEntity
  8
SHADE
 62
     6
420
 16711935
370
     9
100
AcDbSpline
210
0.0
220
0.0
230
1.0
 70
     8
 71
     3
 72
    14
 73
    10
 74
     0
 42
0.0000000001
 43
0.0000000001
 40
0.0
 40
0.0
 40
0.0
 40
0.0
 40
1.0
 40
1.0
 40
1.0
 40
2.0
 40
2.0
 40
2.0
 40
3.0
 40
3.0
 40
3.0
 40
3.0
 10
420.3550740446645
 20
214.3710935682194
 30
0.0
 10
420.5722684396164
 20
214.3572149117678
 30
0.0
 10
420.7918306296656
 20
214.3417236740242
 30
0.0
 10
421.0573269043407
 20
214.2949491358105
 30
0.0
 10
421.20866077601
 20
214.2682874737105
 30
0.0
 10
421.3749188280445
 20
214.2314617336208
 30
0.0
 10
421.445752315627
 20
214.1951701310763
 30
0.0
 10
421.6682212621906
 20
214.0811879615831
 30
0.0
 10
420.9494039207896
 20
213.972474627752
 30
0.0
 10
420.230556498971
 20
213.8705019244884
 30
0.0
  0
LINE
  5
AF
330
70
100
AcDbEntity
  8
SHADE
 62
     6
420
 16711935
370
     9
100
AcDbLine
 10
420.3691423528352
 20
214.4497377171863
 30
0.0
 11
420.2664370066662
 21
213.8755979951652
 31
0.0
  0
LINE
  5
B0
330
70
100
AcDbEntity
  8
SHADE
 62
     6
420
 16711935
370
     9
100
AcDbLine
 10
419.5256328957715
 20
214.5326602157861
 30
0.0
 11
419.6436613174705
 21
214.2845921842213
 31
0.0
  0
LINE
  5
B1
330
70
100
AcDbEntity
  8
SHADE
 62
     6
420
 16711935
370
     9
100
AcDbLine
 10
416.6277740075333
 20
214.5494970740008
 30
0.0
 11
416.9815119301879
 21
214.4989964542725
 31
0.0
  0
SPLINE
  5
B2
330
70
100
AcDbEntity
  8
SHADE
 62
     6
420
 16711935
370
     9
100
AcDbSpline
210
0.0
220
0.0
230
1.0
 70
     8
 71
     3
 72
    35
 73
    31
 74
     0
 42
0.0000000001
 43
0.0000000001
 40
0.0
 40
0.0
 40
0.0
 40
0.0
 40
1.0
 40
1.0
 40
1.0
 40
2.0
 40
2.0
 40
2.0
 40
3.0
 40
3.0
 40
3.0
 40
4.0
 40
4.0
 40
4.0
 40
5.0
 40
5.0
 40
5.0
 40
6.0
 40
6.0
 40
6.0
 40
7.0
 40
7.0
 40
7.0
 40
8.0
 40
8.0
 40
8.0
 40
9.0
 40
9.0
 40
9.0
 40
10.0
 40
10.0
 40
10.0
 40
10.0
 10
401.2094686494775
 20
207.6205808752825
 30
0.0
 10
401.0997532939605
 20
207.7434340304275
 30
0.0
 10
400.990037938444
 20
207.8662871855815
 30
0.0
 10
400.9053393976306
 20
208.006331520172
 30
0.0
 10
400.8060174813709
 20
208.1705547941109
 30
0.0
 10
400.7410965070926
 20
208.3584178788564
 30
0.0
 10
400.718518398511
 20
208.551226100927
 30
0.0
 10
400.6794345883507
 20
208.8849865627675
 30
0.0
 10
400.7672324588318
 20
209.2335652785338
 30
0.0
 10
400.9364762308115
 20
209.5242521379995
 30
0.0
 10
401.0962988798584
 20
209.7987576242588
 30
0.0
 10
401.3287522728065
 20
210.0216370800925
 30
0.0
 10
401.5825655194287
 20
210.2092624680992
 30
0.0
 10
402.0601868682887
 20
210.5623326568761
 30
0.0
 10
402.6134457171627
 20
210.7905644643763
 30
0.0
 10
403.1705440119286
 20
210.9954675060431
 30
0.0
 10
403.723909865737
 20
211.1989977406002
 30
0.0
 10
404.2810638908305
 20
211.3795107577566
 30
0.0
 10
404.8441487956863
 20
211.5403620868077
 30
0.0
 10
406.6185377874185
 20
212.047235606417
 30
0.0
 10
408.4518205034787
 20
212.3588682706267
 30
0.0
 10
410.2892819298276
 20
212.5950428802932
 30
0.0
 10
412.0636820587972
 20
212.8231120260399
 30
0.0
 10
413.8419789949856
 20
212.9808136488697
 30
0.0
 10
415.6111386223724
 20
213.1987161767607
 30
0.0
 10
417.0499774225958
 20
213.3759339964206
 30
0.0
 10
418.4827724442532
 20
213.5929710831056
 30
0.0
 10
419.9252087634529
 20
213.8014109729107
 30
0.0
 10
420.0269515989441
 20
213.8161133657572
 30
0.0
 10
420.1287424022361
 20
213.8307729854465
 30
0.0
 10
420.230556498971
 20
213.8444931821407
 30
0.0
  0
SPLINE
  5
B3
330
70
100
AcDbEntity
  8
SHADE
 62
     6
420
 16711935
370
     9
100
AcDbSpline
210
0.0
220
0.0
230
1.0
 70
     8
 71
     3
 72
     8
 73
     4
 74
     0
 42
0.0000000001
 43
0.0000000001
 40
0.0
 40
0.0
 40
0.0
 40
0.0
 40
1.0
 40
1.0
 40
1.0
 40
1.0
 10
421.442544892204
 20
214.0800641034715
 30
0.0
 10
421.2888900595535
 20
213.9982790860063
 30
0.0
 10
420.7597314296644
 20
213.9195597352708
 30
0.0
 10
420.230556498971
 20
213.8444931821407
 30
0.0
  0
LINE
  5
B4
330
70
100
AcDbEntity
  8
SHADE
 62
     6
420
 16711935
370
     9
100
AcDbLine
 10
421.4823200961713
 20
214.1376534237886
 30
0.0
 11
420.5483136638115
 21
212.6231219498296
 31
0.0
  0
SPLINE
  5
B5
330
70
100
AcDbEntity
  8
SHADE
 62
     6
420
 16711935
370
     9
100
AcDbSpline
210
0.0
220
0.0
230
1.0
 70
     8
 71
     3
 72
    32
 73
    28
 74
     0
 42
0.0000000001
 43
0.0000000001
 40
0.0
 40
0.0
 40
0.0
 40
0.0
 40
1.0
 40
1.0
 40
1.0
 40
2.0
 40
2.0
 40
2.0
 40
3.0
 40
3.0
 40
3.0
 40
4.0
 40
4.0
 40
4.0
 40
5.0
 40
5.0
 40
5.0
 40
6.0
 40
6.0
 40
6.0
 40
7.0
 40
7.0
 40
7.0
 40
8.0
 40
8.0
 40
8.0
 40
9.0
 40
9.0
 40
9.0
 40
9.0
 10
398.0358822867652
 20
200.6214252917448
 30
0.0
 10
397.676331585912
 20
200.9757485059243
 30
0.0
 10
397.3167812295697
 20
201.3300712164805
 30
0.0
 10
397.0843985878365
 20
201.7711464971754
 30
0.0
 10
396.7590376122414
 20
202.3886998676109
 30
0.0
 10
396.6829640898461
 20
203.1763146984845
 30
0.0
 10
396.8633489059146
 20
203.8489069130158
 30
0.0
 10
397.1606394326795
 20
204.9573998456145
 30
0.0
 10
398.1545228047135
 20
205.7534680309063
 30
0.0
 10
399.162142357366
 20
206.4129579331571
 30
0.0
 10
400.7243079338493
 20
207.4353998067951
 30
0.0
 10
402.3194896997584
 20
208.1295630572516
 30
0.0
 10
403.9807788278744
 20
208.7117607429035
 30
0.0
 10
406.0101494320268
 20
209.422952340498
 30
0.0
 10
408.1381666343043
 20
209.9670669030039
 30
0.0
 10
410.2582700140471
 20
210.4800697935214
 30
0.0
 10
411.9473498877216
 20
210.8887776262575
 30
0.0
 10
413.631406652371
 20
211.2777380714663
 30
0.0
 10
415.3304976344308
 20
211.606934555597
 30
0.0
 10
416.4047429212807
 20
211.8150680665583
 30
0.0
 10
417.4849979313531
 20
211.9993117497615
 30
0.0
 10
418.5606560305551
 20
212.2051701457654
 30
0.0
 10
419.265611956533
 20
212.3400839220725
 30
0.0
 10
419.9685934535553
 20
212.4842814796014
 30
0.0
 10
420.6729792449153
 20
212.6214675011051
 30
0.0
 10
421.2428523204253
 20
212.7324558557121
 30
0.0
 10
421.8136445604512
 20
212.8388548910352
 30
0.0
 10
422.3844365856163
 20
212.9452550598271
 30
0.0
  0
SPLINE
  5
B6
330
70
100
AcDbEntity
  8
SHADE
 62
     6
420
 16711935
370
     9
100
AcDbSpline
210
0.0
220
0.0
230
1.0
 70
     8
 71
     3
 72
    17
 73
    13
 74
     0
 42
0.0000000001
 43
0.0000000001
 40
0.0
 40
0.0
 40
0.0
 40
0.0
 40
1.0
 40
1.0
 40
1.0
 40
2.0
 40
2.0
 40
2.0
 40
3.0
 40
3.0
 40
3.0
 40
4.0
 40
4.0
 40
4.0
 40
4.0
 10
423.1872147597644
 20
213.4040690290539
 30
0.0
 10
423.1873837190946
 20
213.4026644384136
 30
0.0
 10
423.1875258535318
 20
213.4012604955429
 30
0.0
 10
423.1876397805809
 20
213.3998574680147
 30
0.0
 10
423.1924538479833
 20
213.3405715542208
 30
0.0
 10
423.1469023653892
 20
213.2829200216477
 30
0.0
 10
423.0972974896077
 20
213.2372413442627
 30
0.0
 10
422.9599947635132
 20
213.1108060527847
 30
0.0
 10
422.7916372671179
 20
213.0760999003011
 30
0.0
 10
422.6275175765382
 20
213.0264426653162
 30
0.0
 10
422.5458630682703
 20
213.0017366895219
 30
0.0
 10
422.4652575709201
 20
212.973329777548
 30
0.0
 10
422.384652089627
 20
212.9449228636977
 30
0.0
  0
SPLINE
  5
B7
330
70
100
AcDbEntity
  8
SHADE
 62
     6
420
 16711935
370
     9
100
AcDbSpline
210
0.0
220
0.0
230
1.0
 70
     8
 71
     3
 72
    29
 73
    25
 74
     0
 42
0.0000000001
 43
0.0000000001
 40
0.0
 40
0.0
 40
0.0
 40
0.0
 40
1.0
 40
1.0
 40
1.0
 40
2.0
 40
2.0
 40
2.0
 40
3.0
 40
3.0
 40
3.0
 40
4.0
 40
4.0
 40
4.0
 40
5.0
 40
5.0
 40
5.0
 40
6.0
 40
6.0
 40
6.0
 40
7.0
 40
7.0
 40
7.0
 40
8.0
 40
8.0
 40
8.0
 40
8.0
 10
394.5207938841349
 20
196.0629541980482
 30
0.0
 10
394.5236703088742
 20
196.5129194642481
 30
0.0
 10
394.6258066109028
 20
196.9671458906038
 30
0.0
 10
394.8025509006903
 20
197.3815787954145
 30
0.0
 10
395.0190365763558
 20
197.8891979526183
 30
0.0
 10
395.3474538939497
 20
198.3371163413223
 30
0.0
 10
395.7175739644021
 20
198.7414047373202
 30
0.0
 10
396.4953476444096
 20
199.5909800471907
 30
0.0
 10
397.4572773514231
 20
200.2478887927165
 30
0.0
 10
398.4499345018709
 20
200.8383325916618
 30
0.0
 10
400.2372541272984
 20
201.9014506975457
 30
0.0
 10
402.1241904928082
 20
202.7490929757458
 30
0.0
 10
404.0417421134482
 20
203.5198585144854
 30
0.0
 10
406.565419691164
 20
204.5342581722952
 30
0.0
 10
409.1421260315005
 20
205.4154994308416
 30
0.0
 10
411.7050602720437
 20
206.3284709739395
 30
0.0
 10
412.9066330638807
 20
206.7564966909269
 30
0.0
 10
414.105178765227
 20
207.1914966852313
 30
0.0
 10
415.3143179122359
 20
207.5993363402031
 30
0.0
 10
417.6076277642915
 20
208.372864102594
 30
0.0
 10
419.9390450895696
 20
209.0486888195816
 30
0.0
 10
422.1738785667325
 20
209.9693705681513
 30
0.0
 10
423.0748131388925
 20
210.3405275360954
 30
0.0
 10
423.9600512887879
 20
210.7514776934308
 30
0.0
 10
424.8452894386832
 20
211.1624278507751
 30
0.0
  0
SPLINE
  5
B8
330
70
100
AcDbEntity
  8
SHADE
 62
     6
420
 16711935
370
     9
100
AcDbSpline
210
0.0
220
0.0
230
1.0
 70
     8
 71
     3
 72
    23
 73
    19
 74
     0
 42
0.0000000001
 43
0.0000000001
 40
0.0
 40
0.0
 40
0.0
 40
0.0
 40
1.0
 40
1.0
 40
1.0
 40
2.0
 40
2.0
 40
2.0
 40
3.0
 40
3.0
 40
3.0
 40
4.0
 40
4.0
 40
4.0
 40
5.0
 40
5.0
 40
5.0
 40
6.0
 40
6.0
 40
6.0
 40
6.0
 10
396.7591370953261
 20
188.5229673164113
 30
0.0
 10
396.7600022727637
 20
188.6757180006761
 30
0.0
 10
396.7710430425601
 20
188.8278461393601
 30
0.0
 10
396.7926078472179
 20
188.9776026400609
 30
0.0
 10
396.8891967594989
 20
189.6483630637324
 30
0.0
 10
397.1969136416898
 20
190.2715448620254
 30
0.0
 10
397.5744248809146
 20
190.8344180950736
 30
0.0
 10
398.5606404533532
 20
192.3048758989024
 30
0.0
 10
400.0231819847996
 20
193.3637454827738
 30
0.0
 10
401.5323736139784
 20
194.3037311820787
 30
0.0
 10
404.7473452437704
 20
196.3061457842274
 30
0.0
 10
408.1740155156357
 20
197.7690640475833
 30
0.0
 10
411.6471314873565
 20
199.1412240780468
 30
0.0
 10
413.8760788401794
 20
200.0218374789443
 30
0.0
 10
416.1241558226572
 20
200.8650702097449
 30
0.0
 10
418.3414398383373
 20
201.7798565667563
 30
0.0
 10
421.0154084911601
 20
202.8830576115469
 30
0.0
 10
423.6445932858988
 20
204.0903229207918
 30
0.0
 10
426.2676529037155
 20
205.3121757056745
 30
0.0
  0
SPLINE
  5
B9
330
70
100
AcDbEntity
  8
SHADE
 62
     6
420
 16711935
370
     9
100
AcDbSpline
210
0.0
220
0.0
230
1.0
 70
     8
 71
     3
 72
    17
 73
    13
 74
     0
 42
0.0000000001
 43
0.0000000001
 40
0.0
 40
0.0
 40
0.0
 40
0.0
 40
1.0
 40
1.0
 40
1.0
 40
2.0
 40
2.0
 40
2.0
 40
3.0
 40
3.0
 40
3.0
 40
4.0
 40
4.0
 40
4.0
 40
4.0
 10
429.8759727185931
 20
208.8166723995714
 30
0.0
 10
429.8773412413312
 20
208.6790766672502
 30
0.0
 10
429.864260835103
 20
208.5419572177668
 30
0.0
 10
429.8359397982624
 20
208.4096142870996
 30
0.0
 10
429.7451263816821
 20
207.9852472782387
 30
0.0
 10
429.4976073100076
 20
207.6099929032446
 30
0.0
 10
429.1982303253233
 20
207.3005543341677
 30
0.0
 10
428.8037227885978
 20
206.8927880264716
 30
0.0
 10
428.3191641929838
 20
206.5993106029662
 30
0.0
 10
427.839631882975
 20
206.3024003765202
 30
0.0
 10
427.3113105345187
 20
205.9752816236652
 30
0.0
 10
426.7890902803046
 20
205.6439960056839
 30
0.0
 10
426.2676529037155
 20
205.3121757056745
 30
0.0
  0
SPLINE
  5
BA
330
70
100
AcDbEntity
  8
SHADE
 62
     6
420
 16711935
370
     9
100
AcDbSpline
210
0.0
220
0.0
230
1.0
 70
     8
 71
     3
 72
    14
 73
    10
 74
     0
 42
0.0000000001
 43
0.0000000001
 40
0.0
 40
0.0
 40
0.0
 40
0.0
 40
1.0
 40
1.0
 40
1.0
 40
2.0
 40
2.0
 40
2.0
 40
3.0
 40
3.0
 40
3.0
 40
3.0
 10
425.7973404513139
 20
212.1734589461403
 30
0.0
 10
425.7986626101965
 20
212.1409011058019
 30
0.0
 10
425.7965822337096
 20
212.1079534377883
 30
0.0
 10
425.7917315889768
 20
212.0759896473524
 30
0.0
 10
425.7517904120524
 20
211.8127934165894
 30
0.0
 10
425.5240193885466
 20
211.6163060955673
 30
0.0
 10
425.3013678545772
 20
211.4558237479692
 30
0.0
 10
425.1532286231265
 20
211.3490482355239
 30
0.0
 10
425.0073556815125
 20
211.25821136398
 30
0.0
 10
424.8452894386832
 20
211.1624278507751
 30
0.0
  0
SPLINE
  5
BB
330
70
100
AcDbEntity
  8
SHADE
 62
     6
420
 16711935
370
     9
100
AcDbSpline
210
0.0
220
0.0
230
1.0
 70
     8
 71
     3
 72
    32
 73
    28
 74
     0
 42
0.0000000001
 43
0.0000000001
 40
0.0
 40
0.0
 40
0.0
 40
0.0
 40
1.0
 40
1.0
 40
1.0
 40
2.0
 40
2.0
 40
2.0
 40
3.0
 40
3.0
 40
3.0
 40
4.0
 40
4.0
 40
4.0
 40
5.0
 40
5.0
 40
5.0
 40
6.0
 40
6.0
 40
6.0
 40
7.0
 40
7.0
 40
7.0
 40
8.0
 40
8.0
 40
8.0
 40
9.0
 40
9.0
 40
9.0
 40
9.0
 10
410.431905267145
 20
177.5611484416901
 30
0.0
 10
410.4120254585987
 20
177.5639321056774
 30
0.0
 10
410.3921456500525
 20
177.5667157696737
 30
0.0
 10
410.3722658415063
 20
177.5694994336706
 30
0.0
 10
410.0837530836768
 20
177.6098983426239
 30
0.0
 10
409.7952403258558
 20
177.6502972515772
 30
0.0
 10
409.5067152694118
 20
177.6928525065538
 30
0.0
 10
409.2100424719825
 20
177.7366094914594
 30
0.0
 10
408.9133566715304
 20
177.7826463293137
 30
0.0
 10
408.6218423764411
 20
177.8515193701186
 30
0.0
 10
408.3625257143922
 20
177.9127854121226
 30
0.0
 10
408.1073012642254
 20
177.9921217401533
 30
0.0
 10
407.8529183453126
 20
178.0712119504499
 30
0.0
 10
407.6354829972155
 20
178.1388147890294
 30
0.0
 10
407.4186624785501
 20
178.2062378120369
 30
0.0
 10
407.2121483193702
 20
178.3092122457977
 30
0.0
 10
407.0203650039203
 20
178.4048414190781
 30
0.0
 10
406.8374701636545
 20
178.5311310629784
 30
0.0
 10
406.7117374419686
 20
178.6997768330391
 30
0.0
 10
406.6565572072393
 20
178.7737902883474
 30
0.0
 10
406.6123867557967
 20
178.8559617997586
 30
0.0
 10
406.5774808651011
 20
178.9438797000592
 30
0.0
 10
406.5459544690081
 20
179.0232856253701
 30
0.0
 10
406.5219855360986
 20
179.107379104008
 30
0.0
 10
406.5164551483524
 20
179.1879825670877
 30
0.0
 10
406.5160626988888
 20
179.1937023804342
 30
0.0
 10
406.515763099655
 20
179.1994046192553
 30
0.0
 10
406.5155549372795
 20
179.2050893394558
 30
0.0
  0
SPLINE
  5
BC
330
70
100
AcDbEntity
  8
SHADE
 62
     6
420
 16711935
370
     9
100
AcDbSpline
210
0.0
220
0.0
230
1.0
 70
     8
 71
     3
 72
    17
 73
    13
 74
     0
 42
0.0000000001
 43
0.0000000001
 40
0.0
 40
0.0
 40
0.0
 40
0.0
 40
1.0
 40
1.0
 40
1.0
 40
2.0
 40
2.0
 40
2.0
 40
3.0
 40
3.0
 40
3.0
 40
4.0
 40
4.0
 40
4.0
 40
4.0
 10
436.1265075904009
 20
196.1464299718564
 30
0.0
 10
436.1298925803063
 20
196.6819825118681
 30
0.0
 10
435.9935738273596
 20
197.2249117670879
 30
0.0
 10
435.7495170665618
 20
197.6994487625982
 30
0.0
 10
435.5028717827754
 20
198.1790188082676
 30
0.0
 10
435.1461909825209
 20
198.5887381320808
 30
0.0
 10
434.7656330617156
 20
198.9697800093649
 30
0.0
 10
434.387138421947
 20
199.3487559817378
 30
0.0
 10
433.9850248702095
 20
199.6993646271592
 30
0.0
 10
433.5575729544989
 20
200.0159351537598
 30
0.0
 10
433.2737943172712
 20
200.2261013720494
 30
0.0
 10
432.9788479879338
 20
200.4212655471186
 30
0.0
 10
432.6803564206282
 20
200.6116672509065
 30
0.0
  0
SPLINE
  5
BD
330
70
100
AcDbEntity
  8
SHADE
 62
     6
420
 16711935
370
     9
100
AcDbSpline
210
0.0
220
0.0
230
1.0
 70
     8
 71
     3
 72
    47
 73
    43
 74
     0
 42
0.0000000001
 43
0.0000000001
 40
0.0
 40
0.0
 40
0.0
 40
0.0
 40
1.0
 40
1.0
 40
1.0
 40
2.0
 40
2.0
 40
2.0
 40
3.0
 40
3.0
 40
3.0
 40
4.0
 40
4.0
 40
4.0
 40
5.0
 40
5.0
 40
5.0
 40
6.0
 40
6.0
 40
6.0
 40
7.0
 40
7.0
 40
7.0
 40
8.0
 40
8.0
 40
8.0
 40
9.0
 40
9.0
 40
9.0
 40
10.0
 40
10.0
 40
10.0
 40
11.0
 40
11.0
 40
11.0
 40
12.0
 40
12.0
 40
12.0
 40
13.0
 40
13.0
 40
13.0
 40
14.0
 40
14.0
 40
14.0
 40
14.0
 10
406.5045922522341
 20
179.2233642266048
 30
0.0
 10
406.4815996617866
 20
179.2301259959181
 30
0.0
 10
406.4587599719199
 20
179.236842799511
 30
0.0
 10
406.4359116689042
 20
179.2435621360947
 30
0.0
 10
405.771504123737
 20
179.4389542369458
 30
0.0
 10
405.099813368273
 20
179.6364882185872
 30
0.0
 10
404.4554430438584
 20
179.8849574456526
 30
0.0
 10
403.8177577629743
 20
180.1308489196251
 30
0.0
 10
403.2068289800391
 20
180.4266242620883
 30
0.0
 10
402.6178566703149
 20
180.8163368404683
 30
0.0
 10
402.1495851640227
 20
181.1261838283222
 30
0.0
 10
401.6951929810459
 20
181.4954112665921
 30
0.0
 10
401.4850979468972
 20
181.9994403960367
 30
0.0
 10
401.3932615954371
 20
182.2197606737699
 30
0.0
 10
401.3481036552716
 20
182.465837816925
 30
0.0
 10
401.3592358665247
 20
182.7042680461617
 30
0.0
 10
401.3818484583937
 20
183.1885856129152
 30
0.0
 10
401.6367188072874
 20
183.641351388985
 30
0.0
 10
401.9382014362695
 20
184.0384060981828
 30
0.0
 10
402.5675927918298
 20
184.8673188700416
 30
0.0
 10
403.4001343723103
 20
185.4534261892472
 30
0.0
 10
404.2540637152562
 20
186.0018545521065
 30
0.0
 10
406.578402633402
 20
187.494640106492
 30
0.0
 10
409.0612018193931
 20
188.7082652050975
 30
0.0
 10
411.5792367933503
 20
189.8280617956447
 30
0.0
 10
413.9096873915709
 20
190.8644376448052
 30
0.0
 10
416.2703194518455
 20
191.8204440253236
 30
0.0
 10
418.6275132946113
 20
192.7984068926065
 30
0.0
 10
421.0229624290814
 20
193.7922412822519
 30
0.0
 10
423.4148608416528
 20
194.8087506126528
 30
0.0
 10
425.7009622119443
 20
196.02047615033
 30
0.0
 10
427.0444768042182
 20
196.7325928407122
 30
0.0
 10
428.3514514981998
 20
197.5121327804131
 30
0.0
 10
429.6530315358717
 20
198.3111660132366
 30
0.0
 10
430.7231881713682
 20
198.9681296200453
 30
0.0
 10
431.7896979667829
 20
199.6382708824381
 30
0.0
 10
432.6485490489046
 20
200.5766834600734
 30
0.0
 10
433.1511987821076
 20
201.1258972197067
 30
0.0
 10
433.5827197390223
 20
201.7670012259045
 30
0.0
 10
433.7309629401716
 20
202.4897870818469
 30
0.0
 10
433.7719567823499
 20
202.6896597848135
 30
0.0
 10
433.7912885446121
 20
202.8957786497891
 30
0.0
 10
433.7899907236235
 20
203.1027688928639
 30
0.0
  0
SPLINE
  5
BE
330
70
100
AcDbEntity
  8
SHADE
 62
     6
420
 16711935
370
     9
100
AcDbSpline
210
0.0
220
0.0
230
1.0
 70
     8
 71
     3
 72
    11
 73
     7
 74
     0
 42
0.0000000001
 43
0.0000000001
 40
0.0
 40
0.0
 40
0.0
 40
0.0
 40
1.0
 40
1.0
 40
1.0
 40
2.0
 40
2.0
 40
2.0
 40
2.0
 10
405.6000930803298
 20
184.8658856707403
 30
0.0
 10
405.5891312134161
 20
184.8912975790383
 30
0.0
 10
405.5781693464934
 20
184.9167094873362
 30
0.0
 10
405.5672074795707
 20
184.9421213956342
 30
0.0
 10
405.3539315816835
 20
185.4365396912309
 30
0.0
 10
405.1406556837874
 20
185.9309579868277
 30
0.0
 10
404.9335043951495
 20
186.4277474918009
 30
0.0
  0
LINE
  5
BF
330
70
100
AcDbEntity
  8
SHADE
 62
     6
420
 16711935
370
     9
100
AcDbLine
 10
406.0597093792045
 20
208.5513714962304
 30
0.0
 11
405.8558261127768
 21
208.5513714962304
 31
0.0
  0
SPLINE
  5
C0
330
70
100
AcDbEntity
  8
SHADE
 62
     6
420
 16711935
370
     9
100
AcDbSpline
210
0.0
220
0.0
230
1.0
 70
     8
 71
     3
 72
     8
 73
     4
 74
     0
 42
0.0000000001
 43
0.0000000001
 40
0.0
 40
0.0
 40
0.0
 40
0.0
 40
1.0
 40
1.0
 40
1.0
 40
1.0
 10
406.7513752440511
 20
209.6033568177618
 30
0.0
 10
407.0872890270117
 20
210.092393376667
 30
0.0
 10
407.435388518032
 20
210.5747671545429
 30
0.0
 10
407.7840781934649
 20
211.0568182372193
 30
0.0
  0
SPLINE
  5
C1
330
70
100
AcDbEntity
  8
SHADE
 62
     6
420
 16711935
370
     9
100
AcDbSpline
210
0.0
220
0.0
230
1.0
 70
     8
 71
     3
 72
     8
 73
     4
 74
     0
 42
0.0000000001
 43
0.0000000001
 40
0.0
 40
0.0
 40
0.0
 40
0.0
 40
1.0
 40
1.0
 40
1.0
 40
1.0
 10
406.4983734429943
 20
209.5316708586933
 30
0.0
 10
406.8494124368859
 20
210.0452849062488
 30
0.0
 10
407.2144790680296
 20
210.5512290609256
 30
0.0
 10
407.5801949270282
 20
211.0568182372193
 30
0.0
  0
SPLINE
  5
C2
330
70
100
AcDbEntity
  8
SHADE
 62
     6
420
 16711935
370
     9
100
AcDbSpline
210
0.0
220
0.0
230
1.0
 70
     8
 71
     3
 72
    11
 73
     7
 74
     0
 42
0.0000000001
 43
0.0000000001
 40
0.0
 40
0.0
 40
0.0
 40
0.0
 40
1.0
 40
1.0
 40
1.0
 40
2.0
 40
2.0
 40
2.0
 40
2.0
 10
404.1491989643534
 20
204.3926093970484
 30
0.0
 10
404.4839270921739
 20
205.4434872676731
 30
0.0
 10
404.8977033876978
 20
206.4640812511213
 30
0.0
 10
405.4107012839449
 20
207.4304238282833
 30
0.0
 10
405.6131032664402
 20
207.8116917726848
 30
0.0
 10
405.830950841868
 20
208.1845145284225
 30
0.0
 10
406.0597093792045
 20
208.5513714962304
 30
0.0
  0
SPLINE
  5
C3
330
70
100
AcDbEntity
  8
SHADE
 62
     6
420
 16711935
370
     9
100
AcDbSpline
210
0.0
220
0.0
230
1.0
 70
     8
 71
     3
 72
    11
 73
     7
 74
     0
 42
0.0000000001
 43
0.0000000001
 40
0.0
 40
0.0
 40
0.0
 40
0.0
 40
1.0
 40
1.0
 40
1.0
 40
2.0
 40
2.0
 40
2.0
 40
2.0
 10
403.9000139311024
 20
204.2486557324258
 30
0.0
 10
404.2425119501352
 20
205.3502918012532
 30
0.0
 10
404.6704262922459
 20
206.4200139105255
 30
0.0
 10
405.2068180175088
 20
207.4304238282833
 30
0.0
 10
405.4092200000041
 20
207.8116917726848
 30
0.0
 10
405.6270675754319
 20
208.1845145284225
 30
0.0
 10
405.8558261127768
 20
208.5513714962304
 30
0.0
  0
LINE
  5
C4
330
70
100
AcDbEntity
  8
SHADE
 62
     6
420
 16711935
370
     9
100
AcDbLine
 10
402.8053700966875
 20
198.4422512512874
 30
0.0
 11
403.0092533631242
 21
198.4422512512874
 31
0.0
  0
LINE
  5
C5
330
70
100
AcDbEntity
  8
SHADE
 62
     6
420
 16711935
370
     9
100
AcDbLine
 10
403.0092533631242
 20
198.4422512512874
 30
0.0
 11
405.3713950303969
 21
200.8800892930434
 31
0.0
  0
SPLINE
  5
C6
330
70
100
AcDbEntity
  8
SHADE
 62
     6
420
 16711935
370
     9
100
AcDbSpline
210
0.0
220
0.0
230
1.0
 70
     8
 71
     3
 72
    11
 73
     7
 74
     0
 42
0.0000000001
 43
0.0000000001
 40
0.0
 40
0.0
 40
0.0
 40
0.0
 40
1.0
 40
1.0
 40
1.0
 40
2.0
 40
2.0
 40
2.0
 40
2.0
 10
403.0092533631242
 20
198.4422512512874
 30
0.0
 10
403.093862582783
 20
199.5376719900234
 30
0.0
 10
403.2482709260731
 20
200.6300748520087
 30
0.0
 10
403.4645981888117
 20
201.7122443635726
 30
0.0
 10
403.5813298487928
 20
202.2961903806739
 30
0.0
 10
403.7160907804074
 20
202.8771566969599
 30
0.0
 10
403.8720282295758
 20
203.4514041532662
 30
0.0
  0
SPLINE
  5
C7
330
70
100
AcDbEntity
  8
SHADE
 62
     6
420
 16711935
370
     9
100
AcDbSpline
210
0.0
220
0.0
230
1.0
 70
     8
 71
     3
 72
    11
 73
     7
 74
     0
 42
0.0000000001
 43
0.0000000001
 40
0.0
 40
0.0
 40
0.0
 40
0.0
 40
1.0
 40
1.0
 40
1.0
 40
2.0
 40
2.0
 40
2.0
 40
2.0
 10
402.8053700966875
 20
198.4422512512874
 30
0.0
 10
402.8899793163552
 20
199.5376719900234
 30
0.0
 10
403.044387659637
 20
200.6300748520087
 30
0.0
 10
403.2607149223757
 20
201.7122443635726
 30
0.0
 10
403.3711391817056
 20
202.2646378310565
 30
0.0
 10
403.4976969876534
 20
202.8143649045289
 30
0.0
 10
403.6430524872282
 20
203.3582603818206
 30
0.0
  0
LINE
  5
C8
330
70
100
AcDbEntity
  8
SHADE
 62
     6
420
 16711935
370
     9
100
AcDbLine
 10
403.2837307609106
 20
191.4546463324435
 30
0.0
 11
403.4876140273384
 21
191.4546463324435
 31
0.0
  0
LINE
  5
C9
330
70
100
AcDbEntity
  8
SHADE
 62
     6
420
 16711935
370
     9
100
AcDbLine
 10
403.4876140273384
 20
191.4546463324435
 30
0.0
 11
404.9915486576574
 21
195.0562636484953
 31
0.0
  0
LINE
  5
CA
330
70
100
AcDbEntity
  8
SHADE
 62
     6
420
 16711935
370
     9
100
AcDbLine
 10
405.6000930803298
 20
184.8658856707403
 30
0.0
 11
405.8039763467665
 21
184.8658856707403
 31
0.0
  0
LINE
  5
CB
330
70
100
AcDbEntity
  8
SHADE
 62
     6
420
 16711935
370
     9
100
AcDbLine
 10
405.8039763467665
 20
184.8658856707403
 30
0.0
 11
405.5214134756321
 21
186.7804482454115
 31
0.0
  0
SPLINE
  5
CC
330
70
100
AcDbEntity
  8
SHADE
 62
     6
420
 16711935
370
     9
100
AcDbSpline
210
0.0
220
0.0
230
1.0
 70
     8
 71
     3
 72
    11
 73
     7
 74
     0
 42
0.0000000001
 43
0.0000000001
 40
0.0
 40
0.0
 40
0.0
 40
0.0
 40
1.0
 40
1.0
 40
1.0
 40
2.0
 40
2.0
 40
2.0
 40
2.0
 10
403.4876142600557
 20
191.4546452774152
 30
0.0
 10
403.2761847216494
 20
192.4131706457681
 30
0.0
 10
403.1223610263915
 20
193.384360096671
 30
0.0
 10
403.0321308343387
 20
194.3602993375133
 30
0.0
 10
403.0075644324921
 20
194.6260121219204
 30
0.0
 10
402.9877120579036
 20
194.8920769963681
 30
0.0
 10
402.9724601147261
 20
195.1583899473221
 30
0.0
  0
SPLINE
  5
CD
330
70
100
AcDbEntity
  8
SHADE
 62
     6
420
 16711935
370
     9
100
AcDbSpline
210
0.0
220
0.0
230
1.0
 70
     8
 71
     3
 72
    11
 73
     7
 74
     0
 42
0.0000000001
 43
0.0000000001
 40
0.0
 40
0.0
 40
0.0
 40
0.0
 40
1.0
 40
1.0
 40
1.0
 40
2.0
 40
2.0
 40
2.0
 40
2.0
 10
403.2837309773256
 20
191.4546453512812
 30
0.0
 10
403.0723014473152
 20
192.4131706956608
 30
0.0
 10
402.9184777576338
 20
193.3843601217447
 30
0.0
 10
402.8282475679027
 20
194.3602993375133
 30
0.0
 10
402.8071341680075
 20
194.588664089868
 30
0.0
 10
402.7895027405854
 20
194.8172889102713
 30
0.0
 10
402.7752811728445
 20
195.0461077689513
 30
0.0
  0
LINE
  5
CE
330
70
100
AcDbEntity
  8
SHADE
 62
     6
420
 16711935
370
     9
100
AcDbLine
 10
412.9227563273748
 20
176.9693750713367
 30
0.0
 11
412.1558836441154
 21
178.4094178363099
 31
0.0
  0
LINE
  5
CF
330
70
100
AcDbEntity
  8
SHADE
 62
     6
420
 16711935
370
     9
100
AcDbLine
 10
407.5801949270282
 20
211.0568182372193
 30
0.0
 11
407.7840781934649
 21
211.0568182372193
 31
0.0
  0
LINE
  5
D0
330
70
100
AcDbEntity
  8
SHADE
 62
     6
420
 16711935
370
     9
100
AcDbLine
 10
407.7840781934649
 20
211.0568182372193
 30
0.0
 11
409.7845958214248
 21
210.9167926883553
 31
0.0
  0
SPLINE
  5
D1
330
70
100
AcDbEntity
  8
SHADE
 62
     6
420
 16711935
370
     9
100
AcDbSpline
210
0.0
220
0.0
230
1.0
 70
     8
 71
     3
 72
    14
 73
    10
 74
     0
 42
0.0000000001
 43
0.0000000001
 40
0.0
 40
0.0
 40
0.0
 40
0.0
 40
1.0
 40
1.0
 40
1.0
 40
2.0
 40
2.0
 40
2.0
 40
3.0
 40
3.0
 40
3.0
 40
3.0
 10
409.7845958214248
 20
210.9167926883553
 30
0.0
 10
410.5874785231526
 20
211.1023646016103
 30
0.0
 10
411.3903612248893
 20
211.2879365148645
 30
0.0
 10
412.2007042018231
 20
211.4342549977599
 30
0.0
 10
412.903112626544
 20
211.5610844243076
 30
0.0
 10
413.6111263211327
 20
211.6584208275229
 30
0.0
 10
414.3206135029167
 20
211.73959172837
 30
0.0
 10
414.5841308944612
 20
211.7697401857438
 30
0.0
 10
414.8478515572042
 20
211.7976585722492
 30
0.0
 10
415.1117306954295
 20
211.8238383376871
 30
0.0
  0
SPLINE
  5
D2
330
70
100
AcDbEntity
  8
SHADE
 62
     6
420
 16711935
370
     9
100
AcDbSpline
210
0.0
220
0.0
230
1.0
 70
     8
 71
     3
 72
    14
 73
    10
 74
     0
 42
0.0000000001
 43
0.0000000001
 40
0.0
 40
0.0
 40
0.0
 40
0.0
 40
1.0
 40
1.0
 40
1.0
 40
2.0
 40
2.0
 40
2.0
 40
3.0
 40
3.0
 40
3.0
 40
3.0
 10
404.9915486576574
 20
195.0562636484953
 30
0.0
 10
405.4826105901097
 20
195.3970126165718
 30
0.0
 10
405.9736725225618
 20
195.7377615846483
 30
0.0
 10
406.4817114462958
 20
196.0502340804727
 30
0.0
 10
407.4755798527904
 20
196.66151901748
 30
0.0
 10
408.5344200028791
 20
197.1645885661376
 30
0.0
 10
409.6003707272219
 20
197.6481337120409
 30
0.0
 10
411.4238551770961
 20
198.4753174028247
 30
0.0
 10
413.2681478285477
 20
199.2453653836732
 30
0.0
 10
415.1117306954295
 20
200.0070561890809
 30
0.0
  0
LINE
  5
D3
330
70
100
AcDbEntity
  8
SHADE
 62
     6
420
 16711935
370
     9
100
AcDbLine
 10
426.5377800099291
 20
204.3006752500303
 30
0.0
 11
426.6399264408652
 21
204.3729412651451
 31
0.0
  0
SPLINE
  5
D4
330
70
100
AcDbEntity
  8
SHADE
 62
     6
420
 16711935
370
     9
100
AcDbSpline
210
0.0
220
0.0
230
1.0
 70
     8
 71
     3
 72
     8
 73
     4
 74
     0
 42
0.0000000001
 43
0.0000000001
 40
0.0
 40
0.0
 40
0.0
 40
0.0
 40
1.0
 40
1.0
 40
1.0
 40
1.0
 10
420.8073732519783
 20
213.0431981787691
 30
0.0
 10
420.929207669554
 20
212.9435968176475
 30
0.0
 10
421.0508955831616
 20
212.8438518319705
 30
0.0
 10
421.1720382121075
 20
212.7435722787034
 30
0.0
  0
SPLINE
  5
D5
330
70
100
AcDbEntity
  8
SHADE
 62
     6
420
 16711935
370
     9
100
AcDbSpline
210
0.0
220
0.0
230
1.0
 70
     8
 71
     3
 72
     8
 73
     4
 74
     0
 42
0.0000000001
 43
0.0000000001
 40
0.0
 40
0.0
 40
0.0
 40
0.0
 40
1.0
 40
1.0
 40
1.0
 40
1.0
 10
420.7462669629214
 20
212.9441117112405
 30
0.0
 10
420.839241096863
 20
212.8680463591889
 30
0.0
 10
420.9321012981611
 20
212.7918693137393
 30
0.0
 10
421.0246701641508
 20
212.715406658922
 30
0.0
  0
LINE
  5
D6
330
70
100
AcDbEntity
  8
SHADE
 62
     6
420
 16711935
370
     9
100
AcDbLine
 10
426.5377800099291
 20
204.3006752500303
 30
0.0
 11
425.5923708032408
 21
204.9927529780517
 31
0.0
  0
LINE
  5
D7
330
70
100
AcDbEntity
  8
SHADE
 62
     6
420
 16711935
370
     9
100
AcDbLine
 10
424.6126165751235
 20
208.7894538541888
 30
0.0
 11
424.5046170546348
 21
208.7304837270671
 31
0.0
  0
SPLINE
  5
D8
330
70
100
AcDbEntity
  8
SHADE
 62
     6
420
 16711935
370
     9
100
AcDbSpline
210
0.0
220
0.0
230
1.0
 70
     8
 71
     3
 72
     8
 73
     4
 74
     0
 42
0.0000000001
 43
0.0000000001
 40
0.0
 40
0.0
 40
0.0
 40
0.0
 40
1.0
 40
1.0
 40
1.0
 40
1.0
 10
426.2676529037155
 20
205.3121757056745
 30
0.0
 10
426.3939082536899
 20
204.9999868439237
 30
0.0
 10
426.5174282791917
 20
204.686674002895
 30
0.0
 10
426.6399264408652
 20
204.3729412651451
 30
0.0
  0
SPLINE
  5
D9
330
70
100
AcDbEntity
  8
SHADE
 62
     6
420
 16711935
370
     9
100
AcDbSpline
210
0.0
220
0.0
230
1.0
 70
     8
 71
     3
 72
     8
 73
     4
 74
     0
 42
0.0000000001
 43
0.0000000001
 40
0.0
 40
0.0
 40
0.0
 40
0.0
 40
1.0
 40
1.0
 40
1.0
 40
1.0
 10
426.15721793626
 20
205.2607443679272
 30
0.0
 10
426.2863409103584
 20
204.9416536685775
 30
0.0
 10
426.4125849023785
 20
204.6213799592301
 30
0.0
 10
426.5377800099291
 20
204.3006752500303
 30
0.0
  0
LINE
  5
DA
330
70
100
AcDbEntity
  8
SHADE
 62
     6
420
 16711935
370
     9
100
AcDbLine
 10
424.5046170546348
 20
208.7304837270671
 30
0.0
 11
422.9234219129035
 21
209.0415320594795
 31
0.0
  0
LINE
  5
DB
330
70
100
AcDbEntity
  8
SHADE
 62
     6
420
 16711935
370
     9
100
AcDbLine
 10
422.7780349163096
 20
211.279649046203
 30
0.0
 11
422.666397119519
 21
211.2232220030965
 31
0.0
  0
LINE
  5
DC
330
70
100
AcDbEntity
  8
SHADE
 62
     6
420
 16711935
370
     9
100
AcDbLine
 10
422.666397119519
 20
211.2232220030965
 30
0.0
 11
420.6741788863609
 21
210.5926506601546
 31
0.0
  0
SPLINE
  5
DD
330
70
100
AcDbEntity
  8
SHADE
 62
     6
420
 16711935
370
     9
100
AcDbSpline
210
0.0
220
0.0
230
1.0
 70
     8
 71
     3
 72
     8
 73
     4
 74
     0
 42
0.0000000001
 43
0.0000000001
 40
0.0
 40
0.0
 40
0.0
 40
0.0
 40
1.0
 40
1.0
 40
1.0
 40
1.0
 10
421.357186966396
 20
212.4379021234048
 30
0.0
 10
421.8134121275812
 20
212.052440941346
 30
0.0
 10
422.257119025761
 20
211.6547075314388
 30
0.0
 10
422.6663971288133
 20
211.2232219932958
 30
0.0
  0
SPLINE
  5
DE
330
70
100
AcDbEntity
  8
SHADE
 62
     6
420
 16711935
370
     9
100
AcDbSpline
210
0.0
220
0.0
230
1.0
 70
     8
 71
     3
 72
     8
 73
     4
 74
     0
 42
0.0000000001
 43
0.0000000001
 40
0.0
 40
0.0
 40
0.0
 40
0.0
 40
1.0
 40
1.0
 40
1.0
 40
1.0
 10
421.4764847467505
 20
212.4890327632276
 30
0.0
 10
421.9301273715333
 20
212.1053084144891
 30
0.0
 10
422.3711692007993
 20
211.7092309274983
 30
0.0
 10
422.7780349255341
 20
211.2796490364639
 30
0.0
  0
SPLINE
  5
DF
330
70
100
AcDbEntity
  8
SHADE
 62
     6
420
 16711935
370
     9
100
AcDbSpline
210
0.0
220
0.0
230
1.0
 70
     8
 71
     3
 72
     8
 73
     4
 74
     0
 42
0.0000000001
 43
0.0000000001
 40
0.0
 40
0.0
 40
0.0
 40
0.0
 40
1.0
 40
1.0
 40
1.0
 40
1.0
 10
423.4391690092869
 20
210.5166244587338
 30
0.0
 10
423.8712663460066
 20
209.9731577737556
 30
0.0
 10
424.259931391527
 20
209.3917639892419
 30
0.0
 10
424.6126165751235
 20
208.7894538541888
 30
0.0
  0
SPLINE
  5
E0
330
70
100
AcDbEntity
  8
SHADE
 62
     6
420
 16711935
370
     9
100
AcDbSpline
210
0.0
220
0.0
230
1.0
 70
     8
 71
     3
 72
     8
 73
     4
 74
     0
 42
0.0000000001
 43
0.0000000001
 40
0.0
 40
0.0
 40
0.0
 40
0.0
 40
1.0
 40
1.0
 40
1.0
 40
1.0
 10
423.3244465279343
 20
210.4652046435341
 30
0.0
 10
423.7592203422972
 20
209.9196216268157
 30
0.0
 10
424.1500901514985
 20
209.3356283892145
 30
0.0
 10
424.5046170546348
 20
208.7304837270671
 30
0.0
  0
LINE
  5
E1
330
70
100
AcDbEntity
  8
SHADE
 62
     6
420
 16711935
370
     9
100
AcDbLine
 10
418.1526250827491
 20
211.3486963765238
 30
0.0
 11
418.1526250827491
 21
210.942174263813
 31
0.0
  0
SPLINE
  5
E2
330
70
100
AcDbEntity
  8
SHADE
 62
     6
420
 16711935
370
     9
100
AcDbSpline
210
0.0
220
0.0
230
1.0
 70
     8
 71
     3
 72
     8
 73
     4
 74
     0
 42
0.0000000001
 43
0.0000000001
 40
0.0
 40
0.0
 40
0.0
 40
0.0
 40
1.0
 40
1.0
 40
1.0
 40
1.0
 10
421.8335608844173
 20
208.1416735505662
 30
0.0
 10
421.4793595343366
 20
208.590551169952
 30
0.0
 10
421.0843504342466
 20
209.0056631722064
 30
0.0
 10
420.6535932582315
 20
209.3816923850402
 30
0.0
  0
SPLINE
  5
E3
330
70
100
AcDbEntity
  8
SHADE
 62
     6
420
 16711935
370
     9
100
AcDbSpline
210
0.0
220
0.0
230
1.0
 70
     8
 71
     3
 72
     8
 73
     4
 74
     0
 42
0.0000000001
 43
0.0000000001
 40
0.0
 40
0.0
 40
0.0
 40
0.0
 40
1.0
 40
1.0
 40
1.0
 40
1.0
 10
419.569253168758
 20
210.1964372470159
 30
0.0
 10
419.1194531765528
 20
210.4854385290401
 30
0.0
 10
418.645473576048
 20
210.7349494181606
 30
0.0
 10
418.1526250827491
 20
210.942174263804
 30
0.0
  0
LINE
  5
E4
330
70
100
AcDbEntity
  8
SHADE
 62
     6
420
 16711935
370
     9
100
AcDbLine
 10
415.5018618307101
 20
204.3907505045603
 30
0.0
 11
415.5018618307101
 21
207.6623560479793
 31
0.0
  0
SPLINE
  5
E5
330
70
100
AcDbEntity
  8
SHADE
 62
     6
420
 16711935
370
     9
100
AcDbSpline
210
0.0
220
0.0
230
1.0
 70
     8
 71
     3
 72
    20
 73
    16
 74
     0
 42
0.0000000001
 43
0.0000000001
 40
0.0
 40
0.0
 40
0.0
 40
0.0
 40
1.0
 40
1.0
 40
1.0
 40
2.0
 40
2.0
 40
2.0
 40
3.0
 40
3.0
 40
3.0
 40
4.0
 40
4.0
 40
4.0
 40
5.0
 40
5.0
 40
5.0
 40
5.0
 10
415.5018618307101
 20
200.1681409408831
 30
0.0
 10
416.9478828042318
 20
200.7648843962534
 30
0.0
 10
418.3932942821558
 20
201.3582417258853
 30
0.0
 10
419.8489683641986
 20
201.9616755746073
 30
0.0
 10
420.6124304485645
 20
202.2781604729818
 30
0.0
 10
421.3787154896867
 20
202.5974171413101
 30
0.0
 10
422.0979474374803
 20
202.973716157585
 30
0.0
 10
422.3151824090723
 20
203.0873725466904
 30
0.0
 10
422.528124886417
 20
203.2062327158842
 30
0.0
 10
422.7501513687379
 20
203.3335528093148
 30
0.0
 10
423.122904419911
 20
203.5473063796319
 30
0.0
 10
423.521261612746
 20
203.7849050599759
 30
0.0
 10
423.7397021609845
 20
204.0982056942262
 30
0.0
 10
423.7537574659404
 20
204.118364661943
 30
0.0
 10
423.767067892517
 20
204.1388370456236
 30
0.0
 10
423.7796569804626
 20
204.1596129406459
 30
0.0
  0
LWPOLYLINE
  5
E6
330
70
100
AcDbEntity
  8
SHADE
 62
     6
420
 16711935
370
     9
100
AcDbPolyline
 90
        4
 70
     0
 43
0.0
 10
415.1117306954295
 20
200.4917687547036
 10
415.1117306954295
 20
198.1714993455258
 10
415.5018618307101
 20
198.1714993455258
 10
415.5018618307101
 20
200.6440369405793
  0
LINE
  5
E7
330
70
100
AcDbEntity
  8
SHADE
 62
     6
420
 16711935
370
     9
100
AcDbLine
 10
415.1117306954295
 20
204.2292118313596
 30
0.0
 11
415.5018618307101
 21
204.3907505045603
 31
0.0
  0
LINE
  5
E8
330
70
100
AcDbEntity
  8
SHADE
 62
     6
420
 16711935
370
     9
100
AcDbLine
 10
412.4806559258787
 20
211.4832250605539
 30
0.0
 11
412.4806559258787
 21
211.0293329686093
 31
0.0
  0
SPLINE
  5
E9
330
70
100
AcDbEntity
  8
SHADE
 62
     6
420
 16711935
370
     9
100
AcDbSpline
210
0.0
220
0.0
230
1.0
 70
     8
 71
     3
 72
    11
 73
     7
 74
     0
 42
0.0000000001
 43
0.0000000001
 40
0.0
 40
0.0
 40
0.0
 40
0.0
 40
1.0
 40
1.0
 40
1.0
 40
2.0
 40
2.0
 40
2.0
 40
2.0
 10
415.9526710155867
 20
210.7184074823051
 30
0.0
 10
416.5090123630744
 20
210.6234827375603
 30
0.0
 10
417.0653512964342
 20
210.5285450497472
 30
0.0
 10
417.6192231160053
 20
210.4209003354289
 30
0.0
 10
418.1594223569095
 20
210.3159128800153
 30
0.0
 10
418.697274784296
 20
210.1988380122935
 30
0.0
 10
419.2351246666316
 20
210.0817505579904
 30
0.0
  0
SPLINE
  5
EA
330
70
100
AcDbEntity
  8
SHADE
 62
     6
420
 16711935
370
     9
100
AcDbSpline
210
0.0
220
0.0
230
1.0
 70
     8
 71
     3
 72
    14
 73
    10
 74
     0
 42
0.0000000001
 43
0.0000000001
 40
0.0
 40
0.0
 40
0.0
 40
0.0
 40
1.0
 40
1.0
 40
1.0
 40
2.0
 40
2.0
 40
2.0
 40
3.0
 40
3.0
 40
3.0
 40
3.0
 10
411.410143253603
 20
210.0581378555672
 30
0.0
 10
412.1069776495617
 20
209.8750487200716
 30
0.0
 10
412.8038120455127
 20
209.691959584585
 30
0.0
 10
413.4987090181642
 20
209.5024600892161
 30
0.0
 10
413.4987675282755
 20
209.5024441334118
 30
0.0
 10
413.4988260383785
 20
209.5024281775639
 30
0.0
 10
413.4988845484816
 20
209.5024122217244
 30
0.0
 10
414.0148259788341
 20
209.361713749827
 30
0.0
 10
414.5307674091867
 20
209.2210152779386
 30
0.0
 10
415.0467088395393
 20
209.0803168060502
 30
0.0
  0
SPLINE
  5
EB
330
70
100
AcDbEntity
  8
SHADE
 62
     6
420
 16711935
370
     9
100
AcDbSpline
210
0.0
220
0.0
230
1.0
 70
     8
 71
     3
 72
     8
 73
     4
 74
     0
 42
0.0000000001
 43
0.0000000001
 40
0.0
 40
0.0
 40
0.0
 40
0.0
 40
1.0
 40
1.0
 40
1.0
 40
1.0
 10
410.0832450812866
 20
209.4017704931966
 30
0.0
 10
411.1021111593757
 20
209.0536459246331
 30
0.0
 10
412.1209772374731
 20
208.7055213560619
 30
0.0
 10
413.1373991818508
 20
208.3504389037296
 30
0.0
  0
SPLINE
  5
EC
330
70
100
AcDbEntity
  8
SHADE
 62
     6
420
 16711935
370
     9
100
AcDbSpline
210
0.0
220
0.0
230
1.0
 70
     8
 71
     3
 72
     8
 73
     4
 74
     0
 42
0.0000000001
 43
0.0000000001
 40
0.0
 40
0.0
 40
0.0
 40
0.0
 40
1.0
 40
1.0
 40
1.0
 40
1.0
 10
408.7552335820773
 20
208.1351728327238
 30
0.0
 10
409.247224289738
 20
207.8761056113492
 30
0.0
 10
409.739214997398
 20
207.6170383899926
 30
0.0
 10
410.2346449079441
 20
207.3655065187013
 30
0.0
  0
SPLINE
  5
ED
330
70
100
AcDbEntity
  8
SHADE
 62
     6
420
 16711935
370
     9
100
AcDbSpline
210
0.0
220
0.0
230
1.0
 70
     8
 71
     3
 72
    11
 73
     7
 74
     0
 42
0.0000000001
 43
0.0000000001
 40
0.0
 40
0.0
 40
0.0
 40
0.0
 40
1.0
 40
1.0
 40
1.0
 40
2.0
 40
2.0
 40
2.0
 40
2.0
 10
406.3851494430627
 20
204.3078808751672
 30
0.0
 10
406.9092338938302
 20
203.9743978667855
 30
0.0
 10
407.4333262725018
 20
203.64092845768
 30
0.0
 10
407.9739200213587
 20
203.3363898977798
 30
0.0
 10
408.3537699247628
 20
203.1224049177414
 30
0.0
 10
408.7417669087027
 20
202.9227037187106
 30
0.0
 10
409.1297691797333
 20
202.7230122379428
 30
0.0
  0
SPLINE
  5
EE
330
70
100
AcDbEntity
  8
SHADE
 62
     6
420
 16711935
370
     9
100
AcDbSpline
210
0.0
220
0.0
230
1.0
 70
     8
 71
     3
 72
    11
 73
     7
 74
     0
 42
0.0000000001
 43
0.0000000001
 40
0.0
 40
0.0
 40
0.0
 40
0.0
 40
1.0
 40
1.0
 40
1.0
 40
2.0
 40
2.0
 40
2.0
 40
2.0
 10
409.5765999287011
 20
202.9114523241341
 30
0.0
 10
409.1372102994633
 20
203.1101731516942
 30
0.0
 10
408.6978158841754
 20
203.3088828962301
 30
0.0
 10
408.2534604432789
 20
203.495746451062
 30
0.0
 10
407.7350872452294
 20
203.7137364869801
 30
0.0
 10
407.209962620718
 20
203.9156051228165
 30
0.0
 10
406.6848326616059
 20
204.1174607255478
 30
0.0
  0
SPLINE
  5
EF
330
70
100
AcDbEntity
  8
SHADE
 62
     6
420
 16711935
370
     9
100
AcDbSpline
210
0.0
220
0.0
230
1.0
 70
     8
 71
     3
 72
    11
 73
     7
 74
     0
 42
0.0000000001
 43
0.0000000001
 40
0.0
 40
0.0
 40
0.0
 40
0.0
 40
1.0
 40
1.0
 40
1.0
 40
2.0
 40
2.0
 40
2.0
 40
2.0
 10
420.9862017585988
 20
202.9075359283905
 30
0.0
 10
421.0869871131225
 20
202.8580550597285
 30
0.0
 10
421.1877628199521
 20
202.8085583308318
 30
0.0
 10
421.2816052315834
 20
202.7478952152002
 30
0.0
 10
421.3318949269107
 20
202.7153861444143
 30
0.0
 10
421.3801934933094
 20
202.6796702700834
 30
0.0
 10
421.4284864236462
 20
202.6439461798005
 30
0.0
  0
SPLINE
  5
F0
330
70
100
AcDbEntity
  8
SHADE
 62
     6
420
 16711935
370
     9
100
AcDbSpline
210
0.0
220
0.0
230
1.0
 70
     8
 71
     3
 72
     8
 73
     4
 74
     0
 42
0.0000000001
 43
0.0000000001
 40
0.0
 40
0.0
 40
0.0
 40
0.0
 40
1.0
 40
1.0
 40
1.0
 40
1.0
 10
417.471739435801
 20
208.3064749458132
 30
0.0
 10
418.4538984672116
 20
207.9823185323474
 30
0.0
 10
419.4316652812242
 20
207.6436295725019
 30
0.0
 10
420.4094320952458
 20
207.3049406126648
 30
0.0
  0
SPLINE
  5
F1
330
70
100
AcDbEntity
  8
SHADE
 62
     6
420
 16711935
370
     9
100
AcDbSpline
210
0.0
220
0.0
230
1.0
 70
     8
 71
     3
 72
    14
 73
    10
 74
     0
 42
0.0000000001
 43
0.0000000001
 40
0.0
 40
0.0
 40
0.0
 40
0.0
 40
1.0
 40
1.0
 40
1.0
 40
2.0
 40
2.0
 40
2.0
 40
3.0
 40
3.0
 40
3.0
 40
3.0
 10
415.5668836865913
 20
207.4912174342795
 30
0.0
 10
416.0870508528557
 20
207.3029098445446
 30
0.0
 10
416.6072180191199
 20
207.1146022548001
 30
0.0
 10
417.1273851853841
 20
206.9262946650562
 30
0.0
 10
417.1273922592979
 20
206.9262921042093
 30
0.0
 10
417.1273993332117
 20
206.9262895433527
 30
0.0
 10
417.1274064071254
 20
206.9262869824967
 30
0.0
 10
417.5741438293281
 20
206.7645619526008
 30
0.0
 10
418.0207614502659
 20
206.6024958762147
 30
0.0
 10
418.4673790712134
 20
206.4404297998197
 30
0.0
  0
SPLINE
  5
F2
330
70
100
AcDbEntity
  8
SHADE
 62
     6
420
 16711935
370
     9
100
AcDbSpline
210
0.0
220
0.0
230
1.0
 70
     8
 71
     3
 72
    14
 73
    10
 74
     0
 42
0.0000000001
 43
0.0000000001
 40
0.0
 40
0.0
 40
0.0
 40
0.0
 40
1.0
 40
1.0
 40
1.0
 40
2.0
 40
2.0
 40
2.0
 40
3.0
 40
3.0
 40
3.0
 40
3.0
 10
412.1093596966002
 20
206.4727399961852
 30
0.0
 10
412.5647979923438
 20
206.2715101755267
 30
0.0
 10
413.0241752177529
 20
206.078910614533
 30
0.0
 10
413.4861861190143
 20
205.8920814806236
 30
0.0
 10
413.4862973712751
 20
205.8920364921519
 30
0.0
 10
413.4864086237008
 20
205.8919915040202
 30
0.0
 10
413.4865198761183
 20
205.8919465158802
 30
0.0
 10
414.0065828639315
 20
205.6816439855564
 30
0.0
 10
414.5266458517351
 20
205.4713414552326
 30
0.0
 10
415.0467088395393
 20
205.2610389249094
 30
0.0
  0
SPLINE
  5
F3
330
70
100
AcDbEntity
  8
SHADE
 62
     6
420
 16711935
370
     9
100
AcDbSpline
210
0.0
220
0.0
230
1.0
 70
     8
 71
     3
 72
    17
 73
    13
 74
     0
 42
0.0000000001
 43
0.0000000001
 40
0.0
 40
0.0
 40
0.0
 40
0.0
 40
1.0
 40
1.0
 40
1.0
 40
2.0
 40
2.0
 40
2.0
 40
3.0
 40
3.0
 40
3.0
 40
4.0
 40
4.0
 40
4.0
 40
4.0
 10
415.5018618307101
 20
205.2717458779251
 30
0.0
 10
417.0006550207935
 20
205.854039372445
 30
0.0
 10
418.5051892048254
 20
206.4182158606164
 30
0.0
 10
419.97109309534
 20
207.0968278746
 30
0.0
 10
420.5975882524047
 20
207.3868517588695
 30
0.0
 10
421.2170275089431
 20
207.6977775212469
 30
0.0
 10
421.7746035967905
 20
208.0987781531848
 30
0.0
 10
422.0721696321687
 20
208.3127833281407
 30
0.0
 10
422.3521162885325
 20
208.5524429158888
 30
0.0
 10
422.6308156530368
 20
208.791034709297
 30
0.0
 10
422.7283139040553
 20
208.8745020060645
 30
0.0
 10
422.8256595075522
 20
208.9578386227836
 30
0.0
 10
422.9234219129035
 20
209.0415320594795
 30
0.0
  0
LINE
  5
F4
330
70
100
AcDbEntity
  8
SHADE
 62
     6
420
 16711935
370
     9
100
AcDbLine
 10
415.1117306954295
 20
208.7173420791425
 30
0.0
 11
415.5018618307101
 21
208.8121882784335
 31
0.0
  0
LINE
  5
F5
330
70
100
AcDbEntity
  8
SHADE
 62
     6
420
 16711935
370
     9
100
AcDbLine
 10
415.5018618307101
 20
208.8121882784335
 30
0.0
 11
415.5018618307101
 21
211.1606177180644
 31
0.0
  0
LINE
  5
F6
330
70
100
AcDbEntity
  8
SHADE
 62
     6
420
 16711935
370
     9
100
AcDbLine
 10
415.1117306954295
 20
207.5307230700789
 30
0.0
 11
415.1117306954295
 21
204.2292118313596
 31
0.0
  0
SPLINE
  5
F7
330
70
100
AcDbEntity
  8
SHADE
 62
     6
420
 16711935
370
     9
100
AcDbSpline
210
0.0
220
0.0
230
1.0
 70
     8
 71
     3
 72
    11
 73
     7
 74
     0
 42
0.0000000001
 43
0.0000000001
 40
0.0
 40
0.0
 40
0.0
 40
0.0
 40
1.0
 40
1.0
 40
1.0
 40
2.0
 40
2.0
 40
2.0
 40
2.0
 10
415.5018618307101
 20
209.0187636513131
 30
0.0
 10
416.6273990169262
 20
209.3185184095216
 30
0.0
 10
417.7569420945994
 20
209.6016915941057
 30
0.0
 10
418.8636156993991
 20
209.958953544717
 30
0.0
 10
419.4717405064156
 20
210.1552714597993
 30
0.0
 10
420.0729596963838
 20
210.3739610599728
 30
0.0
 10
420.6741788863609
 20
210.5926506601546
 30
0.0
  0
LINE
  5
F8
330
70
100
AcDbEntity
  8
SHADE
 62
     6
420
 16711935
370
     9
100
AcDbLine
 10
415.1117306954295
 20
211.0797422588927
 30
0.0
 11
415.5018618307101
 21
211.1606177180644
 31
0.0
  0
SPLINE
  5
F9
330
70
100
AcDbEntity
  8
SHADE
 62
     6
420
 16711935
370
     9
100
AcDbSpline
210
0.0
220
0.0
230
1.0
 70
     8
 71
     3
 72
    17
 73
    13
 74
     0
 42
0.0000000001
 43
0.0000000001
 40
0.0
 40
0.0
 40
0.0
 40
0.0
 40
1.0
 40
1.0
 40
1.0
 40
2.0
 40
2.0
 40
2.0
 40
3.0
 40
3.0
 40
3.0
 40
4.0
 40
4.0
 40
4.0
 40
4.0
 10
415.5018618307101
 20
210.8486292277307
 30
0.0
 10
416.3353160796068
 20
210.9874249847663
 30
0.0
 10
417.1701476392984
 20
211.1201814639353
 30
0.0
 10
417.9929310128733
 20
211.3109128953218
 30
0.0
 10
418.699828532311
 20
211.4747805426901
 30
0.0
 10
419.3978327389372
 20
211.6814421327356
 30
0.0
 10
420.0801610951931
 20
211.9290196578922
 30
0.0
 10
420.5551714848161
 20
212.101373474953
 30
0.0
 10
421.022584728184
 20
212.2935567963631
 30
0.0
 10
421.4865779317696
 20
212.4933780063359
 30
0.0
 10
421.9305971524325
 20
212.6845973113536
 30
0.0
 10
422.3714844473168
 20
212.8828110671827
 30
0.0
 10
422.8120997956693
 20
213.0816321543654
 30
0.0
  0
LINE
  5
FA
330
70
100
AcDbEntity
  8
SHADE
 62
     6
420
 16711935
370
     9
100
AcDbLine
 10
415.1117306954295
 20
211.0797422588927
 30
0.0
 11
415.1117306954295
 21
208.7173420791425
 31
0.0
  0
LWPOLYLINE
  5
FB
330
70
100
AcDbEntity
  8
SHADE
 62
     6
420
 16711935
370
     9
100
AcDbPolyline
 90
        4
 70
     0
 43
0.0
 10
415.5018618307101
 20
211.6659389762602
 10
415.5018618307101
 20
212.5735117745739
 10
415.1117306954295
 20
212.5735117745739
 10
415.1117306954295
 20
211.5902137309195
  0
SPLINE
  5
FC
330
70
100
AcDbEntity
  8
SHADE
 62
     6
420
 16711935
370
     9
100
AcDbSpline
210
0.0
220
0.0
230
1.0
 70
     8
 71
     3
 72
     8
 73
     4
 74
     0
 42
0.0000000001
 43
0.0000000001
 40
0.0
 40
0.0
 40
0.0
 40
0.0
 40
1.0
 40
1.0
 40
1.0
 40
1.0
 10
415.5018618307101
 20
211.861325521879
 30
0.0
 10
416.1446133183812
 20
211.9211784087655
 30
0.0
 10
416.7881732138952
 20
211.9721623221225
 30
0.0
 10
417.4318952185182
 20
212.021367750226
 30
0.0
  0
LINE
  5
FD
330
70
100
AcDbEntity
  8
SHADE
 62
     6
420
 16711935
370
     9
100
AcDbLine
 10
415.0207000971922
 20
210.7718094273117
 30
0.0
 11
415.0207000971922
 21
208.8964126264108
 31
0.0
  0
LINE
  5
FE
330
70
100
AcDbEntity
  8
SHADE
 62
     6
420
 16711935
370
     9
100
AcDbLine
 10
415.5928924289474
 20
205.2969950934709
 30
0.0
 11
415.5928924289474
 21
207.6840988574212
 31
0.0
  0
LINE
  5
FF
330
70
100
AcDbEntity
  8
SHADE
 62
     6
420
 16711935
370
     9
100
AcDbLine
 10
413.3301318442812
 20
199.7996740350301
 30
0.0
 11
413.3301318442812
 21
199.2665336674627
 31
0.0
  0
LINE
  5
100
330
70
100
AcDbEntity
  8
SHADE
 62
     6
420
 16711935
370
     9
100
AcDbLine
 10
417.0266491339182
 20
200.7966178296759
 30
0.0
 11
415.8912879101602
 21
200.7966178296759
 31
0.0
  0
LINE
  5
101
330
70
100
AcDbEntity
  8
SHADE
 62
     6
420
 16711935
370
     9
100
AcDbLine
 10
417.2834606818501
 20
201.349216087364
 30
0.0
 11
417.2834606818501
 21
200.9024065459898
 31
0.0
  0
LINE
  5
102
330
70
100
AcDbEntity
  8
SHADE
 62
     6
420
 16711935
370
     9
100
AcDbLine
 10
415.5928924289474
 20
209.0360614379898
 30
0.0
 11
415.5928924289474
 21
210.8594458141115
 31
0.0
  0
LINE
  5
103
330
70
100
AcDbEntity
  8
SHADE
 62
     6
420
 16711935
370
     9
100
AcDbLine
 10
415.0207000971922
 20
207.5085855996019
 30
0.0
 11
415.0207000971922
 21
205.0942383434052
 31
0.0
  0
LINE
  5
104
330
70
100
AcDbEntity
  8
SHADE
 62
     6
420
 16711935
370
     9
100
AcDbLine
 10
415.0207000971922
 20
214.5494970740008
 30
0.0
 11
415.0207000971922
 21
241.5545331005461
 31
0.0
  0
LINE
  5
105
330
70
100
AcDbEntity
  8
SHADE
 62
     6
420
 16711935
370
     9
100
AcDbLine
 10
415.5928924289474
 20
214.5494970740008
 30
0.0
 11
415.5928924289474
 21
241.5545331005461
 31
0.0
  0
SPLINE
  5
106
330
70
100
AcDbEntity
  8
SHADE
 62
     6
420
 16711935
370
     9
100
AcDbSpline
210
0.0
220
0.0
230
1.0
 70
     8
 71
     3
 72
    14
 73
    10
 74
     0
 42
0.0000000001
 43
0.0000000001
 40
0.0
 40
0.0
 40
0.0
 40
0.0
 40
1.0
 40
1.0
 40
1.0
 40
2.0
 40
2.0
 40
2.0
 40
3.0
 40
3.0
 40
3.0
 40
3.0
 10
419.9862020233664
 20
250.9133446211395
 30
0.0
 10
419.9862020233664
 20
250.9133446211395
 30
0.0
 10
410.6273905027733
 20
250.9133446211395
 30
0.0
 10
410.6273905027733
 20
250.9133446211395
 30
0.0
 10
410.6273905027733
 20
247.3237891061986
 30
0.0
 10
412.1824430215646
 20
243.9102591868844
 30
0.0
 10
414.8908490843747
 20
241.5545331005461
 30
0.0
 10
414.8908490843747
 20
241.5545331005461
 30
0.0
 10
415.722743441765
 20
241.5545331005461
 30
0.0
 10
415.722743441765
 20
241.5545331005461
 30
0.0
  0
SPLINE
  5
107
330
70
100
AcDbEntity
  8
SHADE
 62
     6
420
 16711935
370
     9
100
AcDbSpline
210
0.0
220
0.0
230
1.0
 70
     8
 71
     3
 72
     8
 73
     4
 74
     0
 42
0.0000000001
 43
0.0000000001
 40
0.0
 40
0.0
 40
0.0
 40
0.0
 40
1.0
 40
1.0
 40
1.0
 40
1.0
 10
419.9862020233664
 20
250.9133446211395
 30
0.0
 10
419.9862020233664
 20
247.3237891061986
 30
0.0
 10
418.4311495045667
 20
243.9102591868844
 30
0.0
 10
415.722743441765
 20
241.5545331005461
 30
0.0
  0
ENDSEC
  0
SECTION
  2
OBJECTS
  0
DICTIONARY
  5
C
330
0
100
AcDbDictionary
281
     1
  3
ACAD_COLOR
350
63
  3
ACAD_DETAILVIEWSTYLE
350
6A
  3
ACAD_GROUP
350
D
  3
ACAD_LAYOUT
350
62
  3
ACAD_MATERIAL
350
10
  3
ACAD_MLEADERSTYLE
350
66
  3
ACAD_MLINESTYLE
350
5F
  3
ACAD_PLOTSETTINGS
350
61
  3
ACAD_PLOTSTYLENAME
350
E
  3
ACAD_SCALELIST
350
42
  3
ACAD_SECTIONVIEWSTYLE
350
68
  3
ACAD_TABLESTYLE
350
64
  3
ACAD_VISUALSTYLE
350
29
  3
ACDB_RECOMPOSE_DATA
350
110
  3
AcDbVariableDictionary
350
108
  0
DICTIONARY
  5
63
102
{ACAD_REACTORS
330
C
102
}
330
C
100
AcDbDictionary
281
     1
  0
DICTIONARY
  5
6A
102
{ACAD_REACTORS
330
C
102
}
330
C
100
AcDbDictionary
281
     1
  3
Imperial24
350
6B
  0
DICTIONARY
  5
D
102
{ACAD_REACTORS
330
C
102
}
330
C
100
AcDbDictionary
281
     1
  0
DICTIONARY
  5
62
102
{ACAD_REACTORS
330
C
102
}
330
C
100
AcDbDictionary
281
     1
  3
Layout1
350
6F
  3
Layout2
350
77
  3
Model
350
73
  0
DICTIONARY
  5
10
102
{ACAD_REACTORS
330
C
102
}
330
C
100
AcDbDictionary
281
     1
  3
ByBlock
350
19
  3
ByLayer
350
11
  3
Global
350
21
  0
DICTIONARY
  5
66
102
{ACAD_REACTORS
330
C
102
}
330
C
100
AcDbDictionary
281
     1
  3
Standard
350
67
  0
DICTIONARY
  5
5F
102
{ACAD_REACTORS
330
C
102
}
330
C
100
AcDbDictionary
281
     1
  3
Standard
350
60
  0
DICTIONARY
  5
61
102
{ACAD_REACTORS
330
C
102
}
330
C
100
AcDbDictionary
281
     1
  0
ACDBDICTIONARYWDFLT
  5
E
102
{ACAD_REACTORS
330
C
102
}
330
C
100
AcDbDictionary
281
     1
  3
Normal
350
F
100
AcDbDictionaryWithDefault
340
F
  0
DICTIONARY
  5
42
102
{ACAD_REACTORS
330
C
102
}
330
C
100
AcDbDictionary
281
     1
  3
A0
350
43
  3
A1
350
44
  3
A2
350
45
  3
A3
350
46
  3
A4
350
47
  3
A5
350
48
  3
A6
350
49
  3
A7
350
4A
  3
A8
350
4B
  3
A9
350
4C
  3
B0
350
4D
  3
B1
350
4E
  3
B2
350
4F
  3
B3
350
50
  3
B4
350
51
  3
B5
350
52
  3
B6
350
53
  0
DICTIONARY
  5
68
102
{ACAD_REACTORS
330
C
102
}
330
C
100
AcDbDictionary
281
     1
  3
Imperial24
350
69
  0
DICTIONARY
  5
64
102
{ACAD_REACTORS
330
C
102
}
330
C
100
AcDbDictionary
281
     1
  3
Standard
350
65
  0
DICTIONARY
  5
29
102
{ACAD_REACTORS
330
C
102
}
330
C
100
AcDbDictionary
281
     1
  3
2dWireframe
350
2F
  3
Basic
350
2E
  3
Brighten
350
35
  3
ColorChange
350
39
  3
Conceptual
350
32
  3
Dim
350
34
  3
EdgeColorOff
350
41
  3
Facepattern
350
38
  3
Flat
350
2A
  3
FlatWithEdges
350
2B
  3
Gouraud
350
2C
  3
GouraudWithEdges
350
2D
  3
Hidden
350
31
  3
JitterOff
350
3F
  3
Linepattern
350
37
  3
OverhangOff
350
40
  3
Realistic
350
33
  3
Shaded
350
3E
  3
Shaded with edges
350
3D
  3
Shades of Gray
350
3A
  3
Sketchy
350
3B
  3
Thicken
350
36
  3
Wireframe
350
30
  3
X-Ray
350
3C
  0
XRECORD
  5
110
102
{ACAD_REACTORS
330
C
102
}
330
C
100
AcDbXrecord
280
     1
 90
        1
330
65
  0
DICTIONARY
  5
108
102
{ACAD_REACTORS
330
C
102
}
330
C
100
AcDbDictionary
281
     1
  3
CANNOSCALE
350
10D
  3
CMLEADERSTYLE
350
10A
  3
CTABLESTYLE
350
109
  3
CVIEWDETAILSTYLE
350
10B
  3
CVIEWSECTIONSTYLE
350
10C
  0
ACDBDETAILVIEWSTYLE
  5
6B
102
{ACAD_REACTORS
330
6A
102
}
330
6A
100
AcDbModelDocViewStyle
 70
     0
  3
Imperial24
290
     1
300
Imperial24
 90
        0
100
AcDbDetailViewStyle
 70
     0
 71
     0
 90
        3
 71
     1
340
55
 62
   256
 40
0.24
340
0
 62
   256
 40
0.24
300

 40
0.36
280
     3
 71
     2
340
5D
 90
       25
 62
   256
 71
     3
340
55
 62
   256
 40
0.24
 90
        1
 40
0.75
 90
        1
300
%<\AcVar ViewType \f "%tc1">% %<\AcVar ViewDetailId>%\PSCALE %<\AcVar ViewScale \f "%sn">%
 71
     4
340
5D
 90
       25
 62
   256
340
5D
 90
       25
 62
   256
280
     0
  0
LAYOUT
  5
6F
102
{ACAD_REACTORS
330
62
102
}
330
62
100
AcDbPlotSettings
  1

  2

  4

  6

 40
0.0
 41
0.0
 42
0.0
 43
0.0
 44
0.0
 45
0.0
 46
0.0
 47
0.0
 48
0.0
 49
0.0
140
0.0
141
0.0
142
1.0
143
1.0
 70
   688
 72
     0
 73
     0
 74
     5
  7

 75
    16
147
1.0
 76
     0
 77
     2
 78
   300
148
0.0
149
0.0
100
AcDbLayout
  1
Layout1
 70
     1
 71
     1
 10
0.0
 20
0.0
 11
12.0
 21
9.0
 12
0.0
 22
0.0
 32
0.0
 14
0.0
 24
0.0
 34
0.0
 15
0.0
 25
0.0
 35
0.0
146
0.0
 13
0.0
 23
0.0
 33
0.0
 16
1.0
 26
0.0
 36
0.0
 17
0.0
 27
1.0
 37
0.0
 76
     0
330
6C
  0
LAYOUT
  5
77
102
{ACAD_REACTORS
330
62
102
}
330
62
100
AcDbPlotSettings
  1

  2

  4

  6

 40
0.0
 41
0.0
 42
0.0
 43
0.0
 44
0.0
 45
0.0
 46
0.0
 47
0.0
 48
0.0
 49
0.0
140
0.0
141
0.0
142
1.0
143
1.0
 70
   688
 72
     0
 73
     0
 74
     5
  7

 75
    16
147
1.0
 76
     0
 77
     2
 78
   300
148
0.0
149
0.0
100
AcDbLayout
  1
Layout2
 70
     1
 71
     2
 10
0.0
 20
0.0
 11
12.0
 21
9.0
 12
0.0
 22
0.0
 32
0.0
 14
0.0
 24
0.0
 34
0.0
 15
0.0
 25
0.0
 35
0.0
146
0.0
 13
0.0
 23
0.0
 33
0.0
 16
1.0
 26
0.0
 36
0.0
 17
0.0
 27
1.0
 37
0.0
 76
     0
330
74
  0
LAYOUT
  5
73
102
{ACAD_REACTORS
330
62
102
}
330
62
100
AcDbPlotSettings
  1

  2

  4

  6

 40
0.0
 41
0.0
 42
0.0
 43
0.0
 44
0.0
 45
0.0
 46
0.0
 47
0.0
 48
0.0
 49
0.0
140
0.0
141
0.0
142
1.0
143
1.0
 70
  1712
 72
     0
 73
     0
 74
     0
  7

 75
     0
147
1.0
 76
     0
 77
     2
 78
   300
148
0.0
149
0.0
100
AcDbLayout
  1
Model
 70
     1
 71
     0
 10
0.0
 20
0.0
 11
12.0
 21
9.0
 12
0.0
 22
0.0
 32
0.0
 14
0.0
 24
0.0
 34
0.0
 15
0.0
 25
0.0
 35
0.0
146
0.0
 13
0.0
 23
0.0
 33
0.0
 16
1.0
 26
0.0
 36
0.0
 17
0.0
 27
1.0
 37
0.0
 76
     0
330
70
  0
MATERIAL
  5
19
102
{ACAD_XDICTIONARY
360
1A
102
}
102
{ACAD_REACTORS
330
10
102
}
330
10
100
AcDbMaterial
  1
ByBlock
 72
     0
 43
0.0208333333333333
 43
0.0
 43
0.0
 43
0.0
 43
0.0
 43
0.0208333333333333
 43
0.0
 43
0.0
 43
0.0
 43
0.0
 43
1.0
 43
0.0
 43
0.0
 43
0.0
 43
0.0
 43
1.0
 77
     0
 47
0.0208333333333333
 47
0.0
 47
0.0
 47
0.0
 47
0.0
 47
0.0208333333333333
 47
0.0
 47
0.0
 47
0.0
 47
0.0
 47
1.0
 47
0.0
 47
0.0
 47
0.0
 47
0.0
 47
1.0
171
     0
 49
0.0208333333333333
 49
0.0
 49
0.0
 49
0.0
 49
0.0
 49
0.0208333333333333
 49
0.0
 49
0.0
 49
0.0
 49
0.0
 49
1.0
 49
0.0
 49
0.0
 49
0.0
 49
0.0
 49
1.0
175
     0
142
0.0208333333333333
142
0.0
142
0.0
142
0.0
142
0.0
142
0.0208333333333333
142
0.0
142
0.0
142
0.0
142
0.0
142
1.0
142
0.0
142
0.0
142
0.0
142
0.0
142
1.0
179
     0
144
0.0208333333333333
144
0.0
144
0.0
144
0.0
144
0.0
144
0.0208333333333333
144
0.0
144
0.0
144
0.0
144
0.0
144
1.0
144
0.0
144
0.0
144
0.0
144
0.0
144
1.0
147
0.0208333333333333
147
0.0
147
0.0
147
0.0
147
0.0
147
0.0208333333333333
147
0.0
147
0.0
147
0.0
147
0.0
147
1.0
147
0.0
147
0.0
147
0.0
147
0.0
147
1.0
  0
MATERIAL
  5
11
102
{ACAD_XDICTIONARY
360
12
102
}
102
{ACAD_REACTORS
330
10
102
}
330
10
100
AcDbMaterial
  1
ByLayer
 72
     0
 43
0.0208333333333333
 43
0.0
 43
0.0
 43
0.0
 43
0.0
 43
0.0208333333333333
 43
0.0
 43
0.0
 43
0.0
 43
0.0
 43
1.0
 43
0.0
 43
0.0
 43
0.0
 43
0.0
 43
1.0
 77
     0
 47
0.0208333333333333
 47
0.0
 47
0.0
 47
0.0
 47
0.0
 47
0.0208333333333333
 47
0.0
 47
0.0
 47
0.0
 47
0.0
 47
1.0
 47
0.0
 47
0.0
 47
0.0
 47
0.0
 47
1.0
171
     0
 49
0.0208333333333333
 49
0.0
 49
0.0
 49
0.0
 49
0.0
 49
0.0208333333333333
 49
0.0
 49
0.0
 49
0.0
 49
0.0
 49
1.0
 49
0.0
 49
0.0
 49
0.0
 49
0.0
 49
1.0
175
     0
142
0.0208333333333333
142
0.0
142
0.0
142
0.0
142
0.0
142
0.0208333333333333
142
0.0
142
0.0
142
0.0
142
0.0
142
1.0
142
0.0
142
0.0
142
0.0
142
0.0
142
1.0
179
     0
144
0.0208333333333333
144
0.0
144
0.0
144
0.0
144
0.0
144
0.0208333333333333
144
0.0
144
0.0
144
0.0
144
0.0
144
1.0
144
0.0
144
0.0
144
0.0
144
0.0
144
1.0
147
0.0208333333333333
147
0.0
147
0.0
147
0.0
147
0.0
147
0.0208333333333333
147
0.0
147
0.0
147
0.0
147
0.0
147
1.0
147
0.0
147
0.0
147
0.0
147
0.0
147
1.0
  0
MATERIAL
  5
21
102
{ACAD_XDICTIONARY
360
22
102
}
102
{ACAD_REACTORS
330
10
102
}
330
10
100
AcDbMaterial
  1
Global
 72
     0
 43
0.0208333333333333
 43
0.0
 43
0.0
 43
0.0
 43
0.0
 43
0.0208333333333333
 43
0.0
 43
0.0
 43
0.0
 43
0.0
 43
1.0
 43
0.0
 43
0.0
 43
0.0
 43
0.0
 43
1.0
 77
     0
 47
0.0208333333333333
 47
0.0
 47
0.0
 47
0.0
 47
0.0
 47
0.0208333333333333
 47
0.0
 47
0.0
 47
0.0
 47
0.0
 47
1.0
 47
0.0
 47
0.0
 47
0.0
 47
0.0
 47
1.0
171
     0
 49
0.0208333333333333
 49
0.0
 49
0.0
 49
0.0
 49
0.0
 49
0.0208333333333333
 49
0.0
 49
0.0
 49
0.0
 49
0.0
 49
1.0
 49
0.0
 49
0.0
 49
0.0
 49
0.0
 49
1.0
175
     0
142
0.0208333333333333
142
0.0
142
0.0
142
0.0
142
0.0
142
0.0208333333333333
142
0.0
142
0.0
142
0.0
142
0.0
142
1.0
142
0.0
142
0.0
142
0.0
142
0.0
142
1.0
179
     0
144
0.0208333333333333
144
0.0
144
0.0
144
0.0
144
0.0
144
0.0208333333333333
144
0.0
144
0.0
144
0.0
144
0.0
144
1.0
144
0.0
144
0.0
144
0.0
144
0.0
144
1.0
147
0.0208333333333333
147
0.0
147
0.0
147
0.0
147
0.0
147
0.0208333333333333
147
0.0
147
0.0
147
0.0
147
0.0
147
1.0
147
0.0
147
0.0
147
0.0
147
0.0
147
1.0
  0
MLEADERSTYLE
  5
67
102
{ACAD_REACTORS
330
66
102
}
330
66
100
AcDbMLeaderStyle
179
     2
170
     2
171
     1
172
     0
 90
        2
 40
0.0
 41
0.0
173
     1
 91
-1056964608
340
5B
 92
       -2
290
     1
 42
0.09
291
     1
 43
0.36
  3
Standard
 44
0.18
300

342
55
174
     1
178
     6
175
     1
176
     0
 93
-1056964608
 45
0.18
292
     0
297
     0
 46
0.18
 94
-1056964608
 47
1.0
 49
1.0
140
1.0
293
     1
141
0.0
294
     1
177
     0
142
1.0
295
     1
296
     0
143
0.125
271
     0
272
     9
273
     9
298
     1
  0
MLINESTYLE
  5
60
102
{ACAD_REACTORS
330
5F
102
}
330
5F
100
AcDbMlineStyle
  2
STANDARD
 70
     0
  3

 62
   256
 51
90.0
 52
90.0
 71
     2
 49
0.5
 62
   256
  6
BYLAYER
 49
-0.5
 62
   256
  6
BYLAYER
  0
ACDBPLACEHOLDER
  5
F
102
{ACAD_REACTORS
330
E
102
}
330
E
  0
SCALE
  5
43
102
{ACAD_REACTORS
330
42
102
}
330
42
100
AcDbScale
 70
     0
300
1:1
140
1.0
141
1.0
290
     1
  0
SCALE
  5
44
102
{ACAD_REACTORS
330
42
102
}
330
42
100
AcDbScale
 70
     0
300
1/128" = 1'-0"
140
0.0078125
141
12.0
290
     0
  0
SCALE
  5
45
102
{ACAD_REACTORS
330
42
102
}
330
42
100
AcDbScale
 70
     0
300
1/64" = 1'-0"
140
0.015625
141
12.0
290
     0
  0
SCALE
  5
46
102
{ACAD_REACTORS
330
42
102
}
330
42
100
AcDbScale
 70
     0
300
1/32" = 1'-0"
140
0.03125
141
12.0
290
     0
  0
SCALE
  5
47
102
{ACAD_REACTORS
330
42
102
}
330
42
100
AcDbScale
 70
     0
300
1/16" = 1'-0"
140
0.0625
141
12.0
290
     0
  0
SCALE
  5
48
102
{ACAD_REACTORS
330
42
102
}
330
42
100
AcDbScale
 70
     0
300
3/32" = 1'-0"
140
0.09375
141
12.0
290
     0
  0
SCALE
  5
49
102
{ACAD_REACTORS
330
42
102
}
330
42
100
AcDbScale
 70
     0
300
1/8" = 1'-0"
140
0.125
141
12.0
290
     0
  0
SCALE
  5
4A
102
{ACAD_REACTORS
330
42
102
}
330
42
100
AcDbScale
 70
     0
300
3/16" = 1'-0"
140
0.1875
141
12.0
290
     0
  0
SCALE
  5
4B
102
{ACAD_REACTORS
330
42
102
}
330
42
100
AcDbScale
 70
     0
300
1/4" = 1'-0"
140
0.25
141
12.0
290
     0
  0
SCALE
  5
4C
102
{ACAD_REACTORS
330
42
102
}
330
42
100
AcDbScale
 70
     0
300
3/8" = 1'-0"
140
0.375
141
12.0
290
     0
  0
SCALE
  5
4D
102
{ACAD_REACTORS
330
42
102
}
330
42
100
AcDbScale
 70
     0
300
1/2" = 1'-0"
140
0.5
141
12.0
290
     0
  0
SCALE
  5
4E
102
{ACAD_REACTORS
330
42
102
}
330
42
100
AcDbScale
 70
     0
300
3/4" = 1'-0"
140
0.75
141
12.0
290
     0
  0
SCALE
  5
4F
102
{ACAD_REACTORS
330
42
102
}
330
42
100
AcDbScale
 70
     0
300
1" = 1'-0"
140
1.0
141
12.0
290
     0
  0
SCALE
  5
50
102
{ACAD_REACTORS
330
42
102
}
330
42
100
AcDbScale
 70
     0
300
1-1/2" = 1'-0"
140
1.5
141
12.0
290
     0
  0
SCALE
  5
51
102
{ACAD_REACTORS
330
42
102
}
330
42
100
AcDbScale
 70
     0
300
3" = 1'-0"
140
3.0
141
12.0
290
     0
  0
SCALE
  5
52
102
{ACAD_REACTORS
330
42
102
}
330
42
100
AcDbScale
 70
     0
300
6" = 1'-0"
140
6.0
141
12.0
290
     0
  0
SCALE
  5
53
102
{ACAD_REACTORS
330
42
102
}
330
42
100
AcDbScale
 70
     0
300
1'-0" = 1'-0"
140
12.0
141
12.0
290
     0
  0
ACDBSECTIONVIEWSTYLE
  5
69
102
{ACAD_REACTORS
330
68
102
}
330
68
100
AcDbModelDocViewStyle
 70
     0
  3
Imperial24
290
     1
300
Imperial24
 90
        0
100
AcDbSectionViewStyle
 70
     0
 71
     0
 90
       78
 71
     1
340
55
 62
   256
 40
0.24
340
0
340
0
 62
   256
 40
0.24
300
I, O, Q, S, X, Z
 40
0.48
 90
        3
 40
0.18
 90
        1
 71
     2
340
5D
 90
       25
 62
   256
340
5D
 90
       50
 62
   256
 40
0.24
 40
0.0
 40
0.24
 71
     3
340
55
 62
   256
 40
0.24
 90
        1
 40
0.75
 90
        1
300
%<\AcVar ViewType \f "%tc1">% %<\AcVar ViewSectionStartId>%-%<\AcVar ViewSectionEndId>%\PSCALE %<\AcVar ViewScale \f "%sn">%
 71
     4
 62
   256
 62
   257
300
ANSI31
 40
1.0
 90
        0
290
     0
290
     0
 90
        6
 40
0.0
 40
1.570796326794896
 40
0.2617993877991494
 40
1.308996938995747
 40
-0.2617993877991494
 40
1.832595714594046
  0
TABLESTYLE
  5
65
102
{ACAD_XDICTIONARY
360
10E
102
}
102
{ACAD_REACTORS
330
64
102
}
330
64
100
AcDbTableStyle
280
     0
  3
Standard
 70
     0
 71
     0
 40
0.06
 41
0.06
280
     0
281
     0
  7
Standard
140
0.18
170
     2
 62
     0
 63
     7
283
     0
 90
      512
 91
        0
  1

274
    -2
284
     1
 64
     0
275
    -2
285
     1
 65
     0
276
    -2
286
     1
 66
     0
277
    -2
287
     1
 67
     0
278
    -2
288
     1
 68
     0
279
    -2
289
     1
 69
     0
  7
Standard
140
0.25
170
     5
 62
     0
 63
     7
283
     0
 90
      512
 91
        0
  1

274
    -2
284
     1
 64
     0
275
    -2
285
     1
 65
     0
276
    -2
286
     1
 66
     0
277
    -2
287
     1
 67
     0
278
    -2
288
     1
 68
     0
279
    -2
289
     1
 69
     0
  7
Standard
140
0.18
170
     5
 62
     0
 63
     7
283
     0
 90
      512
 91
        0
  1

274
    -2
284
     1
 64
     0
275
    -2
285
     1
 65
     0
276
    -2
286
     1
 66
     0
277
    -2
287
     1
 67
     0
278
    -2
288
     1
 68
     0
279
    -2
289
     1
 69
     0
  0
VISUALSTYLE
  5
2F
102
{ACAD_REACTORS
330
29
102
}
330
29
100
AcDbVisualStyle
  2
2dWireframe
 70
     4
177
     3
291
     0
 70
    58
 90
        0
176
     1
 90
        2
176
     1
 90
        0
176
     1
 90
        0
176
     1
 40
0.6
176
     1
 40
30.0
176
     1
 62
     7
420
 16777215
176
     1
 90
        1
176
     1
 90
        4
176
     1
 62
     7
176
     1
 62
   257
176
     1
 90
        1
176
     1
 90
        1
176
     1
 40
1.0
176
     1
 90
        0
176
     1
 62
   257
176
     1
 40
1.0
176
     1
 90
        1
176
     1
 90
        6
176
     1
 90
        2
176
     1
 62
     7
176
     1
 90
        5
176
     1
 90
        0
176
     1
 90
        0
176
     1
290
     0
176
     1
 90
        1
176
     1
 40
0.0
176
     1
 90
        0
176
     1
290
     1
176
     1
290
     1
176
     1
290
     0
176
     1
290
     0
176
     1
290
     0
176
     1
290
     0
176
     1
290
     0
176
     1
290
     0
176
     1
290
     0
176
     1
 90
       50
176
     1
 40
0.0
176
     1
 40
1.0
176
     1
 90
        0
176
     1
 62
    18
420
        0
176
     1
 90
       50
176
     1
 90
        3
176
     1
 62
     5
420
      255
176
     1
290
     0
176
     1
 90
       50
176
     1
 90
       50
176
     1
 90
       50
176
     1
290
     0
176
     1
 90
       50
176
     1
 62
   256
176
     0
 40
1.0
176
     0
 90
        2
176
     1
  1
strokes_ogs.tif
176
     1
290
     0
176
     1
 40
1.0
176
     1
 40
1.0
176
     1
  0
VISUALSTYLE
  5
2E
102
{ACAD_REACTORS
330
29
102
}
330
29
100
AcDbVisualStyle
  2
Basic
 70
     7
177
     3
291
     1
 70
    58
 90
        1
176
     1
 90
        0
176
     1
 90
        1
176
     1
 90
        0
176
     1
 40
0.6
176
     1
 40
30.0
176
     1
 62
     7
420
 16777215
176
     1
 90
        0
176
     1
 90
        4
176
     1
 62
     7
176
     1
 62
   257
176
     1
 90
        1
176
     1
 90
        1
176
     1
 40
1.0
176
     1
 90
        8
176
     1
 62
     7
176
     1
 40
1.0
176
     1
 90
        1
176
     1
 90
        6
176
     1
 90
        2
176
     1
 62
     7
176
     1
 90
        5
176
     1
 90
        0
176
     1
 90
        0
176
     1
290
     0
176
     1
 90
        1
176
     1
 40
0.0
176
     1
 90
        0
176
     1
290
     0
176
     1
290
     1
176
     1
290
     1
176
     1
290
     0
176
     1
290
     0
176
     1
290
     0
176
     1
290
     0
176
     1
290
     0
176
     1
290
     0
176
     1
 90
       50
176
     1
 40
0.0
176
     1
 40
1.0
176
     1
 90
        0
176
     1
 62
    18
420
        0
176
     1
 90
       50
176
     1
 90
        3
176
     1
 62
     5
420
      255
176
     1
290
     0
176
     1
 90
       50
176
     1
 90
       50
176
     1
 90
       50
176
     1
290
     0
176
     1
 90
       50
176
     1
 62
   256
176
     0
 40
1.0
176
     0
 90
        2
176
     1
  1
strokes_ogs.tif
176
     1
290
     0
176
     1
 40
1.0
176
     1
 40
1.0
176
     1
  0
VISUALSTYLE
  5
35
102
{ACAD_REACTORS
330
29
102
}
330
29
100
AcDbVisualStyle
  2
Brighten
 70
    12
177
     3
291
     1
 70
    58
 90
        2
176
     1
 90
        2
176
     1
 90
        0
176
     1
 90
        0
176
     1
 40
0.6
176
     1
 40
30.0
176
     1
 62
     7
420
 16777215
176
     1
 90
        1
176
     1
 90
        4
176
     1
 62
     7
176
     1
 62
   257
176
     1
 90
        1
176
     1
 90
        1
176
     1
 40
1.0
176
     1
 90
        8
176
     1
 62
     7
176
     1
 40
1.0
176
     1
 90
        1
176
     1
 90
        6
176
     1
 90
        2
176
     1
 62
     7
176
     1
 90
        5
176
     1
 90
        0
176
     1
 90
        0
176
     1
290
     0
176
     1
 90
        1
176
     1
 40
50.0
176
     1
 90
        0
176
     1
290
     0
176
     1
290
     1
176
     1
290
     1
176
     1
290
     0
176
     1
290
     0
176
     1
290
     0
176
     1
290
     0
176
     1
290
     0
176
     1
290
     0
176
     1
 90
       50
176
     1
 40
0.0
176
     1
 40
1.0
176
     1
 90
        0
176
     1
 62
    18
420
        0
176
     1
 90
       50
176
     1
 90
        3
176
     1
 62
     5
420
      255
176
     1
290
     0
176
     1
 90
       50
176
     1
 90
       50
176
     1
 90
       50
176
     1
290
     0
176
     1
 90
       50
176
     1
 62
   256
176
     0
 40
1.0
176
     0
 90
        2
176
     1
  1
strokes_ogs.tif
176
     1
290
     0
176
     1
 40
1.0
176
     1
 40
1.0
176
     1
  0
VISUALSTYLE
  5
39
102
{ACAD_REACTORS
330
29
102
}
330
29
100
AcDbVisualStyle
  2
ColorChange
 70
    16
177
     3
291
     1
 70
    58
 90
        2
176
     1
 90
        2
176
     1
 90
        3
176
     1
 90
        0
176
     1
 40
0.6
176
     1
 40
30.0
176
     1
 62
     8
420
  8421504
176
     1
 90
        1
176
     1
 90
        4
176
     1
 62
     7
176
     1
 62
   257
176
     1
 90
        1
176
     1
 90
        1
176
     1
 40
1.0
176
     1
 90
        8
176
     1
 62
     8
420
  8421504
176
     1
 40
1.0
176
     1
 90
        1
176
     1
 90
        6
176
     1
 90
        2
176
     1
 62
     7
176
     1
 90
        5
176
     1
 90
        0
176
     1
 90
        0
176
     1
290
     0
176
     1
 90
        1
176
     1
 40
0.0
176
     1
 90
        0
176
     1
290
     0
176
     1
290
     1
176
     1
290
     1
176
     1
290
     0
176
     1
290
     0
176
     1
290
     0
176
     1
290
     0
176
     1
290
     0
176
     1
290
     0
176
     1
 90
       50
176
     1
 40
0.0
176
     1
 40
1.0
176
     1
 90
        0
176
     1
 62
    18
420
        0
176
     1
 90
       50
176
     1
 90
        3
176
     1
 62
     5
420
      255
176
     1
290
     0
176
     1
 90
       50
176
     1
 90
       50
176
     1
 90
       50
176
     1
290
     0
176
     1
 90
       50
176
     1
 62
   256
176
     0
 40
1.0
176
     0
 90
        2
176
     1
  1
strokes_ogs.tif
176
     1
290
     0
176
     1
 40
1.0
176
     1
 40
1.0
176
     1
  0
VISUALSTYLE
  5
32
102
{ACAD_REACTORS
330
29
102
}
330
29
100
AcDbVisualStyle
  2
Conceptual
 70
     9
177
     3
291
     0
 70
    58
 90
        3
176
     1
 90
        2
176
     1
 90
        0
176
     1
 90
        0
176
     1
 40
0.6
176
     1
 40
30.0
176
     1
 62
     7
420
 16777215
176
     1
 90
        2
176
     1
 90
        2
176
     1
 62
     7
176
     1
 62
   257
176
     1
 90
        1
176
     1
 90
        1
176
     1
 40
179.0
176
     1
 90
        8
176
     1
 62
     7
176
     1
 40
1.0
176
     1
 90
        1
176
     1
 90
        6
176
     1
 90
        2
176
     1
 62
     7
176
     1
 90
        3
176
     1
 90
        0
176
     1
 90
        0
176
     1
290
     0
176
     1
 90
        1
176
     1
 40
0.0
176
     1
 90
        0
176
     1
290
     0
176
     1
290
     1
176
     1
290
     1
176
     1
290
     0
176
     1
290
     0
176
     1
290
     0
176
     1
290
     0
176
     1
290
     0
176
     1
290
     0
176
     1
 90
       50
176
     1
 40
0.0
176
     1
 40
1.0
176
     1
 90
        0
176
     1
 62
    18
420
        0
176
     1
 90
       50
176
     1
 90
        3
176
     1
 62
     5
420
      255
176
     1
290
     0
176
     1
 90
       50
176
     1
 90
       50
176
     1
 90
       50
176
     1
290
     0
176
     1
 90
       50
176
     1
 62
   256
176
     0
 40
1.0
176
     0
 90
        2
176
     1
  1
strokes_ogs.tif
176
     1
290
     0
176
     1
 40
1.0
176
     1
 40
1.0
176
     1
  0
VISUALSTYLE
  5
34
102
{ACAD_REACTORS
330
29
102
}
330
29
100
AcDbVisualStyle
  2
Dim
 70
    11
177
     3
291
     1
 70
    58
 90
        2
176
     1
 90
        2
176
     1
 90
        0
176
     1
 90
        0
176
     1
 40
0.6
176
     1
 40
30.0
176
     1
 62
     7
420
 16777215
176
     1
 90
        1
176
     1
 90
        4
176
     1
 62
     7
176
     1
 62
   257
176
     1
 90
        1
176
     1
 90
        1
176
     1
 40
1.0
176
     1
 90
        8
176
     1
 62
     7
176
     1
 40
1.0
176
     1
 90
        1
176
     1
 90
        6
176
     1
 90
        2
176
     1
 62
     7
176
     1
 90
        5
176
     1
 90
        0
176
     1
 90
        0
176
     1
290
     0
176
     1
 90
        1
176
     1
 40
-50.0
176
     1
 90
        0
176
     1
290
     0
176
     1
290
     1
176
     1
290
     1
176
     1
290
     0
176
     1
290
     0
176
     1
290
     0
176
     1
290
     0
176
     1
290
     0
176
     1
290
     0
176
     1
 90
       50
176
     1
 40
0.0
176
     1
 40
1.0
176
     1
 90
        0
176
     1
 62
    18
420
        0
176
     1
 90
       50
176
     1
 90
        3
176
     1
 62
     5
420
      255
176
     1
290
     0
176
     1
 90
       50
176
     1
 90
       50
176
     1
 90
       50
176
     1
290
     0
176
     1
 90
       50
176
     1
 62
   256
176
     0
 40
1.0
176
     0
 90
        2
176
     1
  1
strokes_ogs.tif
176
     1
290
     0
176
     1
 40
1.0
176
     1
 40
1.0
176
     1
  0
VISUALSTYLE
  5
41
102
{ACAD_REACTORS
330
29
102
}
330
29
100
AcDbVisualStyle
  2
EdgeColorOff
 70
    22
177
     3
291
     1
 70
    58
 90
        2
176
     0
 90
        2
176
     0
 90
        0
176
     0
 90
        0
176
     0
 40
0.6
176
     0
 40
30.0
176
     0
 62
     7
420
 16777215
176
     0
 90
        1
176
     0
 90
        4
176
     0
 62
     7
176
     0
 62
   257
176
     0
 90
        1
176
     0
 90
        1
176
     0
 40
1.0
176
     0
 90
        8
176
     2
 62
     7
176
     0
 40
1.0
176
     0
 90
        1
176
     0
 90
        6
176
     0
 90
        2
176
     0
 62
     7
176
     0
 90
        5
176
     0
 90
        0
176
     0
 90
        0
176
     0
290
     0
176
     0
 90
        1
176
     0
 40
0.0
176
     0
 90
        0
176
     0
290
     0
176
     0
290
     1
176
     0
290
     1
176
     0
290
     0
176
     0
290
     0
176
     0
290
     0
176
     0
290
     0
176
     0
290
     0
176
     0
290
     0
176
     0
 90
       50
176
     0
 40
0.0
176
     0
 40
1.0
176
     0
 90
        0
176
     0
 62
    18
420
        0
176
     0
 90
       50
176
     0
 90
        3
176
     0
 62
     5
420
      255
176
     0
290
     0
176
     0
 90
       50
176
     0
 90
       50
176
     0
 90
       50
176
     0
290
     0
176
     0
 90
       50
176
     0
 62
   256
176
     0
 40
1.0
176
     0
 90
        2
176
     0
  1
strokes_ogs.tif
176
     0
290
     0
176
     0
 40
1.0
176
     0
 40
1.0
176
     0
  0
VISUALSTYLE
  5
38
102
{ACAD_REACTORS
330
29
102
}
330
29
100
AcDbVisualStyle
  2
Facepattern
 70
    15
177
     3
291
     1
 70
    58
 90
        2
176
     1
 90
        2
176
     1
 90
        0
176
     1
 90
        0
176
     1
 40
0.6
176
     1
 40
30.0
176
     1
 62
     7
420
 16777215
176
     1
 90
        1
176
     1
 90
        4
176
     1
 62
     7
176
     1
 62
   257
176
     1
 90
        1
176
     1
 90
        1
176
     1
 40
1.0
176
     1
 90
        8
176
     1
 62
     7
176
     1
 40
1.0
176
     1
 90
        1
176
     1
 90
        6
176
     1
 90
        2
176
     1
 62
     7
176
     1
 90
        5
176
     1
 90
        0
176
     1
 90
        0
176
     1
290
     0
176
     1
 90
        1
176
     1
 40
0.0
176
     1
 90
        0
176
     1
290
     0
176
     1
290
     1
176
     1
290
     1
176
     1
290
     0
176
     1
290
     0
176
     1
290
     0
176
     1
290
     0
176
     1
290
     0
176
     1
290
     0
176
     1
 90
       50
176
     1
 40
0.0
176
     1
 40
1.0
176
     1
 90
        0
176
     1
 62
    18
420
        0
176
     1
 90
       50
176
     1
 90
        3
176
     1
 62
     5
420
      255
176
     1
290
     0
176
     1
 90
       50
176
     1
 90
       50
176
     1
 90
       50
176
     1
290
     0
176
     1
 90
       50
176
     1
 62
   256
176
     0
 40
1.0
176
     0
 90
        2
176
     1
  1
strokes_ogs.tif
176
     1
290
     0
176
     1
 40
1.0
176
     1
 40
1.0
176
     1
  0
VISUALSTYLE
  5
2A
102
{ACAD_REACTORS
330
29
102
}
330
29
100
AcDbVisualStyle
  2
Flat
 70
     0
177
     3
291
     1
 70
    58
 90
        2
176
     1
 90
        1
176
     1
 90
        1
176
     1
 90
        2
176
     1
 40
0.6
176
     1
 40
30.0
176
     1
 62
     7
420
 16777215
176
     1
 90
        0
176
     1
 90
        0
176
     1
 62
     7
176
     1
 62
   257
176
     1
 90
        1
176
     1
 90
        1
176
     1
 40
1.0
176
     1
 90
        8
176
     1
 62
     7
176
     1
 40
1.0
176
     1
 90
        1
176
     1
 90
        6
176
     1
 90
        2
176
     1
 62
     7
176
     1
 90
        5
176
     1
 90
        0
176
     1
 90
        0
176
     1
290
     0
176
     1
 90
       13
176
     1
 40
0.0
176
     1
 90
        0
176
     1
290
     0
176
     1
290
     1
176
     1
290
     1
176
     1
290
     0
176
     1
290
     0
176
     1
290
     0
176
     1
290
     0
176
     1
290
     0
176
     1
290
     0
176
     1
 90
       50
176
     1
 40
0.0
176
     1
 40
1.0
176
     1
 90
        0
176
     1
 62
    18
420
        0
176
     1
 90
       50
176
     1
 90
        3
176
     1
 62
     5
420
      255
176
     1
290
     0
176
     1
 90
       50
176
     1
 90
       50
176
     1
 90
       50
176
     1
290
     0
176
     1
 90
       50
176
     1
 62
   256
176
     0
 40
1.0
176
     0
 90
        2
176
     1
  1
strokes_ogs.tif
176
     1
290
     0
176
     1
 40
1.0
176
     1
 40
1.0
176
     1
  0
VISUALSTYLE
  5
2B
102
{ACAD_REACTORS
330
29
102
}
330
29
100
AcDbVisualStyle
  2
FlatWithEdges
 70
     1
177
     3
291
     1
 70
    58
 90
        2
176
     1
 90
        1
176
     1
 90
        1
176
     1
 90
        2
176
     1
 40
0.6
176
     1
 40
30.0
176
     1
 62
     7
420
 16777215
176
     1
 90
        1
176
     1
 90
        0
176
     1
 62
     7
176
     1
 62
   257
176
     1
 90
        1
176
     1
 90
        1
176
     1
 40
1.0
176
     1
 90
        0
176
     1
 62
   257
176
     1
 40
1.0
176
     1
 90
        1
176
     1
 90
        6
176
     1
 90
        2
176
     1
 62
     7
176
     1
 90
        5
176
     1
 90
        0
176
     1
 90
        0
176
     1
290
     0
176
     1
 90
       13
176
     1
 40
0.0
176
     1
 90
        0
176
     1
290
     0
176
     1
290
     1
176
     1
290
     1
176
     1
290
     0
176
     1
290
     0
176
     1
290
     0
176
     1
290
     0
176
     1
290
     0
176
     1
290
     0
176
     1
 90
       50
176
     1
 40
0.0
176
     1
 40
1.0
176
     1
 90
        0
176
     1
 62
    18
420
        0
176
     1
 90
       50
176
     1
 90
        3
176
     1
 62
     5
420
      255
176
     1
290
     0
176
     1
 90
       50
176
     1
 90
       50
176
     1
 90
       50
176
     1
290
     0
176
     1
 90
       50
176
     1
 62
   256
176
     0
 40
1.0
176
     0
 90
        2
176
     1
  1
strokes_ogs.tif
176
     1
290
     0
176
     1
 40
1.0
176
     1
 40
1.0
176
     1
  0
VISUALSTYLE
  5
2C
102
{ACAD_REACTORS
330
29
102
}
330
29
100
AcDbVisualStyle
  2
Gouraud
 70
     2
177
     3
291
     1
 70
    58
 90
        2
176
     1
 90
        2
176
     1
 90
        1
176
     1
 90
        2
176
     1
 40
0.6
176
     1
 40
30.0
176
     1
 62
     7
420
 16777215
176
     1
 90
        0
176
     1
 90
        0
176
     1
 62
     7
176
     1
 62
   257
176
     1
 90
        1
176
     1
 90
        1
176
     1
 40
1.0
176
     1
 90
        0
176
     1
 62
     7
176
     1
 40
1.0
176
     1
 90
        1
176
     1
 90
        6
176
     1
 90
        2
176
     1
 62
     7
176
     1
 90
        5
176
     1
 90
        0
176
     1
 90
        0
176
     1
290
     0
176
     1
 90
       13
176
     1
 40
0.0
176
     1
 90
        0
176
     1
290
     0
176
     1
290
     1
176
     1
290
     1
176
     1
290
     0
176
     1
290
     0
176
     1
290
     0
176
     1
290
     0
176
     1
290
     0
176
     1
290
     0
176
     1
 90
       50
176
     1
 40
0.0
176
     1
 40
1.0
176
     1
 90
        0
176
     1
 62
    18
420
        0
176
     1
 90
       50
176
     1
 90
        3
176
     1
 62
     5
420
      255
176
     1
290
     0
176
     1
 90
       50
176
     1
 90
       50
176
     1
 90
       50
176
     1
290
     0
176
     1
 90
       50
176
     1
 62
   256
176
     0
 40
1.0
176
     0
 90
        2
176
     1
  1
strokes_ogs.tif
176
     1
290
     0
176
     1
 40
1.0
176
     1
 40
1.0
176
     1
  0
VISUALSTYLE
  5
2D
102
{ACAD_REACTORS
330
29
102
}
330
29
100
AcDbVisualStyle
  2
GouraudWithEdges
 70
     3
177
     3
291
     1
 70
    58
 90
        2
176
     1
 90
        2
176
     1
 90
        1
176
     1
 90
        2
176
     1
 40
0.6
176
     1
 40
30.0
176
     1
 62
     7
420
 16777215
176
     1
 90
        1
176
     1
 90
        0
176
     1
 62
     7
176
     1
 62
   257
176
     1
 90
        1
176
     1
 90
        1
176
     1
 40
1.0
176
     1
 90
        0
176
     1
 62
   257
176
     1
 40
1.0
176
     1
 90
        1
176
     1
 90
        6
176
     1
 90
        2
176
     1
 62
     7
176
     1
 90
        5
176
     1
 90
        0
176
     1
 90
        0
176
     1
290
     0
176
     1
 90
       13
176
     1
 40
0.0
176
     1
 90
        0
176
     1
290
     0
176
     1
290
     1
176
     1
290
     1
176
     1
290
     0
176
     1
290
     0
176
     1
290
     0
176
     1
290
     0
176
     1
290
     0
176
     1
290
     0
176
     1
 90
       50
176
     1
 40
0.0
176
     1
 40
1.0
176
     1
 90
        0
176
     1
 62
    18
420
        0
176
     1
 90
       50
176
     1
 90
        3
176
     1
 62
     5
420
      255
176
     1
290
     0
176
     1
 90
       50
176
     1
 90
       50
176
     1
 90
       50
176
     1
290
     0
176
     1
 90
       50
176
     1
 62
   256
176
     0
 40
1.0
176
     0
 90
        2
176
     1
  1
strokes_ogs.tif
176
     1
290
     0
176
     1
 40
1.0
176
     1
 40
1.0
176
     1
  0
VISUALSTYLE
  5
31
102
{ACAD_REACTORS
330
29
102
}
330
29
100
AcDbVisualStyle
  2
Hidden
 70
     6
177
     3
291
     0
 70
    58
 90
        1
176
     1
 90
        2
176
     1
 90
        2
176
     1
 90
        0
176
     1
 40
0.6
176
     1
 40
30.0
176
     1
 62
     7
420
 16777215
176
     1
 90
        2
176
     1
 90
        2
176
     1
 62
     7
176
     1
 62
   257
176
     1
 90
        2
176
     1
 90
        1
176
     1
 40
40.0
176
     1
 90
        0
176
     1
 62
   257
176
     1
 40
1.0
176
     1
 90
        1
176
     1
 90
        6
176
     1
 90
        2
176
     1
 62
     7
176
     1
 90
        3
176
     1
 90
        0
176
     1
 90
        0
176
     1
290
     0
176
     1
 90
        1
176
     1
 40
0.0
176
     1
 90
        0
176
     1
290
     0
176
     1
290
     1
176
     1
290
     1
176
     1
290
     0
176
     1
290
     0
176
     1
290
     0
176
     1
290
     0
176
     1
290
     0
176
     1
290
     0
176
     1
 90
       50
176
     1
 40
0.0
176
     1
 40
1.0
176
     1
 90
        0
176
     1
 62
    18
420
        0
176
     1
 90
       50
176
     1
 90
        3
176
     1
 62
     5
420
      255
176
     1
290
     0
176
     1
 90
       50
176
     1
 90
       50
176
     1
 90
       50
176
     1
290
     0
176
     1
 90
       50
176
     1
 62
   256
176
     0
 40
1.0
176
     0
 90
        2
176
     1
  1
strokes_ogs.tif
176
     1
290
     0
176
     1
 40
1.0
176
     1
 40
1.0
176
     1
  0
VISUALSTYLE
  5
3F
102
{ACAD_REACTORS
330
29
102
}
330
29
100
AcDbVisualStyle
  2
JitterOff
 70
    20
177
     3
291
     1
 70
    58
 90
        2
176
     0
 90
        2
176
     0
 90
        0
176
     0
 90
        0
176
     0
 40
0.6
176
     0
 40
30.0
176
     0
 62
     7
420
 16777215
176
     0
 90
        1
176
     0
 90
        4
176
     0
 62
     7
176
     0
 62
   257
176
     0
 90
        1
176
     0
 90
        1
176
     0
 40
1.0
176
     0
 90
       10
176
     2
 62
     7
176
     0
 40
1.0
176
     0
 90
        1
176
     0
 90
        6
176
     0
 90
        2
176
     0
 62
     7
176
     0
 90
        5
176
     0
 90
        0
176
     0
 90
        0
176
     0
290
     0
176
     0
 90
        1
176
     0
 40
0.0
176
     0
 90
        0
176
     0
290
     0
176
     0
290
     1
176
     0
290
     1
176
     0
290
     0
176
     0
290
     0
176
     0
290
     0
176
     0
290
     0
176
     0
290
     0
176
     0
290
     0
176
     0
 90
       50
176
     0
 40
0.0
176
     0
 40
1.0
176
     0
 90
        0
176
     0
 62
    18
420
        0
176
     0
 90
       50
176
     0
 90
        3
176
     0
 62
     5
420
      255
176
     0
290
     0
176
     0
 90
       50
176
     0
 90
       50
176
     0
 90
       50
176
     0
290
     0
176
     0
 90
       50
176
     0
 62
   256
176
     0
 40
1.0
176
     0
 90
        2
176
     0
  1
strokes_ogs.tif
176
     0
290
     0
176
     0
 40
1.0
176
     0
 40
1.0
176
     0
  0
VISUALSTYLE
  5
37
102
{ACAD_REACTORS
330
29
102
}
330
29
100
AcDbVisualStyle
  2
Linepattern
 70
    14
177
     3
291
     1
 70
    58
 90
        2
176
     1
 90
        2
176
     1
 90
        0
176
     1
 90
        0
176
     1
 40
0.6
176
     1
 40
30.0
176
     1
 62
     7
420
 16777215
176
     1
 90
        1
176
     1
 90
        4
176
     1
 62
     7
176
     1
 62
   257
176
     1
 90
        7
176
     1
 90
        7
176
     1
 40
1.0
176
     1
 90
        8
176
     1
 62
     7
176
     1
 40
1.0
176
     1
 90
        1
176
     1
 90
        6
176
     1
 90
        2
176
     1
 62
     7
176
     1
 90
        5
176
     1
 90
        0
176
     1
 90
        0
176
     1
290
     0
176
     1
 90
        1
176
     1
 40
0.0
176
     1
 90
        0
176
     1
290
     0
176
     1
290
     1
176
     1
290
     1
176
     1
290
     0
176
     1
290
     0
176
     1
290
     0
176
     1
290
     0
176
     1
290
     0
176
     1
290
     0
176
     1
 90
       50
176
     1
 40
0.0
176
     1
 40
1.0
176
     1
 90
        0
176
     1
 62
    18
420
        0
176
     1
 90
       50
176
     1
 90
        3
176
     1
 62
     5
420
      255
176
     1
290
     0
176
     1
 90
       50
176
     1
 90
       50
176
     1
 90
       50
176
     1
290
     0
176
     1
 90
       50
176
     1
 62
   256
176
     0
 40
1.0
176
     0
 90
        2
176
     1
  1
strokes_ogs.tif
176
     1
290
     0
176
     1
 40
1.0
176
     1
 40
1.0
176
     1
  0
VISUALSTYLE
  5
40
102
{ACAD_REACTORS
330
29
102
}
330
29
100
AcDbVisualStyle
  2
OverhangOff
 70
    21
177
     3
291
     1
 70
    58
 90
        2
176
     0
 90
        2
176
     0
 90
        0
176
     0
 90
        0
176
     0
 40
0.6
176
     0
 40
30.0
176
     0
 62
     7
420
 16777215
176
     0
 90
        1
176
     0
 90
        4
176
     0
 62
     7
176
     0
 62
   257
176
     0
 90
        1
176
     0
 90
        1
176
     0
 40
1.0
176
     0
 90
        9
176
     2
 62
     7
176
     0
 40
1.0
176
     0
 90
        1
176
     0
 90
        6
176
     0
 90
        2
176
     0
 62
     7
176
     0
 90
        5
176
     0
 90
        0
176
     0
 90
        0
176
     0
290
     0
176
     0
 90
        1
176
     0
 40
0.0
176
     0
 90
        0
176
     0
290
     0
176
     0
290
     1
176
     0
290
     1
176
     0
290
     0
176
     0
290
     0
176
     0
290
     0
176
     0
290
     0
176
     0
290
     0
176
     0
290
     0
176
     0
 90
       50
176
     0
 40
0.0
176
     0
 40
1.0
176
     0
 90
        0
176
     0
 62
    18
420
        0
176
     0
 90
       50
176
     0
 90
        3
176
     0
 62
     5
420
      255
176
     0
290
     0
176
     0
 90
       50
176
     0
 90
       50
176
     0
 90
       50
176
     0
290
     0
176
     0
 90
       50
176
     0
 62
   256
176
     0
 40
1.0
176
     0
 90
        2
176
     0
  1
strokes_ogs.tif
176
     0
290
     0
176
     0
 40
1.0
176
     0
 40
1.0
176
     0
  0
VISUALSTYLE
  5
33
102
{ACAD_REACTORS
330
29
102
}
330
29
100
AcDbVisualStyle
  2
Realistic
 70
     8
177
     3
291
     0
 70
    58
 90
        2
176
     1
 90
        3
176
     1
 90
        0
176
     1
 90
        2
176
     1
 40
0.6
176
     1
 40
30.0
176
     1
 62
     7
420
 16777215
176
     1
 90
        0
176
     1
 90
        0
176
     1
 62
     7
176
     1
 62
   257
176
     1
 90
        1
176
     1
 90
        1
176
     1
 40
1.0
176
     1
 90
        8
176
     1
 62
   257
176
     1
 40
1.0
176
     1
 90
        1
176
     1
 90
        6
176
     1
 90
        2
176
     1
 62
     7
176
     1
 90
        3
176
     1
 90
        0
176
     1
 90
        0
176
     1
290
     0
176
     1
 90
       13
176
     1
 40
0.0
176
     1
 90
        0
176
     1
290
     0
176
     1
290
     1
176
     1
290
     1
176
     1
290
     0
176
     1
290
     0
176
     1
290
     0
176
     1
290
     0
176
     1
290
     0
176
     1
290
     0
176
     1
 90
       50
176
     1
 40
0.0
176
     1
 40
1.0
176
     1
 90
        0
176
     1
 62
    18
420
        0
176
     1
 90
       50
176
     1
 90
        3
176
     1
 62
     5
420
      255
176
     1
290
     0
176
     1
 90
       50
176
     1
 90
       50
176
     1
 90
       50
176
     1
290
     0
176
     1
 90
       50
176
     1
 62
   256
176
     0
 40
1.0
176
     0
 90
        2
176
     1
  1
strokes_ogs.tif
176
     1
290
     0
176
     1
 40
1.0
176
     1
 40
1.0
176
     1
  0
VISUALSTYLE
  5
3E
102
{ACAD_REACTORS
330
29
102
}
330
29
100
AcDbVisualStyle
  2
Shaded
 70
    27
177
     3
291
     0
 70
    58
 90
        2
176
     1
 90
        2
176
     1
 90
        1
176
     1
 90
        2
176
     1
 40
0.6
176
     1
 40
30.0
176
     1
 62
     7
420
 16777215
176
     1
 90
        0
176
     1
 90
        4
176
     1
 62
     7
176
     1
 62
   257
176
     1
 90
        1
176
     1
 90
        1
176
     1
 40
1.0
176
     1
 90
        8
176
     1
 62
   257
176
     1
 40
1.0
176
     1
 90
        1
176
     1
 90
        6
176
     1
 90
        2
176
     1
 62
     8
420
  7895160
176
     1
 90
        3
176
     1
 90
        0
176
     1
 90
        0
176
     1
290
     0
176
     1
 90
        5
176
     1
 40
0.0
176
     1
 90
        0
176
     1
290
     0
176
     1
290
     1
176
     1
290
     1
176
     1
290
     0
176
     1
290
     0
176
     1
290
     0
176
     1
290
     0
176
     1
290
     0
176
     1
290
     0
176
     1
 90
       50
176
     1
 40
0.0
176
     1
 40
1.0
176
     1
 90
        0
176
     1
 62
    18
420
        0
176
     1
 90
       50
176
     1
 90
        3
176
     1
 62
     5
420
      255
176
     1
290
     0
176
     1
 90
       50
176
     1
 90
       50
176
     1
 90
       50
176
     1
290
     0
176
     1
 90
       50
176
     1
 62
   256
176
     0
 40
1.0
176
     0
 90
        2
176
     1
  1
strokes_ogs.tif
176
     1
290
     0
176
     1
 40
1.0
176
     1
 40
1.0
176
     1
  0
VISUALSTYLE
  5
3D
102
{ACAD_REACTORS
330
29
102
}
330
29
100
AcDbVisualStyle
  2
Shaded with edges
 70
    26
177
     3
291
     0
 70
    58
 90
        2
176
     1
 90
        2
176
     1
 90
        1
176
     1
 90
        2
176
     1
 40
0.6
176
     1
 40
30.0
176
     1
 62
     7
420
 16777215
176
     1
 90
        1
176
     1
 90
        2
176
     1
 62
     7
176
     1
 62
   257
176
     1
 90
        2
176
     1
 90
        1
176
     1
 40
1.0
176
     1
 90
        8
176
     1
 62
   257
176
     1
 40
1.0
176
     1
 90
        1
176
     1
 90
        6
176
     1
 90
        2
176
     1
 62
     7
176
     1
 90
        3
176
     1
 90
        0
176
     1
 90
        0
176
     1
290
     0
176
     1
 90
        5
176
     1
 40
0.0
176
     1
 90
        0
176
     1
290
     0
176
     1
290
     1
176
     1
290
     1
176
     1
290
     0
176
     1
290
     0
176
     1
290
     0
176
     1
290
     0
176
     1
290
     0
176
     1
290
     0
176
     1
 90
       50
176
     1
 40
0.0
176
     1
 40
1.0
176
     1
 90
        0
176
     1
 62
    18
420
        0
176
     1
 90
       50
176
     1
 90
        3
176
     1
 62
     5
420
      255
176
     1
290
     0
176
     1
 90
       50
176
     1
 90
       50
176
     1
 90
       50
176
     1
290
     0
176
     1
 90
       50
176
     1
 62
   256
176
     0
 40
1.0
176
     0
 90
        2
176
     1
  1
strokes_ogs.tif
176
     1
290
     0
176
     1
 40
1.0
176
     1
 40
1.0
176
     1
  0
VISUALSTYLE
  5
3A
102
{ACAD_REACTORS
330
29
102
}
330
29
100
AcDbVisualStyle
  2
Shades of Gray
 70
    23
177
     3
291
     0
 70
    58
 90
        2
176
     1
 90
        2
176
     1
 90
        3
176
     1
 90
        0
176
     1
 40
0.6
176
     1
 40
30.0
176
     1
 62
     7
420
 16777215
176
     1
 90
        2
176
     1
 90
        2
176
     1
 62
     7
176
     1
 62
     7
176
     1
 90
        1
176
     1
 90
        1
176
     1
 40
40.0
176
     1
 90
        8
176
     1
 62
     7
176
     1
 40
1.0
176
     1
 90
        1
176
     1
 90
        6
176
     1
 90
        2
176
     1
 62
     7
176
     1
 90
        3
176
     1
 90
        0
176
     1
 90
        0
176
     1
290
     0
176
     1
 90
        1
176
     1
 40
0.0
176
     1
 90
        0
176
     1
290
     0
176
     1
290
     1
176
     1
290
     1
176
     1
290
     0
176
     1
290
     0
176
     1
290
     0
176
     1
290
     0
176
     1
290
     0
176
     1
290
     0
176
     1
 90
       50
176
     1
 40
0.0
176
     1
 40
1.0
176
     1
 90
        0
176
     1
 62
    18
420
        0
176
     1
 90
       50
176
     1
 90
        3
176
     1
 62
     5
420
      255
176
     1
290
     0
176
     1
 90
       50
176
     1
 90
       50
176
     1
 90
       50
176
     1
290
     0
176
     1
 90
       50
176
     1
 62
   256
176
     0
 40
1.0
176
     0
 90
        2
176
     1
  1
strokes_ogs.tif
176
     1
290
     0
176
     1
 40
1.0
176
     1
 40
1.0
176
     1
  0
VISUALSTYLE
  5
3B
102
{ACAD_REACTORS
330
29
102
}
330
29
100
AcDbVisualStyle
  2
Sketchy
 70
    24
177
     3
291
     0
 70
    58
 90
        1
176
     1
 90
        2
176
     1
 90
        2
176
     1
 90
        0
176
     1
 40
0.6
176
     1
 40
30.0
176
     1
 62
     7
420
 16777215
176
     1
 90
        2
176
     1
 90
        2
176
     1
 62
     7
176
     1
 62
     7
176
     1
 90
        1
176
     1
 90
        1
176
     1
 40
40.0
176
     1
 90
       11
176
     1
 62
     7
176
     1
 40
1.0
176
     1
 90
        1
176
     1
 90
        6
176
     1
 90
        2
176
     1
 62
     7
176
     1
 90
        6
176
     1
 90
        0
176
     1
 90
        0
176
     1
290
     0
176
     1
 90
        1
176
     1
 40
0.0
176
     1
 90
        0
176
     1
290
     0
176
     1
290
     1
176
     1
290
     1
176
     1
290
     0
176
     1
290
     0
176
     1
290
     0
176
     1
290
     0
176
     1
290
     0
176
     1
290
     0
176
     1
 90
       50
176
     1
 40
0.0
176
     1
 40
1.0
176
     1
 90
        0
176
     1
 62
    18
420
        0
176
     1
 90
       50
176
     1
 90
        3
176
     1
 62
     5
420
      255
176
     1
290
     0
176
     1
 90
       50
176
     1
 90
       50
176
     1
 90
       50
176
     1
290
     0
176
     1
 90
       50
176
     1
 62
   256
176
     0
 40
1.0
176
     0
 90
        2
176
     1
  1
strokes_ogs.tif
176
     1
290
     0
176
     1
 40
1.0
176
     1
 40
1.0
176
     1
  0
VISUALSTYLE
  5
36
102
{ACAD_REACTORS
330
29
102
}
330
29
100
AcDbVisualStyle
  2
Thicken
 70
    13
177
     3
291
     1
 70
    58
 90
        2
176
     1
 90
        2
176
     1
 90
        0
176
     1
 90
        0
176
     1
 40
0.6
176
     1
 40
30.0
176
     1
 62
     7
420
 16777215
176
     1
 90
        1
176
     1
 90
        4
176
     1
 62
     7
176
     1
 62
   257
176
     1
 90
        1
176
     1
 90
        1
176
     1
 40
1.0
176
     1
 90
       12
176
     1
 62
     7
176
     1
 40
1.0
176
     1
 90
        1
176
     1
 90
        6
176
     1
 90
        2
176
     1
 62
     7
176
     1
 90
        5
176
     1
 90
        0
176
     1
 90
        0
176
     1
290
     0
176
     1
 90
        1
176
     1
 40
0.0
176
     1
 90
        0
176
     1
290
     0
176
     1
290
     1
176
     1
290
     1
176
     1
290
     0
176
     1
290
     0
176
     1
290
     0
176
     1
290
     0
176
     1
290
     0
176
     1
290
     0
176
     1
 90
       50
176
     1
 40
0.0
176
     1
 40
1.0
176
     1
 90
        0
176
     1
 62
    18
420
        0
176
     1
 90
       50
176
     1
 90
        3
176
     1
 62
     5
420
      255
176
     1
290
     0
176
     1
 90
       50
176
     1
 90
       50
176
     1
 90
       50
176
     1
290
     0
176
     1
 90
       50
176
     1
 62
   256
176
     0
 40
1.0
176
     0
 90
        2
176
     1
  1
strokes_ogs.tif
176
     1
290
     0
176
     1
 40
1.0
176
     1
 40
1.0
176
     1
  0
VISUALSTYLE
  5
30
102
{ACAD_REACTORS
330
29
102
}
330
29
100
AcDbVisualStyle
  2
Wireframe
 70
     5
177
     3
291
     0
 70
    58
 90
        0
176
     1
 90
        2
176
     1
 90
        0
176
     1
 90
        0
176
     1
 40
0.6
176
     1
 40
30.0
176
     1
 62
     7
420
 16777215
176
     1
 90
        1
176
     1
 90
        4
176
     1
 62
     7
176
     1
 62
   257
176
     1
 90
        1
176
     1
 90
        1
176
     1
 40
1.0
176
     1
 90
        0
176
     1
 62
   257
176
     1
 40
1.0
176
     1
 90
        1
176
     1
 90
        6
176
     1
 90
        2
176
     1
 62
     7
176
     1
 90
        3
176
     1
 90
        0
176
     1
 90
        0
176
     1
290
     0
176
     1
 90
        1
176
     1
 40
0.0
176
     1
 90
        0
176
     1
290
     0
176
     1
290
     1
176
     1
290
     1
176
     1
290
     0
176
     1
290
     0
176
     1
290
     0
176
     1
290
     0
176
     1
290
     0
176
     1
290
     0
176
     1
 90
       50
176
     1
 40
0.0
176
     1
 40
1.0
176
     1
 90
        0
176
     1
 62
    18
420
        0
176
     1
 90
       50
176
     1
 90
        3
176
     1
 62
     5
420
      255
176
     1
290
     0
176
     1
 90
       50
176
     1
 90
       50
176
     1
 90
       50
176
     1
290
     0
176
     1
 90
       50
176
     1
 62
   256
176
     0
 40
1.0
176
     0
 90
        2
176
     1
  1
strokes_ogs.tif
176
     1
290
     0
176
     1
 40
1.0
176
     1
 40
1.0
176
     1
  0
VISUALSTYLE
  5
3C
102
{ACAD_REACTORS
330
29
102
}
330
29
100
AcDbVisualStyle
  2
X-Ray
 70
    25
177
     3
291
     0
 70
    58
 90
        2
176
     1
 90
        2
176
     1
 90
        1
176
     1
 90
        1
176
     1
 40
0.5
176
     1
 40
30.0
176
     1
 62
     7
420
 16777215
176
     1
 90
        1
176
     1
 90
        0
176
     1
 62
     7
176
     1
 62
   257
176
     1
 90
        1
176
     1
 90
        1
176
     1
 40
1.0
176
     1
 90
        8
176
     1
 62
     7
176
     1
 40
1.0
176
     1
 90
        1
176
     1
 90
        6
176
     1
 90
        2
176
     1
 62
     7
176
     1
 90
        3
176
     1
 90
        0
176
     1
 90
        0
176
     1
290
     0
176
     1
 90
       13
176
     1
 40
0.0
176
     1
 90
        0
176
     1
290
     0
176
     1
290
     1
176
     1
290
     1
176
     1
290
     0
176
     1
290
     0
176
     1
290
     0
176
     1
290
     0
176
     1
290
     0
176
     1
290
     0
176
     1
 90
       50
176
     1
 40
0.0
176
     1
 40
1.0
176
     1
 90
        0
176
     1
 62
    18
420
        0
176
     1
 90
       50
176
     1
 90
        3
176
     1
 62
     5
420
      255
176
     1
290
     0
176
     1
 90
       50
176
     1
 90
       50
176
     1
 90
       50
176
     1
290
     0
176
     1
 90
       50
176
     1
 62
   256
176
     0
 40
1.0
176
     0
 90
        2
176
     1
  1
strokes_ogs.tif
176
     1
290
     0
176
     1
 40
1.0
176
     1
 40
1.0
176
     1
  0
DICTIONARYVAR
  5
10D
102
{ACAD_REACTORS
330
108
102
}
330
108
100
DictionaryVariables
280
     0
  1
1:1
  0
DICTIONARYVAR
  5
10A
102
{ACAD_REACTORS
330
108
102
}
330
108
100
DictionaryVariables
280
     0
  1
STANDARD
  0
DICTIONARYVAR
  5
109
102
{ACAD_REACTORS
330
108
102
}
330
108
100
DictionaryVariables
280
     0
  1
STANDARD
  0
DICTIONARYVAR
  5
10B
102
{ACAD_REACTORS
330
108
102
}
330
108
100
DictionaryVariables
280
     0
  1
Imperial24
  0
DICTIONARYVAR
  5
10C
102
{ACAD_REACTORS
330
108
102
}
330
108
100
DictionaryVariables
280
     0
  1
Imperial24
  0
DICTIONARY
  5
1A
330
19
100
AcDbDictionary
280
     1
281
     1
  3
BUMPTILE
360
1C
  3
DIFFUSETILE
360
1B
  3
OPACITYTILE
360
1F
  3
REFLECTIONTILE
360
1E
  3
REFRACTIONTILE
360
20
  3
SPECULARTILE
360
1D
  0
DICTIONARY
  5
12
330
11
100
AcDbDictionary
280
     1
281
     1
  3
BUMPTILE
360
14
  3
DIFFUSETILE
360
13
  3
OPACITYTILE
360
17
  3
REFLECTIONTILE
360
16
  3
REFRACTIONTILE
360
18
  3
SPECULARTILE
360
15
  0
DICTIONARY
  5
22
330
21
100
AcDbDictionary
280
     1
281
     1
  3
BUMPTILE
360
24
  3
DIFFUSETILE
360
23
  3
OPACITYTILE
360
27
  3
REFLECTIONTILE
360
26
  3
REFRACTIONTILE
360
28
  3
SPECULARTILE
360
25
  0
DICTIONARY
  5
10E
330
65
100
AcDbDictionary
280
     1
281
     1
  3
ACAD_ROUNDTRIP_2008_TABLESTYLE_CELLSTYLEMAP
360
10F
  0
XRECORD
  5
1C
102
{ACAD_REACTORS
330
1A
102
}
330
1A
100
AcDbXrecord
280
     1
270
     1
271
     1
  0
XRECORD
  5
1B
102
{ACAD_REACTORS
330
1A
102
}
330
1A
100
AcDbXrecord
280
     1
270
     1
271
     1
  0
XRECORD
  5
1F
102
{ACAD_REACTORS
330
1A
102
}
330
1A
100
AcDbXrecord
280
     1
270
     1
271
     1
  0
XRECORD
  5
1E
102
{ACAD_REACTORS
330
1A
102
}
330
1A
100
AcDbXrecord
280
     1
270
     1
271
     1
  0
XRECORD
  5
20
102
{ACAD_REACTORS
330
1A
102
}
330
1A
100
AcDbXrecord
280
     1
270
     1
271
     1
  0
XRECORD
  5
1D
102
{ACAD_REACTORS
330
1A
102
}
330
1A
100
AcDbXrecord
280
     1
270
     1
271
     1
  0
XRECORD
  5
14
102
{ACAD_REACTORS
330
12
102
}
330
12
100
AcDbXrecord
280
     1
270
     1
271
     1
  0
XRECORD
  5
13
102
{ACAD_REACTORS
330
12
102
}
330
12
100
AcDbXrecord
280
     1
270
     1
271
     1
  0
XRECORD
  5
17
102
{ACAD_REACTORS
330
12
102
}
330
12
100
AcDbXrecord
280
     1
270
     1
271
     1
  0
XRECORD
  5
16
102
{ACAD_REACTORS
330
12
102
}
330
12
100
AcDbXrecord
280
     1
270
     1
271
     1
  0
XRECORD
  5
18
102
{ACAD_REACTORS
330
12
102
}
330
12
100
AcDbXrecord
280
     1
270
     1
271
     1
  0
XRECORD
  5
15
102
{ACAD_REACTORS
330
12
102
}
330
12
100
AcDbXrecord
280
     1
270
     1
271
     1
  0
XRECORD
  5
24
102
{ACAD_REACTORS
330
22
102
}
330
22
100
AcDbXrecord
280
     1
270
     1
271
     1
  0
XRECORD
  5
23
102
{ACAD_REACTORS
330
22
102
}
330
22
100
AcDbXrecord
280
     1
270
     1
271
     1
  0
XRECORD
  5
27
102
{ACAD_REACTORS
330
22
102
}
330
22
100
AcDbXrecord
280
     1
270
     1
271
     1
  0
XRECORD
  5
26
102
{ACAD_REACTORS
330
22
102
}
330
22
100
AcDbXrecord
280
     1
270
     1
271
     1
  0
XRECORD
  5
28
102
{ACAD_REACTORS
330
22
102
}
330
22
100
AcDbXrecord
280
     1
270
     1
271
     1
  0
XRECORD
  5
25
102
{ACAD_REACTORS
330
22
102
}
330
22
100
AcDbXrecord
280
     1
270
     1
271
     1
  0
CELLSTYLEMAP
  5
10F
102
{ACAD_REACTORS
330
10E
102
}
330
10E
100
AcDbCellStyleMap
 90
        3
300
CELLSTYLE
  1
TABLEFORMAT_BEGIN
 90
        5
170
     1
 91
        0
 92
    32768
 62
   257
 93
        1
300
CONTENTFORMAT
  1
CONTENTFORMAT_BEGIN
 90
        0
 91
        0
 92
      512
 93
        0
300

 40
0.0
140
1.0
 94
        5
 62
     0
340
55
144
0.25
309
CONTENTFORMAT_END
171
     0
 94
        0
309
TABLEFORMAT_END
  1
CELLSTYLE_BEGIN
 90
        1
 91
        1
300
_TITLE
309
CELLSTYLE_END
300
CELLSTYLE
  1
TABLEFORMAT_BEGIN
 90
        5
170
     1
 91
        0
 92
        0
 62
   257
 93
        1
300
CONTENTFORMAT
  1
CONTENTFORMAT_BEGIN
 90
        0
 91
        0
 92
      512
 93
        0
300

 40
0.0
140
1.0
 94
        5
 62
     0
340
55
144
0.18
309
CONTENTFORMAT_END
171
     0
 94
        0
309
TABLEFORMAT_END
  1
CELLSTYLE_BEGIN
 90
        2
 91
        1
300
_HEADER
309
CELLSTYLE_END
300
CELLSTYLE
  1
TABLEFORMAT_BEGIN
 90
        5
170
     1
 91
        0
 92
        0
 62
   257
 93
        1
300
CONTENTFORMAT
  1
CONTENTFORMAT_BEGIN
 90
        0
 91
        0
 92
      512
 93
        0
300

 40
0.0
140
1.0
 94
        2
 62
     0
340
55
144
0.18
309
CONTENTFORMAT_END
171
     0
 94
        0
309
TABLEFORMAT_END
  1
CELLSTYLE_BEGIN
 90
        3
 91
        2
300
_DATA
309
CELLSTYLE_END
  0
ENDSEC
  0
EOF
