  0
SECTION
  2
HEADER
  9
$ACADVER
  1
AC1032
  9
$ACADMAINTVER
 90
      228
  9
$DWGCODEPAGE
  3
ANSI_932
  9
$REQUIREDVERSIONS
160
                 0
  9
$INSBASE
 10
0.0
 20
0.0
 30
0.0
  9
$EXTMIN
 10
1.000000000000000E+20
 20
1.000000000000000E+20
 30
1.000000000000000E+20
  9
$EXTMAX
 10
-1.000000000000000E+20
 20
-1.000000000000000E+20
 30
-1.000000000000000E+20
  9
$LIMMIN
 10
0.0
 20
0.0
  9
$LIMMAX
 10
12.0
 20
9.0
  9
$ORTHOMODE
 70
     0
  9
$REGENMODE
 70
     1
  9
$FILLMODE
 70
     1
  9
$QTEXTMODE
 70
     0
  9
$MIRRTEXT
 70
     0
  9
$LTSCALE
 40
1.0
  9
$ATTMODE
 70
     1
  9
$TEXTSIZE
 40
0.2
  9
$TRACEWID
 40
0.05
  9
$TEXTSTYLE
  7
Standard
  9
$CLAYER
  8
0
  9
$CELTYPE
  6
ByLayer
  9
$CECOLOR
 62
   256
  9
$CELTSCALE
 40
1.0
  9
$DISPSILH
 70
     0
  9
$DIMSCALE
 40
1.0
  9
$DIMASZ
 40
0.18
  9
$DIMEXO
 40
0.0625
  9
$DIMDLI
 40
0.38
  9
$DIMRND
 40
0.0
  9
$DIMDLE
 40
0.0
  9
$DIMEXE
 40
0.18
  9
$DIMTP
 40
0.0
  9
$DIMTM
 40
0.0
  9
$DIMTXT
 40
0.18
  9
$DIMCEN
 40
0.09
  9
$DIMTSZ
 40
0.0
  9
$DIMTOL
 70
     0
  9
$DIMLIM
 70
     0
  9
$DIMTIH
 70
     1
  9
$DIMTOH
 70
     1
  9
$DIMSE1
 70
     0
  9
$DIMSE2
 70
     0
  9
$DIMTAD
 70
     0
  9
$DIMZIN
 70
     0
  9
$DIMBLK
  1

  9
$DIMASO
 70
     1
  9
$DIMSHO
 70
     1
  9
$DIMPOST
  1

  9
$DIMAPOST
  1

  9
$DIMALT
 70
     0
  9
$DIMALTD
 70
     2
  9
$DIMALTF
 40
25.4
  9
$DIMLFAC
 40
1.0
  9
$DIMTOFL
 70
     0
  9
$DIMTVP
 40
0.0
  9
$DIMTIX
 70
     0
  9
$DIMSOXD
 70
     0
  9
$DIMSAH
 70
     0
  9
$DIMBLK1
  1

  9
$DIMBLK2
  1

  9
$DIMSTYLE
  2
Standard
  9
$DIMCLRD
 70
     0
  9
$DIMCLRE
 70
     0
  9
$DIMCLRT
 70
     0
  9
$DIMTFAC
 40
1.0
  9
$DIMGAP
 40
0.09
  9
$DIMJUST
 70
     0
  9
$DIMSD1
 70
     0
  9
$DIMSD2
 70
     0
  9
$DIMTOLJ
 70
     1
  9
$DIMTZIN
 70
     0
  9
$DIMALTZ
 70
     0
  9
$DIMALTTZ
 70
     0
  9
$DIMUPT
 70
     0
  9
$DIMDEC
 70
     4
  9
$DIMTDEC
 70
     4
  9
$DIMALTU
 70
     2
  9
$DIMALTTD
 70
     2
  9
$DIMTXSTY
  7
Standard
  9
$DIMAUNIT
 70
     0
  9
$DIMADEC
 70
     0
  9
$DIMALTRND
 40
0.0
  9
$DIMAZIN
 70
     0
  9
$DIMDSEP
 70
    46
  9
$DIMATFIT
 70
     3
  9
$DIMFRAC
 70
     0
  9
$DIMLDRBLK
  1

  9
$DIMLUNIT
 70
     2
  9
$DIMLWD
 70
    -2
  9
$DIMLWE
 70
    -2
  9
$DIMTMOVE
 70
     0
  9
$DIMFXL
 40
1.0
  9
$DIMFXLON
 70
     0
  9
$DIMJOGANG
 40
0.7853981633974483
  9
$DIMTFILL
 70
     0
  9
$DIMTFILLCLR
 70
     0
  9
$DIMARCSYM
 70
     0
  9
$DIMLTYPE
  6

  9
$DIMLTEX1
  6

  9
$DIMLTEX2
  6

  9
$DIMTXTDIRECTION
 70
     0
  9
$LUNITS
 70
     2
  9
$LUPREC
 70
     4
  9
$SKETCHINC
 40
0.1
  9
$FILLETRAD
 40
0.0
  9
$AUNITS
 70
     0
  9
$AUPREC
 70
     0
  9
$MENU
  1
.
  9
$ELEVATION
 40
0.0
  9
$PELEVATION
 40
0.0
  9
$THICKNESS
 40
0.0
  9
$LIMCHECK
 70
     0
  9
$CHAMFERA
 40
0.0
  9
$CHAMFERB
 40
0.0
  9
$CHAMFERC
 40
0.0
  9
$CHAMFERD
 40
0.0
  9
$SKPOLY
 70
     0
  9
$TDCREATE
 40
2460061.773321760
  9
$TDUCREATE
 40
2460061.398321760
  9
$TDUPDATE
 40
2460061.773321760
  9
$TDUUPDATE
 40
2460061.398321760
  9
$TDINDWG
 40
0.0000000000
  9
$TDUSRTIMER
 40
0.0000000000
  9
$USRTIMER
 70
     1
  9
$ANGBASE
 50
0.0
  9
$ANGDIR
 70
     0
  9
$PDMODE
 70
     0
  9
$PDSIZE
 40
0.0
  9
$PLINEWID
 40
0.0
  9
$SPLFRAME
 70
     0
  9
$SPLINETYPE
 70
     6
  9
$SPLINESEGS
 70
     8
  9
$HANDSEED
  5
10F
  9
$SURFTAB1
 70
     6
  9
$SURFTAB2
 70
     6
  9
$SURFTYPE
 70
     6
  9
$SURFU
 70
     6
  9
$SURFV
 70
     6
  9
$UCSBASE
  2

  9
$UCSNAME
  2

  9
$UCSORG
 10
0.0
 20
0.0
 30
0.0
  9
$UCSXDIR
 10
1.0
 20
0.0
 30
0.0
  9
$UCSYDIR
 10
0.0
 20
1.0
 30
0.0
  9
$UCSORTHOREF
  2

  9
$UCSORTHOVIEW
 70
     0
  9
$UCSORGTOP
 10
0.0
 20
0.0
 30
0.0
  9
$UCSORGBOTTOM
 10
0.0
 20
0.0
 30
0.0
  9
$UCSORGLEFT
 10
0.0
 20
0.0
 30
0.0
  9
$UCSORGRIGHT
 10
0.0
 20
0.0
 30
0.0
  9
$UCSORGFRONT
 10
0.0
 20
0.0
 30
0.0
  9
$UCSORGBACK
 10
0.0
 20
0.0
 30
0.0
  9
$PUCSBASE
  2

  9
$PUCSNAME
  2

  9
$PUCSORG
 10
0.0
 20
0.0
 30
0.0
  9
$PUCSXDIR
 10
1.0
 20
0.0
 30
0.0
  9
$PUCSYDIR
 10
0.0
 20
1.0
 30
0.0
  9
$PUCSORTHOREF
  2

  9
$PUCSORTHOVIEW
 70
     0
  9
$PUCSORGTOP
 10
0.0
 20
0.0
 30
0.0
  9
$PUCSORGBOTTOM
 10
0.0
 20
0.0
 30
0.0
  9
$PUCSORGLEFT
 10
0.0
 20
0.0
 30
0.0
  9
$PUCSORGRIGHT
 10
0.0
 20
0.0
 30
0.0
  9
$PUCSORGFRONT
 10
0.0
 20
0.0
 30
0.0
  9
$PUCSORGBACK
 10
0.0
 20
0.0
 30
0.0
  9
$USERI1
 70
     0
  9
$USERI2
 70
     0
  9
$USERI3
 70
     0
  9
$USERI4
 70
     0
  9
$USERI5
 70
     0
  9
$USERR1
 40
0.0
  9
$USERR2
 40
0.0
  9
$USERR3
 40
0.0
  9
$USERR4
 40
0.0
  9
$USERR5
 40
0.0
  9
$WORLDVIEW
 70
     1
  9
$SHADEDGE
 70
     3
  9
$SHADEDIF
 70
    70
  9
$TILEMODE
 70
     1
  9
$MAXACTVP
 70
    64
  9
$PINSBASE
 10
0.0
 20
0.0
 30
0.0
  9
$PLIMCHECK
 70
     0
  9
$PEXTMIN
 10
1.000000000000000E+20
 20
1.000000000000000E+20
 30
1.000000000000000E+20
  9
$PEXTMAX
 10
-1.000000000000000E+20
 20
-1.000000000000000E+20
 30
-1.000000000000000E+20
  9
$PLIMMIN
 10
0.0
 20
0.0
  9
$PLIMMAX
 10
12.0
 20
9.0
  9
$UNITMODE
 70
     0
  9
$VISRETAIN
 70
     1
  9
$PLINEGEN
 70
     0
  9
$PSLTSCALE
 70
     1
  9
$TREEDEPTH
 70
  3020
  9
$CMLSTYLE
  2
Standard
  9
$CMLJUST
 70
     0
  9
$CMLSCALE
 40
1.0
  9
$PROXYGRAPHICS
 70
     1
  9
$MEASUREMENT
 70
     0
  9
$CELWEIGHT
370
    -1
  9
$ENDCAPS
280
     0
  9
$JOINSTYLE
280
     0
  9
$LWDISPLAY
290
     1
  9
$INSUNITS
 70
     4
  9
$HYPERLINKBASE
  1

  9
$STYLESHEET
  1

  9
$XEDIT
290
     1
  9
$CEPSNTYPE
380
     0
  9
$PSTYLEMODE
290
     1
  9
$FINGERPRINTGUID
  2
{A38165D0-7C6D-DF4A-A150-EA3A736D68CE}
  9
$VERSIONGUID
  2
{248D3C5F-B817-6844-86CC-34C61C080DB2}
  9
$EXTNAMES
290
     1
  9
$PSVPSCALE
 40
0.0
  9
$OLESTARTUP
290
     0
  9
$SORTENTS
280
   127
  9
$INDEXCTL
280
     0
  9
$HIDETEXT
280
     1
  9
$XCLIPFRAME
280
     2
  9
$HALOGAP
280
     0
  9
$OBSCOLOR
 70
   257
  9
$OBSLTYPE
280
     0
  9
$INTERSECTIONDISPLAY
280
     0
  9
$INTERSECTIONCOLOR
 70
   257
  9
$DIMASSOC
280
     2
  9
$PROJECTNAME
  1

  9
$CAMERADISPLAY
290
     0
  9
$LENSLENGTH
 40
50.0
  9
$CAMERAHEIGHT
 40
0.0
  9
$STEPSPERSEC
 40
2.0
  9
$STEPSIZE
 40
6.0
  9
$3DDWFPREC
 40
2.0
  9
$PSOLWIDTH
 40
0.25
  9
$PSOLHEIGHT
 40
4.0
  9
$LOFTANG1
 40
1.570796326794896
  9
$LOFTANG2
 40
1.570796326794896
  9
$LOFTMAG1
 40
0.0
  9
$LOFTMAG2
 40
0.0
  9
$LOFTPARAM
 70
     7
  9
$LOFTNORMALS
280
     1
  9
$LATITUDE
 40
37.795
  9
$LONGITUDE
 40
-122.394
  9
$NORTHDIRECTION
 40
0.0
  9
$TIMEZONE
 70
 -8000
  9
$LIGHTGLYPHDISPLAY
280
     1
  9
$TILEMODELIGHTSYNCH
280
     1
  9
$CMATERIAL
347
11
  9
$SOLIDHIST
280
     0
  9
$SHOWHIST
280
     1
  9
$DWFFRAME
280
     2
  9
$DGNFRAME
280
     0
  9
$REALWORLDSCALE
290
     1
  9
$INTERFERECOLOR
 62
     1
  9
$INTERFEREOBJVS
345
33
  9
$INTERFEREVPVS
346
30
  9
$CSHADOW
280
     0
  9
$SHADOWPLANELOCATION
 40
0.0
  0
ENDSEC
  0
SECTION
  2
CLASSES
  0
CLASS
  1
ACDBDICTIONARYWDFLT
  2
AcDbDictionaryWithDefault
  3
ObjectDBX Classes
 90
        0
 91
        1
280
     0
281
     0
  0
CLASS
  1
MATERIAL
  2
AcDbMaterial
  3
ObjectDBX Classes
 90
     1153
 91
        3
280
     0
281
     0
  0
CLASS
  1
VISUALSTYLE
  2
AcDbVisualStyle
  3
ObjectDBX Classes
 90
     4095
 91
       24
280
     0
281
     0
  0
CLASS
  1
SCALE
  2
AcDbScale
  3
ObjectDBX Classes
 90
     1153
 91
       17
280
     0
281
     0
  0
CLASS
  1
TABLESTYLE
  2
AcDbTableStyle
  3
ObjectDBX Classes
 90
     4095
 91
        1
280
     0
281
     0
  0
CLASS
  1
MLEADERSTYLE
  2
AcDbMLeaderStyle
  3
ACDB_MLEADERSTYLE_CLASS
 90
     4095
 91
        1
280
     0
281
     0
  0
CLASS
  1
ACDBSECTIONVIEWSTYLE
  2
AcDbSectionViewStyle
  3
ObjectDBX Classes
 90
     1025
 91
        1
280
     0
281
     0
  0
CLASS
  1
ACDBDETAILVIEWSTYLE
  2
AcDbDetailViewStyle
  3
ObjectDBX Classes
 90
     1025
 91
        1
280
     0
281
     0
  0
CLASS
  1
DICTIONARYVAR
  2
AcDbDictionaryVar
  3
ObjectDBX Classes
 90
        0
 91
        5
280
     0
281
     0
  0
CLASS
  1
CELLSTYLEMAP
  2
AcDbCellStyleMap
  3
ObjectDBX Classes
 90
     1152
 91
        1
280
     0
281
     0
  0
ENDSEC
  0
SECTION
  2
TABLES
  0
TABLE
  2
VPORT
  5
8
330
0
100
AcDbSymbolTable
 70
     1
  0
VPORT
  5
57
330
8
100
AcDbSymbolTableRecord
100
AcDbViewportTableRecord
  2
*Active
 70
     0
 10
0.0
 20
0.0
 11
1.0
 21
1.0
 12
0.0
 22
0.0
 13
0.0
 23
0.0
 14
1.0
 24
1.0
 15
0.0
 25
0.0
 16
0.0
 26
0.0
 36
1.0
 17
338.666666582
 27
184.6130712394693
 37
0.0
 40
401.41067823356
 41
1.721130097653488
 42
50.0
 43
0.0
 44
0.0
 50
0.0
 51
0.0
 71
     0
 72
   100
 73
     1
 74
     1
 75
     0
 76
     0
 77
     0
 78
     0
281
     0
 65
     1
110
0.0
120
0.0
130
0.0
111
1.0
121
0.0
131
0.0
112
0.0
122
1.0
132
0.0
 79
     0
146
0.0
 60
     3
 61
     5
292
     1
282
     1
141
0.0
142
0.0
 63
   250
421
  3355443
  0
ENDTAB
  0
TABLE
  2
LTYPE
  5
5
330
0
100
AcDbSymbolTable
 70
     3
  0
LTYPE
  5
5B
330
5
100
AcDbSymbolTableRecord
100
AcDbLinetypeTableRecord
  2
ByBlock
 70
     0
  3

 72
    65
 73
     0
 40
0.0
  0
LTYPE
  5
5C
330
5
100
AcDbSymbolTableRecord
100
AcDbLinetypeTableRecord
  2
ByLayer
 70
     0
  3

 72
    65
 73
     0
 40
0.0
  0
LTYPE
  5
5D
330
5
100
AcDbSymbolTableRecord
100
AcDbLinetypeTableRecord
  2
Continuous
 70
     0
  3
Solid line
 72
    65
 73
     0
 40
0.0
  0
LTYPE
  5
8C
330
5
100
AcDbSymbolTableRecord
100
AcDbLinetypeTableRecord
  2
AI-Linetype-0
 70
     0
  3
Adobe Illustrator Linetype No. 0
 72
    65
 73
     2
 40
0.971669395025046
 49
0.6477795966833641
 74
     0
 49
-0.323889798341682
 74
     0
  0
LTYPE
  5
8E
330
5
100
AcDbSymbolTableRecord
100
AcDbLinetypeTableRecord
  2
AI-Linetype-1
 70
     0
  3
Adobe Illustrator Linetype No. 1
 72
    65
 73
     2
 40
0.971669395025046
 49
0.6477795966833641
 74
     0
 49
-0.323889798341682
 74
     0
  0
ENDTAB
  0
TABLE
  2
LAYER
  5
2
330
0
100
AcDbSymbolTable
 70
     5
  0
LAYER
  5
54
330
2
100
AcDbSymbolTableRecord
100
AcDbLayerTableRecord
  2
0
 70
     0
 62
     7
  6
Continuous
370
     0
390
F
347
21
348
0
  0
LAYER
  5
7A
330
2
100
AcDbSymbolTableRecord
100
AcDbLayerTableRecord
  2
FLAME
 70
     0
 62
     7
  6
Continuous
370
     0
390
F
347
21
348
0
  0
LAYER
  5
82
330
2
100
AcDbSymbolTableRecord
100
AcDbLayerTableRecord
  2
Defpoints
 70
     0
 62
     7
  6
Continuous
290
     0
370
     0
390
F
347
21
348
0
  0
LAYER
  5
84
330
2
100
AcDbSymbolTableRecord
100
AcDbLayerTableRecord
  2
TEXT
 70
     0
 62
     7
  6
Continuous
370
     0
390
F
347
21
348
0
  0
LAYER
  5
88
330
2
100
AcDbSymbolTableRecord
100
AcDbLayerTableRecord
  2
SHADE
 70
     0
 62
     7
  6
Continuous
370
     0
390
F
347
21
348
0
  0
ENDTAB
  0
TABLE
  2
STYLE
  5
3
330
0
100
AcDbSymbolTable
 70
     2
  0
STYLE
  5
55
330
3
100
AcDbSymbolTableRecord
100
AcDbTextStyleTableRecord
  2
Standard
 70
     0
 40
0.0
 41
1.0
 50
0.0
 71
     0
 42
0.2
  3
txt
  4

  0
STYLE
  5
5A
330
3
100
AcDbSymbolTableRecord
100
AcDbTextStyleTableRecord
  2
Annotative
 70
     0
 40
0.0
 41
1.0
 50
0.0
 71
     0
 42
0.2
  3
txt
  4

1001
AcadAnnotative
1000
AnnotativeData
1002
{
1070
     1
1070
     1
1002
}
  0
ENDTAB
  0
TABLE
  2
VIEW
  5
6
330
0
100
AcDbSymbolTable
 70
     0
  0
ENDTAB
  0
TABLE
  2
UCS
  5
7
330
0
100
AcDbSymbolTable
 70
     0
  0
ENDTAB
  0
TABLE
  2
APPID
  5
9
330
0
100
AcDbSymbolTable
 70
     2
  0
APPID
  5
56
330
9
100
AcDbSymbolTableRecord
100
AcDbRegAppTableRecord
  2
ACAD
 70
     0
  0
APPID
  5
5E
330
9
100
AcDbSymbolTableRecord
100
AcDbRegAppTableRecord
  2
AcadAnnotative
 70
     0
  0
ENDTAB
  0
TABLE
  2
DIMSTYLE
  5
A
330
0
100
AcDbSymbolTable
 70
     2
100
AcDbDimStyleTable
 71
     0
  0
DIMSTYLE
105
58
330
A
100
AcDbSymbolTableRecord
100
AcDbDimStyleTableRecord
  2
Standard
 70
     0
340
55
  0
DIMSTYLE
105
59
330
A
100
AcDbSymbolTableRecord
100
AcDbDimStyleTableRecord
  2
Annotative
 70
     0
340
55
1001
AcadAnnotative
1000
AnnotativeData
1002
{
1070
     1
1070
     1
1002
}
  0
ENDTAB
  0
TABLE
  2
BLOCK_RECORD
  5
1
330
0
100
AcDbSymbolTable
 70
     1
  0
BLOCK_RECORD
  5
70
330
1
100
AcDbSymbolTableRecord
100
AcDbBlockTableRecord
  2
*Model_Space
340
73
 70
     0
280
     1
281
     0
  0
BLOCK_RECORD
  5
6C
330
1
100
AcDbSymbolTableRecord
100
AcDbBlockTableRecord
  2
*Paper_Space
340
6F
 70
     0
280
     1
281
     0
  0
BLOCK_RECORD
  5
74
330
1
100
AcDbSymbolTableRecord
100
AcDbBlockTableRecord
  2
*Paper_Space0
340
77
 70
     0
280
     1
281
     0
  0
ENDTAB
  0
ENDSEC
  0
SECTION
  2
BLOCKS
  0
BLOCK
  5
71
330
70
100
AcDbEntity
  8
0
100
AcDbBlockBegin
  2
*Model_Space
 70
     0
 10
0.0
 20
0.0
 30
0.0
  3
*Model_Space
  1

  0
ENDBLK
  5
72
330
70
100
AcDbEntity
  8
0
100
AcDbBlockEnd
  0
BLOCK
  5
6D
330
6C
100
AcDbEntity
 67
     1
  8
0
100
AcDbBlockBegin
  2
*Paper_Space
 70
     0
 10
0.0
 20
0.0
 30
0.0
  3
*Paper_Space
  1

  0
ENDBLK
  5
6E
330
6C
100
AcDbEntity
 67
     1
  8
0
100
AcDbBlockEnd
  0
BLOCK
  5
75
330
74
100
AcDbEntity
 67
     1
  8
0
100
AcDbBlockBegin
  2
*Paper_Space0
 70
     0
 10
0.0
 20
0.0
 30
0.0
  3
*Paper_Space0
  1

  0
ENDBLK
  5
76
330
74
100
AcDbEntity
 67
     1
  8
0
100
AcDbBlockEnd
  0
ENDSEC
  0
SECTION
  2
ENTITIES
  0
MTEXT
  5
78
330
70
100
AcDbEntity
  8
0
100
AcDbMText
 10
0.0
 20
363.8491087957565
 30
0.0
 40
0.2
 41
0.0
 46
0.0
 71
     7
 72
     1
  1
\C4;\c16776960;\FKozuka Gothic Pr6N R|b0|i0|c128;\H0.979320;\W0.833333;　
 73
     1
 44
1.0
  0
MTEXT
  5
79
330
70
100
AcDbEntity
  8
0
100
AcDbMText
 10
7.561629314651476
 20
363.8217202866488
 30
0.0
 40
0.2
 41
0.0
 46
0.0
 71
     7
 72
     1
  1
\C4;\c16776960;\FKozuka Gothic Pr6N R|b0|i0|c128;\H0.979320;\W0.833333;　
 73
     1
 44
1.0
  0
LINE
  5
7B
330
70
100
AcDbEntity
  8
FLAME
 62
     2
420
 16776960
370
    25
100
AcDbLine
 10
433.586206108688
 20
263.4874559593071
 30
0.0
 11
433.586206108688
 21
116.9566493450534
 31
0.0
  0
LINE
  5
7C
330
70
100
AcDbEntity
  8
FLAME
 62
     2
420
 16776960
370
    25
100
AcDbLine
 10
307.9883718679001
 20
116.9566493450534
 30
0.0
 11
307.9883718679001
 21
263.4874559593071
 31
0.0
  0
LINE
  5
7D
330
70
100
AcDbEntity
  8
FLAME
 62
     2
420
 16776960
370
    25
100
AcDbLine
 10
433.586206108688
 20
116.9566493450534
 30
0.0
 11
307.9883718679001
 21
116.9566493450534
 31
0.0
  0
LINE
  5
7E
330
70
100
AcDbEntity
  8
FLAME
 62
     2
420
 16776960
370
    25
100
AcDbLine
 10
433.586206108688
 20
123.9343068028772
 30
0.0
 11
307.9883718679001
 21
123.9343068028772
 31
0.0
  0
LINE
  5
7F
330
70
100
AcDbEntity
  8
FLAME
 62
     2
420
 16776960
370
    25
100
AcDbLine
 10
433.586206108688
 20
130.9119642606958
 30
0.0
 11
307.9883718679001
 21
130.9119642606958
 31
0.0
  0
LINE
  5
80
330
70
100
AcDbEntity
  8
FLAME
 62
     2
420
 16776960
370
    25
100
AcDbLine
 10
433.586206108688
 20
137.8896217185196
 30
0.0
 11
307.9883718679001
 21
137.8896217185196
 31
0.0
  0
LINE
  5
81
330
70
100
AcDbEntity
  8
FLAME
 62
     2
420
 16776960
370
    25
100
AcDbLine
 10
433.586206108688
 20
263.4874559593071
 30
0.0
 11
307.9883718679001
 21
263.4874559593071
 31
0.0
  0
LWPOLYLINE
  5
83
330
70
100
AcDbEntity
  8
Defpoints
 62
     1
420
 16711680
370
     0
100
AcDbPolyline
 90
        4
 70
     1
 43
0.0
 10
241.214133183628
 20
381.383011550038
 10
513.3427740386723
 20
381.383011550038
 10
513.3427740386723
 20
-12.15686907109926
 10
241.214133183628
 20
-12.15686907109926
  0
MTEXT
  5
85
330
70
100
AcDbEntity
  8
TEXT
100
AcDbMText
 10
312.8007844586648
 20
125.5254271034504
 30
0.0
 40
0.2
 41
0.0
 46
0.0
 71
     7
 72
     1
  1
\C4;\c16776960;\FMS PMincho|b0|i0|c128;\H3.488829;\W1.000000;KP1313S/KP1313SCP
 73
     1
 44
1.0
  0
MTEXT
  5
86
330
70
100
AcDbEntity
  8
TEXT
100
AcDbMText
 10
312.8007844586648
 20
132.5024344801783
 30
0.0
 40
0.2
 41
0.0
 46
0.0
 71
     7
 72
     1
  1
\C4;\c16776960;\FMS PMincho|b0|i0|c128;\H3.488829;\W1.000000;ペンダント　スワール3S
 73
     1
 44
1.0
  0
MTEXT
  5
87
330
70
100
AcDbEntity
  8
TEXT
100
AcDbMText
 10
312.7925162295002
 20
118.7802746528797
 30
0.0
 40
0.2
 41
0.0
 46
0.0
 71
     7
 72
     1
  1
\C4;\c16776960;\FMS PMincho|b0|i0|c128;\H3.488829;\W0.840675;E17 LED電球（40W相当　電球色　全方向/広配光タイプ）
 73
     1
 44
1.0
  0
LINE
  5
89
330
70
100
AcDbEntity
  8
SHADE
 62
     6
420
 16711935
370
     9
100
AcDbLine
 10
372.2626365128336
 20
226.3365950484136
 30
0.0
 11
372.2626365128336
 21
203.5568598082817
 31
0.0
  0
LINE
  5
8A
330
70
100
AcDbEntity
  8
SHADE
 62
     6
420
 16711935
370
     9
100
AcDbLine
 10
371.7044239162088
 20
226.3365950484136
 30
0.0
 11
371.7044239162088
 21
203.5568598082817
 31
0.0
  0
LINE
  5
8B
330
70
100
AcDbEntity
  8
SHADE
  6
AI-Linetype-0
 62
     6
420
 16711935
370
     9
100
AcDbLine
 10
371.9835302145215
 20
202.8652582076087
 30
0.0
 11
371.9835302145215
 21
201.4139069077363
 31
0.0
  0
LINE
  5
8D
330
70
100
AcDbEntity
  8
SHADE
  6
AI-Linetype-1
 62
     6
420
 16711935
370
     9
100
AcDbLine
 10
371.9835302145215
 20
201.4139069077363
 30
0.0
 11
371.9835302145215
 21
201.3449599208899
 31
0.0
  0
SPLINE
  5
8F
330
70
100
AcDbEntity
  8
SHADE
 62
     6
420
 16711935
370
     9
100
AcDbSpline
210
0.0
220
0.0
230
1.0
 70
     8
 71
     3
 72
    14
 73
    10
 74
     0
 42
0.0000000001
 43
0.0000000001
 40
0.0
 40
0.0
 40
0.0
 40
0.0
 40
1.0
 40
1.0
 40
1.0
 40
2.0
 40
2.0
 40
2.0
 40
3.0
 40
3.0
 40
3.0
 40
3.0
 10
379.5506095094498
 20
173.231700563562
 30
0.0
 10
379.5544270283059
 20
173.2246578994684
 30
0.0
 10
379.5582445471619
 20
173.2176810546596
 30
0.0
 10
379.5619304274373
 20
173.2106383905608
 30
0.0
 10
379.3485442872287
 20
172.2405936853325
 30
0.0
 10
378.0903427276409
 20
172.0852601594572
 30
0.0
 10
377.1349099049283
 20
171.895700602457
 30
0.0
 10
376.7988366069984
 20
171.8290914803475
 30
0.0
 10
376.4611836460947
 20
171.7944705334753
 30
0.0
 10
376.187507035675
 20
171.7112749501257
 30
0.0
  0
SPLINE
  5
90
330
70
100
AcDbEntity
  8
SHADE
 62
     6
420
 16711935
370
     9
100
AcDbSpline
210
0.0
220
0.0
230
1.0
 70
     8
 71
     3
 72
     8
 73
     4
 74
     0
 42
0.0000000001
 43
0.0000000001
 40
0.0
 40
0.0
 40
0.0
 40
0.0
 40
1.0
 40
1.0
 40
1.0
 40
1.0
 10
357.1564515250774
 20
191.6219394606379
 30
0.0
 10
357.7088728312913
 20
191.8933123958849
 30
0.0
 10
358.2404294223816
 20
192.2842131629047
 30
0.0
 10
358.7895597640679
 20
192.5842833088655
 30
0.0
  0
SPLINE
  5
91
330
70
100
AcDbEntity
  8
SHADE
 62
     6
420
 16711935
370
     9
100
AcDbSpline
210
0.0
220
0.0
230
1.0
 70
     8
 71
     3
 72
     8
 73
     4
 74
     0
 42
0.0000000001
 43
0.0000000001
 40
0.0
 40
0.0
 40
0.0
 40
0.0
 40
1.0
 40
1.0
 40
1.0
 40
1.0
 10
358.7895597640679
 20
192.5842833088655
 30
0.0
 10
359.9002602933607
 20
193.3764184715379
 30
0.0
 10
361.1570796478458
 20
194.0009777202775
 30
0.0
 10
362.282062963211
 20
194.7759340480934
 30
0.0
  0
SPLINE
  5
92
330
70
100
AcDbEntity
  8
SHADE
 62
     6
420
 16711935
370
     9
100
AcDbSpline
210
0.0
220
0.0
230
1.0
 70
     8
 71
     3
 72
     8
 73
     4
 74
     0
 42
0.0000000001
 43
0.0000000001
 40
0.0
 40
0.0
 40
0.0
 40
0.0
 40
1.0
 40
1.0
 40
1.0
 40
1.0
 10
361.2310605305082
 20
186.8019269888767
 30
0.0
 10
361.2773314918162
 20
186.8411552860898
 30
0.0
 10
361.3065552568514
 20
186.8452360821094
 30
0.0
 10
361.3604612558753
 20
186.8666931708547
 30
0.0
  0
LINE
  5
93
330
70
100
AcDbEntity
  8
SHADE
 62
     6
420
 16711935
370
     9
100
AcDbLine
 10
367.7472361216725
 20
171.7760411320998
 30
0.0
 11
367.7472361216725
 21
171.7760411320998
 31
0.0
  0
SPLINE
  5
94
330
70
100
AcDbEntity
  8
SHADE
 62
     6
420
 16711935
370
     9
100
AcDbSpline
210
0.0
220
0.0
230
1.0
 70
     8
 71
     3
 72
     8
 73
     4
 74
     0
 42
0.0000000001
 43
0.0000000001
 40
0.0
 40
0.0
 40
0.0
 40
0.0
 40
1.0
 40
1.0
 40
1.0
 40
1.0
 10
371.2074220491164
 20
171.1370674587131
 30
0.0
 10
371.1763553439405
 20
171.2958235877009
 30
0.0
 10
371.0688724423508
 20
171.4142983108252
 30
0.0
 10
371.0133867803544
 20
171.5656826792647
 30
0.0
  0
SPLINE
  5
95
330
70
100
AcDbEntity
  8
SHADE
 62
     6
420
 16711935
370
     9
100
AcDbSpline
210
0.0
220
0.0
230
1.0
 70
     8
 71
     3
 72
     8
 73
     4
 74
     0
 42
0.0000000001
 43
0.0000000001
 40
0.0
 40
0.0
 40
0.0
 40
0.0
 40
1.0
 40
1.0
 40
1.0
 40
1.0
 10
371.2074220491164
 20
171.1370674587131
 30
0.0
 10
371.3675603832076
 20
171.1294324210017
 30
0.0
 10
371.5314504168637
 20
171.1516793412332
 30
0.0
 10
371.6925102210249
 20
171.1614205962437
 30
0.0
  0
SPLINE
  5
96
330
70
100
AcDbEntity
  8
SHADE
 62
     6
420
 16711935
370
     9
100
AcDbSpline
210
0.0
220
0.0
230
1.0
 70
     8
 71
     3
 72
     8
 73
     4
 74
     0
 42
0.0000000001
 43
0.0000000001
 40
0.0
 40
0.0
 40
0.0
 40
0.0
 40
1.0
 40
1.0
 40
1.0
 40
1.0
 10
371.6925102210249
 20
171.1614205962437
 30
0.0
 10
373.1603462212508
 20
171.4266723374658
 30
0.0
 10
374.711246166247
 20
171.4978888099222
 30
0.0
 10
376.187507035675
 20
171.7112749501257
 30
0.0
  0
SPLINE
  5
97
330
70
100
AcDbEntity
  8
SHADE
 62
     6
420
 16711935
370
     9
100
AcDbSpline
210
0.0
220
0.0
230
1.0
 70
     8
 71
     3
 72
    14
 73
    10
 74
     0
 42
0.0000000001
 43
0.0000000001
 40
0.0
 40
0.0
 40
0.0
 40
0.0
 40
1.0
 40
1.0
 40
1.0
 40
2.0
 40
2.0
 40
2.0
 40
3.0
 40
3.0
 40
3.0
 40
3.0
 10
371.6925102210249
 20
171.1614205962437
 30
0.0
 10
371.6994870658292
 20
171.1543121128595
 30
0.0
 10
371.706529729928
 20
171.1472036294708
 30
0.0
 10
371.713506574733
 20
171.140226784662
 30
0.0
 10
372.7463428832187
 20
171.0738809397115
 30
0.0
 10
374.1627081981778
 20
171.2317155986333
 30
0.0
 10
375.2400383471311
 20
171.3974485724254
 30
0.0
 10
375.5695297159962
 20
171.4481294262065
 30
0.0
 10
375.9846519819681
 20
171.4695865149518
 30
0.0
 10
376.187507035675
 20
171.7112749501257
 30
0.0
  0
SPLINE
  5
98
330
70
100
AcDbEntity
  8
SHADE
 62
     6
420
 16711935
370
     9
100
AcDbSpline
210
0.0
220
0.0
230
1.0
 70
     8
 71
     3
 72
     8
 73
     4
 74
     0
 42
0.0000000001
 43
0.0000000001
 40
0.0
 40
0.0
 40
0.0
 40
0.0
 40
1.0
 40
1.0
 40
1.0
 40
1.0
 10
366.2596543342577
 20
188.694363232929
 30
0.0
 10
366.1191959680616
 20
188.819683162279
 30
0.0
 10
365.8871829686082
 20
188.8575950736754
 30
0.0
 10
365.758440436147
 20
189.0016735008571
 30
0.0
  0
SPLINE
  5
99
330
70
100
AcDbEntity
  8
SHADE
 62
     6
420
 16711935
370
     9
100
AcDbSpline
210
0.0
220
0.0
230
1.0
 70
     8
 71
     3
 72
     8
 73
     4
 74
     0
 42
0.0000000001
 43
0.0000000001
 40
0.0
 40
0.0
 40
0.0
 40
0.0
 40
1.0
 40
1.0
 40
1.0
 40
1.0
 10
362.282062963211
 20
194.7759340480934
 30
0.0
 10
362.3352449500296
 20
194.7725114449802
 30
0.0
 10
362.3682204146354
 20
194.8197696956488
 30
0.0
 10
362.4113978692843
 20
194.8406344107814
 30
0.0
  0
SPLINE
  5
9A
330
70
100
AcDbEntity
  8
SHADE
 62
     6
420
 16711935
370
     9
100
AcDbSpline
210
0.0
220
0.0
230
1.0
 70
     8
 71
     3
 72
     8
 73
     4
 74
     0
 42
0.0000000001
 43
0.0000000001
 40
0.0
 40
0.0
 40
0.0
 40
0.0
 40
1.0
 40
1.0
 40
1.0
 40
1.0
 10
362.4113978692843
 20
194.8406344107814
 30
0.0
 10
363.3057503902989
 20
195.443736570777
 30
0.0
 10
364.2782962285737
 20
195.9339586473493
 30
0.0
 10
365.2410349925442
 20
196.4256945676087
 30
0.0
  0
LINE
  5
9B
330
70
100
AcDbEntity
  8
SHADE
 62
     6
420
 16711935
370
     9
100
AcDbLine
 10
373.1175895347754
 20
203.5568598082817
 30
0.0
 11
367.7097992570064
 21
203.5568598082817
 31
0.0
  0
LINE
  5
9C
330
70
100
AcDbEntity
  8
SHADE
 62
     6
420
 16711935
370
     9
100
AcDbLine
 10
367.6502184872896
 20
203.3887831421177
 30
0.0
 11
367.7097992570064
 21
203.5568598082817
 31
0.0
  0
SPLINE
  5
9D
330
70
100
AcDbEntity
  8
SHADE
 62
     6
420
 16711935
370
     9
100
AcDbSpline
210
0.0
220
0.0
230
1.0
 70
     8
 71
     3
 72
    32
 73
    28
 74
     0
 42
0.0000000001
 43
0.0000000001
 40
0.0
 40
0.0
 40
0.0
 40
0.0
 40
1.0
 40
1.0
 40
1.0
 40
2.0
 40
2.0
 40
2.0
 40
3.0
 40
3.0
 40
3.0
 40
4.0
 40
4.0
 40
4.0
 40
5.0
 40
5.0
 40
5.0
 40
6.0
 40
6.0
 40
6.0
 40
7.0
 40
7.0
 40
7.0
 40
8.0
 40
8.0
 40
8.0
 40
9.0
 40
9.0
 40
9.0
 40
9.0
 10
365.2151819447167
 20
202.3918159884435
 30
0.0
 10
365.20012699565
 20
202.4155417916424
 30
0.0
 10
365.1875832069112
 20
202.4404576730871
 30
0.0
 10
365.1798729565685
 20
202.4676642441493
 30
0.0
 10
365.160412802551
 20
202.5363318022346
 30
0.0
 10
365.171743433521
 20
202.6195915960134
 30
0.0
 10
365.2098786998649
 20
202.6777044472356
 30
0.0
 10
365.2613887657788
 20
202.7561986360479
 30
0.0
 10
365.3618023997783
 20
202.7888136252175
 30
0.0
 10
365.459926560685
 20
202.8177312492915
 30
0.0
 10
365.7957427311118
 20
202.91669775954
 30
0.0
 10
366.1047433432972
 20
202.9723587122443
 30
0.0
 10
366.4201103462243
 20
203.0177695379492
 30
0.0
 10
367.3236294170088
 20
203.1478704890982
 30
0.0
 10
368.2794044003145
 20
203.1938374683013
 30
0.0
 10
369.2206463873788
 20
203.2478135698984
 30
0.0
 10
369.9492151332385
 20
203.2895937934629
 30
0.0
 10
370.6690763757314
 20
203.3361727150432
 30
0.0
 10
371.3911511220835
 20
203.3884654916079
 30
0.0
 10
372.0446515079387
 20
203.4357921012658
 30
0.0
 10
372.699964934972
 20
203.4877988267181
 30
0.0
 10
373.3558128856481
 20
203.511256851831
 30
0.0
 10
373.7928765366058
 20
203.5268895149975
 30
0.0
 10
374.2301775707572
 20
203.5298436339685
 30
0.0
 10
374.6674478698468
 20
203.5335825536926
 30
0.0
 10
374.9801094656074
 20
203.536255995287
 30
0.0
 10
375.2927553474958
 20
203.5393306808642
 30
0.0
 10
375.605401229388
 20
203.5424053664367
 30
0.0
  0
SPLINE
  5
9E
330
70
100
AcDbEntity
  8
SHADE
 62
     6
420
 16711935
370
     9
100
AcDbSpline
210
0.0
220
0.0
230
1.0
 70
     8
 71
     3
 72
    35
 73
    31
 74
     0
 42
0.0000000001
 43
0.0000000001
 40
0.0
 40
0.0
 40
0.0
 40
0.0
 40
1.0
 40
1.0
 40
1.0
 40
2.0
 40
2.0
 40
2.0
 40
3.0
 40
3.0
 40
3.0
 40
4.0
 40
4.0
 40
4.0
 40
5.0
 40
5.0
 40
5.0
 40
6.0
 40
6.0
 40
6.0
 40
7.0
 40
7.0
 40
7.0
 40
8.0
 40
8.0
 40
8.0
 40
9.0
 40
9.0
 40
9.0
 40
10.0
 40
10.0
 40
10.0
 40
10.0
 10
363.013979985954
 20
200.999450402879
 30
0.0
 10
362.992469722033
 20
201.061071750577
 30
0.0
 10
362.9732686820288
 20
201.1232234205679
 30
0.0
 10
362.9641260002394
 20
201.1876850318071
 30
0.0
 10
362.9532452081479
 20
201.2644014052053
 30
0.0
 10
362.9566106776076
 20
201.3443894882098
 30
0.0
 10
362.9757083570915
 20
201.4193321688582
 30
0.0
 10
363.022633522137
 20
201.603474837115
 30
0.0
 10
363.1645404339977
 20
201.7571563604435
 30
0.0
 10
363.3231790626674
 20
201.8710440861069
 30
0.0
 10
363.6046950062944
 20
202.0731462526853
 30
0.0
 10
363.9389009990515
 20
202.1499332960072
 30
0.0
 10
364.272932324572
 20
202.2185147916787
 30
0.0
 10
365.6742076121802
 20
202.5062170151841
 30
0.0
 10
367.0724090405306
 20
202.6495149458807
 30
0.0
 10
368.4773278620176
 20
202.7860502774532
 30
0.0
 10
369.6590457884382
 20
202.9008941007687
 30
0.0
 10
370.8455162567309
 20
203.0109533990623
 30
0.0
 10
372.0331114157295
 20
203.087191555615
 30
0.0
 10
372.8710569382327
 20
203.1409838108669
 30
0.0
 10
373.7095623831275
 20
203.1779383572239
 30
0.0
 10
374.5464828527174
 20
203.2377621946977
 30
0.0
 10
374.7085895243187
 20
203.249349727237
 30
0.0
 10
374.8706367316779
 20
203.2617952574339
 30
0.0
 10
375.0329418405198
 20
203.2725092652553
 30
0.0
 10
375.2507546199236
 20
203.2868874190835
 30
0.0
 10
375.4690318677307
 20
203.2981471828298
 30
0.0
 10
375.6851959325667
 20
203.3265527233045
 30
0.0
 10
375.7565141187023
 20
203.3359244550212
 30
0.0
 10
375.8276022821407
 20
203.3471625266557
 30
0.0
 10
375.8985616789638
 20
203.3593320957339
 30
0.0
  0
SPLINE
  5
9F
330
70
100
AcDbEntity
  8
SHADE
 62
     6
420
 16711935
370
     9
100
AcDbSpline
210
0.0
220
0.0
230
1.0
 70
     8
 71
     3
 72
    29
 73
    25
 74
     0
 42
0.0000000001
 43
0.0000000001
 40
0.0
 40
0.0
 40
0.0
 40
0.0
 40
1.0
 40
1.0
 40
1.0
 40
2.0
 40
2.0
 40
2.0
 40
3.0
 40
3.0
 40
3.0
 40
4.0
 40
4.0
 40
4.0
 40
5.0
 40
5.0
 40
5.0
 40
6.0
 40
6.0
 40
6.0
 40
7.0
 40
7.0
 40
7.0
 40
8.0
 40
8.0
 40
8.0
 40
8.0
 10
359.4516451477814
 20
198.555489730717
 30
0.0
 10
359.449380764014
 20
198.8023244228735
 30
0.0
 10
359.5224776953858
 20
199.0518085738043
 30
0.0
 10
359.6466112649491
 20
199.2650158136873
 30
0.0
 10
359.7838190002784
 20
199.5006787583951
 30
0.0
 10
359.9833802252135
 20
199.6920207588533
 30
0.0
 10
360.2012788833377
 20
199.8530971440313
 30
0.0
 10
360.6113167848084
 20
200.1562078814868
 30
0.0
 10
361.0862894758442
 20
200.3521448755566
 30
0.0
 10
361.5645583309557
 20
200.5280541254457
 30
0.0
 10
362.0396228857182
 20
200.7027848205071
 30
0.0
 10
362.5179395853133
 20
200.85775523571
 30
0.0
 10
363.001347944861
 20
200.9958460927679
 30
0.0
 10
364.5246607957174
 20
201.4309969812028
 30
0.0
 10
366.0985339056348
 20
201.6985336061128
 30
0.0
 10
367.6759944380994
 20
201.9012894953954
 30
0.0
 10
369.1993168502734
 20
202.0970868443576
 30
0.0
 10
370.725984671233
 20
202.2324736787973
 30
0.0
 10
372.2448081130819
 20
202.4195429868879
 30
0.0
 10
373.4800511431593
 20
202.5716844752195
 30
0.0
 10
374.7101055896757
 20
202.7580108020877
 30
0.0
 10
375.9484370895918
 20
202.9369564359086
 30
0.0
 10
376.0357833082157
 20
202.9495784393479
 30
0.0
 10
376.1231707071945
 20
202.9621637220393
 30
0.0
 10
376.2105781035856
 20
202.9739425101394
 30
0.0
  0
SPLINE
  5
A0
330
70
100
AcDbEntity
  8
SHADE
 62
     6
420
 16711935
370
     9
100
AcDbSpline
210
0.0
220
0.0
230
1.0
 70
     8
 71
     3
 72
    29
 73
    25
 74
     0
 42
0.0000000001
 43
0.0000000001
 40
0.0
 40
0.0
 40
0.0
 40
0.0
 40
1.0
 40
1.0
 40
1.0
 40
2.0
 40
2.0
 40
2.0
 40
3.0
 40
3.0
 40
3.0
 40
4.0
 40
4.0
 40
4.0
 40
5.0
 40
5.0
 40
5.0
 40
6.0
 40
6.0
 40
6.0
 40
7.0
 40
7.0
 40
7.0
 40
8.0
 40
8.0
 40
8.0
 40
8.0
 10
356.0678934023408
 20
193.7431282935877
 30
0.0
 10
356.0669476267075
 20
193.9648475146458
 30
0.0
 10
356.0941664699797
 20
194.1851752432197
 30
0.0
 10
356.1498357268275
 20
194.3927426592908
 30
0.0
 10
356.405064259936
 20
195.3443832976719
 30
0.0
 10
357.2583134494738
 20
196.0278053234384
 30
0.0
 10
358.1233551672828
 20
196.5939758813413
 30
0.0
 10
359.4644746853289
 20
197.4717397742356
 30
0.0
 10
360.8339386372627
 20
198.0676789046358
 30
0.0
 10
362.2601555328591
 20
198.5674953217966
 30
0.0
 10
364.0023704137024
 20
199.1780529462006
 30
0.0
 10
365.8292730604614
 20
199.6451745246063
 30
0.0
 10
367.6493816971821
 20
200.085587199068
 30
0.0
 10
369.0994566820374
 20
200.436462630002
 30
0.0
 10
370.545219331963
 20
200.7703852247153
 30
0.0
 10
372.003888891053
 20
201.0530001429334
 30
0.0
 10
372.9261284218214
 20
201.2316825922507
 30
0.0
 10
373.853527313181
 20
201.3898554989248
 30
0.0
 10
374.7769797836406
 20
201.5665845182661
 30
0.0
 10
375.3821844524365
 20
201.6824077263226
 30
0.0
 10
375.9856940855488
 20
201.8062010100607
 30
0.0
 10
376.5904091501488
 20
201.9239757072849
 30
0.0
 10
377.0796414532376
 20
202.0192589071637
 30
0.0
 10
377.5696627457887
 20
202.1106027696213
 30
0.0
 10
378.0596840383481
 20
202.2019466320787
 30
0.0
  0
SPLINE
  5
A1
330
70
100
AcDbEntity
  8
SHADE
 62
     6
420
 16711935
370
     9
100
AcDbSpline
210
0.0
220
0.0
230
1.0
 70
     8
 71
     3
 72
    32
 73
    28
 74
     0
 42
0.0000000001
 43
0.0000000001
 40
0.0
 40
0.0
 40
0.0
 40
0.0
 40
1.0
 40
1.0
 40
1.0
 40
2.0
 40
2.0
 40
2.0
 40
3.0
 40
3.0
 40
3.0
 40
4.0
 40
4.0
 40
4.0
 40
5.0
 40
5.0
 40
5.0
 40
6.0
 40
6.0
 40
6.0
 40
7.0
 40
7.0
 40
7.0
 40
8.0
 40
8.0
 40
8.0
 40
9.0
 40
9.0
 40
9.0
 40
9.0
 10
377.2121470645981
 20
203.0848058910629
 30
0.0
 10
377.2124616561051
 20
203.0847690622074
 30
0.0
 10
377.2182046519781
 20
203.0840967025793
 30
0.0
 10
377.2238959835153
 20
203.0834303941738
 30
0.0
 10
377.5701084921398
 20
203.0428978221408
 30
0.0
 10
377.725138313857
 20
203.0247576523561
 30
0.0
 10
377.9374375300062
 20
202.9903558745843
 30
0.0
 10
378.0795692910601
 20
202.9673242998704
 30
0.0
 10
378.2473700009211
 20
202.9370040435285
 30
0.0
 10
378.4079615951702
 20
202.8869424915278
 30
0.0
 10
378.503571028707
 20
202.857137963766
 30
0.0
 10
378.5966251859833
 20
202.8203361194098
 30
0.0
 10
378.6613204312954
 20
202.7525074318348
 30
0.0
 10
378.6881704517278
 20
202.7243569605214
 30
0.0
 10
378.7101358151104
 20
202.6908622965757
 30
0.0
 10
378.7285379469866
 20
202.6542668561567
 30
0.0
 10
378.7386488372734
 20
202.6341598117324
 30
0.0
 10
378.7476840389817
 20
202.6131166872842
 30
0.0
 10
378.7492202159136
 20
202.5922202260321
 30
0.0
 10
378.7529712991855
 20
202.5411946152973
 30
0.0
 10
378.7120091858329
 20
202.4910434889746
 30
0.0
 10
378.6716612378144
 20
202.4526151057617
 30
0.0
 10
378.5599804886849
 20
202.3462475992224
 30
0.0
 10
378.453005166462
 20
202.3296938736916
 30
0.0
 10
378.2683554193139
 20
202.271643219725
 30
0.0
 10
378.1764924463852
 20
202.2427631062357
 30
0.0
 10
378.0654046834592
 20
202.2036123053831
 30
0.0
 10
378.0598690485265
 20
202.2016614417191
 30
0.0
  0
SPLINE
  5
A2
330
70
100
AcDbEntity
  8
SHADE
 62
     6
420
 16711935
370
     9
100
AcDbSpline
210
0.0
220
0.0
230
1.0
 70
     8
 71
     3
 72
    41
 73
    37
 74
     0
 42
0.0000000001
 43
0.0000000001
 40
0.0
 40
0.0
 40
0.0
 40
0.0
 40
1.0
 40
1.0
 40
1.0
 40
2.0
 40
2.0
 40
2.0
 40
3.0
 40
3.0
 40
3.0
 40
4.0
 40
4.0
 40
4.0
 40
5.0
 40
5.0
 40
5.0
 40
6.0
 40
6.0
 40
6.0
 40
7.0
 40
7.0
 40
7.0
 40
8.0
 40
8.0
 40
8.0
 40
9.0
 40
9.0
 40
9.0
 40
10.0
 40
10.0
 40
10.0
 40
11.0
 40
11.0
 40
11.0
 40
12.0
 40
12.0
 40
12.0
 40
12.0
 10
357.1303637517748
 20
183.7351792800066
 30
0.0
 10
357.1289903811166
 20
183.7362171415106
 30
0.0
 10
357.1036563898514
 20
183.7553621764451
 30
0.0
 10
357.0788617533102
 20
183.7740996185379
 30
0.0
 10
356.4773501159808
 20
184.228665244251
 30
0.0
 10
356.1932678179667
 20
184.4433480623917
 30
0.0
 10
355.8535495881762
 20
184.7493859002373
 30
0.0
 10
355.4561301180076
 20
185.107404354071
 30
0.0
 10
354.9825701098366
 20
185.5904466931306
 30
0.0
 10
354.6424976706006
 20
186.1240937335711
 30
0.0
 10
354.3969123633108
 20
186.50947007487
 30
0.0
 10
354.2209420375012
 20
186.9212372282718
 30
0.0
 10
354.1624407188384
 20
187.3569660354238
 30
0.0
 10
354.0956474517147
 20
187.854454831843
 30
0.0
 10
354.1819831545439
 20
188.383179300099
 30
0.0
 10
354.3806476144049
 20
188.8516869668789
 30
0.0
 10
354.5657047225823
 20
189.2881046031067
 30
0.0
 10
354.8482298486315
 20
189.6722719301761
 30
0.0
 10
355.1661943067547
 20
190.0190968074319
 30
0.0
 10
355.8343679873356
 20
190.7479180603639
 30
0.0
 10
356.659039059212
 20
191.3118378989928
 30
0.0
 10
357.5119252847031
 20
191.8193088384435
 30
0.0
 10
359.0475825943016
 20
192.7330314831397
 30
0.0
 10
360.6747120441772
 20
193.4637495730986
 30
0.0
 10
362.312493349933
 20
194.1214005635086
 30
0.0
 10
364.4679674423155
 20
194.9869310630152
 30
0.0
 10
366.6418916496695
 20
195.7259017964741
 30
0.0
 10
368.8914539276662
 20
196.5326004975402
 30
0.0
 10
369.9461091258792
 20
196.9108025090095
 30
0.0
 10
371.017389467334
 20
197.3038910340196
 30
0.0
 10
371.990001460696
 20
197.6236410741136
 30
0.0
 10
373.834702443477
 20
198.2300938191217
 30
0.0
 10
375.3244669982231
 20
198.5727284261308
 30
0.0
 10
377.8789329592113
 20
199.6583193679637
 30
0.0
 10
378.9087160670389
 20
200.0959541734315
 30
0.0
 10
380.1115282613314
 20
200.6543299257473
 30
0.0
 10
380.1723260760255
 20
200.6825538240527
 30
0.0
  0
SPLINE
  5
A3
330
70
100
AcDbEntity
  8
SHADE
 62
     6
420
 16711935
370
     9
100
AcDbSpline
210
0.0
220
0.0
230
1.0
 70
     8
 71
     3
 72
    26
 73
    22
 74
     0
 42
0.0000000001
 43
0.0000000001
 40
0.0
 40
0.0
 40
0.0
 40
0.0
 40
1.0
 40
1.0
 40
1.0
 40
2.0
 40
2.0
 40
2.0
 40
3.0
 40
3.0
 40
3.0
 40
4.0
 40
4.0
 40
4.0
 40
5.0
 40
5.0
 40
5.0
 40
6.0
 40
6.0
 40
6.0
 40
7.0
 40
7.0
 40
7.0
 40
7.0
 10
378.6549647579299
 20
202.4155662458251
 30
0.0
 10
378.7939173799134
 20
202.3952654551714
 30
0.0
 10
378.9329829763259
 20
202.3746786336385
 30
0.0
 10
379.0725253101006
 20
202.3528847990805
 30
0.0
 10
379.4509823576315
 20
202.2937770712729
 30
0.0
 10
379.8329461197292
 20
202.225790974542
 30
0.0
 10
380.192418865966
 20
202.1168849590369
 30
0.0
 10
380.3624914709697
 20
202.0653596905666
 30
0.0
 10
380.5275296975152
 20
202.0046749266389
 30
0.0
 10
380.6938770474152
 20
201.9125871814087
 30
0.0
 10
380.812253406191
 20
201.8470555575229
 30
0.0
 10
380.9312927118788
 20
201.7656212997032
 30
0.0
 10
380.9724649259974
 20
201.6463809863198
 30
0.0
 10
380.991693751973
 20
201.5906916996466
 30
0.0
 10
380.9939381452193
 20
201.5267561256801
 30
0.0
 10
380.9848466094866
 20
201.4668465756785
 30
0.0
 10
380.9505571113127
 20
201.2408926261864
 30
0.0
 10
380.7550157002834
 20
201.0722082719993
 30
0.0
 10
380.5638693707422
 20
200.9344341854955
 30
0.0
 10
380.4366918487683
 20
200.8427674139956
 30
0.0
 10
380.3114599364935
 20
200.7647839648217
 30
0.0
 10
380.1723260760255
 20
200.6825538240527
 30
0.0
  0
SPLINE
  5
A4
330
70
100
AcDbEntity
  8
SHADE
 62
     6
420
 16711935
370
     9
100
AcDbSpline
210
0.0
220
0.0
230
1.0
 70
     8
 71
     3
 72
    29
 73
    25
 74
     0
 42
0.0000000001
 43
0.0000000001
 40
0.0
 40
0.0
 40
0.0
 40
0.0
 40
1.0
 40
1.0
 40
1.0
 40
2.0
 40
2.0
 40
2.0
 40
3.0
 40
3.0
 40
3.0
 40
4.0
 40
4.0
 40
4.0
 40
5.0
 40
5.0
 40
5.0
 40
6.0
 40
6.0
 40
6.0
 40
7.0
 40
7.0
 40
7.0
 40
8.0
 40
8.0
 40
8.0
 40
8.0
 10
360.1316150999078
 20
177.0973333212571
 30
0.0
 10
359.5094458232707
 20
177.4187851236277
 30
0.0
 10
358.8872765466299
 20
177.7402369259936
 30
0.0
 10
358.2704675977884
 20
178.1131357427753
 30
0.0
 10
357.5448089715185
 20
178.5518408614821
 30
0.0
 10
356.8265695053174
 20
179.0617531245434
 30
0.0
 10
356.4246954277826
 20
179.7911104427802
 30
0.0
 10
356.1224575695291
 20
180.3396389647399
 30
0.0
 10
355.9991594107477
 20
181.0122879930268
 30
0.0
 10
356.0891004877841
 20
181.636882612786
 30
0.0
 10
356.1720220636053
 20
182.2127303992574
 30
0.0
 10
356.4361969898796
 20
182.747731938477
 30
0.0
 10
356.7602903677851
 20
183.2309585777923
 30
0.0
 10
357.6069563819548
 20
184.493346520708
 30
0.0
 10
358.8625482054717
 20
185.4023859996545
 30
0.0
 10
360.1581891352966
 20
186.2093636703024
 30
0.0
 10
362.9182421009216
 20
187.928436495031
 30
0.0
 10
365.8600383389979
 20
189.1843517428774
 30
0.0
 10
368.841708207826
 20
190.3623510528172
 30
0.0
 10
370.7552593864346
 20
191.118357608576
 30
0.0
 10
372.6852333510354
 20
191.8422728611351
 30
0.0
 10
374.5887715553517
 20
192.6276168978245
 30
0.0
 10
376.8804985710058
 20
193.5731162533913
 30
0.0
 10
379.1339083325869
 20
194.6076534237805
 30
0.0
 10
381.3835932635932
 20
195.6534989162371
 30
0.0
  0
SPLINE
  5
A5
330
70
100
AcDbEntity
  8
SHADE
 62
     6
420
 16711935
370
     9
100
AcDbSpline
210
0.0
220
0.0
230
1.0
 70
     8
 71
     3
 72
    26
 73
    22
 74
     0
 42
0.0000000001
 43
0.0000000001
 40
0.0
 40
0.0
 40
0.0
 40
0.0
 40
1.0
 40
1.0
 40
1.0
 40
2.0
 40
2.0
 40
2.0
 40
3.0
 40
3.0
 40
3.0
 40
4.0
 40
4.0
 40
4.0
 40
5.0
 40
5.0
 40
5.0
 40
6.0
 40
6.0
 40
6.0
 40
7.0
 40
7.0
 40
7.0
 40
7.0
 10
380.8131729450305
 20
201.1120310191071
 30
0.0
 10
380.8215100728133
 20
201.1094870154505
 30
0.0
 10
380.830114627413
 20
201.106861408781
 30
0.0
 10
380.8387130821449
 20
201.1042376634301
 30
0.0
 10
381.48346731495
 20
200.9074963916115
 30
0.0
 10
382.0939236029712
 20
200.7212208460205
 30
0.0
 10
382.7429688981454
 20
200.4853545232315
 30
0.0
 10
383.3187663027321
 20
200.2761068520734
 30
0.0
 10
383.9249342812122
 20
200.0278299217026
 30
0.0
 10
384.2425703532471
 20
199.5332266152306
 30
0.0
 10
384.4630002994183
 20
199.1899866943857
 30
0.0
 10
384.5444748544864
 20
198.728117335448
 30
0.0
 10
384.4567991325462
 20
198.3192635325321
 30
0.0
 10
384.3786835286417
 20
197.9549909492378
 30
0.0
 10
384.166294643696
 20
197.6328026756946
 30
0.0
 10
383.909325585446
 20
197.3671356245319
 30
0.0
 10
383.5707015917222
 20
197.0170497485151
 30
0.0
 10
383.1546643050399
 20
196.7651127494985
 30
0.0
 10
382.7429688981454
 20
196.5102205073299
 30
0.0
 10
382.2857456503691
 20
196.2271406943304
 30
0.0
 10
381.8338776847678
 20
195.9404158792184
 30
0.0
 10
381.38264489698
 20
195.6532532827914
 30
0.0
  0
SPLINE
  5
A6
330
70
100
AcDbEntity
  8
SHADE
 62
     6
420
 16711935
370
     9
100
AcDbSpline
210
0.0
220
0.0
230
1.0
 70
     8
 71
     3
 72
    44
 73
    40
 74
     0
 42
0.0000000001
 43
0.0000000001
 40
0.0
 40
0.0
 40
0.0
 40
0.0
 40
1.0
 40
1.0
 40
1.0
 40
2.0
 40
2.0
 40
2.0
 40
3.0
 40
3.0
 40
3.0
 40
4.0
 40
4.0
 40
4.0
 40
5.0
 40
5.0
 40
5.0
 40
6.0
 40
6.0
 40
6.0
 40
7.0
 40
7.0
 40
7.0
 40
8.0
 40
8.0
 40
8.0
 40
9.0
 40
9.0
 40
9.0
 40
10.0
 40
10.0
 40
10.0
 40
11.0
 40
11.0
 40
11.0
 40
12.0
 40
12.0
 40
12.0
 40
13.0
 40
13.0
 40
13.0
 40
13.0
 10
360.0082297143246
 20
176.173047169428
 30
0.0
 10
360.0079031061739
 20
176.1991731582371
 30
0.0
 10
360.0083377115523
 20
176.2252520351019
 30
0.0
 10
360.0095503887231
 20
176.2512252123373
 30
0.0
 10
360.0289632975918
 20
176.6670118164985
 30
0.0
 10
360.2477694779551
 20
177.0557112101112
 30
0.0
 10
360.506592298195
 20
177.3965826559042
 30
0.0
 10
361.0469247419912
 20
178.108204224506
 30
0.0
 10
361.7616616425985
 20
178.6113773254942
 30
0.0
 10
362.4947599360845
 20
179.0822030445481
 30
0.0
 10
364.4902047682224
 20
180.3637593600817
 30
0.0
 10
366.6216877315073
 20
181.4056564398315
 30
0.0
 10
368.7834206167924
 20
182.367001750625
 30
0.0
 10
370.7841123259387
 20
183.2567303595668
 30
0.0
 10
372.8107148185778
 20
184.077461784147
 30
0.0
 10
374.8343656016699
 20
184.9170428513951
 30
0.0
 10
376.8908585505739
 20
185.7702496197039
 30
0.0
 10
378.9443032049246
 20
186.6429228233964
 30
0.0
 10
380.9069211043465
 20
187.6831891301964
 30
0.0
 10
382.0603283071973
 20
188.2945412693416
 30
0.0
 10
383.1823660093888
 20
188.9637762642783
 30
0.0
 10
384.2997723994386
 20
189.6497462502811
 30
0.0
 10
385.2185018115853
 20
190.2137494702391
 30
0.0
 10
386.1341004117106
 20
190.7890657067807
 30
0.0
 10
386.8714240180117
 20
191.5946928525589
 30
0.0
 10
387.3029487860488
 20
192.0661928347019
 30
0.0
 10
387.6734095035939
 20
192.6165805884159
 30
0.0
 10
387.8006762835467
 20
193.2370922055983
 30
0.0
 10
387.918369716829
 20
193.8109272837392
 30
0.0
 10
387.8280805052573
 20
194.4447332095797
 30
0.0
 10
387.5629605877119
 20
194.9659336298488
 30
0.0
 10
387.3093949028814
 20
195.4644195328538
 30
0.0
 10
386.8959051019483
 20
195.8599010131156
 30
0.0
 10
386.4608241797567
 20
196.2193436624302
 30
0.0
 10
385.9155252920377
 20
196.6698430221414
 30
0.0
 10
385.3363104267593
 20
197.0637315107826
 30
0.0
 10
384.7103722376981
 20
197.3647011059964
 30
0.0
 10
384.5249342071165
 20
197.4538651959633
 30
0.0
 10
384.3353953779027
 20
197.5348740084227
 30
0.0
 10
384.1434135620555
 20
197.6110244419041
 30
0.0
  0
SPLINE
  5
A7
330
70
100
AcDbEntity
  8
SHADE
 62
     6
420
 16711935
370
     9
100
AcDbSpline
210
0.0
220
0.0
230
1.0
 70
     8
 71
     3
 72
    74
 73
    70
 74
     0
 42
0.0000000001
 43
0.0000000001
 40
0.0
 40
0.0
 40
0.0
 40
0.0
 40
1.0
 40
1.0
 40
1.0
 40
2.0
 40
2.0
 40
2.0
 40
3.0
 40
3.0
 40
3.0
 40
4.0
 40
4.0
 40
4.0
 40
5.0
 40
5.0
 40
5.0
 40
6.0
 40
6.0
 40
6.0
 40
7.0
 40
7.0
 40
7.0
 40
8.0
 40
8.0
 40
8.0
 40
9.0
 40
9.0
 40
9.0
 40
10.0
 40
10.0
 40
10.0
 40
11.0
 40
11.0
 40
11.0
 40
12.0
 40
12.0
 40
12.0
 40
13.0
 40
13.0
 40
13.0
 40
14.0
 40
14.0
 40
14.0
 40
15.0
 40
15.0
 40
15.0
 40
16.0
 40
16.0
 40
16.0
 40
17.0
 40
17.0
 40
17.0
 40
18.0
 40
18.0
 40
18.0
 40
19.0
 40
19.0
 40
19.0
 40
20.0
 40
20.0
 40
20.0
 40
21.0
 40
21.0
 40
21.0
 40
22.0
 40
22.0
 40
22.0
 40
23.0
 40
23.0
 40
23.0
 40
23.0
 10
367.8157236003047
 20
171.7664511942597
 30
0.0
 10
367.7929026347526
 20
171.7696466928451
 30
0.0
 10
367.7700684710837
 20
171.7728440394942
 30
0.0
 10
367.7472361216725
 20
171.7760411321037
 30
0.0
 10
367.499424379969
 20
171.8107408939649
 30
0.0
 10
367.2518263564092
 20
171.8454107300131
 30
0.0
 10
367.0041610036017
 20
171.8819397383243
 30
0.0
 10
366.7495017585773
 20
171.9195002996733
 30
0.0
 10
366.4947713279623
 20
171.9590265192861
 30
0.0
 10
366.2444976741317
 20
172.0181552318825
 30
0.0
 10
366.0218666416073
 20
172.0707532026883
 30
0.0
 10
365.8027622562882
 20
172.1388626250154
 30
0.0
 10
365.5843764361115
 20
172.2067612998895
 30
0.0
 10
365.3977098272326
 20
172.2647981054671
 30
0.0
 10
365.2115682077644
 20
172.3226809372758
 30
0.0
 10
365.0342754044307
 20
172.4110845402299
 30
0.0
 10
364.8696290588016
 20
172.4931822333841
 30
0.0
 10
364.7126141646749
 20
172.601601841402
 30
0.0
 10
364.6046726939703
 20
172.7463842166837
 30
0.0
 10
364.5573004935563
 20
172.8099247600327
 30
0.0
 10
364.5193801429037
 20
172.8804690008896
 30
0.0
 10
364.4894134301878
 20
172.9559465144671
 30
0.0
 10
364.4623480141253
 20
173.0241164978842
 30
0.0
 10
364.4417706904252
 20
173.0963107440789
 30
0.0
 10
364.4370228557434
 20
173.1655088122512
 30
0.0
 10
364.4133919939889
 20
173.5099205477659
 30
0.0
 10
364.7818954375974
 20
173.7801097871813
 30
0.0
 10
365.1238739786855
 20
173.9926383712618
 30
0.0
 10
365.6075322382447
 20
174.2932163103169
 30
0.0
 10
366.0381346445235
 20
174.478459790845
 30
0.0
 10
366.4817521326964
 20
174.676923425251
 30
0.0
 10
367.425591986112
 20
175.0991743341952
 30
0.0
 10
368.4283468841361
 20
175.5812685819549
 30
0.0
 10
369.4327314280231
 20
176.0027257173523
 30
0.0
 10
370.2871206603625
 20
176.3612422243715
 30
0.0
 10
371.1426891395654
 20
176.6758804102479
 30
0.0
 10
371.9988003804802
 20
176.997077436429
 30
0.0
 10
373.5034992460378
 20
177.561612484938
 30
0.0
 10
375.0098747831294
 20
178.1464087652284
 30
0.0
 10
376.5108049552227
 20
178.7398659333102
 30
0.0
 10
377.9624745249454
 20
179.3138458078279
 30
0.0
 10
379.4090502984635
 20
179.8959273977311
 30
0.0
 10
380.8303543585283
 20
180.5361142000313
 30
0.0
 10
381.7572899060335
 20
180.9536264838325
 30
0.0
 10
382.6734766587792
 20
181.3958526044467
 30
0.0
 10
383.5781865284497
 20
181.8619164921326
 30
0.0
 10
384.559358623619
 20
182.367370114888
 30
0.0
 10
385.5270319027935
 20
182.9008611088677
 30
0.0
 10
386.4543221459988
 20
183.4977854493259
 30
0.0
 10
386.9991248246066
 20
183.8484911555413
 30
0.0
 10
387.5299880398894
 20
184.2210928580758
 30
0.0
 10
388.0260393793779
 20
184.641824523963
 30
0.0
 10
388.5380911119146
 20
185.0761271077926
 30
0.0
 10
389.0130489995465
 20
185.561714644096
 30
0.0
 10
389.3625336254479
 20
186.1386980795652
 30
0.0
 10
389.6099195177955
 20
186.5471210872536
 30
0.0
 10
389.7944352023508
 20
187.0013393432141
 30
0.0
 10
389.8436715540362
 20
187.4751923256344
 30
0.0
 10
389.8995644330953
 20
188.0131080430124
 30
0.0
 10
389.7811270897178
 20
188.5763264149747
 30
0.0
 10
389.5336048889487
 20
189.0576015129873
 30
0.0
 10
389.3218599265155
 20
189.4693123705598
 30
0.0
 10
389.0156494793063
 20
189.8210563872915
 30
0.0
 10
388.6889405254273
 20
190.1481808177827
 30
0.0
 10
388.3640028982129
 20
190.4735316690122
 30
0.0
 10
388.0187884363769
 20
190.7745291716377
 30
0.0
 10
387.6518209904769
 20
191.0463049511413
 30
0.0
 10
387.4020964183362
 20
191.2312507576835
 30
0.0
 10
387.1422982086913
 20
191.4026642118347
 30
0.0
 10
386.8794742498845
 20
191.5700130464386
 30
0.0
  0
SPLINE
  5
A8
330
70
100
AcDbEntity
  8
SHADE
 62
     6
420
 16711935
370
     9
100
AcDbSpline
210
0.0
220
0.0
230
1.0
 70
     8
 71
     3
 72
    56
 73
    52
 74
     0
 42
0.0000000001
 43
0.0000000001
 40
0.0
 40
0.0
 40
0.0
 40
0.0
 40
1.0
 40
1.0
 40
1.0
 40
2.0
 40
2.0
 40
2.0
 40
3.0
 40
3.0
 40
3.0
 40
4.0
 40
4.0
 40
4.0
 40
5.0
 40
5.0
 40
5.0
 40
6.0
 40
6.0
 40
6.0
 40
7.0
 40
7.0
 40
7.0
 40
8.0
 40
8.0
 40
8.0
 40
9.0
 40
9.0
 40
9.0
 40
10.0
 40
10.0
 40
10.0
 40
11.0
 40
11.0
 40
11.0
 40
12.0
 40
12.0
 40
12.0
 40
13.0
 40
13.0
 40
13.0
 40
14.0
 40
14.0
 40
14.0
 40
15.0
 40
15.0
 40
15.0
 40
16.0
 40
16.0
 40
16.0
 40
17.0
 40
17.0
 40
17.0
 40
17.0
 10
386.8947265931414
 20
183.7889131317292
 30
0.0
 10
387.1357845816829
 20
183.4759772466432
 30
0.0
 10
387.3729238454258
 20
183.1602239575502
 30
0.0
 10
387.5572756945093
 20
182.8065186608872
 30
0.0
 10
387.8046633526799
 20
182.3318701804911
 30
0.0
 10
387.9569924017799
 20
181.7888784202652
 30
0.0
 10
387.9291931128578
 20
181.2607368908889
 30
0.0
 10
387.891505091464
 20
180.5447254378354
 30
0.0
 10
387.5227459158917
 20
179.856008319033
 30
0.0
 10
387.0515818578287
 20
179.2920413728567
 30
0.0
 10
386.2776685625074
 20
178.3656941477307
 30
0.0
 10
385.2274679358858
 20
177.7759216194002
 30
0.0
 10
384.1578366385589
 20
177.2521881855011
 30
0.0
 10
382.3627155249186
 20
176.3732264839755
 30
0.0
 10
380.5128667237203
 20
175.6802679823115
 30
0.0
 10
378.6312576542107
 20
175.0700196594941
 30
0.0
 10
376.5027096720217
 20
174.379683469468
 30
0.0
 10
374.3335180816077
 20
173.7951914767198
 30
0.0
 10
372.1559097455132
 20
173.2673587032274
 30
0.0
 10
371.4514156848888
 20
173.0965956473709
 30
0.0
 10
370.7460406984511
 20
172.9317627420373
 30
0.0
 10
370.0448988888297
 20
172.745535794832
 30
0.0
 10
369.4779115875447
 20
172.5949409896576
 30
0.0
 10
368.9136925109798
 20
172.4303558603765
 30
0.0
 10
368.3637989509914
 20
172.2296426922175
 30
0.0
 10
368.3241908742252
 20
172.2151855987874
 30
0.0
 10
368.2846571200004
 20
172.2005410686588
 30
0.0
 10
368.2452028354518
 20
172.1851691488889
 30
0.0
 10
368.1145108365517
 20
172.1342497888054
 30
0.0
 10
367.984690826865
 20
172.075349071143
 30
0.0
 10
367.8894144888175
 20
171.9628014322456
 30
0.0
 10
367.8487378343328
 20
171.9147510819176
 30
0.0
 10
367.8143575294839
 20
171.8569223913922
 30
0.0
 10
367.8152919166026
 20
171.7997317733722
 30
0.0
 10
367.8163662252484
 20
171.733977040721
 30
0.0
 10
367.8641236540997
 20
171.669065787474
 30
0.0
 10
367.919063517705
 20
171.6218376000531
 30
0.0
 10
368.0366439506356
 20
171.5207614349774
 30
0.0
 10
368.1871221676291
 20
171.5006792087077
 30
0.0
 10
368.3341499221091
 20
171.4735924556266
 30
0.0
 10
368.6367305445476
 20
171.4178483776693
 30
0.0
 10
368.9246974433903
 20
171.3324380685185
 30
0.0
 10
369.2236207886873
 20
171.2956982823113
 30
0.0
 10
369.3501787356619
 20
171.2801434185378
 30
0.0
 10
369.4787006257145
 20
171.2733127462011
 30
0.0
 10
369.606856468544
 20
171.2708352528955
 30
0.0
 10
369.7162327720865
 20
171.2687208033787
 30
0.0
 10
369.8253424470049
 20
171.2697772074509
 30
0.0
 10
369.9346216493072
 20
171.2708352528955
 30
0.0
 10
369.9420956278
 20
171.2709076162419
 30
0.0
 10
369.9495703992832
 20
171.2709799872655
 30
0.0
 10
369.9570375806796
 20
171.271052284805
 30
0.0
  0
SPLINE
  5
A9
330
70
100
AcDbEntity
  8
SHADE
 62
     6
420
 16711935
370
     9
100
AcDbSpline
210
0.0
220
0.0
230
1.0
 70
     8
 71
     3
 72
    59
 73
    55
 74
     0
 42
0.0000000001
 43
0.0000000001
 40
0.0
 40
0.0
 40
0.0
 40
0.0
 40
1.0
 40
1.0
 40
1.0
 40
2.0
 40
2.0
 40
2.0
 40
3.0
 40
3.0
 40
3.0
 40
4.0
 40
4.0
 40
4.0
 40
5.0
 40
5.0
 40
5.0
 40
6.0
 40
6.0
 40
6.0
 40
7.0
 40
7.0
 40
7.0
 40
8.0
 40
8.0
 40
8.0
 40
9.0
 40
9.0
 40
9.0
 40
10.0
 40
10.0
 40
10.0
 40
11.0
 40
11.0
 40
11.0
 40
12.0
 40
12.0
 40
12.0
 40
13.0
 40
13.0
 40
13.0
 40
14.0
 40
14.0
 40
14.0
 40
15.0
 40
15.0
 40
15.0
 40
16.0
 40
16.0
 40
16.0
 40
17.0
 40
17.0
 40
17.0
 40
18.0
 40
18.0
 40
18.0
 40
18.0
 10
383.7977073563814
 20
177.0786640723557
 30
0.0
 10
383.8476094623568
 20
176.9463584026241
 30
0.0
 10
383.8930478325502
 20
176.8128554787521
 30
0.0
 10
383.9202148350315
 20
176.6744518457457
 30
0.0
 10
383.9780225585523
 20
176.3799475493812
 30
0.0
 10
383.9531009825676
 20
176.0632537683426
 30
0.0
 10
383.8531562602731
 20
175.7775434083238
 30
0.0
 10
383.731062634267
 20
175.4285163357388
 30
0.0
 10
383.4970093598214
 20
175.1257268990843
 30
0.0
 10
383.2244821218938
 20
174.8764438099816
 30
0.0
 10
382.7661081393117
 20
174.4571650501439
 30
0.0
 10
382.1988945366387
 20
174.1892512657966
 30
0.0
 10
381.6241307015296
 20
173.9523355935148
 30
0.0
 10
380.44137338336
 20
173.4648071025613
 30
0.0
 10
379.2266438489735
 20
173.1085432250226
 30
0.0
 10
377.9950496694916
 20
172.8159566844903
 30
0.0
 10
376.5413379956077
 20
172.4706022839271
 30
0.0
 10
375.0641300743097
 20
172.2139647497243
 30
0.0
 10
373.5839444419974
 20
171.9850559768179
 30
0.0
 10
372.915492959709
 20
171.8816808289892
 30
0.0
 10
372.2464341960515
 20
171.7839607498139
 30
0.0
 10
371.5800074411423
 20
171.6795777754717
 30
0.0
 10
371.1678801529961
 20
171.6150259371322
 30
0.0
 10
370.7567594377223
 20
171.5479259729455
 30
0.0
 10
370.3458755076846
 20
171.4596334704961
 30
0.0
 10
370.2514493048618
 20
171.4393427627436
 30
0.0
 10
370.1570356075443
 20
171.4179327982646
 30
0.0
 10
370.0662137941723
 20
171.3904683132856
 30
0.0
 10
370.0342234919225
 20
171.3807944569423
 30
0.0
 10
370.0026788240019
 20
171.3703694342835
 30
0.0
 10
369.9711247544485
 20
171.3550429847634
 30
0.0
 10
369.9587169314209
 20
171.3490162542633
 30
0.0
 10
369.9463076546664
 20
171.3422316393964
 30
0.0
 10
369.9394284078692
 20
171.330804602084
 30
0.0
 10
369.9348260002343
 20
171.3231595959721
 30
0.0
 10
369.9326988243452
 20
171.3134366496818
 30
0.0
 10
369.9338349349459
 20
171.3047017284331
 30
0.0
 10
369.9362534652719
 20
171.2861069965728
 30
0.0
 10
369.9534602548346
 20
171.271989705033
 30
0.0
 10
369.9711247544485
 20
171.2618184360111
 30
0.0
 10
370.0095023959259
 20
171.2397204810921
 30
0.0
 10
370.0500404879487
 20
171.2362482621371
 30
0.0
 10
370.0904521768466
 20
171.2301220894318
 30
0.0
 10
370.1550832254997
 20
171.2203244052302
 30
0.0
 10
370.2193909588776
 20
171.2037384096738
 30
0.0
 10
370.2843592382511
 20
171.1928322699337
 30
0.0
 10
370.377999005432
 20
171.1771130851833
 30
0.0
 10
370.4730109838897
 20
171.1731931729328
 30
0.0
 10
370.5677618664548
 20
171.1667293962828
 30
0.0
 10
370.6897356378259
 20
171.1584085110905
 30
0.0
 10
370.8112767296107
 20
171.1458720167899
 30
0.0
 10
370.9332020975636
 20
171.140626522632
 30
0.0
 10
371.0219404651638
 20
171.1368088053139
 30
0.0
 10
371.1108823860809
 20
171.1368531729989
 30
0.0
 10
371.1998243069936
 20
171.1368975406846
 30
0.0
  0
LINE
  5
AA
330
70
100
AcDbEntity
  8
SHADE
 62
     6
420
 16711935
370
     9
100
AcDbLine
 10
361.2834752788611
 20
190.1067585192706
 30
0.0
 11
357.1150174823872
 21
183.7116354934319
 31
0.0
  0
LINE
  5
AB
330
70
100
AcDbEntity
  8
SHADE
 62
     6
420
 16711935
370
     9
100
AcDbLine
 10
361.3606335542145
 20
185.4292786972946
 30
0.0
 11
360.0114038952816
 21
176.2827376851956
 31
0.0
  0
LINE
  5
AC
330
70
100
AcDbEntity
  8
SHADE
 62
     6
420
 16711935
370
     9
100
AcDbLine
 10
363.079290660169
 20
179.4113875559159
 30
0.0
 11
364.4364718689685
 21
173.2189151400949
 31
0.0
  0
LINE
  5
AD
330
70
100
AcDbEntity
  8
SHADE
 62
     6
420
 16711935
370
     9
100
AcDbLine
 10
366.4266153150373
 20
174.6522876733675
 30
0.0
 11
367.8274866828319
 21
171.7420136950198
 31
0.0
  0
SPLINE
  5
AE
330
70
100
AcDbEntity
  8
SHADE
 62
     6
420
 16711935
370
     9
100
AcDbSpline
210
0.0
220
0.0
230
1.0
 70
     8
 71
     3
 72
    17
 73
    13
 74
     0
 42
0.0000000001
 43
0.0000000001
 40
0.0
 40
0.0
 40
0.0
 40
0.0
 40
1.0
 40
1.0
 40
1.0
 40
2.0
 40
2.0
 40
2.0
 40
3.0
 40
3.0
 40
3.0
 40
4.0
 40
4.0
 40
4.0
 40
4.0
 10
367.962470964682
 20
199.5416766498355
 30
0.0
 10
367.1840821198415
 20
198.8688582079687
 30
0.0
 10
366.4149723528732
 20
198.1886315862749
 30
0.0
 10
365.7906269650321
 20
197.3928287653806
 30
0.0
 10
364.7907761289062
 20
196.1183993688307
 30
0.0
 10
364.1621888526485
 20
194.5475625866187
 30
0.0
 10
363.7278266251904
 20
192.9533236861542
 30
0.0
 10
363.3811323410539
 20
191.6808522800331
 30
0.0
 10
363.1581736086877
 20
190.3934720141467
 30
0.0
 10
363.1000178261089
 20
189.0967839203642
 30
0.0
 10
363.0661184097937
 20
188.3409352743575
 30
0.0
 10
363.0882158455557
 20
187.5819240086152
 30
0.0
 10
363.127890718179
 20
186.821919995126
 30
0.0
  0
SPLINE
  5
AF
330
70
100
AcDbEntity
  8
SHADE
 62
     6
420
 16711935
370
     9
100
AcDbSpline
210
0.0
220
0.0
230
1.0
 70
     8
 71
     3
 72
    11
 73
     7
 74
     0
 42
0.0000000001
 43
0.0000000001
 40
0.0
 40
0.0
 40
0.0
 40
0.0
 40
1.0
 40
1.0
 40
1.0
 40
2.0
 40
2.0
 40
2.0
 40
2.0
 10
363.8253598441561
 20
178.0734810671898
 30
0.0
 10
363.8159490820171
 20
178.0952971890515
 30
0.0
 10
363.8065383198686
 20
178.1171133109119
 30
0.0
 10
363.797127557729
 20
178.1389294327737
 30
0.0
 10
363.6018705855203
 20
178.5915760766737
 30
0.0
 10
363.4066136133025
 20
179.0442227205698
 30
0.0
 10
363.2177332848856
 20
179.4993381517765
 30
0.0
  0
SPLINE
  5
B0
330
70
100
AcDbEntity
  8
SHADE
 62
     6
420
 16711935
370
     9
100
AcDbSpline
210
0.0
220
0.0
230
1.0
 70
     8
 71
     3
 72
    20
 73
    16
 74
     0
 42
0.0000000001
 43
0.0000000001
 40
0.0
 40
0.0
 40
0.0
 40
0.0
 40
1.0
 40
1.0
 40
1.0
 40
2.0
 40
2.0
 40
2.0
 40
3.0
 40
3.0
 40
3.0
 40
4.0
 40
4.0
 40
4.0
 40
5.0
 40
5.0
 40
5.0
 40
5.0
 10
364.044906638306
 20
198.4074693328964
 30
0.0
 10
364.4103986784767
 20
198.5110060844183
 30
0.0
 10
364.828802463627
 20
198.6295322432397
 30
0.0
 10
365.2455466799761
 20
198.7539335082493
 30
0.0
 10
365.940394499975
 20
198.9613507786185
 30
0.0
 10
366.6306287671567
 20
199.1851006727047
 30
0.0
 10
367.3296726565469
 20
199.3768641506956
 30
0.0
 10
368.2194025817771
 20
199.6209371016571
 30
0.0
 10
369.123403848319
 20
199.8131929541422
 30
0.0
 10
370.0290387737994
 20
199.9921042913805
 30
0.0
 10
370.6226078930813
 20
200.1093659405131
 30
0.0
 10
371.2168787869893
 20
200.2208951555081
 30
0.0
 10
371.8132351817837
 20
200.3227958669974
 30
0.0
 10
371.8141789278205
 20
200.3229571269311
 30
0.0
 10
371.8151226790794
 20
200.3231183627511
 30
0.0
 10
371.8160664355361
 20
200.323279574583
 30
0.0
  0
SPLINE
  5
B1
330
70
100
AcDbEntity
  8
SHADE
 62
     6
420
 16711935
370
     9
100
AcDbSpline
210
0.0
220
0.0
230
1.0
 70
     8
 71
     3
 72
    11
 73
     7
 74
     0
 42
0.0000000001
 43
0.0000000001
 40
0.0
 40
0.0
 40
0.0
 40
0.0
 40
1.0
 40
1.0
 40
1.0
 40
2.0
 40
2.0
 40
2.0
 40
2.0
 10
365.0841691615256
 20
196.3456047373464
 30
0.0
 10
366.05772538372
 20
196.7591208884795
 30
0.0
 10
367.031281605915
 20
197.1726370396061
 30
0.0
 10
368.0229721186029
 20
197.536910714435
 30
0.0
 10
369.2654574024667
 20
197.9933078206669
 30
0.0
 10
370.5364089690703
 20
198.3724066033725
 30
0.0
 10
371.8160664355361
 20
198.7188207999604
 30
0.0
  0
SPLINE
  5
B2
330
70
100
AcDbEntity
  8
SHADE
 62
     6
420
 16711935
370
     9
100
AcDbSpline
210
0.0
220
0.0
230
1.0
 70
     8
 71
     3
 72
    14
 73
    10
 74
     0
 42
0.0000000001
 43
0.0000000001
 40
0.0
 40
0.0
 40
0.0
 40
0.0
 40
1.0
 40
1.0
 40
1.0
 40
2.0
 40
2.0
 40
2.0
 40
3.0
 40
3.0
 40
3.0
 40
3.0
 10
363.4539888080781
 20
191.821673987516
 30
0.0
 10
364.1460373729001
 20
192.1899220828078
 30
0.0
 10
364.8380832978994
 20
192.5581679181774
 30
0.0
 10
365.5453132875809
 20
192.8939997407866
 30
0.0
 10
366.6211907791823
 20
193.404885738524
 30
0.0
 10
367.7322075097824
 20
193.8407586376713
 30
0.0
 10
368.840562674301
 20
194.281069831477
 30
0.0
 10
369.8328442978521
 20
194.6752690198259
 30
0.0
 10
370.8229926345735
 20
195.0730255707396
 30
0.0
 10
371.8160664355361
 20
195.4613602645142
 30
0.0
  0
SPLINE
  5
B3
330
70
100
AcDbEntity
  8
SHADE
 62
     6
420
 16711935
370
     9
100
AcDbSpline
210
0.0
220
0.0
230
1.0
 70
     8
 71
     3
 72
    23
 73
    19
 74
     0
 42
0.0000000001
 43
0.0000000001
 40
0.0
 40
0.0
 40
0.0
 40
0.0
 40
1.0
 40
1.0
 40
1.0
 40
2.0
 40
2.0
 40
2.0
 40
3.0
 40
3.0
 40
3.0
 40
4.0
 40
4.0
 40
4.0
 40
5.0
 40
5.0
 40
5.0
 40
6.0
 40
6.0
 40
6.0
 40
6.0
 10
366.6886584745914
 20
203.0538662250894
 30
0.0
 10
366.6707552964199
 20
203.0698432044355
 30
0.0
 10
366.6549628224246
 20
203.0876078963726
 30
0.0
 10
366.6445607077394
 20
203.1099380851335
 30
0.0
 10
366.6291641350211
 20
203.1429898621474
 30
0.0
 10
366.6255768187903
 20
203.1860437781348
 30
0.0
 10
366.6395349363205
 20
203.2154792848831
 30
0.0
 10
366.6615145974958
 20
203.2618309840545
 30
0.0
 10
366.7270005831132
 20
203.2744139580584
 30
0.0
 10
366.7903080788234
 20
203.2858400847175
 30
0.0
 10
367.1869007420544
 20
203.3574195707078
 30
0.0
 10
367.4979996023895
 20
203.3835991315713
 30
0.0
 10
367.8256169906581
 20
203.4064585987155
 30
0.0
 10
368.4835274470226
 20
203.4523642282745
 30
0.0
 10
369.208052749968
 20
203.484880799525
 30
0.0
 10
369.9163378999968
 20
203.5069740270507
 30
0.0
 10
370.6188707221936
 20
203.5288878247409
 30
0.0
 10
371.3054261086394
 20
203.5405468972705
 30
0.0
 10
371.991981495082
 20
203.5522059697997
 30
0.0
  0
SPLINE
  5
B4
330
70
100
AcDbEntity
  8
SHADE
 62
     6
420
 16711935
370
     9
100
AcDbSpline
210
0.0
220
0.0
230
1.0
 70
     8
 71
     3
 72
    20
 73
    16
 74
     0
 42
0.0000000001
 43
0.0000000001
 40
0.0
 40
0.0
 40
0.0
 40
0.0
 40
1.0
 40
1.0
 40
1.0
 40
2.0
 40
2.0
 40
2.0
 40
3.0
 40
3.0
 40
3.0
 40
4.0
 40
4.0
 40
4.0
 40
5.0
 40
5.0
 40
5.0
 40
5.0
 10
375.6061586083359
 20
203.5408135337022
 30
0.0
 10
375.6118443617124
 20
203.5407714326458
 30
0.0
 10
375.6175301150849
 20
203.54072933159
 30
0.0
 10
375.6232158684607
 20
203.5406872305332
 30
0.0
 10
375.7301722561574
 20
203.5398952551057
 30
0.0
 10
375.8371286438546
 20
203.5391032796776
 30
0.0
 10
375.9368559001366
 20
203.5347694940883
 30
0.0
 10
376.0066928590609
 20
203.5317346326289
 30
0.0
 10
376.072984713686
 20
203.5269628977188
 30
0.0
 10
376.1558121486607
 20
203.5170162847456
 30
0.0
 10
376.2170803705292
 20
203.509658682878
 30
0.0
 10
376.2873963627731
 20
203.4994695439576
 30
0.0
 10
376.315591032721
 20
203.4874276025134
 30
0.0
 10
376.3932493491203
 20
203.4542597413325
 30
0.0
 10
376.151353922952
 20
203.407035579241
 30
0.0
 10
375.8985616789638
 20
203.3593320957339
 30
0.0
  0
SPLINE
  5
B5
330
70
100
AcDbEntity
  8
SHADE
 62
     6
420
 16711935
370
     9
100
AcDbSpline
210
0.0
220
0.0
230
1.0
 70
     8
 71
     3
 72
    14
 73
    10
 74
     0
 42
0.0000000001
 43
0.0000000001
 40
0.0
 40
0.0
 40
0.0
 40
0.0
 40
1.0
 40
1.0
 40
1.0
 40
2.0
 40
2.0
 40
2.0
 40
3.0
 40
3.0
 40
3.0
 40
3.0
 10
376.3174764096409
 20
203.4037004084798
 30
0.0
 10
376.5039377856499
 20
203.3917855826806
 30
0.0
 10
376.6924319136135
 20
203.378486355943
 30
0.0
 10
376.9203604506742
 20
203.3383304174838
 30
0.0
 10
377.0502805710965
 20
203.3154413820511
 30
0.0
 10
377.1930130995341
 20
203.283826486228
 30
0.0
 10
377.2538236446915
 20
203.2526701474577
 30
0.0
 10
377.4448132229598
 20
203.1548164612821
 30
0.0
 10
376.8277085752905
 20
203.0614860702253
 30
0.0
 10
376.2105781035856
 20
202.9739425101394
 30
0.0
  0
LINE
  5
B6
330
70
100
AcDbEntity
  8
SHADE
 62
     6
420
 16711935
370
     9
100
AcDbLine
 10
376.3295540514228
 20
203.4712164059935
 30
0.0
 11
376.2413815174464
 21
202.9783174865309
 31
0.0
  0
LINE
  5
B7
330
70
100
AcDbEntity
  8
SHADE
 62
     6
420
 16711935
370
     9
100
AcDbLine
 10
375.605401229388
 20
203.5424053664367
 30
0.0
 11
375.7067286228628
 21
203.3294389751151
 31
0.0
  0
LINE
  5
B8
330
70
100
AcDbEntity
  8
SHADE
 62
     6
420
 16711935
370
     9
100
AcDbLine
 10
373.1175895347754
 20
203.5568598082817
 30
0.0
 11
373.4212735217336
 21
203.5135050290514
 31
0.0
  0
SPLINE
  5
B9
330
70
100
AcDbEntity
  8
SHADE
 62
     6
420
 16711935
370
     9
100
AcDbSpline
210
0.0
220
0.0
230
1.0
 70
     8
 71
     3
 72
    35
 73
    31
 74
     0
 42
0.0000000001
 43
0.0000000001
 40
0.0
 40
0.0
 40
0.0
 40
0.0
 40
1.0
 40
1.0
 40
1.0
 40
2.0
 40
2.0
 40
2.0
 40
3.0
 40
3.0
 40
3.0
 40
4.0
 40
4.0
 40
4.0
 40
5.0
 40
5.0
 40
5.0
 40
6.0
 40
6.0
 40
6.0
 40
7.0
 40
7.0
 40
7.0
 40
8.0
 40
8.0
 40
8.0
 40
9.0
 40
9.0
 40
9.0
 40
10.0
 40
10.0
 40
10.0
 40
10.0
 10
359.8809752412052
 20
197.6083856365075
 30
0.0
 10
359.7867846145933
 20
197.7138550633843
 30
0.0
 10
359.6925939879782
 20
197.8193244902597
 30
0.0
 10
359.6198802953884
 20
197.9395525437196
 30
0.0
 10
359.5346124357984
 20
198.0805382152778
 30
0.0
 10
359.4788777829844
 20
198.2418186630932
 30
0.0
 10
359.4594944780185
 20
198.4073445110367
 30
0.0
 10
359.4259410291734
 20
198.6938778489891
 30
0.0
 10
359.5013154961043
 20
198.9931326571133
 30
0.0
 10
359.6466112649491
 20
199.2426873098215
 30
0.0
 10
359.7838190002828
 20
199.4783502545293
 30
0.0
 10
359.9833802252135
 20
199.6696922549868
 30
0.0
 10
360.2012788833422
 20
199.8307686401642
 30
0.0
 10
360.6113167848084
 20
200.1338793776203
 30
0.0
 10
361.0862894758442
 20
200.3298163716908
 30
0.0
 10
361.5645583309557
 20
200.5057256215798
 30
0.0
 10
362.0396228857182
 20
200.6804563166406
 30
0.0
 10
362.5179395853133
 20
200.835426731848
 30
0.0
 10
363.001347944861
 20
200.9735175889014
 30
0.0
 10
364.5246607957174
 20
201.4086684773367
 30
0.0
 10
366.0985339056348
 20
201.6762051022508
 30
0.0
 10
367.6759944380994
 20
201.8789609915334
 30
0.0
 10
369.1993168502734
 20
202.0747583404915
 30
0.0
 10
370.725984671233
 20
202.210145174936
 30
0.0
 10
372.2448081130819
 20
202.3972144830218
 30
0.0
 10
373.4800511431593
 20
202.5493559713575
 30
0.0
 10
374.7101055896757
 20
202.7356822982216
 30
0.0
 10
375.9484370895918
 20
202.9146279320421
 30
0.0
 10
376.0357833082157
 20
202.9272499354817
 30
0.0
 10
376.1231707071945
 20
202.9398352181729
 30
0.0
 10
376.2105781035856
 20
202.9516140062732
 30
0.0
  0
SPLINE
  5
BA
330
70
100
AcDbEntity
  8
SHADE
 62
     6
420
 16711935
370
     9
100
AcDbSpline
210
0.0
220
0.0
230
1.0
 70
     8
 71
     3
 72
     8
 73
     4
 74
     0
 42
0.0000000001
 43
0.0000000001
 40
0.0
 40
0.0
 40
0.0
 40
0.0
 40
1.0
 40
1.0
 40
1.0
 40
1.0
 10
377.2510700718632
 20
203.1538516291545
 30
0.0
 10
377.1191574065629
 20
203.083639196201
 30
0.0
 10
376.6648747521952
 20
203.0160586379669
 30
0.0
 10
376.2105781035856
 20
202.9516140062732
 30
0.0
  0
LINE
  5
BB
330
70
100
AcDbEntity
  8
SHADE
 62
     6
420
 16711935
370
     9
100
AcDbLine
 10
377.2852170822547
 20
203.2032920574444
 30
0.0
 11
376.4833726119462
 21
201.9030668711674
 31
0.0
  0
SPLINE
  5
BC
330
70
100
AcDbEntity
  8
SHADE
 62
     6
420
 16711935
370
     9
100
AcDbSpline
210
0.0
220
0.0
230
1.0
 70
     8
 71
     3
 72
    32
 73
    28
 74
     0
 42
0.0000000001
 43
0.0000000001
 40
0.0
 40
0.0
 40
0.0
 40
0.0
 40
1.0
 40
1.0
 40
1.0
 40
2.0
 40
2.0
 40
2.0
 40
3.0
 40
3.0
 40
3.0
 40
4.0
 40
4.0
 40
4.0
 40
5.0
 40
5.0
 40
5.0
 40
6.0
 40
6.0
 40
6.0
 40
7.0
 40
7.0
 40
7.0
 40
8.0
 40
8.0
 40
8.0
 40
9.0
 40
9.0
 40
9.0
 40
9.0
 10
357.1564515250774
 20
191.599610956772
 30
0.0
 10
356.8477779317032
 20
191.9037967627753
 30
0.0
 10
356.5391047080149
 20
192.2079820283344
 30
0.0
 10
356.339604225116
 20
192.5866441348129
 30
0.0
 10
356.0602812377934
 20
193.116813431801
 30
0.0
 10
355.9949710101162
 20
193.7929806595794
 30
0.0
 10
356.149830671722
 20
194.370401147862
 30
0.0
 10
356.4050534143457
 20
195.3220423896122
 30
0.0
 10
357.2583021415663
 20
196.0054674992444
 30
0.0
 10
358.1233433746037
 20
196.571639915337
 30
0.0
 10
359.4644623209011
 20
197.4494068067767
 30
0.0
 10
360.8339256547221
 20
198.0453459141289
 30
0.0
 10
362.2601422110934
 20
198.5451626608414
 30
0.0
 10
364.0023566795821
 20
199.1557206885359
 30
0.0
 10
365.8292593303447
 20
199.6228431960481
 30
0.0
 10
367.6493679633609
 20
200.0632562187027
 30
0.0
 10
369.0994429393235
 20
200.4141319255948
 30
0.0
 10
370.5452055754936
 20
200.7480544276828
 30
0.0
 10
372.0038750778875
 20
201.0306696523076
 30
0.0
 10
372.9261145940708
 20
201.2093522994736
 30
0.0
 10
373.8535134539159
 20
201.3675255625567
 30
0.0
 10
374.7769658593265
 20
201.5442550846447
 30
0.0
 10
375.3821704712525
 20
201.6600786194608
 30
0.0
 10
375.9856800331669
 20
201.7838722924395
 30
0.0
 10
376.5903952204669
 20
201.9016463579356
 30
0.0
 10
377.0796321492946
 20
201.9969299283
 30
0.0
 10
377.5696582091023
 20
202.0882734200841
 30
0.0
 10
378.0596840383481
 20
202.1796181282173
 30
0.0
  0
SPLINE
  5
BD
330
70
100
AcDbEntity
  8
SHADE
 62
     6
420
 16711935
370
     9
100
AcDbSpline
210
0.0
220
0.0
230
1.0
 70
     8
 71
     3
 72
    17
 73
    13
 74
     0
 42
0.0000000001
 43
0.0000000001
 40
0.0
 40
0.0
 40
0.0
 40
0.0
 40
1.0
 40
1.0
 40
1.0
 40
2.0
 40
2.0
 40
2.0
 40
3.0
 40
3.0
 40
3.0
 40
4.0
 40
4.0
 40
4.0
 40
4.0
 10
378.7488690562621
 20
202.5735098953127
 30
0.0
 10
378.7490141078374
 20
202.5723040543241
 30
0.0
 10
378.7491361302428
 20
202.5710987694492
 30
0.0
 10
378.749233936607
 20
202.5698942703942
 30
0.0
 10
378.7533668132055
 20
202.5189973166935
 30
0.0
 10
378.7142608679307
 20
202.4695034791768
 30
0.0
 10
378.6716750848249
 20
202.430288337179
 30
0.0
 10
378.5538007021005
 20
202.3217436464677
 30
0.0
 10
378.4092658007967
 20
202.2919484164906
 30
0.0
 10
378.2683690555448
 20
202.2493176830165
 30
0.0
 10
378.1982686647331
 20
202.228107604164
 30
0.0
 10
378.1290688497341
 20
202.2037202718157
 30
0.0
 10
378.0598690485265
 20
202.1793329378571
 30
0.0
  0
SPLINE
  5
BE
330
70
100
AcDbEntity
  8
SHADE
 62
     6
420
 16711935
370
     9
100
AcDbSpline
210
0.0
220
0.0
230
1.0
 70
     8
 71
     3
 72
    29
 73
    25
 74
     0
 42
0.0000000001
 43
0.0000000001
 40
0.0
 40
0.0
 40
0.0
 40
0.0
 40
1.0
 40
1.0
 40
1.0
 40
2.0
 40
2.0
 40
2.0
 40
3.0
 40
3.0
 40
3.0
 40
4.0
 40
4.0
 40
4.0
 40
5.0
 40
5.0
 40
5.0
 40
6.0
 40
6.0
 40
6.0
 40
7.0
 40
7.0
 40
7.0
 40
8.0
 40
8.0
 40
8.0
 40
8.0
 10
354.1387483266433
 20
187.6861637760102
 30
0.0
 10
354.1412177371321
 20
188.0724589320458
 30
0.0
 10
354.228901746747
 20
188.4624122938453
 30
0.0
 10
354.3806367097096
 20
188.8182029196092
 30
0.0
 10
354.5664896502462
 20
189.2539939378743
 30
0.0
 10
354.8484358991607
 20
189.6385318497049
 30
0.0
 10
355.1661839590862
 20
189.9856134152138
 30
0.0
 10
355.8339026201772
 20
190.7149737715509
 30
0.0
 10
356.6597192202242
 20
191.2789298930993
 30
0.0
 10
357.5119153287553
 20
191.7858258617043
 30
0.0
 10
359.0463291279164
 20
192.6985126965546
 30
0.0
 10
360.6662638929038
 20
193.4262135453111
 30
0.0
 10
362.3124818527275
 20
194.0879157175181
 30
0.0
 10
364.4790589130373
 20
194.958777767404
 30
0.0
 10
366.6911611631034
 20
195.7153233389233
 30
0.0
 10
368.8914400662599
 20
196.4991093579683
 30
0.0
 10
369.9229902413258
 20
196.8665694122341
 30
0.0
 10
370.9519416593571
 20
197.240016883182
 30
0.0
 10
371.9899875499146
 20
197.5901472043227
 30
0.0
 10
373.9587939305328
 20
198.2542207453747
 30
0.0
 10
375.9603155747976
 20
198.8344162273729
 30
0.0
 10
377.878919990826
 20
199.6248214573863
 30
0.0
 10
378.6523722709822
 20
199.9434596937512
 30
0.0
 10
379.4123491735013
 20
200.2962603810039
 30
0.0
 10
380.1723260760255
 20
200.6490610682514
 30
0.0
  0
SPLINE
  5
BF
330
70
100
AcDbEntity
  8
SHADE
 62
     6
420
 16711935
370
     9
100
AcDbSpline
210
0.0
220
0.0
230
1.0
 70
     8
 71
     3
 72
    23
 73
    19
 74
     0
 42
0.0000000001
 43
0.0000000001
 40
0.0
 40
0.0
 40
0.0
 40
0.0
 40
1.0
 40
1.0
 40
1.0
 40
2.0
 40
2.0
 40
2.0
 40
3.0
 40
3.0
 40
3.0
 40
4.0
 40
4.0
 40
4.0
 40
5.0
 40
5.0
 40
5.0
 40
6.0
 40
6.0
 40
6.0
 40
6.0
 10
356.0603658491448
 20
181.2130854568911
 30
0.0
 10
356.0611086039218
 20
181.3442219108417
 30
0.0
 10
356.0705871041784
 20
181.4748239094545
 30
0.0
 10
356.0891004877796
 20
181.6033898569891
 30
0.0
 10
356.1720220636053
 20
182.1792376434555
 30
0.0
 10
356.4361969898751
 20
182.7142391826802
 30
0.0
 10
356.7602903677851
 20
183.1974658219961
 30
0.0
 10
357.6069563819548
 20
184.4598537649112
 30
0.0
 10
358.8625482054717
 20
185.368893243857
 30
0.0
 10
360.1581891352966
 20
186.1758709145055
 30
0.0
 10
362.9182421009216
 20
187.8949437392342
 30
0.0
 10
365.8600383389979
 20
189.1508589870761
 30
0.0
 10
368.841708207826
 20
190.328858297021
 30
0.0
 10
370.7552593864301
 20
191.0848648527785
 30
0.0
 10
372.6852333510354
 20
191.8087801053376
 30
0.0
 10
374.5887715553473
 20
192.5941241420283
 30
0.0
 10
376.8843734952812
 20
193.5412221777075
 30
0.0
 10
379.1415284955509
 20
194.5776593786461
 30
0.0
 10
381.3934250317586
 20
195.6266199266045
 30
0.0
  0
SPLINE
  5
C0
330
70
100
AcDbEntity
  8
SHADE
 62
     6
420
 16711935
370
     9
100
AcDbSpline
210
0.0
220
0.0
230
1.0
 70
     8
 71
     3
 72
    17
 73
    13
 74
     0
 42
0.0000000001
 43
0.0000000001
 40
0.0
 40
0.0
 40
0.0
 40
0.0
 40
1.0
 40
1.0
 40
1.0
 40
2.0
 40
2.0
 40
2.0
 40
3.0
 40
3.0
 40
3.0
 40
4.0
 40
4.0
 40
4.0
 40
4.0
 10
384.4911673924283
 20
198.6352301436767
 30
0.0
 10
384.4923422691236
 20
198.5171042151252
 30
0.0
 10
384.4811127411041
 20
198.3993871753594
 30
0.0
 10
384.4567991325462
 20
198.2857707767353
 30
0.0
 10
384.3788358194607
 20
197.9214517231912
 30
0.0
 10
384.1663407101727
 20
197.5992958631043
 30
0.0
 10
383.909325585446
 20
197.333642868735
 30
0.0
 10
383.5706408870822
 20
196.9835755162247
 30
0.0
 10
383.1546473596567
 20
196.7316251644406
 30
0.0
 10
382.7429688981454
 20
196.4767277515324
 30
0.0
 10
382.2894050498358
 20
196.1958963203752
 30
0.0
 10
381.8410789905996
 20
195.9114876357379
 30
0.0
 10
381.3934250317586
 20
195.6266199266045
 30
0.0
  0
SPLINE
  5
C1
330
70
100
AcDbEntity
  8
SHADE
 62
     6
420
 16711935
370
     9
100
AcDbSpline
210
0.0
220
0.0
230
1.0
 70
     8
 71
     3
 72
    14
 73
    10
 74
     0
 42
0.0000000001
 43
0.0000000001
 40
0.0
 40
0.0
 40
0.0
 40
0.0
 40
1.0
 40
1.0
 40
1.0
 40
2.0
 40
2.0
 40
2.0
 40
3.0
 40
3.0
 40
3.0
 40
3.0
 10
380.9896618174923
 20
201.5170312074791
 30
0.0
 10
380.9907968908231
 20
201.4890803033539
 30
0.0
 10
380.98901088772
 20
201.4607947321957
 30
0.0
 10
380.9848466094866
 20
201.4333538198816
 30
0.0
 10
380.9505571113127
 20
201.2073998703899
 30
0.0
 10
380.7550157002834
 20
201.0387155162025
 30
0.0
 10
380.5638693707422
 20
200.9009414296993
 30
0.0
 10
380.4366918487683
 20
200.8092746581988
 30
0.0
 10
380.3114599364935
 20
200.7312912090235
 30
0.0
 10
380.1723260760255
 20
200.6490610682514
 30
0.0
  0
SPLINE
  5
C2
330
70
100
AcDbEntity
  8
SHADE
 62
     6
420
 16711935
370
     9
100
AcDbSpline
210
0.0
220
0.0
230
1.0
 70
     8
 71
     3
 72
    32
 73
    28
 74
     0
 42
0.0000000001
 43
0.0000000001
 40
0.0
 40
0.0
 40
0.0
 40
0.0
 40
1.0
 40
1.0
 40
1.0
 40
2.0
 40
2.0
 40
2.0
 40
3.0
 40
3.0
 40
3.0
 40
4.0
 40
4.0
 40
4.0
 40
5.0
 40
5.0
 40
5.0
 40
6.0
 40
6.0
 40
6.0
 40
7.0
 40
7.0
 40
7.0
 40
8.0
 40
8.0
 40
8.0
 40
9.0
 40
9.0
 40
9.0
 40
9.0
 10
367.7984365652672
 20
171.8023645617481
 30
0.0
 10
367.7813697507326
 20
171.8047543371307
 30
0.0
 10
367.7643029362026
 20
171.807144112514
 30
0.0
 10
367.7472361216725
 20
171.8095338879005
 30
0.0
 10
367.4995479350988
 20
171.8442163489922
 30
0.0
 10
367.2518597485303
 20
171.8788988100872
 30
0.0
 10
367.0041610036017
 20
171.9154324941218
 30
0.0
 10
366.749467423489
 20
171.9529978632352
 30
0.0
 10
366.4947626802746
 20
171.9925204859774
 30
0.0
 10
366.2444976741356
 20
172.0516479876838
 30
0.0
 10
366.0218743341658
 20
172.10424488134
 30
0.0
 10
365.8027641578709
 20
172.1723551145457
 30
0.0
 10
365.5843764361115
 20
172.240254055687
 30
0.0
 10
365.3977082018423
 20
172.2982910888586
 30
0.0
 10
365.21156779861
 20
172.3561737503654
 30
0.0
 10
365.0342754044307
 20
172.4445772960268
 30
0.0
 10
364.869629438767
 20
172.5266749359796
 30
0.0
 10
364.7126142285515
 20
172.6350945882535
 30
0.0
 10
364.6046726939703
 20
172.7798769724805
 30
0.0
 10
364.5573004655231
 20
172.8434175197573
 30
0.0
 10
364.5193801354061
 20
172.9139617577355
 30
0.0
 10
364.4894134301878
 20
172.9894392702646
 30
0.0
 10
364.4623480208939
 20
173.0576092527339
 30
0.0
 10
364.4417706933218
 20
173.1298034994676
 30
0.0
 10
364.4370228557434
 20
173.199001568048
 30
0.0
 10
364.4366859379033
 20
173.2039120274919
 30
0.0
 10
364.436428731973
 20
173.2088073992022
 30
0.0
 10
364.4362500245934
 20
173.2136877311797
 30
0.0
  0
SPLINE
  5
C3
330
70
100
AcDbEntity
  8
SHADE
 62
     6
420
 16711935
370
     9
100
AcDbSpline
210
0.0
220
0.0
230
1.0
 70
     8
 71
     3
 72
    17
 73
    13
 74
     0
 42
0.0000000001
 43
0.0000000001
 40
0.0
 40
0.0
 40
0.0
 40
0.0
 40
1.0
 40
1.0
 40
1.0
 40
2.0
 40
2.0
 40
2.0
 40
3.0
 40
3.0
 40
3.0
 40
4.0
 40
4.0
 40
4.0
 40
4.0
 10
389.8572512327234
 20
187.7578277231826
 30
0.0
 10
389.8601572463724
 20
188.2175995490403
 30
0.0
 10
389.7431276045401
 20
188.6837042844932
 30
0.0
 10
389.5336048889487
 20
189.0910942687848
 30
0.0
 10
389.3218599265155
 20
189.5028051263522
 30
0.0
 10
389.0156494793063
 20
189.8545491430889
 30
0.0
 10
388.6889405254312
 20
190.1816735735808
 30
0.0
 10
388.3640028982129
 20
190.5070244248097
 30
0.0
 10
388.0187884363769
 20
190.8080219274352
 30
0.0
 10
387.6518209904769
 20
191.0797977069394
 30
0.0
 10
387.4081970461802
 20
191.2602253936669
 30
0.0
 10
387.154985638823
 20
191.4277738271271
 30
0.0
 10
386.898730644875
 20
191.5912336792485
 30
0.0
  0
SPLINE
  5
C4
330
70
100
AcDbEntity
  8
SHADE
 62
     6
420
 16711935
370
     9
100
AcDbSpline
210
0.0
220
0.0
230
1.0
 70
     8
 71
     3
 72
    47
 73
    43
 74
     0
 42
0.0000000001
 43
0.0000000001
 40
0.0
 40
0.0
 40
0.0
 40
0.0
 40
1.0
 40
1.0
 40
1.0
 40
2.0
 40
2.0
 40
2.0
 40
3.0
 40
3.0
 40
3.0
 40
4.0
 40
4.0
 40
4.0
 40
5.0
 40
5.0
 40
5.0
 40
6.0
 40
6.0
 40
6.0
 40
7.0
 40
7.0
 40
7.0
 40
8.0
 40
8.0
 40
8.0
 40
9.0
 40
9.0
 40
9.0
 40
10.0
 40
10.0
 40
10.0
 40
11.0
 40
11.0
 40
11.0
 40
12.0
 40
12.0
 40
12.0
 40
13.0
 40
13.0
 40
13.0
 40
14.0
 40
14.0
 40
14.0
 40
14.0
 10
364.4268385600918
 20
173.2293767207773
 30
0.0
 10
364.4070994224673
 20
173.2351816993563
 30
0.0
 10
364.3874915499797
 20
173.2409480748703
 30
0.0
 10
364.3678762831157
 20
173.2467166249572
 30
0.0
 10
363.797482442487
 20
173.4144607326828
 30
0.0
 10
363.2208359662296
 20
173.5840436449541
 30
0.0
 10
362.6676440785085
 20
173.7973544625899
 30
0.0
 10
362.1201913002827
 20
174.0084522793346
 30
0.0
 10
361.5957089740608
 20
174.2623753944168
 30
0.0
 10
361.0900762788799
 20
174.5969436213053
 30
0.0
 10
360.6880652167327
 20
174.8629472431727
 30
0.0
 10
360.2979695528886
 20
175.179928978421
 30
0.0
 10
360.117602977739
 20
175.6126379580527
 30
0.0
 10
360.038761475111
 20
175.8017829042542
 30
0.0
 10
359.999993385986
 20
176.0130401179854
 30
0.0
 10
360.0095503887231
 20
176.2177324565405
 30
0.0
 10
360.0289632975873
 20
176.633519060701
 30
0.0
 10
360.2477694779551
 20
177.0222184543137
 30
0.0
 10
360.506592298195
 20
177.3630899001067
 30
0.0
 10
361.0469247419912
 20
178.0747114687086
 30
0.0
 10
361.7616616425985
 20
178.5778845697005
 30
0.0
 10
362.4947599360845
 20
179.0487102887506
 30
0.0
 10
364.4902047682224
 20
180.3302666042842
 30
0.0
 10
366.6216877315073
 20
181.372163684034
 30
0.0
 10
368.7834206167924
 20
182.3335089948281
 30
0.0
 10
370.7841123259387
 20
183.22323760377
 30
0.0
 10
372.8107148185778
 20
184.0439690283501
 30
0.0
 10
374.8343656016699
 20
184.8835500955976
 30
0.0
 10
376.8908585505739
 20
185.7367568639064
 30
0.0
 10
378.9443032049246
 20
186.6094300675989
 30
0.0
 10
380.9069211043465
 20
187.649696374399
 30
0.0
 10
382.0603283071973
 20
188.2610485135448
 30
0.0
 10
383.1823660093888
 20
188.930283508477
 30
0.0
 10
384.2997723994386
 20
189.6162534944849
 30
0.0
 10
385.2185018115853
 20
190.1802567144416
 30
0.0
 10
386.1341004117106
 20
190.7555729509845
 30
0.0
 10
386.8714240180117
 20
191.5612000967666
 30
0.0
 10
387.3029487860488
 20
192.0327000789057
 30
0.0
 10
387.6734095035939
 20
192.5830878326184
 30
0.0
 10
387.8006762835467
 20
193.2035994498008
 30
0.0
 10
387.8358694947826
 20
193.3751901541967
 30
0.0
 10
387.8524658116157
 20
193.5521431883351
 30
0.0
 10
387.8513516323611
 20
193.7298443005163
 30
0.0
  0
SPLINE
  5
C5
330
70
100
AcDbEntity
  8
SHADE
 62
     6
420
 16711935
370
     9
100
AcDbSpline
210
0.0
220
0.0
230
1.0
 70
     8
 71
     3
 72
    11
 73
     7
 74
     0
 42
0.0000000001
 43
0.0000000001
 40
0.0
 40
0.0
 40
0.0
 40
0.0
 40
1.0
 40
1.0
 40
1.0
 40
2.0
 40
2.0
 40
2.0
 40
2.0
 10
363.6503260712483
 20
178.0734810671898
 30
0.0
 10
363.6409153091003
 20
178.0952971890515
 30
0.0
 10
363.6315045469607
 20
178.1171133109119
 30
0.0
 10
363.6220937848211
 20
178.1389294327737
 30
0.0
 10
363.4389964383268
 20
178.5633875120794
 30
0.0
 10
363.255899091832
 20
178.9878455913949
 30
0.0
 10
363.0780597220377
 20
179.4143393538274
 30
0.0
  0
LINE
  5
C6
330
70
100
AcDbEntity
  8
SHADE
 62
     6
420
 16711935
370
     9
100
AcDbLine
 10
364.044906638306
 20
198.4074693328964
 30
0.0
 11
363.8698728653936
 21
198.4074693328964
 31
0.0
  0
SPLINE
  5
C7
330
70
100
AcDbEntity
  8
SHADE
 62
     6
420
 16711935
370
     9
100
AcDbSpline
210
0.0
220
0.0
230
1.0
 70
     8
 71
     3
 72
     8
 73
     4
 74
     0
 42
0.0000000001
 43
0.0000000001
 40
0.0
 40
0.0
 40
0.0
 40
0.0
 40
1.0
 40
1.0
 40
1.0
 40
1.0
 10
364.6387017448566
 20
199.3105986730036
 30
0.0
 10
364.9270837088741
 20
199.7304365316611
 30
0.0
 10
365.2259271025841
 20
200.1445543931747
 30
0.0
 10
365.5252771695684
 20
200.5583952208852
 30
0.0
  0
SPLINE
  5
C8
330
70
100
AcDbEntity
  8
SHADE
 62
     6
420
 16711935
370
     9
100
AcDbSpline
210
0.0
220
0.0
230
1.0
 70
     8
 71
     3
 72
     8
 73
     4
 74
     0
 42
0.0000000001
 43
0.0000000001
 40
0.0
 40
0.0
 40
0.0
 40
0.0
 40
1.0
 40
1.0
 40
1.0
 40
1.0
 10
364.4214997127018
 20
199.2490562811271
 30
0.0
 10
364.7228666694648
 20
199.6899939124197
 30
0.0
 10
365.0362763520246
 20
200.1243469411143
 30
0.0
 10
365.3502433966605
 20
200.5583952208852
 30
0.0
  0
SPLINE
  5
C9
330
70
100
AcDbEntity
  8
SHADE
 62
     6
420
 16711935
370
     9
100
AcDbSpline
210
0.0
220
0.0
230
1.0
 70
     8
 71
     3
 72
    11
 73
     7
 74
     0
 42
0.0000000001
 43
0.0000000001
 40
0.0
 40
0.0
 40
0.0
 40
0.0
 40
1.0
 40
1.0
 40
1.0
 40
2.0
 40
2.0
 40
2.0
 40
2.0
 10
362.4047335532596
 20
194.8371723017268
 30
0.0
 10
362.6920976323968
 20
195.7393508952887
 30
0.0
 10
363.0473245591301
 20
196.6155307733949
 30
0.0
 10
363.4877332245693
 20
197.4451358222202
 30
0.0
 10
363.6614953152955
 20
197.7724543313113
 30
0.0
 10
363.8485174466998
 20
198.0925226464086
 30
0.0
 10
364.044906638306
 20
198.4074693328964
 30
0.0
  0
SPLINE
  5
CA
330
70
100
AcDbEntity
  8
SHADE
 62
     6
420
 16711935
370
     9
100
AcDbSpline
210
0.0
220
0.0
230
1.0
 70
     8
 71
     3
 72
    11
 73
     7
 74
     0
 42
0.0000000001
 43
0.0000000001
 40
0.0
 40
0.0
 40
0.0
 40
0.0
 40
1.0
 40
1.0
 40
1.0
 40
2.0
 40
2.0
 40
2.0
 40
2.0
 10
362.1908082160508
 20
194.7135880886397
 30
0.0
 10
362.4848427463701
 20
195.6593425925409
 30
0.0
 10
362.8522071853094
 20
196.5776989639465
 30
0.0
 10
363.312699451657
 20
197.4451358222202
 30
0.0
 10
363.4864615423838
 20
197.7724543313113
 30
0.0
 10
363.6734836737919
 20
198.0925226464086
 30
0.0
 10
363.8698728653936
 20
198.4074693328964
 30
0.0
  0
LINE
  5
CB
330
70
100
AcDbEntity
  8
SHADE
 62
     6
420
 16711935
370
     9
100
AcDbLine
 10
361.2510565450067
 20
189.7287901640679
 30
0.0
 11
361.4260903179145
 21
189.7287901640679
 31
0.0
  0
LINE
  5
CC
330
70
100
AcDbEntity
  8
SHADE
 62
     6
420
 16711935
370
     9
100
AcDbLine
 10
361.4260903179145
 20
189.7287901640679
 30
0.0
 11
363.4539888080781
 21
191.821673987516
 31
0.0
  0
SPLINE
  5
CD
330
70
100
AcDbEntity
  8
SHADE
 62
     6
420
 16711935
370
     9
100
AcDbSpline
210
0.0
220
0.0
230
1.0
 70
     8
 71
     3
 72
    11
 73
     7
 74
     0
 42
0.0000000001
 43
0.0000000001
 40
0.0
 40
0.0
 40
0.0
 40
0.0
 40
1.0
 40
1.0
 40
1.0
 40
2.0
 40
2.0
 40
2.0
 40
2.0
 10
361.4260903179145
 20
189.7287901640679
 30
0.0
 10
361.4987273283001
 20
190.6692088074359
 30
0.0
 10
361.6312868824277
 20
191.6070366037778
 30
0.0
 10
361.8170038254793
 20
192.5360790693476
 30
0.0
 10
361.9172179490955
 20
193.0373966925952
 30
0.0
 10
362.0329102013948
 20
193.5361562428662
 30
0.0
 10
362.1667824928488
 20
194.0291476522135
 30
0.0
  0
SPLINE
  5
CE
330
70
100
AcDbEntity
  8
SHADE
 62
     6
420
 16711935
370
     9
100
AcDbSpline
210
0.0
220
0.0
230
1.0
 70
     8
 71
     3
 72
    11
 73
     7
 74
     0
 42
0.0000000001
 43
0.0000000001
 40
0.0
 40
0.0
 40
0.0
 40
0.0
 40
1.0
 40
1.0
 40
1.0
 40
2.0
 40
2.0
 40
2.0
 40
2.0
 10
361.2510565450067
 20
189.7287901640679
 30
0.0
 10
361.3236935553922
 20
190.6692088074359
 30
0.0
 10
361.4562531095198
 20
191.6070366037778
 30
0.0
 10
361.6419700525676
 20
192.5360790693476
 30
0.0
 10
361.7367692730669
 20
193.0103088305067
 30
0.0
 10
361.8454191424491
 20
193.4822494925482
 30
0.0
 10
361.9702068307568
 20
193.9491837295991
 30
0.0
  0
LINE
  5
CF
330
70
100
AcDbEntity
  8
SHADE
 62
     6
420
 16711935
370
     9
100
AcDbLine
 10
361.6617291486659
 20
183.7299317293227
 30
0.0
 11
361.8367629215783
 21
183.7299317293227
 31
0.0
  0
LINE
  5
D0
330
70
100
AcDbEntity
  8
SHADE
 62
     6
420
 16711935
370
     9
100
AcDbLine
 10
361.8367629215783
 20
183.7299317293227
 30
0.0
 11
363.127890718179
 21
186.821919995126
 31
0.0
  0
LINE
  5
D1
330
70
100
AcDbEntity
  8
SHADE
 62
     6
420
 16711935
370
     9
100
AcDbLine
 10
363.6503260712483
 20
178.0734810671898
 30
0.0
 11
363.8253598441561
 21
178.0734810671898
 31
0.0
  0
LINE
  5
D2
330
70
100
AcDbEntity
  8
SHADE
 62
     6
420
 16711935
370
     9
100
AcDbLine
 10
363.8253598441561
 20
178.0734810671898
 30
0.0
 11
363.5827796349804
 21
179.7171329312111
 31
0.0
  0
SPLINE
  5
D3
330
70
100
AcDbEntity
  8
SHADE
 62
     6
420
 16711935
370
     9
100
AcDbSpline
210
0.0
220
0.0
230
1.0
 70
     8
 71
     3
 72
    11
 73
     7
 74
     0
 42
0.0000000001
 43
0.0000000001
 40
0.0
 40
0.0
 40
0.0
 40
0.0
 40
1.0
 40
1.0
 40
1.0
 40
2.0
 40
2.0
 40
2.0
 40
2.0
 10
361.8367631213668
 20
183.7299308235805
 30
0.0
 10
361.6552508743867
 20
184.5528247990768
 30
0.0
 10
361.5231932405501
 20
185.3865908887382
 30
0.0
 10
361.4457306256828
 20
186.2244346727976
 30
0.0
 10
361.4246403710653
 20
186.4525490834523
 30
0.0
 10
361.4075971085835
 20
186.6809657633941
 30
0.0
 10
361.3945033162079
 20
186.9095954170007
 30
0.0
  0
SPLINE
  5
D4
330
70
100
AcDbEntity
  8
SHADE
 62
     6
420
 16711935
370
     9
100
AcDbSpline
210
0.0
220
0.0
230
1.0
 70
     8
 71
     3
 72
    11
 73
     7
 74
     0
 42
0.0000000001
 43
0.0000000001
 40
0.0
 40
0.0
 40
0.0
 40
0.0
 40
1.0
 40
1.0
 40
1.0
 40
2.0
 40
2.0
 40
2.0
 40
2.0
 10
361.6617293344698
 20
183.7299308870003
 30
0.0
 10
361.480217094689
 20
184.5528248419153
 30
0.0
 10
361.3481594656491
 20
185.3865909102627
 30
0.0
 10
361.2706968527698
 20
186.2244346727976
 30
0.0
 10
361.2525710001341
 20
186.4204858000118
 30
0.0
 10
361.2374344206738
 20
186.6167601956274
 30
0.0
 10
361.2252252055581
 20
186.8132011730981
 30
0.0
  0
LINE
  5
D5
330
70
100
AcDbEntity
  8
SHADE
 62
     6
420
 16711935
370
     9
100
AcDbLine
 10
369.9368320621368
 20
171.294327156165
 30
0.0
 11
369.278471906156
 21
172.5306037899211
 31
0.0
  0
LINE
  5
D6
330
70
100
AcDbEntity
  8
SHADE
 62
     6
420
 16711935
370
     9
100
AcDbLine
 10
365.3502433966605
 20
200.5583952208852
 30
0.0
 11
365.5252771695684
 21
200.5583952208852
 31
0.0
  0
LINE
  5
D7
330
70
100
AcDbEntity
  8
SHADE
 62
     6
420
 16711935
370
     9
100
AcDbLine
 10
365.5252771695684
 20
200.5583952208852
 30
0.0
 11
367.2427214420701
 21
200.4381832949611
 31
0.0
  0
SPLINE
  5
D8
330
70
100
AcDbEntity
  8
SHADE
 62
     6
420
 16711935
370
     9
100
AcDbSpline
210
0.0
220
0.0
230
1.0
 70
     8
 71
     3
 72
    14
 73
    10
 74
     0
 42
0.0000000001
 43
0.0000000001
 40
0.0
 40
0.0
 40
0.0
 40
0.0
 40
1.0
 40
1.0
 40
1.0
 40
2.0
 40
2.0
 40
2.0
 40
3.0
 40
3.0
 40
3.0
 40
3.0
 10
367.2427214420701
 20
200.4381832949611
 30
0.0
 10
367.9319961969136
 20
200.5974967721842
 30
0.0
 10
368.6212709517576
 20
200.7568102494073
 30
0.0
 10
369.3169503524544
 20
200.8824246588428
 30
0.0
 10
369.9199679460575
 20
200.9913077144933
 30
0.0
 10
370.5277976635451
 20
201.0748710112499
 30
0.0
 10
371.1368923697037
 20
201.1445562251157
 30
0.0
 10
371.363122035711
 20
201.1704386740987
 30
0.0
 10
371.589526210026
 20
201.1944066073636
 30
0.0
 10
371.8160664355361
 20
201.2168819345403
 30
0.0
  0
SPLINE
  5
D9
330
70
100
AcDbEntity
  8
SHADE
 62
     6
420
 16711935
370
     9
100
AcDbSpline
210
0.0
220
0.0
230
1.0
 70
     8
 71
     3
 72
    14
 73
    10
 74
     0
 42
0.0000000001
 43
0.0000000001
 40
0.0
 40
0.0
 40
0.0
 40
0.0
 40
1.0
 40
1.0
 40
1.0
 40
2.0
 40
2.0
 40
2.0
 40
3.0
 40
3.0
 40
3.0
 40
3.0
 10
363.127890718179
 20
186.821919995126
 30
0.0
 10
363.5494673599132
 20
187.114452965298
 30
0.0
 10
363.9710440016474
 20
187.4069859354647
 30
0.0
 10
364.4071953894584
 20
187.675243555771
 30
0.0
 10
365.2604313612415
 20
188.2000316402445
 30
0.0
 10
366.1694455712772
 20
188.6319168198279
 30
0.0
 10
367.0845642089284
 20
189.0470403007273
 30
0.0
 10
368.6500255078676
 20
189.7571774533266
 30
0.0
 10
370.2333506467141
 20
190.4182636021151
 30
0.0
 10
371.8160664355361
 20
191.0721751162521
 30
0.0
  0
LINE
  5
DA
330
70
100
AcDbEntity
  8
SHADE
 62
     6
420
 16711935
370
     9
100
AcDbLine
 10
381.625329137437
 20
194.7582468416144
 30
0.0
 11
381.7130218427278
 21
194.8202872115732
 31
0.0
  0
SPLINE
  5
DB
330
70
100
AcDbEntity
  8
SHADE
 62
     6
420
 16711935
370
     9
100
AcDbSpline
210
0.0
220
0.0
230
1.0
 70
     8
 71
     3
 72
     8
 73
     4
 74
     0
 42
0.0000000001
 43
0.0000000001
 40
0.0
 40
0.0
 40
0.0
 40
0.0
 40
1.0
 40
1.0
 40
1.0
 40
1.0
 10
376.7057752540055
 20
202.2637022903827
 30
0.0
 10
376.8103700947238
 20
202.178194527397
 30
0.0
 10
376.914839161793
 20
202.0925634627279
 30
0.0
 10
377.0188401020206
 20
202.0064734718187
 30
0.0
  0
SPLINE
  5
DC
330
70
100
AcDbEntity
  8
SHADE
 62
     6
420
 16711935
370
     9
100
AcDbSpline
210
0.0
220
0.0
230
1.0
 70
     8
 71
     3
 72
     8
 73
     4
 74
     0
 42
0.0000000001
 43
0.0000000001
 40
0.0
 40
0.0
 40
0.0
 40
0.0
 40
1.0
 40
1.0
 40
1.0
 40
1.0
 10
376.6533155082407
 20
202.1786365635129
 30
0.0
 10
376.7331337970669
 20
202.1133344630054
 30
0.0
 10
376.8128542747194
 20
202.0479364737145
 30
0.0
 10
376.8923246410373
 20
201.982293288798
 30
0.0
  0
LINE
  5
DD
330
70
100
AcDbEntity
  8
SHADE
 62
     6
420
 16711935
370
     9
100
AcDbLine
 10
381.625329137437
 20
194.7582468416144
 30
0.0
 11
380.813695386011
 21
195.3523955326823
 31
0.0
  0
LINE
  5
DE
330
70
100
AcDbEntity
  8
SHADE
 62
     6
420
 16711935
370
     9
100
AcDbLine
 10
379.9725764355879
 20
198.6118630239794
 30
0.0
 11
379.8798588532392
 21
198.5612371731253
 31
0.0
  0
SPLINE
  5
DF
330
70
100
AcDbEntity
  8
SHADE
 62
     6
420
 16711935
370
     9
100
AcDbSpline
210
0.0
220
0.0
230
1.0
 70
     8
 71
     3
 72
     8
 73
     4
 74
     0
 42
0.0000000001
 43
0.0000000001
 40
0.0
 40
0.0
 40
0.0
 40
0.0
 40
1.0
 40
1.0
 40
1.0
 40
1.0
 10
381.3934250317586
 20
195.6266199266045
 30
0.0
 10
381.5018152426977
 20
195.3586058061352
 30
0.0
 10
381.6078571777275
 20
195.0896267495088
 30
0.0
 10
381.7130218427278
 20
194.8202872115732
 30
0.0
  0
SPLINE
  5
E0
330
70
100
AcDbEntity
  8
SHADE
 62
     6
420
 16711935
370
     9
100
AcDbSpline
210
0.0
220
0.0
230
1.0
 70
     8
 71
     3
 72
     8
 73
     4
 74
     0
 42
0.0000000001
 43
0.0000000001
 40
0.0
 40
0.0
 40
0.0
 40
0.0
 40
1.0
 40
1.0
 40
1.0
 40
1.0
 10
381.298616618334
 20
195.5824661260047
 30
0.0
 10
381.4094686844238
 20
195.3085267783392
 30
0.0
 10
381.5178491445574
 20
195.0335718166502
 30
0.0
 10
381.625329137437
 20
194.7582468416144
 30
0.0
  0
LINE
  5
E1
330
70
100
AcDbEntity
  8
SHADE
 62
     6
420
 16711935
370
     9
100
AcDbLine
 10
379.8798588532392
 20
198.5612371731253
 30
0.0
 11
378.5224029118825
 21
198.8282721492264
 31
0.0
  0
LINE
  5
E2
330
70
100
AcDbEntity
  8
SHADE
 62
     6
420
 16711935
370
     9
100
AcDbLine
 10
378.3975881833859
 20
200.7496954580189
 30
0.0
 11
378.3017471410408
 21
200.7012528446485
 31
0.0
  0
LINE
  5
E3
330
70
100
AcDbEntity
  8
SHADE
 62
     6
420
 16711935
370
     9
100
AcDbLine
 10
378.3017471410408
 20
200.7012528446485
 30
0.0
 11
376.591427898516
 21
200.1599073817538
 31
0.0
  0
SPLINE
  5
E4
330
70
100
AcDbEntity
  8
SHADE
 62
     6
420
 16711935
370
     9
100
AcDbSpline
210
0.0
220
0.0
230
1.0
 70
     8
 71
     3
 72
     8
 73
     4
 74
     0
 42
0.0000000001
 43
0.0000000001
 40
0.0
 40
0.0
 40
0.0
 40
0.0
 40
1.0
 40
1.0
 40
1.0
 40
1.0
 10
377.1777902972955
 20
201.7440556604733
 30
0.0
 10
377.569459572833
 20
201.4131372570784
 30
0.0
 10
377.9503819202769
 20
201.0716831467628
 30
0.0
 10
378.3017471490158
 20
200.7012528362333
 30
0.0
  0
SPLINE
  5
E5
330
70
100
AcDbEntity
  8
SHADE
 62
     6
420
 16711935
370
     9
100
AcDbSpline
210
0.0
220
0.0
230
1.0
 70
     8
 71
     3
 72
     8
 73
     4
 74
     0
 42
0.0000000001
 43
0.0000000001
 40
0.0
 40
0.0
 40
0.0
 40
0.0
 40
1.0
 40
1.0
 40
1.0
 40
1.0
 10
377.280207435106
 20
201.7879513119211
 30
0.0
 10
377.6696596032817
 20
201.4585239798394
 30
0.0
 10
378.0482939892158
 20
201.1184914792575
 30
0.0
 10
378.3975881913045
 20
200.7496954496621
 30
0.0
  0
SPLINE
  5
E6
330
70
100
AcDbEntity
  8
SHADE
 62
     6
420
 16711935
370
     9
100
AcDbSpline
210
0.0
220
0.0
230
1.0
 70
     8
 71
     3
 72
     8
 73
     4
 74
     0
 42
0.0000000001
 43
0.0000000001
 40
0.0
 40
0.0
 40
0.0
 40
0.0
 40
1.0
 40
1.0
 40
1.0
 40
1.0
 10
378.9651717654805
 20
200.0946388920565
 30
0.0
 10
379.33612730506
 20
199.6280727731911
 30
0.0
 10
379.6697962250499
 20
199.1289462414762
 30
0.0
 10
379.9725764355879
 20
198.6118630239794
 30
0.0
  0
SPLINE
  5
E7
330
70
100
AcDbEntity
  8
SHADE
 62
     6
420
 16711935
370
     9
100
AcDbSpline
210
0.0
220
0.0
230
1.0
 70
     8
 71
     3
 72
     8
 73
     4
 74
     0
 42
0.0000000001
 43
0.0000000001
 40
0.0
 40
0.0
 40
0.0
 40
0.0
 40
1.0
 40
1.0
 40
1.0
 40
1.0
 10
378.8666825216137
 20
200.0504949835675
 30
0.0
 10
379.2399358170972
 20
199.5821119940085
 30
0.0
 10
379.5754975265852
 20
199.0807538319682
 30
0.0
 10
379.8798588532392
 20
198.5612371731253
 30
0.0
  0
LINE
  5
E8
330
70
100
AcDbEntity
  8
SHADE
 62
     6
420
 16711935
370
     9
100
AcDbLine
 10
374.4266740981623
 20
200.8089725872706
 30
0.0
 11
374.4266740981623
 21
200.459973376081
 31
0.0
  0
SPLINE
  5
E9
330
70
100
AcDbEntity
  8
SHADE
 62
     6
420
 16711935
370
     9
100
AcDbSpline
210
0.0
220
0.0
230
1.0
 70
     8
 71
     3
 72
     8
 73
     4
 74
     0
 42
0.0000000001
 43
0.0000000001
 40
0.0
 40
0.0
 40
0.0
 40
0.0
 40
1.0
 40
1.0
 40
1.0
 40
1.0
 10
377.5867572794591
 20
198.0557436692944
 30
0.0
 10
377.2826754400873
 20
198.4411050806046
 30
0.0
 10
376.9435601495944
 20
198.7974787114896
 30
0.0
 10
376.5737551379138
 20
199.1202997698208
 30
0.0
  0
SPLINE
  5
EA
330
70
100
AcDbEntity
  8
SHADE
 62
     6
420
 16711935
370
     9
100
AcDbSpline
210
0.0
220
0.0
230
1.0
 70
     8
 71
     3
 72
     8
 73
     4
 74
     0
 42
0.0000000001
 43
0.0000000001
 40
0.0
 40
0.0
 40
0.0
 40
0.0
 40
1.0
 40
1.0
 40
1.0
 40
1.0
 10
375.6428492313217
 20
199.8197581885805
 30
0.0
 10
375.256695962992
 20
200.0678657731451
 30
0.0
 10
374.8497845022869
 20
200.2820708576012
 30
0.0
 10
374.4266740981623
 20
200.459973376081
 30
0.0
  0
LINE
  5
EB
330
70
100
AcDbEntity
  8
SHADE
 62
     6
420
 16711935
370
     9
100
AcDbLine
 10
372.1509939935114
 20
194.8355764426285
 30
0.0
 11
372.1509939935114
 21
197.6442496199525
 31
0.0
  0
SPLINE
  5
EC
330
70
100
AcDbEntity
  8
SHADE
 62
     6
420
 16711935
370
     9
100
AcDbSpline
210
0.0
220
0.0
230
1.0
 70
     8
 71
     3
 72
    20
 73
    16
 74
     0
 42
0.0000000001
 43
0.0000000001
 40
0.0
 40
0.0
 40
0.0
 40
0.0
 40
1.0
 40
1.0
 40
1.0
 40
2.0
 40
2.0
 40
2.0
 40
3.0
 40
3.0
 40
3.0
 40
4.0
 40
4.0
 40
4.0
 40
5.0
 40
5.0
 40
5.0
 40
5.0
 10
372.1509939935114
 20
191.2104663667295
 30
0.0
 10
373.3924029189669
 20
191.7227705900272
 30
0.0
 10
374.6332885924894
 20
192.2321678245553
 30
0.0
 10
375.8829847110705
 20
192.7502157501711
 30
0.0
 10
376.5384168681009
 20
193.0219180178532
 30
0.0
 10
377.1962725333439
 20
193.295999849873
 30
0.0
 10
377.8137331205801
 20
193.6190525344502
 30
0.0
 10
378.000229331627
 20
193.7166265381808
 30
0.0
 10
378.1830404365954
 20
193.8186679868377
 30
0.0
 10
378.3736501593379
 20
193.9279722799716
 30
0.0
 10
378.6936586330716
 20
194.1114797082155
 30
0.0
 10
379.0356482609916
 20
194.3154581621008
 30
0.0
 10
379.2231794595246
 20
194.5844267392069
 30
0.0
 10
379.2352459380513
 20
194.601733211868
 30
0.0
 10
379.2466729385251
 20
194.6193087521152
 30
0.0
 10
379.2574806698269
 20
194.6371448568473
 30
0.0
  0
LWPOLYLINE
  5
ED
330
70
100
AcDbEntity
  8
SHADE
 62
     6
420
 16711935
370
     9
100
AcDbPolyline
 90
        4
 70
     0
 43
0.0
 10
371.8160664355361
 20
191.4883008269162
 10
371.8160664355361
 20
189.4963496680057
 10
372.1509939935114
 20
189.4963496680057
 10
372.1509939935114
 20
191.6190230560386
  0
LINE
  5
EE
330
70
100
AcDbEntity
  8
SHADE
 62
     6
420
 16711935
370
     9
100
AcDbLine
 10
371.8160664355361
 20
194.6968955006567
 30
0.0
 11
372.1509939935114
 21
194.8355764426285
 31
0.0
  0
LINE
  5
EF
330
70
100
AcDbEntity
  8
SHADE
 62
     6
420
 16711935
370
     9
100
AcDbLine
 10
369.5572888920056
 20
200.9244654550379
 30
0.0
 11
369.5572888920056
 21
200.5347991193112
 31
0.0
  0
SPLINE
  5
F0
330
70
100
AcDbEntity
  8
SHADE
 62
     6
420
 16711935
370
     9
100
AcDbSpline
210
0.0
220
0.0
230
1.0
 70
     8
 71
     3
 72
    17
 73
    13
 74
     0
 42
0.0000000001
 43
0.0000000001
 40
0.0
 40
0.0
 40
0.0
 40
0.0
 40
1.0
 40
1.0
 40
1.0
 40
2.0
 40
2.0
 40
2.0
 40
3.0
 40
3.0
 40
3.0
 40
4.0
 40
4.0
 40
4.0
 40
4.0
 10
372.1509939935114
 20
200.3339041417918
 30
0.0
 10
372.2799748599988
 20
200.311897012838
 30
0.0
 10
372.4089557264855
 20
200.289889883885
 30
0.0
 10
372.5379365929774
 20
200.2678827549325
 30
0.0
 10
372.5379622798819
 20
200.2678783721492
 30
0.0
 10
372.5379879667864
 20
200.2678739893717
 30
0.0
 10
372.538013653691
 20
200.2678696065891
 30
0.0
 10
373.0156326557408
 20
200.1863767208597
 30
0.0
 10
373.49324906714
 20
200.104869945606
 30
0.0
 10
373.968748007377
 20
200.0124569976186
 30
0.0
 10
374.4325090389061
 20
199.922325305495
 30
0.0
 10
374.8942558504299
 20
199.8218192424499
 30
0.0
 10
375.3559999308011
 20
199.7212996724197
 30
0.0
  0
SPLINE
  5
F1
330
70
100
AcDbEntity
  8
SHADE
 62
     6
420
 16711935
370
     9
100
AcDbSpline
210
0.0
220
0.0
230
1.0
 70
     8
 71
     3
 72
    14
 73
    10
 74
     0
 42
0.0000000001
 43
0.0000000001
 40
0.0
 40
0.0
 40
0.0
 40
0.0
 40
1.0
 40
1.0
 40
1.0
 40
2.0
 40
2.0
 40
2.0
 40
3.0
 40
3.0
 40
3.0
 40
3.0
 10
368.6382538223136
 20
199.7010281687006
 30
0.0
 10
369.2364861125409
 20
199.543846156048
 30
0.0
 10
369.8347184027636
 20
199.3866641433999
 30
0.0
 10
370.4312874151883
 20
199.2239788371516
 30
0.0
 10
370.4312906299683
 20
199.2239779604752
 30
0.0
 10
370.4312938447432
 20
199.2239770837976
 30
0.0
 10
370.4312970595232
 20
199.2239762071212
 30
0.0
 10
370.8928868515272
 20
199.0980998862463
 30
0.0
 10
371.3544766435314
 20
198.9722235653631
 30
0.0
 10
371.8160664355361
 20
198.8463472444883
 30
0.0
  0
SPLINE
  5
F2
330
70
100
AcDbEntity
  8
SHADE
 62
     6
420
 16711935
370
     9
100
AcDbSpline
210
0.0
220
0.0
230
1.0
 70
     8
 71
     3
 72
     8
 73
     4
 74
     0
 42
0.0000000001
 43
0.0000000001
 40
0.0
 40
0.0
 40
0.0
 40
0.0
 40
1.0
 40
1.0
 40
1.0
 40
1.0
 10
367.4991118150702
 20
199.1375368245662
 30
0.0
 10
368.3738082865279
 20
198.8386719017815
 30
0.0
 10
369.2485047579858
 20
198.5398069789969
 30
0.0
 10
370.1211029407859
 20
198.2349687133929
 30
0.0
  0
SPLINE
  5
F3
330
70
100
AcDbEntity
  8
SHADE
 62
     6
420
 16711935
370
     9
100
AcDbSpline
210
0.0
220
0.0
230
1.0
 70
     8
 71
     3
 72
     8
 73
     4
 74
     0
 42
0.0000000001
 43
0.0000000001
 40
0.0
 40
0.0
 40
0.0
 40
0.0
 40
1.0
 40
1.0
 40
1.0
 40
1.0
 10
366.3590140167626
 20
198.0501628033874
 30
0.0
 10
366.7813880119632
 20
197.8277536082366
 30
0.0
 10
367.2037620071638
 20
197.605344413078
 30
0.0
 10
367.6290885578542
 20
197.3894043155519
 30
0.0
  0
SPLINE
  5
F4
330
70
100
AcDbEntity
  8
SHADE
 62
     6
420
 16711935
370
     9
100
AcDbSpline
210
0.0
220
0.0
230
1.0
 70
     8
 71
     3
 72
    11
 73
     7
 74
     0
 42
0.0000000001
 43
0.0000000001
 40
0.0
 40
0.0
 40
0.0
 40
0.0
 40
1.0
 40
1.0
 40
1.0
 40
2.0
 40
2.0
 40
2.0
 40
2.0
 10
364.3242969150485
 20
194.764432870396
 30
0.0
 10
364.7742233630036
 20
194.478137741447
 30
0.0
 10
365.2241583185769
 20
194.1918572062195
 30
0.0
 10
365.6882577510936
 20
193.930410344695
 30
0.0
 10
366.01435867442
 20
193.7467038866163
 30
0.0
 10
366.3474529036235
 20
193.5752583455355
 30
0.0
 10
366.6805528065452
 20
193.4038232333589
 30
0.0
  0
SPLINE
  5
F5
330
70
100
AcDbEntity
  8
SHADE
 62
     6
420
 16711935
370
     9
100
AcDbSpline
210
0.0
220
0.0
230
1.0
 70
     8
 71
     3
 72
    11
 73
     7
 74
     0
 42
0.0000000001
 43
0.0000000001
 40
0.0
 40
0.0
 40
0.0
 40
0.0
 40
1.0
 40
1.0
 40
1.0
 40
2.0
 40
2.0
 40
2.0
 40
2.0
 10
367.0641569797163
 20
193.5655990368855
 30
0.0
 10
366.6869410237397
 20
193.7362008489341
 30
0.0
 10
366.3097199317336
 20
193.9067907675011
 30
0.0
 10
365.9282407268305
 20
194.0672129379872
 30
0.0
 10
365.4832172648535
 20
194.2543571617567
 30
0.0
 10
365.0323989655372
 20
194.4276641652154
 30
0.0
 10
364.5815749415249
 20
194.6009571825252
 30
0.0
  0
SPLINE
  5
F6
330
70
100
AcDbEntity
  8
SHADE
 62
     6
420
 16711935
370
     9
100
AcDbSpline
210
0.0
220
0.0
230
1.0
 70
     8
 71
     3
 72
    11
 73
     7
 74
     0
 42
0.0000000001
 43
0.0000000001
 40
0.0
 40
0.0
 40
0.0
 40
0.0
 40
1.0
 40
1.0
 40
1.0
 40
2.0
 40
2.0
 40
2.0
 40
2.0
 10
376.859299517008
 20
193.5622368113587
 30
0.0
 10
376.9458236878443
 20
193.5197575131128
 30
0.0
 10
377.0323375055107
 20
193.4772611948362
 30
0.0
 10
377.1129019097977
 20
193.4251828968348
 30
0.0
 10
377.1560759633358
 20
193.3972744024332
 30
0.0
 10
377.1975414444304
 20
193.3666141230313
 30
0.0
 10
377.2390008773838
 20
193.3359450268336
 30
0.0
  0
SPLINE
  5
F7
330
70
100
AcDbEntity
  8
SHADE
 62
     6
420
 16711935
370
     9
100
AcDbSpline
210
0.0
220
0.0
230
1.0
 70
     8
 71
     3
 72
     8
 73
     4
 74
     0
 42
0.0000000001
 43
0.0000000001
 40
0.0
 40
0.0
 40
0.0
 40
0.0
 40
1.0
 40
1.0
 40
1.0
 40
1.0
 10
373.8421338080751
 20
198.1972256579694
 30
0.0
 10
374.6853172819875
 20
197.9189373950074
 30
0.0
 10
375.5247300375165
 20
197.6281729417938
 30
0.0
 10
376.3641427930501
 20
197.3374084885802
 30
0.0
  0
SPLINE
  5
F8
330
70
100
AcDbEntity
  8
SHADE
 62
     6
420
 16711935
370
     9
100
AcDbSpline
210
0.0
220
0.0
230
1.0
 70
     8
 71
     3
 72
    14
 73
    10
 74
     0
 42
0.0000000001
 43
0.0000000001
 40
0.0
 40
0.0
 40
0.0
 40
0.0
 40
1.0
 40
1.0
 40
1.0
 40
2.0
 40
2.0
 40
2.0
 40
3.0
 40
3.0
 40
3.0
 40
3.0
 10
372.1509939935114
 20
197.5175346589364
 30
0.0
 10
372.6161702476957
 20
197.3491347027005
 30
0.0
 10
373.0813465018858
 20
197.1807347464607
 30
0.0
 10
373.5465227560707
 20
197.0123347902267
 30
0.0
 10
373.5465231447401
 20
197.0123346495252
 30
0.0
 10
373.5465235334108
 20
197.0123345088198
 30
0.0
 10
373.5465239220802
 20
197.0123343681145
 30
0.0
 10
373.9300479742237
 20
196.8734934389304
 30
0.0
 10
374.3134691769987
 20
196.7343597213482
 30
0.0
 10
374.6968903797725
 20
196.5952260037712
 30
0.0
  0
SPLINE
  5
F9
330
70
100
AcDbEntity
  8
SHADE
 62
     6
420
 16711935
370
     9
100
AcDbSpline
210
0.0
220
0.0
230
1.0
 70
     8
 71
     3
 72
    14
 73
    10
 74
     0
 42
0.0000000001
 43
0.0000000001
 40
0.0
 40
0.0
 40
0.0
 40
0.0
 40
1.0
 40
1.0
 40
1.0
 40
2.0
 40
2.0
 40
2.0
 40
3.0
 40
3.0
 40
3.0
 40
3.0
 10
369.2385310997974
 20
196.6229643055536
 30
0.0
 10
369.6295248513939
 20
196.4502085156957
 30
0.0
 10
370.0239001738925
 20
196.2848618032785
 30
0.0
 10
370.4205365069666
 20
196.124469002196
 30
0.0
 10
370.4205426196107
 20
196.1244665303495
 30
0.0
 10
370.4205487322523
 20
196.1244640585023
 30
0.0
 10
370.420554844897
 20
196.124461586659
 30
0.0
 10
370.8857253751066
 20
195.9363548280723
 30
0.0
 10
371.3508959053207
 20
195.7482480694888
 30
0.0
 10
371.8160664355361
 20
195.5601413109021
 30
0.0
  0
SPLINE
  5
FA
330
70
100
AcDbEntity
  8
SHADE
 62
     6
420
 16711935
370
     9
100
AcDbSpline
210
0.0
220
0.0
230
1.0
 70
     8
 71
     3
 72
    17
 73
    13
 74
     0
 42
0.0000000001
 43
0.0000000001
 40
0.0
 40
0.0
 40
0.0
 40
0.0
 40
1.0
 40
1.0
 40
1.0
 40
2.0
 40
2.0
 40
2.0
 40
3.0
 40
3.0
 40
3.0
 40
4.0
 40
4.0
 40
4.0
 40
4.0
 10
372.1509939935114
 20
195.5919109217328
 30
0.0
 10
373.437707863958
 20
196.0918098544393
 30
0.0
 10
374.7293503773791
 20
196.576155338194
 30
0.0
 10
375.987828785972
 20
197.1587437145119
 30
0.0
 10
376.5256748435169
 20
197.4077292030468
 30
0.0
 10
377.0574634108544
 20
197.6746589527824
 30
0.0
 10
377.536142451305
 20
198.0189179730315
 30
0.0
 10
377.7916028761509
 20
198.2026414038432
 30
0.0
 10
378.0319370650883
 20
198.4083891466103
 30
0.0
 10
378.2712004540401
 20
198.6132201880085
 30
0.0
 10
378.3549026971267
 20
198.6848768576446
 30
0.0
 10
378.4384738923181
 20
198.7564213384659
 30
0.0
 10
378.5224029118825
 20
198.8282721492264
 30
0.0
  0
LINE
  5
FB
330
70
100
AcDbEntity
  8
SHADE
 62
     6
420
 16711935
370
     9
100
AcDbLine
 10
371.8160664355361
 20
198.549955069107
 30
0.0
 11
372.1509939935114
 21
198.6313805259266
 31
0.0
  0
LINE
  5
FC
330
70
100
AcDbEntity
  8
SHADE
 62
     6
420
 16711935
370
     9
100
AcDbLine
 10
372.1509939935114
 20
198.6313805259266
 30
0.0
 11
372.1509939935114
 21
200.6475070694204
 31
0.0
  0
LINE
  5
FD
330
70
100
AcDbEntity
  8
SHADE
 62
     6
420
 16711935
370
     9
100
AcDbLine
 10
371.8160664355361
 20
197.5312427157269
 30
0.0
 11
371.8160664355361
 21
194.6968955006567
 31
0.0
  0
SPLINE
  5
FE
330
70
100
AcDbEntity
  8
SHADE
 62
     6
420
 16711935
370
     9
100
AcDbSpline
210
0.0
220
0.0
230
1.0
 70
     8
 71
     3
 72
    11
 73
     7
 74
     0
 42
0.0000000001
 43
0.0000000001
 40
0.0
 40
0.0
 40
0.0
 40
0.0
 40
1.0
 40
1.0
 40
1.0
 40
2.0
 40
2.0
 40
2.0
 40
2.0
 10
372.1509939935069
 20
198.8087254720711
 30
0.0
 10
373.1172676053597
 20
199.0660649153515
 30
0.0
 10
374.0869802748127
 20
199.3091690785924
 30
0.0
 10
375.0370595030668
 20
199.6158784433466
 30
0.0
 10
375.5591346161172
 20
199.784417362539
 30
0.0
 10
376.0752812573179
 20
199.9721623721438
 30
0.0
 10
376.591427898516
 20
200.1599073817538
 30
0.0
  0
LINE
  5
FF
330
70
100
AcDbEntity
  8
SHADE
 62
     6
420
 16711935
370
     9
100
AcDbLine
 10
371.8160664355361
 20
200.5780754922155
 30
0.0
 11
372.1509939935114
 21
200.6475070694204
 31
0.0
  0
SPLINE
  5
100
330
70
100
AcDbEntity
  8
SHADE
 62
     6
420
 16711935
370
     9
100
AcDbSpline
210
0.0
220
0.0
230
1.0
 70
     8
 71
     3
 72
    17
 73
    13
 74
     0
 42
0.0000000001
 43
0.0000000001
 40
0.0
 40
0.0
 40
0.0
 40
0.0
 40
1.0
 40
1.0
 40
1.0
 40
2.0
 40
2.0
 40
2.0
 40
3.0
 40
3.0
 40
3.0
 40
4.0
 40
4.0
 40
4.0
 40
4.0
 10
372.1509939935114
 20
200.3796649678014
 30
0.0
 10
372.8665144199
 20
200.4988211175084
 30
0.0
 10
373.5832172675249
 20
200.6127925475033
 30
0.0
 10
374.2895767480423
 20
200.7765354707549
 30
0.0
 10
374.8964482292218
 20
200.9172158369195
 30
0.0
 10
375.4956848018415
 20
201.094634800493
 30
0.0
 10
376.0814636577888
 20
201.3071800920954
 30
0.0
 10
376.489260050895
 20
201.4551458344702
 30
0.0
 10
376.8905342943741
 20
201.6201352052196
 30
0.0
 10
377.2888724338852
 20
201.791681702884
 30
0.0
 10
377.6700629101577
 20
201.9558434656233
 30
0.0
 10
378.0485646283364
 20
202.1260099639917
 30
0.0
 10
378.4268328804205
 20
202.2966978562975
 30
0.0
  0
LINE
  5
101
330
70
100
AcDbEntity
  8
SHADE
 62
     6
420
 16711935
370
     9
100
AcDbLine
 10
371.8160664355361
 20
200.5780754922155
 30
0.0
 11
371.8160664355361
 21
198.549955069107
 31
0.0
  0
LWPOLYLINE
  5
102
330
70
100
AcDbEntity
  8
SHADE
 62
     6
420
 16711935
370
     9
100
AcDbPolyline
 90
        4
 70
     0
 43
0.0
 10
372.1509939935114
 20
201.0813253415228
 10
372.1509939935114
 20
201.8604765384665
 10
371.8160664355316
 20
201.8604765384665
 10
371.8160664355361
 20
201.0163152225986
  0
SPLINE
  5
103
330
70
100
AcDbEntity
  8
SHADE
 62
     6
420
 16711935
370
     9
100
AcDbSpline
210
0.0
220
0.0
230
1.0
 70
     8
 71
     3
 72
     8
 73
     4
 74
     0
 42
0.0000000001
 43
0.0000000001
 40
0.0
 40
0.0
 40
0.0
 40
0.0
 40
1.0
 40
1.0
 40
1.0
 40
1.0
 10
372.1509939935114
 20
201.249064680083
 30
0.0
 10
372.7027961099764
 20
201.3004483801551
 30
0.0
 10
373.2552922445323
 20
201.344218066939
 30
0.0
 10
373.8079275497524
 20
201.3864609242253
 30
0.0
  0
SPLINE
  5
104
330
70
100
AcDbEntity
  8
SHADE
 62
     6
420
 16711935
370
     9
100
AcDbSpline
210
0.0
220
0.0
230
1.0
 70
     8
 71
     3
 72
    14
 73
    10
 74
     0
 42
0.0000000001
 43
0.0000000001
 40
0.0
 40
0.0
 40
0.0
 40
0.0
 40
1.0
 40
1.0
 40
1.0
 40
2.0
 40
2.0
 40
2.0
 40
3.0
 40
3.0
 40
3.0
 40
3.0
 10
371.9835302145215
 20
236.3963318657706
 30
0.0
 10
371.9835302145215
 20
236.3963318657706
 30
0.0
 10
366.9536618058387
 20
236.3963318657706
 30
0.0
 10
366.9536618058387
 20
236.3963318657706
 30
0.0
 10
366.9536618058426
 20
232.5379376997814
 30
0.0
 10
368.6251795024905
 20
228.8687525120144
 30
0.0
 10
371.5364308004148
 20
226.3365950484136
 30
0.0
 10
371.5364308004148
 20
226.3365950484136
 30
0.0
 10
371.9835302145215
 20
226.3365950484136
 30
0.0
 10
371.9835302145215
 20
226.3365950484136
 30
0.0
  0
SPLINE
  5
105
330
70
100
AcDbEntity
  8
SHADE
 62
     6
420
 16711935
370
     9
100
AcDbSpline
210
0.0
220
0.0
230
1.0
 70
     8
 71
     3
 72
    14
 73
    10
 74
     0
 42
0.0000000001
 43
0.0000000001
 40
0.0
 40
0.0
 40
0.0
 40
0.0
 40
1.0
 40
1.0
 40
1.0
 40
2.0
 40
2.0
 40
2.0
 40
3.0
 40
3.0
 40
3.0
 40
3.0
 10
371.9835302145215
 20
236.3963318657706
 30
0.0
 10
371.9835302145215
 20
236.3963318657706
 30
0.0
 10
377.0133986231998
 20
236.3963318657706
 30
0.0
 10
377.0133986231998
 20
236.3963318657706
 30
0.0
 10
377.0133986231998
 20
232.5379376997814
 30
0.0
 10
375.3418809265518
 20
228.8687525120144
 30
0.0
 10
372.430629628627
 20
226.3365950484094
 30
0.0
 10
372.430629628627
 20
226.3365950484094
 30
0.0
 10
371.9835302145215
 20
226.3365950484136
 30
0.0
 10
371.9835302145215
 20
226.3365950484136
 30
0.0
  0
ENDSEC
  0
SECTION
  2
OBJECTS
  0
DICTIONARY
  5
C
330
0
100
AcDbDictionary
281
     1
  3
ACAD_COLOR
350
63
  3
ACAD_DETAILVIEWSTYLE
350
6A
  3
ACAD_GROUP
350
D
  3
ACAD_LAYOUT
350
62
  3
ACAD_MATERIAL
350
10
  3
ACAD_MLEADERSTYLE
350
66
  3
ACAD_MLINESTYLE
350
5F
  3
ACAD_PLOTSETTINGS
350
61
  3
ACAD_PLOTSTYLENAME
350
E
  3
ACAD_SCALELIST
350
42
  3
ACAD_SECTIONVIEWSTYLE
350
68
  3
ACAD_TABLESTYLE
350
64
  3
ACAD_VISUALSTYLE
350
29
  3
ACDB_RECOMPOSE_DATA
350
10E
  3
AcDbVariableDictionary
350
106
  0
DICTIONARY
  5
63
102
{ACAD_REACTORS
330
C
102
}
330
C
100
AcDbDictionary
281
     1
  0
DICTIONARY
  5
6A
102
{ACAD_REACTORS
330
C
102
}
330
C
100
AcDbDictionary
281
     1
  3
Imperial24
350
6B
  0
DICTIONARY
  5
D
102
{ACAD_REACTORS
330
C
102
}
330
C
100
AcDbDictionary
281
     1
  0
DICTIONARY
  5
62
102
{ACAD_REACTORS
330
C
102
}
330
C
100
AcDbDictionary
281
     1
  3
Layout1
350
6F
  3
Layout2
350
77
  3
Model
350
73
  0
DICTIONARY
  5
10
102
{ACAD_REACTORS
330
C
102
}
330
C
100
AcDbDictionary
281
     1
  3
ByBlock
350
19
  3
ByLayer
350
11
  3
Global
350
21
  0
DICTIONARY
  5
66
102
{ACAD_REACTORS
330
C
102
}
330
C
100
AcDbDictionary
281
     1
  3
Standard
350
67
  0
DICTIONARY
  5
5F
102
{ACAD_REACTORS
330
C
102
}
330
C
100
AcDbDictionary
281
     1
  3
Standard
350
60
  0
DICTIONARY
  5
61
102
{ACAD_REACTORS
330
C
102
}
330
C
100
AcDbDictionary
281
     1
  0
ACDBDICTIONARYWDFLT
  5
E
102
{ACAD_REACTORS
330
C
102
}
330
C
100
AcDbDictionary
281
     1
  3
Normal
350
F
100
AcDbDictionaryWithDefault
340
F
  0
DICTIONARY
  5
42
102
{ACAD_REACTORS
330
C
102
}
330
C
100
AcDbDictionary
281
     1
  3
A0
350
43
  3
A1
350
44
  3
A2
350
45
  3
A3
350
46
  3
A4
350
47
  3
A5
350
48
  3
A6
350
49
  3
A7
350
4A
  3
A8
350
4B
  3
A9
350
4C
  3
B0
350
4D
  3
B1
350
4E
  3
B2
350
4F
  3
B3
350
50
  3
B4
350
51
  3
B5
350
52
  3
B6
350
53
  0
DICTIONARY
  5
68
102
{ACAD_REACTORS
330
C
102
}
330
C
100
AcDbDictionary
281
     1
  3
Imperial24
350
69
  0
DICTIONARY
  5
64
102
{ACAD_REACTORS
330
C
102
}
330
C
100
AcDbDictionary
281
     1
  3
Standard
350
65
  0
DICTIONARY
  5
29
102
{ACAD_REACTORS
330
C
102
}
330
C
100
AcDbDictionary
281
     1
  3
2dWireframe
350
2F
  3
Basic
350
2E
  3
Brighten
350
35
  3
ColorChange
350
39
  3
Conceptual
350
32
  3
Dim
350
34
  3
EdgeColorOff
350
41
  3
Facepattern
350
38
  3
Flat
350
2A
  3
FlatWithEdges
350
2B
  3
Gouraud
350
2C
  3
GouraudWithEdges
350
2D
  3
Hidden
350
31
  3
JitterOff
350
3F
  3
Linepattern
350
37
  3
OverhangOff
350
40
  3
Realistic
350
33
  3
Shaded
350
3E
  3
Shaded with edges
350
3D
  3
Shades of Gray
350
3A
  3
Sketchy
350
3B
  3
Thicken
350
36
  3
Wireframe
350
30
  3
X-Ray
350
3C
  0
XRECORD
  5
10E
102
{ACAD_REACTORS
330
C
102
}
330
C
100
AcDbXrecord
280
     1
 90
        1
330
65
  0
DICTIONARY
  5
106
102
{ACAD_REACTORS
330
C
102
}
330
C
100
AcDbDictionary
281
     1
  3
CANNOSCALE
350
10B
  3
CMLEADERSTYLE
350
108
  3
CTABLESTYLE
350
107
  3
CVIEWDETAILSTYLE
350
109
  3
CVIEWSECTIONSTYLE
350
10A
  0
ACDBDETAILVIEWSTYLE
  5
6B
102
{ACAD_REACTORS
330
6A
102
}
330
6A
100
AcDbModelDocViewStyle
 70
     0
  3
Imperial24
290
     1
300
Imperial24
 90
        0
100
AcDbDetailViewStyle
 70
     0
 71
     0
 90
        3
 71
     1
340
55
 62
   256
 40
0.24
340
0
 62
   256
 40
0.24
300

 40
0.36
280
     3
 71
     2
340
5D
 90
       25
 62
   256
 71
     3
340
55
 62
   256
 40
0.24
 90
        1
 40
0.75
 90
        1
300
%<\AcVar ViewType \f "%tc1">% %<\AcVar ViewDetailId>%\PSCALE %<\AcVar ViewScale \f "%sn">%
 71
     4
340
5D
 90
       25
 62
   256
340
5D
 90
       25
 62
   256
280
     0
  0
LAYOUT
  5
6F
102
{ACAD_REACTORS
330
62
102
}
330
62
100
AcDbPlotSettings
  1

  2

  4

  6

 40
0.0
 41
0.0
 42
0.0
 43
0.0
 44
0.0
 45
0.0
 46
0.0
 47
0.0
 48
0.0
 49
0.0
140
0.0
141
0.0
142
1.0
143
1.0
 70
   688
 72
     0
 73
     0
 74
     5
  7

 75
    16
147
1.0
 76
     0
 77
     2
 78
   300
148
0.0
149
0.0
100
AcDbLayout
  1
Layout1
 70
     1
 71
     1
 10
0.0
 20
0.0
 11
12.0
 21
9.0
 12
0.0
 22
0.0
 32
0.0
 14
0.0
 24
0.0
 34
0.0
 15
0.0
 25
0.0
 35
0.0
146
0.0
 13
0.0
 23
0.0
 33
0.0
 16
1.0
 26
0.0
 36
0.0
 17
0.0
 27
1.0
 37
0.0
 76
     0
330
6C
  0
LAYOUT
  5
77
102
{ACAD_REACTORS
330
62
102
}
330
62
100
AcDbPlotSettings
  1

  2

  4

  6

 40
0.0
 41
0.0
 42
0.0
 43
0.0
 44
0.0
 45
0.0
 46
0.0
 47
0.0
 48
0.0
 49
0.0
140
0.0
141
0.0
142
1.0
143
1.0
 70
   688
 72
     0
 73
     0
 74
     5
  7

 75
    16
147
1.0
 76
     0
 77
     2
 78
   300
148
0.0
149
0.0
100
AcDbLayout
  1
Layout2
 70
     1
 71
     2
 10
0.0
 20
0.0
 11
12.0
 21
9.0
 12
0.0
 22
0.0
 32
0.0
 14
0.0
 24
0.0
 34
0.0
 15
0.0
 25
0.0
 35
0.0
146
0.0
 13
0.0
 23
0.0
 33
0.0
 16
1.0
 26
0.0
 36
0.0
 17
0.0
 27
1.0
 37
0.0
 76
     0
330
74
  0
LAYOUT
  5
73
102
{ACAD_REACTORS
330
62
102
}
330
62
100
AcDbPlotSettings
  1

  2

  4

  6

 40
0.0
 41
0.0
 42
0.0
 43
0.0
 44
0.0
 45
0.0
 46
0.0
 47
0.0
 48
0.0
 49
0.0
140
0.0
141
0.0
142
1.0
143
1.0
 70
  1712
 72
     0
 73
     0
 74
     0
  7

 75
     0
147
1.0
 76
     0
 77
     2
 78
   300
148
0.0
149
0.0
100
AcDbLayout
  1
Model
 70
     1
 71
     0
 10
0.0
 20
0.0
 11
12.0
 21
9.0
 12
0.0
 22
0.0
 32
0.0
 14
0.0
 24
0.0
 34
0.0
 15
0.0
 25
0.0
 35
0.0
146
0.0
 13
0.0
 23
0.0
 33
0.0
 16
1.0
 26
0.0
 36
0.0
 17
0.0
 27
1.0
 37
0.0
 76
     0
330
70
  0
MATERIAL
  5
19
102
{ACAD_XDICTIONARY
360
1A
102
}
102
{ACAD_REACTORS
330
10
102
}
330
10
100
AcDbMaterial
  1
ByBlock
 72
     0
 43
0.0208333333333333
 43
0.0
 43
0.0
 43
0.0
 43
0.0
 43
0.0208333333333333
 43
0.0
 43
0.0
 43
0.0
 43
0.0
 43
1.0
 43
0.0
 43
0.0
 43
0.0
 43
0.0
 43
1.0
 77
     0
 47
0.0208333333333333
 47
0.0
 47
0.0
 47
0.0
 47
0.0
 47
0.0208333333333333
 47
0.0
 47
0.0
 47
0.0
 47
0.0
 47
1.0
 47
0.0
 47
0.0
 47
0.0
 47
0.0
 47
1.0
171
     0
 49
0.0208333333333333
 49
0.0
 49
0.0
 49
0.0
 49
0.0
 49
0.0208333333333333
 49
0.0
 49
0.0
 49
0.0
 49
0.0
 49
1.0
 49
0.0
 49
0.0
 49
0.0
 49
0.0
 49
1.0
175
     0
142
0.0208333333333333
142
0.0
142
0.0
142
0.0
142
0.0
142
0.0208333333333333
142
0.0
142
0.0
142
0.0
142
0.0
142
1.0
142
0.0
142
0.0
142
0.0
142
0.0
142
1.0
179
     0
144
0.0208333333333333
144
0.0
144
0.0
144
0.0
144
0.0
144
0.0208333333333333
144
0.0
144
0.0
144
0.0
144
0.0
144
1.0
144
0.0
144
0.0
144
0.0
144
0.0
144
1.0
147
0.0208333333333333
147
0.0
147
0.0
147
0.0
147
0.0
147
0.0208333333333333
147
0.0
147
0.0
147
0.0
147
0.0
147
1.0
147
0.0
147
0.0
147
0.0
147
0.0
147
1.0
  0
MATERIAL
  5
11
102
{ACAD_XDICTIONARY
360
12
102
}
102
{ACAD_REACTORS
330
10
102
}
330
10
100
AcDbMaterial
  1
ByLayer
 72
     0
 43
0.0208333333333333
 43
0.0
 43
0.0
 43
0.0
 43
0.0
 43
0.0208333333333333
 43
0.0
 43
0.0
 43
0.0
 43
0.0
 43
1.0
 43
0.0
 43
0.0
 43
0.0
 43
0.0
 43
1.0
 77
     0
 47
0.0208333333333333
 47
0.0
 47
0.0
 47
0.0
 47
0.0
 47
0.0208333333333333
 47
0.0
 47
0.0
 47
0.0
 47
0.0
 47
1.0
 47
0.0
 47
0.0
 47
0.0
 47
0.0
 47
1.0
171
     0
 49
0.0208333333333333
 49
0.0
 49
0.0
 49
0.0
 49
0.0
 49
0.0208333333333333
 49
0.0
 49
0.0
 49
0.0
 49
0.0
 49
1.0
 49
0.0
 49
0.0
 49
0.0
 49
0.0
 49
1.0
175
     0
142
0.0208333333333333
142
0.0
142
0.0
142
0.0
142
0.0
142
0.0208333333333333
142
0.0
142
0.0
142
0.0
142
0.0
142
1.0
142
0.0
142
0.0
142
0.0
142
0.0
142
1.0
179
     0
144
0.0208333333333333
144
0.0
144
0.0
144
0.0
144
0.0
144
0.0208333333333333
144
0.0
144
0.0
144
0.0
144
0.0
144
1.0
144
0.0
144
0.0
144
0.0
144
0.0
144
1.0
147
0.0208333333333333
147
0.0
147
0.0
147
0.0
147
0.0
147
0.0208333333333333
147
0.0
147
0.0
147
0.0
147
0.0
147
1.0
147
0.0
147
0.0
147
0.0
147
0.0
147
1.0
  0
MATERIAL
  5
21
102
{ACAD_XDICTIONARY
360
22
102
}
102
{ACAD_REACTORS
330
10
102
}
330
10
100
AcDbMaterial
  1
Global
 72
     0
 43
0.0208333333333333
 43
0.0
 43
0.0
 43
0.0
 43
0.0
 43
0.0208333333333333
 43
0.0
 43
0.0
 43
0.0
 43
0.0
 43
1.0
 43
0.0
 43
0.0
 43
0.0
 43
0.0
 43
1.0
 77
     0
 47
0.0208333333333333
 47
0.0
 47
0.0
 47
0.0
 47
0.0
 47
0.0208333333333333
 47
0.0
 47
0.0
 47
0.0
 47
0.0
 47
1.0
 47
0.0
 47
0.0
 47
0.0
 47
0.0
 47
1.0
171
     0
 49
0.0208333333333333
 49
0.0
 49
0.0
 49
0.0
 49
0.0
 49
0.0208333333333333
 49
0.0
 49
0.0
 49
0.0
 49
0.0
 49
1.0
 49
0.0
 49
0.0
 49
0.0
 49
0.0
 49
1.0
175
     0
142
0.0208333333333333
142
0.0
142
0.0
142
0.0
142
0.0
142
0.0208333333333333
142
0.0
142
0.0
142
0.0
142
0.0
142
1.0
142
0.0
142
0.0
142
0.0
142
0.0
142
1.0
179
     0
144
0.0208333333333333
144
0.0
144
0.0
144
0.0
144
0.0
144
0.0208333333333333
144
0.0
144
0.0
144
0.0
144
0.0
144
1.0
144
0.0
144
0.0
144
0.0
144
0.0
144
1.0
147
0.0208333333333333
147
0.0
147
0.0
147
0.0
147
0.0
147
0.0208333333333333
147
0.0
147
0.0
147
0.0
147
0.0
147
1.0
147
0.0
147
0.0
147
0.0
147
0.0
147
1.0
  0
MLEADERSTYLE
  5
67
102
{ACAD_REACTORS
330
66
102
}
330
66
100
AcDbMLeaderStyle
179
     2
170
     2
171
     1
172
     0
 90
        2
 40
0.0
 41
0.0
173
     1
 91
-1056964608
340
5B
 92
       -2
290
     1
 42
0.09
291
     1
 43
0.36
  3
Standard
 44
0.18
300

342
55
174
     1
178
     6
175
     1
176
     0
 93
-1056964608
 45
0.18
292
     0
297
     0
 46
0.18
 94
-1056964608
 47
1.0
 49
1.0
140
1.0
293
     1
141
0.0
294
     1
177
     0
142
1.0
295
     1
296
     0
143
0.125
271
     0
272
     9
273
     9
298
     1
  0
MLINESTYLE
  5
60
102
{ACAD_REACTORS
330
5F
102
}
330
5F
100
AcDbMlineStyle
  2
STANDARD
 70
     0
  3

 62
   256
 51
90.0
 52
90.0
 71
     2
 49
0.5
 62
   256
  6
BYLAYER
 49
-0.5
 62
   256
  6
BYLAYER
  0
ACDBPLACEHOLDER
  5
F
102
{ACAD_REACTORS
330
E
102
}
330
E
  0
SCALE
  5
43
102
{ACAD_REACTORS
330
42
102
}
330
42
100
AcDbScale
 70
     0
300
1:1
140
1.0
141
1.0
290
     1
  0
SCALE
  5
44
102
{ACAD_REACTORS
330
42
102
}
330
42
100
AcDbScale
 70
     0
300
1/128" = 1'-0"
140
0.0078125
141
12.0
290
     0
  0
SCALE
  5
45
102
{ACAD_REACTORS
330
42
102
}
330
42
100
AcDbScale
 70
     0
300
1/64" = 1'-0"
140
0.015625
141
12.0
290
     0
  0
SCALE
  5
46
102
{ACAD_REACTORS
330
42
102
}
330
42
100
AcDbScale
 70
     0
300
1/32" = 1'-0"
140
0.03125
141
12.0
290
     0
  0
SCALE
  5
47
102
{ACAD_REACTORS
330
42
102
}
330
42
100
AcDbScale
 70
     0
300
1/16" = 1'-0"
140
0.0625
141
12.0
290
     0
  0
SCALE
  5
48
102
{ACAD_REACTORS
330
42
102
}
330
42
100
AcDbScale
 70
     0
300
3/32" = 1'-0"
140
0.09375
141
12.0
290
     0
  0
SCALE
  5
49
102
{ACAD_REACTORS
330
42
102
}
330
42
100
AcDbScale
 70
     0
300
1/8" = 1'-0"
140
0.125
141
12.0
290
     0
  0
SCALE
  5
4A
102
{ACAD_REACTORS
330
42
102
}
330
42
100
AcDbScale
 70
     0
300
3/16" = 1'-0"
140
0.1875
141
12.0
290
     0
  0
SCALE
  5
4B
102
{ACAD_REACTORS
330
42
102
}
330
42
100
AcDbScale
 70
     0
300
1/4" = 1'-0"
140
0.25
141
12.0
290
     0
  0
SCALE
  5
4C
102
{ACAD_REACTORS
330
42
102
}
330
42
100
AcDbScale
 70
     0
300
3/8" = 1'-0"
140
0.375
141
12.0
290
     0
  0
SCALE
  5
4D
102
{ACAD_REACTORS
330
42
102
}
330
42
100
AcDbScale
 70
     0
300
1/2" = 1'-0"
140
0.5
141
12.0
290
     0
  0
SCALE
  5
4E
102
{ACAD_REACTORS
330
42
102
}
330
42
100
AcDbScale
 70
     0
300
3/4" = 1'-0"
140
0.75
141
12.0
290
     0
  0
SCALE
  5
4F
102
{ACAD_REACTORS
330
42
102
}
330
42
100
AcDbScale
 70
     0
300
1" = 1'-0"
140
1.0
141
12.0
290
     0
  0
SCALE
  5
50
102
{ACAD_REACTORS
330
42
102
}
330
42
100
AcDbScale
 70
     0
300
1-1/2" = 1'-0"
140
1.5
141
12.0
290
     0
  0
SCALE
  5
51
102
{ACAD_REACTORS
330
42
102
}
330
42
100
AcDbScale
 70
     0
300
3" = 1'-0"
140
3.0
141
12.0
290
     0
  0
SCALE
  5
52
102
{ACAD_REACTORS
330
42
102
}
330
42
100
AcDbScale
 70
     0
300
6" = 1'-0"
140
6.0
141
12.0
290
     0
  0
SCALE
  5
53
102
{ACAD_REACTORS
330
42
102
}
330
42
100
AcDbScale
 70
     0
300
1'-0" = 1'-0"
140
12.0
141
12.0
290
     0
  0
ACDBSECTIONVIEWSTYLE
  5
69
102
{ACAD_REACTORS
330
68
102
}
330
68
100
AcDbModelDocViewStyle
 70
     0
  3
Imperial24
290
     1
300
Imperial24
 90
        0
100
AcDbSectionViewStyle
 70
     0
 71
     0
 90
       78
 71
     1
340
55
 62
   256
 40
0.24
340
0
340
0
 62
   256
 40
0.24
300
I, O, Q, S, X, Z
 40
0.48
 90
        3
 40
0.18
 90
        1
 71
     2
340
5D
 90
       25
 62
   256
340
5D
 90
       50
 62
   256
 40
0.24
 40
0.0
 40
0.24
 71
     3
340
55
 62
   256
 40
0.24
 90
        1
 40
0.75
 90
        1
300
%<\AcVar ViewType \f "%tc1">% %<\AcVar ViewSectionStartId>%-%<\AcVar ViewSectionEndId>%\PSCALE %<\AcVar ViewScale \f "%sn">%
 71
     4
 62
   256
 62
   257
300
ANSI31
 40
1.0
 90
        0
290
     0
290
     0
 90
        6
 40
0.0
 40
1.570796326794896
 40
0.2617993877991494
 40
1.308996938995747
 40
-0.2617993877991494
 40
1.832595714594046
  0
TABLESTYLE
  5
65
102
{ACAD_XDICTIONARY
360
10C
102
}
102
{ACAD_REACTORS
330
64
102
}
330
64
100
AcDbTableStyle
280
     0
  3
Standard
 70
     0
 71
     0
 40
0.06
 41
0.06
280
     0
281
     0
  7
Standard
140
0.18
170
     2
 62
     0
 63
     7
283
     0
 90
      512
 91
        0
  1

274
    -2
284
     1
 64
     0
275
    -2
285
     1
 65
     0
276
    -2
286
     1
 66
     0
277
    -2
287
     1
 67
     0
278
    -2
288
     1
 68
     0
279
    -2
289
     1
 69
     0
  7
Standard
140
0.25
170
     5
 62
     0
 63
     7
283
     0
 90
      512
 91
        0
  1

274
    -2
284
     1
 64
     0
275
    -2
285
     1
 65
     0
276
    -2
286
     1
 66
     0
277
    -2
287
     1
 67
     0
278
    -2
288
     1
 68
     0
279
    -2
289
     1
 69
     0
  7
Standard
140
0.18
170
     5
 62
     0
 63
     7
283
     0
 90
      512
 91
        0
  1

274
    -2
284
     1
 64
     0
275
    -2
285
     1
 65
     0
276
    -2
286
     1
 66
     0
277
    -2
287
     1
 67
     0
278
    -2
288
     1
 68
     0
279
    -2
289
     1
 69
     0
  0
VISUALSTYLE
  5
2F
102
{ACAD_REACTORS
330
29
102
}
330
29
100
AcDbVisualStyle
  2
2dWireframe
 70
     4
177
     3
291
     0
 70
    58
 90
        0
176
     1
 90
        2
176
     1
 90
        0
176
     1
 90
        0
176
     1
 40
0.6
176
     1
 40
30.0
176
     1
 62
     7
420
 16777215
176
     1
 90
        1
176
     1
 90
        4
176
     1
 62
     7
176
     1
 62
   257
176
     1
 90
        1
176
     1
 90
        1
176
     1
 40
1.0
176
     1
 90
        0
176
     1
 62
   257
176
     1
 40
1.0
176
     1
 90
        1
176
     1
 90
        6
176
     1
 90
        2
176
     1
 62
     7
176
     1
 90
        5
176
     1
 90
        0
176
     1
 90
        0
176
     1
290
     0
176
     1
 90
        1
176
     1
 40
0.0
176
     1
 90
        0
176
     1
290
     1
176
     1
290
     1
176
     1
290
     0
176
     1
290
     0
176
     1
290
     0
176
     1
290
     0
176
     1
290
     0
176
     1
290
     0
176
     1
290
     0
176
     1
 90
       50
176
     1
 40
0.0
176
     1
 40
1.0
176
     1
 90
        0
176
     1
 62
    18
420
        0
176
     1
 90
       50
176
     1
 90
        3
176
     1
 62
     5
420
      255
176
     1
290
     0
176
     1
 90
       50
176
     1
 90
       50
176
     1
 90
       50
176
     1
290
     0
176
     1
 90
       50
176
     1
 62
   256
176
     0
 40
1.0
176
     0
 90
        2
176
     1
  1
strokes_ogs.tif
176
     1
290
     0
176
     1
 40
1.0
176
     1
 40
1.0
176
     1
  0
VISUALSTYLE
  5
2E
102
{ACAD_REACTORS
330
29
102
}
330
29
100
AcDbVisualStyle
  2
Basic
 70
     7
177
     3
291
     1
 70
    58
 90
        1
176
     1
 90
        0
176
     1
 90
        1
176
     1
 90
        0
176
     1
 40
0.6
176
     1
 40
30.0
176
     1
 62
     7
420
 16777215
176
     1
 90
        0
176
     1
 90
        4
176
     1
 62
     7
176
     1
 62
   257
176
     1
 90
        1
176
     1
 90
        1
176
     1
 40
1.0
176
     1
 90
        8
176
     1
 62
     7
176
     1
 40
1.0
176
     1
 90
        1
176
     1
 90
        6
176
     1
 90
        2
176
     1
 62
     7
176
     1
 90
        5
176
     1
 90
        0
176
     1
 90
        0
176
     1
290
     0
176
     1
 90
        1
176
     1
 40
0.0
176
     1
 90
        0
176
     1
290
     0
176
     1
290
     1
176
     1
290
     1
176
     1
290
     0
176
     1
290
     0
176
     1
290
     0
176
     1
290
     0
176
     1
290
     0
176
     1
290
     0
176
     1
 90
       50
176
     1
 40
0.0
176
     1
 40
1.0
176
     1
 90
        0
176
     1
 62
    18
420
        0
176
     1
 90
       50
176
     1
 90
        3
176
     1
 62
     5
420
      255
176
     1
290
     0
176
     1
 90
       50
176
     1
 90
       50
176
     1
 90
       50
176
     1
290
     0
176
     1
 90
       50
176
     1
 62
   256
176
     0
 40
1.0
176
     0
 90
        2
176
     1
  1
strokes_ogs.tif
176
     1
290
     0
176
     1
 40
1.0
176
     1
 40
1.0
176
     1
  0
VISUALSTYLE
  5
35
102
{ACAD_REACTORS
330
29
102
}
330
29
100
AcDbVisualStyle
  2
Brighten
 70
    12
177
     3
291
     1
 70
    58
 90
        2
176
     1
 90
        2
176
     1
 90
        0
176
     1
 90
        0
176
     1
 40
0.6
176
     1
 40
30.0
176
     1
 62
     7
420
 16777215
176
     1
 90
        1
176
     1
 90
        4
176
     1
 62
     7
176
     1
 62
   257
176
     1
 90
        1
176
     1
 90
        1
176
     1
 40
1.0
176
     1
 90
        8
176
     1
 62
     7
176
     1
 40
1.0
176
     1
 90
        1
176
     1
 90
        6
176
     1
 90
        2
176
     1
 62
     7
176
     1
 90
        5
176
     1
 90
        0
176
     1
 90
        0
176
     1
290
     0
176
     1
 90
        1
176
     1
 40
50.0
176
     1
 90
        0
176
     1
290
     0
176
     1
290
     1
176
     1
290
     1
176
     1
290
     0
176
     1
290
     0
176
     1
290
     0
176
     1
290
     0
176
     1
290
     0
176
     1
290
     0
176
     1
 90
       50
176
     1
 40
0.0
176
     1
 40
1.0
176
     1
 90
        0
176
     1
 62
    18
420
        0
176
     1
 90
       50
176
     1
 90
        3
176
     1
 62
     5
420
      255
176
     1
290
     0
176
     1
 90
       50
176
     1
 90
       50
176
     1
 90
       50
176
     1
290
     0
176
     1
 90
       50
176
     1
 62
   256
176
     0
 40
1.0
176
     0
 90
        2
176
     1
  1
strokes_ogs.tif
176
     1
290
     0
176
     1
 40
1.0
176
     1
 40
1.0
176
     1
  0
VISUALSTYLE
  5
39
102
{ACAD_REACTORS
330
29
102
}
330
29
100
AcDbVisualStyle
  2
ColorChange
 70
    16
177
     3
291
     1
 70
    58
 90
        2
176
     1
 90
        2
176
     1
 90
        3
176
     1
 90
        0
176
     1
 40
0.6
176
     1
 40
30.0
176
     1
 62
     8
420
  8421504
176
     1
 90
        1
176
     1
 90
        4
176
     1
 62
     7
176
     1
 62
   257
176
     1
 90
        1
176
     1
 90
        1
176
     1
 40
1.0
176
     1
 90
        8
176
     1
 62
     8
420
  8421504
176
     1
 40
1.0
176
     1
 90
        1
176
     1
 90
        6
176
     1
 90
        2
176
     1
 62
     7
176
     1
 90
        5
176
     1
 90
        0
176
     1
 90
        0
176
     1
290
     0
176
     1
 90
        1
176
     1
 40
0.0
176
     1
 90
        0
176
     1
290
     0
176
     1
290
     1
176
     1
290
     1
176
     1
290
     0
176
     1
290
     0
176
     1
290
     0
176
     1
290
     0
176
     1
290
     0
176
     1
290
     0
176
     1
 90
       50
176
     1
 40
0.0
176
     1
 40
1.0
176
     1
 90
        0
176
     1
 62
    18
420
        0
176
     1
 90
       50
176
     1
 90
        3
176
     1
 62
     5
420
      255
176
     1
290
     0
176
     1
 90
       50
176
     1
 90
       50
176
     1
 90
       50
176
     1
290
     0
176
     1
 90
       50
176
     1
 62
   256
176
     0
 40
1.0
176
     0
 90
        2
176
     1
  1
strokes_ogs.tif
176
     1
290
     0
176
     1
 40
1.0
176
     1
 40
1.0
176
     1
  0
VISUALSTYLE
  5
32
102
{ACAD_REACTORS
330
29
102
}
330
29
100
AcDbVisualStyle
  2
Conceptual
 70
     9
177
     3
291
     0
 70
    58
 90
        3
176
     1
 90
        2
176
     1
 90
        0
176
     1
 90
        0
176
     1
 40
0.6
176
     1
 40
30.0
176
     1
 62
     7
420
 16777215
176
     1
 90
        2
176
     1
 90
        2
176
     1
 62
     7
176
     1
 62
   257
176
     1
 90
        1
176
     1
 90
        1
176
     1
 40
179.0
176
     1
 90
        8
176
     1
 62
     7
176
     1
 40
1.0
176
     1
 90
        1
176
     1
 90
        6
176
     1
 90
        2
176
     1
 62
     7
176
     1
 90
        3
176
     1
 90
        0
176
     1
 90
        0
176
     1
290
     0
176
     1
 90
        1
176
     1
 40
0.0
176
     1
 90
        0
176
     1
290
     0
176
     1
290
     1
176
     1
290
     1
176
     1
290
     0
176
     1
290
     0
176
     1
290
     0
176
     1
290
     0
176
     1
290
     0
176
     1
290
     0
176
     1
 90
       50
176
     1
 40
0.0
176
     1
 40
1.0
176
     1
 90
        0
176
     1
 62
    18
420
        0
176
     1
 90
       50
176
     1
 90
        3
176
     1
 62
     5
420
      255
176
     1
290
     0
176
     1
 90
       50
176
     1
 90
       50
176
     1
 90
       50
176
     1
290
     0
176
     1
 90
       50
176
     1
 62
   256
176
     0
 40
1.0
176
     0
 90
        2
176
     1
  1
strokes_ogs.tif
176
     1
290
     0
176
     1
 40
1.0
176
     1
 40
1.0
176
     1
  0
VISUALSTYLE
  5
34
102
{ACAD_REACTORS
330
29
102
}
330
29
100
AcDbVisualStyle
  2
Dim
 70
    11
177
     3
291
     1
 70
    58
 90
        2
176
     1
 90
        2
176
     1
 90
        0
176
     1
 90
        0
176
     1
 40
0.6
176
     1
 40
30.0
176
     1
 62
     7
420
 16777215
176
     1
 90
        1
176
     1
 90
        4
176
     1
 62
     7
176
     1
 62
   257
176
     1
 90
        1
176
     1
 90
        1
176
     1
 40
1.0
176
     1
 90
        8
176
     1
 62
     7
176
     1
 40
1.0
176
     1
 90
        1
176
     1
 90
        6
176
     1
 90
        2
176
     1
 62
     7
176
     1
 90
        5
176
     1
 90
        0
176
     1
 90
        0
176
     1
290
     0
176
     1
 90
        1
176
     1
 40
-50.0
176
     1
 90
        0
176
     1
290
     0
176
     1
290
     1
176
     1
290
     1
176
     1
290
     0
176
     1
290
     0
176
     1
290
     0
176
     1
290
     0
176
     1
290
     0
176
     1
290
     0
176
     1
 90
       50
176
     1
 40
0.0
176
     1
 40
1.0
176
     1
 90
        0
176
     1
 62
    18
420
        0
176
     1
 90
       50
176
     1
 90
        3
176
     1
 62
     5
420
      255
176
     1
290
     0
176
     1
 90
       50
176
     1
 90
       50
176
     1
 90
       50
176
     1
290
     0
176
     1
 90
       50
176
     1
 62
   256
176
     0
 40
1.0
176
     0
 90
        2
176
     1
  1
strokes_ogs.tif
176
     1
290
     0
176
     1
 40
1.0
176
     1
 40
1.0
176
     1
  0
VISUALSTYLE
  5
41
102
{ACAD_REACTORS
330
29
102
}
330
29
100
AcDbVisualStyle
  2
EdgeColorOff
 70
    22
177
     3
291
     1
 70
    58
 90
        2
176
     0
 90
        2
176
     0
 90
        0
176
     0
 90
        0
176
     0
 40
0.6
176
     0
 40
30.0
176
     0
 62
     7
420
 16777215
176
     0
 90
        1
176
     0
 90
        4
176
     0
 62
     7
176
     0
 62
   257
176
     0
 90
        1
176
     0
 90
        1
176
     0
 40
1.0
176
     0
 90
        8
176
     2
 62
     7
176
     0
 40
1.0
176
     0
 90
        1
176
     0
 90
        6
176
     0
 90
        2
176
     0
 62
     7
176
     0
 90
        5
176
     0
 90
        0
176
     0
 90
        0
176
     0
290
     0
176
     0
 90
        1
176
     0
 40
0.0
176
     0
 90
        0
176
     0
290
     0
176
     0
290
     1
176
     0
290
     1
176
     0
290
     0
176
     0
290
     0
176
     0
290
     0
176
     0
290
     0
176
     0
290
     0
176
     0
290
     0
176
     0
 90
       50
176
     0
 40
0.0
176
     0
 40
1.0
176
     0
 90
        0
176
     0
 62
    18
420
        0
176
     0
 90
       50
176
     0
 90
        3
176
     0
 62
     5
420
      255
176
     0
290
     0
176
     0
 90
       50
176
     0
 90
       50
176
     0
 90
       50
176
     0
290
     0
176
     0
 90
       50
176
     0
 62
   256
176
     0
 40
1.0
176
     0
 90
        2
176
     0
  1
strokes_ogs.tif
176
     0
290
     0
176
     0
 40
1.0
176
     0
 40
1.0
176
     0
  0
VISUALSTYLE
  5
38
102
{ACAD_REACTORS
330
29
102
}
330
29
100
AcDbVisualStyle
  2
Facepattern
 70
    15
177
     3
291
     1
 70
    58
 90
        2
176
     1
 90
        2
176
     1
 90
        0
176
     1
 90
        0
176
     1
 40
0.6
176
     1
 40
30.0
176
     1
 62
     7
420
 16777215
176
     1
 90
        1
176
     1
 90
        4
176
     1
 62
     7
176
     1
 62
   257
176
     1
 90
        1
176
     1
 90
        1
176
     1
 40
1.0
176
     1
 90
        8
176
     1
 62
     7
176
     1
 40
1.0
176
     1
 90
        1
176
     1
 90
        6
176
     1
 90
        2
176
     1
 62
     7
176
     1
 90
        5
176
     1
 90
        0
176
     1
 90
        0
176
     1
290
     0
176
     1
 90
        1
176
     1
 40
0.0
176
     1
 90
        0
176
     1
290
     0
176
     1
290
     1
176
     1
290
     1
176
     1
290
     0
176
     1
290
     0
176
     1
290
     0
176
     1
290
     0
176
     1
290
     0
176
     1
290
     0
176
     1
 90
       50
176
     1
 40
0.0
176
     1
 40
1.0
176
     1
 90
        0
176
     1
 62
    18
420
        0
176
     1
 90
       50
176
     1
 90
        3
176
     1
 62
     5
420
      255
176
     1
290
     0
176
     1
 90
       50
176
     1
 90
       50
176
     1
 90
       50
176
     1
290
     0
176
     1
 90
       50
176
     1
 62
   256
176
     0
 40
1.0
176
     0
 90
        2
176
     1
  1
strokes_ogs.tif
176
     1
290
     0
176
     1
 40
1.0
176
     1
 40
1.0
176
     1
  0
VISUALSTYLE
  5
2A
102
{ACAD_REACTORS
330
29
102
}
330
29
100
AcDbVisualStyle
  2
Flat
 70
     0
177
     3
291
     1
 70
    58
 90
        2
176
     1
 90
        1
176
     1
 90
        1
176
     1
 90
        2
176
     1
 40
0.6
176
     1
 40
30.0
176
     1
 62
     7
420
 16777215
176
     1
 90
        0
176
     1
 90
        0
176
     1
 62
     7
176
     1
 62
   257
176
     1
 90
        1
176
     1
 90
        1
176
     1
 40
1.0
176
     1
 90
        8
176
     1
 62
     7
176
     1
 40
1.0
176
     1
 90
        1
176
     1
 90
        6
176
     1
 90
        2
176
     1
 62
     7
176
     1
 90
        5
176
     1
 90
        0
176
     1
 90
        0
176
     1
290
     0
176
     1
 90
       13
176
     1
 40
0.0
176
     1
 90
        0
176
     1
290
     0
176
     1
290
     1
176
     1
290
     1
176
     1
290
     0
176
     1
290
     0
176
     1
290
     0
176
     1
290
     0
176
     1
290
     0
176
     1
290
     0
176
     1
 90
       50
176
     1
 40
0.0
176
     1
 40
1.0
176
     1
 90
        0
176
     1
 62
    18
420
        0
176
     1
 90
       50
176
     1
 90
        3
176
     1
 62
     5
420
      255
176
     1
290
     0
176
     1
 90
       50
176
     1
 90
       50
176
     1
 90
       50
176
     1
290
     0
176
     1
 90
       50
176
     1
 62
   256
176
     0
 40
1.0
176
     0
 90
        2
176
     1
  1
strokes_ogs.tif
176
     1
290
     0
176
     1
 40
1.0
176
     1
 40
1.0
176
     1
  0
VISUALSTYLE
  5
2B
102
{ACAD_REACTORS
330
29
102
}
330
29
100
AcDbVisualStyle
  2
FlatWithEdges
 70
     1
177
     3
291
     1
 70
    58
 90
        2
176
     1
 90
        1
176
     1
 90
        1
176
     1
 90
        2
176
     1
 40
0.6
176
     1
 40
30.0
176
     1
 62
     7
420
 16777215
176
     1
 90
        1
176
     1
 90
        0
176
     1
 62
     7
176
     1
 62
   257
176
     1
 90
        1
176
     1
 90
        1
176
     1
 40
1.0
176
     1
 90
        0
176
     1
 62
   257
176
     1
 40
1.0
176
     1
 90
        1
176
     1
 90
        6
176
     1
 90
        2
176
     1
 62
     7
176
     1
 90
        5
176
     1
 90
        0
176
     1
 90
        0
176
     1
290
     0
176
     1
 90
       13
176
     1
 40
0.0
176
     1
 90
        0
176
     1
290
     0
176
     1
290
     1
176
     1
290
     1
176
     1
290
     0
176
     1
290
     0
176
     1
290
     0
176
     1
290
     0
176
     1
290
     0
176
     1
290
     0
176
     1
 90
       50
176
     1
 40
0.0
176
     1
 40
1.0
176
     1
 90
        0
176
     1
 62
    18
420
        0
176
     1
 90
       50
176
     1
 90
        3
176
     1
 62
     5
420
      255
176
     1
290
     0
176
     1
 90
       50
176
     1
 90
       50
176
     1
 90
       50
176
     1
290
     0
176
     1
 90
       50
176
     1
 62
   256
176
     0
 40
1.0
176
     0
 90
        2
176
     1
  1
strokes_ogs.tif
176
     1
290
     0
176
     1
 40
1.0
176
     1
 40
1.0
176
     1
  0
VISUALSTYLE
  5
2C
102
{ACAD_REACTORS
330
29
102
}
330
29
100
AcDbVisualStyle
  2
Gouraud
 70
     2
177
     3
291
     1
 70
    58
 90
        2
176
     1
 90
        2
176
     1
 90
        1
176
     1
 90
        2
176
     1
 40
0.6
176
     1
 40
30.0
176
     1
 62
     7
420
 16777215
176
     1
 90
        0
176
     1
 90
        0
176
     1
 62
     7
176
     1
 62
   257
176
     1
 90
        1
176
     1
 90
        1
176
     1
 40
1.0
176
     1
 90
        0
176
     1
 62
     7
176
     1
 40
1.0
176
     1
 90
        1
176
     1
 90
        6
176
     1
 90
        2
176
     1
 62
     7
176
     1
 90
        5
176
     1
 90
        0
176
     1
 90
        0
176
     1
290
     0
176
     1
 90
       13
176
     1
 40
0.0
176
     1
 90
        0
176
     1
290
     0
176
     1
290
     1
176
     1
290
     1
176
     1
290
     0
176
     1
290
     0
176
     1
290
     0
176
     1
290
     0
176
     1
290
     0
176
     1
290
     0
176
     1
 90
       50
176
     1
 40
0.0
176
     1
 40
1.0
176
     1
 90
        0
176
     1
 62
    18
420
        0
176
     1
 90
       50
176
     1
 90
        3
176
     1
 62
     5
420
      255
176
     1
290
     0
176
     1
 90
       50
176
     1
 90
       50
176
     1
 90
       50
176
     1
290
     0
176
     1
 90
       50
176
     1
 62
   256
176
     0
 40
1.0
176
     0
 90
        2
176
     1
  1
strokes_ogs.tif
176
     1
290
     0
176
     1
 40
1.0
176
     1
 40
1.0
176
     1
  0
VISUALSTYLE
  5
2D
102
{ACAD_REACTORS
330
29
102
}
330
29
100
AcDbVisualStyle
  2
GouraudWithEdges
 70
     3
177
     3
291
     1
 70
    58
 90
        2
176
     1
 90
        2
176
     1
 90
        1
176
     1
 90
        2
176
     1
 40
0.6
176
     1
 40
30.0
176
     1
 62
     7
420
 16777215
176
     1
 90
        1
176
     1
 90
        0
176
     1
 62
     7
176
     1
 62
   257
176
     1
 90
        1
176
     1
 90
        1
176
     1
 40
1.0
176
     1
 90
        0
176
     1
 62
   257
176
     1
 40
1.0
176
     1
 90
        1
176
     1
 90
        6
176
     1
 90
        2
176
     1
 62
     7
176
     1
 90
        5
176
     1
 90
        0
176
     1
 90
        0
176
     1
290
     0
176
     1
 90
       13
176
     1
 40
0.0
176
     1
 90
        0
176
     1
290
     0
176
     1
290
     1
176
     1
290
     1
176
     1
290
     0
176
     1
290
     0
176
     1
290
     0
176
     1
290
     0
176
     1
290
     0
176
     1
290
     0
176
     1
 90
       50
176
     1
 40
0.0
176
     1
 40
1.0
176
     1
 90
        0
176
     1
 62
    18
420
        0
176
     1
 90
       50
176
     1
 90
        3
176
     1
 62
     5
420
      255
176
     1
290
     0
176
     1
 90
       50
176
     1
 90
       50
176
     1
 90
       50
176
     1
290
     0
176
     1
 90
       50
176
     1
 62
   256
176
     0
 40
1.0
176
     0
 90
        2
176
     1
  1
strokes_ogs.tif
176
     1
290
     0
176
     1
 40
1.0
176
     1
 40
1.0
176
     1
  0
VISUALSTYLE
  5
31
102
{ACAD_REACTORS
330
29
102
}
330
29
100
AcDbVisualStyle
  2
Hidden
 70
     6
177
     3
291
     0
 70
    58
 90
        1
176
     1
 90
        2
176
     1
 90
        2
176
     1
 90
        0
176
     1
 40
0.6
176
     1
 40
30.0
176
     1
 62
     7
420
 16777215
176
     1
 90
        2
176
     1
 90
        2
176
     1
 62
     7
176
     1
 62
   257
176
     1
 90
        2
176
     1
 90
        1
176
     1
 40
40.0
176
     1
 90
        0
176
     1
 62
   257
176
     1
 40
1.0
176
     1
 90
        1
176
     1
 90
        6
176
     1
 90
        2
176
     1
 62
     7
176
     1
 90
        3
176
     1
 90
        0
176
     1
 90
        0
176
     1
290
     0
176
     1
 90
        1
176
     1
 40
0.0
176
     1
 90
        0
176
     1
290
     0
176
     1
290
     1
176
     1
290
     1
176
     1
290
     0
176
     1
290
     0
176
     1
290
     0
176
     1
290
     0
176
     1
290
     0
176
     1
290
     0
176
     1
 90
       50
176
     1
 40
0.0
176
     1
 40
1.0
176
     1
 90
        0
176
     1
 62
    18
420
        0
176
     1
 90
       50
176
     1
 90
        3
176
     1
 62
     5
420
      255
176
     1
290
     0
176
     1
 90
       50
176
     1
 90
       50
176
     1
 90
       50
176
     1
290
     0
176
     1
 90
       50
176
     1
 62
   256
176
     0
 40
1.0
176
     0
 90
        2
176
     1
  1
strokes_ogs.tif
176
     1
290
     0
176
     1
 40
1.0
176
     1
 40
1.0
176
     1
  0
VISUALSTYLE
  5
3F
102
{ACAD_REACTORS
330
29
102
}
330
29
100
AcDbVisualStyle
  2
JitterOff
 70
    20
177
     3
291
     1
 70
    58
 90
        2
176
     0
 90
        2
176
     0
 90
        0
176
     0
 90
        0
176
     0
 40
0.6
176
     0
 40
30.0
176
     0
 62
     7
420
 16777215
176
     0
 90
        1
176
     0
 90
        4
176
     0
 62
     7
176
     0
 62
   257
176
     0
 90
        1
176
     0
 90
        1
176
     0
 40
1.0
176
     0
 90
       10
176
     2
 62
     7
176
     0
 40
1.0
176
     0
 90
        1
176
     0
 90
        6
176
     0
 90
        2
176
     0
 62
     7
176
     0
 90
        5
176
     0
 90
        0
176
     0
 90
        0
176
     0
290
     0
176
     0
 90
        1
176
     0
 40
0.0
176
     0
 90
        0
176
     0
290
     0
176
     0
290
     1
176
     0
290
     1
176
     0
290
     0
176
     0
290
     0
176
     0
290
     0
176
     0
290
     0
176
     0
290
     0
176
     0
290
     0
176
     0
 90
       50
176
     0
 40
0.0
176
     0
 40
1.0
176
     0
 90
        0
176
     0
 62
    18
420
        0
176
     0
 90
       50
176
     0
 90
        3
176
     0
 62
     5
420
      255
176
     0
290
     0
176
     0
 90
       50
176
     0
 90
       50
176
     0
 90
       50
176
     0
290
     0
176
     0
 90
       50
176
     0
 62
   256
176
     0
 40
1.0
176
     0
 90
        2
176
     0
  1
strokes_ogs.tif
176
     0
290
     0
176
     0
 40
1.0
176
     0
 40
1.0
176
     0
  0
VISUALSTYLE
  5
37
102
{ACAD_REACTORS
330
29
102
}
330
29
100
AcDbVisualStyle
  2
Linepattern
 70
    14
177
     3
291
     1
 70
    58
 90
        2
176
     1
 90
        2
176
     1
 90
        0
176
     1
 90
        0
176
     1
 40
0.6
176
     1
 40
30.0
176
     1
 62
     7
420
 16777215
176
     1
 90
        1
176
     1
 90
        4
176
     1
 62
     7
176
     1
 62
   257
176
     1
 90
        7
176
     1
 90
        7
176
     1
 40
1.0
176
     1
 90
        8
176
     1
 62
     7
176
     1
 40
1.0
176
     1
 90
        1
176
     1
 90
        6
176
     1
 90
        2
176
     1
 62
     7
176
     1
 90
        5
176
     1
 90
        0
176
     1
 90
        0
176
     1
290
     0
176
     1
 90
        1
176
     1
 40
0.0
176
     1
 90
        0
176
     1
290
     0
176
     1
290
     1
176
     1
290
     1
176
     1
290
     0
176
     1
290
     0
176
     1
290
     0
176
     1
290
     0
176
     1
290
     0
176
     1
290
     0
176
     1
 90
       50
176
     1
 40
0.0
176
     1
 40
1.0
176
     1
 90
        0
176
     1
 62
    18
420
        0
176
     1
 90
       50
176
     1
 90
        3
176
     1
 62
     5
420
      255
176
     1
290
     0
176
     1
 90
       50
176
     1
 90
       50
176
     1
 90
       50
176
     1
290
     0
176
     1
 90
       50
176
     1
 62
   256
176
     0
 40
1.0
176
     0
 90
        2
176
     1
  1
strokes_ogs.tif
176
     1
290
     0
176
     1
 40
1.0
176
     1
 40
1.0
176
     1
  0
VISUALSTYLE
  5
40
102
{ACAD_REACTORS
330
29
102
}
330
29
100
AcDbVisualStyle
  2
OverhangOff
 70
    21
177
     3
291
     1
 70
    58
 90
        2
176
     0
 90
        2
176
     0
 90
        0
176
     0
 90
        0
176
     0
 40
0.6
176
     0
 40
30.0
176
     0
 62
     7
420
 16777215
176
     0
 90
        1
176
     0
 90
        4
176
     0
 62
     7
176
     0
 62
   257
176
     0
 90
        1
176
     0
 90
        1
176
     0
 40
1.0
176
     0
 90
        9
176
     2
 62
     7
176
     0
 40
1.0
176
     0
 90
        1
176
     0
 90
        6
176
     0
 90
        2
176
     0
 62
     7
176
     0
 90
        5
176
     0
 90
        0
176
     0
 90
        0
176
     0
290
     0
176
     0
 90
        1
176
     0
 40
0.0
176
     0
 90
        0
176
     0
290
     0
176
     0
290
     1
176
     0
290
     1
176
     0
290
     0
176
     0
290
     0
176
     0
290
     0
176
     0
290
     0
176
     0
290
     0
176
     0
290
     0
176
     0
 90
       50
176
     0
 40
0.0
176
     0
 40
1.0
176
     0
 90
        0
176
     0
 62
    18
420
        0
176
     0
 90
       50
176
     0
 90
        3
176
     0
 62
     5
420
      255
176
     0
290
     0
176
     0
 90
       50
176
     0
 90
       50
176
     0
 90
       50
176
     0
290
     0
176
     0
 90
       50
176
     0
 62
   256
176
     0
 40
1.0
176
     0
 90
        2
176
     0
  1
strokes_ogs.tif
176
     0
290
     0
176
     0
 40
1.0
176
     0
 40
1.0
176
     0
  0
VISUALSTYLE
  5
33
102
{ACAD_REACTORS
330
29
102
}
330
29
100
AcDbVisualStyle
  2
Realistic
 70
     8
177
     3
291
     0
 70
    58
 90
        2
176
     1
 90
        3
176
     1
 90
        0
176
     1
 90
        2
176
     1
 40
0.6
176
     1
 40
30.0
176
     1
 62
     7
420
 16777215
176
     1
 90
        0
176
     1
 90
        0
176
     1
 62
     7
176
     1
 62
   257
176
     1
 90
        1
176
     1
 90
        1
176
     1
 40
1.0
176
     1
 90
        8
176
     1
 62
   257
176
     1
 40
1.0
176
     1
 90
        1
176
     1
 90
        6
176
     1
 90
        2
176
     1
 62
     7
176
     1
 90
        3
176
     1
 90
        0
176
     1
 90
        0
176
     1
290
     0
176
     1
 90
       13
176
     1
 40
0.0
176
     1
 90
        0
176
     1
290
     0
176
     1
290
     1
176
     1
290
     1
176
     1
290
     0
176
     1
290
     0
176
     1
290
     0
176
     1
290
     0
176
     1
290
     0
176
     1
290
     0
176
     1
 90
       50
176
     1
 40
0.0
176
     1
 40
1.0
176
     1
 90
        0
176
     1
 62
    18
420
        0
176
     1
 90
       50
176
     1
 90
        3
176
     1
 62
     5
420
      255
176
     1
290
     0
176
     1
 90
       50
176
     1
 90
       50
176
     1
 90
       50
176
     1
290
     0
176
     1
 90
       50
176
     1
 62
   256
176
     0
 40
1.0
176
     0
 90
        2
176
     1
  1
strokes_ogs.tif
176
     1
290
     0
176
     1
 40
1.0
176
     1
 40
1.0
176
     1
  0
VISUALSTYLE
  5
3E
102
{ACAD_REACTORS
330
29
102
}
330
29
100
AcDbVisualStyle
  2
Shaded
 70
    27
177
     3
291
     0
 70
    58
 90
        2
176
     1
 90
        2
176
     1
 90
        1
176
     1
 90
        2
176
     1
 40
0.6
176
     1
 40
30.0
176
     1
 62
     7
420
 16777215
176
     1
 90
        0
176
     1
 90
        4
176
     1
 62
     7
176
     1
 62
   257
176
     1
 90
        1
176
     1
 90
        1
176
     1
 40
1.0
176
     1
 90
        8
176
     1
 62
   257
176
     1
 40
1.0
176
     1
 90
        1
176
     1
 90
        6
176
     1
 90
        2
176
     1
 62
     8
420
  7895160
176
     1
 90
        3
176
     1
 90
        0
176
     1
 90
        0
176
     1
290
     0
176
     1
 90
        5
176
     1
 40
0.0
176
     1
 90
        0
176
     1
290
     0
176
     1
290
     1
176
     1
290
     1
176
     1
290
     0
176
     1
290
     0
176
     1
290
     0
176
     1
290
     0
176
     1
290
     0
176
     1
290
     0
176
     1
 90
       50
176
     1
 40
0.0
176
     1
 40
1.0
176
     1
 90
        0
176
     1
 62
    18
420
        0
176
     1
 90
       50
176
     1
 90
        3
176
     1
 62
     5
420
      255
176
     1
290
     0
176
     1
 90
       50
176
     1
 90
       50
176
     1
 90
       50
176
     1
290
     0
176
     1
 90
       50
176
     1
 62
   256
176
     0
 40
1.0
176
     0
 90
        2
176
     1
  1
strokes_ogs.tif
176
     1
290
     0
176
     1
 40
1.0
176
     1
 40
1.0
176
     1
  0
VISUALSTYLE
  5
3D
102
{ACAD_REACTORS
330
29
102
}
330
29
100
AcDbVisualStyle
  2
Shaded with edges
 70
    26
177
     3
291
     0
 70
    58
 90
        2
176
     1
 90
        2
176
     1
 90
        1
176
     1
 90
        2
176
     1
 40
0.6
176
     1
 40
30.0
176
     1
 62
     7
420
 16777215
176
     1
 90
        1
176
     1
 90
        2
176
     1
 62
     7
176
     1
 62
   257
176
     1
 90
        2
176
     1
 90
        1
176
     1
 40
1.0
176
     1
 90
        8
176
     1
 62
   257
176
     1
 40
1.0
176
     1
 90
        1
176
     1
 90
        6
176
     1
 90
        2
176
     1
 62
     7
176
     1
 90
        3
176
     1
 90
        0
176
     1
 90
        0
176
     1
290
     0
176
     1
 90
        5
176
     1
 40
0.0
176
     1
 90
        0
176
     1
290
     0
176
     1
290
     1
176
     1
290
     1
176
     1
290
     0
176
     1
290
     0
176
     1
290
     0
176
     1
290
     0
176
     1
290
     0
176
     1
290
     0
176
     1
 90
       50
176
     1
 40
0.0
176
     1
 40
1.0
176
     1
 90
        0
176
     1
 62
    18
420
        0
176
     1
 90
       50
176
     1
 90
        3
176
     1
 62
     5
420
      255
176
     1
290
     0
176
     1
 90
       50
176
     1
 90
       50
176
     1
 90
       50
176
     1
290
     0
176
     1
 90
       50
176
     1
 62
   256
176
     0
 40
1.0
176
     0
 90
        2
176
     1
  1
strokes_ogs.tif
176
     1
290
     0
176
     1
 40
1.0
176
     1
 40
1.0
176
     1
  0
VISUALSTYLE
  5
3A
102
{ACAD_REACTORS
330
29
102
}
330
29
100
AcDbVisualStyle
  2
Shades of Gray
 70
    23
177
     3
291
     0
 70
    58
 90
        2
176
     1
 90
        2
176
     1
 90
        3
176
     1
 90
        0
176
     1
 40
0.6
176
     1
 40
30.0
176
     1
 62
     7
420
 16777215
176
     1
 90
        2
176
     1
 90
        2
176
     1
 62
     7
176
     1
 62
     7
176
     1
 90
        1
176
     1
 90
        1
176
     1
 40
40.0
176
     1
 90
        8
176
     1
 62
     7
176
     1
 40
1.0
176
     1
 90
        1
176
     1
 90
        6
176
     1
 90
        2
176
     1
 62
     7
176
     1
 90
        3
176
     1
 90
        0
176
     1
 90
        0
176
     1
290
     0
176
     1
 90
        1
176
     1
 40
0.0
176
     1
 90
        0
176
     1
290
     0
176
     1
290
     1
176
     1
290
     1
176
     1
290
     0
176
     1
290
     0
176
     1
290
     0
176
     1
290
     0
176
     1
290
     0
176
     1
290
     0
176
     1
 90
       50
176
     1
 40
0.0
176
     1
 40
1.0
176
     1
 90
        0
176
     1
 62
    18
420
        0
176
     1
 90
       50
176
     1
 90
        3
176
     1
 62
     5
420
      255
176
     1
290
     0
176
     1
 90
       50
176
     1
 90
       50
176
     1
 90
       50
176
     1
290
     0
176
     1
 90
       50
176
     1
 62
   256
176
     0
 40
1.0
176
     0
 90
        2
176
     1
  1
strokes_ogs.tif
176
     1
290
     0
176
     1
 40
1.0
176
     1
 40
1.0
176
     1
  0
VISUALSTYLE
  5
3B
102
{ACAD_REACTORS
330
29
102
}
330
29
100
AcDbVisualStyle
  2
Sketchy
 70
    24
177
     3
291
     0
 70
    58
 90
        1
176
     1
 90
        2
176
     1
 90
        2
176
     1
 90
        0
176
     1
 40
0.6
176
     1
 40
30.0
176
     1
 62
     7
420
 16777215
176
     1
 90
        2
176
     1
 90
        2
176
     1
 62
     7
176
     1
 62
     7
176
     1
 90
        1
176
     1
 90
        1
176
     1
 40
40.0
176
     1
 90
       11
176
     1
 62
     7
176
     1
 40
1.0
176
     1
 90
        1
176
     1
 90
        6
176
     1
 90
        2
176
     1
 62
     7
176
     1
 90
        6
176
     1
 90
        0
176
     1
 90
        0
176
     1
290
     0
176
     1
 90
        1
176
     1
 40
0.0
176
     1
 90
        0
176
     1
290
     0
176
     1
290
     1
176
     1
290
     1
176
     1
290
     0
176
     1
290
     0
176
     1
290
     0
176
     1
290
     0
176
     1
290
     0
176
     1
290
     0
176
     1
 90
       50
176
     1
 40
0.0
176
     1
 40
1.0
176
     1
 90
        0
176
     1
 62
    18
420
        0
176
     1
 90
       50
176
     1
 90
        3
176
     1
 62
     5
420
      255
176
     1
290
     0
176
     1
 90
       50
176
     1
 90
       50
176
     1
 90
       50
176
     1
290
     0
176
     1
 90
       50
176
     1
 62
   256
176
     0
 40
1.0
176
     0
 90
        2
176
     1
  1
strokes_ogs.tif
176
     1
290
     0
176
     1
 40
1.0
176
     1
 40
1.0
176
     1
  0
VISUALSTYLE
  5
36
102
{ACAD_REACTORS
330
29
102
}
330
29
100
AcDbVisualStyle
  2
Thicken
 70
    13
177
     3
291
     1
 70
    58
 90
        2
176
     1
 90
        2
176
     1
 90
        0
176
     1
 90
        0
176
     1
 40
0.6
176
     1
 40
30.0
176
     1
 62
     7
420
 16777215
176
     1
 90
        1
176
     1
 90
        4
176
     1
 62
     7
176
     1
 62
   257
176
     1
 90
        1
176
     1
 90
        1
176
     1
 40
1.0
176
     1
 90
       12
176
     1
 62
     7
176
     1
 40
1.0
176
     1
 90
        1
176
     1
 90
        6
176
     1
 90
        2
176
     1
 62
     7
176
     1
 90
        5
176
     1
 90
        0
176
     1
 90
        0
176
     1
290
     0
176
     1
 90
        1
176
     1
 40
0.0
176
     1
 90
        0
176
     1
290
     0
176
     1
290
     1
176
     1
290
     1
176
     1
290
     0
176
     1
290
     0
176
     1
290
     0
176
     1
290
     0
176
     1
290
     0
176
     1
290
     0
176
     1
 90
       50
176
     1
 40
0.0
176
     1
 40
1.0
176
     1
 90
        0
176
     1
 62
    18
420
        0
176
     1
 90
       50
176
     1
 90
        3
176
     1
 62
     5
420
      255
176
     1
290
     0
176
     1
 90
       50
176
     1
 90
       50
176
     1
 90
       50
176
     1
290
     0
176
     1
 90
       50
176
     1
 62
   256
176
     0
 40
1.0
176
     0
 90
        2
176
     1
  1
strokes_ogs.tif
176
     1
290
     0
176
     1
 40
1.0
176
     1
 40
1.0
176
     1
  0
VISUALSTYLE
  5
30
102
{ACAD_REACTORS
330
29
102
}
330
29
100
AcDbVisualStyle
  2
Wireframe
 70
     5
177
     3
291
     0
 70
    58
 90
        0
176
     1
 90
        2
176
     1
 90
        0
176
     1
 90
        0
176
     1
 40
0.6
176
     1
 40
30.0
176
     1
 62
     7
420
 16777215
176
     1
 90
        1
176
     1
 90
        4
176
     1
 62
     7
176
     1
 62
   257
176
     1
 90
        1
176
     1
 90
        1
176
     1
 40
1.0
176
     1
 90
        0
176
     1
 62
   257
176
     1
 40
1.0
176
     1
 90
        1
176
     1
 90
        6
176
     1
 90
        2
176
     1
 62
     7
176
     1
 90
        3
176
     1
 90
        0
176
     1
 90
        0
176
     1
290
     0
176
     1
 90
        1
176
     1
 40
0.0
176
     1
 90
        0
176
     1
290
     0
176
     1
290
     1
176
     1
290
     1
176
     1
290
     0
176
     1
290
     0
176
     1
290
     0
176
     1
290
     0
176
     1
290
     0
176
     1
290
     0
176
     1
 90
       50
176
     1
 40
0.0
176
     1
 40
1.0
176
     1
 90
        0
176
     1
 62
    18
420
        0
176
     1
 90
       50
176
     1
 90
        3
176
     1
 62
     5
420
      255
176
     1
290
     0
176
     1
 90
       50
176
     1
 90
       50
176
     1
 90
       50
176
     1
290
     0
176
     1
 90
       50
176
     1
 62
   256
176
     0
 40
1.0
176
     0
 90
        2
176
     1
  1
strokes_ogs.tif
176
     1
290
     0
176
     1
 40
1.0
176
     1
 40
1.0
176
     1
  0
VISUALSTYLE
  5
3C
102
{ACAD_REACTORS
330
29
102
}
330
29
100
AcDbVisualStyle
  2
X-Ray
 70
    25
177
     3
291
     0
 70
    58
 90
        2
176
     1
 90
        2
176
     1
 90
        1
176
     1
 90
        1
176
     1
 40
0.5
176
     1
 40
30.0
176
     1
 62
     7
420
 16777215
176
     1
 90
        1
176
     1
 90
        0
176
     1
 62
     7
176
     1
 62
   257
176
     1
 90
        1
176
     1
 90
        1
176
     1
 40
1.0
176
     1
 90
        8
176
     1
 62
     7
176
     1
 40
1.0
176
     1
 90
        1
176
     1
 90
        6
176
     1
 90
        2
176
     1
 62
     7
176
     1
 90
        3
176
     1
 90
        0
176
     1
 90
        0
176
     1
290
     0
176
     1
 90
       13
176
     1
 40
0.0
176
     1
 90
        0
176
     1
290
     0
176
     1
290
     1
176
     1
290
     1
176
     1
290
     0
176
     1
290
     0
176
     1
290
     0
176
     1
290
     0
176
     1
290
     0
176
     1
290
     0
176
     1
 90
       50
176
     1
 40
0.0
176
     1
 40
1.0
176
     1
 90
        0
176
     1
 62
    18
420
        0
176
     1
 90
       50
176
     1
 90
        3
176
     1
 62
     5
420
      255
176
     1
290
     0
176
     1
 90
       50
176
     1
 90
       50
176
     1
 90
       50
176
     1
290
     0
176
     1
 90
       50
176
     1
 62
   256
176
     0
 40
1.0
176
     0
 90
        2
176
     1
  1
strokes_ogs.tif
176
     1
290
     0
176
     1
 40
1.0
176
     1
 40
1.0
176
     1
  0
DICTIONARYVAR
  5
10B
102
{ACAD_REACTORS
330
106
102
}
330
106
100
DictionaryVariables
280
     0
  1
1:1
  0
DICTIONARYVAR
  5
108
102
{ACAD_REACTORS
330
106
102
}
330
106
100
DictionaryVariables
280
     0
  1
STANDARD
  0
DICTIONARYVAR
  5
107
102
{ACAD_REACTORS
330
106
102
}
330
106
100
DictionaryVariables
280
     0
  1
STANDARD
  0
DICTIONARYVAR
  5
109
102
{ACAD_REACTORS
330
106
102
}
330
106
100
DictionaryVariables
280
     0
  1
Imperial24
  0
DICTIONARYVAR
  5
10A
102
{ACAD_REACTORS
330
106
102
}
330
106
100
DictionaryVariables
280
     0
  1
Imperial24
  0
DICTIONARY
  5
1A
330
19
100
AcDbDictionary
280
     1
281
     1
  3
BUMPTILE
360
1C
  3
DIFFUSETILE
360
1B
  3
OPACITYTILE
360
1F
  3
REFLECTIONTILE
360
1E
  3
REFRACTIONTILE
360
20
  3
SPECULARTILE
360
1D
  0
DICTIONARY
  5
12
330
11
100
AcDbDictionary
280
     1
281
     1
  3
BUMPTILE
360
14
  3
DIFFUSETILE
360
13
  3
OPACITYTILE
360
17
  3
REFLECTIONTILE
360
16
  3
REFRACTIONTILE
360
18
  3
SPECULARTILE
360
15
  0
DICTIONARY
  5
22
330
21
100
AcDbDictionary
280
     1
281
     1
  3
BUMPTILE
360
24
  3
DIFFUSETILE
360
23
  3
OPACITYTILE
360
27
  3
REFLECTIONTILE
360
26
  3
REFRACTIONTILE
360
28
  3
SPECULARTILE
360
25
  0
DICTIONARY
  5
10C
330
65
100
AcDbDictionary
280
     1
281
     1
  3
ACAD_ROUNDTRIP_2008_TABLESTYLE_CELLSTYLEMAP
360
10D
  0
XRECORD
  5
1C
102
{ACAD_REACTORS
330
1A
102
}
330
1A
100
AcDbXrecord
280
     1
270
     1
271
     1
  0
XRECORD
  5
1B
102
{ACAD_REACTORS
330
1A
102
}
330
1A
100
AcDbXrecord
280
     1
270
     1
271
     1
  0
XRECORD
  5
1F
102
{ACAD_REACTORS
330
1A
102
}
330
1A
100
AcDbXrecord
280
     1
270
     1
271
     1
  0
XRECORD
  5
1E
102
{ACAD_REACTORS
330
1A
102
}
330
1A
100
AcDbXrecord
280
     1
270
     1
271
     1
  0
XRECORD
  5
20
102
{ACAD_REACTORS
330
1A
102
}
330
1A
100
AcDbXrecord
280
     1
270
     1
271
     1
  0
XRECORD
  5
1D
102
{ACAD_REACTORS
330
1A
102
}
330
1A
100
AcDbXrecord
280
     1
270
     1
271
     1
  0
XRECORD
  5
14
102
{ACAD_REACTORS
330
12
102
}
330
12
100
AcDbXrecord
280
     1
270
     1
271
     1
  0
XRECORD
  5
13
102
{ACAD_REACTORS
330
12
102
}
330
12
100
AcDbXrecord
280
     1
270
     1
271
     1
  0
XRECORD
  5
17
102
{ACAD_REACTORS
330
12
102
}
330
12
100
AcDbXrecord
280
     1
270
     1
271
     1
  0
XRECORD
  5
16
102
{ACAD_REACTORS
330
12
102
}
330
12
100
AcDbXrecord
280
     1
270
     1
271
     1
  0
XRECORD
  5
18
102
{ACAD_REACTORS
330
12
102
}
330
12
100
AcDbXrecord
280
     1
270
     1
271
     1
  0
XRECORD
  5
15
102
{ACAD_REACTORS
330
12
102
}
330
12
100
AcDbXrecord
280
     1
270
     1
271
     1
  0
XRECORD
  5
24
102
{ACAD_REACTORS
330
22
102
}
330
22
100
AcDbXrecord
280
     1
270
     1
271
     1
  0
XRECORD
  5
23
102
{ACAD_REACTORS
330
22
102
}
330
22
100
AcDbXrecord
280
     1
270
     1
271
     1
  0
XRECORD
  5
27
102
{ACAD_REACTORS
330
22
102
}
330
22
100
AcDbXrecord
280
     1
270
     1
271
     1
  0
XRECORD
  5
26
102
{ACAD_REACTORS
330
22
102
}
330
22
100
AcDbXrecord
280
     1
270
     1
271
     1
  0
XRECORD
  5
28
102
{ACAD_REACTORS
330
22
102
}
330
22
100
AcDbXrecord
280
     1
270
     1
271
     1
  0
XRECORD
  5
25
102
{ACAD_REACTORS
330
22
102
}
330
22
100
AcDbXrecord
280
     1
270
     1
271
     1
  0
CELLSTYLEMAP
  5
10D
102
{ACAD_REACTORS
330
10C
102
}
330
10C
100
AcDbCellStyleMap
 90
        3
300
CELLSTYLE
  1
TABLEFORMAT_BEGIN
 90
        5
170
     1
 91
        0
 92
    32768
 62
   257
 93
        1
300
CONTENTFORMAT
  1
CONTENTFORMAT_BEGIN
 90
        0
 91
        0
 92
      512
 93
        0
300

 40
0.0
140
1.0
 94
        5
 62
     0
340
55
144
0.25
309
CONTENTFORMAT_END
171
     0
 94
        0
309
TABLEFORMAT_END
  1
CELLSTYLE_BEGIN
 90
        1
 91
        1
300
_TITLE
309
CELLSTYLE_END
300
CELLSTYLE
  1
TABLEFORMAT_BEGIN
 90
        5
170
     1
 91
        0
 92
        0
 62
   257
 93
        1
300
CONTENTFORMAT
  1
CONTENTFORMAT_BEGIN
 90
        0
 91
        0
 92
      512
 93
        0
300

 40
0.0
140
1.0
 94
        5
 62
     0
340
55
144
0.18
309
CONTENTFORMAT_END
171
     0
 94
        0
309
TABLEFORMAT_END
  1
CELLSTYLE_BEGIN
 90
        2
 91
        1
300
_HEADER
309
CELLSTYLE_END
300
CELLSTYLE
  1
TABLEFORMAT_BEGIN
 90
        5
170
     1
 91
        0
 92
        0
 62
   257
 93
        1
300
CONTENTFORMAT
  1
CONTENTFORMAT_BEGIN
 90
        0
 91
        0
 92
      512
 93
        0
300

 40
0.0
140
1.0
 94
        2
 62
     0
340
55
144
0.18
309
CONTENTFORMAT_END
171
     0
 94
        0
309
TABLEFORMAT_END
  1
CELLSTYLE_BEGIN
 90
        3
 91
        2
300
_DATA
309
CELLSTYLE_END
  0
ENDSEC
  0
EOF
