  0
SECTION
  2
HEADER
  9
$ACADVER
  1
AC1032
  9
$ACADMAINTVER
 90
      228
  9
$DWGCODEPAGE
  3
ANSI_932
  9
$REQUIREDVERSIONS
160
                 0
  9
$INSBASE
 10
0.0
 20
0.0
 30
0.0
  9
$EXTMIN
 10
1.000000000000000E+20
 20
1.000000000000000E+20
 30
1.000000000000000E+20
  9
$EXTMAX
 10
-1.000000000000000E+20
 20
-1.000000000000000E+20
 30
-1.000000000000000E+20
  9
$LIMMIN
 10
0.0
 20
0.0
  9
$LIMMAX
 10
12.0
 20
9.0
  9
$ORTHOMODE
 70
     0
  9
$REGENMODE
 70
     1
  9
$FILLMODE
 70
     1
  9
$QTEXTMODE
 70
     0
  9
$MIRRTEXT
 70
     0
  9
$LTSCALE
 40
1.0
  9
$ATTMODE
 70
     1
  9
$TEXTSIZE
 40
0.2
  9
$TRACEWID
 40
0.05
  9
$TEXTSTYLE
  7
Standard
  9
$CLAYER
  8
0
  9
$CELTYPE
  6
ByLayer
  9
$CECOLOR
 62
   256
  9
$CELTSCALE
 40
1.0
  9
$DISPSILH
 70
     0
  9
$DIMSCALE
 40
1.0
  9
$DIMASZ
 40
0.18
  9
$DIMEXO
 40
0.0625
  9
$DIMDLI
 40
0.38
  9
$DIMRND
 40
0.0
  9
$DIMDLE
 40
0.0
  9
$DIMEXE
 40
0.18
  9
$DIMTP
 40
0.0
  9
$DIMTM
 40
0.0
  9
$DIMTXT
 40
0.18
  9
$DIMCEN
 40
0.09
  9
$DIMTSZ
 40
0.0
  9
$DIMTOL
 70
     0
  9
$DIMLIM
 70
     0
  9
$DIMTIH
 70
     1
  9
$DIMTOH
 70
     1
  9
$DIMSE1
 70
     0
  9
$DIMSE2
 70
     0
  9
$DIMTAD
 70
     0
  9
$DIMZIN
 70
     0
  9
$DIMBLK
  1

  9
$DIMASO
 70
     1
  9
$DIMSHO
 70
     1
  9
$DIMPOST
  1

  9
$DIMAPOST
  1

  9
$DIMALT
 70
     0
  9
$DIMALTD
 70
     2
  9
$DIMALTF
 40
25.4
  9
$DIMLFAC
 40
1.0
  9
$DIMTOFL
 70
     0
  9
$DIMTVP
 40
0.0
  9
$DIMTIX
 70
     0
  9
$DIMSOXD
 70
     0
  9
$DIMSAH
 70
     0
  9
$DIMBLK1
  1

  9
$DIMBLK2
  1

  9
$DIMSTYLE
  2
Standard
  9
$DIMCLRD
 70
     0
  9
$DIMCLRE
 70
     0
  9
$DIMCLRT
 70
     0
  9
$DIMTFAC
 40
1.0
  9
$DIMGAP
 40
0.09
  9
$DIMJUST
 70
     0
  9
$DIMSD1
 70
     0
  9
$DIMSD2
 70
     0
  9
$DIMTOLJ
 70
     1
  9
$DIMTZIN
 70
     0
  9
$DIMALTZ
 70
     0
  9
$DIMALTTZ
 70
     0
  9
$DIMUPT
 70
     0
  9
$DIMDEC
 70
     4
  9
$DIMTDEC
 70
     4
  9
$DIMALTU
 70
     2
  9
$DIMALTTD
 70
     2
  9
$DIMTXSTY
  7
Standard
  9
$DIMAUNIT
 70
     0
  9
$DIMADEC
 70
     0
  9
$DIMALTRND
 40
0.0
  9
$DIMAZIN
 70
     0
  9
$DIMDSEP
 70
    46
  9
$DIMATFIT
 70
     3
  9
$DIMFRAC
 70
     0
  9
$DIMLDRBLK
  1

  9
$DIMLUNIT
 70
     2
  9
$DIMLWD
 70
    -2
  9
$DIMLWE
 70
    -2
  9
$DIMTMOVE
 70
     0
  9
$DIMFXL
 40
1.0
  9
$DIMFXLON
 70
     0
  9
$DIMJOGANG
 40
0.7853981633974483
  9
$DIMTFILL
 70
     0
  9
$DIMTFILLCLR
 70
     0
  9
$DIMARCSYM
 70
     0
  9
$DIMLTYPE
  6

  9
$DIMLTEX1
  6

  9
$DIMLTEX2
  6

  9
$DIMTXTDIRECTION
 70
     0
  9
$LUNITS
 70
     2
  9
$LUPREC
 70
     4
  9
$SKETCHINC
 40
0.1
  9
$FILLETRAD
 40
0.0
  9
$AUNITS
 70
     0
  9
$AUPREC
 70
     0
  9
$MENU
  1
.
  9
$ELEVATION
 40
0.0
  9
$PELEVATION
 40
0.0
  9
$THICKNESS
 40
0.0
  9
$LIMCHECK
 70
     0
  9
$CHAMFERA
 40
0.0
  9
$CHAMFERB
 40
0.0
  9
$CHAMFERC
 40
0.0
  9
$CHAMFERD
 40
0.0
  9
$SKPOLY
 70
     0
  9
$TDCREATE
 40
2460062.571631945
  9
$TDUCREATE
 40
2460062.196631944
  9
$TDUPDATE
 40
2460062.571631945
  9
$TDUUPDATE
 40
2460062.196631944
  9
$TDINDWG
 40
0.0000000000
  9
$TDUSRTIMER
 40
0.0000000000
  9
$USRTIMER
 70
     1
  9
$ANGBASE
 50
0.0
  9
$ANGDIR
 70
     0
  9
$PDMODE
 70
     0
  9
$PDSIZE
 40
0.0
  9
$PLINEWID
 40
0.0
  9
$SPLFRAME
 70
     0
  9
$SPLINETYPE
 70
     6
  9
$SPLINESEGS
 70
     8
  9
$HANDSEED
  5
107
  9
$SURFTAB1
 70
     6
  9
$SURFTAB2
 70
     6
  9
$SURFTYPE
 70
     6
  9
$SURFU
 70
     6
  9
$SURFV
 70
     6
  9
$UCSBASE
  2

  9
$UCSNAME
  2

  9
$UCSORG
 10
0.0
 20
0.0
 30
0.0
  9
$UCSXDIR
 10
1.0
 20
0.0
 30
0.0
  9
$UCSYDIR
 10
0.0
 20
1.0
 30
0.0
  9
$UCSORTHOREF
  2

  9
$UCSORTHOVIEW
 70
     0
  9
$UCSORGTOP
 10
0.0
 20
0.0
 30
0.0
  9
$UCSORGBOTTOM
 10
0.0
 20
0.0
 30
0.0
  9
$UCSORGLEFT
 10
0.0
 20
0.0
 30
0.0
  9
$UCSORGRIGHT
 10
0.0
 20
0.0
 30
0.0
  9
$UCSORGFRONT
 10
0.0
 20
0.0
 30
0.0
  9
$UCSORGBACK
 10
0.0
 20
0.0
 30
0.0
  9
$PUCSBASE
  2

  9
$PUCSNAME
  2

  9
$PUCSORG
 10
0.0
 20
0.0
 30
0.0
  9
$PUCSXDIR
 10
1.0
 20
0.0
 30
0.0
  9
$PUCSYDIR
 10
0.0
 20
1.0
 30
0.0
  9
$PUCSORTHOREF
  2

  9
$PUCSORTHOVIEW
 70
     0
  9
$PUCSORGTOP
 10
0.0
 20
0.0
 30
0.0
  9
$PUCSORGBOTTOM
 10
0.0
 20
0.0
 30
0.0
  9
$PUCSORGLEFT
 10
0.0
 20
0.0
 30
0.0
  9
$PUCSORGRIGHT
 10
0.0
 20
0.0
 30
0.0
  9
$PUCSORGFRONT
 10
0.0
 20
0.0
 30
0.0
  9
$PUCSORGBACK
 10
0.0
 20
0.0
 30
0.0
  9
$USERI1
 70
     0
  9
$USERI2
 70
     0
  9
$USERI3
 70
     0
  9
$USERI4
 70
     0
  9
$USERI5
 70
     0
  9
$USERR1
 40
0.0
  9
$USERR2
 40
0.0
  9
$USERR3
 40
0.0
  9
$USERR4
 40
0.0
  9
$USERR5
 40
0.0
  9
$WORLDVIEW
 70
     1
  9
$SHADEDGE
 70
     3
  9
$SHADEDIF
 70
    70
  9
$TILEMODE
 70
     1
  9
$MAXACTVP
 70
    64
  9
$PINSBASE
 10
0.0
 20
0.0
 30
0.0
  9
$PLIMCHECK
 70
     0
  9
$PEXTMIN
 10
1.000000000000000E+20
 20
1.000000000000000E+20
 30
1.000000000000000E+20
  9
$PEXTMAX
 10
-1.000000000000000E+20
 20
-1.000000000000000E+20
 30
-1.000000000000000E+20
  9
$PLIMMIN
 10
0.0
 20
0.0
  9
$PLIMMAX
 10
12.0
 20
9.0
  9
$UNITMODE
 70
     0
  9
$VISRETAIN
 70
     1
  9
$PLINEGEN
 70
     0
  9
$PSLTSCALE
 70
     1
  9
$TREEDEPTH
 70
  3020
  9
$CMLSTYLE
  2
Standard
  9
$CMLJUST
 70
     0
  9
$CMLSCALE
 40
1.0
  9
$PROXYGRAPHICS
 70
     1
  9
$MEASUREMENT
 70
     0
  9
$CELWEIGHT
370
    -1
  9
$ENDCAPS
280
     0
  9
$JOINSTYLE
280
     0
  9
$LWDISPLAY
290
     1
  9
$INSUNITS
 70
     4
  9
$HYPERLINKBASE
  1

  9
$STYLESHEET
  1

  9
$XEDIT
290
     1
  9
$CEPSNTYPE
380
     0
  9
$PSTYLEMODE
290
     1
  9
$FINGERPRINTGUID
  2
{05A89227-6A5C-3F4B-8443-D65A14CF1461}
  9
$VERSIONGUID
  2
{87FCCA92-FB8D-964E-AC00-E0B76B9701BD}
  9
$EXTNAMES
290
     1
  9
$PSVPSCALE
 40
0.0
  9
$OLESTARTUP
290
     0
  9
$SORTENTS
280
   127
  9
$INDEXCTL
280
     0
  9
$HIDETEXT
280
     1
  9
$XCLIPFRAME
280
     2
  9
$HALOGAP
280
     0
  9
$OBSCOLOR
 70
   257
  9
$OBSLTYPE
280
     0
  9
$INTERSECTIONDISPLAY
280
     0
  9
$INTERSECTIONCOLOR
 70
   257
  9
$DIMASSOC
280
     2
  9
$PROJECTNAME
  1

  9
$CAMERADISPLAY
290
     0
  9
$LENSLENGTH
 40
50.0
  9
$CAMERAHEIGHT
 40
0.0
  9
$STEPSPERSEC
 40
2.0
  9
$STEPSIZE
 40
6.0
  9
$3DDWFPREC
 40
2.0
  9
$PSOLWIDTH
 40
0.25
  9
$PSOLHEIGHT
 40
4.0
  9
$LOFTANG1
 40
1.570796326794896
  9
$LOFTANG2
 40
1.570796326794896
  9
$LOFTMAG1
 40
0.0
  9
$LOFTMAG2
 40
0.0
  9
$LOFTPARAM
 70
     7
  9
$LOFTNORMALS
280
     1
  9
$LATITUDE
 40
37.795
  9
$LONGITUDE
 40
-122.394
  9
$NORTHDIRECTION
 40
0.0
  9
$TIMEZONE
 70
 -8000
  9
$LIGHTGLYPHDISPLAY
280
     1
  9
$TILEMODELIGHTSYNCH
280
     1
  9
$CMATERIAL
347
11
  9
$SOLIDHIST
280
     0
  9
$SHOWHIST
280
     1
  9
$DWFFRAME
280
     2
  9
$DGNFRAME
280
     0
  9
$REALWORLDSCALE
290
     1
  9
$INTERFERECOLOR
 62
     1
  9
$INTERFEREOBJVS
345
33
  9
$INTERFEREVPVS
346
30
  9
$CSHADOW
280
     0
  9
$SHADOWPLANELOCATION
 40
0.0
  0
ENDSEC
  0
SECTION
  2
CLASSES
  0
CLASS
  1
ACDBDICTIONARYWDFLT
  2
AcDbDictionaryWithDefault
  3
ObjectDBX Classes
 90
        0
 91
        1
280
     0
281
     0
  0
CLASS
  1
MATERIAL
  2
AcDbMaterial
  3
ObjectDBX Classes
 90
     1153
 91
        3
280
     0
281
     0
  0
CLASS
  1
VISUALSTYLE
  2
AcDbVisualStyle
  3
ObjectDBX Classes
 90
     4095
 91
       24
280
     0
281
     0
  0
CLASS
  1
SCALE
  2
AcDbScale
  3
ObjectDBX Classes
 90
     1153
 91
       17
280
     0
281
     0
  0
CLASS
  1
TABLESTYLE
  2
AcDbTableStyle
  3
ObjectDBX Classes
 90
     4095
 91
        1
280
     0
281
     0
  0
CLASS
  1
MLEADERSTYLE
  2
AcDbMLeaderStyle
  3
ACDB_MLEADERSTYLE_CLASS
 90
     4095
 91
        1
280
     0
281
     0
  0
CLASS
  1
ACDBSECTIONVIEWSTYLE
  2
AcDbSectionViewStyle
  3
ObjectDBX Classes
 90
     1025
 91
        1
280
     0
281
     0
  0
CLASS
  1
ACDBDETAILVIEWSTYLE
  2
AcDbDetailViewStyle
  3
ObjectDBX Classes
 90
     1025
 91
        1
280
     0
281
     0
  0
CLASS
  1
DICTIONARYVAR
  2
AcDbDictionaryVar
  3
ObjectDBX Classes
 90
        0
 91
        5
280
     0
281
     0
  0
CLASS
  1
CELLSTYLEMAP
  2
AcDbCellStyleMap
  3
ObjectDBX Classes
 90
     1152
 91
        1
280
     0
281
     0
  0
ENDSEC
  0
SECTION
  2
TABLES
  0
TABLE
  2
VPORT
  5
8
330
0
100
AcDbSymbolTable
 70
     1
  0
VPORT
  5
57
330
8
100
AcDbSymbolTableRecord
100
AcDbViewportTableRecord
  2
*Active
 70
     0
 10
0.0
 20
0.0
 11
1.0
 21
1.0
 12
0.0
 22
0.0
 13
0.0
 23
0.0
 14
1.0
 24
1.0
 15
0.0
 25
0.0
 16
0.0
 26
0.0
 36
1.0
 17
338.666666582
 27
190.499999952375
 37
0.0
 40
388.619999902845
 41
1.777777777777777
 42
50.0
 43
0.0
 44
0.0
 50
0.0
 51
0.0
 71
     0
 72
   100
 73
     1
 74
     1
 75
     0
 76
     0
 77
     0
 78
     0
281
     0
 65
     1
110
0.0
120
0.0
130
0.0
111
1.0
121
0.0
131
0.0
112
0.0
122
1.0
132
0.0
 79
     0
146
0.0
 60
     3
 61
     5
292
     1
282
     1
141
0.0
142
0.0
 63
   250
421
  3355443
  0
ENDTAB
  0
TABLE
  2
LTYPE
  5
5
330
0
100
AcDbSymbolTable
 70
     1
  0
LTYPE
  5
5B
330
5
100
AcDbSymbolTableRecord
100
AcDbLinetypeTableRecord
  2
ByBlock
 70
     0
  3

 72
    65
 73
     0
 40
0.0
  0
LTYPE
  5
5C
330
5
100
AcDbSymbolTableRecord
100
AcDbLinetypeTableRecord
  2
ByLayer
 70
     0
  3

 72
    65
 73
     0
 40
0.0
  0
LTYPE
  5
5D
330
5
100
AcDbSymbolTableRecord
100
AcDbLinetypeTableRecord
  2
Continuous
 70
     0
  3
Solid line
 72
    65
 73
     0
 40
0.0
  0
ENDTAB
  0
TABLE
  2
LAYER
  5
2
330
0
100
AcDbSymbolTable
 70
     6
  0
LAYER
  5
54
330
2
100
AcDbSymbolTableRecord
100
AcDbLayerTableRecord
  2
0
 70
     0
 62
     7
  6
Continuous
370
    -3
390
F
347
21
348
0
  0
LAYER
  5
78
330
2
100
AcDbSymbolTableRecord
100
AcDbLayerTableRecord
  2
レイヤー_1
 70
     0
 62
     7
  6
Continuous
370
     0
390
F
347
21
348
0
  0
LAYER
  5
7F
330
2
100
AcDbSymbolTableRecord
100
AcDbLayerTableRecord
  2
FLAME
 70
     0
 62
     7
  6
Continuous
370
     0
390
F
347
21
348
0
  0
LAYER
  5
87
330
2
100
AcDbSymbolTableRecord
100
AcDbLayerTableRecord
  2
Defpoints
 70
     0
 62
     7
  6
Continuous
290
     0
370
     0
390
F
347
21
348
0
  0
LAYER
  5
89
330
2
100
AcDbSymbolTableRecord
100
AcDbLayerTableRecord
  2
text
 70
     0
 62
     7
  6
Continuous
370
     0
390
F
347
21
348
0
  0
LAYER
  5
8D
330
2
100
AcDbSymbolTableRecord
100
AcDbLayerTableRecord
  2
shade
 70
     0
 62
     7
  6
Continuous
370
     0
390
F
347
21
348
0
  0
ENDTAB
  0
TABLE
  2
STYLE
  5
3
330
0
100
AcDbSymbolTable
 70
     2
  0
STYLE
  5
55
330
3
100
AcDbSymbolTableRecord
100
AcDbTextStyleTableRecord
  2
Standard
 70
     0
 40
0.0
 41
1.0
 50
0.0
 71
     0
 42
0.2
  3
txt
  4

  0
STYLE
  5
5A
330
3
100
AcDbSymbolTableRecord
100
AcDbTextStyleTableRecord
  2
Annotative
 70
     0
 40
0.0
 41
1.0
 50
0.0
 71
     0
 42
0.2
  3
txt
  4

1001
AcadAnnotative
1000
AnnotativeData
1002
{
1070
     1
1070
     1
1002
}
  0
ENDTAB
  0
TABLE
  2
VIEW
  5
6
330
0
100
AcDbSymbolTable
 70
     0
  0
ENDTAB
  0
TABLE
  2
UCS
  5
7
330
0
100
AcDbSymbolTable
 70
     0
  0
ENDTAB
  0
TABLE
  2
APPID
  5
9
330
0
100
AcDbSymbolTable
 70
     2
  0
APPID
  5
56
330
9
100
AcDbSymbolTableRecord
100
AcDbRegAppTableRecord
  2
ACAD
 70
     0
  0
APPID
  5
5E
330
9
100
AcDbSymbolTableRecord
100
AcDbRegAppTableRecord
  2
AcadAnnotative
 70
     0
  0
ENDTAB
  0
TABLE
  2
DIMSTYLE
  5
A
330
0
100
AcDbSymbolTable
 70
     2
100
AcDbDimStyleTable
 71
     0
  0
DIMSTYLE
105
58
330
A
100
AcDbSymbolTableRecord
100
AcDbDimStyleTableRecord
  2
Standard
 70
     0
340
55
  0
DIMSTYLE
105
59
330
A
100
AcDbSymbolTableRecord
100
AcDbDimStyleTableRecord
  2
Annotative
 70
     0
340
55
1001
AcadAnnotative
1000
AnnotativeData
1002
{
1070
     1
1070
     1
1002
}
  0
ENDTAB
  0
TABLE
  2
BLOCK_RECORD
  5
1
330
0
100
AcDbSymbolTable
 70
     1
  0
BLOCK_RECORD
  5
70
330
1
100
AcDbSymbolTableRecord
100
AcDbBlockTableRecord
  2
*Model_Space
340
73
 70
     0
280
     1
281
     0
  0
BLOCK_RECORD
  5
6C
330
1
100
AcDbSymbolTableRecord
100
AcDbBlockTableRecord
  2
*Paper_Space
340
6F
 70
     0
280
     1
281
     0
  0
BLOCK_RECORD
  5
74
330
1
100
AcDbSymbolTableRecord
100
AcDbBlockTableRecord
  2
*Paper_Space0
340
77
 70
     0
280
     1
281
     0
  0
ENDTAB
  0
ENDSEC
  0
SECTION
  2
BLOCKS
  0
BLOCK
  5
71
330
70
100
AcDbEntity
  8
0
100
AcDbBlockBegin
  2
*Model_Space
 70
     0
 10
0.0
 20
0.0
 30
0.0
  3
*Model_Space
  1

  0
ENDBLK
  5
72
330
70
100
AcDbEntity
  8
0
100
AcDbBlockEnd
  0
BLOCK
  5
6D
330
6C
100
AcDbEntity
 67
     1
  8
0
100
AcDbBlockBegin
  2
*Paper_Space
 70
     0
 10
0.0
 20
0.0
 30
0.0
  3
*Paper_Space
  1

  0
ENDBLK
  5
6E
330
6C
100
AcDbEntity
 67
     1
  8
0
100
AcDbBlockEnd
  0
BLOCK
  5
75
330
74
100
AcDbEntity
 67
     1
  8
0
100
AcDbBlockBegin
  2
*Paper_Space0
 70
     0
 10
0.0
 20
0.0
 30
0.0
  3
*Paper_Space0
  1

  0
ENDBLK
  5
76
330
74
100
AcDbEntity
 67
     1
  8
0
100
AcDbBlockEnd
  0
ENDSEC
  0
SECTION
  2
ENTITIES
  0
SPLINE
  5
79
330
70
100
AcDbEntity
  8
レイヤー_1
 62
    18
420
        0
370
     0
100
AcDbSpline
210
0.0
220
0.0
230
1.0
 70
     9
 71
     3
 72
    11
 73
     7
 74
     0
 42
0.0000000001
 43
0.0000000001
 40
0.0
 40
0.0
 40
0.0
 40
0.0
 40
1.0
 40
1.0
 40
1.0
 40
2.0
 40
2.0
 40
2.0
 40
2.0
 10
180.5408321200152
 20
332.0527043448926
 30
0.0
 10
180.5474008702814
 20
332.0511326807184
 30
0.0
 10
180.5544330599835
 20
332.0519117962918
 30
0.0
 10
180.5610555423584
 20
332.0527043448926
 30
0.0
 10
180.5610555423584
 20
332.0527043448926
 30
0.0
 10
180.5408321200152
 20
332.0527043448926
 30
0.0
 10
180.5408321200152
 20
332.0527043448926
 30
0.0
  0
SPLINE
  5
7A
330
70
100
AcDbEntity
  8
レイヤー_1
100
AcDbSpline
210
0.0
220
0.0
230
1.0
 70
     9
 71
     3
 72
    11
 73
     7
 74
     0
 42
0.0000000001
 43
0.0000000001
 40
0.0
 40
0.0
 40
0.0
 40
0.0
 40
1.0
 40
1.0
 40
1.0
 40
2.0
 40
2.0
 40
2.0
 40
2.0
 10
180.5408321200152
 20
332.0527043448929
 30
0.0
 10
180.5474008702814
 20
332.0511326807188
 30
0.0
 10
180.5544330599835
 20
332.0519117962918
 30
0.0
 10
180.5610555423584
 20
332.0527043448929
 30
0.0
 10
180.5610555423584
 20
332.0527043448929
 30
0.0
 10
180.5408321200152
 20
332.0527043448929
 30
0.0
 10
180.5408321200152
 20
332.0527043448929
 30
0.0
  0
HATCH
  5
7B
330
70
100
AcDbEntity
  8
レイヤー_1
 62
    18
420
        0
440
 33554687
100
AcDbHatch
 10
0.0
 20
0.0
 30
0.0
210
0.0
220
0.0
230
1.0
  2
SOLID
 70
     1
 71
     1
 91
        1
 92
        1
 93
        1
 72
     4
 94
        3
 73
     0
 74
     0
 95
       11
 96
        7
 40
0.0
 40
0.0
 40
0.0
 40
0.0
 40
1.0
 40
1.0
 40
1.0
 40
2.0
 40
2.0
 40
2.0
 40
2.0
 10
180.5408321200152
 20
332.0527043448929
 10
180.5474008702814
 20
332.0511326807188
 10
180.5544330599835
 20
332.0519117962918
 10
180.5610555423584
 20
332.0527043448929
 10
180.5610555423584
 20
332.0527043448929
 10
180.5408321200152
 20
332.0527043448929
 10
180.5408321200152
 20
332.0527043448929
 97
        0
 97
        1
330
7A
 75
     0
 76
     1
 98
        1
 10
0.0
 20
0.0
450
        0
451
        0
460
0.0
461
0.0
452
        0
462
0.0
453
        0
470

  0
SPLINE
  5
7C
330
70
100
AcDbEntity
  8
レイヤー_1
 62
    18
420
        0
370
     0
100
AcDbSpline
210
0.0
220
0.0
230
1.0
 70
     9
 71
     3
 72
    11
 73
     7
 74
     0
 42
0.0000000001
 43
0.0000000001
 40
0.0
 40
0.0
 40
0.0
 40
0.0
 40
1.0
 40
1.0
 40
1.0
 40
2.0
 40
2.0
 40
2.0
 40
2.0
 10
100.7580199428556
 20
203.518268927709
 30
0.0
 10
100.7645886931216
 20
203.5166972635349
 30
0.0
 10
100.7716208828237
 20
203.5174763791086
 30
0.0
 10
100.7782366486849
 20
203.518268927709
 30
0.0
 10
100.7782366486849
 20
203.518268927709
 30
0.0
 10
100.7580199428556
 20
203.518268927709
 30
0.0
 10
100.7580199428556
 20
203.518268927709
 30
0.0
  0
SPLINE
  5
7D
330
70
100
AcDbEntity
  8
レイヤー_1
100
AcDbSpline
210
0.0
220
0.0
230
1.0
 70
     9
 71
     3
 72
    11
 73
     7
 74
     0
 42
0.0000000001
 43
0.0000000001
 40
0.0
 40
0.0
 40
0.0
 40
0.0
 40
1.0
 40
1.0
 40
1.0
 40
2.0
 40
2.0
 40
2.0
 40
2.0
 10
100.7580199428556
 20
203.5182689277084
 30
0.0
 10
100.7645886931219
 20
203.5166972635346
 30
0.0
 10
100.771620882824
 20
203.5174763791093
 30
0.0
 10
100.7782366486846
 20
203.5182689277084
 30
0.0
 10
100.7782366486846
 20
203.5182689277084
 30
0.0
 10
100.7580199428556
 20
203.5182689277084
 30
0.0
 10
100.7580199428556
 20
203.5182689277084
 30
0.0
  0
HATCH
  5
7E
330
70
100
AcDbEntity
  8
レイヤー_1
 62
    18
420
        0
440
 33554687
100
AcDbHatch
 10
0.0
 20
0.0
 30
0.0
210
0.0
220
0.0
230
1.0
  2
SOLID
 70
     1
 71
     1
 91
        1
 92
        1
 93
        1
 72
     4
 94
        3
 73
     0
 74
     0
 95
       11
 96
        7
 40
0.0
 40
0.0
 40
0.0
 40
0.0
 40
1.0
 40
1.0
 40
1.0
 40
2.0
 40
2.0
 40
2.0
 40
2.0
 10
100.7580199428556
 20
203.5182689277084
 10
100.7645886931219
 20
203.5166972635346
 10
100.771620882824
 20
203.5174763791093
 10
100.7782366486846
 20
203.5182689277084
 10
100.7782366486846
 20
203.5182689277084
 10
100.7580199428556
 20
203.5182689277084
 10
100.7580199428556
 20
203.5182689277084
 97
        0
 97
        1
330
7D
 75
     0
 76
     1
 98
        1
 10
0.0
 20
0.0
450
        0
451
        0
460
0.0
461
0.0
452
        0
462
0.0
453
        0
470

  0
LINE
  5
80
330
70
100
AcDbEntity
  8
FLAME
 62
     2
420
 16776960
370
    25
100
AcDbLine
 10
415.3333530008223
 20
266.8611060321538
 30
0.0
 11
415.3333530008223
 21
124.9994039400201
 31
0.0
  0
LINE
  5
81
330
70
100
AcDbEntity
  8
FLAME
 62
     2
420
 16776960
370
    25
100
AcDbLine
 10
293.7376083503941
 20
124.9994039400201
 30
0.0
 11
293.7376083503941
 21
266.8611060321538
 31
0.0
  0
LINE
  5
82
330
70
100
AcDbEntity
  8
FLAME
 62
     2
420
 16776960
370
    25
100
AcDbLine
 10
415.3333530008223
 20
124.9994039400201
 30
0.0
 11
293.7376083503941
 21
124.9994039400201
 31
0.0
  0
LINE
  5
83
330
70
100
AcDbEntity
  8
FLAME
 62
     2
420
 16776960
370
    25
100
AcDbLine
 10
415.3333530008223
 20
131.7547230872182
 30
0.0
 11
293.7376083503941
 21
131.7547230872182
 31
0.0
  0
LINE
  5
84
330
70
100
AcDbEntity
  8
FLAME
 62
     2
420
 16776960
370
    25
100
AcDbLine
 10
415.3333530008223
 20
138.5100422344921
 30
0.0
 11
293.7376083503941
 21
138.5100422344921
 31
0.0
  0
LINE
  5
85
330
70
100
AcDbEntity
  8
FLAME
 62
     2
420
 16776960
370
    25
100
AcDbLine
 10
415.3333530008223
 20
145.2653613816902
 30
0.0
 11
293.7376083503941
 21
145.2653613816902
 31
0.0
  0
LINE
  5
86
330
70
100
AcDbEntity
  8
FLAME
 62
     2
420
 16776960
370
    25
100
AcDbLine
 10
415.3333530008223
 20
266.8611060321538
 30
0.0
 11
293.7376083503941
 21
266.8611060321538
 31
0.0
  0
LWPOLYLINE
  5
88
330
70
100
AcDbEntity
  8
Defpoints
 62
    18
420
        0
370
     0
100
AcDbPolyline
 90
        4
 70
     1
 43
0.0
 10
222.8067573042906
 20
380.9999999047501
 10
486.2642040469256
 20
380.9999999047501
 10
486.2642040469256
 20
0.0
 10
222.8067573042906
 20
0.0
  0
MTEXT
  5
8A
330
70
100
AcDbEntity
  8
text
100
AcDbMText
 10
298.1686648153233
 20
133.2869224215122
 30
0.0
 40
0.2
 41
0.0
 46
0.0
 71
     7
 72
     1
  1
\C4;\c16776960;\FMS PMincho|b0|i0|c128;\H3.377660;\W1.000000;KT331TBW
 73
     1
 44
1.0
  0
MTEXT
  5
8B
330
70
100
AcDbEntity
  8
text
100
AcDbMText
 10
298.2255950182171
 20
140.2753201451883
 30
0.0
 40
0.2
 41
0.0
 46
0.0
 71
     7
 72
     1
  1
\C4;\c16776960;\FMS PMincho|b0|i0|c128;\H3.377660;\W1.000000;テーブルスタンド　スワール
 73
     1
 44
1.0
  0
MTEXT
  5
8C
330
70
100
AcDbEntity
  8
text
100
AcDbMText
 10
298.2012640313525
 20
127.3744172519563
 30
0.0
 40
0.2
 41
0.0
 46
0.0
 71
     7
 72
     1
  1
\C4;\c16776960;\FMS PMincho|b0|i0|c128;\H3.377660;\W0.891461;E17 LED電球(40Wタイプ 電球色 全方向/広配光タイプ）
 73
     1
 44
1.0
  0
LWPOLYLINE
  5
8E
330
70
100
AcDbEntity
  8
shade
 62
     6
420
 16711935
370
    25
100
AcDbPolyline
 90
        4
 70
     1
 43
0.0
 10
345.1530846851843
 20
174.1229359053417
 10
362.9871272338159
 20
174.1229359053417
 10
362.9871272338159
 20
174.7714465434581
 10
345.1530846851105
 20
174.7714465434581
  0
LINE
  5
8F
330
70
100
AcDbEntity
  8
shade
 62
     6
420
 16711935
370
    25
100
AcDbLine
 10
353.4215953213458
 20
206.116127386709
 30
0.0
 11
353.4215953213458
 21
177.4735742023456
 31
0.0
  0
SPLINE
  5
90
330
70
100
AcDbEntity
  8
shade
 62
     6
420
 16711935
370
    25
100
AcDbSpline
210
0.0
220
0.0
230
1.0
 70
     8
 71
     3
 72
    86
 73
    82
 74
     0
 42
0.0000000001
 43
0.0000000001
 40
0.0
 40
0.0
 40
0.0
 40
0.0
 40
1.0
 40
1.0
 40
1.0
 40
2.0
 40
2.0
 40
2.0
 40
3.0
 40
3.0
 40
3.0
 40
4.0
 40
4.0
 40
4.0
 40
5.0
 40
5.0
 40
5.0
 40
6.0
 40
6.0
 40
6.0
 40
7.0
 40
7.0
 40
7.0
 40
8.0
 40
8.0
 40
8.0
 40
9.0
 40
9.0
 40
9.0
 40
10.0
 40
10.0
 40
10.0
 40
11.0
 40
11.0
 40
11.0
 40
12.0
 40
12.0
 40
12.0
 40
13.0
 40
13.0
 40
13.0
 40
14.0
 40
14.0
 40
14.0
 40
15.0
 40
15.0
 40
15.0
 40
16.0
 40
16.0
 40
16.0
 40
17.0
 40
17.0
 40
17.0
 40
18.0
 40
18.0
 40
18.0
 40
19.0
 40
19.0
 40
19.0
 40
20.0
 40
20.0
 40
20.0
 40
21.0
 40
21.0
 40
21.0
 40
22.0
 40
22.0
 40
22.0
 40
23.0
 40
23.0
 40
23.0
 40
24.0
 40
24.0
 40
24.0
 40
25.0
 40
25.0
 40
25.0
 40
26.0
 40
26.0
 40
26.0
 40
27.0
 40
27.0
 40
27.0
 40
27.0
 10
369.8600184389868
 20
217.8626713523075
 30
0.0
 10
369.8600184389868
 20
217.8626713523075
 30
0.0
 10
370.1344144641045
 20
217.6295117229397
 30
0.0
 10
370.1344144641045
 20
217.6295117229397
 30
0.0
 10
370.2024366789643
 20
217.5351210955578
 30
0.0
 10
370.2697964599044
 20
217.4402548493304
 30
0.0
 10
370.3364888431863
 20
217.3449199749623
 30
0.0
 10
370.4593508314622
 20
217.3102089046997
 30
0.0
 10
370.5247525172675
 20
217.2135266693307
 30
0.0
 10
370.5885563469564
 20
217.1157919461089
 30
0.0
 10
370.7051161467573
 20
217.0835766345994
 30
0.0
 10
370.7647185664993
 20
216.9884601926336
 30
0.0
 10
370.8223435250575
 20
216.8921467524818
 30
0.0
 10
370.9313426041
 20
216.8556707397552
 30
0.0
 10
370.9868564655453
 20
216.7569363750095
 30
0.0
 10
371.0393598365032
 20
216.6565977370835
 30
0.0
 10
371.1784825984699
 20
216.5473923074582
 30
0.0
 10
371.2590626876992
 20
216.3702728061102
 30
0.0
 10
371.3286441546894
 20
216.188743936025
 30
0.0
 10
371.4773520005345
 20
216.1147134630741
 30
0.0
 10
371.5377402907401
 20
215.9250396219273
 30
0.0
 10
371.5839914342963
 20
215.7317077036589
 30
0.0
 10
371.6974351648091
 20
215.6508996178534
 30
0.0
 10
371.7332067936366
 20
215.4474368381488
 30
0.0
 10
371.7515062616832
 20
215.2420407715092
 30
0.0
 10
371.8202404253416
 20
215.1622447912031
 30
0.0
 10
371.8240039704223
 20
214.9524841976556
 30
0.0
 10
371.8059286549884
 20
214.7440421096013
 30
0.0
 10
371.8179383761835
 20
214.6672859136031
 30
0.0
 10
371.786583206997
 20
214.4592400915493
 30
0.0
 10
371.7332203704283
 20
214.2563516929985
 30
0.0
 10
371.6822824490852
 20
214.1878789346882
 30
0.0
 10
371.6192230373334
 20
213.9900394438832
 30
0.0
 10
371.5377337801426
 20
213.7995668035796
 30
0.0
 10
371.4406428032357
 20
213.7715008135576
 30
0.0
 10
371.3681904351387
 20
213.6182551638214
 30
0.0
 10
371.2852042346145
 20
213.4706905532144
 30
0.0
 10
371.1567132405777
 20
213.4268072155368
 30
0.0
 10
371.0706374168891
 20
213.2858896021812
 30
0.0
 10
370.9771143768689
 20
213.1499477968866
 30
0.0
 10
370.8063842042311
 20
213.0854530983747
 30
0.0
 10
370.6912341344713
 20
212.9334198239319
 30
0.0
 10
370.5680296128731
 20
212.7880242781868
 30
0.0
 10
370.3611188621074
 20
212.7474396769993
 30
0.0
 10
370.2360665344912
 20
212.6099090995455
 30
0.0
 10
370.1057849853385
 20
212.4774210472769
 30
0.0
 10
369.9140464212537
 20
212.4739470503995
 30
0.0
 10
369.8180547635439
 20
212.3811724523468
 30
0.0
 10
369.7197940995654
 20
212.2908351816855
 30
0.0
 10
369.5456495443384
 20
212.2630989471968
 30
0.0
 10
369.4466499277774
 20
212.175969047518
 30
0.0
 10
369.3459551471851
 20
212.0908238859965
 30
0.0
 10
369.2080975396389
 20
212.0994677713106
 30
0.0
 10
369.1496078185105
 20
212.0512939180175
 30
0.0
 10
369.0906161685854
 20
212.003739368903
 30
0.0
 10
368.984210732541
 20
211.9879824241909
 30
0.0
 10
368.9250047717921
 20
211.941305149419
 30
0.0
 10
368.8653717645727
 20
211.8951773260064
 30
0.0
 10
368.7872928639147
 20
211.902663957405
 30
0.0
 10
368.757399654999
 20
211.8798265203853
 30
0.0
 10
368.7274062600572
 20
211.8571211246396
 30
0.0
 10
368.6729778169682
 20
211.8493022860891
 30
0.0
 10
368.6429347085186
 20
211.8267923857461
 30
0.0
 10
368.6127991551433
 20
211.8044066667096
 30
0.0
 10
368.6127991551433
 20
211.8044066667096
 30
0.0
 10
368.3573812476888
 20
211.7154230116473
 30
0.0
 10
368.3573812476888
 20
211.7154230116473
 30
0.0
 10
368.3573812476888
 20
211.7154230116473
 30
0.0
 10
368.1254185401355
 20
211.6148295239319
 30
0.0
 10
368.1254185401355
 20
211.6148295239319
 30
0.0
 10
368.095122073188
 20
211.5938505185516
 30
0.0
 10
368.0647583292118
 20
211.5729688369188
 30
0.0
 10
368.0343277777471
 20
211.5521848018322
 30
0.0
 10
367.9790330951207
 20
211.5449853943551
 30
0.0
 10
367.9485697176226
 20
211.5243453753151
 30
0.0
 10
367.9180449689337
 20
211.5037963741316
 30
0.0
 10
367.9180449689337
 20
211.5037963741316
 30
0.0
 10
367.6610847045184
 20
211.4223803142078
 30
0.0
 10
367.6610847045184
 20
211.4223803142078
 30
0.0
 10
367.6610847045184
 20
211.4223803142078
 30
0.0
 10
367.4302388668682
 20
211.330410585164
 30
0.0
 10
367.4302388668682
 20
211.330410585164
 30
0.0
  0
SPLINE
  5
91
330
70
100
AcDbEntity
  8
shade
 62
     6
420
 16711935
370
    25
100
AcDbSpline
210
0.0
220
0.0
230
1.0
 70
     8
 71
     3
 72
    65
 73
    61
 74
     0
 42
0.0000000001
 43
0.0000000001
 40
0.0
 40
0.0
 40
0.0
 40
0.0
 40
1.0
 40
1.0
 40
1.0
 40
2.0
 40
2.0
 40
2.0
 40
3.0
 40
3.0
 40
3.0
 40
4.0
 40
4.0
 40
4.0
 40
5.0
 40
5.0
 40
5.0
 40
6.0
 40
6.0
 40
6.0
 40
7.0
 40
7.0
 40
7.0
 40
8.0
 40
8.0
 40
8.0
 40
9.0
 40
9.0
 40
9.0
 40
10.0
 40
10.0
 40
10.0
 40
11.0
 40
11.0
 40
11.0
 40
12.0
 40
12.0
 40
12.0
 40
13.0
 40
13.0
 40
13.0
 40
14.0
 40
14.0
 40
14.0
 40
15.0
 40
15.0
 40
15.0
 40
16.0
 40
16.0
 40
16.0
 40
17.0
 40
17.0
 40
17.0
 40
18.0
 40
18.0
 40
18.0
 40
19.0
 40
19.0
 40
19.0
 40
20.0
 40
20.0
 40
20.0
 40
20.0
 10
362.7775990753653
 20
208.2256613764213
 30
0.0
 10
362.7852886792422
 20
208.1846400774995
 30
0.0
 10
362.788319019716
 20
208.1428813196784
 30
0.0
 10
362.7866324410468
 20
208.1011796119927
 30
0.0
 10
362.7931773907163
 20
208.0852795581317
 30
0.0
 10
362.7876546326992
 20
208.0433344093738
 30
0.0
 10
362.7764783591771
 20
208.0027369007785
 30
0.0
 10
362.7669069606473
 20
207.9838125182242
 30
0.0
 10
362.7503904088765
 20
207.9398173310196
 30
0.0
 10
362.7276984565102
 20
207.8989570309175
 30
0.0
 10
362.6998883159697
 20
207.8877601500912
 30
0.0
 10
362.6759181882474
 20
207.8497214768948
 30
0.0
 10
362.6482429009571
 20
207.8144376490037
 30
0.0
 10
362.6111209739164
 20
207.8125776252878
 30
0.0
 10
362.5884417369582
 20
207.7863847120655
 30
0.0
 10
362.5641378872996
 20
207.7617429034849
 30
0.0
 10
362.5234583143735
 20
207.7555593771998
 30
0.0
 10
362.4989302350655
 20
207.7326252420305
 30
0.0
 10
362.4734881624055
 20
207.7107313213752
 30
0.0
 10
362.4314326826232
 20
207.7067298787149
 30
0.0
 10
362.4081576243633
 20
207.6879712727977
 30
0.0
 10
362.3843645140029
 20
207.6698842079907
 30
0.0
 10
362.3421416398052
 20
207.6646587275663
 30
0.0
 10
362.3182291653554
 20
207.6473976916885
 30
0.0
 10
362.2939774766986
 20
207.6306218106596
 30
0.0
 10
362.2273219836196
 20
207.6096362875743
 30
0.0
 10
362.1787175269706
 20
207.5791539589594
 30
0.0
 10
362.1289334616266
 20
207.5506866560119
 30
0.0
 10
362.0408872166938
 20
207.5441535787802
 30
0.0
 10
361.990860291652
 20
207.5181963133869
 30
0.0
 10
361.9400988652886
 20
207.493734870521
 30
0.0
 10
361.8519766858292
 20
207.4890169904604
 30
0.0
 10
361.8037426693519
 20
207.4677785434348
 30
0.0
 10
361.7550178485146
 20
207.4477117278496
 30
0.0
 10
361.6673450240913
 20
207.4427095267632
 30
0.0
 10
361.6185029664765
 20
207.42414595816
 30
0.0
 10
361.5693385430592
 20
207.4064663220506
 30
0.0
 10
361.4525222929221
 20
207.3919854342953
 30
0.0
 10
361.3749203989262
 20
207.3667786533764
 30
0.0
 10
361.2967595643303
 20
207.343401530928
 30
0.0
 10
361.1556400977947
 20
207.33842877475
 30
0.0
 10
361.0774308011853
 20
207.3171452002176
 30
0.0
 10
360.9989311722108
 20
207.2969751537187
 30
0.0
 10
360.8687962651191
 20
207.2949018900152
 30
0.0
 10
360.8025053475074
 20
207.278993485655
 30
0.0
 10
360.7360732364678
 20
207.2636917299393
 30
0.0
 10
360.6153628030001
 20
207.259370988235
 30
0.0
 10
360.5489322339941
 20
207.2446772290249
 30
0.0
 10
360.4824411688432
 20
207.2302610941744
 30
0.0
 10
360.3508418743491
 20
207.2233771854484
 30
0.0
 10
360.2737434661331
 20
207.2069788146172
 30
0.0
 10
360.1966151044711
 20
207.1907222329137
 30
0.0
 10
360.0561771446722
 20
207.1852117154986
 30
0.0
 10
359.9791586170976
 20
207.1685779198811
 30
0.0
 10
359.9022402649072
 20
207.1514900375153
 30
0.0
 10
359.7689814181009
 20
207.1461785522458
 30
0.0
 10
359.6992331970595
 20
207.1297710474532
 30
0.0
 10
359.6296448778941
 20
207.112704805078
 30
0.0
 10
359.5025706677951
 20
207.1054339658883
 30
0.0
 10
359.4333213404206
 20
207.0864612157006
 30
0.0
 10
359.3645193314314
 20
207.065956467053
 30
0.0
  0
SPLINE
  5
92
330
70
100
AcDbEntity
  8
shade
 62
     6
420
 16711935
370
    25
100
AcDbSpline
210
0.0
220
0.0
230
1.0
 70
     8
 71
     3
 72
   104
 73
   100
 74
     0
 42
0.0000000001
 43
0.0000000001
 40
0.0
 40
0.0
 40
0.0
 40
0.0
 40
1.0
 40
1.0
 40
1.0
 40
2.0
 40
2.0
 40
2.0
 40
3.0
 40
3.0
 40
3.0
 40
4.0
 40
4.0
 40
4.0
 40
5.0
 40
5.0
 40
5.0
 40
6.0
 40
6.0
 40
6.0
 40
7.0
 40
7.0
 40
7.0
 40
8.0
 40
8.0
 40
8.0
 40
9.0
 40
9.0
 40
9.0
 40
10.0
 40
10.0
 40
10.0
 40
11.0
 40
11.0
 40
11.0
 40
12.0
 40
12.0
 40
12.0
 40
13.0
 40
13.0
 40
13.0
 40
14.0
 40
14.0
 40
14.0
 40
15.0
 40
15.0
 40
15.0
 40
16.0
 40
16.0
 40
16.0
 40
17.0
 40
17.0
 40
17.0
 40
18.0
 40
18.0
 40
18.0
 40
19.0
 40
19.0
 40
19.0
 40
20.0
 40
20.0
 40
20.0
 40
21.0
 40
21.0
 40
21.0
 40
22.0
 40
22.0
 40
22.0
 40
23.0
 40
23.0
 40
23.0
 40
24.0
 40
24.0
 40
24.0
 40
25.0
 40
25.0
 40
25.0
 40
26.0
 40
26.0
 40
26.0
 40
27.0
 40
27.0
 40
27.0
 40
28.0
 40
28.0
 40
28.0
 40
29.0
 40
29.0
 40
29.0
 40
30.0
 40
30.0
 40
30.0
 40
31.0
 40
31.0
 40
31.0
 40
32.0
 40
32.0
 40
32.0
 40
33.0
 40
33.0
 40
33.0
 40
33.0
 10
359.3073160316892
 20
207.0771925179926
 30
0.0
 10
359.296603199821
 20
207.0588632242048
 30
0.0
 10
359.2845066245492
 20
207.0413785654966
 30
0.0
 10
359.2711317614605
 20
207.0248909697254
 30
0.0
 10
359.2495854469011
 20
207.0206118796184
 30
0.0
 10
359.2358335479789
 20
207.0053585897454
 30
0.0
 10
359.2211891736234
 20
206.9909873273959
 30
0.0
 10
359.1896905034452
 20
206.9806979980762
 30
0.0
 10
359.1671294701844
 20
206.9617127138731
 30
0.0
 10
359.1432275100741
 20
206.9445186152135
 30
0.0
 10
359.102776108675
 20
206.9414201027078
 30
0.0
 10
359.0787225762721
 20
206.9262578905286
 30
0.0
 10
359.0539562316628
 20
206.9123265529322
 30
0.0
 10
358.9995876567622
 20
206.9036211772665
 30
0.0
 10
358.9632266211939
 20
206.8864136893216
 30
0.0
 10
358.9259798238355
 20
206.8713038288915
 30
0.0
 10
358.8602453605517
 20
206.8696478551908
 30
0.0
 10
358.8229934508329
 20
206.8568410531483
 30
0.0
 10
358.7853496578105
 20
206.8452729958201
 30
0.0
 10
358.7216426003237
 20
206.8445580054117
 30
0.0
 10
358.687920860587
 20
206.8355992716162
 30
0.0
 10
358.6540011609025
 20
206.8274428505582
 30
0.0
 10
358.5926678932737
 20
206.8260085916238
 30
0.0
 10
358.5587279821043
 20
206.8188066005133
 30
0.0
 10
358.5246833421389
 20
206.8121277986477
 30
0.0
 10
358.4238251794532
 20
206.8033637432822
 30
0.0
 10
358.3504419529193
 20
206.7913284764881
 30
0.0
 10
358.2768076638878
 20
206.7810120586158
 30
0.0
 10
358.1432861206549
 20
206.7804905541709
 30
0.0
 10
358.0697410279157
 20
206.7714166255894
 30
0.0
 10
357.9961587708193
 20
206.7626519363022
 30
0.0
 10
357.881257772198
 20
206.7623353984549
 30
0.0
 10
357.8267645705707
 20
206.7558649670688
 30
0.0
 10
357.7722836196358
 20
206.7492925841385
 30
0.0
 10
357.6730153344142
 20
206.7467722347031
 30
0.0
 10
357.6186182559329
 20
206.7394490392717
 30
0.0
 10
357.5643212964207
 20
206.7314324243406
 30
0.0
 10
357.4842847791877
 20
206.730255003975
 30
0.0
 10
357.4490771811523
 20
206.7243757990901
 30
0.0
 10
357.4139446982402
 20
206.7180706332252
 30
0.0
 10
357.3498026085598
 20
206.7150473703617
 30
0.0
 10
357.3145803630046
 20
206.7088394991182
 30
0.0
 10
357.2793019622067
 20
206.7029639663775
 30
0.0
 10
357.1690251011616
 20
206.6940354294326
 30
0.0
 10
357.0874257670683
 20
206.6822314545411
 30
0.0
 10
357.0056485473084
 20
206.6717744709771
 30
0.0
 10
356.8571010948633
 20
206.6705291405082
 30
0.0
 10
356.7753269361201
 20
206.6615447075591
 30
0.0
 10
356.6934765939199
 20
206.6532998176998
 30
0.0
 10
356.5586282349039
 20
206.6530794735164
 30
0.0
 10
356.4908567239518
 20
206.6469958744593
 30
0.0
 10
356.4230504483003
 20
206.6413202212169
 30
0.0
 10
356.2996088380696
 20
206.6400545005942
 30
0.0
 10
356.2317980466036
 20
206.634865779872
 30
0.0
 10
356.1639678410003
 20
206.6299408965625
 30
0.0
 10
356.1639678410003
 20
206.6299408965625
 30
0.0
 10
355.7511793309942
 20
206.6190962730473
 30
0.0
 10
355.7511793309942
 20
206.6190962730473
 30
0.0
 10
355.7511793309942
 20
206.6190962730473
 30
0.0
 10
355.3922893381374
 20
206.6062257394834
 30
0.0
 10
355.3922893381374
 20
206.6062257394834
 30
0.0
 10
355.3922893381374
 20
206.6062257394834
 30
0.0
 10
354.6950079784508
 20
206.5817106530525
 30
0.0
 10
354.6950079784508
 20
206.5817106530525
 30
0.0
 10
354.6673165851261
 20
206.5800129866235
 30
0.0
 10
354.6396364094027
 20
206.578137042427
 30
0.0
 10
354.6119691726458
 20
206.5760829370475
 30
0.0
 10
354.5615449600729
 20
206.5750261163569
 30
0.0
 10
354.5338813112068
 20
206.5727667606523
 30
0.0
 10
354.5062267596271
 20
206.5703998821085
 30
0.0
 10
354.5062267596271
 20
206.5703998821085
 30
0.0
 10
354.2740584390338
 20
206.559802615216
 30
0.0
 10
354.2740584390338
 20
206.559802615216
 30
0.0
 10
354.24738150182
 20
206.5572727054723
 30
0.0
 10
354.2207017522243
 20
206.5547725393152
 30
0.0
 10
354.194019240034
 20
206.5523021213467
 30
0.0
 10
354.145418788083
 20
206.5514797945368
 30
0.0
 10
354.118728079648
 20
206.5491301142584
 30
0.0
 10
354.0920284815399
 20
206.5468849248218
 30
0.0
 10
354.0920284815399
 20
206.5468849248218
 30
0.0
 10
353.9712446526562
 20
206.5438919812843
 30
0.0
 10
353.9712446526562
 20
206.5438919812843
 30
0.0
 10
353.9235503280143
 20
206.5406866567122
 30
0.0
 10
353.875808422185
 20
206.5382336488947
 30
0.0
 10
353.8280367415048
 20
206.5365338727187
 30
0.0
 10
353.7411185960461
 20
206.5373134023057
 30
0.0
 10
353.6933504355761
 20
206.5377627081829
 30
0.0
 10
353.6456459770208
 20
206.5399479479767
 30
0.0
 10
353.5856964602721
 20
206.5421429547713
 30
0.0
 10
353.5649628373883
 20
206.5439486425982
 30
0.0
 10
353.5442745027839
 20
206.5461934193874
 30
0.0
 10
353.5065204672988
 20
206.5477986989625
 30
0.0
 10
353.4859040658373
 20
206.5509234704904
 30
0.0
 10
353.4653989576047
 20
206.5546828854871
 30
0.0
 10
353.4218313236769
 20
206.5583979257287
 30
0.0
 10
353.3955386925319
 20
206.5650312414605
 30
0.0
 10
353.3696235853211
 20
206.5729562330794
 30
0.0
 10
353.3218344698924
 20
206.5781685103988
 30
0.0
 10
353.2966364157012
 20
206.5890411853713
 30
0.0
 10
353.2725188172323
 20
206.6020289455123
 30
0.0
  0
SPLINE
  5
93
330
70
100
AcDbEntity
  8
shade
 62
     6
420
 16711935
370
    25
100
AcDbSpline
210
0.0
220
0.0
230
1.0
 70
     8
 71
     3
 72
    29
 73
    25
 74
     0
 42
0.0000000001
 43
0.0000000001
 40
0.0
 40
0.0
 40
0.0
 40
0.0
 40
1.0
 40
1.0
 40
1.0
 40
2.0
 40
2.0
 40
2.0
 40
3.0
 40
3.0
 40
3.0
 40
4.0
 40
4.0
 40
4.0
 40
5.0
 40
5.0
 40
5.0
 40
6.0
 40
6.0
 40
6.0
 40
7.0
 40
7.0
 40
7.0
 40
8.0
 40
8.0
 40
8.0
 40
8.0
 10
353.2512794166537
 20
206.5964903431663
 30
0.0
 10
353.2234357725585
 20
206.5964326689774
 30
0.0
 10
353.1955933198231
 20
206.5961082632812
 30
0.0
 10
353.1677558908135
 20
206.5955171705605
 30
0.0
 10
353.1170413724619
 20
206.5948171627665
 30
0.0
 10
353.0892062326044
 20
206.5939688103977
 30
0.0
 10
353.0613748127624
 20
206.5930093309468
 30
0.0
 10
353.0106786731378
 20
206.5924648143087
 30
0.0
 10
352.9828569133226
 20
206.5914114605802
 30
0.0
 10
352.9550364458387
 20
206.590324763407
 30
0.0
 10
352.9043546717354
 20
206.5898777098591
 30
0.0
 10
352.876529081507
 20
206.5888950174883
 30
0.0
 10
352.8486995758031
 20
206.5880346193142
 30
0.0
 10
352.804983569204
 20
206.5881526180487
 30
0.0
 10
352.7841235018603
 20
206.5876649786966
 30
0.0
 10
352.7632613439182
 20
206.5872844082558
 30
0.0
 10
352.7252636520147
 20
206.5873460432875
 30
0.0
 10
352.7044007177162
 20
206.5871969721052
 30
0.0
 10
352.6835376224976
 20
206.5872207767105
 30
0.0
 10
352.631591409313
 20
206.5876260960294
 30
0.0
 10
352.5967906196397
 20
206.5884275289351
 30
0.0
 10
352.5620115817548
 20
206.589832348926
 30
0.0
 10
352.4986414893506
 20
206.5914401805013
 30
0.0
 10
352.4639149612996
 20
206.5940757917064
 30
0.0
 10
352.4292741220724
 20
206.5976090546661
 30
0.0
  0
SPLINE
  5
94
330
70
100
AcDbEntity
  8
shade
 62
     6
420
 16711935
370
    25
100
AcDbSpline
210
0.0
220
0.0
230
1.0
 70
     8
 71
     3
 72
    29
 73
    25
 74
     0
 42
0.0000000001
 43
0.0000000001
 40
0.0
 40
0.0
 40
0.0
 40
0.0
 40
1.0
 40
1.0
 40
1.0
 40
2.0
 40
2.0
 40
2.0
 40
3.0
 40
3.0
 40
3.0
 40
4.0
 40
4.0
 40
4.0
 40
5.0
 40
5.0
 40
5.0
 40
6.0
 40
6.0
 40
6.0
 40
7.0
 40
7.0
 40
7.0
 40
8.0
 40
8.0
 40
8.0
 40
8.0
 10
338.383404039248
 20
217.867163218901
 30
0.0
 10
338.2779564295951
 20
218.0213393800841
 30
0.0
 10
338.181271669991
 20
218.1813293978438
 30
0.0
 10
338.0938086322542
 20
218.3463739497708
 30
0.0
 10
337.9161958287876
 20
218.4154373680481
 30
0.0
 10
337.8351742254903
 20
218.5890157078026
 30
0.0
 10
337.7647425751396
 20
218.7669699688193
 30
0.0
 10
337.6274204310602
 20
218.8102671529187
 30
0.0
 10
337.5729770855961
 20
218.9650532633383
 30
0.0
 10
337.5269317074925
 20
219.1224193040454
 30
0.0
 10
337.4260846604055
 20
219.1840434727112
 30
0.0
 10
337.3865787084006
 20
219.3461443606759
 30
0.0
 10
337.3573145332873
 20
219.5102377307723
 30
0.0
 10
337.2836427175895
 20
219.5715469092951
 30
0.0
 10
337.2616348970575
 20
219.7372619158084
 30
0.0
 10
337.250875677093
 20
219.9038944895739
 30
0.0
 10
337.2082747216345
 20
219.9664728292045
 30
0.0
 10
337.206120295895
 20
220.1352188564015
 30
0.0
 10
337.2173239323432
 20
220.3033409352383
 30
0.0
 10
337.210645085552
 20
220.3792809656393
 30
0.0
 10
337.233604473902
 20
220.5619828623822
 30
0.0
 10
337.2732395704728
 20
220.7414041130688
 30
0.0
 10
337.3105040497783
 20
220.8027953149732
 30
0.0
 10
337.360033974634
 20
220.978353012815
 30
0.0
 10
337.4260353630435
 20
221.1479537291326
 30
0.0
  0
SPLINE
  5
95
330
70
100
AcDbEntity
  8
shade
 62
     6
420
 16711935
370
    25
100
AcDbSpline
210
0.0
220
0.0
230
1.0
 70
     8
 71
     3
 72
    47
 73
    43
 74
     0
 42
0.0000000001
 43
0.0000000001
 40
0.0
 40
0.0
 40
0.0
 40
0.0
 40
1.0
 40
1.0
 40
1.0
 40
2.0
 40
2.0
 40
2.0
 40
3.0
 40
3.0
 40
3.0
 40
4.0
 40
4.0
 40
4.0
 40
5.0
 40
5.0
 40
5.0
 40
6.0
 40
6.0
 40
6.0
 40
7.0
 40
7.0
 40
7.0
 40
8.0
 40
8.0
 40
8.0
 40
9.0
 40
9.0
 40
9.0
 40
10.0
 40
10.0
 40
10.0
 40
11.0
 40
11.0
 40
11.0
 40
12.0
 40
12.0
 40
12.0
 40
13.0
 40
13.0
 40
13.0
 40
14.0
 40
14.0
 40
14.0
 40
14.0
 10
337.4524515363804
 20
221.0332408965775
 30
0.0
 10
337.510291297361
 20
221.213222992905
 30
0.0
 10
337.5826575886946
 20
221.3882085919333
 30
0.0
 10
337.6688363061752
 20
221.5564709513718
 30
0.0
 10
337.7960715731647
 20
221.6067048915204
 30
0.0
 10
337.8881309325793
 20
221.7663332088698
 30
0.0
 10
337.9915552818758
 20
221.9185420022771
 30
0.0
 10
338.1392860633174
 20
221.9369658209461
 30
0.0
 10
338.2285360531841
 20
222.0571485640852
 30
0.0
 10
338.3243052594676
 20
222.1720508733755
 30
0.0
 10
338.4845671994189
 20
222.204093266419
 30
0.0
 10
338.5823680697679
 20
222.3122729248603
 30
0.0
 10
338.6848827332866
 20
222.4158928809146
 30
0.0
 10
338.8726552314193
 20
222.4562492178891
 30
0.0
 10
338.9891545304353
 20
222.5640896850634
 30
0.0
 10
339.1101762972935
 20
222.6667130648824
 30
0.0
 10
339.3207233686038
 20
222.6940804537798
 30
0.0
 10
339.4427699507736
 20
222.7903174924408
 30
0.0
 10
339.5677410726443
 20
222.8826608731728
 30
0.0
 10
339.7488187451393
 20
222.8791505067054
 30
0.0
 10
339.8333373952531
 20
222.9385670013695
 30
0.0
 10
339.9189130387973
 20
222.9964356006968
 30
0.0
 10
340.0725419929209
 20
223.0141839489331
 30
0.0
 10
340.1584213176113
 20
223.0700594430703
 30
0.0
 10
340.2450525022554
 20
223.1247530077661
 30
0.0
 10
340.3365377881044
 20
223.101477425762
 30
0.0
 10
340.3581488979889
 20
223.1149218829076
 30
0.0
 10
340.3798014297626
 20
223.1282994113037
 30
0.0
 10
340.4191584857926
 20
223.1329257499107
 30
0.0
 10
340.4408308310233
 20
223.1462053947999
 30
0.0
 10
340.4625406870858
 20
223.1594235290468
 30
0.0
 10
340.4625406870858
 20
223.1594235290468
 30
0.0
 10
340.6462203383097
 20
223.2121108961785
 30
0.0
 10
340.6462203383097
 20
223.2121108961785
 30
0.0
 10
340.7323618643675
 20
223.2630832890265
 30
0.0
 10
340.8189338845994
 20
223.3133246318656
 30
0.0
 10
340.9059270700622
 20
223.3628295107848
 30
0.0
 10
341.0635104954615
 20
223.3790596738352
 30
0.0
 10
341.1505406817105
 20
223.4277723853829
 30
0.0
 10
341.2377898510608
 20
223.4760907287923
 30
0.0
 10
341.2377898510608
 20
223.4760907287923
 30
0.0
 10
341.9558085209102
 20
223.662721640141
 30
0.0
 10
341.9558085209102
 20
223.662721640141
 30
0.0
  0
SPLINE
  5
96
330
70
100
AcDbEntity
  8
shade
 62
     6
420
 16711935
370
    25
100
AcDbSpline
210
0.0
220
0.0
230
1.0
 70
     8
 71
     3
 72
    35
 73
    31
 74
     0
 42
0.0000000001
 43
0.0000000001
 40
0.0
 40
0.0
 40
0.0
 40
0.0
 40
1.0
 40
1.0
 40
1.0
 40
2.0
 40
2.0
 40
2.0
 40
3.0
 40
3.0
 40
3.0
 40
4.0
 40
4.0
 40
4.0
 40
5.0
 40
5.0
 40
5.0
 40
6.0
 40
6.0
 40
6.0
 40
7.0
 40
7.0
 40
7.0
 40
8.0
 40
8.0
 40
8.0
 40
9.0
 40
9.0
 40
9.0
 40
10.0
 40
10.0
 40
10.0
 40
10.0
 10
342.4831667643389
 20
220.150661560667
 30
0.0
 10
342.5446792106656
 20
220.2133485524873
 30
0.0
 10
342.6066033779108
 20
220.2756302064307
 30
0.0
 10
342.6689352463479
 20
220.337502479499
 30
0.0
 10
342.78163051092
 20
220.3587215825715
 30
0.0
 10
342.8440935097954
 20
220.4200610180042
 30
0.0
 10
342.9068623293899
 20
220.481086683636
 30
0.0
 10
343.0210254502771
 20
220.502622890133
 30
0.0
 10
343.0843815836224
 20
220.5636529910089
 30
0.0
 10
343.1479979239941
 20
220.6244112272118
 30
0.0
 10
343.2633426810938
 20
220.6454836320653
 30
0.0
 10
343.3270153554523
 20
220.7059169442771
 30
0.0
 10
343.390856213251
 20
220.7661723140766
 30
0.0
 10
343.390856213251
 20
220.7661723140766
 30
0.0
 10
343.769748273317
 20
220.9159804372743
 30
0.0
 10
343.769748273317
 20
220.9159804372743
 30
0.0
 10
343.769748273317
 20
220.9159804372743
 30
0.0
 10
344.0974102196679
 20
221.1043860097383
 30
0.0
 10
344.0974102196679
 20
221.1043860097383
 30
0.0
 10
344.0974102196679
 20
221.1043860097383
 30
0.0
 10
344.424561179816
 20
221.2929689869873
 30
0.0
 10
344.424561179816
 20
221.2929689869873
 30
0.0
 10
344.424561179816
 20
221.2929689869873
 30
0.0
 10
344.5874891629066
 20
221.3875374809608
 30
0.0
 10
344.5874891629066
 20
221.3875374809608
 30
0.0
 10
344.6511313480698
 20
221.4476815213691
 30
0.0
 10
344.7145947153706
 20
221.5080144988234
 30
0.0
 10
344.7778784247855
 20
221.5685356146144
 30
0.0
 10
344.8935304285333
 20
221.5903674781628
 30
0.0
 10
344.9566194598493
 20
221.6512749339119
 30
0.0
 10
345.0194352679887
 20
221.7124635068684
 30
0.0
  0
SPLINE
  5
97
330
70
100
AcDbEntity
  8
shade
 62
     6
420
 16711935
370
    25
100
AcDbSpline
210
0.0
220
0.0
230
1.0
 70
     8
 71
     3
 72
    41
 73
    37
 74
     0
 42
0.0000000001
 43
0.0000000001
 40
0.0
 40
0.0
 40
0.0
 40
0.0
 40
1.0
 40
1.0
 40
1.0
 40
2.0
 40
2.0
 40
2.0
 40
3.0
 40
3.0
 40
3.0
 40
4.0
 40
4.0
 40
4.0
 40
5.0
 40
5.0
 40
5.0
 40
6.0
 40
6.0
 40
6.0
 40
7.0
 40
7.0
 40
7.0
 40
8.0
 40
8.0
 40
8.0
 40
9.0
 40
9.0
 40
9.0
 40
10.0
 40
10.0
 40
10.0
 40
11.0
 40
11.0
 40
11.0
 40
12.0
 40
12.0
 40
12.0
 40
12.0
 10
345.6628115357816
 20
222.654757565312
 30
0.0
 10
345.6504195652005
 20
222.7008747166677
 30
0.0
 10
345.6422984980567
 20
222.7480345456463
 30
0.0
 10
345.6385510938097
 20
222.7956403178235
 30
0.0
 10
345.6228734479964
 20
222.8143021595303
 30
0.0
 10
345.6219237339263
 20
222.8629415630817
 30
0.0
 10
345.6255973711693
 20
222.9113409391648
 30
0.0
 10
345.6225599428114
 20
222.9231617385242
 30
0.0
 10
345.6274962830396
 20
222.9656824647308
 30
0.0
 10
345.6358210374846
 20
223.0076009958011
 30
0.0
 10
345.6439034332563
 20
223.022054259291
 30
0.0
 10
345.6537125843155
 20
223.0633849796751
 30
0.0
 10
345.6664016140893
 20
223.1038687432382
 30
0.0
 10
345.6825059351905
 20
223.1139162545318
 30
0.0
 10
345.6951951968802
 20
223.1502081398815
 30
0.0
 10
345.7100136852238
 20
223.1856468433078
 30
0.0
 10
345.7324875032033
 20
223.196982109194
 30
0.0
 10
345.7481319606733
 20
223.2313622238716
 30
0.0
 10
345.7654850083557
 20
223.2648851552786
 30
0.0
 10
345.7958845401055
 20
223.2802788130626
 30
0.0
 10
345.8169133597435
 20
223.3172326788102
 30
0.0
 10
345.839861466898
 20
223.3529905897726
 30
0.0
 10
345.8775412494877
 20
223.3637485026392
 30
0.0
 10
345.9012116656
 20
223.3979401729381
 30
0.0
 10
345.9263947537467
 20
223.4310066907732
 30
0.0
 10
345.9768856460285
 20
223.4513029860508
 30
0.0
 10
346.0116264987997
 20
223.4924394167896
 30
0.0
 10
346.0485740618572
 20
223.5315485358548
 30
0.0
 10
346.1110371134277
 20
223.5420243854732
 30
0.0
 10
346.1488760748943
 20
223.578303927481
 30
0.0
 10
346.188482203278
 20
223.6125939845214
 30
0.0
 10
346.2498912015413
 20
223.6154788410046
 30
0.0
 10
346.2829695939138
 20
223.6415640835026
 30
0.0
 10
346.3170924527351
 20
223.6662360680538
 30
0.0
 10
346.376937209425
 20
223.672507620628
 30
0.0
 10
346.4116204967114
 20
223.6949322761687
 30
0.0
 10
346.4472539687495
 20
223.7157732565531
 30
0.0
  0
SPLINE
  5
98
330
70
100
AcDbEntity
  8
shade
 62
     6
420
 16711935
370
    25
100
AcDbSpline
210
0.0
220
0.0
230
1.0
 70
     8
 71
     3
 72
    41
 73
    37
 74
     0
 42
0.0000000001
 43
0.0000000001
 40
0.0
 40
0.0
 40
0.0
 40
0.0
 40
1.0
 40
1.0
 40
1.0
 40
2.0
 40
2.0
 40
2.0
 40
3.0
 40
3.0
 40
3.0
 40
4.0
 40
4.0
 40
4.0
 40
5.0
 40
5.0
 40
5.0
 40
6.0
 40
6.0
 40
6.0
 40
7.0
 40
7.0
 40
7.0
 40
8.0
 40
8.0
 40
8.0
 40
9.0
 40
9.0
 40
9.0
 40
10.0
 40
10.0
 40
10.0
 40
11.0
 40
11.0
 40
11.0
 40
12.0
 40
12.0
 40
12.0
 40
12.0
 10
360.9063725465461
 20
224.3357771343834
 30
0.0
 10
360.8941900982567
 20
224.3389501592436
 30
0.0
 10
360.8820798243429
 20
224.3423940952987
 30
0.0
 10
360.870050731797
 20
224.3461063811194
 30
0.0
 10
360.8479841942255
 20
224.3479217082413
 30
0.0
 10
360.8359731330113
 20
224.3519355618144
 30
0.0
 10
360.824014381641
 20
224.3561011350494
 30
0.0
 10
360.8019590868203
 20
224.3579195507682
 30
0.0
 10
360.7898482643417
 20
224.36232922923
 30
0.0
 10
360.7777748038547
 20
224.3668395587667
 30
0.0
 10
360.75570562793
 20
224.3686265083916
 30
0.0
 10
360.7436145847731
 20
224.3731871984292
 30
0.0
 10
360.7315216035774
 20
224.3777427455069
 30
0.0
 10
360.7070911573024
 20
224.3802560872238
 30
0.0
 10
360.6925604211911
 20
224.385625338742
 30
0.0
 10
360.6779971344512
 20
224.3909052355513
 30
0.0
 10
360.6515379191602
 20
224.3926154547022
 30
0.0
 10
360.6368922447046
 20
224.3975695919145
 30
0.0
 10
360.6221565136043
 20
224.4022444650052
 30
0.0
 10
360.6005346696908
 20
224.4018493112671
 30
0.0
 10
360.5908151344191
 20
224.4046699593597
 30
0.0
 10
360.581051763678
 20
224.4073323897509
 30
0.0
 10
360.5633643748307
 20
224.4079884601476
 30
0.0
 10
360.5535656832791
 20
224.410345500437
 30
0.0
 10
360.5437177367881
 20
224.4124814536596
 30
0.0
 10
360.5187424178613
 20
224.4143039807935
 30
0.0
 10
360.5016151928617
 20
224.4169928732905
 30
0.0
 10
360.4843905024523
 20
224.4188782300216
 30
0.0
 10
360.4533209377122
 20
224.4180859594694
 30
0.0
 10
360.4360985071064
 20
224.4184117196927
 30
0.0
 10
360.4189101331857
 20
224.417610143616
 30
0.0
 10
360.3923993571594
 20
224.4156483141777
 30
0.0
 10
360.3799939095791
 20
224.4139646817068
 30
0.0
 10
360.3677025152836
 20
224.4116333278666
 30
0.0
 10
360.345166041369
 20
224.4096063196561
 30
0.0
 10
360.3330158563353
 20
224.4062187170365
 30
0.0
 10
360.3210875199601
 20
224.4021492325539
 30
0.0
  0
SPLINE
  5
99
330
70
100
AcDbEntity
  8
shade
 62
     6
420
 16711935
370
    25
100
AcDbSpline
210
0.0
220
0.0
230
1.0
 70
     8
 71
     3
 72
    29
 73
    25
 74
     0
 42
0.0000000001
 43
0.0000000001
 40
0.0
 40
0.0
 40
0.0
 40
0.0
 40
1.0
 40
1.0
 40
1.0
 40
2.0
 40
2.0
 40
2.0
 40
3.0
 40
3.0
 40
3.0
 40
4.0
 40
4.0
 40
4.0
 40
5.0
 40
5.0
 40
5.0
 40
6.0
 40
6.0
 40
6.0
 40
7.0
 40
7.0
 40
7.0
 40
8.0
 40
8.0
 40
8.0
 40
8.0
 10
345.3410442034976
 20
221.8198971459421
 30
0.0
 10
345.4284215792914
 20
221.8955915757748
 30
0.0
 10
345.5174041535747
 20
221.9694129562421
 30
0.0
 10
345.6079311698208
 20
222.0413108827256
 30
0.0
 10
345.7695377464012
 20
222.063384949257
 30
0.0
 10
345.8605299392905
 20
222.132788633467
 30
0.0
 10
345.9526407547896
 20
222.2006877557169
 30
0.0
 10
346.0515836321546
 20
222.1733927577551
 30
0.0
 10
346.0768017405567
 20
222.1917031284857
 30
0.0
 10
346.1020946482814
 20
222.2099098116129
 30
0.0
 10
346.1480134581586
 20
222.2161833864773
 30
0.0
 10
346.1733422222596
 20
222.2342383042085
 30
0.0
 10
346.1987387690173
 20
222.2521975605276
 30
0.0
 10
346.287185164494
 20
222.288275232121
 30
0.0
 10
346.3553174589808
 20
222.3354317519634
 30
0.0
 10
346.4238820616578
 20
222.3819543033192
 30
0.0
 10
346.5478723363245
 20
222.3973149406404
 30
0.0
 10
346.6165712197161
 20
222.4430130992975
 30
0.0
 10
346.6855889395702
 20
222.4882264189417
 30
0.0
 10
346.8272546775099
 20
222.5142306905189
 30
0.0
 10
346.9131442375984
 20
222.569400606155
 30
0.0
 10
346.9994294863273
 20
222.6239470941943
 30
0.0
 10
347.1557802742774
 20
222.6421728712771
 30
0.0
 10
347.2421047941641
 20
222.6960436549421
 30
0.0
 10
347.3286393211284
 20
222.7495757039922
 30
0.0
  0
SPLINE
  5
9A
330
70
100
AcDbEntity
  8
shade
 62
     6
420
 16711935
370
    25
100
AcDbSpline
210
0.0
220
0.0
230
1.0
 70
     8
 71
     3
 72
    89
 73
    85
 74
     0
 42
0.0000000001
 43
0.0000000001
 40
0.0
 40
0.0
 40
0.0
 40
0.0
 40
1.0
 40
1.0
 40
1.0
 40
2.0
 40
2.0
 40
2.0
 40
3.0
 40
3.0
 40
3.0
 40
4.0
 40
4.0
 40
4.0
 40
5.0
 40
5.0
 40
5.0
 40
6.0
 40
6.0
 40
6.0
 40
7.0
 40
7.0
 40
7.0
 40
8.0
 40
8.0
 40
8.0
 40
9.0
 40
9.0
 40
9.0
 40
10.0
 40
10.0
 40
10.0
 40
11.0
 40
11.0
 40
11.0
 40
12.0
 40
12.0
 40
12.0
 40
13.0
 40
13.0
 40
13.0
 40
14.0
 40
14.0
 40
14.0
 40
15.0
 40
15.0
 40
15.0
 40
16.0
 40
16.0
 40
16.0
 40
17.0
 40
17.0
 40
17.0
 40
18.0
 40
18.0
 40
18.0
 40
19.0
 40
19.0
 40
19.0
 40
20.0
 40
20.0
 40
20.0
 40
21.0
 40
21.0
 40
21.0
 40
22.0
 40
22.0
 40
22.0
 40
23.0
 40
23.0
 40
23.0
 40
24.0
 40
24.0
 40
24.0
 40
25.0
 40
25.0
 40
25.0
 40
26.0
 40
26.0
 40
26.0
 40
27.0
 40
27.0
 40
27.0
 40
28.0
 40
28.0
 40
28.0
 40
28.0
 10
360.3109948726899
 20
224.4038796278754
 30
0.0
 10
360.3101487445151
 20
224.406560305201
 30
0.0
 10
360.3092709455446
 20
224.4092308829713
 30
0.0
 10
360.3083616599308
 20
224.4118908009105
 30
0.0
 10
360.3067708279202
 20
224.4128164500679
 30
0.0
 10
360.3058586419904
 20
224.415465356288
 30
0.0
 10
360.3049300015984
 20
224.4181085101501
 30
0.0
 10
360.3017704417316
 20
224.4233398561648
 30
0.0
 10
360.2992537732413
 20
224.4302504861984
 30
0.0
 10
360.2966447570407
 20
224.437126429529
 30
0.0
 10
360.2920846451358
 20
224.4395066657635
 30
0.0
 10
360.289426874577
 20
224.4463312360473
 30
0.0
 10
360.2866809841234
 20
224.4531204985202
 30
0.0
 10
360.2838647574289
 20
224.4504622112862
 30
0.0
 10
360.2831522038733
 20
224.45222411991
 30
0.0
 10
360.2824327871321
 20
224.4539832295563
 30
0.0
 10
360.2811365158557
 20
224.4546026320169
 30
0.0
 10
360.2804121739659
 20
224.4563570073359
 30
0.0
 10
360.2796799687198
 20
224.4581081050045
 30
0.0
 10
360.2796799687198
 20
224.4581081050045
 30
0.0
 10
360.2736164882794
 20
224.46488207418
 30
0.0
 10
360.2736164882794
 20
224.46488207418
 30
0.0
 10
360.2697812529093
 20
224.4684006743407
 30
0.0
 10
360.2656022227074
 20
224.4715250662157
 30
0.0
 10
360.2611423508134
 20
224.4742081837814
 30
0.0
 10
360.2537115601458
 20
224.474426162993
 30
0.0
 10
360.2491184869551
 20
224.47635328529
 30
0.0
 10
360.2443408107699
 20
224.4776930359877
 30
0.0
 10
360.236286611322
 20
224.4771486421939
 30
0.0
 10
360.2316192120657
 20
224.477620693475
 30
0.0
 10
360.2269462545881
 20
224.477523656216
 30
0.0
 10
360.2186163585078
 20
224.4764680637099
 30
0.0
 10
360.214041751389
 20
224.4756128053666
 30
0.0
 10
360.2095849339203
 20
224.4743129256131
 30
0.0
 10
360.201907920031
 20
224.4732159503617
 30
0.0
 10
360.1981068838912
 20
224.4715823165997
 30
0.0
 10
360.1944391685074
 20
224.4696798152546
 30
0.0
 10
360.1875316255239
 20
224.4684898023613
 30
0.0
 10
360.1839288607498
 20
224.4662399046688
 30
0.0
 10
360.1804500405059
 20
224.4638077283387
 30
0.0
 10
360.1740824109256
 20
224.4627399703135
 30
0.0
 10
360.1708595396609
 20
224.4602101491676
 30
0.0
 10
360.167745799884
 20
224.4575498747004
 30
0.0
 10
360.1618613628507
 20
224.4563549199047
 30
0.0
 10
360.1587878914205
 20
224.4535236179473
 30
0.0
 10
360.15580222401
 20
224.4506012410573
 30
0.0
 10
360.1490447409659
 20
224.4482639052621
 30
0.0
 10
360.1450233901382
 20
224.4440192090361
 30
0.0
 10
360.141153238099
 20
224.4396385735877
 30
0.0
 10
360.1338017659573
 20
224.4378206013016
 30
0.0
 10
360.1299660781701
 20
224.4332757163007
 30
0.0
 10
360.1262295358427
 20
224.4286498607115
 30
0.0
 10
360.1262295358427
 20
224.4286498607115
 30
0.0
 10
360.1153351813662
 20
224.4255782414817
 30
0.0
 10
360.1153351813662
 20
224.4255782414817
 30
0.0
 10
360.1149943018751
 20
224.4232825520177
 30
0.0
 10
360.1146617877242
 20
224.420985628183
 30
0.0
 10
360.1143376455395
 20
224.4186875157488
 30
0.0
 10
360.1137298241301
 20
224.417869429606
 30
0.0
 10
360.1134113253779
 20
224.4155693306377
 30
0.0
 10
360.1131020740794
 20
224.4132679795866
 30
0.0
 10
360.1112471975582
 20
224.4030972027584
 30
0.0
 10
360.1099322629061
 20
224.391408496007
 30
0.0
 10
360.1088890470306
 20
224.3796940016877
 30
0.0
 10
360.1064274759095
 20
224.3754745692104
 30
0.0
 10
360.1056638788068
 20
224.3637059454723
 30
0.0
 10
360.1052972709247
 20
224.351921622087
 30
0.0
 10
360.10386287309
 20
224.3488610044869
 30
0.0
 10
360.1037556466089
 20
224.3382253757638
 30
0.0
 10
360.1040240682551
 20
224.3275959125255
 30
0.0
 10
360.1037350197137
 20
224.3238040844374
 30
0.0
 10
360.104329299535
 20
224.313178037675
 30
0.0
 10
360.1054088188643
 20
224.3025958814704
 30
0.0
 10
360.1062667863731
 20
224.3000856099016
 30
0.0
 10
360.1074597562913
 20
224.2907651713877
 30
0.0
 10
360.1090719925835
 20
224.2815129141856
 30
0.0
 10
360.1111339380102
 20
224.2783095426383
 30
0.0
 10
360.1130559019918
 20
224.2691611172773
 30
0.0
 10
360.1154614252105
 20
224.2601346671456
 30
0.0
 10
360.1174628093875
 20
224.2626824236597
 30
0.0
 10
360.118362957651
 20
224.2593065002263
 30
0.0
 10
360.119333896119
 20
224.2559506549399
 30
0.0
 10
360.1209548281332
 20
224.2547926418647
 30
0.0
 10
360.1219681381402
 20
224.2514673575418
 30
0.0
 10
360.1230538270041
 20
224.2481654338031
 30
0.0
  0
SPLINE
  5
9B
330
70
100
AcDbEntity
  8
shade
 62
     6
420
 16711935
370
    25
100
AcDbSpline
210
0.0
220
0.0
230
1.0
 70
     8
 71
     3
 72
    23
 73
    19
 74
     0
 42
0.0000000001
 43
0.0000000001
 40
0.0
 40
0.0
 40
0.0
 40
0.0
 40
1.0
 40
1.0
 40
1.0
 40
2.0
 40
2.0
 40
2.0
 40
3.0
 40
3.0
 40
3.0
 40
4.0
 40
4.0
 40
4.0
 40
5.0
 40
5.0
 40
5.0
 40
6.0
 40
6.0
 40
6.0
 40
6.0
 10
345.2580618790846
 20
221.7454001931892
 30
0.0
 10
345.262550235816
 20
221.7498054565116
 30
0.0
 10
345.266873387969
 20
221.754375941647
 30
0.0
 10
345.2710223920726
 20
221.7591021934169
 30
0.0
 10
345.2789260166381
 20
221.7610815184002
 30
0.0
 10
345.2829815408092
 20
221.7660405293915
 30
0.0
 10
345.2868660905894
 20
221.7711322795055
 30
0.0
 10
345.2946812527983
 20
221.7737157590938
 30
0.0
 10
345.2988293570383
 20
221.779556495911
 30
0.0
 10
345.3027666433769
 20
221.7855386805711
 30
0.0
 10
345.3103625067184
 20
221.7879400955786
 30
0.0
 10
345.3141889362272
 20
221.7941358286995
 30
0.0
 10
345.3178116533193
 20
221.8004506335288
 30
0.0
 10
345.3239023518961
 20
221.8013413361532
 30
0.0
 10
345.3265756955024
 20
221.8062071177609
 30
0.0
 10
345.3291332935121
 20
221.8111338543018
 30
0.0
 10
345.3340284403781
 20
221.8130014025956
 30
0.0
 10
345.3365228645251
 20
221.8180220926235
 30
0.0
 10
345.3389035668019
 20
221.8230969133961
 30
0.0
  0
LINE
  5
9C
330
70
100
AcDbEntity
  8
shade
 62
     6
420
 16711935
370
    25
100
AcDbLine
 10
353.9147226671005
 20
222.1003490100802
 30
0.0
 11
353.9147226671005
 21
222.1003490100802
 31
0.0
  0
SPLINE
  5
9D
330
70
100
AcDbEntity
  8
shade
 62
     6
420
 16711935
370
    25
100
AcDbSpline
210
0.0
220
0.0
230
1.0
 70
     8
 71
     3
 72
    62
 73
    58
 74
     0
 42
0.0000000001
 43
0.0000000001
 40
0.0
 40
0.0
 40
0.0
 40
0.0
 40
1.0
 40
1.0
 40
1.0
 40
2.0
 40
2.0
 40
2.0
 40
3.0
 40
3.0
 40
3.0
 40
4.0
 40
4.0
 40
4.0
 40
5.0
 40
5.0
 40
5.0
 40
6.0
 40
6.0
 40
6.0
 40
7.0
 40
7.0
 40
7.0
 40
8.0
 40
8.0
 40
8.0
 40
9.0
 40
9.0
 40
9.0
 40
10.0
 40
10.0
 40
10.0
 40
11.0
 40
11.0
 40
11.0
 40
12.0
 40
12.0
 40
12.0
 40
13.0
 40
13.0
 40
13.0
 40
14.0
 40
14.0
 40
14.0
 40
15.0
 40
15.0
 40
15.0
 40
16.0
 40
16.0
 40
16.0
 40
17.0
 40
17.0
 40
17.0
 40
18.0
 40
18.0
 40
18.0
 40
19.0
 40
19.0
 40
19.0
 40
19.0
 10
344.1513508798279
 20
217.2020071557279
 30
0.0
 10
344.1513508798279
 20
217.2020071557279
 30
0.0
 10
344.2105945061422
 20
217.3206382390691
 30
0.0
 10
344.2105945061422
 20
217.3206382390691
 30
0.0
 10
344.2293646224829
 20
217.3810093793211
 30
0.0
 10
344.2483484360164
 20
217.4413138709427
 30
0.0
 10
344.267545589734
 20
217.5015505800549
 30
0.0
 10
344.3020732490275
 20
217.522811818884
 30
0.0
 10
344.3214165338039
 20
217.5829362667791
 30
0.0
 10
344.3409974246258
 20
217.6429834932265
 30
0.0
 10
344.3684156876066
 20
217.6402612567695
 30
0.0
 10
344.3802319522232
 20
217.6763365825755
 30
0.0
 10
344.3921438329581
 20
217.7123803790616
 30
0.0
 10
344.4136447145211
 20
217.725118563431
 30
0.0
 10
344.4256323250434
 20
217.7611066718192
 30
0.0
 10
344.4377366634009
 20
217.7970555823295
 30
0.0
 10
344.4654864781798
 20
217.8274574393562
 30
0.0
 10
344.483780061598
 20
217.8809961470346
 30
0.0
 10
344.502370119594
 20
217.9344321736538
 30
0.0
 10
344.5356184225898
 20
217.9532165053859
 30
0.0
 10
344.554572162301
 20
218.0064257681033
 30
0.0
 10
344.5740153204704
 20
218.0594568708551
 30
0.0
 10
344.6029914104276
 20
218.063036547983
 30
0.0
 10
344.6171217236817
 20
218.1009265715918
 30
0.0
 10
344.631573099105
 20
218.1386945263668
 30
0.0
 10
344.6572294256966
 20
218.1518822532793
 30
0.0
 10
344.6721943631822
 20
218.1893326038264
 30
0.0
 10
344.6878057367417
 20
218.226514834167
 30
0.0
 10
344.7087183757098
 20
218.2243288264128
 30
0.0
 10
344.7183468513312
 20
218.2462563322608
 30
0.0
 10
344.7284412229481
 20
218.2679702769453
 30
0.0
 10
344.7458502227176
 20
218.2753055613035
 30
0.0
 10
344.7565379909014
 20
218.2965323290683
 30
0.0
 10
344.7680028789587
 20
218.3173402804084
 30
0.0
 10
344.7991138633428
 20
218.3460330676282
 30
0.0
 10
344.8249433192546
 20
218.3870525567711
 30
0.0
 10
344.8534335450599
 20
218.4262033539082
 30
0.0
 10
344.8995445332891
 20
218.4371436949911
 30
0.0
 10
344.9285281880721
 20
218.4742350869188
 30
0.0
 10
344.959127207772
 20
218.5099745021654
 30
0.0
 10
345.0015018780406
 20
218.508767573813
 30
0.0
 10
345.0220050393609
 20
218.5318080192515
 30
0.0
 10
345.0430041425895
 20
218.5543923598486
 30
0.0
 10
345.0802058610486
 20
218.5616004675403
 30
0.0
 10
345.1011972651169
 20
218.5837508395629
 30
0.0
 10
345.1223966538262
 20
218.6057012912123
 30
0.0
 10
345.1686441465217
 20
218.6214772320756
 30
0.0
 10
345.1979192522312
 20
218.6515684825394
 30
0.0
 10
345.2272948446336
 20
218.681561479416
 30
0.0
 10
345.2805960463189
 20
218.6920273701085
 30
0.0
 10
345.3094408069151
 20
218.7224368674492
 30
0.0
 10
345.3377887328853
 20
218.7533063286553
 30
0.0
 10
345.3844610218615
 20
218.7586123379293
 30
0.0
 10
345.4065808414625
 20
218.7836403776895
 30
0.0
 10
345.4282315189358
 20
218.8090715800356
 30
0.0
 10
345.4686223869613
 20
218.81885876536
 30
0.0
 10
345.489779844323
 20
218.8450938090362
 30
0.0
 10
345.5102276264983
 20
218.8718781531681
 30
0.0
  0
SPLINE
  5
9E
330
70
100
AcDbEntity
  8
shade
 62
     6
420
 16711935
370
    25
100
AcDbSpline
210
0.0
220
0.0
230
1.0
 70
     8
 71
     3
 72
    47
 73
    43
 74
     0
 42
0.0000000001
 43
0.0000000001
 40
0.0
 40
0.0
 40
0.0
 40
0.0
 40
1.0
 40
1.0
 40
1.0
 40
2.0
 40
2.0
 40
2.0
 40
3.0
 40
3.0
 40
3.0
 40
4.0
 40
4.0
 40
4.0
 40
5.0
 40
5.0
 40
5.0
 40
6.0
 40
6.0
 40
6.0
 40
7.0
 40
7.0
 40
7.0
 40
8.0
 40
8.0
 40
8.0
 40
9.0
 40
9.0
 40
9.0
 40
10.0
 40
10.0
 40
10.0
 40
11.0
 40
11.0
 40
11.0
 40
12.0
 40
12.0
 40
12.0
 40
13.0
 40
13.0
 40
13.0
 40
14.0
 40
14.0
 40
14.0
 40
14.0
 10
344.5599865868029
 20
212.658119346216
 30
0.0
 10
344.5590050178536
 20
212.6761638634666
 30
0.0
 10
344.5582044706704
 20
212.6942177725932
 30
0.0
 10
344.5575850660376
 20
212.7122783489289
 30
0.0
 10
344.5560813972762
 20
212.718706224472
 30
0.0
 10
344.555611132317
 20
212.736779980602
 30
0.0
 10
344.5553679311526
 20
212.7548575047278
 30
0.0
 10
344.5543388236196
 20
212.7674195150738
 30
0.0
 10
344.5543490997829
 20
212.791639074736
 30
0.0
 10
344.5548259487281
 20
212.8158516939187
 30
0.0
 10
344.5547273952113
 20
212.8244535729494
 30
0.0
 10
344.555682250954
 20
212.8486560005168
 30
0.0
 10
344.5573145722053
 20
212.8728174261337
 30
0.0
 10
344.5591946844884
 20
212.8869973578166
 30
0.0
 10
344.5620672693629
 20
212.9167065130025
 30
0.0
 10
344.5661519673086
 20
212.9462607769653
 30
0.0
 10
344.5710700957317
 20
212.9565937131158
 30
0.0
 10
344.5755190931852
 20
212.986002781677
 30
0.0
 10
344.5808496154805
 20
213.0152580739295
 30
0.0
 10
344.5888598787089
 20
213.0262347637586
 30
0.0
 10
344.5947931781773
 20
213.0560910207893
 30
0.0
 10
344.601566689118
 20
213.0857617054771
 30
0.0
 10
344.612151910058
 20
213.0960107148601
 30
0.0
 10
344.6194410895312
 20
213.1254044768303
 30
0.0
 10
344.6276009419422
 20
213.1545615550813
 30
0.0
 10
344.637680853108
 20
213.1534758305719
 30
0.0
 10
344.6428685228793
 20
213.1713626319188
 30
0.0
 10
344.6484229739358
 20
213.1891368846018
 30
0.0
 10
344.6577746656645
 20
213.1952562936362
 30
0.0
 10
344.6636889464818
 20
213.2128118217198
 30
0.0
 10
344.6701152911122
 20
213.2301821743107
 30
0.0
 10
344.678205299617
 20
213.2289613932456
 30
0.0
 10
344.6820820051899
 20
213.2390823667894
 30
0.0
 10
344.6861723782
 20
213.2491175697612
 30
0.0
 10
344.693175465975
 20
213.2525316914172
 30
0.0
 10
344.6975123532994
 20
213.2623829711262
 30
0.0
 10
344.7021820249525
 20
213.2720774447379
 30
0.0
 10
344.7062479749388
 20
213.2673087610381
 30
0.0
 10
344.7070449966462
 20
213.2689728710697
 30
0.0
 10
344.7078539040494
 20
213.2706312098167
 30
0.0
 10
344.709302703859
 20
213.2712095138102
 30
0.0
 10
344.7101198449925
 20
213.2728582377495
 30
0.0
 10
344.7109502837927
 20
213.2745002703239
 30
0.0
  0
SPLINE
  5
9F
330
70
100
AcDbEntity
  8
shade
 62
     6
420
 16711935
370
    25
100
AcDbSpline
210
0.0
220
0.0
230
1.0
 70
     8
 71
     3
 72
    62
 73
    58
 74
     0
 42
0.0000000001
 43
0.0000000001
 40
0.0
 40
0.0
 40
0.0
 40
0.0
 40
1.0
 40
1.0
 40
1.0
 40
2.0
 40
2.0
 40
2.0
 40
3.0
 40
3.0
 40
3.0
 40
4.0
 40
4.0
 40
4.0
 40
5.0
 40
5.0
 40
5.0
 40
6.0
 40
6.0
 40
6.0
 40
7.0
 40
7.0
 40
7.0
 40
8.0
 40
8.0
 40
8.0
 40
9.0
 40
9.0
 40
9.0
 40
10.0
 40
10.0
 40
10.0
 40
11.0
 40
11.0
 40
11.0
 40
12.0
 40
12.0
 40
12.0
 40
13.0
 40
13.0
 40
13.0
 40
14.0
 40
14.0
 40
14.0
 40
15.0
 40
15.0
 40
15.0
 40
16.0
 40
16.0
 40
16.0
 40
17.0
 40
17.0
 40
17.0
 40
18.0
 40
18.0
 40
18.0
 40
19.0
 40
19.0
 40
19.0
 40
19.0
 10
367.4302388668682
 20
211.330410585164
 30
0.0
 10
367.0956906588618
 20
211.1367248978202
 30
0.0
 10
366.7572618573866
 20
210.9498208638977
 30
0.0
 10
366.4151598039585
 20
210.7698129919334
 30
0.0
 10
365.7999324292902
 20
210.7183923788485
 30
0.0
 10
365.4564507555077
 20
210.5480425093465
 30
0.0
 10
365.1100726013292
 20
210.3837303302879
 30
0.0
 10
364.4868271841085
 20
210.3370495441803
 30
0.0
 10
364.1406932821192
 20
210.1821724252594
 30
0.0
 10
363.7921525444737
 20
210.0328518947583
 30
0.0
 10
363.162442972007
 20
209.9899551601406
 30
0.0
 10
362.8130956277105
 20
209.8481910078779
 30
0.0
 10
362.4619376480143
 20
209.7110176184434
 30
0.0
 10
362.4619376480143
 20
209.7110176184434
 30
0.0
 10
361.6410778692414
 20
209.6807481257109
 30
0.0
 10
361.6410778692414
 20
209.6807481257109
 30
0.0
 10
361.6410778692414
 20
209.6807481257109
 30
0.0
 10
361.1045159283916
 20
209.5600417782859
 30
0.0
 10
361.1045159283916
 20
209.5600417782859
 30
0.0
 10
361.1045159283916
 20
209.5600417782859
 30
0.0
 10
360.5669761645306
 20
209.4429766530241
 30
0.0
 10
360.5669761645306
 20
209.4429766530241
 30
0.0
 10
360.5669761645306
 20
209.4429766530241
 30
0.0
 10
360.0286281021855
 20
209.32926753327
 30
0.0
 10
360.0286281021855
 20
209.32926753327
 30
0.0
 10
359.9581740333134
 20
209.3054700890774
 30
0.0
 10
359.8876786077313
 20
209.281795260111
 30
0.0
 10
359.8171421457311
 20
209.2582431538594
 30
0.0
 10
359.6887346025888
 20
209.2501075170432
 30
0.0
 10
359.6181778334706
 20
209.2267371417483
 30
0.0
 10
359.5475832371676
 20
209.2034814372739
 30
0.0
 10
359.2782638608671
 20
209.149167720535
 30
0.0
 10
359.0665735770392
 20
209.0806619960024
 30
0.0
 10
358.85457690154
 20
209.0131141281675
 30
0.0
 10
358.4690379228048
 20
208.9908914238331
 30
0.0
 10
358.2569431477529
 20
208.9246044076671
 30
0.0
 10
358.0446195679505
 20
208.8590562537186
 30
0.0
 10
357.4484788905927
 20
208.7727295686654
 30
0.0
 10
357.0257210529452
 20
208.6454420467727
 30
0.0
 10
356.6022881700707
 20
208.5204297266077
 30
0.0
 10
355.8323675200206
 20
208.4802218700869
 30
0.0
 10
355.4090854883171
 20
208.3569500508394
 30
0.0
 10
354.985658646278
 20
208.2341771129959
 30
0.0
 10
354.3583908909834
 20
208.233108368387
 30
0.0
 10
354.0788278145198
 20
208.1520954683231
 30
0.0
 10
353.7992973122889
 20
208.0709702856113
 30
0.0
 10
353.2900218318737
 20
208.0419645720026
 30
0.0
 10
353.0106677007843
 20
207.9601252769454
 30
0.0
 10
352.7315058291671
 20
207.8776339492228
 30
0.0
 10
352.3632416281842
 20
207.8888848670766
 30
0.0
 10
352.2247285452032
 20
207.8475587642147
 30
0.0
 10
352.0862788996703
 20
207.8060209239615
 30
0.0
 10
351.833940643786
 20
207.7908856518977
 30
0.0
 10
351.6955487315075
 20
207.7489506705632
 30
0.0
 10
351.5572423806055
 20
207.7067348648069
 30
0.0
 10
351.5572423806055
 20
207.7067348648069
 30
0.0
 10
350.3934019775323
 20
207.5312332911291
 30
0.0
 10
350.3934019775323
 20
207.5312332911291
 30
0.0
  0
SPLINE
  5
A0
330
70
100
AcDbEntity
  8
shade
 62
     6
420
 16711935
370
    25
100
AcDbSpline
210
0.0
220
0.0
230
1.0
 70
     8
 71
     3
 72
    80
 73
    76
 74
     0
 42
0.0000000001
 43
0.0000000001
 40
0.0
 40
0.0
 40
0.0
 40
0.0
 40
1.0
 40
1.0
 40
1.0
 40
2.0
 40
2.0
 40
2.0
 40
3.0
 40
3.0
 40
3.0
 40
4.0
 40
4.0
 40
4.0
 40
5.0
 40
5.0
 40
5.0
 40
6.0
 40
6.0
 40
6.0
 40
7.0
 40
7.0
 40
7.0
 40
8.0
 40
8.0
 40
8.0
 40
9.0
 40
9.0
 40
9.0
 40
10.0
 40
10.0
 40
10.0
 40
11.0
 40
11.0
 40
11.0
 40
12.0
 40
12.0
 40
12.0
 40
13.0
 40
13.0
 40
13.0
 40
14.0
 40
14.0
 40
14.0
 40
15.0
 40
15.0
 40
15.0
 40
16.0
 40
16.0
 40
16.0
 40
17.0
 40
17.0
 40
17.0
 40
18.0
 40
18.0
 40
18.0
 40
19.0
 40
19.0
 40
19.0
 40
20.0
 40
20.0
 40
20.0
 40
21.0
 40
21.0
 40
21.0
 40
22.0
 40
22.0
 40
22.0
 40
23.0
 40
23.0
 40
23.0
 40
24.0
 40
24.0
 40
24.0
 40
25.0
 40
25.0
 40
25.0
 40
25.0
 10
359.3073160316892
 20
207.0771925179926
 30
0.0
 10
359.199735885401
 20
207.0510654423198
 30
0.0
 10
359.09154412662
 20
207.0275242983326
 30
0.0
 10
358.9828342237868
 20
207.0065894236006
 30
0.0
 10
358.7860287912913
 20
207.0039113702281
 30
0.0
 10
358.6772890261887
 20
206.986035555671
 30
0.0
 10
358.5682967947186
 20
206.9698128385421
 30
0.0
 10
358.3603931319443
 20
206.9656817298171
 30
0.0
 10
358.2413654795798
 20
206.9505404121677
 30
0.0
 10
358.1221523774955
 20
206.9369828879158
 30
0.0
 10
357.9054229226905
 20
206.9350735291304
 30
0.0
 10
357.7862016761363
 20
206.9233407492488
 30
0.0
 10
357.6668916802943
 20
206.9125693720502
 30
0.0
 10
357.6668916802943
 20
206.9125693720502
 30
0.0
 10
357.1899684518136
 20
206.9022533888096
 30
0.0
 10
357.1899684518136
 20
206.9022533888096
 30
0.0
 10
357.1899684518136
 20
206.9022533888096
 30
0.0
 10
356.8057873248511
 20
206.8859297964602
 30
0.0
 10
356.8057873248511
 20
206.8859297964602
 30
0.0
 10
356.8057873248511
 20
206.8859297964602
 30
0.0
 10
356.4187629369192
 20
206.8708926773066
 30
0.0
 10
356.4187629369192
 20
206.8708926773066
 30
0.0
 10
356.4187629369192
 20
206.8708926773066
 30
0.0
 10
355.6453294280931
 20
206.8411077416272
 30
0.0
 10
355.6453294280931
 20
206.8411077416272
 30
0.0
 10
355.5461973104015
 20
206.8345391515489
 30
0.0
 10
355.4470856602674
 20
206.8276652334189
 30
0.0
 10
355.3479958880799
 20
206.8204860850016
 30
0.0
 10
355.1674460325877
 20
206.8173764300906
 30
0.0
 10
355.0683900015427
 20
206.8094753922873
 30
0.0
 10
354.9693805261788
 20
206.8010200533545
 30
0.0
 10
354.8637887732903
 20
206.8036205177039
 30
0.0
 10
354.8396229340822
 20
206.8014442782021
 30
0.0
 10
354.8154605991758
 20
206.7992296375037
 30
0.0
 10
354.7714380326569
 20
206.7983728546167
 30
0.0
 10
354.7472782292398
 20
206.7960942712862
 30
0.0
 10
354.723122528806
 20
206.7937727958749
 30
0.0
 10
354.723122528806
 20
206.7937727958749
 30
0.0
 10
354.5210112700137
 20
206.7837656557773
 30
0.0
 10
354.5210112700137
 20
206.7837656557773
 30
0.0
 10
354.4975127223377
 20
206.7812495578347
 30
0.0
 10
354.4740195551733
 20
206.778683461368
 30
0.0
 10
354.450531928004
 20
206.7760673838702
 30
0.0
 10
354.4077343462093
 20
206.7750467955269
 30
0.0
 10
354.3842506669945
 20
206.7723481345567
 30
0.0
 10
354.3607734265333
 20
206.7695943009856
 30
0.0
 10
354.3183652214457
 20
206.768559400185
 30
0.0
 10
354.2952642605674
 20
206.7657633706871
 30
0.0
 10
354.2721701904913
 20
206.7629112658174
 30
0.0
 10
354.2300868127709
 20
206.7617956763136
 30
0.0
 10
354.2069976362109
 20
206.758851109064
 30
0.0
 10
354.1839164539537
 20
206.7558448422297
 30
0.0
 10
354.0982391313601
 20
206.7489203275944
 30
0.0
 10
354.0316148492615
 20
206.7395729345299
 30
0.0
 10
353.9650731180449
 20
206.7296630835665
 30
0.0
 10
353.8436990935797
 20
206.7251099885501
 30
0.0
 10
353.7772428057556
 20
206.7141467220314
 30
0.0
 10
353.7109154677012
 20
206.7024406781508
 30
0.0
 10
353.6350449505651
 20
206.7051662214608
 30
0.0
 10
353.6138846539405
 20
206.7012172748619
 30
0.0
 10
353.5927403173079
 20
206.6971841995171
 30
0.0
 10
353.5541903984486
 20
206.6955977008952
 30
0.0
 10
353.5330566039206
 20
206.6914300886163
 30
0.0
 10
353.5119405074687
 20
206.687174189262
 30
0.0
 10
353.4686804345908
 20
206.6845313649352
 30
0.0
 10
353.4433566354071
 20
206.676817914732
 30
0.0
 10
353.4189298047512
 20
206.6667682358417
 30
0.0
 10
353.3732172246747
 20
206.6587870328965
 30
0.0
 10
353.3502233644884
 20
206.6442520132185
 30
0.0
 10
353.3294129705873
 20
206.6269136475213
 30
0.0
 10
353.3013712424113
 20
206.626942187852
 30
0.0
 10
353.2935813144923
 20
206.6194002056629
 30
0.0
 10
353.2861183908518
 20
206.6115411008641
 30
0.0
 10
353.2718806054273
 20
206.6081355324582
 30
0.0
 10
353.2645563008618
 20
206.5998384420862
 30
0.0
 10
353.2575140630797
 20
206.5913046126849
 30
0.0
  0
LINE
  5
A1
330
70
100
AcDbEntity
  8
shade
 62
     6
420
 16711935
370
    25
100
AcDbLine
 10
354.0508538202461
 20
227.1059102017797
 30
0.0
 11
358.2143610245063
 21
227.1059102017797
 31
0.0
  0
LINE
  5
A2
330
70
100
AcDbEntity
  8
shade
 62
     6
420
 16711935
370
    25
100
AcDbLine
 10
358.2143610245063
 20
227.1059102017797
 30
0.0
 11
358.0031334383811
 21
226.4848455009155
 31
0.0
  0
LINE
  5
A3
330
70
100
AcDbEntity
  8
shade
 62
     6
420
 16711935
370
    25
100
AcDbLine
 10
354.0508538202461
 20
227.1059102017797
 30
0.0
 11
350.5656861818999
 21
227.1059102017797
 31
0.0
  0
LINE
  5
A4
330
70
100
AcDbEntity
  8
shade
 62
     6
420
 16711935
370
    25
100
AcDbLine
 10
354.1697420329539
 20
217.1057179786747
 30
0.0
 11
354.1697420329539
 21
217.9167303652274
 31
0.0
  0
SPLINE
  5
A5
330
70
100
AcDbEntity
  8
shade
 62
     6
420
 16711935
370
    25
100
AcDbSpline
210
0.0
220
0.0
230
1.0
 70
     8
 71
     3
 72
     8
 73
     4
 74
     0
 42
0.0000000001
 43
0.0000000001
 40
0.0
 40
0.0
 40
0.0
 40
0.0
 40
1.0
 40
1.0
 40
1.0
 40
1.0
 10
348.6051740766472
 20
227.6804006673747
 30
0.0
 10
348.4085895241961
 20
227.4980912188871
 30
0.0
 10
348.2173091866303
 20
227.3101444010324
 30
0.0
 10
348.0315721032537
 20
227.1167950872335
 30
0.0
  0
SPLINE
  5
A6
330
70
100
AcDbEntity
  8
shade
 62
     6
420
 16711935
370
    25
100
AcDbSpline
210
0.0
220
0.0
230
1.0
 70
     8
 71
     3
 72
     8
 73
     4
 74
     0
 42
0.0000000001
 43
0.0000000001
 40
0.0
 40
0.0
 40
0.0
 40
0.0
 40
1.0
 40
1.0
 40
1.0
 40
1.0
 10
349.8633488841767
 20
226.583748310661
 30
0.0
 10
348.8884164094826
 20
225.869156609007
 30
0.0
 10
348.041763864756
 20
224.9943638739103
 30
0.0
 10
347.3594195813283
 20
223.9965959103599
 30
0.0
  0
SPLINE
  5
A7
330
70
100
AcDbEntity
  8
shade
 62
     6
420
 16711935
370
    25
100
AcDbSpline
210
0.0
220
0.0
230
1.0
 70
     8
 71
     3
 72
     8
 73
     4
 74
     0
 42
0.0000000001
 43
0.0000000001
 40
0.0
 40
0.0
 40
0.0
 40
0.0
 40
1.0
 40
1.0
 40
1.0
 40
1.0
 10
348.3776156994858
 20
227.6199442483691
 30
0.0
 10
348.186139835733
 20
227.439038810669
 30
0.0
 10
347.9998338599015
 20
227.2527385725022
 30
0.0
 10
347.8189225253832
 20
227.0612682802294
 30
0.0
  0
SPLINE
  5
A8
330
70
100
AcDbEntity
  8
shade
 62
     6
420
 16711935
370
    25
100
AcDbSpline
210
0.0
220
0.0
230
1.0
 70
     8
 71
     3
 72
    74
 73
    70
 74
     0
 42
0.0000000001
 43
0.0000000001
 40
0.0
 40
0.0
 40
0.0
 40
0.0
 40
1.0
 40
1.0
 40
1.0
 40
2.0
 40
2.0
 40
2.0
 40
3.0
 40
3.0
 40
3.0
 40
4.0
 40
4.0
 40
4.0
 40
5.0
 40
5.0
 40
5.0
 40
6.0
 40
6.0
 40
6.0
 40
7.0
 40
7.0
 40
7.0
 40
8.0
 40
8.0
 40
8.0
 40
9.0
 40
9.0
 40
9.0
 40
10.0
 40
10.0
 40
10.0
 40
11.0
 40
11.0
 40
11.0
 40
12.0
 40
12.0
 40
12.0
 40
13.0
 40
13.0
 40
13.0
 40
14.0
 40
14.0
 40
14.0
 40
15.0
 40
15.0
 40
15.0
 40
16.0
 40
16.0
 40
16.0
 40
17.0
 40
17.0
 40
17.0
 40
18.0
 40
18.0
 40
18.0
 40
19.0
 40
19.0
 40
19.0
 40
20.0
 40
20.0
 40
20.0
 40
21.0
 40
21.0
 40
21.0
 40
22.0
 40
22.0
 40
22.0
 40
23.0
 40
23.0
 40
23.0
 40
23.0
 10
345.8470536525635
 20
225.9069775869023
 30
0.0
 10
345.8564018798349
 20
225.9535720764089
 30
0.0
 10
345.8669011127943
 20
225.9999282264498
 30
0.0
 10
345.8785417201738
 20
226.0460035134041
 30
0.0
 10
345.8973286661011
 20
226.0617647646236
 30
0.0
 10
345.9137170946874
 20
226.1061212978835
 30
0.0
 10
345.9350554833766
 20
226.1481429160346
 30
0.0
 10
345.9625760246766
 20
226.1589400530347
 30
0.0
 10
345.9850775451726
 20
226.1970019082189
 30
0.0
 10
346.0112503535873
 20
226.2324983410338
 30
0.0
 10
346.0507967035223
 20
226.2413993325899
 30
0.0
 10
346.0774844214589
 20
226.2743059882456
 30
0.0
 10
346.1062164204031
 20
226.3053832232021
 30
0.0
 10
346.169715063921
 20
226.3304480429901
 30
0.0
 10
346.2171448938818
 20
226.3738956822574
 30
0.0
 10
346.2680305569326
 20
226.4130460554426
 30
0.0
 10
346.3527340775288
 20
226.4198817822367
 30
0.0
 10
346.4040721428974
 20
226.454114393911
 30
0.0
 10
346.4572847625851
 20
226.4852485017338
 30
0.0
 10
346.5472864716289
 20
226.4894343394434
 30
0.0
 10
346.5981212827656
 20
226.5154330923467
 30
0.0
 10
346.6499756532771
 20
226.5392740351075
 30
0.0
 10
346.7421086939338
 20
226.543891846167
 30
0.0
 10
346.7940143415663
 20
226.5653599107909
 30
0.0
 10
346.8464153186151
 20
226.585566172366
 30
0.0
 10
346.983932665236
 20
226.6066100505128
 30
0.0
 10
347.0806339779167
 20
226.6385238664077
 30
0.0
 10
347.1784798789267
 20
226.6665910001777
 30
0.0
 10
347.3539860724449
 20
226.6696180082067
 30
0.0
 10
347.4518112274346
 20
226.6935054699354
 30
0.0
 10
347.5501235795611
 20
226.715245502559
 30
0.0
 10
347.7235127217411
 20
226.7180863583441
 30
0.0
 10
347.8172347639338
 20
226.7366149383611
 30
0.0
 10
347.9111627137564
 20
226.7540520503127
 30
0.0
 10
348.0818097855101
 20
226.7582429901443
 30
0.0
 10
348.1757325217076
 20
226.7745777870957
 30
0.0
 10
348.269741501848
 20
226.7904044998942
 30
0.0
 10
348.4331286425449
 20
226.7938197986596
 30
0.0
 10
348.5195008663171
 20
226.8076021008667
 30
0.0
 10
348.6059501445393
 20
226.8208877655278
 30
0.0
 10
348.7632638609678
 20
226.8246925898801
 30
0.0
 10
348.84974993785
 20
226.8372237469536
 30
0.0
 10
348.9363040030125
 20
226.8492714021628
 30
0.0
 10
349.2959115466741
 20
226.8801816865035
 30
0.0
 10
349.5852190488377
 20
226.9141552300739
 30
0.0
 10
349.8750796311634
 20
226.9427807925543
 30
0.0
 10
350.401713721315
 20
226.9431452121079
 30
0.0
 10
350.6916169635098
 20
226.9648215873363
 30
0.0
 10
350.9817798309537
 20
226.9824589072904
 30
0.0
 10
350.9817798309537
 20
226.9824589072904
 30
0.0
 10
351.7250071098399
 20
226.9812600837117
 30
0.0
 10
351.7250071098399
 20
226.9812600837117
 30
0.0
 10
351.7250071098399
 20
226.9812600837117
 30
0.0
 10
352.2303728420508
 20
226.9960000975312
 30
0.0
 10
352.2303728420508
 20
226.9960000975312
 30
0.0
 10
352.2303728420508
 20
226.9960000975312
 30
0.0
 10
352.7356250348168
 20
227.012691225649
 30
0.0
 10
352.7356250348168
 20
227.012691225649
 30
0.0
 10
352.7356250348168
 20
227.012691225649
 30
0.0
 10
353.4628059051879
 20
227.042417931285
 30
0.0
 10
353.4628059051879
 20
227.042417931285
 30
0.0
 10
353.4628059051879
 20
227.042417931285
 30
0.0
 10
354.1900179037577
 20
227.0715753839237
 30
0.0
 10
354.1900179037577
 20
227.0715753839237
 30
0.0
 10
354.1900179037577
 20
227.0715753839237
 30
0.0
 10
354.794178797931
 20
227.0897518936576
 30
0.0
 10
354.794178797931
 20
227.0897518936576
 30
0.0
 10
354.794178797931
 20
227.0897518936576
 30
0.0
 10
355.398539198946
 20
227.1042888051959
 30
0.0
 10
355.398539198946
 20
227.1042888051959
 30
0.0
  0
SPLINE
  5
A9
330
70
100
AcDbEntity
  8
shade
 62
     6
420
 16711935
370
    25
100
AcDbSpline
210
0.0
220
0.0
230
1.0
 70
     8
 71
     3
 72
    38
 73
    34
 74
     0
 42
0.0000000001
 43
0.0000000001
 40
0.0
 40
0.0
 40
0.0
 40
0.0
 40
1.0
 40
1.0
 40
1.0
 40
2.0
 40
2.0
 40
2.0
 40
3.0
 40
3.0
 40
3.0
 40
4.0
 40
4.0
 40
4.0
 40
5.0
 40
5.0
 40
5.0
 40
6.0
 40
6.0
 40
6.0
 40
7.0
 40
7.0
 40
7.0
 40
8.0
 40
8.0
 40
8.0
 40
9.0
 40
9.0
 40
9.0
 40
10.0
 40
10.0
 40
10.0
 40
11.0
 40
11.0
 40
11.0
 40
11.0
 10
348.7577137692976
 20
226.8356755266468
 30
0.0
 10
348.795686612788
 20
226.8532820436309
 30
0.0
 10
348.8337290461008
 20
226.8707380825787
 30
0.0
 10
348.8718401739741
 20
226.8880432327201
 30
0.0
 10
348.9411179300297
 20
226.893908280839
 30
0.0
 10
348.979534954664
 20
226.9103686158329
 30
0.0
 10
349.0182686015812
 20
226.9260583577523
 30
0.0
 10
349.0945013173904
 20
226.9327493865231
 30
0.0
 10
349.1399808219649
 20
226.949191171043
 30
0.0
 10
349.1859229554923
 20
226.964257184883
 30
0.0
 10
349.2685545937186
 20
226.9671161352254
 30
0.0
 10
349.314543208911
 20
226.9805694684923
 30
0.0
 10
349.3607765050715
 20
226.9931395628073
 30
0.0
 10
349.4332590282966
 20
226.9930576103474
 30
0.0
 10
349.4682758509325
 20
227.0018724398203
 30
0.0
 10
349.5033766505642
 20
227.0103429863979
 30
0.0
 10
349.5671359937388
 20
227.0127195471741
 30
0.0
 10
349.6022391727405
 20
227.0208305697761
 30
0.0
 10
349.6373814765998
 20
227.0287693824761
 30
0.0
 10
349.7194729064633
 20
227.0353269015487
 30
0.0
 10
349.7728716213545
 20
227.0466998814969
 30
0.0
 10
349.8263788299836
 20
227.0575442556773
 30
0.0
 10
349.9236103815317
 20
227.0604249510701
 30
0.0
 10
349.9772201182921
 20
227.0701809910734
 30
0.0
 10
350.030966674106
 20
227.0791342215503
 30
0.0
 10
350.1175891175509
 20
227.079102297736
 30
0.0
 10
350.160393607418
 20
227.0852561083114
 30
0.0
 10
350.2032807948749
 20
227.0907864920241
 30
0.0
 10
350.2812124734581
 20
227.091607450535
 30
0.0
 10
350.3241142892846
 20
227.0963242728324
 30
0.0
 10
350.3670642847215
 20
227.10056672958
 30
0.0
 10
350.3670642847215
 20
227.10056672958
 30
0.0
 10
350.5656861818999
 20
227.1059102017797
 30
0.0
 10
350.5656861818999
 20
227.1059102017797
 30
0.0
  0
SPLINE
  5
AA
330
70
100
AcDbEntity
  8
shade
 62
     6
420
 16711935
370
    25
100
AcDbSpline
210
0.0
220
0.0
230
1.0
 70
     8
 71
     3
 72
   107
 73
   103
 74
     0
 42
0.0000000001
 43
0.0000000001
 40
0.0
 40
0.0
 40
0.0
 40
0.0
 40
1.0
 40
1.0
 40
1.0
 40
2.0
 40
2.0
 40
2.0
 40
3.0
 40
3.0
 40
3.0
 40
4.0
 40
4.0
 40
4.0
 40
5.0
 40
5.0
 40
5.0
 40
6.0
 40
6.0
 40
6.0
 40
7.0
 40
7.0
 40
7.0
 40
8.0
 40
8.0
 40
8.0
 40
9.0
 40
9.0
 40
9.0
 40
10.0
 40
10.0
 40
10.0
 40
11.0
 40
11.0
 40
11.0
 40
12.0
 40
12.0
 40
12.0
 40
13.0
 40
13.0
 40
13.0
 40
14.0
 40
14.0
 40
14.0
 40
15.0
 40
15.0
 40
15.0
 40
16.0
 40
16.0
 40
16.0
 40
17.0
 40
17.0
 40
17.0
 40
18.0
 40
18.0
 40
18.0
 40
19.0
 40
19.0
 40
19.0
 40
20.0
 40
20.0
 40
20.0
 40
21.0
 40
21.0
 40
21.0
 40
22.0
 40
22.0
 40
22.0
 40
23.0
 40
23.0
 40
23.0
 40
24.0
 40
24.0
 40
24.0
 40
25.0
 40
25.0
 40
25.0
 40
26.0
 40
26.0
 40
26.0
 40
27.0
 40
27.0
 40
27.0
 40
28.0
 40
28.0
 40
28.0
 40
29.0
 40
29.0
 40
29.0
 40
30.0
 40
30.0
 40
30.0
 40
31.0
 40
31.0
 40
31.0
 40
32.0
 40
32.0
 40
32.0
 40
33.0
 40
33.0
 40
33.0
 40
34.0
 40
34.0
 40
34.0
 40
34.0
 10
358.2015618989026
 20
227.0679549891247
 30
0.0
 10
358.2734316348078
 20
227.0645611707923
 30
0.0
 10
358.3452785462096
 20
227.0607001258716
 30
0.0
 10
358.4170980778574
 20
227.0563720991288
 30
0.0
 10
358.547958249826
 20
227.0539782951243
 30
0.0
 10
358.6195954523507
 20
227.0470040632257
 30
0.0
 10
358.6909407777495
 20
227.0376499552281
 30
0.0
 10
358.8349025782156
 20
227.0279092477017
 30
0.0
 10
358.9190883946939
 20
227.0102156842001
 30
0.0
 10
359.002014165761
 20
226.9876147201933
 30
0.0
 10
359.1549820321699
 20
226.9704257642366
 30
0.0
 10
359.2375496098532
 20
226.9427164428716
 30
0.0
 10
359.3192831566108
 20
226.9126864801174
 30
0.0
 10
359.4065952179002
 20
226.9218125497786
 30
0.0
 10
359.4247684312772
 20
226.9128014595578
 30
0.0
 10
359.4419589996026
 20
226.9021208006535
 30
0.0
 10
359.4743661996957
 20
226.8954182662465
 30
0.0
 10
359.4867984925712
 20
226.8784593082397
 30
0.0
 10
359.4924915219388
 20
226.858859913821
 30
0.0
 10
359.5075065630441
 20
226.8583362134994
 30
0.0
 10
359.5075794920489
 20
226.8506261549539
 30
0.0
 10
359.5054085795895
 20
226.8434050832915
 30
0.0
 10
359.5058863565324
 20
226.8401711521416
 30
0.0
 10
359.5021877245021
 20
226.8332351970104
 30
0.0
 10
359.4966333167501
 20
226.8279527653227
 30
0.0
 10
359.4932784760165
 20
226.8298338626429
 30
0.0
 10
359.4907450825564
 20
226.8273569055029
 30
0.0
 10
359.4880661432036
 20
226.8250433009233
 30
0.0
 10
359.4835099033601
 20
226.8244967935899
 30
0.0
 10
359.4808689522977
 20
226.8222956318055
 30
0.0
 10
359.4781994631138
 20
226.8201294033349
 30
0.0
 10
359.436904987487
 20
226.7899285477921
 30
0.0
 10
359.3955605938327
 20
226.7611032752031
 30
0.0
 10
359.3523319808995
 20
226.7353123982353
 30
0.0
 10
359.2779816238841
 20
226.7313481020369
 30
0.0
 10
359.2347621156008
 20
226.7086800057187
 30
0.0
 10
359.190722757792
 20
226.6876905082396
 30
0.0
 10
359.0852867600868
 20
226.6707694143909
 30
0.0
 10
359.013138132237
 20
226.6414025029435
 30
0.0
 10
358.9397754452881
 20
226.6153336939185
 30
0.0
 10
358.8089955115187
 20
226.6119781364832
 30
0.0
 10
358.7359383876326
 20
226.5885234829744
 30
0.0
 10
358.6626059373042
 20
226.5659538950633
 30
0.0
 10
358.3686623229785
 20
226.510995455149
 30
0.0
 10
358.1334133772292
 20
226.4439978293186
 30
0.0
 10
357.8971629350322
 20
226.3806795301569
 30
0.0
 10
357.4690104368854
 20
226.3649204594592
 30
0.0
 10
357.2327206335675
 20
226.3055479051763
 30
0.0
 10
356.9959524143426
 20
226.2481305212984
 30
0.0
 10
356.9959524143426
 20
226.2481305212984
 30
0.0
 10
356.2057637634732
 20
226.2016199322307
 30
0.0
 10
356.2057637634732
 20
226.2016199322307
 30
0.0
 10
356.2057637634732
 20
226.2016199322307
 30
0.0
 10
354.3139721810135
 20
225.9375086240672
 30
0.0
 10
354.3139721810135
 20
225.9375086240672
 30
0.0
 10
354.3139721810135
 20
225.9375086240672
 30
0.0
 10
352.4118092147733
 20
225.6816132491004
 30
0.0
 10
352.4118092147733
 20
225.6816132491004
 30
0.0
 10
352.4118092147733
 20
225.6816132491004
 30
0.0
 10
350.8765196742728
 20
225.4774150995859
 30
0.0
 10
350.8765196742728
 20
225.4774150995859
 30
0.0
 10
350.8765196742728
 20
225.4774150995859
 30
0.0
 10
350.1107174871732
 20
225.3708376466681
 30
0.0
 10
350.1107174871732
 20
225.3708376466681
 30
0.0
 10
350.1107174871732
 20
225.3708376466681
 30
0.0
 10
349.3464551959518
 20
225.2577941411575
 30
0.0
 10
349.3464551959518
 20
225.2577941411575
 30
0.0
 10
349.3464551959518
 20
225.2577941411575
 30
0.0
 10
348.7116379736963
 20
225.1571267303053
 30
0.0
 10
348.7116379736963
 20
225.1571267303053
 30
0.0
 10
348.7116379736963
 20
225.1571267303053
 30
0.0
 10
348.0782531548229
 20
225.0501093668487
 30
0.0
 10
348.0782531548229
 20
225.0501093668487
 30
0.0
 10
348.0782531548229
 20
225.0501093668487
 30
0.0
 10
347.4465042869976
 20
224.9366810322244
 30
0.0
 10
347.4465042869976
 20
224.9366810322244
 30
0.0
 10
347.3639614043563
 20
224.9119122040331
 30
0.0
 10
347.2814996347747
 20
224.8868738634365
 30
0.0
 10
347.1991202976508
 20
224.861566411043
 30
0.0
 10
347.0488848646179
 20
224.8520870604052
 30
0.0
 10
346.9665548978404
 20
224.8263602919247
 30
0.0
 10
346.8843104233579
 20
224.8003622914793
 30
0.0
 10
346.8843104233579
 20
224.8003622914793
 30
0.0
 10
346.1887285949316
 20
224.6903473760228
 30
0.0
 10
346.1887285949316
 20
224.6903473760228
 30
0.0
 10
346.1887285949316
 20
224.6903473760228
 30
0.0
 10
345.5631088659493
 20
224.5573200175013
 30
0.0
 10
345.5631088659493
 20
224.5573200175013
 30
0.0
 10
345.5631088659493
 20
224.5573200175013
 30
0.0
 10
344.9399392785294
 20
224.417637614105
 30
0.0
 10
344.9399392785294
 20
224.417637614105
 30
0.0
 10
344.7804992743553
 20
224.3581287493418
 30
0.0
 10
344.6214753795762
 20
224.2975109115778
 30
0.0
 10
344.4628791486569
 20
224.2357885051592
 30
0.0
 10
344.1731042014653
 20
224.211839873963
 30
0.0
 10
344.0146984412663
 20
224.148573263869
 30
0.0
 10
343.8566700530651
 20
224.0843738011436
 30
0.0
 10
343.8566700530651
 20
224.0843738011436
 30
0.0
 10
343.1349821980825
 20
223.9732273929365
 30
0.0
 10
343.1349821980825
 20
223.9732273929365
 30
0.0
 10
343.1349821980825
 20
223.9732273929365
 30
0.0
 10
341.9558085209102
 20
223.662721640141
 30
0.0
 10
341.9558085209102
 20
223.662721640141
 30
0.0
  0
LINE
  5
AB
330
70
100
AcDbEntity
  8
shade
 62
     6
420
 16711935
370
    25
100
AcDbLine
 10
348.6051740766472
 20
225.484388661807
 30
0.0
 11
348.3776156994858
 21
225.4429246604011
 31
0.0
  0
SPLINE
  5
AC
330
70
100
AcDbEntity
  8
shade
 62
     6
420
 16711935
370
    25
100
AcDbSpline
210
0.0
220
0.0
230
1.0
 70
     8
 71
     3
 72
    38
 73
    34
 74
     0
 42
0.0000000001
 43
0.0000000001
 40
0.0
 40
0.0
 40
0.0
 40
0.0
 40
1.0
 40
1.0
 40
1.0
 40
2.0
 40
2.0
 40
2.0
 40
3.0
 40
3.0
 40
3.0
 40
4.0
 40
4.0
 40
4.0
 40
5.0
 40
5.0
 40
5.0
 40
6.0
 40
6.0
 40
6.0
 40
7.0
 40
7.0
 40
7.0
 40
8.0
 40
8.0
 40
8.0
 40
9.0
 40
9.0
 40
9.0
 40
10.0
 40
10.0
 40
10.0
 40
11.0
 40
11.0
 40
11.0
 40
11.0
 10
348.6051740766472
 20
225.484388661807
 30
0.0
 10
348.6051740766472
 20
225.484388661807
 30
0.0
 10
348.6851455054366
 20
225.4782433104346
 30
0.0
 10
348.6851455054366
 20
225.4782433104346
 30
0.0
 10
348.7060574273721
 20
225.475607409537
 30
0.0
 10
348.7269638116682
 20
225.4729277604063
 30
0.0
 10
348.7478645210482
 20
225.4702043804583
 30
0.0
 10
348.7859498835224
 20
225.4691571945343
 30
0.0
 10
348.8068412799383
 20
225.4663221955029
 30
0.0
 10
348.8277205098053
 20
225.4633996084594
 30
0.0
 10
348.886570878697
 20
225.4592436015722
 30
0.0
 10
348.9281766351676
 20
225.452835144624
 30
0.0
 10
348.9697043385627
 20
225.4459475245738
 30
0.0
 10
349.0454981598752
 20
225.442620320626
 30
0.0
 10
349.0869049025008
 20
225.434637385121
 30
0.0
 10
349.128139115961
 20
225.4258267205322
 30
0.0
 10
349.197556622026
 20
225.422519351546
 30
0.0
 10
349.2326724803859
 20
225.4138679367934
 30
0.0
 10
349.267596933033
 20
225.4044887077766
 30
0.0
 10
349.331576050212
 20
225.3998123897944
 30
0.0
 10
349.3664145478355
 20
225.3894727003037
 30
0.0
 10
349.4010813885763
 20
225.378579029057
 30
0.0
 10
349.4462483812152
 20
225.3795935436082
 30
0.0
 10
349.4626338824923
 20
225.3742024763019
 30
0.0
 10
349.4789868998656
 20
225.3687141412192
 30
0.0
 10
349.5088423858057
 20
225.3665865467812
 30
0.0
 10
349.5251854649485
 20
225.3609754438011
 30
0.0
 10
349.5415045632829
 20
225.3552952090509
 30
0.0
 10
349.579477014194
 20
225.3502814407951
 30
0.0
 10
349.6039608689524
 20
225.3415764841842
 30
0.0
 10
349.6284028463095
 20
225.3327550614822
 30
0.0
 10
349.6730132346367
 20
225.3294088968809
 30
0.0
 10
349.6974644899744
 20
225.3205002135303
 30
0.0
 10
349.7219072680654
 20
225.3115683145346
 30
0.0
  0
SPLINE
  5
AD
330
70
100
AcDbEntity
  8
shade
 62
     6
420
 16711935
370
    25
100
AcDbSpline
210
0.0
220
0.0
230
1.0
 70
     8
 71
     3
 72
    89
 73
    85
 74
     0
 42
0.0000000001
 43
0.0000000001
 40
0.0
 40
0.0
 40
0.0
 40
0.0
 40
1.0
 40
1.0
 40
1.0
 40
2.0
 40
2.0
 40
2.0
 40
3.0
 40
3.0
 40
3.0
 40
4.0
 40
4.0
 40
4.0
 40
5.0
 40
5.0
 40
5.0
 40
6.0
 40
6.0
 40
6.0
 40
7.0
 40
7.0
 40
7.0
 40
8.0
 40
8.0
 40
8.0
 40
9.0
 40
9.0
 40
9.0
 40
10.0
 40
10.0
 40
10.0
 40
11.0
 40
11.0
 40
11.0
 40
12.0
 40
12.0
 40
12.0
 40
13.0
 40
13.0
 40
13.0
 40
14.0
 40
14.0
 40
14.0
 40
15.0
 40
15.0
 40
15.0
 40
16.0
 40
16.0
 40
16.0
 40
17.0
 40
17.0
 40
17.0
 40
18.0
 40
18.0
 40
18.0
 40
19.0
 40
19.0
 40
19.0
 40
20.0
 40
20.0
 40
20.0
 40
21.0
 40
21.0
 40
21.0
 40
22.0
 40
22.0
 40
22.0
 40
23.0
 40
23.0
 40
23.0
 40
24.0
 40
24.0
 40
24.0
 40
25.0
 40
25.0
 40
25.0
 40
26.0
 40
26.0
 40
26.0
 40
27.0
 40
27.0
 40
27.0
 40
28.0
 40
28.0
 40
28.0
 40
28.0
 10
359.5002893811919
 20
226.8359528065565
 30
0.0
 10
359.5040866751848
 20
226.8275951794948
 30
0.0
 10
359.5054768287306
 20
226.8183438425193
 30
0.0
 10
359.5043034899165
 20
226.8092393025989
 30
0.0
 10
359.5070256298957
 20
226.8049126164639
 30
0.0
 10
359.5028795133326
 20
226.7960213839544
 30
0.0
 10
359.4958114675458
 20
226.7898017283553
 30
0.0
 10
359.4932784760165
 20
226.7925029638625
 30
0.0
 10
359.4907450825564
 20
226.7900260067218
 30
0.0
 10
359.4880661432036
 20
226.7877124021051
 30
0.0
 10
359.4835099033601
 20
226.7871658947716
 30
0.0
 10
359.4808689522977
 20
226.7849647330238
 30
0.0
 10
359.4781994631138
 20
226.7827985045538
 30
0.0
 10
359.436904987487
 20
226.7525976489745
 30
0.0
 10
359.3955605938327
 20
226.7237723763849
 30
0.0
 10
359.3523319808995
 20
226.697981499455
 30
0.0
 10
359.2779816238841
 20
226.6940172032186
 30
0.0
 10
359.2347621156008
 20
226.6713491069005
 30
0.0
 10
359.190722757792
 20
226.6503596094214
 30
0.0
 10
359.0852867600868
 20
226.6334385155355
 30
0.0
 10
359.013138132237
 20
226.6040716041631
 30
0.0
 10
358.9397754452881
 20
226.5780027951368
 30
0.0
 10
358.8089955115187
 20
226.5746472377021
 30
0.0
 10
358.7359383876326
 20
226.5511925841928
 30
0.0
 10
358.6626059373042
 20
226.528622996245
 30
0.0
 10
358.3686623229785
 20
226.4736645563673
 30
0.0
 10
358.1334133772292
 20
226.4066669305376
 30
0.0
 10
357.8971629350322
 20
226.3433486313014
 30
0.0
 10
357.4690104368854
 20
226.3275895606776
 30
0.0
 10
357.2327206335675
 20
226.2682170063581
 30
0.0
 10
356.9959524143426
 20
226.2107996225168
 30
0.0
 10
356.9959524143426
 20
226.2107996225168
 30
0.0
 10
356.2057637634732
 20
226.1642890334497
 30
0.0
 10
356.2057637634732
 20
226.1642890334497
 30
0.0
 10
356.2057637634732
 20
226.1642890334497
 30
0.0
 10
354.3139721810135
 20
225.9001777252855
 30
0.0
 10
354.3139721810135
 20
225.9001777252855
 30
0.0
 10
354.3139721810135
 20
225.9001777252855
 30
0.0
 10
352.4118092147733
 20
225.6442823503193
 30
0.0
 10
352.4118092147733
 20
225.6442823503193
 30
0.0
 10
352.4118092147733
 20
225.6442823503193
 30
0.0
 10
350.8765196742728
 20
225.4400842008042
 30
0.0
 10
350.8765196742728
 20
225.4400842008042
 30
0.0
 10
350.8765196742728
 20
225.4400842008042
 30
0.0
 10
350.1107174871732
 20
225.3335067478499
 30
0.0
 10
350.1107174871732
 20
225.3335067478499
 30
0.0
 10
350.1107174871732
 20
225.3335067478499
 30
0.0
 10
349.3464551959518
 20
225.2204632423392
 30
0.0
 10
349.3464551959518
 20
225.2204632423392
 30
0.0
 10
349.3464551959518
 20
225.2204632423392
 30
0.0
 10
348.7116379736963
 20
225.1197958315236
 30
0.0
 10
348.7116379736963
 20
225.1197958315236
 30
0.0
 10
348.7116379736963
 20
225.1197958315236
 30
0.0
 10
348.0782531548229
 20
225.0127784679939
 30
0.0
 10
348.0782531548229
 20
225.0127784679939
 30
0.0
 10
348.0782531548229
 20
225.0127784679939
 30
0.0
 10
347.4465042869976
 20
224.8993501334433
 30
0.0
 10
347.4465042869976
 20
224.8993501334433
 30
0.0
 10
347.3639614043563
 20
224.8745813052149
 30
0.0
 10
347.2814996347747
 20
224.8495429646562
 30
0.0
 10
347.1991202976508
 20
224.8242355122626
 30
0.0
 10
347.0488848646179
 20
224.8147561615498
 30
0.0
 10
346.9665548978032
 20
224.7890293931065
 30
0.0
 10
346.8843104233579
 20
224.7630313926983
 30
0.0
 10
346.8843104233579
 20
224.7630313926983
 30
0.0
 10
346.1887285949316
 20
224.6530164772418
 30
0.0
 10
346.1887285949316
 20
224.6530164772418
 30
0.0
 10
346.1887285949316
 20
224.6530164772418
 30
0.0
 10
345.5631088659493
 20
224.5199891187196
 30
0.0
 10
345.5631088659493
 20
224.5199891187196
 30
0.0
 10
345.5631088659493
 20
224.5199891187196
 30
0.0
 10
344.9399392785294
 20
224.3803067152499
 30
0.0
 10
344.9399392785294
 20
224.3803067152499
 30
0.0
 10
344.7804992743553
 20
224.3207978505614
 30
0.0
 10
344.6214753795762
 20
224.2601800127232
 30
0.0
 10
344.4628791486569
 20
224.1984576063788
 30
0.0
 10
344.1731042014653
 20
224.1745089751813
 30
0.0
 10
344.0146984412663
 20
224.1112423650508
 30
0.0
 10
343.8566700530651
 20
224.0470429022881
 30
0.0
 10
343.8566700530651
 20
224.0470429022881
 30
0.0
 10
343.1349821980825
 20
223.9358964941555
 30
0.0
 10
343.1349821980825
 20
223.9358964941555
 30
0.0
 10
343.1349821980825
 20
223.9358964941555
 30
0.0
 10
341.9558085209102
 20
223.6253907413227
 30
0.0
 10
341.9558085209102
 20
223.6253907413227
 30
0.0
  0
SPLINE
  5
AE
330
70
100
AcDbEntity
  8
shade
 62
     6
420
 16711935
370
    25
100
AcDbSpline
210
0.0
220
0.0
230
1.0
 70
     8
 71
     3
 72
    47
 73
    43
 74
     0
 42
0.0000000001
 43
0.0000000001
 40
0.0
 40
0.0
 40
0.0
 40
0.0
 40
1.0
 40
1.0
 40
1.0
 40
2.0
 40
2.0
 40
2.0
 40
3.0
 40
3.0
 40
3.0
 40
4.0
 40
4.0
 40
4.0
 40
5.0
 40
5.0
 40
5.0
 40
6.0
 40
6.0
 40
6.0
 40
7.0
 40
7.0
 40
7.0
 40
8.0
 40
8.0
 40
8.0
 40
9.0
 40
9.0
 40
9.0
 40
10.0
 40
10.0
 40
10.0
 40
11.0
 40
11.0
 40
11.0
 40
12.0
 40
12.0
 40
12.0
 40
13.0
 40
13.0
 40
13.0
 40
14.0
 40
14.0
 40
14.0
 40
14.0
 10
337.4524515363804
 20
220.9959099977592
 30
0.0
 10
337.510291297361
 20
221.1758920941234
 30
0.0
 10
337.5826575886946
 20
221.3508776931516
 30
0.0
 10
337.6688363061752
 20
221.5191400525172
 30
0.0
 10
337.7960715731647
 20
221.5693739927385
 30
0.0
 10
337.8881309325793
 20
221.7290023100894
 30
0.0
 10
337.9915552818758
 20
221.8812111034961
 30
0.0
 10
338.1392860633174
 20
221.8996349221644
 30
0.0
 10
338.2285360531841
 20
222.0198176652298
 30
0.0
 10
338.3243052594676
 20
222.1347199745944
 30
0.0
 10
338.4845671994189
 20
222.1667623676373
 30
0.0
 10
338.5823680697679
 20
222.2749420260048
 30
0.0
 10
338.6848827332507
 20
222.3785619821329
 30
0.0
 10
338.8726552314193
 20
222.4189183190708
 30
0.0
 10
338.9891545304353
 20
222.5267587862818
 30
0.0
 10
339.1101762972935
 20
222.6293821660641
 30
0.0
 10
339.3207233686038
 20
222.6567495549981
 30
0.0
 10
339.4427699507736
 20
222.7529865936226
 30
0.0
 10
339.5677410725705
 20
222.8453299743546
 30
0.0
 10
339.7488187451393
 20
222.841819607925
 30
0.0
 10
339.8333373952531
 20
222.9012361025885
 30
0.0
 10
339.9189130387613
 20
222.9591047019151
 30
0.0
 10
340.0725419928477
 20
222.9768530501515
 30
0.0
 10
340.1584213176113
 20
223.0327285442886
 30
0.0
 10
340.2450525022554
 20
223.0874221089479
 30
0.0
 10
340.3365377881044
 20
223.06414652698
 30
0.0
 10
340.3581488979523
 20
223.0775909841259
 30
0.0
 10
340.3798014297255
 20
223.0909685125227
 30
0.0
 10
340.4191584857926
 20
223.0955948510924
 30
0.0
 10
340.4408308310233
 20
223.1088744960182
 30
0.0
 10
340.4625406870858
 20
223.1220926302285
 30
0.0
 10
340.4625406870858
 20
223.1220926302285
 30
0.0
 10
340.6462203383097
 20
223.1747799973603
 30
0.0
 10
340.6462203383097
 20
223.1747799973603
 30
0.0
 10
340.7323618643675
 20
223.2257523902088
 30
0.0
 10
340.8189338845994
 20
223.2759937330845
 30
0.0
 10
340.9059270700622
 20
223.3254986119669
 30
0.0
 10
341.0635104954615
 20
223.3417287750541
 30
0.0
 10
341.1505406817105
 20
223.3904414866019
 30
0.0
 10
341.2377898510608
 20
223.4387598300113
 30
0.0
 10
341.2377898510608
 20
223.4387598300113
 30
0.0
 10
341.9558085209102
 20
223.6253907413227
 30
0.0
 10
341.9558085209102
 20
223.6253907413227
 30
0.0
  0
SPLINE
  5
AF
330
70
100
AcDbEntity
  8
shade
 62
     6
420
 16711935
370
    25
100
AcDbSpline
210
0.0
220
0.0
230
1.0
 70
     8
 71
     3
 72
    17
 73
    13
 74
     0
 42
0.0000000001
 43
0.0000000001
 40
0.0
 40
0.0
 40
0.0
 40
0.0
 40
1.0
 40
1.0
 40
1.0
 40
2.0
 40
2.0
 40
2.0
 40
3.0
 40
3.0
 40
3.0
 40
4.0
 40
4.0
 40
4.0
 40
4.0
 10
337.2020591499429
 20
220.0750450158825
 30
0.0
 10
337.2027935537179
 20
220.1994490461296
 30
0.0
 10
337.2110825942578
 20
220.323693656304
 30
0.0
 10
337.2268804960689
 20
220.447092717764
 30
0.0
 10
337.2400388087109
 20
220.4904333632765
 30
0.0
 10
337.2605548105682
 20
220.6128525171663
 30
0.0
 10
337.2889019907816
 20
220.733565811329
 30
0.0
 10
337.3146183031773
 20
220.7286945801283
 30
0.0
 10
337.3330443726281
 20
220.8024891892794
 30
0.0
 10
337.3544202285514
 20
220.8754517952074
 30
0.0
 10
337.3871712775344
 20
220.9001148629837
 30
0.0
 10
337.4101503868758
 20
220.9719066292557
 30
0.0
 10
337.4359665088117
 20
221.042695748482
 30
0.0
  0
LINE
  5
B0
330
70
100
AcDbEntity
  8
shade
 62
     6
420
 16711935
370
    25
100
AcDbLine
 10
359.496984730576
 20
226.7961729733701
 30
0.0
 11
358.4973067011118
 21
226.0846108717363
 31
0.0
  0
SPLINE
  5
B1
330
70
100
AcDbEntity
  8
shade
 62
     6
420
 16711935
370
    25
100
AcDbSpline
210
0.0
220
0.0
230
1.0
 70
     8
 71
     3
 72
   104
 73
   100
 74
     0
 42
0.0000000001
 43
0.0000000001
 40
0.0
 40
0.0
 40
0.0
 40
0.0
 40
1.0
 40
1.0
 40
1.0
 40
2.0
 40
2.0
 40
2.0
 40
3.0
 40
3.0
 40
3.0
 40
4.0
 40
4.0
 40
4.0
 40
5.0
 40
5.0
 40
5.0
 40
6.0
 40
6.0
 40
6.0
 40
7.0
 40
7.0
 40
7.0
 40
8.0
 40
8.0
 40
8.0
 40
9.0
 40
9.0
 40
9.0
 40
10.0
 40
10.0
 40
10.0
 40
11.0
 40
11.0
 40
11.0
 40
12.0
 40
12.0
 40
12.0
 40
13.0
 40
13.0
 40
13.0
 40
14.0
 40
14.0
 40
14.0
 40
15.0
 40
15.0
 40
15.0
 40
16.0
 40
16.0
 40
16.0
 40
17.0
 40
17.0
 40
17.0
 40
18.0
 40
18.0
 40
18.0
 40
19.0
 40
19.0
 40
19.0
 40
20.0
 40
20.0
 40
20.0
 40
21.0
 40
21.0
 40
21.0
 40
22.0
 40
22.0
 40
22.0
 40
23.0
 40
23.0
 40
23.0
 40
24.0
 40
24.0
 40
24.0
 40
25.0
 40
25.0
 40
25.0
 40
26.0
 40
26.0
 40
26.0
 40
27.0
 40
27.0
 40
27.0
 40
28.0
 40
28.0
 40
28.0
 40
29.0
 40
29.0
 40
29.0
 40
30.0
 40
30.0
 40
30.0
 40
31.0
 40
31.0
 40
31.0
 40
32.0
 40
32.0
 40
32.0
 40
33.0
 40
33.0
 40
33.0
 40
33.0
 10
341.9558085209102
 20
223.662721640141
 30
0.0
 10
341.9302690463232
 20
223.7456735218311
 30
0.0
 10
341.9065519877368
 20
223.8291755718044
 30
0.0
 10
341.8846744540822
 20
223.9131675533016
 30
0.0
 10
341.8410913608564
 20
223.9437822952594
 30
0.0
 10
341.8269248140398
 20
224.0299256730761
 30
0.0
 10
341.8214078247302
 20
224.1168354204966
 30
0.0
 10
341.7994194776233
 20
224.0974129067501
 30
0.0
 10
341.7975148139478
 20
224.1319820295429
 30
0.0
 10
341.7972638503227
 20
224.1665829216747
 30
0.0
 10
341.7933936634482
 20
224.1791006471531
 30
0.0
 10
341.7945944969082
 20
224.213806577474
 30
0.0
 10
341.7979459997107
 20
224.248337501456
 30
0.0
 10
341.8025399555693
 20
224.3026265628857
 30
0.0
 10
341.8206299172313
 20
224.3777900222714
 30
0.0
 10
341.8506903363332
 20
224.4484424206905
 30
0.0
 10
341.8798251710143
 20
224.4705580420455
 30
0.0
 10
341.9112569026498
 20
224.538551812242
 30
0.0
 10
341.9488920269046
 20
224.6031246674523
 30
0.0
 10
341.9901791604902
 20
224.5962448745243
 30
0.0
 10
342.0124848162767
 20
224.6338258267929
 30
0.0
 10
342.0360181735749
 20
224.6706361651824
 30
0.0
 10
342.0762831629367
 20
224.6823929487758
 30
0.0
 10
342.1001354095392
 20
224.7182752527819
 30
0.0
 10
342.1248290814751
 20
224.7535763737974
 30
0.0
 10
342.2140258879625
 20
224.8312779969106
 30
0.0
 10
342.2924028119717
 20
224.9266212953891
 30
0.0
 10
342.3780770012997
 20
225.0151858472067
 30
0.0
 10
342.517761323695
 20
225.035721554406
 30
0.0
 10
342.606284881626
 20
225.1148849716053
 30
0.0
 10
342.7003862756852
 20
225.18705291962
 30
0.0
 10
342.8745176175724
 20
225.2126422949626
 30
0.0
 10
342.9867722491587
 20
225.2857452665194
 30
0.0
 10
343.1036137749386
 20
225.3509489618501
 30
0.0
 10
343.305709684866
 20
225.3604828921153
 30
0.0
 10
343.422574128644
 20
225.4173810346662
 30
0.0
 10
343.5414710527603
 20
225.4697838206488
 30
0.0
 10
343.6731263279171
 20
225.4462653157925
 30
0.0
 10
343.7108810715236
 20
225.4618853203007
 30
0.0
 10
343.7487738817014
 20
225.4771651353589
 30
0.0
 10
343.8175078075519
 20
225.4819675192532
 30
0.0
 10
343.8554285231451
 20
225.4968380330128
 30
0.0
 10
343.8934363722698
 20
225.5114834116633
 30
0.0
 10
343.8934363722698
 20
225.5114834116633
 30
0.0
 10
344.2155744030838
 20
225.5685333948794
 30
0.0
 10
344.2155744030838
 20
225.5685333948794
 30
0.0
 10
344.3217646772338
 20
225.6074501663517
 30
0.0
 10
344.428057496674
 20
225.646086554883
 30
0.0
 10
344.5344517504698
 20
225.6844421567003
 30
0.0
 10
344.7280523589021
 20
225.6975427024294
 30
0.0
 10
344.8346441725168
 20
225.7350655783567
 30
0.0
 10
344.9414721093922
 20
225.7719073073505
 30
0.0
 10
344.9414721093922
 20
225.7719073073505
 30
0.0
 10
345.4370500174956
 20
225.8303990992657
 30
0.0
 10
345.4370500174956
 20
225.8303990992657
 30
0.0
 10
345.5788265944067
 20
225.8754872943979
 30
0.0
 10
345.7212990321253
 20
225.9183574407896
 30
0.0
 10
345.8644151602956
 20
225.9589938401536
 30
0.0
 10
346.1236999562061
 20
225.9693407848923
 30
0.0
 10
346.2670752915632
 20
226.0067038601722
 30
0.0
 10
346.4109667486084
 20
226.0419948636611
 30
0.0
 10
346.707417782609
 20
226.0591719992119
 30
0.0
 10
346.8871217496497
 20
226.0993006177769
 30
0.0
 10
347.0673535236782
 20
226.1369450687673
 30
0.0
 10
347.3944975041307
 20
226.1457637704479
 30
0.0
 10
347.5747089192324
 20
226.1809290931288
 30
0.0
 10
347.7551352153718
 20
226.2149650279083
 30
0.0
 10
347.9932450848141
 20
226.2082780270368
 30
0.0
 10
348.0835016453411
 20
226.2248428963613
 30
0.0
 10
348.1737866766017
 20
226.2412514951892
 30
0.0
 10
348.3381952850696
 20
226.2467894907523
 30
0.0
 10
348.4284656779815
 20
226.2631250446911
 30
0.0
 10
348.5187338081073
 20
226.2794730935757
 30
0.0
 10
348.5187338081073
 20
226.2794730935757
 30
0.0
 10
350.0680384983023
 20
226.4336440892245
 30
0.0
 10
350.0680384983023
 20
226.4336440892245
 30
0.0
 10
350.0680384983023
 20
226.4336440892245
 30
0.0
 10
350.8057143627332
 20
226.5125671634861
 30
0.0
 10
350.8057143627332
 20
226.5125671634861
 30
0.0
 10
350.8057143627332
 20
226.5125671634861
 30
0.0
 10
351.5441745923808
 20
226.586225065308
 30
0.0
 10
351.5441745923808
 20
226.586225065308
 30
0.0
 10
351.6439907061368
 20
226.6016290011329
 30
0.0
 10
351.7438555271175
 20
226.6167156457337
 30
0.0
 10
351.8437675421185
 20
226.6314847705439
 30
0.0
 10
352.025672491133
 20
226.6361446655114
 30
0.0
 10
352.1256001450968
 20
226.6504884432685
 30
0.0
 10
352.2255634457984
 20
226.664580503948
 30
0.0
 10
352.2255634457984
 20
226.664580503948
 30
0.0
 10
353.0720826135407
 20
226.7184777162832
 30
0.0
 10
353.0720826135407
 20
226.7184777162832
 30
0.0
 10
353.0720826135407
 20
226.7184777162832
 30
0.0
 10
354.60220651323
 20
226.8376547721284
 30
0.0
 10
354.60220651323
 20
226.8376547721284
 30
0.0
 10
354.60220651323
 20
226.8376547721284
 30
0.0
 10
356.7756207212706
 20
227.0052745766514
 30
0.0
 10
356.7756207212706
 20
227.0052745766514
 30
0.0
 10
356.7756207212706
 20
227.0052745766514
 30
0.0
 10
358.2143610245063
 20
227.1059102017797
 30
0.0
 10
358.2143610245063
 20
227.1059102017797
 30
0.0
  0
SPLINE
  5
B2
330
70
100
AcDbEntity
  8
shade
 62
     6
420
 16711935
370
    25
100
AcDbSpline
210
0.0
220
0.0
230
1.0
 70
     8
 71
     3
 72
   185
 73
   181
 74
     0
 42
0.0000000001
 43
0.0000000001
 40
0.0
 40
0.0
 40
0.0
 40
0.0
 40
1.0
 40
1.0
 40
1.0
 40
2.0
 40
2.0
 40
2.0
 40
3.0
 40
3.0
 40
3.0
 40
4.0
 40
4.0
 40
4.0
 40
5.0
 40
5.0
 40
5.0
 40
6.0
 40
6.0
 40
6.0
 40
7.0
 40
7.0
 40
7.0
 40
8.0
 40
8.0
 40
8.0
 40
9.0
 40
9.0
 40
9.0
 40
10.0
 40
10.0
 40
10.0
 40
11.0
 40
11.0
 40
11.0
 40
12.0
 40
12.0
 40
12.0
 40
13.0
 40
13.0
 40
13.0
 40
14.0
 40
14.0
 40
14.0
 40
15.0
 40
15.0
 40
15.0
 40
16.0
 40
16.0
 40
16.0
 40
17.0
 40
17.0
 40
17.0
 40
18.0
 40
18.0
 40
18.0
 40
19.0
 40
19.0
 40
19.0
 40
20.0
 40
20.0
 40
20.0
 40
21.0
 40
21.0
 40
21.0
 40
22.0
 40
22.0
 40
22.0
 40
23.0
 40
23.0
 40
23.0
 40
24.0
 40
24.0
 40
24.0
 40
25.0
 40
25.0
 40
25.0
 40
26.0
 40
26.0
 40
26.0
 40
27.0
 40
27.0
 40
27.0
 40
28.0
 40
28.0
 40
28.0
 40
29.0
 40
29.0
 40
29.0
 40
30.0
 40
30.0
 40
30.0
 40
31.0
 40
31.0
 40
31.0
 40
32.0
 40
32.0
 40
32.0
 40
33.0
 40
33.0
 40
33.0
 40
34.0
 40
34.0
 40
34.0
 40
35.0
 40
35.0
 40
35.0
 40
36.0
 40
36.0
 40
36.0
 40
37.0
 40
37.0
 40
37.0
 40
38.0
 40
38.0
 40
38.0
 40
39.0
 40
39.0
 40
39.0
 40
40.0
 40
40.0
 40
40.0
 40
41.0
 40
41.0
 40
41.0
 40
42.0
 40
42.0
 40
42.0
 40
43.0
 40
43.0
 40
43.0
 40
44.0
 40
44.0
 40
44.0
 40
45.0
 40
45.0
 40
45.0
 40
46.0
 40
46.0
 40
46.0
 40
47.0
 40
47.0
 40
47.0
 40
48.0
 40
48.0
 40
48.0
 40
49.0
 40
49.0
 40
49.0
 40
50.0
 40
50.0
 40
50.0
 40
51.0
 40
51.0
 40
51.0
 40
52.0
 40
52.0
 40
52.0
 40
53.0
 40
53.0
 40
53.0
 40
54.0
 40
54.0
 40
54.0
 40
55.0
 40
55.0
 40
55.0
 40
56.0
 40
56.0
 40
56.0
 40
57.0
 40
57.0
 40
57.0
 40
58.0
 40
58.0
 40
58.0
 40
59.0
 40
59.0
 40
59.0
 40
60.0
 40
60.0
 40
60.0
 40
60.0
 10
359.4827730109222
 20
226.7848628154315
 30
0.0
 10
359.6312085565049
 20
226.7575664943537
 30
0.0
 10
359.779507581197
 20
226.7295329307166
 30
0.0
 10
359.9276645950464
 20
226.7007631624732
 30
0.0
 10
360.1978390866297
 20
226.6891955736543
 30
0.0
 10
360.3462877607118
 20
226.6612284672375
 30
0.0
 10
360.4949565863157
 20
226.6344704210877
 30
0.0
 10
360.7562155096385
 20
226.6287842099799
 30
0.0
 10
360.8955455098995
 20
226.6034121549232
 30
0.0
 10
361.0347131614175
 20
226.5771716397456
 30
0.0
 10
361.2882878715377
 20
226.5663084193225
 30
0.0
 10
361.4246676248449
 20
226.5275733671713
 30
0.0
 10
361.556907225427
 20
226.4772100932932
 30
0.0
 10
361.7383080343005
 20
226.4652968197335
 30
0.0
 10
361.8044929334732
 20
226.4325004819562
 30
0.0
 10
361.8686868413265
 20
226.3960775527421
 30
0.0
 10
361.9889606185599
 20
226.3763939600905
 30
0.0
 10
362.0481018343566
 20
226.3294463841849
 30
0.0
 10
362.1001224735816
 20
226.2751902300213
 30
0.0
 10
362.1746471024118
 20
226.2755064776237
 30
0.0
 10
362.1948971691881
 20
226.2497540836745
 30
0.0
 10
362.2130802754286
 20
226.2225611539515
 30
0.0
 10
362.25015566196
 20
226.2099188008993
 30
0.0
 10
362.2665546022721
 20
226.1801617674675
 30
0.0
 10
362.2801873833831
 20
226.1491149794693
 30
0.0
 10
362.3071872649032
 20
226.1421206886091
 30
0.0
 10
362.3168037642413
 20
226.1162783344956
 30
0.0
 10
362.3244456383101
 20
226.0898251269367
 30
0.0
 10
362.3422620674761
 20
226.079115748958
 30
0.0
 10
362.3461411972705
 20
226.0511282203506
 30
0.0
 10
362.345341175968
 20
226.023077974422
 30
0.0
 10
362.3533501561821
 20
226.006623523468
 30
0.0
 10
362.3444272595774
 20
225.9736628234196
 30
0.0
 10
362.3265147519335
 20
225.9454813542578
 30
0.0
 10
362.3133430929807
 20
225.9365965162032
 30
0.0
 10
362.2962675109456
 20
225.9091579475419
 30
0.0
 10
362.2765166020839
 20
225.8836853784321
 30
0.0
 10
362.190720888841
 20
225.8030095036213
 30
0.0
 10
362.1023567060935
 20
225.7151710563753
 30
0.0
 10
362.0027013198395
 20
225.6414868967463
 30
0.0
 10
361.848660139612
 20
225.6362998501081
 30
0.0
 10
361.7516210664923
 20
225.5724574437587
 30
0.0
 10
361.6518233193847
 20
225.5131378284542
 30
0.0
 10
361.4323887842612
 20
225.4746738863444
 30
0.0
 10
361.2883647688613
 20
225.3952607705282
 30
0.0
 10
361.1427466140466
 20
225.3188477980781
 30
0.0
 10
360.8809379477933
 20
225.2971483383341
 30
0.0
 10
360.7348917064552
 20
225.2245963649219
 30
0.0
 10
360.5877454986301
 20
225.1543248782642
 30
0.0
 10
360.3217999577057
 20
225.1334008130147
 30
0.0
 10
360.1739942564901
 20
225.066144566453
 30
0.0
 10
360.0253346463031
 20
225.0008144136266
 30
0.0
 10
359.7563590084567
 20
224.9811326038363
 30
0.0
 10
359.6075774434051
 20
224.9180131821608
 30
0.0
 10
359.4583058605132
 20
224.8560680409937
 30
0.0
 10
359.0917005682352
 20
224.7968550270126
 30
0.0
 10
358.8462461576661
 20
224.6978315749515
 30
0.0
 10
358.6001317845707
 20
224.6004681761898
 30
0.0
 10
358.1531907383647
 20
224.5689429699624
 30
0.0
 10
357.9072267677432
 20
224.4728383831238
 30
0.0
 10
357.661124455219
 20
224.3770889939058
 30
0.0
 10
357.0214570365544
 20
224.2693226989821
 30
0.0
 10
356.5832514250711
 20
224.1006856364972
 30
0.0
 10
356.1445306608454
 20
223.9333964656451
 30
0.0
 10
355.3464102330924
 20
223.8764817226253
 30
0.0
 10
354.9077468058963
 20
223.7103673346325
 30
0.0
 10
354.46891767111
 20
223.544691528428
 30
0.0
 10
354.46891767111
 20
223.544691528428
 30
0.0
 10
352.6441179577771
 20
223.3107238818739
 30
0.0
 10
352.6441179577771
 20
223.3107238818739
 30
0.0
 10
352.6441179577771
 20
223.3107238818739
 30
0.0
 10
351.182360513605
 20
222.9611898035904
 30
0.0
 10
351.182360513605
 20
222.9611898035904
 30
0.0
 10
351.182360513605
 20
222.9611898035904
 30
0.0
 10
350.4539670528881
 20
222.7806385219119
 30
0.0
 10
350.4539670528881
 20
222.7806385219119
 30
0.0
 10
350.4539670528881
 20
222.7806385219119
 30
0.0
 10
349.7280061507711
 20
222.594774150661
 30
0.0
 10
349.7280061507711
 20
222.594774150661
 30
0.0
 10
349.7280061507711
 20
222.594774150661
 30
0.0
 10
349.0050595956616
 20
222.4025039939183
 30
0.0
 10
349.0050595956616
 20
222.4025039939183
 30
0.0
 10
349.0050595956616
 20
222.4025039939183
 30
0.0
 10
348.2857091757517
 20
222.2027353558384
 30
0.0
 10
348.2857091757517
 20
222.2027353558384
 30
0.0
 10
348.2857091757517
 20
222.2027353558384
 30
0.0
 10
347.4333084532509
 20
221.9535764497828
 30
0.0
 10
347.4333084532509
 20
221.9535764497828
 30
0.0
 10
347.3221267105333
 20
221.8993802077766
 30
0.0
 10
347.2111867095089
 20
221.8446894385602
 30
0.0
 10
347.1004917460151
 20
221.7895057669473
 30
0.0
 10
346.8983412578974
 20
221.7690071121988
 30
0.0
 10
346.7877855261171
 20
221.7130682851568
 30
0.0
 10
346.6774759252783
 20
221.6566469463685
 30
0.0
 10
346.6774759252783
 20
221.6566469463685
 30
0.0
 10
345.7446921467864
 20
221.4194602747226
 30
0.0
 10
345.7446921467864
 20
221.4194602747226
 30
0.0
 10
345.4738037132405
 20
221.2734492098821
 30
0.0
 10
345.2043658355225
 20
221.1247628449132
 30
0.0
 10
344.9364180367754
 20
220.9734229901167
 30
0.0
 10
344.4452954445021
 20
220.9147899621321
 30
0.0
 10
344.1789068622782
 20
220.7581983463847
 30
0.0
 10
343.9147713166446
 20
220.5978652944985
 30
0.0
 10
343.4580663176622
 20
220.5517604361462
 30
0.0
 10
343.2243136019342
 20
220.4033596672649
 30
0.0
 10
342.9929698249431
 20
220.2512628373543
 30
0.0
 10
342.5667141613616
 20
220.1903945108445
 30
0.0
 10
342.3377654680403
 20
220.0312211263436
 30
0.0
 10
342.112351944342
 20
219.8671354733394
 30
0.0
 10
341.8083866341294
 20
219.8833101155836
 30
0.0
 10
341.6962398085208
 20
219.7987467844152
 30
0.0
 10
341.5851140133992
 20
219.7128542901322
 30
0.0
 10
341.3806068530449
 20
219.6798917477524
 30
0.0
 10
341.2702218574048
 20
219.5917685592088
 30
0.0
 10
341.1610333547281
 20
219.5021771481008
 30
0.0
 10
341.0328543301777
 20
219.5279332553627
 30
0.0
 10
340.9964597139069
 20
219.4976507774857
 30
0.0
 10
340.9602058936997
 20
219.467200275801
 30
0.0
 10
340.893874035154
 20
219.4560800094538
 30
0.0
 10
340.85770687474
 20
219.4253629867104
 30
0.0
 10
340.8216875602696
 20
219.3944731484956
 30
0.0
 10
340.6199963120246
 20
219.2665954460099
 30
0.0
 10
340.4517528999827
 20
219.1148641415829
 30
0.0
 10
340.2872693448222
 20
218.959113537931
 30
0.0
 10
339.9801013150645
 20
218.8962215992503
 30
0.0
 10
339.8178838375746
 20
218.7342314766085
 30
0.0
 10
339.6596137184345
 20
218.5684279214605
 30
0.0
 10
339.3686069938155
 20
218.5078502547176
 30
0.0
 10
339.2174714500796
 20
218.3420731585818
 30
0.0
 10
339.0699549374819
 20
218.1731020716175
 30
0.0
 10
338.7939073880856
 20
218.1070600881592
 30
0.0
 10
338.6481757319383
 20
217.9334187089132
 30
0.0
 10
338.5058157768589
 20
217.7570292875246
 30
0.0
 10
338.3199686678747
 20
217.7886436693123
 30
0.0
 10
338.2573076452735
 20
217.7095016717866
 30
0.0
 10
338.1954300760205
 20
217.6297487255539
 30
0.0
 10
338.0811045794703
 20
217.6002986174082
 30
0.0
 10
338.0202073542234
 20
217.5191981337149
 30
0.0
 10
337.960644410453
 20
217.4371210403185
 30
0.0
 10
337.8088520482447
 20
217.3503859108567
 30
0.0
 10
337.7129832470303
 20
217.2085577966281
 30
0.0
 10
337.6221074883051
 20
217.0635402462349
 30
0.0
 10
337.4465481846128
 20
217.0058437939529
 30
0.0
 10
337.3611902564376
 20
216.8543320304723
 30
0.0
 10
337.2837077367667
 20
216.6987715550421
 30
0.0
 10
337.0780297908514
 20
216.5395332969278
 30
0.0
 10
336.971156708904
 20
216.2748261727273
 30
0.0
 10
336.888144468238
 20
216.0022721670234
 30
0.0
 10
336.6899013106567
 20
215.8865845684603
 30
0.0
 10
336.6290247082532
 20
215.5986448367098
 30
0.0
 10
336.6008797496049
 20
215.3066168358416
 30
0.0
 10
336.4961389277841
 20
215.272894177019
 30
0.0
 10
336.4869924019061
 20
215.0589388405116
 30
0.0
 10
336.4983094577535
 20
214.845577005407
 30
0.0
 10
336.4769084911592
 20
214.7663286475701
 30
0.0
 10
336.5019766441649
 20
214.5523865829906
 30
0.0
 10
336.5490463603792
 20
214.3427842923538
 30
0.0
 10
336.5864348423957
 20
214.283531736192
 30
0.0
 10
336.6383334388569
 20
214.0902108115994
 30
0.0
 10
336.7063474002113
 20
213.9023383936401
 30
0.0
 10
336.7960210465132
 20
213.8421561720209
 30
0.0
 10
336.8698131337481
 20
213.6602711235887
 30
0.0
 10
336.9559712594647
 20
213.484171406462
 30
0.0
 10
337.1626807913016
 20
213.2657138890132
 30
0.0
 10
337.3612479865252
 20
212.9484545511198
 30
0.0
 10
337.5968944338246
 20
212.659548054403
 30
0.0
 10
337.9421895502694
 20
212.5965474669204
 30
0.0
 10
338.1887152006658
 20
212.3415583317962
 30
0.0
 10
338.4598091274254
 20
212.1143674974365
 30
0.0
 10
338.714148025082
 20
212.2288512804022
 30
0.0
 10
338.7924447963585
 20
212.1669855902157
 30
0.0
 10
338.8722109133279
 20
212.1070508663277
 30
0.0
 10
339.014358793784
 20
212.089227963793
 30
0.0
 10
339.0943372565472
 20
212.0314887922814
 30
0.0
 10
339.1751605031957
 20
211.9749477030854
 30
0.0
 10
339.1751605031957
 20
211.9749477030854
 30
0.0
 10
340.0693425006522
 20
211.6719982900092
 30
0.0
 10
340.0693425006522
 20
211.6719982900092
 30
0.0
 10
340.0693425006522
 20
211.6719982900092
 30
0.0
 10
340.8330726035893
 20
211.3504790859536
 30
0.0
 10
340.8330726035893
 20
211.3504790859536
 30
0.0
  0
SPLINE
  5
B3
330
70
100
AcDbEntity
  8
shade
 62
     6
420
 16711935
370
    25
100
AcDbSpline
210
0.0
220
0.0
230
1.0
 70
     8
 71
     3
 72
   125
 73
   121
 74
     0
 42
0.0000000001
 43
0.0000000001
 40
0.0
 40
0.0
 40
0.0
 40
0.0
 40
1.0
 40
1.0
 40
1.0
 40
2.0
 40
2.0
 40
2.0
 40
3.0
 40
3.0
 40
3.0
 40
4.0
 40
4.0
 40
4.0
 40
5.0
 40
5.0
 40
5.0
 40
6.0
 40
6.0
 40
6.0
 40
7.0
 40
7.0
 40
7.0
 40
8.0
 40
8.0
 40
8.0
 40
9.0
 40
9.0
 40
9.0
 40
10.0
 40
10.0
 40
10.0
 40
11.0
 40
11.0
 40
11.0
 40
12.0
 40
12.0
 40
12.0
 40
13.0
 40
13.0
 40
13.0
 40
14.0
 40
14.0
 40
14.0
 40
15.0
 40
15.0
 40
15.0
 40
16.0
 40
16.0
 40
16.0
 40
17.0
 40
17.0
 40
17.0
 40
18.0
 40
18.0
 40
18.0
 40
19.0
 40
19.0
 40
19.0
 40
20.0
 40
20.0
 40
20.0
 40
21.0
 40
21.0
 40
21.0
 40
22.0
 40
22.0
 40
22.0
 40
23.0
 40
23.0
 40
23.0
 40
24.0
 40
24.0
 40
24.0
 40
25.0
 40
25.0
 40
25.0
 40
26.0
 40
26.0
 40
26.0
 40
27.0
 40
27.0
 40
27.0
 40
28.0
 40
28.0
 40
28.0
 40
29.0
 40
29.0
 40
29.0
 40
30.0
 40
30.0
 40
30.0
 40
31.0
 40
31.0
 40
31.0
 40
32.0
 40
32.0
 40
32.0
 40
33.0
 40
33.0
 40
33.0
 40
34.0
 40
34.0
 40
34.0
 40
35.0
 40
35.0
 40
35.0
 40
36.0
 40
36.0
 40
36.0
 40
37.0
 40
37.0
 40
37.0
 40
38.0
 40
38.0
 40
38.0
 40
39.0
 40
39.0
 40
39.0
 40
40.0
 40
40.0
 40
40.0
 40
40.0
 10
362.3508471619556
 20
226.0144614953392
 30
0.0
 10
362.3557266987308
 20
225.9617192530703
 30
0.0
 10
362.3381056108596
 20
225.9093690299484
 30
0.0
 10
362.3023265891741
 20
225.8703124606345
 30
0.0
 10
362.2771989618471
 20
225.8582029537237
 30
0.0
 10
362.2459793429852
 20
225.8181473842096
 30
0.0
 10
362.2123581991973
 20
225.7801509109532
 30
0.0
 10
362.1189408455759
 20
225.7274011427449
 30
0.0
 10
362.0399657518999
 20
225.6561113856176
 30
0.0
 10
361.95355954962
 20
225.5946496233262
 30
0.0
 10
361.8139383836702
 20
225.5882985651612
 30
0.0
 10
361.7292084476608
 20
225.5340300668097
 30
0.0
 10
361.6426287571026
 20
225.4828267242987
 30
0.0
 10
361.2898027363586
 20
225.3548368487146
 30
0.0
 10
360.9985943323294
 20
225.2010764157265
 30
0.0
 10
360.7017573132411
 20
225.0587705180745
 30
0.0
 10
360.1737340780752
 20
225.0286891518584
 30
0.0
 10
359.877090870989
 20
224.8977730636693
 30
0.0
 10
359.5781305988795
 20
224.7723082126345
 30
0.0
 10
359.0917005682352
 20
224.7595241282323
 30
0.0
 10
358.8462461576661
 20
224.6605006761698
 30
0.0
 10
358.6001317845707
 20
224.5631372774081
 30
0.0
 10
358.1531907383647
 20
224.5316120711804
 30
0.0
 10
357.9072267677432
 20
224.4355074843427
 30
0.0
 10
357.661124455219
 20
224.3397580951247
 30
0.0
 10
357.0214570365544
 20
224.2319918002004
 30
0.0
 10
356.5832514250711
 20
224.0633547377162
 30
0.0
 10
356.1445306608454
 20
223.8960655668275
 30
0.0
 10
355.3464102330924
 20
223.8391508238442
 30
0.0
 10
354.9077468059335
 20
223.6730364358142
 30
0.0
 10
354.46891767111
 20
223.5073606295726
 30
0.0
 10
354.46891767111
 20
223.5073606295726
 30
0.0
 10
352.6441179577771
 20
223.2733929830923
 30
0.0
 10
352.6441179577771
 20
223.2733929830923
 30
0.0
 10
352.6441179577771
 20
223.2733929830923
 30
0.0
 10
351.182360513605
 20
222.9238589047721
 30
0.0
 10
351.182360513605
 20
222.9238589047721
 30
0.0
 10
351.182360513605
 20
222.9238589047721
 30
0.0
 10
350.4539670528881
 20
222.7433076231302
 30
0.0
 10
350.4539670528881
 20
222.7433076231302
 30
0.0
 10
350.4539670528881
 20
222.7433076231302
 30
0.0
 10
349.7280061507711
 20
222.55744325188
 30
0.0
 10
349.7280061507711
 20
222.55744325188
 30
0.0
 10
349.7280061507711
 20
222.55744325188
 30
0.0
 10
349.0050595956616
 20
222.3651730951379
 30
0.0
 10
349.0050595956616
 20
222.3651730951379
 30
0.0
 10
349.0050595956616
 20
222.3651730951379
 30
0.0
 10
348.2857091757517
 20
222.1654044569836
 30
0.0
 10
348.2857091757517
 20
222.1654044569836
 30
0.0
 10
348.2857091757517
 20
222.1654044569836
 30
0.0
 10
347.4333084532509
 20
221.9162455510024
 30
0.0
 10
347.4333084532509
 20
221.9162455510024
 30
0.0
 10
347.3221267105333
 20
221.8620493089584
 30
0.0
 10
347.2111867095089
 20
221.8073585397791
 30
0.0
 10
347.1004917460151
 20
221.7521748681662
 30
0.0
 10
346.8983412578974
 20
221.7316762134171
 30
0.0
 10
346.7877855261171
 20
221.6757373863392
 30
0.0
 10
346.6774759252783
 20
221.6193160475874
 30
0.0
 10
346.6774759252783
 20
221.6193160475874
 30
0.0
 10
345.7446921467864
 20
221.3821293759037
 30
0.0
 10
345.7446921467864
 20
221.3821293759037
 30
0.0
 10
345.4738037132405
 20
221.236118311101
 30
0.0
 10
345.2043658355225
 20
221.0874319460584
 30
0.0
 10
344.9364180367754
 20
220.9360920912985
 30
0.0
 10
344.4452954445021
 20
220.8774590633504
 30
0.0
 10
344.1789068622782
 20
220.7208674475665
 30
0.0
 10
343.9147713166446
 20
220.5605343957174
 30
0.0
 10
343.4580663176622
 20
220.5144295373645
 30
0.0
 10
343.2243136019342
 20
220.3660287684833
 30
0.0
 10
342.9929698249431
 20
220.213931938536
 30
0.0
 10
342.5667141613616
 20
220.1530636120263
 30
0.0
 10
342.3377654680403
 20
219.9938902275626
 30
0.0
 10
342.112351944342
 20
219.829804574559
 30
0.0
 10
341.8083866341294
 20
219.8459792168026
 30
0.0
 10
341.6962398085208
 20
219.7614158856335
 30
0.0
 10
341.5851140133992
 20
219.6755233913512
 30
0.0
 10
341.3806068530449
 20
219.6425608489708
 30
0.0
 10
341.2702218574048
 20
219.5544376604284
 30
0.0
 10
341.1610333547281
 20
219.4648462493192
 30
0.0
 10
341.0328543301777
 20
219.4906023565445
 30
0.0
 10
340.9964597139069
 20
219.4603198787047
 30
0.0
 10
340.9602058936997
 20
219.4298693769828
 30
0.0
 10
340.893874035154
 20
219.4187491106365
 30
0.0
 10
340.85770687474
 20
219.3880320879293
 30
0.0
 10
340.8216875602696
 20
219.3571422497152
 30
0.0
 10
340.6199963120246
 20
219.2292645472289
 30
0.0
 10
340.4517528999455
 20
219.0775332428019
 30
0.0
 10
340.2872693447857
 20
218.9217826390756
 30
0.0
 10
339.9801013150274
 20
218.8588907004321
 30
0.0
 10
339.8178838375746
 20
218.6969005777906
 30
0.0
 10
339.6596137184345
 20
218.5310970226788
 30
0.0
 10
339.430448528613
 20
218.535487309942
 30
0.0
 10
339.3389181613954
 20
218.4367789821724
 30
0.0
 10
339.2486889417394
 20
218.3368876221242
 30
0.0
 10
339.0816650178048
 20
218.2992111165589
 30
0.0
 10
338.9921178417411
 20
218.1975513796011
 30
0.0
 10
338.9038208415699
 20
218.094810575462
 30
0.0
 10
338.7265059784162
 20
218.0401291290032
 30
0.0
 10
338.6252805848992
 20
217.9193067356843
 30
0.0
 10
338.5255893183335
 20
217.7972235229171
 30
0.0
 10
338.3408516964485
 20
217.7515260973488
 30
0.0
 10
338.2427509784973
 20
217.6269306957076
 30
0.0
 10
338.1469323659271
 20
217.5005881908607
 30
0.0
 10
337.913779476496
 20
217.3814298753528
 30
0.0
 10
337.7723577047729
 20
217.1761867730196
 30
0.0
 10
337.6407057747649
 20
216.964702857893
 30
0.0
 10
337.381579113004
 20
216.8773198803136
 30
0.0
 10
337.2632540678626
 20
216.6518813163502
 30
0.0
 10
337.1631787205897
 20
216.4181977611155
 30
0.0
 10
336.9939858063629
 20
216.4259877974065
 30
0.0
 10
336.9414519790563
 20
216.2931329753045
 30
0.0
 10
336.8949358099666
 20
216.1581291044016
 30
0.0
 10
336.7980144732121
 20
216.1056347879032
 30
0.0
 10
336.7558399736081
 20
215.9668571728654
 30
0.0
 10
336.7206620226427
 20
215.826236178879
 30
0.0
 10
336.6302936386972
 20
215.7271263714449
 30
0.0
 10
336.593577451981
 20
215.536838474139
 30
0.0
 10
336.5705981342164
 20
215.3446576658815
 30
0.0
 10
336.5008383552122
 20
215.2707640134574
 30
0.0
 10
336.4895381508596
 20
215.074584692831
 30
0.0
 10
336.4957672024593
 20
214.8785699038636
 30
0.0
  0
SPLINE
  5
B4
330
70
100
AcDbEntity
  8
shade
 62
     6
420
 16711935
370
    25
100
AcDbSpline
210
0.0
220
0.0
230
1.0
 70
     8
 71
     3
 72
   167
 73
   163
 74
     0
 42
0.0000000001
 43
0.0000000001
 40
0.0
 40
0.0
 40
0.0
 40
0.0
 40
1.0
 40
1.0
 40
1.0
 40
2.0
 40
2.0
 40
2.0
 40
3.0
 40
3.0
 40
3.0
 40
4.0
 40
4.0
 40
4.0
 40
5.0
 40
5.0
 40
5.0
 40
6.0
 40
6.0
 40
6.0
 40
7.0
 40
7.0
 40
7.0
 40
8.0
 40
8.0
 40
8.0
 40
9.0
 40
9.0
 40
9.0
 40
10.0
 40
10.0
 40
10.0
 40
11.0
 40
11.0
 40
11.0
 40
12.0
 40
12.0
 40
12.0
 40
13.0
 40
13.0
 40
13.0
 40
14.0
 40
14.0
 40
14.0
 40
15.0
 40
15.0
 40
15.0
 40
16.0
 40
16.0
 40
16.0
 40
17.0
 40
17.0
 40
17.0
 40
18.0
 40
18.0
 40
18.0
 40
19.0
 40
19.0
 40
19.0
 40
20.0
 40
20.0
 40
20.0
 40
21.0
 40
21.0
 40
21.0
 40
22.0
 40
22.0
 40
22.0
 40
23.0
 40
23.0
 40
23.0
 40
24.0
 40
24.0
 40
24.0
 40
25.0
 40
25.0
 40
25.0
 40
26.0
 40
26.0
 40
26.0
 40
27.0
 40
27.0
 40
27.0
 40
28.0
 40
28.0
 40
28.0
 40
29.0
 40
29.0
 40
29.0
 40
30.0
 40
30.0
 40
30.0
 40
31.0
 40
31.0
 40
31.0
 40
32.0
 40
32.0
 40
32.0
 40
33.0
 40
33.0
 40
33.0
 40
34.0
 40
34.0
 40
34.0
 40
35.0
 40
35.0
 40
35.0
 40
36.0
 40
36.0
 40
36.0
 40
37.0
 40
37.0
 40
37.0
 40
38.0
 40
38.0
 40
38.0
 40
39.0
 40
39.0
 40
39.0
 40
40.0
 40
40.0
 40
40.0
 40
41.0
 40
41.0
 40
41.0
 40
42.0
 40
42.0
 40
42.0
 40
43.0
 40
43.0
 40
43.0
 40
44.0
 40
44.0
 40
44.0
 40
45.0
 40
45.0
 40
45.0
 40
46.0
 40
46.0
 40
46.0
 40
47.0
 40
47.0
 40
47.0
 40
48.0
 40
48.0
 40
48.0
 40
49.0
 40
49.0
 40
49.0
 40
50.0
 40
50.0
 40
50.0
 40
51.0
 40
51.0
 40
51.0
 40
52.0
 40
52.0
 40
52.0
 40
53.0
 40
53.0
 40
53.0
 40
54.0
 40
54.0
 40
54.0
 40
54.0
 10
362.3124776391544
 20
225.9194324425737
 30
0.0
 10
362.3978987203498
 20
225.88404067102
 30
0.0
 10
362.4843541078625
 20
225.8511987805314
 30
0.0
 10
362.5717290058203
 20
225.8209503787834
 30
0.0
 10
362.728809613164
 20
225.814900021207
 30
0.0
 10
362.8159544690915
 20
225.7866564916246
 30
0.0
 10
362.9032970949919
 20
225.7590344736604
 30
0.0
 10
362.9032970949919
 20
225.7590344736604
 30
0.0
 10
363.5886690259308
 20
225.6554476485772
 30
0.0
 10
363.5886690259308
 20
225.6554476485772
 30
0.0
 10
363.5886690259308
 20
225.6554476485772
 30
0.0
 10
364.2003255733006
 20
225.5244679926209
 30
0.0
 10
364.2003255733006
 20
225.5244679926209
 30
0.0
 10
364.3788062456451
 20
225.4599212267866
 30
0.0
 10
364.5555097314988
 20
225.3905622357102
 30
0.0
 10
364.7302424720229
 20
225.3164669943151
 30
0.0
 10
365.0519983482349
 20
225.2814700545116
 30
0.0
 10
365.220232618067
 20
225.1898584780882
 30
0.0
 10
365.3796348835054
 20
225.0842657655343
 30
0.0
 10
365.6454772547912
 20
225.047296478785
 30
0.0
 10
365.7592795399665
 20
224.9491582440358
 30
0.0
 10
365.8624874577189
 20
224.840445868632
 30
0.0
 10
366.0687879186272
 20
224.780895285142
 30
0.0
 10
366.1529357156995
 20
224.6475950326484
 30
0.0
 10
366.2107708113979
 20
224.5023702052585
 30
0.0
 10
366.3436256772099
 20
224.4629774316042
 30
0.0
 10
366.3730571431158
 20
224.3444943482779
 30
0.0
 10
366.3830110046841
 20
224.2236071097002
 30
0.0
 10
366.4390284382609
 20
224.1692784519579
 30
0.0
 10
366.4340422512235
 20
224.0423002009542
 30
0.0
 10
366.4067782894746
 20
223.9192115621216
 30
0.0
 10
366.4070086544482
 20
223.9012782891995
 30
0.0
 10
366.3807538485393
 20
223.806925689178
 30
0.0
 10
366.3427265371094
 20
223.7171131239084
 30
0.0
 10
366.2987268112224
 20
223.6896229955782
 30
0.0
 10
366.2569709232642
 20
223.6042058122572
 30
0.0
 10
366.2068837502701
 20
223.5236803818624
 30
0.0
 10
366.1595154115432
 20
223.5454757592739
 30
0.0
 10
366.1377627325185
 20
223.5109818366689
 30
0.0
 10
366.1149345563554
 20
223.4772023949039
 30
0.0
 10
366.0756309477311
 20
223.4664338605039
 30
0.0
 10
366.0526993537355
 20
223.4333964927655
 30
0.0
 10
366.0292002108034
 20
223.4007641022529
 30
0.0
 10
365.9025318295533
 20
223.2712971337986
 30
0.0
 10
365.7852293225393
 20
223.1269340757169
 30
0.0
 10
365.659566809721
 20
222.9900147691428
 30
0.0
 10
365.4489944949523
 20
222.953735871809
 30
0.0
 10
365.3218977433047
 20
222.8252233288469
 30
0.0
 10
365.1898313999707
 20
222.7019286195135
 30
0.0
 10
364.9593660117952
 20
222.6665916020575
 30
0.0
 10
364.8253455156083
 20
222.5491562877607
 30
0.0
 10
364.6879649009519
 20
222.4357303982369
 30
0.0
 10
364.4449419485374
 20
222.4025635234019
 30
0.0
 10
364.3080696317243
 20
222.2924337430644
 30
0.0
 10
364.1702182180895
 20
222.1835377053678
 30
0.0
 10
364.1702182180895
 20
222.1835377053678
 30
0.0
 10
363.0665494027286
 20
221.781740407949
 30
0.0
 10
363.0665494027286
 20
221.781740407949
 30
0.0
 10
363.0665494027286
 20
221.781740407949
 30
0.0
 10
362.0692413483603
 20
221.3200408635493
 30
0.0
 10
362.0692413483603
 20
221.3200408635493
 30
0.0
 10
362.0692413483603
 20
221.3200408635493
 30
0.0
 10
361.0672003126698
 20
220.8687249858811
 30
0.0
 10
361.0672003126698
 20
220.8687249858811
 30
0.0
 10
361.0672003126698
 20
220.8687249858811
 30
0.0
 10
360.0609697497469
 20
220.4262621105367
 30
0.0
 10
360.0609697497469
 20
220.4262621105367
 30
0.0
 10
359.9291367225931
 20
220.3331989045768
 30
0.0
 10
359.7971100758424
 20
220.2404102827287
 30
0.0
 10
359.6648906679665
 20
220.1478968484587
 30
0.0
 10
359.4244334892579
 20
220.1155593149643
 30
0.0
 10
359.2921311687795
 20
220.02343419684
 30
0.0
 10
359.1596632975055
 20
219.9315475146966
 30
0.0
 10
359.1596632975055
 20
219.9315475146966
 30
0.0
 10
358.0381138586541
 20
219.5617727098862
 30
0.0
 10
358.0381138586541
 20
219.5617727098862
 30
0.0
 10
358.0381138586541
 20
219.5617727098862
 30
0.0
 10
356.0050213080026
 20
218.7143273471848
 30
0.0
 10
356.0050213080026
 20
218.7143273471848
 30
0.0
 10
356.0050213080026
 20
218.7143273471848
 30
0.0
 10
352.1942465016785
 20
217.1432694459342
 30
0.0
 10
352.1942465016785
 20
217.1432694459342
 30
0.0
 10
352.1942465016785
 20
217.1432694459342
 30
0.0
 10
350.2868856011396
 20
216.3543576983065
 30
0.0
 10
350.2868856011396
 20
216.3543576983065
 30
0.0
 10
350.2868856011396
 20
216.3543576983065
 30
0.0
 10
348.3812639688045
 20
215.5580395912104
 30
0.0
 10
348.3812639688045
 20
215.5580395912104
 30
0.0
 10
348.3812639688045
 20
215.5580395912104
 30
0.0
 10
347.6574113465209
 20
215.2519357199133
 30
0.0
 10
347.6574113465209
 20
215.2519357199133
 30
0.0
 10
347.6574113465209
 20
215.2519357199133
 30
0.0
 10
346.9362543955184
 20
214.9419337298499
 30
0.0
 10
346.9362543955184
 20
214.9419337298499
 30
0.0
 10
346.9362543955184
 20
214.9419337298499
 30
0.0
 10
346.2199052083694
 20
214.6257672668409
 30
0.0
 10
346.2199052083694
 20
214.6257672668409
 30
0.0
 10
346.0334416588103
 20
214.490006657638
 30
0.0
 10
345.8481333325556
 20
214.3526664326258
 30
0.0
 10
345.6640002387041
 20
214.2137614215268
 30
0.0
 10
345.3261739273245
 20
214.1615527541787
 30
0.0
 10
345.1431496298679
 20
214.0196804056057
 30
0.0
 10
344.9617624800128
 20
213.8757329652848
 30
0.0
 10
344.537322367442
 20
213.7485047074493
 30
0.0
 10
344.2689117767242
 20
213.5257363727177
 30
0.0
 10
344.0050056123537
 20
213.2977023713714
 30
0.0
 10
343.5152176719687
 20
213.2068809949704
 30
0.0
 10
343.2556184833834
 20
212.9689226410744
 30
0.0
 10
343.0024338778297
 20
212.7242385855139
 30
0.0
 10
342.5660410513724
 20
212.6611966148442
 30
0.0
 10
342.3547976321139
 20
212.4422449670349
 30
0.0
 10
342.1508002275668
 20
212.2166341296476
 30
0.0
 10
341.7649158112894
 20
212.1239476433889
 30
0.0
 10
341.5734378550966
 20
211.8813165668775
 30
0.0
 10
341.3984947655133
 20
211.6269100082666
 30
0.0
 10
341.1540108536622
 20
211.6658734519304
 30
0.0
 10
341.0844141835545
 20
211.5536907179886
 30
0.0
 10
341.0206243803138
 20
211.4382038550398
 30
0.0
 10
340.8930301589391
 20
211.3907532515516
 30
0.0
 10
340.8405476468295
 20
211.2663927568443
 30
0.0
 10
340.8025628227859
 20
211.1373146486064
 30
0.0
 10
340.7189785716828
 20
211.1210355024497
 30
0.0
 10
340.6956502780866
 20
211.0278218673559
 30
0.0
 10
340.6790653853002
 20
210.9333001097196
 30
0.0
 10
340.6352103910559
 20
210.8961693051194
 30
0.0
 10
340.6216483076485
 20
210.7993575828705
 30
0.0
 10
340.6139863246499
 20
210.7019913339092
 30
0.0
 10
340.5910478813892
 20
210.6954789216114
 30
0.0
 10
340.5872352450126
 20
210.6270982053735
 30
0.0
 10
340.5866754186178
 20
210.5586522057114
 30
0.0
 10
340.5789438902435
 20
210.5339453209873
 30
0.0
 10
340.5827638674832
 20
210.4653562800784
 30
0.0
 10
340.5923100336002
 20
210.3974496236765
 30
0.0
 10
340.6045031180063
 20
210.309068556292
 30
0.0
 10
340.6456588109864
 20
210.1810207501881
 30
0.0
 10
340.711572887195
 20
210.0654158013052
 30
0.0
 10
340.7774827656361
 20
210.0329573390416
 30
0.0
 10
340.8423989779905
 20
209.9228773660381
 30
0.0
 10
340.9165430880077
 20
209.8190886962445
 30
0.0
 10
341.076980284111
 20
209.725516249568
 30
0.0
 10
341.207177345229
 20
209.5687223773818
 30
0.0
 10
341.35048524853
 20
209.4243782260072
 30
0.0
 10
341.5819346982583
 20
209.3928370418549
 30
0.0
 10
341.7281064227339
 20
209.2632550677413
 30
0.0
 10
341.8824102880838
 20
209.1438253894325
 30
0.0
 10
342.1618926538605
 20
209.1057953815788
 30
0.0
 10
342.3366733073548
 20
208.9887210487803
 30
0.0
 10
342.5180429197965
 20
208.8825184562557
 30
0.0
 10
342.8332536206087
 20
208.8636655754534
 30
0.0
 10
343.0148585448981
 20
208.769111563768
 30
0.0
 10
343.1995656450363
 20
208.6809123641414
 30
0.0
 10
343.4194833403017
 20
208.7117310619929
 30
0.0
 10
343.4934893542883
 20
208.6784098720073
 30
0.0
 10
343.5678411959291
 20
208.6458733103448
 30
0.0
 10
343.7025474251229
 20
208.6357552261802
 30
0.0
 10
343.7769645916881
 20
208.6041528215948
 30
0.0
 10
343.8515955523296
 20
208.5730611329247
 30
0.0
 10
343.8515955523296
 20
208.5730611329247
 30
0.0
 10
344.6715833747057
 20
208.4091693378054
 30
0.0
 10
344.6715833747057
 20
208.4091693378054
 30
0.0
 10
344.6715833747057
 20
208.4091693378054
 30
0.0
 10
345.4309117164103
 20
208.2354135997476
 30
0.0
 10
345.4309117164103
 20
208.2354135997476
 30
0.0
  0
SPLINE
  5
B5
330
70
100
AcDbEntity
  8
shade
 62
     6
420
 16711935
370
    25
100
AcDbSpline
210
0.0
220
0.0
230
1.0
 70
     8
 71
     3
 72
   107
 73
   103
 74
     0
 42
0.0000000001
 43
0.0000000001
 40
0.0
 40
0.0
 40
0.0
 40
0.0
 40
1.0
 40
1.0
 40
1.0
 40
2.0
 40
2.0
 40
2.0
 40
3.0
 40
3.0
 40
3.0
 40
4.0
 40
4.0
 40
4.0
 40
5.0
 40
5.0
 40
5.0
 40
6.0
 40
6.0
 40
6.0
 40
7.0
 40
7.0
 40
7.0
 40
8.0
 40
8.0
 40
8.0
 40
9.0
 40
9.0
 40
9.0
 40
10.0
 40
10.0
 40
10.0
 40
11.0
 40
11.0
 40
11.0
 40
12.0
 40
12.0
 40
12.0
 40
13.0
 40
13.0
 40
13.0
 40
14.0
 40
14.0
 40
14.0
 40
15.0
 40
15.0
 40
15.0
 40
16.0
 40
16.0
 40
16.0
 40
17.0
 40
17.0
 40
17.0
 40
18.0
 40
18.0
 40
18.0
 40
19.0
 40
19.0
 40
19.0
 40
20.0
 40
20.0
 40
20.0
 40
21.0
 40
21.0
 40
21.0
 40
22.0
 40
22.0
 40
22.0
 40
23.0
 40
23.0
 40
23.0
 40
24.0
 40
24.0
 40
24.0
 40
25.0
 40
25.0
 40
25.0
 40
26.0
 40
26.0
 40
26.0
 40
27.0
 40
27.0
 40
27.0
 40
28.0
 40
28.0
 40
28.0
 40
29.0
 40
29.0
 40
29.0
 40
30.0
 40
30.0
 40
30.0
 40
31.0
 40
31.0
 40
31.0
 40
32.0
 40
32.0
 40
32.0
 40
33.0
 40
33.0
 40
33.0
 40
34.0
 40
34.0
 40
34.0
 40
34.0
 10
366.4138029169688
 20
224.3333021289784
 30
0.0
 10
366.4461345182941
 20
224.1826304926066
 30
0.0
 10
366.4444103754346
 20
224.0266403091524
 30
0.0
 10
366.4087563646585
 20
223.8767201104765
 30
0.0
 10
366.4125626593488
 20
223.8161018914386
 30
0.0
 10
366.3613884799702
 20
223.6674740166007
 30
0.0
 10
366.2836003707242
 20
223.5325166662857
 30
0.0
 10
366.2387298314159
 20
223.573579361432
 30
0.0
 10
366.2078857501011
 20
223.5195967444415
 30
0.0
 10
366.1738279059267
 20
223.46765149398
 30
0.0
 10
366.1187126430127
 20
223.4524237819262
 30
0.0
 10
366.0846402993885
 20
223.402303193753
 30
0.0
 10
366.0491558003986
 20
223.3531875499906
 30
0.0
 10
365.9140656803968
 20
223.2350808423201
 30
0.0
 10
365.796763173347
 20
223.0907177842022
 30
0.0
 10
365.6711006605645
 20
222.9537984776636
 30
0.0
 10
365.4605283457593
 20
222.9175195803671
 30
0.0
 10
365.3334315941482
 20
222.7890070373312
 30
0.0
 10
365.2013652507763
 20
222.6657123279978
 30
0.0
 10
364.9708998625655
 20
222.6303753105787
 30
0.0
 10
364.8368793664518
 20
222.512939996245
 30
0.0
 10
364.699498751721
 20
222.399514106795
 30
0.0
 10
364.4564757993803
 20
222.3663472318872
 30
0.0
 10
364.3196034825306
 20
222.2562174515486
 30
0.0
 10
364.1817520688226
 20
222.1473214138893
 30
0.0
 10
364.1817520688226
 20
222.1473214138893
 30
0.0
 10
363.0780832534989
 20
221.7455241165067
 30
0.0
 10
363.0780832534989
 20
221.7455241165067
 30
0.0
 10
363.0780832534989
 20
221.7455241165067
 30
0.0
 10
362.0807751991666
 20
221.2838245720708
 30
0.0
 10
362.0807751991666
 20
221.2838245720708
 30
0.0
 10
362.0807751991666
 20
221.2838245720708
 30
0.0
 10
361.0787341634401
 20
220.8325086943654
 30
0.0
 10
361.0787341634401
 20
220.8325086943654
 30
0.0
 10
361.0787341634401
 20
220.8325086943654
 30
0.0
 10
360.0725036005154
 20
220.3900458190575
 30
0.0
 10
360.0725036005154
 20
220.3900458190575
 30
0.0
 10
359.9406705733628
 20
220.2969826130611
 30
0.0
 10
359.808643926612
 20
220.2041939912486
 30
0.0
 10
359.6764245187356
 20
220.1116805569802
 30
0.0
 10
359.4359673400642
 20
220.079343023523
 30
0.0
 10
359.3036650195492
 20
219.9872179053615
 30
0.0
 10
359.1711971482752
 20
219.8953312232181
 30
0.0
 10
359.1711971482752
 20
219.8953312232181
 30
0.0
 10
358.0496477094239
 20
219.5255564183705
 30
0.0
 10
358.0496477094239
 20
219.5255564183705
 30
0.0
 10
358.0496477094239
 20
219.5255564183705
 30
0.0
 10
356.0165551588096
 20
218.6781110557063
 30
0.0
 10
356.0165551588096
 20
218.6781110557063
 30
0.0
 10
356.0165551588096
 20
218.6781110557063
 30
0.0
 10
352.2057803524841
 20
217.1070531544919
 30
0.0
 10
352.2057803524841
 20
217.1070531544919
 30
0.0
 10
352.2057803524841
 20
217.1070531544919
 30
0.0
 10
350.2984194519459
 20
216.3181414068279
 30
0.0
 10
350.2984194519459
 20
216.3181414068279
 30
0.0
 10
350.2984194519459
 20
216.3181414068279
 30
0.0
 10
348.3927978195743
 20
215.5218232997319
 30
0.0
 10
348.3927978195743
 20
215.5218232997319
 30
0.0
 10
348.3927978195743
 20
215.5218232997319
 30
0.0
 10
347.6689451973272
 20
215.2157194284342
 30
0.0
 10
347.6689451973272
 20
215.2157194284342
 30
0.0
 10
347.6689451973272
 20
215.2157194284342
 30
0.0
 10
346.9477882463248
 20
214.9057174383341
 30
0.0
 10
346.9477882463248
 20
214.9057174383341
 30
0.0
 10
346.9477882463248
 20
214.9057174383341
 30
0.0
 10
346.2314390591757
 20
214.5895509753611
 30
0.0
 10
346.2314390591757
 20
214.5895509753611
 30
0.0
 10
346.0449755095794
 20
214.4537903661222
 30
0.0
 10
345.8596671832875
 20
214.31645014111
 30
0.0
 10
345.6755340894739
 20
214.1775451300849
 30
0.0
 10
345.3377077780576
 20
214.125336462663
 30
0.0
 10
345.1546834806377
 20
213.9834641140899
 30
0.0
 10
344.9732963307825
 20
213.8395166738056
 30
0.0
 10
344.5488562182489
 20
213.7122884159343
 30
0.0
 10
344.280445627567
 20
213.4895200812392
 30
0.0
 10
344.01653946316
 20
213.2614860798557
 30
0.0
 10
343.5267515227756
 20
213.1706647034546
 30
0.0
 10
343.2671523341897
 20
212.9327063496331
 30
0.0
 10
343.0139677286732
 20
212.6880222939988
 30
0.0
 10
342.5775749021794
 20
212.6249803233656
 30
0.0
 10
342.3663314829568
 20
212.4060286755192
 30
0.0
 10
342.1623340783731
 20
212.1804178382057
 30
0.0
 10
341.7764496620591
 20
212.0877313518731
 30
0.0
 10
341.5849717058663
 20
211.8451002753625
 30
0.0
 10
341.410028616283
 20
211.590693716825
 30
0.0
 10
341.1655447043947
 20
211.6296571604519
 30
0.0
 10
341.0959480343243
 20
211.5174744265089
 30
0.0
 10
341.0321582311201
 20
211.4019875635607
 30
0.0
 10
340.9045640097089
 20
211.3545369601097
 30
0.0
 10
340.852081497562
 20
211.230176465292
 30
0.0
 10
340.8140966735922
 20
211.1010983570541
 30
0.0
 10
340.7305124224154
 20
211.0848192109706
 30
0.0
 10
340.7071841288557
 20
210.9916055758402
 30
0.0
 10
340.6905992361425
 20
210.897083818241
 30
0.0
 10
340.6467442418257
 20
210.8599530136037
 30
0.0
 10
340.6331821584182
 20
210.7631412913548
 30
0.0
 10
340.6255201754196
 20
210.6657750424307
 30
0.0
 10
340.6010774803657
 20
210.6447408496086
 30
0.0
 10
340.5974449859627
 20
210.5616990008312
 30
0.0
 10
340.5987560598589
 20
210.4786615791585
 30
0.0
 10
340.5909484312859
 20
210.4486906186446
 30
0.0
 10
340.599773372798
 20
210.3657674104406
 30
0.0
 10
340.6180426971677
 20
210.2846860261161
 30
0.0
  0
SPLINE
  5
B6
330
70
100
AcDbEntity
  8
shade
 62
     6
420
 16711935
370
    25
100
AcDbSpline
210
0.0
220
0.0
230
1.0
 70
     8
 71
     3
 72
    41
 73
    37
 74
     0
 42
0.0000000001
 43
0.0000000001
 40
0.0
 40
0.0
 40
0.0
 40
0.0
 40
1.0
 40
1.0
 40
1.0
 40
2.0
 40
2.0
 40
2.0
 40
3.0
 40
3.0
 40
3.0
 40
4.0
 40
4.0
 40
4.0
 40
5.0
 40
5.0
 40
5.0
 40
6.0
 40
6.0
 40
6.0
 40
7.0
 40
7.0
 40
7.0
 40
8.0
 40
8.0
 40
8.0
 40
9.0
 40
9.0
 40
9.0
 40
10.0
 40
10.0
 40
10.0
 40
11.0
 40
11.0
 40
11.0
 40
12.0
 40
12.0
 40
12.0
 40
12.0
 10
344.1012625338105
 20
219.083295300649
 30
0.0
 10
344.0914516300113
 20
219.1139425649184
 30
0.0
 10
344.0816751713517
 20
219.1446008451406
 30
0.0
 10
344.0719331761697
 20
219.1752700833191
 30
0.0
 10
344.0541152652506
 20
219.186177658279
 30
0.0
 10
344.0445322337105
 20
219.2169076773252
 30
0.0
 10
344.0351233611949
 20
219.247691197022
 30
0.0
 10
344.0106153735109
 20
219.2814902754158
 30
0.0
 10
343.9949458213135
 20
219.3353238089232
 30
0.0
 10
343.9801037376345
 20
219.3893879175229
 30
0.0
 10
343.951363221048
 20
219.4090259404863
 30
0.0
 10
343.9377901172675
 20
219.463660559909
 30
0.0
 10
343.9258545646406
 20
219.5186633329674
 30
0.0
 10
343.9010445240498
 20
219.5376933571792
 30
0.0
 10
343.8907120185175
 20
219.5920933126323
 30
0.0
 10
343.8824035585712
 20
219.6468197613231
 30
0.0
 10
343.8631136410702
 20
219.667014760852
 30
0.0
 10
343.8565577664393
 20
219.7223825414296
 30
0.0
 10
343.852633023653
 20
219.7779674627406
 30
0.0
 10
343.8381645138534
 20
219.8195213467608
 30
0.0
 10
343.8359262007844
 20
219.8968207559442
 30
0.0
 10
343.8384128381685
 20
219.9740403608959
 30
0.0
 10
343.8331865781115
 20
220.0020156895546
 30
0.0
 10
343.8378780852537
 20
220.079399238642
 30
0.0
 10
343.8467713654611
 20
220.1563551973328
 30
0.0
 10
343.856832819465
 20
220.2116449144516
 30
0.0
 10
343.873985021208
 20
220.3159668525723
 30
0.0
 10
343.8984822107888
 20
220.4186747016098
 30
0.0
 10
343.9276977370076
 20
220.4534680646197
 30
0.0
 10
343.9556008799858
 20
220.5543351773327
 30
0.0
 10
343.9899373896377
 20
220.6530815139049
 30
0.0
 10
344.024604255714
 20
220.6408659431869
 30
0.0
 10
344.0436579511918
 20
220.6938563730444
 30
0.0
 10
344.064506795596
 20
220.7461488217417
 30
0.0
 10
344.0987090186411
 20
220.7635811805116
 30
0.0
 10
344.1204744114557
 20
220.8148783894947
 30
0.0
 10
344.1439083773474
 20
220.865418541099
 30
0.0
  0
SPLINE
  5
B7
330
70
100
AcDbEntity
  8
shade
 62
     6
420
 16711935
370
    25
100
AcDbSpline
210
0.0
220
0.0
230
1.0
 70
     8
 71
     3
 72
     8
 73
     4
 74
     0
 42
0.0000000001
 43
0.0000000001
 40
0.0
 40
0.0
 40
0.0
 40
0.0
 40
1.0
 40
1.0
 40
1.0
 40
1.0
 10
347.0220917996867
 20
225.941586644972
 30
0.0
 10
346.3092367194144
 20
225.0117089977354
 30
0.0
 10
345.7165468059068
 20
223.9956095688238
 30
0.0
 10
345.2580618790846
 20
222.9173580322094
 30
0.0
  0
SPLINE
  5
B8
330
70
100
AcDbEntity
  8
shade
 62
     6
420
 16711935
370
    25
100
AcDbSpline
210
0.0
220
0.0
230
1.0
 70
     8
 71
     3
 72
     8
 73
     4
 74
     0
 42
0.0000000001
 43
0.0000000001
 40
0.0
 40
0.0
 40
0.0
 40
0.0
 40
1.0
 40
1.0
 40
1.0
 40
1.0
 10
346.8522128848541
 20
225.9213883558256
 30
0.0
 10
346.1277009275944
 20
224.9677584958937
 30
0.0
 10
345.5291924482243
 20
223.9246777863475
 30
0.0
 10
345.0714949136452
 20
222.8179526837182
 30
0.0
  0
LINE
  5
B9
330
70
100
AcDbEntity
  8
shade
 62
     6
420
 16711935
370
    25
100
AcDbLine
 10
347.0220917996867
 20
224.1194196541993
 30
0.0
 11
346.8522128848541
 21
224.1095582847287
 31
0.0
  0
LINE
  5
BA
330
70
100
AcDbEntity
  8
shade
 62
     6
420
 16711935
370
    25
100
AcDbLine
 10
345.0714949136452
 20
221.6733612821413
 30
0.0
 11
345.2580618790846
 21
221.7454001931892
 31
0.0
  0
SPLINE
  5
BB
330
70
100
AcDbEntity
  8
shade
 62
     6
420
 16711935
370
    25
100
AcDbSpline
210
0.0
220
0.0
230
1.0
 70
     8
 71
     3
 72
     8
 73
     4
 74
     0
 42
0.0000000001
 43
0.0000000001
 40
0.0
 40
0.0
 40
0.0
 40
0.0
 40
1.0
 40
1.0
 40
1.0
 40
1.0
 10
346.5801812787812
 20
222.6784471604055
 30
0.0
 10
346.030431620887
 20
221.5618083906524
 30
0.0
 10
345.6778908901516
 20
220.358523980699
 30
0.0
 10
345.5381369143396
 20
219.1217638363446
 30
0.0
  0
SPLINE
  5
BC
330
70
100
AcDbEntity
  8
shade
 62
     6
420
 16711935
370
    25
100
AcDbSpline
210
0.0
220
0.0
230
1.0
 70
     8
 71
     3
 72
     8
 73
     4
 74
     0
 42
0.0000000001
 43
0.0000000001
 40
0.0
 40
0.0
 40
0.0
 40
0.0
 40
1.0
 40
1.0
 40
1.0
 40
1.0
 10
344.9432879351817
 20
222.1078903655661
 30
0.0
 10
344.3787599306184
 20
220.5104273095466
 30
0.0
 10
344.1103877586235
 20
218.8233795714546
 30
0.0
 10
344.1513508798279
 20
217.1295962010888
 30
0.0
  0
SPLINE
  5
BD
330
70
100
AcDbEntity
  8
shade
 62
     6
420
 16711935
370
    25
100
AcDbSpline
210
0.0
220
0.0
230
1.0
 70
     8
 71
     3
 72
     8
 73
     4
 74
     0
 42
0.0000000001
 43
0.0000000001
 40
0.0
 40
0.0
 40
0.0
 40
0.0
 40
1.0
 40
1.0
 40
1.0
 40
1.0
 10
344.7710526311776
 20
222.0237577035595
 30
0.0
 10
344.2293837235468
 20
220.4484048283609
 30
0.0
 10
343.9746766765635
 20
218.7886653253596
 30
0.0
 10
344.0190305904345
 20
217.1233801794464
 30
0.0
  0
SPLINE
  5
BE
330
70
100
AcDbEntity
  8
shade
 62
     6
420
 16711935
370
    25
100
AcDbSpline
210
0.0
220
0.0
230
1.0
 70
     8
 71
     3
 72
    47
 73
    43
 74
     0
 42
0.0000000001
 43
0.0000000001
 40
0.0
 40
0.0
 40
0.0
 40
0.0
 40
1.0
 40
1.0
 40
1.0
 40
2.0
 40
2.0
 40
2.0
 40
3.0
 40
3.0
 40
3.0
 40
4.0
 40
4.0
 40
4.0
 40
5.0
 40
5.0
 40
5.0
 40
6.0
 40
6.0
 40
6.0
 40
7.0
 40
7.0
 40
7.0
 40
8.0
 40
8.0
 40
8.0
 40
9.0
 40
9.0
 40
9.0
 40
10.0
 40
10.0
 40
10.0
 40
11.0
 40
11.0
 40
11.0
 40
12.0
 40
12.0
 40
12.0
 40
13.0
 40
13.0
 40
13.0
 40
14.0
 40
14.0
 40
14.0
 40
14.0
 10
348.8623648930663
 20
220.4711779768258
 30
0.0
 10
348.8409519850247
 20
220.4868154507703
 30
0.0
 10
348.8195411942048
 20
220.5024558240011
 30
0.0
 10
348.798132521491
 20
220.5180990958177
 30
0.0
 10
348.7591288953161
 20
220.5236577836013
 30
0.0
 10
348.7377299141136
 20
220.5393171420468
 30
0.0
 10
348.7163415471907
 20
220.5549909898158
 30
0.0
 10
348.6559920866259
 20
220.5762433432062
 30
0.0
 10
348.613301887557
 20
220.6076792261735
 30
0.0
 10
348.5706799449195
 20
220.6392074872669
 30
0.0
 10
348.4928965811194
 20
220.6505700329686
 30
0.0
 10
348.45038300201
 20
220.6823340948201
 30
0.0
 10
348.4080080384035
 20
220.7142824267037
 30
0.0
 10
348.2988838247974
 20
220.7498662287978
 30
0.0
 10
348.225377035156
 20
220.8065733908404
 30
0.0
 10
348.152455225444
 20
220.8640269405986
 30
0.0
 10
348.0184273071972
 20
220.8858061516576
 30
0.0
 10
347.9462514457826
 20
220.9449102840739
 30
0.0
 10
347.8750951476469
 20
221.0052276038958
 30
0.0
 10
347.7523152214547
 20
221.0213246452609
 30
0.0
 10
347.6906224928188
 20
221.0758812733983
 30
0.0
 10
347.6299452720931
 20
221.1315549109294
 30
0.0
 10
347.5173609348332
 20
221.153415742924
 30
0.0
 10
347.4572883744126
 20
221.2108216973537
 30
0.0
 10
347.3982711235802
 20
221.2693023435116
 30
0.0
 10
347.31763052808
 20
221.263258192552
 30
0.0
 10
347.28741976093
 20
221.2937614939845
 30
0.0
 10
347.2574522868946
 20
221.3245029059492
 30
0.0
 10
347.2023622404837
 20
221.3358584602452
 30
0.0
 10
347.1724939413667
 20
221.3669288798501
 30
0.0
 10
347.1428300688626
 20
221.3981938940007
 30
0.0
 10
347.0883246964498
 20
221.409703886439
 30
0.0
 10
347.058711087491
 20
221.4413014926242
 30
0.0
 10
347.0292837086214
 20
221.4730721019704
 30
0.0
 10
346.9752935884857
 20
221.4846713388656
 30
0.0
 10
346.9459302961204
 20
221.5166704419107
 30
0.0
 10
346.9167113948148
 20
221.5488011477691
 30
0.0
 10
346.8631452804611
 20
221.5604966120577
 30
0.0
 10
346.833946602793
 20
221.5928576332517
 30
0.0
 10
346.8048719353097
 20
221.6253299030085
 30
0.0
 10
346.7516518289366
 20
221.6370632152159
 30
0.0
 10
346.7226043035478
 20
221.6696686663857
 30
0.0
 10
346.693637249528
 20
221.7023455415719
 30
0.0
  0
LINE
  5
BF
330
70
100
AcDbEntity
  8
shade
 62
     6
420
 16711935
370
    25
100
AcDbLine
 10
344.1513508798279
 20
217.2020071557279
 30
0.0
 11
344.0190305904345
 21
217.2031218663218
 31
0.0
  0
LINE
  5
C0
330
70
100
AcDbEntity
  8
shade
 62
     6
420
 16711935
370
    25
100
AcDbLine
 10
340.8330726035893
 20
211.3504790859536
 30
0.0
 11
343.3802142181322
 21
216.8269671992461
 31
0.0
  0
SPLINE
  5
C1
330
70
100
AcDbEntity
  8
shade
 62
     6
420
 16711935
370
    25
100
AcDbSpline
210
0.0
220
0.0
230
1.0
 70
     8
 71
     3
 72
    38
 73
    34
 74
     0
 42
0.0000000001
 43
0.0000000001
 40
0.0
 40
0.0
 40
0.0
 40
0.0
 40
1.0
 40
1.0
 40
1.0
 40
2.0
 40
2.0
 40
2.0
 40
3.0
 40
3.0
 40
3.0
 40
4.0
 40
4.0
 40
4.0
 40
5.0
 40
5.0
 40
5.0
 40
6.0
 40
6.0
 40
6.0
 40
7.0
 40
7.0
 40
7.0
 40
8.0
 40
8.0
 40
8.0
 40
9.0
 40
9.0
 40
9.0
 40
10.0
 40
10.0
 40
10.0
 40
11.0
 40
11.0
 40
11.0
 40
11.0
 10
343.3802142181322
 20
216.8269671992461
 30
0.0
 10
343.3802142181322
 20
216.8269671992461
 30
0.0
 10
343.4652694436085
 20
217.0100859118857
 30
0.0
 10
343.4652694436085
 20
217.0100859118857
 30
0.0
 10
343.4764310725581
 20
217.0489545754043
 30
0.0
 10
343.4876285424916
 20
217.0878129378685
 30
0.0
 10
343.4988618391204
 20
217.1266609495265
 30
0.0
 10
343.519250733762
 20
217.1404330389814
 30
0.0
 10
343.5305248725267
 20
217.1792591306768
 30
0.0
 10
343.541855234107
 20
217.2180688304004
 30
0.0
 10
343.5623818246511
 20
217.2318273193858
 30
0.0
 10
343.5737576253781
 20
217.2706197027487
 30
0.0
 10
343.585199811077
 20
217.3093925262246
 30
0.0
 10
343.6059058086271
 20
217.323121185897
 30
0.0
 10
343.6174061136414
 20
217.361857803465
 30
0.0
 10
343.6289930281116
 20
217.4005685498758
 30
0.0
 10
343.6499264459824
 20
217.4142830945763
 30
0.0
 10
343.6615786186171
 20
217.4529702116639
 30
0.0
 10
343.673327462555
 20
217.4916280144923
 30
0.0
 10
343.6945291880665
 20
217.5052982166967
 30
0.0
 10
343.7063531777296
 20
217.54390469008
 30
0.0
 10
343.7182937826942
 20
217.5824751583548
 30
0.0
 10
343.7447475093581
 20
217.6121321932303
 30
0.0
 10
343.761980503722
 20
217.6665894059897
 30
0.0
 10
343.7796106220062
 20
217.7209185509481
 30
0.0
 10
343.810899591261
 20
217.7399729753536
 30
0.0
 10
343.8293756932968
 20
217.7938976128845
 30
0.0
 10
343.84886073752
 20
217.8474605812318
 30
0.0
 10
343.8834755008492
 20
217.8692991712761
 30
0.0
 10
343.9051482982397
 20
217.9256161129398
 30
0.0
 10
343.9281995113647
 20
217.9813731123617
 30
0.0
 10
343.9673011366368
 20
218.0002243529576
 30
0.0
 10
343.990771306337
 20
218.0552932948329
 30
0.0
 10
344.0152492569489
 20
218.1099161829258
 30
0.0
  0
SPLINE
  5
C2
330
70
100
AcDbEntity
  8
shade
 62
     6
420
 16711935
370
    25
100
AcDbSpline
210
0.0
220
0.0
230
1.0
 70
     8
 71
     3
 72
    32
 73
    28
 74
     0
 42
0.0000000001
 43
0.0000000001
 40
0.0
 40
0.0
 40
0.0
 40
0.0
 40
1.0
 40
1.0
 40
1.0
 40
2.0
 40
2.0
 40
2.0
 40
3.0
 40
3.0
 40
3.0
 40
4.0
 40
4.0
 40
4.0
 40
5.0
 40
5.0
 40
5.0
 40
6.0
 40
6.0
 40
6.0
 40
7.0
 40
7.0
 40
7.0
 40
8.0
 40
8.0
 40
8.0
 40
9.0
 40
9.0
 40
9.0
 40
9.0
 10
345.305746848968
 20
212.5235832180982
 30
0.0
 10
345.305746848968
 20
212.5235832180982
 30
0.0
 10
345.2248328202849
 20
212.6543730432221
 30
0.0
 10
345.2248328202849
 20
212.6543730432221
 30
0.0
 10
345.2038176354726
 20
212.709917171926
 30
0.0
 10
345.1831327658415
 20
212.7655857150296
 30
0.0
 10
345.1627793073423
 20
212.8213757227263
 30
0.0
 10
345.1250176512435
 20
212.841407633536
 30
0.0
 10
345.1051909431817
 20
212.8975074523264
 30
0.0
 10
345.0860366326423
 20
212.9538381517719
 30
0.0
 10
345.0594957236547
 20
212.9459954477825
 30
0.0
 10
345.0499928865314
 20
212.9742451185464
 30
0.0
 10
345.040690916779
 20
213.0025611704151
 30
0.0
 10
345.0233307781195
 20
213.0127386198271
 30
0.0
 10
345.0141871445306
 20
213.0411725287705
 30
0.0
 10
345.0052888164414
 20
213.0696835775212
 30
0.0
 10
344.9713884581691
 20
213.1344530622709
 30
0.0
 10
344.947220250933
 20
213.2181327243469
 30
0.0
 10
344.9250923130441
 20
213.3023616416599
 30
0.0
 10
344.8805891518993
 20
213.3333971895217
 30
0.0
 10
344.8590026681594
 20
213.4183574358205
 30
0.0
 10
344.838834501332
 20
213.5036592569545
 30
0.0
 10
344.7991054651201
 20
213.5348929745481
 30
0.0
 10
344.7793717610432
 20
213.6209362156449
 30
0.0
 10
344.7607475494789
 20
213.7072226694691
 30
0.0
 10
344.7245283516806
 20
213.7383385771232
 30
0.0
 10
344.7058892551948
 20
213.8248759229872
 30
0.0
 10
344.6877112663597
 20
213.9115106609448
 30
0.0
  0
SPLINE
  5
C3
330
70
100
AcDbEntity
  8
shade
 62
     6
420
 16711935
370
    25
100
AcDbSpline
210
0.0
220
0.0
230
1.0
 70
     8
 71
     3
 72
    29
 73
    25
 74
     0
 42
0.0000000001
 43
0.0000000001
 40
0.0
 40
0.0
 40
0.0
 40
0.0
 40
1.0
 40
1.0
 40
1.0
 40
2.0
 40
2.0
 40
2.0
 40
3.0
 40
3.0
 40
3.0
 40
4.0
 40
4.0
 40
4.0
 40
5.0
 40
5.0
 40
5.0
 40
6.0
 40
6.0
 40
6.0
 40
7.0
 40
7.0
 40
7.0
 40
8.0
 40
8.0
 40
8.0
 40
8.0
 10
345.1469919641331
 20
212.5235832180982
 30
0.0
 10
345.125762178252
 20
212.5790605780519
 30
0.0
 10
345.1046146555857
 20
212.6345693831103
 30
0.0
 10
345.0835494659534
 20
212.690109450295
 30
0.0
 10
345.0450056358381
 20
212.7098831809706
 30
0.0
 10
345.0243193722788
 20
212.7655961099127
 30
0.0
 10
345.0040488427321
 20
212.8214607647398
 30
0.0
 10
344.9629093997303
 20
212.850757729321
 30
0.0
 10
344.9399294031193
 20
212.9161850324571
 30
0.0
 10
344.9177778947886
 20
212.9818945439992
 30
0.0
 10
344.8757187919858
 20
213.0057610776523
 30
0.0
 10
344.8545429623044
 20
213.0720772502117
 30
0.0
 10
344.8347077269897
 20
213.1387993084408
 30
0.0
 10
344.789980686723
 20
213.1824548261113
 30
0.0
 10
344.7657774105497
 20
213.2691917771738
 30
0.0
 10
344.7436335941235
 20
213.3564642516883
 30
0.0
 10
344.6990597903637
 20
213.388553482373
 30
0.0
 10
344.677399451942
 20
213.4765242529283
 30
0.0
 10
344.6571071435052
 20
213.5648150340726
 30
0.0
 10
344.6242383680615
 20
213.5674694248312
 30
0.0
 10
344.6107613479514
 20
213.6267401574472
 30
0.0
 10
344.5977658470036
 20
213.6861173010089
 30
0.0
 10
344.573096365955
 20
213.7074018111599
 30
0.0
 10
344.5601644318532
 20
213.7669013174457
 30
0.0
 10
344.5475029862807
 20
213.8264586487149
 30
0.0
  0
LINE
  5
C4
330
70
100
AcDbEntity
  8
shade
 62
     6
420
 16711935
370
    25
100
AcDbLine
 10
345.1469919641331
 20
212.5235832180982
 30
0.0
 11
345.305746848968
 21
212.5235832180982
 31
0.0
  0
SPLINE
  5
C5
330
70
100
AcDbEntity
  8
shade
 62
     6
420
 16711935
370
    25
100
AcDbSpline
210
0.0
220
0.0
230
1.0
 70
     8
 71
     3
 72
    23
 73
    19
 74
     0
 42
0.0000000001
 43
0.0000000001
 40
0.0
 40
0.0
 40
0.0
 40
0.0
 40
1.0
 40
1.0
 40
1.0
 40
2.0
 40
2.0
 40
2.0
 40
3.0
 40
3.0
 40
3.0
 40
4.0
 40
4.0
 40
4.0
 40
5.0
 40
5.0
 40
5.0
 40
6.0
 40
6.0
 40
6.0
 40
6.0
 10
345.305746848968
 20
212.5235832180982
 30
0.0
 10
345.3020542725033
 20
212.6173825840337
 30
0.0
 10
345.2983989809937
 20
212.7111834140472
 30
0.0
 10
345.2947809751397
 20
212.8049856858603
 30
0.0
 10
345.2880251023631
 20
212.8382826018475
 30
0.0
 10
345.2843778259247
 20
212.9320830456526
 30
0.0
 10
345.2808051219009
 20
213.0258863446289
 30
0.0
 10
345.2808051219009
 20
213.0258863446289
 30
0.0
 10
345.2641667032381
 20
213.1863037429638
 30
0.0
 10
345.2641667032381
 20
213.1863037429638
 30
0.0
 10
345.2641667032381
 20
213.1863037429638
 30
0.0
 10
345.2510898292898
 20
213.4072383477257
 30
0.0
 10
345.2510898292898
 20
213.4072383477257
 30
0.0
 10
345.2510898292898
 20
213.4072383477257
 30
0.0
 10
345.2312952917255
 20
213.7630432219281
 30
0.0
 10
345.2312952917255
 20
213.7630432219281
 30
0.0
 10
345.2312952917255
 20
213.7630432219281
 30
0.0
 10
345.2126219968924
 20
214.1188878436781
 30
0.0
 10
345.2126219968924
 20
214.1188878436781
 30
0.0
  0
LINE
  5
C6
330
70
100
AcDbEntity
  8
shade
 62
     6
420
 16711935
370
    25
100
AcDbLine
 10
344.5599865868029
 20
212.658119346216
 30
0.0
 11
345.4702820599077
 21
208.0354843078865
 31
0.0
  0
SPLINE
  5
C7
330
70
100
AcDbEntity
  8
shade
 62
     6
420
 16711935
370
    25
100
AcDbSpline
210
0.0
220
0.0
230
1.0
 70
     8
 71
     3
 72
   215
 73
   211
 74
     0
 42
0.0000000001
 43
0.0000000001
 40
0.0
 40
0.0
 40
0.0
 40
0.0
 40
1.0
 40
1.0
 40
1.0
 40
2.0
 40
2.0
 40
2.0
 40
3.0
 40
3.0
 40
3.0
 40
4.0
 40
4.0
 40
4.0
 40
5.0
 40
5.0
 40
5.0
 40
6.0
 40
6.0
 40
6.0
 40
7.0
 40
7.0
 40
7.0
 40
8.0
 40
8.0
 40
8.0
 40
9.0
 40
9.0
 40
9.0
 40
10.0
 40
10.0
 40
10.0
 40
11.0
 40
11.0
 40
11.0
 40
12.0
 40
12.0
 40
12.0
 40
13.0
 40
13.0
 40
13.0
 40
14.0
 40
14.0
 40
14.0
 40
15.0
 40
15.0
 40
15.0
 40
16.0
 40
16.0
 40
16.0
 40
17.0
 40
17.0
 40
17.0
 40
18.0
 40
18.0
 40
18.0
 40
19.0
 40
19.0
 40
19.0
 40
20.0
 40
20.0
 40
20.0
 40
21.0
 40
21.0
 40
21.0
 40
22.0
 40
22.0
 40
22.0
 40
23.0
 40
23.0
 40
23.0
 40
24.0
 40
24.0
 40
24.0
 40
25.0
 40
25.0
 40
25.0
 40
26.0
 40
26.0
 40
26.0
 40
27.0
 40
27.0
 40
27.0
 40
28.0
 40
28.0
 40
28.0
 40
29.0
 40
29.0
 40
29.0
 40
30.0
 40
30.0
 40
30.0
 40
31.0
 40
31.0
 40
31.0
 40
32.0
 40
32.0
 40
32.0
 40
33.0
 40
33.0
 40
33.0
 40
34.0
 40
34.0
 40
34.0
 40
35.0
 40
35.0
 40
35.0
 40
36.0
 40
36.0
 40
36.0
 40
37.0
 40
37.0
 40
37.0
 40
38.0
 40
38.0
 40
38.0
 40
39.0
 40
39.0
 40
39.0
 40
40.0
 40
40.0
 40
40.0
 40
41.0
 40
41.0
 40
41.0
 40
42.0
 40
42.0
 40
42.0
 40
43.0
 40
43.0
 40
43.0
 40
44.0
 40
44.0
 40
44.0
 40
45.0
 40
45.0
 40
45.0
 40
46.0
 40
46.0
 40
46.0
 40
47.0
 40
47.0
 40
47.0
 40
48.0
 40
48.0
 40
48.0
 40
49.0
 40
49.0
 40
49.0
 40
50.0
 40
50.0
 40
50.0
 40
51.0
 40
51.0
 40
51.0
 40
52.0
 40
52.0
 40
52.0
 40
53.0
 40
53.0
 40
53.0
 40
54.0
 40
54.0
 40
54.0
 40
55.0
 40
55.0
 40
55.0
 40
56.0
 40
56.0
 40
56.0
 40
57.0
 40
57.0
 40
57.0
 40
58.0
 40
58.0
 40
58.0
 40
59.0
 40
59.0
 40
59.0
 40
60.0
 40
60.0
 40
60.0
 40
61.0
 40
61.0
 40
61.0
 40
62.0
 40
62.0
 40
62.0
 40
63.0
 40
63.0
 40
63.0
 40
64.0
 40
64.0
 40
64.0
 40
65.0
 40
65.0
 40
65.0
 40
66.0
 40
66.0
 40
66.0
 40
67.0
 40
67.0
 40
67.0
 40
68.0
 40
68.0
 40
68.0
 40
69.0
 40
69.0
 40
69.0
 40
70.0
 40
70.0
 40
70.0
 40
70.0
 10
348.9026140340494
 20
207.1051405631886
 30
0.0
 10
348.7299258311954
 20
207.1403787958382
 30
0.0
 10
348.5573145939732
 20
207.1759931598526
 30
0.0
 10
348.3847815509713
 20
207.2119834017406
 30
0.0
 10
348.0586057580629
 20
207.2279094166094
 30
0.0
 10
347.8747676688197
 20
207.2686694177463
 30
0.0
 10
347.6914135148596
 20
207.3115268368712
 30
0.0
 10
347.449747693908
 20
207.3082403632987
 30
0.0
 10
347.359691885862
 20
207.3307304581386
 30
0.0
 10
347.2698531331553
 20
207.3540643792968
 30
0.0
 10
347.1057758182042
 20
207.3639014322369
 30
0.0
 10
347.0163513633811
 20
207.3895275430871
 30
0.0
 10
346.9274769050951
 20
207.4169677465787
 30
0.0
 10
346.7460345563111
 20
207.4359747618739
 30
0.0
 10
346.6395035132528
 20
207.4735371702612
 30
0.0
 10
346.5341675339151
 20
207.5142608626043
 30
0.0
 10
346.3401169423428
 20
207.5345798255155
 30
0.0
 10
346.2369363328335
 20
207.5830929984054
 30
0.0
 10
346.1368012469915
 20
207.63741810497
 30
0.0
 10
345.9961472406056
 20
207.6408723244422
 30
0.0
 10
345.943970898819
 20
207.6747567588829
 30
0.0
 10
345.8938913692696
 20
207.7115813408692
 30
0.0
 10
345.7988449598211
 20
207.7302724470468
 30
0.0
 10
345.7517153499359
 20
207.7733558720535
 30
0.0
 10
345.7088342325893
 20
207.8204875963999
 30
0.0
 10
345.6404871641823
 20
207.8259042364797
 30
0.0
 10
345.6156881141006
 20
207.857791756197
 30
0.0
 10
345.593150015114
 20
207.8912587677744
 30
0.0
 10
345.5478085667624
 20
207.90625628579
 30
0.0
 10
345.5295016325775
 20
207.9437447041303
 30
0.0
 10
345.5167687256129
 20
207.9832528090024
 30
0.0
 10
345.4753201523896
 20
208.0244021187962
 30
0.0
 10
345.4718404016436
 20
208.0926249139114
 30
0.0
 10
345.4878894615101
 20
208.1575543712018
 30
0.0
 10
345.4791932892194
 20
208.1888406290825
 30
0.0
 10
345.5000437243019
 20
208.256095323557
 30
0.0
 10
345.5321054035212
 20
208.3181775081451
 30
0.0
 10
345.5470194183166
 20
208.2925761739384
 30
0.0
 10
345.5557572229456
 20
208.3103037186734
 30
0.0
 10
345.565260439759
 20
208.3276221325309
 30
0.0
 10
345.5809441536202
 20
208.3331037781626
 30
0.0
 10
345.5907376833197
 20
208.3498890064002
 30
0.0
 10
345.6011413193829
 20
208.3662952121594
 30
0.0
 10
345.63112223514
 20
208.3912157480815
 30
0.0
 10
345.6561713466276
 20
208.4254898383915
 30
0.0
 10
345.6836112013231
 20
208.4578079383029
 30
0.0
 10
345.7283299473596
 20
208.4661565708909
 30
0.0
 10
345.7561476808591
 20
208.4963365670332
 30
0.0
 10
345.7853509709675
 20
208.5251450148237
 30
0.0
 10
345.8358859368226
 20
208.5333818514623
 30
0.0
 10
345.8658076503125
 20
208.5608450455322
 30
0.0
 10
345.8966650500273
 20
208.5872333310546
 30
0.0
 10
345.9508505177549
 20
208.5947156630532
 30
0.0
 10
345.9815756582707
 20
208.6202132015791
 30
0.0
 10
346.0125838661838
 20
208.6453637385083
 30
0.0
 10
346.2194554000692
 20
208.7757028101741
 30
0.0
 10
346.4059420068566
 20
208.9168965005893
 30
0.0
 10
346.596767716879
 20
209.0520664290933
 30
0.0
 10
346.9349258887141
 20
209.0893438146653
 30
0.0
 10
347.126961386495
 20
209.2167365611496
 30
0.0
 10
347.3220207134155
 20
209.3393847483547
 30
0.0
 10
347.5712740722141
 20
209.312669944112
 30
0.0
 10
347.6660321342107
 20
209.3701043412167
 30
0.0
 10
347.7613720792176
 20
209.4265618359429
 30
0.0
 10
347.9338172155703
 20
209.4448241127508
 30
0.0
 10
348.0293630993969
 20
209.4999623632245
 30
0.0
 10
348.1253618678224
 20
209.5543044235818
 30
0.0
 10
348.2514939724968
 20
209.5452495093431
 30
0.0
 10
348.2996069464194
 20
209.572084306331
 30
0.0
 10
348.3478213277045
 20
209.5987360630542
 30
0.0
 10
348.4354393351355
 20
209.6078620089878
 30
0.0
 10
348.4836975811644
 20
209.6342540242469
 30
0.0
 10
348.5320429809799
 20
209.6604857312069
 30
0.0
 10
348.5320429809799
 20
209.6604857312069
 30
0.0
 10
349.3146281284486
 20
209.8836773918061
 30
0.0
 10
349.3146281284486
 20
209.8836773918061
 30
0.0
 10
349.3146281284486
 20
209.8836773918061
 30
0.0
 10
350.0623688182502
 20
210.1157730086819
 30
0.0
 10
350.0623688182502
 20
210.1157730086819
 30
0.0
 10
350.0623688182502
 20
210.1157730086819
 30
0.0
 10
352.0591975713928
 20
210.7215010222103
 30
0.0
 10
352.0591975713928
 20
210.7215010222103
 30
0.0
 10
352.1898728295028
 20
210.7849326405374
 30
0.0
 10
352.3206280481237
 20
210.8481994004299
 30
0.0
 10
352.451462915027
 20
210.9113011508006
 30
0.0
 10
352.6896333590498
 20
210.9333992626173
 30
0.0
 10
352.8205177148732
 20
210.9962364091248
 30
0.0
 10
352.9514856224501
 20
211.0588990780081
 30
0.0
 10
353.1899017894799
 20
211.0808294491546
 30
0.0
 10
353.3209306156077
 20
211.1432230725233
 30
0.0
 10
353.4520445759555
 20
211.2054374375059
 30
0.0
 10
353.6907119619463
 20
211.2271943798814
 30
0.0
 10
353.8218782326904
 20
211.289122450818
 30
0.0
 10
353.9531332065465
 20
211.3508621195385
 30
0.0
 10
353.9531332065465
 20
211.3508621195385
 30
0.0
 10
355.8277977100501
 20
211.8178604144655
 30
0.0
 10
355.8277977100501
 20
211.8178604144655
 30
0.0
 10
355.8277977100501
 20
211.8178604144655
 30
0.0
 10
357.5931939220371
 20
212.3302011254374
 30
0.0
 10
357.5931939220371
 20
212.3302011254374
 30
0.0
 10
357.5931939220371
 20
212.3302011254374
 30
0.0
 10
358.4718897755416
 20
212.5941764976187
 30
0.0
 10
358.4718897755416
 20
212.5941764976187
 30
0.0
 10
358.4718897755416
 20
212.5941764976187
 30
0.0
 10
359.3460965489114
 20
212.8664623946051
 30
0.0
 10
359.3460965489114
 20
212.8664623946051
 30
0.0
 10
359.3460965489114
 20
212.8664623946051
 30
0.0
 10
360.2144485584266
 20
213.1493892016223
 30
0.0
 10
360.2144485584266
 20
213.1493892016223
 30
0.0
 10
360.2144485584266
 20
213.1493892016223
 30
0.0
 10
361.0755801201488
 20
213.4452873038605
 30
0.0
 10
361.0755801201488
 20
213.4452873038605
 30
0.0
 10
361.0755801201488
 20
213.4452873038605
 30
0.0
 10
361.6389909245349
 20
213.6485093939677
 30
0.0
 10
361.6389909245349
 20
213.6485093939677
 30
0.0
 10
361.6389909245349
 20
213.6485093939677
 30
0.0
 10
362.1987445424592
 20
213.8580816266896
 30
0.0
 10
362.1987445424592
 20
213.8580816266896
 30
0.0
 10
362.1987445424592
 20
213.8580816266896
 30
0.0
 10
362.7549186405303
 20
214.073698117124
 30
0.0
 10
362.7549186405303
 20
214.073698117124
 30
0.0
 10
362.7549186405303
 20
214.073698117124
 30
0.0
 10
363.3075908853558
 20
214.2950529802928
 30
0.0
 10
363.3075908853558
 20
214.2950529802928
 30
0.0
 10
363.3796812040647
 20
214.3426426078804
 30
0.0
 10
363.4516245596052
 20
214.3904544871261
 30
0.0
 10
363.5234199251841
 20
214.438487935683
 30
0.0
 10
363.6545114459857
 20
214.4559481051946
 30
0.0
 10
363.7262262376785
 20
214.5043174608507
 30
0.0
 10
363.7977963682827
 20
214.5529002671619
 30
0.0
 10
363.7977963682827
 20
214.5529002671619
 30
0.0
 10
364.4027404818631
 20
214.7537542850809
 30
0.0
 10
364.4027404818631
 20
214.7537542850809
 30
0.0
 10
364.4739512852408
 20
214.8035184404899
 30
0.0
 10
364.5450238056347
 20
214.8534801818632
 30
0.0
 10
364.6159572216884
 20
214.9036389316197
 30
0.0
 10
364.7454604992307
 20
214.9218082773177
 30
0.0
 10
364.8163187930538
 20
214.9722650533698
 30
0.0
 10
364.887041792623
 20
215.0229110239766
 30
0.0
 10
365.0161583988292
 20
215.0412420894306
 30
0.0
 10
365.0868103749524
 20
215.0921808165882
 30
0.0
 10
365.1573283659087
 20
215.1433046125607
 30
0.0
 10
365.2860644275616
 20
215.1617945241147
 30
0.0
 10
365.3565103789916
 20
215.2131979371662
 30
0.0
 10
365.4268263622914
 20
215.2647787597523
 30
0.0
 10
365.6278276048631
 20
215.3367620064538
 30
0.0
 10
365.7701916198401
 20
215.4426663583677
 30
0.0
 10
365.9118985911328
 20
215.5494454776592
 30
0.0
 10
366.1713854963335
 20
215.5889673845366
 30
0.0
 10
366.3122317293457
 20
215.6977238283952
 30
0.0
 10
366.4519178312514
 20
215.8079583651477
 30
0.0
 10
366.6386041259431
 20
215.7942683855739
 30
0.0
 10
366.7082998082804
 20
215.8501823885417
 30
0.0
 10
366.7776522612531
 20
215.9065202302975
 30
0.0
 10
366.9046931756674
 20
215.9273038783279
 30
0.0
 10
366.9737823558091
 20
215.9843758415663
 30
0.0
 10
367.042457505591
 20
216.0419435323238
 30
0.0
 10
367.2373002427371
 20
216.121174475003
 30
0.0
 10
367.3731723806563
 20
216.2391000395349
 30
0.0
 10
367.5071223212433
 20
216.3591871193475
 30
0.0
 10
367.7550211613407
 20
216.4058584773806
 30
0.0
 10
367.887275696848
 20
216.5298915302678
 30
0.0
 10
368.0169576043764
 20
216.6565849234283
 30
0.0
 10
368.3672087278377
 20
216.8132796385918
 30
0.0
 10
368.5967241210143
 20
217.0582267481397
 30
0.0
 10
368.8155658181161
 20
217.312556778327
 30
0.0
 10
369.2351845067465
 20
217.4210377703222
 30
0.0
 10
369.4434260264752
 20
217.6931744013645
 30
0.0
 10
369.6358839957011
 20
217.976365599367
 30
0.0
 10
369.9732540828202
 20
218.0347589613464
 30
0.0
 10
370.1147822214826
 20
218.2689678767734
 30
0.0
 10
370.2426016674866
 20
218.510678839446
 30
0.0
 10
370.502449198099
 20
218.6117644954738
 30
0.0
 10
370.6127040027867
 20
218.8697049048998
 30
0.0
 10
370.6986457404476
 20
219.1361115787742
 30
0.0
 10
370.899062559828
 20
219.2401494222236
 30
0.0
 10
370.9618062023946
 20
219.5112436781895
 30
0.0
 10
370.9944886234307
 20
219.7867435990049
 30
0.0
 10
371.1140033727332
 20
219.9000502592507
 30
0.0
 10
371.1234958570627
 20
220.1852521152134
 30
0.0
 10
371.0974027662325
 20
220.4682993283224
 30
0.0
 10
371.1231799569312
 20
220.5628245763765
 30
0.0
 10
371.0783058145232
 20
220.833859986308
 30
0.0
 10
371.0002539276647
 20
221.0961477312629
 30
0.0
 10
370.9282017736705
 20
221.1830631199065
 30
0.0
 10
370.8273740667432
 20
221.4337529310502
 30
0.0
 10
370.692251372768
 20
221.6661334437361
 30
0.0
 10
370.5687484327361
 20
221.6381174319832
 30
0.0
 10
370.4865293360472
 20
221.7704975453044
 30
0.0
 10
370.3949658227975
 20
221.8963371838935
 30
0.0
 10
370.2485707206281
 20
221.9308154412453
 30
0.0
 10
370.1550926073135
 20
222.0493507093256
 30
0.0
 10
370.0557943860644
 20
222.1629262725791
 30
0.0
 10
369.8687663712309
 20
222.2165208268449
 30
0.0
 10
369.7471586429036
 20
222.3438302249538
 30
0.0
 10
369.6197816503811
 20
222.4652267447904
 30
0.0
 10
369.4003436133871
 20
222.498186311991
 30
0.0
 10
369.2723302669324
 20
222.6131723506368
 30
0.0
 10
369.1411970413594
 20
222.7245359757286
 30
0.0
 10
368.7965174788815
 20
222.8525845739868
 30
0.0
 10
368.54337318207
 20
223.043723914321
 30
0.0
 10
368.2804399466422
 20
223.2207404059187
 30
0.0
 10
367.823661345588
 20
223.2590177995593
 30
0.0
 10
367.5564422987136
 20
223.414696811058
 30
0.0
 10
367.2813645985724
 20
223.5555271704674
 30
0.0
 10
367.2813645985724
 20
223.5555271704674
 30
0.0
 10
366.6663444494952
 20
223.5620891181925
 30
0.0
 10
366.6663444494952
 20
223.5620891181925
 30
0.0
 10
366.6663444494952
 20
223.5620891181925
 30
0.0
 10
366.259234072889
 20
223.6716329238412
 30
0.0
 10
366.259234072889
 20
223.6716329238412
 30
0.0
  0
SPLINE
  5
C8
330
70
100
AcDbEntity
  8
shade
 62
     6
420
 16711935
370
    25
100
AcDbSpline
210
0.0
220
0.0
230
1.0
 70
     8
 71
     3
 72
    68
 73
    64
 74
     0
 42
0.0000000001
 43
0.0000000001
 40
0.0
 40
0.0
 40
0.0
 40
0.0
 40
1.0
 40
1.0
 40
1.0
 40
2.0
 40
2.0
 40
2.0
 40
3.0
 40
3.0
 40
3.0
 40
4.0
 40
4.0
 40
4.0
 40
5.0
 40
5.0
 40
5.0
 40
6.0
 40
6.0
 40
6.0
 40
7.0
 40
7.0
 40
7.0
 40
8.0
 40
8.0
 40
8.0
 40
9.0
 40
9.0
 40
9.0
 40
10.0
 40
10.0
 40
10.0
 40
11.0
 40
11.0
 40
11.0
 40
12.0
 40
12.0
 40
12.0
 40
13.0
 40
13.0
 40
13.0
 40
14.0
 40
14.0
 40
14.0
 40
15.0
 40
15.0
 40
15.0
 40
16.0
 40
16.0
 40
16.0
 40
17.0
 40
17.0
 40
17.0
 40
18.0
 40
18.0
 40
18.0
 40
19.0
 40
19.0
 40
19.0
 40
20.0
 40
20.0
 40
20.0
 40
21.0
 40
21.0
 40
21.0
 40
21.0
 10
348.8986612103456
 20
207.1116245020276
 30
0.0
 10
348.7394600259658
 20
207.1441813490075
 30
0.0
 10
348.5803243865713
 20
207.1770578897456
 30
0.0
 10
348.4212552549918
 20
207.2102539253565
 30
0.0
 10
348.1061610431384
 20
207.2279094166094
 30
0.0
 10
347.922322953896
 20
207.2686694177463
 30
0.0
 10
347.7389687999357
 20
207.3115268368712
 30
0.0
 10
347.4973029790208
 20
207.3082403632987
 30
0.0
 10
347.4072471709376
 20
207.3307304581386
 30
0.0
 10
347.3174084182315
 20
207.3540643792968
 30
0.0
 10
347.1533311032798
 20
207.3639014322369
 30
0.0
 10
347.0639066484574
 20
207.3895275430871
 30
0.0
 10
346.9750321901714
 20
207.4169677465787
 30
0.0
 10
346.7935898414245
 20
207.4359747618739
 30
0.0
 10
346.6870587983656
 20
207.4735371702612
 30
0.0
 10
346.5817228189914
 20
207.5142608626043
 30
0.0
 10
346.3876722274549
 20
207.5345798255155
 30
0.0
 10
346.2844916179084
 20
207.5830929984054
 30
0.0
 10
346.1843565321037
 20
207.63741810497
 30
0.0
 10
346.0620014618819
 20
207.6304461150518
 30
0.0
 10
346.0270290525181
 20
207.6520620331311
 30
0.0
 10
345.9928616947727
 20
207.6749056659051
 30
0.0
 10
345.9290812337313
 20
207.6853273857733
 30
0.0
 10
345.8958762390722
 20
207.7106569848165
 30
0.0
 10
345.864070585426
 20
207.7376783071485
 30
0.0
 10
345.8092813378123
 20
207.7455115588692
 30
0.0
 10
345.7838325225277
 20
207.7697092388901
 30
0.0
 10
345.7595449693571
 20
207.795046206968
 30
0.0
 10
345.713049586535
 20
207.8062450725238
 30
0.0
 10
345.6899818236106
 20
207.8337778145093
 30
0.0
 10
345.668717332576
 20
207.8626816390999
 30
0.0
 10
345.6322640688645
 20
207.8678952992268
 30
0.0
 10
345.6174573473857
 20
207.8908165737912
 30
0.0
 10
345.6041217846927
 20
207.914593442311
 30
0.0
 10
345.5769560796241
 20
207.9247792790834
 30
0.0
 10
345.5655402185676
 20
207.9504097573479
 30
0.0
 10
345.5567823974359
 20
207.9769910812416
 30
0.0
 10
345.5195266116438
 20
208.0337428685145
 30
0.0
 10
345.5183564950238
 20
208.1126054036942
 30
0.0
 10
345.5421210097445
 20
208.1856429145932
 30
0.0
 10
345.5370395587712
 20
208.2216142083832
 30
0.0
 10
345.5659325776724
 20
208.2971878487512
 30
0.0
 10
345.6077522042216
 20
208.3656659697506
 30
0.0
 10
345.634068025125
 20
208.3435651955724
 30
0.0
 10
345.6503923993176
 20
208.3701819121567
 30
0.0
 10
345.668277014803
 20
208.3957416612338
 30
0.0
 10
345.6974795843438
 20
208.4031190019923
 30
0.0
 10
345.7158262149655
 20
208.4273827864245
 30
0.0
 10
345.7352810630375
 20
208.4507455649306
 30
0.0
 10
345.7889850478376
 20
208.4825104652604
 30
0.0
 10
345.8321931927718
 20
208.527338831657
 30
0.0
 10
345.878620851561
 20
208.5686882796734
 30
0.0
 10
345.9559519252442
 20
208.5776717443404
 30
0.0
 10
346.0017008957152
 20
208.6164859279151
 30
0.0
 10
346.0482447401456
 20
208.6543329374106
 30
0.0
 10
346.2670106851448
 20
208.7757028102485
 30
0.0
 10
346.45349729197
 20
208.9168965005893
 30
0.0
 10
346.6443230019911
 20
209.0520664290933
 30
0.0
 10
346.9784315568579
 20
209.0962780636392
 30
0.0
 10
347.1679891388271
 20
209.2287802333107
 30
0.0
 10
347.3619716297328
 20
209.3545876357473
 30
0.0
 10
347.5290186628541
 20
209.2745870161699
 30
0.0
 10
347.5438729850377
 20
209.2849080562415
 30
0.0
 10
347.5581739895439
 20
209.2959639656491
 30
0.0
  0
LINE
  5
C9
330
70
100
AcDbEntity
  8
shade
 62
     6
420
 16711935
370
    25
100
AcDbLine
 10
347.5707619606771
 20
209.2898186522432
 30
0.0
 11
348.9551186618409
 21
207.0190156007033
 31
0.0
  0
SPLINE
  5
CA
330
70
100
AcDbEntity
  8
shade
 62
     6
420
 16711935
370
    25
100
AcDbSpline
210
0.0
220
0.0
230
1.0
 70
     8
 71
     3
 72
    29
 73
    25
 74
     0
 42
0.0000000001
 43
0.0000000001
 40
0.0
 40
0.0
 40
0.0
 40
0.0
 40
1.0
 40
1.0
 40
1.0
 40
2.0
 40
2.0
 40
2.0
 40
3.0
 40
3.0
 40
3.0
 40
4.0
 40
4.0
 40
4.0
 40
5.0
 40
5.0
 40
5.0
 40
6.0
 40
6.0
 40
6.0
 40
7.0
 40
7.0
 40
7.0
 40
8.0
 40
8.0
 40
8.0
 40
8.0
 10
351.0778417278372
 20
206.6984267350225
 30
0.0
 10
350.6206806261487
 20
206.7329256088842
 30
0.0
 10
350.1635195244243
 20
206.7674244826716
 30
0.0
 10
349.7071976508287
 20
206.8137476737821
 30
0.0
 10
349.4764109652924
 20
206.8371758203697
 30
0.0
 10
349.2458389436094
 20
206.8636284767499
 30
0.0
 10
349.0349736953141
 20
206.958864020177
 30
0.0
 10
349.0000281545911
 20
206.9746468843223
 30
0.0
 10
348.9656238527449
 20
206.9923188439571
 30
0.0
 10
348.9509457009029
 20
207.0211156346915
 30
0.0
 10
348.9366156024181
 20
207.0492295860701
 30
0.0
 10
348.9410872390406
 20
207.0879470322055
 30
0.0
 10
348.9673574185608
 20
207.1087213835864
 30
0.0
 10
348.9751898916799
 20
207.1149152715399
 30
0.0
 10
348.9849601212603
 20
207.1195141285369
 30
0.0
 10
348.99469318582
 20
207.124100701663
 30
0.0
 10
349.0510778225746
 20
207.1506711876464
 30
0.0
 10
349.106215199882
 20
207.1768294224133
 30
0.0
 10
349.162656858786
 20
207.2016011918325
 30
0.0
 10
349.2888417783803
 20
207.2569826917107
 30
0.0
 10
349.4215457845875
 20
207.3054343327493
 30
0.0
 10
349.5572759819994
 20
207.3463523061201
 30
0.0
 10
349.8279608473679
 20
207.4279544574181
 30
0.0
 10
350.1106814124318
 20
207.4795938742741
 30
0.0
 10
350.3934019775323
 20
207.5312332911291
 30
0.0
  0
LINE
  5
CB
330
70
100
AcDbEntity
  8
shade
 62
     6
420
 16711935
370
    25
100
AcDbLine
 10
350.3934019775323
 20
207.5312332911291
 30
0.0
 11
351.0778417278372
 21
206.6984267350225
 31
0.0
  0
SPLINE
  5
CC
330
70
100
AcDbEntity
  8
shade
 62
     6
420
 16711935
370
    25
100
AcDbSpline
210
0.0
220
0.0
230
1.0
 70
     8
 71
     3
 72
    62
 73
    58
 74
     0
 42
0.0000000001
 43
0.0000000001
 40
0.0
 40
0.0
 40
0.0
 40
0.0
 40
1.0
 40
1.0
 40
1.0
 40
2.0
 40
2.0
 40
2.0
 40
3.0
 40
3.0
 40
3.0
 40
4.0
 40
4.0
 40
4.0
 40
5.0
 40
5.0
 40
5.0
 40
6.0
 40
6.0
 40
6.0
 40
7.0
 40
7.0
 40
7.0
 40
8.0
 40
8.0
 40
8.0
 40
9.0
 40
9.0
 40
9.0
 40
10.0
 40
10.0
 40
10.0
 40
11.0
 40
11.0
 40
11.0
 40
12.0
 40
12.0
 40
12.0
 40
13.0
 40
13.0
 40
13.0
 40
14.0
 40
14.0
 40
14.0
 40
15.0
 40
15.0
 40
15.0
 40
16.0
 40
16.0
 40
16.0
 40
17.0
 40
17.0
 40
17.0
 40
18.0
 40
18.0
 40
18.0
 40
19.0
 40
19.0
 40
19.0
 40
19.0
 10
352.383621031562
 20
206.6207947516264
 30
0.0
 10
351.7550860616663
 20
206.6283294120644
 30
0.0
 10
351.6179531628474
 20
206.6276823403764
 30
0.0
 10
351.4979162461612
 20
206.629091683399
 30
0.0
 10
351.3904073442624
 20
206.6303539361036
 30
0.0
 10
351.2966120981374
 20
206.6332657555332
 30
0.0
 10
351.1468457455519
 20
206.6648163574852
 30
0.0
 10
351.1105128826653
 20
206.672470437837
 30
0.0
 10
351.070885936124
 20
206.6818100046999
 30
0.0
 10
351.0720807315465
 20
206.6979892691793
 30
0.0
 10
351.0728508629235
 20
206.7084179664227
 30
0.0
 10
351.0905813169243
 20
206.7216883718865
 30
0.0
 10
351.1078379121466
 20
206.7311621807992
 30
0.0
 10
351.1332524043253
 20
206.7451146458738
 30
0.0
 10
351.157639113192
 20
206.7508324238988
 30
0.0
 10
351.1826029261881
 20
206.756679805131
 30
0.0
 10
351.2601270382431
 20
206.7748386111911
 30
0.0
 10
351.34321667247
 20
206.7942472947245
 30
0.0
 10
351.4264018849242
 20
206.8102668162602
 30
0.0
 10
351.6501161065162
 20
206.8533489300813
 30
0.0
 10
351.874521607923
 20
206.8719185634187
 30
0.0
 10
352.0992870110431
 20
206.8919232141865
 30
0.0
 10
352.6082380239726
 20
206.9372210541611
 30
0.0
 10
353.1190343797007
 20
206.9898767318264
 30
0.0
 10
353.6289513350638
 20
207.0432062728211
 30
0.0
 10
354.2069573021331
 20
207.1036568866274
 30
0.0
 10
354.7838333369346
 20
207.1649733402086
 30
0.0
 10
355.3610848895817
 20
207.225475018183
 30
0.0
 10
356.1368085266305
 20
207.3067785355917
 30
0.0
 10
356.9132102958458
 20
207.3866106829934
 30
0.0
 10
357.6876235244775
 20
207.4770058867509
 30
0.0
 10
358.3207538512314
 20
207.5509095118006
 30
0.0
 10
358.9525550243707
 20
207.6318735530376
 30
0.0
 10
359.5822897181517
 20
207.7212460055321
 30
0.0
 10
360.1716382679249
 20
207.8048868240848
 30
0.0
 10
360.7591768939548
 20
207.8958921404658
 30
0.0
 10
361.3469298005012
 20
207.9873583737133
 30
0.0
 10
361.8265555271778
 20
208.0619978320734
 30
0.0
 10
362.3063239453108
 20
208.1369442194035
 30
0.0
 10
362.7818608147931
 20
208.2243077427055
 30
0.0
 10
363.5957789048923
 20
208.3738371620547
 30
0.0
 10
364.3973006872654
 20
208.5597425402641
 30
0.0
 10
365.1831739408178
 20
208.7971523709436
 30
0.0
 10
365.8141204058343
 20
208.9877593075382
 30
0.0
 10
366.4349800682203
 20
209.211565227158
 30
0.0
 10
366.9459185988428
 20
209.5634250554343
 30
0.0
 10
367.1762013643344
 20
209.722010187473
 30
0.0
 10
367.384155259389
 20
209.9066075983902
 30
0.0
 10
367.5077765351312
 20
210.1235161854589
 30
0.0
 10
367.6235149727954
 20
210.3265933729493
 30
0.0
 10
367.665332998541
 20
210.557992406425
 30
0.0
 10
367.6431639896555
 20
210.7824469266574
 30
0.0
 10
367.6301458993986
 20
210.9142511592843
 30
0.0
 10
367.5950633144069
 20
211.0436607322322
 30
0.0
 10
367.5348540259995
 20
211.1650518731404
 30
0.0
 10
367.5064220022516
 20
211.2223751847756
 30
0.0
 10
367.4723869340827
 20
211.2779104531917
 30
0.0
 10
367.4358657349691
 20
211.3326523476666
 30
0.0
  0
LINE
  5
CD
330
70
100
AcDbEntity
  8
shade
 62
     6
420
 16711935
370
    25
100
AcDbLine
 10
352.4007135133329
 20
206.5964903431663
 30
0.0
 11
352.1873817137165
 21
206.8998344258202
 31
0.0
  0
LINE
  5
CE
330
70
100
AcDbEntity
  8
shade
 62
     6
420
 16711935
370
    25
100
AcDbLine
 10
354.1697420329539
 20
217.1057179786747
 30
0.0
 11
353.9319656075017
 21
217.1057179786747
 31
0.0
  0
LINE
  5
CF
330
70
100
AcDbEntity
  8
shade
 62
     6
420
 16711935
370
    25
100
AcDbLine
 10
354.1697420329539
 20
221.6753529768322
 30
0.0
 11
353.9319656075017
 21
221.6753529768322
 31
0.0
  0
LINE
  5
D0
330
70
100
AcDbEntity
  8
shade
 62
     6
420
 16711935
370
    25
100
AcDbLine
 10
354.1697420329539
 20
221.6753529768322
 30
0.0
 11
354.1697420329539
 21
223.6289897324659
 31
0.0
  0
LINE
  5
D1
330
70
100
AcDbEntity
  8
shade
 62
     6
420
 16711935
370
    25
100
AcDbLine
 10
353.9319656075017
 20
217.8187029164225
 30
0.0
 11
353.9319656075017
 21
217.1057179786747
 31
0.0
  0
LINE
  5
D2
330
70
100
AcDbEntity
  8
shade
 62
     6
420
 16711935
370
    25
100
AcDbLine
 10
354.1697420329539
 20
224.3159052972321
 30
0.0
 11
354.1697420329539
 21
225.4643896117933
 31
0.0
  0
LINE
  5
D3
330
70
100
AcDbEntity
  8
shade
 62
     6
420
 16711935
370
    25
100
AcDbLine
 10
353.9319656075017
 20
223.573605809913
 30
0.0
 11
353.9319656075017
 21
221.6753529768322
 31
0.0
  0
LINE
  5
D4
330
70
100
AcDbEntity
  8
shade
 62
     6
420
 16711935
370
    25
100
AcDbLine
 10
353.9319656075017
 20
224.3159052972321
 30
0.0
 11
354.1697420329539
 21
224.3159052972321
 31
0.0
  0
LINE
  5
D5
330
70
100
AcDbEntity
  8
shade
 62
     6
420
 16711935
370
    25
100
AcDbLine
 10
354.1697420329539
 20
225.4643896117933
 30
0.0
 11
353.9319656075017
 21
225.4643896117933
 31
0.0
  0
LWPOLYLINE
  5
D6
330
70
100
AcDbEntity
  8
shade
 62
     6
420
 16711935
370
    25
100
AcDbPolyline
 90
        4
 70
     0
 43
0.0
 10
354.1697420329539
 20
225.9181055400724
 10
354.1697420329539
 20
226.1082070915148
 10
353.9319656075017
 20
226.1082070915148
 10
353.9319656075017
 20
225.886117803691
  0
LINE
  5
D7
330
70
100
AcDbEntity
  8
shade
 62
     6
420
 16711935
370
    25
100
AcDbLine
 10
353.9319656075017
 20
225.4643896117933
 30
0.0
 11
353.9319656075017
 21
224.3159052972321
 31
0.0
  0
SPLINE
  5
D8
330
70
100
AcDbEntity
  8
shade
 62
     6
420
 16711935
370
    25
100
AcDbSpline
210
0.0
220
0.0
230
1.0
 70
     8
 71
     3
 72
    14
 73
    10
 74
     0
 42
0.0000000001
 43
0.0000000001
 40
0.0
 40
0.0
 40
0.0
 40
0.0
 40
1.0
 40
1.0
 40
1.0
 40
2.0
 40
2.0
 40
2.0
 40
3.0
 40
3.0
 40
3.0
 40
3.0
 10
345.5381369143396
 20
218.8611073434987
 30
0.0
 10
346.1594396878794
 20
219.1866799113831
 30
0.0
 10
346.7807424613832
 20
219.5122524792302
 30
0.0
 10
347.4220175736074
 20
219.8113138343213
 30
0.0
 10
348.6240573057203
 20
220.3718901365772
 30
0.0
 10
349.8962712908124
 20
220.8393173800363
 30
0.0
 10
351.1909078866934
 20
221.2615976067428
 30
0.0
 10
352.0978427963131
 20
221.5574185966064
 30
0.0
 10
353.0157815052305
 20
221.8310838833547
 30
0.0
 10
353.9319656075017
 20
222.1040821084617
 30
0.0
  0
SPLINE
  5
D9
330
70
100
AcDbEntity
  8
shade
 62
     6
420
 16711935
370
    25
100
AcDbSpline
210
0.0
220
0.0
230
1.0
 70
     8
 71
     3
 72
    17
 73
    13
 74
     0
 42
0.0000000001
 43
0.0000000001
 40
0.0
 40
0.0
 40
0.0
 40
0.0
 40
1.0
 40
1.0
 40
1.0
 40
2.0
 40
2.0
 40
2.0
 40
3.0
 40
3.0
 40
3.0
 40
4.0
 40
4.0
 40
4.0
 40
4.0
 10
354.1697420329539
 20
222.1749462331146
 30
0.0
 10
354.6776128111406
 20
222.3263692319887
 30
0.0
 10
355.1846044335458
 20
222.4781589218554
 30
0.0
 10
355.6885408165791
 20
222.633980422281
 30
0.0
 10
356.5090515877397
 20
222.8876894693098
 30
0.0
 10
357.3214627808821
 20
223.1520870286199
 30
0.0
 10
358.1619222144525
 20
223.3916796993222
 30
0.0
 10
358.632117014244
 20
223.5257197532616
 30
0.0
 10
359.1110904644442
 20
223.6519962740376
 30
0.0
 10
359.5192656645502
 20
223.8652417474457
 30
0.0
 10
359.8003998382962
 20
224.0121163982242
 30
0.0
 10
360.0479481442139
 20
224.2002481103122
 30
0.0
 10
360.295496450059
 20
224.3883798225104
 30
0.0
  0
SPLINE
  5
DA
330
70
100
AcDbEntity
  8
shade
 62
     6
420
 16711935
370
    25
100
AcDbSpline
210
0.0
220
0.0
230
1.0
 70
     8
 71
     3
 72
     8
 73
     4
 74
     0
 42
0.0000000001
 43
0.0000000001
 40
0.0
 40
0.0
 40
0.0
 40
0.0
 40
1.0
 40
1.0
 40
1.0
 40
1.0
 10
360.9577440638795
 20
225.3249024106456
 30
0.0
 10
360.7138946534294
 20
225.6652601483945
 30
0.0
 10
360.4437148250437
 20
225.985959441467
 30
0.0
 10
360.1496921096749
 20
226.2840476289242
 30
0.0
  0
SPLINE
  5
DB
330
70
100
AcDbEntity
  8
shade
 62
     6
420
 16711935
370
    25
100
AcDbSpline
210
0.0
220
0.0
230
1.0
 70
     8
 71
     3
 72
     8
 73
     4
 74
     0
 42
0.0000000001
 43
0.0000000001
 40
0.0
 40
0.0
 40
0.0
 40
0.0
 40
1.0
 40
1.0
 40
1.0
 40
1.0
 10
361.08970093831
 20
225.3220415358901
 30
0.0
 10
360.840149953232
 20
225.6744744391072
 30
0.0
 10
360.5624863612491
 20
226.0061335445878
 30
0.0
 10
360.2594290797422
 20
226.3137712040937
 30
0.0
  0
SPLINE
  5
DC
330
70
100
AcDbEntity
  8
shade
 62
     6
420
 16711935
370
    25
100
AcDbSpline
210
0.0
220
0.0
230
1.0
 70
     8
 71
     3
 72
    11
 73
     7
 74
     0
 42
0.0000000001
 43
0.0000000001
 40
0.0
 40
0.0
 40
0.0
 40
0.0
 40
1.0
 40
1.0
 40
1.0
 40
2.0
 40
2.0
 40
2.0
 40
2.0
 10
359.6380737426796
 20
223.9307562436578
 30
0.0
 10
359.4748737402205
 20
224.0505933033088
 30
0.0
 10
359.31123868999
 20
224.1700475075644
 30
0.0
 10
359.1446452887327
 20
224.2868982715911
 30
0.0
 10
358.9585052508253
 20
224.4174592991459
 30
0.0
 10
358.7686719203763
 20
224.5447701153025
 30
0.0
 10
358.5783226786517
 20
224.6716269136081
 30
0.0
  0
SPLINE
  5
DD
330
70
100
AcDbEntity
  8
shade
 62
     6
420
 16711935
370
    25
100
AcDbSpline
210
0.0
220
0.0
230
1.0
 70
     8
 71
     3
 72
     8
 73
     4
 74
     0
 42
0.0000000001
 43
0.0000000001
 40
0.0
 40
0.0
 40
0.0
 40
0.0
 40
1.0
 40
1.0
 40
1.0
 40
1.0
 10
361.0579491794773
 20
224.2866620666188
 30
0.0
 10
361.0720903447464
 20
224.2894886993905
 30
0.0
 10
361.0857749455029
 20
224.2942490611301
 30
0.0
 10
361.0986174224528
 20
224.3008090300905
 30
0.0
  0
SPLINE
  5
DE
330
70
100
AcDbEntity
  8
shade
 62
     6
420
 16711935
370
    25
100
AcDbSpline
210
0.0
220
0.0
230
1.0
 70
     8
 71
     3
 72
     8
 73
     4
 74
     0
 42
0.0000000001
 43
0.0000000001
 40
0.0
 40
0.0
 40
0.0
 40
0.0
 40
1.0
 40
1.0
 40
1.0
 40
1.0
 10
361.0149049199814
 20
224.2731376178083
 30
0.0
 10
361.0293511779633
 20
224.2729017068371
 30
0.0
 10
361.0437812611207
 20
224.274210900473
 30
0.0
 10
361.0579491794773
 20
224.2770428809094
 30
0.0
  0
SPLINE
  5
DF
330
70
100
AcDbEntity
  8
shade
 62
     6
420
 16711935
370
    25
100
AcDbSpline
210
0.0
220
0.0
230
1.0
 70
     8
 71
     3
 72
     8
 73
     4
 74
     0
 42
0.0000000001
 43
0.0000000001
 40
0.0
 40
0.0
 40
0.0
 40
0.0
 40
1.0
 40
1.0
 40
1.0
 40
1.0
 10
360.9900248513295
 20
224.2678626747214
 30
0.0
 10
360.9982818235599
 20
224.2668471630565
 30
0.0
 10
361.0065868431298
 20
224.2662702738696
 30
0.0
 10
361.0149049199814
 20
224.2661344375695
 30
0.0
  0
SPLINE
  5
E0
330
70
100
AcDbEntity
  8
shade
 62
     6
420
 16711935
370
    25
100
AcDbSpline
210
0.0
220
0.0
230
1.0
 70
     8
 71
     3
 72
     8
 73
     4
 74
     0
 42
0.0000000001
 43
0.0000000001
 40
0.0
 40
0.0
 40
0.0
 40
0.0
 40
1.0
 40
1.0
 40
1.0
 40
1.0
 10
360.965415513581
 20
224.2608846908445
 30
0.0
 10
360.9735551136335
 20
224.2591561635943
 30
0.0
 10
360.9817659680173
 20
224.2577820831987
 30
0.0
 10
360.9900248513295
 20
224.2567663364872
 30
0.0
  0
SPLINE
  5
E1
330
70
100
AcDbEntity
  8
shade
 62
     6
420
 16711935
370
    25
100
AcDbSpline
210
0.0
220
0.0
230
1.0
 70
     8
 71
     3
 72
     8
 73
     4
 74
     0
 42
0.0000000001
 43
0.0000000001
 40
0.0
 40
0.0
 40
0.0
 40
0.0
 40
1.0
 40
1.0
 40
1.0
 40
1.0
 10
360.9354865659785
 20
224.2622685627634
 30
0.0
 10
360.9453289331467
 20
224.2591531950054
 30
0.0
 10
360.9553170590488
 20
224.2565185834203
 30
0.0
 10
360.965415513581
 20
224.2543740733391
 30
0.0
  0
SPLINE
  5
E2
330
70
100
AcDbEntity
  8
shade
 62
     6
420
 16711935
370
    25
100
AcDbSpline
210
0.0
220
0.0
230
1.0
 70
     8
 71
     3
 72
     8
 73
     4
 74
     0
 42
0.0000000001
 43
0.0000000001
 40
0.0
 40
0.0
 40
0.0
 40
0.0
 40
1.0
 40
1.0
 40
1.0
 40
1.0
 10
360.9063725465461
 20
224.2602899524198
 30
0.0
 10
360.9159297115316
 20
224.256381543865
 30
0.0
 10
360.9256424742038
 20
224.2528649895628
 30
0.0
 10
360.9354865659785
 20
224.2497490759652
 30
0.0
  0
LINE
  5
E3
330
70
100
AcDbEntity
  8
shade
 62
     6
420
 16711935
370
    25
100
AcDbLine
 10
359.3560300192189
 20
225.628589920151
 30
0.0
 11
359.4412568725603
 21
225.6746356085677
 31
0.0
  0
SPLINE
  5
E4
330
70
100
AcDbEntity
  8
shade
 62
     6
420
 16711935
370
    25
100
AcDbSpline
210
0.0
220
0.0
230
1.0
 70
     8
 71
     3
 72
     8
 73
     4
 74
     0
 42
0.0000000001
 43
0.0000000001
 40
0.0
 40
0.0
 40
0.0
 40
0.0
 40
1.0
 40
1.0
 40
1.0
 40
1.0
 10
359.4412568725603
 20
227.0380306121676
 30
0.0
 10
359.1631160315791
 20
227.2522420639505
 30
0.0
 10
358.8711831305576
 20
227.4479220497969
 30
0.0
 10
358.5673495589286
 20
227.6238027884612
 30
0.0
  0
SPLINE
  5
E5
330
70
100
AcDbEntity
  8
shade
 62
     6
420
 16711935
370
    25
100
AcDbSpline
210
0.0
220
0.0
230
1.0
 70
     8
 71
     3
 72
     8
 73
     4
 74
     0
 42
0.0000000001
 43
0.0000000001
 40
0.0
 40
0.0
 40
0.0
 40
0.0
 40
1.0
 40
1.0
 40
1.0
 40
1.0
 10
359.3560300192189
 20
226.9885046136881
 30
0.0
 10
359.0826438836919
 20
227.2004984051468
 30
0.0
 10
358.7958012008042
 20
227.3945448361807
 30
0.0
 10
358.4973067011118
 20
227.5694230233567
 30
0.0
  0
LINE
  5
E6
330
70
100
AcDbEntity
  8
shade
 62
     6
420
 16711935
370
    25
100
AcDbLine
 10
357.523028856267
 20
225.3248209534667
 30
0.0
 11
354.1697420329539
 21
225.3248209534667
 31
0.0
  0
LINE
  5
E7
330
70
100
AcDbEntity
  8
shade
 62
     6
420
 16711935
370
    25
100
AcDbLine
 10
357.244654117802
 20
225.1381664594493
 30
0.0
 11
354.1697420329539
 21
225.1381664594493
 31
0.0
  0
LINE
  5
E8
330
70
100
AcDbEntity
  8
shade
 62
     6
420
 16711935
370
    25
100
AcDbLine
 10
357.523028856267
 20
225.3248209534667
 30
0.0
 11
357.523028856267
 21
225.1957215412555
 31
0.0
  0
SPLINE
  5
E9
330
70
100
AcDbEntity
  8
shade
 62
     6
420
 16711935
370
    25
100
AcDbSpline
210
0.0
220
0.0
230
1.0
 70
     8
 71
     3
 72
    20
 73
    16
 74
     0
 42
0.0000000001
 43
0.0000000001
 40
0.0
 40
0.0
 40
0.0
 40
0.0
 40
1.0
 40
1.0
 40
1.0
 40
2.0
 40
2.0
 40
2.0
 40
3.0
 40
3.0
 40
3.0
 40
4.0
 40
4.0
 40
4.0
 40
5.0
 40
5.0
 40
5.0
 40
5.0
 10
346.8522128848541
 20
224.1095582847287
 30
0.0
 10
347.2682571174568
 20
224.1746181197419
 30
0.0
 10
347.6843013500968
 20
224.2396779547171
 30
0.0
 10
348.0943091851779
 20
224.3230852637993
 30
0.0
 10
348.6347958057356
 20
224.4330356861078
 30
0.0
 10
349.1647927178495
 20
224.5748693057532
 30
0.0
 10
349.7021467840934
 20
224.6949694869988
 30
0.0
 10
350.4474214533893
 20
224.8615405218056
 30
0.0
 10
351.2068482425584
 20
224.9863054154947
 30
0.0
 10
351.970346254037
 20
225.0950267574599
 30
0.0
 10
352.5048025044676
 20
225.1711327850713
 30
0.0
 10
353.0412537109262
 20
225.2393772475384
 30
0.0
 10
353.5781838529878
 20
225.2922380879602
 30
0.0
 10
353.696062928379
 20
225.303843297825
 30
0.0
 10
353.8139650879922
 20
225.3147070327867
 30
0.0
 10
353.9319656075017
 20
225.324759226265
 30
0.0
  0
LINE
  5
EA
330
70
100
AcDbEntity
  8
shade
 62
     6
420
 16711935
370
    25
100
AcDbLine
 10
356.1721411377115
 20
225.413251081362
 30
0.0
 11
356.2061980674032
 21
225.3248209534667
 31
0.0
  0
LINE
  5
EB
330
70
100
AcDbEntity
  8
shade
 62
     6
420
 16711935
370
    25
100
AcDbLine
 10
353.9319656075017
 20
225.1381664594493
 30
0.0
 11
352.2800591467312
 21
225.1381664594493
 31
0.0
  0
SPLINE
  5
EC
330
70
100
AcDbEntity
  8
shade
 62
     6
420
 16711935
370
    25
100
AcDbSpline
210
0.0
220
0.0
230
1.0
 70
     8
 71
     3
 72
    17
 73
    13
 74
     0
 42
0.0000000001
 43
0.0000000001
 40
0.0
 40
0.0
 40
0.0
 40
0.0
 40
1.0
 40
1.0
 40
1.0
 40
2.0
 40
2.0
 40
2.0
 40
3.0
 40
3.0
 40
3.0
 40
4.0
 40
4.0
 40
4.0
 40
4.0
 10
354.1697420329539
 20
225.3438834395252
 30
0.0
 10
354.6268448904204
 20
225.3784317362807
 30
0.0
 10
355.0861756657407
 20
225.4001325943722
 30
0.0
 10
355.5520916195291
 20
225.4049302767866
 30
0.0
 10
355.9939922713222
 20
225.4094806660996
 30
0.0
 10
356.4418167406371
 20
225.398825495201
 30
0.0
 10
356.858459668677
 20
225.4894494184239
 30
0.0
 10
357.1366387320387
 20
225.549956093131
 30
0.0
 10
357.4009176792764
 20
225.6556109906806
 30
0.0
 10
357.6634038747449
 20
225.759105727477
 30
0.0
 10
357.9427248740903
 20
225.869238198457
 30
0.0
 10
358.2200157876014
 20
225.976924535078
 30
0.0
 10
358.4973067011118
 20
226.0846108717363
 30
0.0
  0
SPLINE
  5
ED
330
70
100
AcDbEntity
  8
shade
 62
     6
420
 16711935
370
    25
100
AcDbSpline
210
0.0
220
0.0
230
1.0
 70
     8
 71
     3
 72
    14
 73
    10
 74
     0
 42
0.0000000001
 43
0.0000000001
 40
0.0
 40
0.0
 40
0.0
 40
0.0
 40
1.0
 40
1.0
 40
1.0
 40
2.0
 40
2.0
 40
2.0
 40
3.0
 40
3.0
 40
3.0
 40
3.0
 10
351.3577162205077
 20
225.0036856350257
 30
0.0
 10
351.7145050428462
 20
224.9315924944725
 30
0.0
 10
352.0711853465919
 20
224.8591877608848
 30
0.0
 10
352.4267219984755
 20
224.7834992236715
 30
0.0
 10
352.9023040703624
 20
224.6822547777359
 30
0.0
 10
353.3758398105608
 20
224.5751346350463
 30
0.0
 10
353.8516864217241
 20
224.4744131905545
 30
0.0
 10
353.8784393569856
 20
224.4687504534104
 30
0.0
 10
353.9051995966194
 20
224.4631079418189
 30
0.0
 10
353.9319656075017
 20
224.4574815074289
 30
0.0
  0
SPLINE
  5
EE
330
70
100
AcDbEntity
  8
shade
 62
     6
420
 16711935
370
    25
100
AcDbSpline
210
0.0
220
0.0
230
1.0
 70
     8
 71
     3
 72
    14
 73
    10
 74
     0
 42
0.0000000001
 43
0.0000000001
 40
0.0
 40
0.0
 40
0.0
 40
0.0
 40
1.0
 40
1.0
 40
1.0
 40
2.0
 40
2.0
 40
2.0
 40
3.0
 40
3.0
 40
3.0
 40
3.0
 10
351.2540584778839
 20
224.9872934391424
 30
0.0
 10
351.645411582525
 20
224.9082543295911
 30
0.0
 10
352.0367547318131
 20
224.8291866348197
 30
0.0
 10
352.4267219984755
 20
224.7461683248532
 30
0.0
 10
352.9023040703624
 20
224.6449238789177
 30
0.0
 10
353.3758398105608
 20
224.537803736228
 30
0.0
 10
353.8516864217241
 20
224.4370822917728
 30
0.0
 10
353.8784393569856
 20
224.4314195545921
 30
0.0
 10
353.9051995966194
 20
224.4257770430372
 30
0.0
 10
353.9319656075017
 20
224.4201506085738
 30
0.0
  0
SPLINE
  5
EF
330
70
100
AcDbEntity
  8
shade
 62
     6
420
 16711935
370
    25
100
AcDbSpline
210
0.0
220
0.0
230
1.0
 70
     8
 71
     3
 72
    11
 73
     7
 74
     0
 42
0.0000000001
 43
0.0000000001
 40
0.0
 40
0.0
 40
0.0
 40
0.0
 40
1.0
 40
1.0
 40
1.0
 40
2.0
 40
2.0
 40
2.0
 40
2.0
 10
355.7891462969989
 20
224.0066957470368
 30
0.0
 10
356.1936336408257
 20
223.9058186507624
 30
0.0
 10
356.5964757741098
 20
223.8004895347945
 30
0.0
 10
357.001607778254
 20
223.7011631653136
 30
0.0
 10
357.4116227646667
 20
223.6006396331541
 30
0.0
 10
357.8239831533874
 20
223.5062644195935
 30
0.0
 10
358.236744596347
 20
223.4129405434735
 30
0.0
  0
SPLINE
  5
F0
330
70
100
AcDbEntity
  8
shade
 62
     6
420
 16711935
370
    25
100
AcDbSpline
210
0.0
220
0.0
230
1.0
 70
     8
 71
     3
 72
    11
 73
     7
 74
     0
 42
0.0000000001
 43
0.0000000001
 40
0.0
 40
0.0
 40
0.0
 40
0.0
 40
1.0
 40
1.0
 40
1.0
 40
2.0
 40
2.0
 40
2.0
 40
2.0
 10
355.8662263359511
 20
224.0247473217181
 30
0.0
 10
356.2448331261159
 20
223.9297893257244
 30
0.0
 10
356.6222163848445
 20
223.8315095981321
 30
0.0
 10
357.001607778254
 20
223.7384940640946
 30
0.0
 10
357.4358969794438
 20
223.6320192133982
 30
0.0
 10
357.8728175144568
 20
223.5324422319227
 30
0.0
 10
358.3100588516988
 20
223.4337062125727
 30
0.0
  0
SPLINE
  5
F1
330
70
100
AcDbEntity
  8
shade
 62
     6
420
 16711935
370
    25
100
AcDbSpline
210
0.0
220
0.0
230
1.0
 70
     8
 71
     3
 72
    11
 73
     7
 74
     0
 42
0.0000000001
 43
0.0000000001
 40
0.0
 40
0.0
 40
0.0
 40
0.0
 40
1.0
 40
1.0
 40
1.0
 40
2.0
 40
2.0
 40
2.0
 40
2.0
 10
349.6581271820387
 20
224.6092288995527
 30
0.0
 10
350.1096300970484
 20
224.4929804364932
 30
0.0
 10
350.5612163218795
 20
224.3769333210608
 30
0.0
 10
351.0146821022929
 20
224.2654288148801
 30
0.0
 10
351.4035638639152
 20
224.1698051302951
 30
0.0
 10
351.7938279222081
 20
224.077522253441
 30
0.0
 10
352.1848176531282
 20
223.9873494262472
 30
0.0
  0
SPLINE
  5
F2
330
70
100
AcDbEntity
  8
shade
 62
     6
420
 16711935
370
    25
100
AcDbSpline
210
0.0
220
0.0
230
1.0
 70
     8
 71
     3
 72
    14
 73
    10
 74
     0
 42
0.0000000001
 43
0.0000000001
 40
0.0
 40
0.0
 40
0.0
 40
0.0
 40
1.0
 40
1.0
 40
1.0
 40
2.0
 40
2.0
 40
2.0
 40
3.0
 40
3.0
 40
3.0
 40
3.0
 10
354.1697420329539
 20
223.541559438867
 30
0.0
 10
354.4428546403665
 20
223.48062973384
 30
0.0
 10
354.7159554331539
 20
223.4193101640797
 30
0.0
 10
354.9889367365421
 20
223.3569185727964
 30
0.0
 10
355.4735656927937
 20
223.2461535813146
 30
0.0
 10
355.957818047218
 20
223.1320098370792
 30
0.0
 10
356.4228711009126
 20
222.9798011138218
 30
0.0
 10
356.4827622130357
 20
222.960199157387
 30
0.0
 10
356.5423349016375
 20
222.9399658870564
 30
0.0
 10
356.601751781331
 20
222.9194237063779
 30
0.0
  0
SPLINE
  5
F3
330
70
100
AcDbEntity
  8
shade
 62
     6
420
 16711935
370
    25
100
AcDbSpline
210
0.0
220
0.0
230
1.0
 70
     8
 71
     3
 72
     8
 73
     4
 74
     0
 42
0.0000000001
 43
0.0000000001
 40
0.0
 40
0.0
 40
0.0
 40
0.0
 40
1.0
 40
1.0
 40
1.0
 40
1.0
 10
348.6696746945507
 20
223.9314724162952
 30
0.0
 10
349.1009085993646
 20
223.7659651996605
 30
0.0
 10
349.5324015615298
 20
223.6008989276142
 30
0.0
 10
349.9673740545654
 20
223.4417552046191
 30
0.0
  0
SPLINE
  5
F4
330
70
100
AcDbEntity
  8
shade
 62
     6
420
 16711935
370
    25
100
AcDbSpline
210
0.0
220
0.0
230
1.0
 70
     8
 71
     3
 72
     8
 73
     4
 74
     0
 42
0.0000000001
 43
0.0000000001
 40
0.0
 40
0.0
 40
0.0
 40
0.0
 40
1.0
 40
1.0
 40
1.0
 40
1.0
 10
348.6375690179844
 20
223.9064645453771
 30
0.0
 10
349.0595825991674
 20
223.7444738821626
 30
0.0
 10
349.4817677448061
 20
223.5827752407539
 30
0.0
 10
349.9071429686703
 20
223.4265064678257
 30
0.0
  0
SPLINE
  5
F5
330
70
100
AcDbEntity
  8
shade
 62
     6
420
 16711935
370
    25
100
AcDbSpline
210
0.0
220
0.0
230
1.0
 70
     8
 71
     3
 72
    20
 73
    16
 74
     0
 42
0.0000000001
 43
0.0000000001
 40
0.0
 40
0.0
 40
0.0
 40
0.0
 40
1.0
 40
1.0
 40
1.0
 40
2.0
 40
2.0
 40
2.0
 40
3.0
 40
3.0
 40
3.0
 40
4.0
 40
4.0
 40
4.0
 40
5.0
 40
5.0
 40
5.0
 40
5.0
 10
347.3594195813283
 20
222.6993950279408
 30
0.0
 10
347.5317234537368
 20
222.7486007397621
 30
0.0
 10
347.7040273261819
 20
222.7978064515465
 30
0.0
 10
347.8758064890003
 20
222.8481568947207
 30
0.0
 10
348.3122948061526
 20
222.9760966275789
 30
0.0
 10
348.7453952800783
 20
223.1114274397186
 30
0.0
 10
349.1840479736862
 20
223.2343779040865
 30
0.0
 10
349.7534812640745
 20
223.3939850112905
 30
0.0
 10
350.3322709968692
 20
223.5327291092222
 30
0.0
 10
350.9100395537223
 20
223.6735841532891
 30
0.0
 10
351.5635708682045
 20
223.8329095112414
 30
0.0
 10
352.2157956340687
 20
223.9949357296126
 30
0.0
 10
352.8740109300111
 20
224.1412303265661
 30
0.0
 10
353.2255945805526
 20
224.2193731299403
 30
0.0
 10
353.5788874065476
 20
224.2930274988108
 30
0.0
 10
353.9319656075017
 20
224.3672342600864
 30
0.0
  0
SPLINE
  5
F6
330
70
100
AcDbEntity
  8
shade
 62
     6
420
 16711935
370
    25
100
AcDbSpline
210
0.0
220
0.0
230
1.0
 70
     8
 71
     3
 72
    20
 73
    16
 74
     0
 42
0.0000000001
 43
0.0000000001
 40
0.0
 40
0.0
 40
0.0
 40
0.0
 40
1.0
 40
1.0
 40
1.0
 40
2.0
 40
2.0
 40
2.0
 40
3.0
 40
3.0
 40
3.0
 40
4.0
 40
4.0
 40
4.0
 40
5.0
 40
5.0
 40
5.0
 40
5.0
 10
357.523028856267
 20
225.1957215412555
 30
0.0
 10
357.5837679534418
 20
225.2092518037348
 30
0.0
 10
357.6445070505428
 20
225.2227820662157
 30
0.0
 10
357.702386334409
 20
225.2415550851563
 30
0.0
 10
357.785087789696
 20
225.2683791210484
 30
0.0
 10
357.8619505244183
 20
225.3059069989378
 30
0.0
 10
357.9415933704023
 20
225.3390273873201
 30
0.0
 10
358.1065542171301
 20
225.4076282420443
 30
0.0
 10
358.2834420412507
 20
225.4573204913033
 30
0.0
 10
358.4638316321902
 20
225.4938363377817
 30
0.0
 10
358.6353300488753
 20
225.5285523644558
 30
0.0
 10
358.8099935441738
 20
225.5513588741142
 30
0.0
 10
358.9842438859985
 20
225.5755410616218
 30
0.0
 10
359.1083122322634
 20
225.5927590709764
 30
0.0
 10
359.2321711257594
 20
225.6106744955455
 30
0.0
 10
359.3560300192189
 20
225.628589920151
 30
0.0
  0
SPLINE
  5
F7
330
70
100
AcDbEntity
  8
shade
 62
     6
420
 16711935
370
    25
100
AcDbSpline
210
0.0
220
0.0
230
1.0
 70
     8
 71
     3
 72
    14
 73
    10
 74
     0
 42
0.0000000001
 43
0.0000000001
 40
0.0
 40
0.0
 40
0.0
 40
0.0
 40
1.0
 40
1.0
 40
1.0
 40
2.0
 40
2.0
 40
2.0
 40
3.0
 40
3.0
 40
3.0
 40
3.0
 10
354.1697420329539
 20
224.4173599476946
 30
0.0
 10
354.6010868068611
 20
224.5086795822939
 30
0.0
 10
355.0314655220815
 20
224.6025156189266
 30
0.0
 10
355.4573647213408
 20
224.7080741729404
 30
0.0
 10
355.8315316209109
 20
224.8008109447639
 30
0.0
 10
356.2022411320257
 20
224.9025954119973
 30
0.0
 10
356.5778555223939
 20
224.9914960961274
 30
0.0
 10
356.8906457395777
 20
225.0655275096686
 30
0.0
 10
357.2068372979035
 20
225.1306245254624
 30
0.0
 10
357.523028856267
 20
225.1957215412555
 30
0.0
  0
SPLINE
  5
F8
330
70
100
AcDbEntity
  8
shade
 62
     6
420
 16711935
370
    25
100
AcDbSpline
210
0.0
220
0.0
230
1.0
 70
     8
 71
     3
 72
    11
 73
     7
 74
     0
 42
0.0000000001
 43
0.0000000001
 40
0.0
 40
0.0
 40
0.0
 40
0.0
 40
1.0
 40
1.0
 40
1.0
 40
2.0
 40
2.0
 40
2.0
 40
2.0
 10
351.2865431704105
 20
222.9487709646261
 30
0.0
 10
351.9243420386577
 20
222.7423685745986
 30
0.0
 10
352.571205618855
 20
222.5528089113851
 30
0.0
 10
353.2245846140736
 20
222.3793351795346
 30
0.0
 10
353.4596429913354
 20
222.3169266017221
 30
0.0
 10
353.695544631915
 20
222.2565999597316
 30
0.0
 10
353.9319656075017
 20
222.1975555057885
 30
0.0
  0
SPLINE
  5
F9
330
70
100
AcDbEntity
  8
shade
 62
     6
420
 16711935
370
    25
100
AcDbSpline
210
0.0
220
0.0
230
1.0
 70
     8
 71
     3
 72
    11
 73
     7
 74
     0
 42
0.0000000001
 43
0.0000000001
 40
0.0
 40
0.0
 40
0.0
 40
0.0
 40
1.0
 40
1.0
 40
1.0
 40
2.0
 40
2.0
 40
2.0
 40
2.0
 10
351.35300837523
 20
222.9646640625067
 30
0.0
 10
351.9692676940786
 20
222.7665559601915
 30
0.0
 10
352.5938907327086
 20
222.5841168566129
 30
0.0
 10
353.2245846140736
 20
222.41666607839
 30
0.0
 10
353.4596429913354
 20
222.3542575005037
 30
0.0
 10
353.695544631915
 20
222.2939308585132
 30
0.0
 10
353.9319656075017
 20
222.2348864045696
 30
0.0
  0
LWPOLYLINE
  5
FA
330
70
100
AcDbEntity
  8
shade
 62
     6
420
 16711935
370
    25
100
AcDbPolyline
 90
        4
 70
     0
 43
0.0
 10
354.0608333834703
 20
206.116127386709
 10
354.7633865747418
 20
206.116127386709
 10
355.0335993406633
 20
206.5484678121318
 10
355.0335993406633
 20
206.5934848225301
  0
SPLINE
  5
FB
330
70
100
AcDbEntity
  8
shade
 62
     6
420
 16711935
370
    25
100
AcDbSpline
210
0.0
220
0.0
230
1.0
 70
     8
 71
     3
 72
     8
 73
     4
 74
     0
 42
0.0000000001
 43
0.0000000001
 40
0.0
 40
0.0
 40
0.0
 40
0.0
 40
1.0
 40
1.0
 40
1.0
 40
1.0
 10
353.4215953213458
 20
176.3927231388053
 30
0.0
 10
353.674514758674
 20
176.708619414798
 30
0.0
 10
353.674514758674
 20
177.1576779263895
 30
0.0
 10
353.4215953213458
 20
177.4735742023456
 30
0.0
  0
LWPOLYLINE
  5
FC
330
70
100
AcDbEntity
  8
shade
 62
     6
420
 16711935
370
    25
100
AcDbPolyline
 90
        4
 70
     0
 43
0.0
 10
353.4215953213458
 20
176.3927231388053
 10
353.4215953213458
 20
174.7714465434581
 10
354.7186165976531
 20
174.7714465434581
 10
354.7186165976531
 20
206.116127386709
  0
LWPOLYLINE
  5
FD
330
70
100
AcDbEntity
  8
shade
 62
     6
420
 16711935
370
    25
100
AcDbPolyline
 90
        4
 70
     0
 43
0.0
 10
354.0793785355286
 20
206.116127386709
 10
353.3768253442193
 20
206.116127386709
 10
353.106612578335
 20
206.5484678121318
 10
353.106612578335
 20
206.5934848225301
  0
ENDSEC
  0
SECTION
  2
OBJECTS
  0
DICTIONARY
  5
C
330
0
100
AcDbDictionary
281
     1
  3
ACAD_COLOR
350
63
  3
ACAD_DETAILVIEWSTYLE
350
6A
  3
ACAD_GROUP
350
D
  3
ACAD_LAYOUT
350
62
  3
ACAD_MATERIAL
350
10
  3
ACAD_MLEADERSTYLE
350
66
  3
ACAD_MLINESTYLE
350
5F
  3
ACAD_PLOTSETTINGS
350
61
  3
ACAD_PLOTSTYLENAME
350
E
  3
ACAD_SCALELIST
350
42
  3
ACAD_SECTIONVIEWSTYLE
350
68
  3
ACAD_TABLESTYLE
350
64
  3
ACAD_VISUALSTYLE
350
29
  3
ACDB_RECOMPOSE_DATA
350
106
  3
AcDbVariableDictionary
350
FE
  0
DICTIONARY
  5
63
102
{ACAD_REACTORS
330
C
102
}
330
C
100
AcDbDictionary
281
     1
  0
DICTIONARY
  5
6A
102
{ACAD_REACTORS
330
C
102
}
330
C
100
AcDbDictionary
281
     1
  3
Imperial24
350
6B
  0
DICTIONARY
  5
D
102
{ACAD_REACTORS
330
C
102
}
330
C
100
AcDbDictionary
281
     1
  0
DICTIONARY
  5
62
102
{ACAD_REACTORS
330
C
102
}
330
C
100
AcDbDictionary
281
     1
  3
Layout1
350
6F
  3
Layout2
350
77
  3
Model
350
73
  0
DICTIONARY
  5
10
102
{ACAD_REACTORS
330
C
102
}
330
C
100
AcDbDictionary
281
     1
  3
ByBlock
350
19
  3
ByLayer
350
11
  3
Global
350
21
  0
DICTIONARY
  5
66
102
{ACAD_REACTORS
330
C
102
}
330
C
100
AcDbDictionary
281
     1
  3
Standard
350
67
  0
DICTIONARY
  5
5F
102
{ACAD_REACTORS
330
C
102
}
330
C
100
AcDbDictionary
281
     1
  3
Standard
350
60
  0
DICTIONARY
  5
61
102
{ACAD_REACTORS
330
C
102
}
330
C
100
AcDbDictionary
281
     1
  0
ACDBDICTIONARYWDFLT
  5
E
102
{ACAD_REACTORS
330
C
102
}
330
C
100
AcDbDictionary
281
     1
  3
Normal
350
F
100
AcDbDictionaryWithDefault
340
F
  0
DICTIONARY
  5
42
102
{ACAD_REACTORS
330
C
102
}
330
C
100
AcDbDictionary
281
     1
  3
A0
350
43
  3
A1
350
44
  3
A2
350
45
  3
A3
350
46
  3
A4
350
47
  3
A5
350
48
  3
A6
350
49
  3
A7
350
4A
  3
A8
350
4B
  3
A9
350
4C
  3
B0
350
4D
  3
B1
350
4E
  3
B2
350
4F
  3
B3
350
50
  3
B4
350
51
  3
B5
350
52
  3
B6
350
53
  0
DICTIONARY
  5
68
102
{ACAD_REACTORS
330
C
102
}
330
C
100
AcDbDictionary
281
     1
  3
Imperial24
350
69
  0
DICTIONARY
  5
64
102
{ACAD_REACTORS
330
C
102
}
330
C
100
AcDbDictionary
281
     1
  3
Standard
350
65
  0
DICTIONARY
  5
29
102
{ACAD_REACTORS
330
C
102
}
330
C
100
AcDbDictionary
281
     1
  3
2dWireframe
350
2F
  3
Basic
350
2E
  3
Brighten
350
35
  3
ColorChange
350
39
  3
Conceptual
350
32
  3
Dim
350
34
  3
EdgeColorOff
350
41
  3
Facepattern
350
38
  3
Flat
350
2A
  3
FlatWithEdges
350
2B
  3
Gouraud
350
2C
  3
GouraudWithEdges
350
2D
  3
Hidden
350
31
  3
JitterOff
350
3F
  3
Linepattern
350
37
  3
OverhangOff
350
40
  3
Realistic
350
33
  3
Shaded
350
3E
  3
Shaded with edges
350
3D
  3
Shades of Gray
350
3A
  3
Sketchy
350
3B
  3
Thicken
350
36
  3
Wireframe
350
30
  3
X-Ray
350
3C
  0
XRECORD
  5
106
102
{ACAD_REACTORS
330
C
102
}
330
C
100
AcDbXrecord
280
     1
 90
        1
330
65
  0
DICTIONARY
  5
FE
102
{ACAD_REACTORS
330
C
102
}
330
C
100
AcDbDictionary
281
     1
  3
CANNOSCALE
350
103
  3
CMLEADERSTYLE
350
100
  3
CTABLESTYLE
350
FF
  3
CVIEWDETAILSTYLE
350
101
  3
CVIEWSECTIONSTYLE
350
102
  0
ACDBDETAILVIEWSTYLE
  5
6B
102
{ACAD_REACTORS
330
6A
102
}
330
6A
100
AcDbModelDocViewStyle
 70
     0
  3
Imperial24
290
     1
300
Imperial24
 90
        0
100
AcDbDetailViewStyle
 70
     0
 71
     0
 90
        3
 71
     1
340
55
 62
   256
 40
0.24
340
0
 62
   256
 40
0.24
300

 40
0.36
280
     3
 71
     2
340
5D
 90
       25
 62
   256
 71
     3
340
55
 62
   256
 40
0.24
 90
        1
 40
0.75
 90
        1
300
%<\AcVar ViewType \f "%tc1">% %<\AcVar ViewDetailId>%\PSCALE %<\AcVar ViewScale \f "%sn">%
 71
     4
340
5D
 90
       25
 62
   256
340
5D
 90
       25
 62
   256
280
     0
  0
LAYOUT
  5
6F
102
{ACAD_REACTORS
330
62
102
}
330
62
100
AcDbPlotSettings
  1

  2

  4

  6

 40
0.0
 41
0.0
 42
0.0
 43
0.0
 44
0.0
 45
0.0
 46
0.0
 47
0.0
 48
0.0
 49
0.0
140
0.0
141
0.0
142
1.0
143
1.0
 70
   688
 72
     0
 73
     0
 74
     5
  7

 75
    16
147
1.0
 76
     0
 77
     2
 78
   300
148
0.0
149
0.0
100
AcDbLayout
  1
Layout1
 70
     1
 71
     1
 10
0.0
 20
0.0
 11
12.0
 21
9.0
 12
0.0
 22
0.0
 32
0.0
 14
0.0
 24
0.0
 34
0.0
 15
0.0
 25
0.0
 35
0.0
146
0.0
 13
0.0
 23
0.0
 33
0.0
 16
1.0
 26
0.0
 36
0.0
 17
0.0
 27
1.0
 37
0.0
 76
     0
330
6C
  0
LAYOUT
  5
77
102
{ACAD_REACTORS
330
62
102
}
330
62
100
AcDbPlotSettings
  1

  2

  4

  6

 40
0.0
 41
0.0
 42
0.0
 43
0.0
 44
0.0
 45
0.0
 46
0.0
 47
0.0
 48
0.0
 49
0.0
140
0.0
141
0.0
142
1.0
143
1.0
 70
   688
 72
     0
 73
     0
 74
     5
  7

 75
    16
147
1.0
 76
     0
 77
     2
 78
   300
148
0.0
149
0.0
100
AcDbLayout
  1
Layout2
 70
     1
 71
     2
 10
0.0
 20
0.0
 11
12.0
 21
9.0
 12
0.0
 22
0.0
 32
0.0
 14
0.0
 24
0.0
 34
0.0
 15
0.0
 25
0.0
 35
0.0
146
0.0
 13
0.0
 23
0.0
 33
0.0
 16
1.0
 26
0.0
 36
0.0
 17
0.0
 27
1.0
 37
0.0
 76
     0
330
74
  0
LAYOUT
  5
73
102
{ACAD_REACTORS
330
62
102
}
330
62
100
AcDbPlotSettings
  1

  2

  4

  6

 40
0.0
 41
0.0
 42
0.0
 43
0.0
 44
0.0
 45
0.0
 46
0.0
 47
0.0
 48
0.0
 49
0.0
140
0.0
141
0.0
142
1.0
143
1.0
 70
  1712
 72
     0
 73
     0
 74
     0
  7

 75
     0
147
1.0
 76
     0
 77
     2
 78
   300
148
0.0
149
0.0
100
AcDbLayout
  1
Model
 70
     1
 71
     0
 10
0.0
 20
0.0
 11
12.0
 21
9.0
 12
0.0
 22
0.0
 32
0.0
 14
0.0
 24
0.0
 34
0.0
 15
0.0
 25
0.0
 35
0.0
146
0.0
 13
0.0
 23
0.0
 33
0.0
 16
1.0
 26
0.0
 36
0.0
 17
0.0
 27
1.0
 37
0.0
 76
     0
330
70
  0
MATERIAL
  5
19
102
{ACAD_XDICTIONARY
360
1A
102
}
102
{ACAD_REACTORS
330
10
102
}
330
10
100
AcDbMaterial
  1
ByBlock
 72
     0
 43
0.0208333333333333
 43
0.0
 43
0.0
 43
0.0
 43
0.0
 43
0.0208333333333333
 43
0.0
 43
0.0
 43
0.0
 43
0.0
 43
1.0
 43
0.0
 43
0.0
 43
0.0
 43
0.0
 43
1.0
 77
     0
 47
0.0208333333333333
 47
0.0
 47
0.0
 47
0.0
 47
0.0
 47
0.0208333333333333
 47
0.0
 47
0.0
 47
0.0
 47
0.0
 47
1.0
 47
0.0
 47
0.0
 47
0.0
 47
0.0
 47
1.0
171
     0
 49
0.0208333333333333
 49
0.0
 49
0.0
 49
0.0
 49
0.0
 49
0.0208333333333333
 49
0.0
 49
0.0
 49
0.0
 49
0.0
 49
1.0
 49
0.0
 49
0.0
 49
0.0
 49
0.0
 49
1.0
175
     0
142
0.0208333333333333
142
0.0
142
0.0
142
0.0
142
0.0
142
0.0208333333333333
142
0.0
142
0.0
142
0.0
142
0.0
142
1.0
142
0.0
142
0.0
142
0.0
142
0.0
142
1.0
179
     0
144
0.0208333333333333
144
0.0
144
0.0
144
0.0
144
0.0
144
0.0208333333333333
144
0.0
144
0.0
144
0.0
144
0.0
144
1.0
144
0.0
144
0.0
144
0.0
144
0.0
144
1.0
147
0.0208333333333333
147
0.0
147
0.0
147
0.0
147
0.0
147
0.0208333333333333
147
0.0
147
0.0
147
0.0
147
0.0
147
1.0
147
0.0
147
0.0
147
0.0
147
0.0
147
1.0
  0
MATERIAL
  5
11
102
{ACAD_XDICTIONARY
360
12
102
}
102
{ACAD_REACTORS
330
10
102
}
330
10
100
AcDbMaterial
  1
ByLayer
 72
     0
 43
0.0208333333333333
 43
0.0
 43
0.0
 43
0.0
 43
0.0
 43
0.0208333333333333
 43
0.0
 43
0.0
 43
0.0
 43
0.0
 43
1.0
 43
0.0
 43
0.0
 43
0.0
 43
0.0
 43
1.0
 77
     0
 47
0.0208333333333333
 47
0.0
 47
0.0
 47
0.0
 47
0.0
 47
0.0208333333333333
 47
0.0
 47
0.0
 47
0.0
 47
0.0
 47
1.0
 47
0.0
 47
0.0
 47
0.0
 47
0.0
 47
1.0
171
     0
 49
0.0208333333333333
 49
0.0
 49
0.0
 49
0.0
 49
0.0
 49
0.0208333333333333
 49
0.0
 49
0.0
 49
0.0
 49
0.0
 49
1.0
 49
0.0
 49
0.0
 49
0.0
 49
0.0
 49
1.0
175
     0
142
0.0208333333333333
142
0.0
142
0.0
142
0.0
142
0.0
142
0.0208333333333333
142
0.0
142
0.0
142
0.0
142
0.0
142
1.0
142
0.0
142
0.0
142
0.0
142
0.0
142
1.0
179
     0
144
0.0208333333333333
144
0.0
144
0.0
144
0.0
144
0.0
144
0.0208333333333333
144
0.0
144
0.0
144
0.0
144
0.0
144
1.0
144
0.0
144
0.0
144
0.0
144
0.0
144
1.0
147
0.0208333333333333
147
0.0
147
0.0
147
0.0
147
0.0
147
0.0208333333333333
147
0.0
147
0.0
147
0.0
147
0.0
147
1.0
147
0.0
147
0.0
147
0.0
147
0.0
147
1.0
  0
MATERIAL
  5
21
102
{ACAD_XDICTIONARY
360
22
102
}
102
{ACAD_REACTORS
330
10
102
}
330
10
100
AcDbMaterial
  1
Global
 72
     0
 43
0.0208333333333333
 43
0.0
 43
0.0
 43
0.0
 43
0.0
 43
0.0208333333333333
 43
0.0
 43
0.0
 43
0.0
 43
0.0
 43
1.0
 43
0.0
 43
0.0
 43
0.0
 43
0.0
 43
1.0
 77
     0
 47
0.0208333333333333
 47
0.0
 47
0.0
 47
0.0
 47
0.0
 47
0.0208333333333333
 47
0.0
 47
0.0
 47
0.0
 47
0.0
 47
1.0
 47
0.0
 47
0.0
 47
0.0
 47
0.0
 47
1.0
171
     0
 49
0.0208333333333333
 49
0.0
 49
0.0
 49
0.0
 49
0.0
 49
0.0208333333333333
 49
0.0
 49
0.0
 49
0.0
 49
0.0
 49
1.0
 49
0.0
 49
0.0
 49
0.0
 49
0.0
 49
1.0
175
     0
142
0.0208333333333333
142
0.0
142
0.0
142
0.0
142
0.0
142
0.0208333333333333
142
0.0
142
0.0
142
0.0
142
0.0
142
1.0
142
0.0
142
0.0
142
0.0
142
0.0
142
1.0
179
     0
144
0.0208333333333333
144
0.0
144
0.0
144
0.0
144
0.0
144
0.0208333333333333
144
0.0
144
0.0
144
0.0
144
0.0
144
1.0
144
0.0
144
0.0
144
0.0
144
0.0
144
1.0
147
0.0208333333333333
147
0.0
147
0.0
147
0.0
147
0.0
147
0.0208333333333333
147
0.0
147
0.0
147
0.0
147
0.0
147
1.0
147
0.0
147
0.0
147
0.0
147
0.0
147
1.0
  0
MLEADERSTYLE
  5
67
102
{ACAD_REACTORS
330
66
102
}
330
66
100
AcDbMLeaderStyle
179
     2
170
     2
171
     1
172
     0
 90
        2
 40
0.0
 41
0.0
173
     1
 91
-1056964608
340
5B
 92
       -2
290
     1
 42
0.09
291
     1
 43
0.36
  3
Standard
 44
0.18
300

342
55
174
     1
178
     6
175
     1
176
     0
 93
-1056964608
 45
0.18
292
     0
297
     0
 46
0.18
 94
-1056964608
 47
1.0
 49
1.0
140
1.0
293
     1
141
0.0
294
     1
177
     0
142
1.0
295
     1
296
     0
143
0.125
271
     0
272
     9
273
     9
298
     1
  0
MLINESTYLE
  5
60
102
{ACAD_REACTORS
330
5F
102
}
330
5F
100
AcDbMlineStyle
  2
STANDARD
 70
     0
  3

 62
   256
 51
90.0
 52
90.0
 71
     2
 49
0.5
 62
   256
  6
BYLAYER
 49
-0.5
 62
   256
  6
BYLAYER
  0
ACDBPLACEHOLDER
  5
F
102
{ACAD_REACTORS
330
E
102
}
330
E
  0
SCALE
  5
43
102
{ACAD_REACTORS
330
42
102
}
330
42
100
AcDbScale
 70
     0
300
1:1
140
1.0
141
1.0
290
     1
  0
SCALE
  5
44
102
{ACAD_REACTORS
330
42
102
}
330
42
100
AcDbScale
 70
     0
300
1/128" = 1'-0"
140
0.0078125
141
12.0
290
     0
  0
SCALE
  5
45
102
{ACAD_REACTORS
330
42
102
}
330
42
100
AcDbScale
 70
     0
300
1/64" = 1'-0"
140
0.015625
141
12.0
290
     0
  0
SCALE
  5
46
102
{ACAD_REACTORS
330
42
102
}
330
42
100
AcDbScale
 70
     0
300
1/32" = 1'-0"
140
0.03125
141
12.0
290
     0
  0
SCALE
  5
47
102
{ACAD_REACTORS
330
42
102
}
330
42
100
AcDbScale
 70
     0
300
1/16" = 1'-0"
140
0.0625
141
12.0
290
     0
  0
SCALE
  5
48
102
{ACAD_REACTORS
330
42
102
}
330
42
100
AcDbScale
 70
     0
300
3/32" = 1'-0"
140
0.09375
141
12.0
290
     0
  0
SCALE
  5
49
102
{ACAD_REACTORS
330
42
102
}
330
42
100
AcDbScale
 70
     0
300
1/8" = 1'-0"
140
0.125
141
12.0
290
     0
  0
SCALE
  5
4A
102
{ACAD_REACTORS
330
42
102
}
330
42
100
AcDbScale
 70
     0
300
3/16" = 1'-0"
140
0.1875
141
12.0
290
     0
  0
SCALE
  5
4B
102
{ACAD_REACTORS
330
42
102
}
330
42
100
AcDbScale
 70
     0
300
1/4" = 1'-0"
140
0.25
141
12.0
290
     0
  0
SCALE
  5
4C
102
{ACAD_REACTORS
330
42
102
}
330
42
100
AcDbScale
 70
     0
300
3/8" = 1'-0"
140
0.375
141
12.0
290
     0
  0
SCALE
  5
4D
102
{ACAD_REACTORS
330
42
102
}
330
42
100
AcDbScale
 70
     0
300
1/2" = 1'-0"
140
0.5
141
12.0
290
     0
  0
SCALE
  5
4E
102
{ACAD_REACTORS
330
42
102
}
330
42
100
AcDbScale
 70
     0
300
3/4" = 1'-0"
140
0.75
141
12.0
290
     0
  0
SCALE
  5
4F
102
{ACAD_REACTORS
330
42
102
}
330
42
100
AcDbScale
 70
     0
300
1" = 1'-0"
140
1.0
141
12.0
290
     0
  0
SCALE
  5
50
102
{ACAD_REACTORS
330
42
102
}
330
42
100
AcDbScale
 70
     0
300
1-1/2" = 1'-0"
140
1.5
141
12.0
290
     0
  0
SCALE
  5
51
102
{ACAD_REACTORS
330
42
102
}
330
42
100
AcDbScale
 70
     0
300
3" = 1'-0"
140
3.0
141
12.0
290
     0
  0
SCALE
  5
52
102
{ACAD_REACTORS
330
42
102
}
330
42
100
AcDbScale
 70
     0
300
6" = 1'-0"
140
6.0
141
12.0
290
     0
  0
SCALE
  5
53
102
{ACAD_REACTORS
330
42
102
}
330
42
100
AcDbScale
 70
     0
300
1'-0" = 1'-0"
140
12.0
141
12.0
290
     0
  0
ACDBSECTIONVIEWSTYLE
  5
69
102
{ACAD_REACTORS
330
68
102
}
330
68
100
AcDbModelDocViewStyle
 70
     0
  3
Imperial24
290
     1
300
Imperial24
 90
        0
100
AcDbSectionViewStyle
 70
     0
 71
     0
 90
       78
 71
     1
340
55
 62
   256
 40
0.24
340
0
340
0
 62
   256
 40
0.24
300
I, O, Q, S, X, Z
 40
0.48
 90
        3
 40
0.18
 90
        1
 71
     2
340
5D
 90
       25
 62
   256
340
5D
 90
       50
 62
   256
 40
0.24
 40
0.0
 40
0.24
 71
     3
340
55
 62
   256
 40
0.24
 90
        1
 40
0.75
 90
        1
300
%<\AcVar ViewType \f "%tc1">% %<\AcVar ViewSectionStartId>%-%<\AcVar ViewSectionEndId>%\PSCALE %<\AcVar ViewScale \f "%sn">%
 71
     4
 62
   256
 62
   257
300
ANSI31
 40
1.0
 90
        0
290
     0
290
     0
 90
        6
 40
0.0
 40
1.570796326794896
 40
0.2617993877991494
 40
1.308996938995747
 40
-0.2617993877991494
 40
1.832595714594046
  0
TABLESTYLE
  5
65
102
{ACAD_XDICTIONARY
360
104
102
}
102
{ACAD_REACTORS
330
64
102
}
330
64
100
AcDbTableStyle
280
     0
  3
Standard
 70
     0
 71
     0
 40
0.06
 41
0.06
280
     0
281
     0
  7
Standard
140
0.18
170
     2
 62
     0
 63
     7
283
     0
 90
      512
 91
        0
  1

274
    -2
284
     1
 64
     0
275
    -2
285
     1
 65
     0
276
    -2
286
     1
 66
     0
277
    -2
287
     1
 67
     0
278
    -2
288
     1
 68
     0
279
    -2
289
     1
 69
     0
  7
Standard
140
0.25
170
     5
 62
     0
 63
     7
283
     0
 90
      512
 91
        0
  1

274
    -2
284
     1
 64
     0
275
    -2
285
     1
 65
     0
276
    -2
286
     1
 66
     0
277
    -2
287
     1
 67
     0
278
    -2
288
     1
 68
     0
279
    -2
289
     1
 69
     0
  7
Standard
140
0.18
170
     5
 62
     0
 63
     7
283
     0
 90
      512
 91
        0
  1

274
    -2
284
     1
 64
     0
275
    -2
285
     1
 65
     0
276
    -2
286
     1
 66
     0
277
    -2
287
     1
 67
     0
278
    -2
288
     1
 68
     0
279
    -2
289
     1
 69
     0
  0
VISUALSTYLE
  5
2F
102
{ACAD_REACTORS
330
29
102
}
330
29
100
AcDbVisualStyle
  2
2dWireframe
 70
     4
177
     3
291
     0
 70
    58
 90
        0
176
     1
 90
        2
176
     1
 90
        0
176
     1
 90
        0
176
     1
 40
0.6
176
     1
 40
30.0
176
     1
 62
     7
420
 16777215
176
     1
 90
        1
176
     1
 90
        4
176
     1
 62
     7
176
     1
 62
   257
176
     1
 90
        1
176
     1
 90
        1
176
     1
 40
1.0
176
     1
 90
        0
176
     1
 62
   257
176
     1
 40
1.0
176
     1
 90
        1
176
     1
 90
        6
176
     1
 90
        2
176
     1
 62
     7
176
     1
 90
        5
176
     1
 90
        0
176
     1
 90
        0
176
     1
290
     0
176
     1
 90
        1
176
     1
 40
0.0
176
     1
 90
        0
176
     1
290
     1
176
     1
290
     1
176
     1
290
     0
176
     1
290
     0
176
     1
290
     0
176
     1
290
     0
176
     1
290
     0
176
     1
290
     0
176
     1
290
     0
176
     1
 90
       50
176
     1
 40
0.0
176
     1
 40
1.0
176
     1
 90
        0
176
     1
 62
    18
420
        0
176
     1
 90
       50
176
     1
 90
        3
176
     1
 62
     5
420
      255
176
     1
290
     0
176
     1
 90
       50
176
     1
 90
       50
176
     1
 90
       50
176
     1
290
     0
176
     1
 90
       50
176
     1
 62
   256
176
     0
 40
1.0
176
     0
 90
        2
176
     1
  1
strokes_ogs.tif
176
     1
290
     0
176
     1
 40
1.0
176
     1
 40
1.0
176
     1
  0
VISUALSTYLE
  5
2E
102
{ACAD_REACTORS
330
29
102
}
330
29
100
AcDbVisualStyle
  2
Basic
 70
     7
177
     3
291
     1
 70
    58
 90
        1
176
     1
 90
        0
176
     1
 90
        1
176
     1
 90
        0
176
     1
 40
0.6
176
     1
 40
30.0
176
     1
 62
     7
420
 16777215
176
     1
 90
        0
176
     1
 90
        4
176
     1
 62
     7
176
     1
 62
   257
176
     1
 90
        1
176
     1
 90
        1
176
     1
 40
1.0
176
     1
 90
        8
176
     1
 62
     7
176
     1
 40
1.0
176
     1
 90
        1
176
     1
 90
        6
176
     1
 90
        2
176
     1
 62
     7
176
     1
 90
        5
176
     1
 90
        0
176
     1
 90
        0
176
     1
290
     0
176
     1
 90
        1
176
     1
 40
0.0
176
     1
 90
        0
176
     1
290
     0
176
     1
290
     1
176
     1
290
     1
176
     1
290
     0
176
     1
290
     0
176
     1
290
     0
176
     1
290
     0
176
     1
290
     0
176
     1
290
     0
176
     1
 90
       50
176
     1
 40
0.0
176
     1
 40
1.0
176
     1
 90
        0
176
     1
 62
    18
420
        0
176
     1
 90
       50
176
     1
 90
        3
176
     1
 62
     5
420
      255
176
     1
290
     0
176
     1
 90
       50
176
     1
 90
       50
176
     1
 90
       50
176
     1
290
     0
176
     1
 90
       50
176
     1
 62
   256
176
     0
 40
1.0
176
     0
 90
        2
176
     1
  1
strokes_ogs.tif
176
     1
290
     0
176
     1
 40
1.0
176
     1
 40
1.0
176
     1
  0
VISUALSTYLE
  5
35
102
{ACAD_REACTORS
330
29
102
}
330
29
100
AcDbVisualStyle
  2
Brighten
 70
    12
177
     3
291
     1
 70
    58
 90
        2
176
     1
 90
        2
176
     1
 90
        0
176
     1
 90
        0
176
     1
 40
0.6
176
     1
 40
30.0
176
     1
 62
     7
420
 16777215
176
     1
 90
        1
176
     1
 90
        4
176
     1
 62
     7
176
     1
 62
   257
176
     1
 90
        1
176
     1
 90
        1
176
     1
 40
1.0
176
     1
 90
        8
176
     1
 62
     7
176
     1
 40
1.0
176
     1
 90
        1
176
     1
 90
        6
176
     1
 90
        2
176
     1
 62
     7
176
     1
 90
        5
176
     1
 90
        0
176
     1
 90
        0
176
     1
290
     0
176
     1
 90
        1
176
     1
 40
50.0
176
     1
 90
        0
176
     1
290
     0
176
     1
290
     1
176
     1
290
     1
176
     1
290
     0
176
     1
290
     0
176
     1
290
     0
176
     1
290
     0
176
     1
290
     0
176
     1
290
     0
176
     1
 90
       50
176
     1
 40
0.0
176
     1
 40
1.0
176
     1
 90
        0
176
     1
 62
    18
420
        0
176
     1
 90
       50
176
     1
 90
        3
176
     1
 62
     5
420
      255
176
     1
290
     0
176
     1
 90
       50
176
     1
 90
       50
176
     1
 90
       50
176
     1
290
     0
176
     1
 90
       50
176
     1
 62
   256
176
     0
 40
1.0
176
     0
 90
        2
176
     1
  1
strokes_ogs.tif
176
     1
290
     0
176
     1
 40
1.0
176
     1
 40
1.0
176
     1
  0
VISUALSTYLE
  5
39
102
{ACAD_REACTORS
330
29
102
}
330
29
100
AcDbVisualStyle
  2
ColorChange
 70
    16
177
     3
291
     1
 70
    58
 90
        2
176
     1
 90
        2
176
     1
 90
        3
176
     1
 90
        0
176
     1
 40
0.6
176
     1
 40
30.0
176
     1
 62
     8
420
  8421504
176
     1
 90
        1
176
     1
 90
        4
176
     1
 62
     7
176
     1
 62
   257
176
     1
 90
        1
176
     1
 90
        1
176
     1
 40
1.0
176
     1
 90
        8
176
     1
 62
     8
420
  8421504
176
     1
 40
1.0
176
     1
 90
        1
176
     1
 90
        6
176
     1
 90
        2
176
     1
 62
     7
176
     1
 90
        5
176
     1
 90
        0
176
     1
 90
        0
176
     1
290
     0
176
     1
 90
        1
176
     1
 40
0.0
176
     1
 90
        0
176
     1
290
     0
176
     1
290
     1
176
     1
290
     1
176
     1
290
     0
176
     1
290
     0
176
     1
290
     0
176
     1
290
     0
176
     1
290
     0
176
     1
290
     0
176
     1
 90
       50
176
     1
 40
0.0
176
     1
 40
1.0
176
     1
 90
        0
176
     1
 62
    18
420
        0
176
     1
 90
       50
176
     1
 90
        3
176
     1
 62
     5
420
      255
176
     1
290
     0
176
     1
 90
       50
176
     1
 90
       50
176
     1
 90
       50
176
     1
290
     0
176
     1
 90
       50
176
     1
 62
   256
176
     0
 40
1.0
176
     0
 90
        2
176
     1
  1
strokes_ogs.tif
176
     1
290
     0
176
     1
 40
1.0
176
     1
 40
1.0
176
     1
  0
VISUALSTYLE
  5
32
102
{ACAD_REACTORS
330
29
102
}
330
29
100
AcDbVisualStyle
  2
Conceptual
 70
     9
177
     3
291
     0
 70
    58
 90
        3
176
     1
 90
        2
176
     1
 90
        0
176
     1
 90
        0
176
     1
 40
0.6
176
     1
 40
30.0
176
     1
 62
     7
420
 16777215
176
     1
 90
        2
176
     1
 90
        2
176
     1
 62
     7
176
     1
 62
   257
176
     1
 90
        1
176
     1
 90
        1
176
     1
 40
179.0
176
     1
 90
        8
176
     1
 62
     7
176
     1
 40
1.0
176
     1
 90
        1
176
     1
 90
        6
176
     1
 90
        2
176
     1
 62
     7
176
     1
 90
        3
176
     1
 90
        0
176
     1
 90
        0
176
     1
290
     0
176
     1
 90
        1
176
     1
 40
0.0
176
     1
 90
        0
176
     1
290
     0
176
     1
290
     1
176
     1
290
     1
176
     1
290
     0
176
     1
290
     0
176
     1
290
     0
176
     1
290
     0
176
     1
290
     0
176
     1
290
     0
176
     1
 90
       50
176
     1
 40
0.0
176
     1
 40
1.0
176
     1
 90
        0
176
     1
 62
    18
420
        0
176
     1
 90
       50
176
     1
 90
        3
176
     1
 62
     5
420
      255
176
     1
290
     0
176
     1
 90
       50
176
     1
 90
       50
176
     1
 90
       50
176
     1
290
     0
176
     1
 90
       50
176
     1
 62
   256
176
     0
 40
1.0
176
     0
 90
        2
176
     1
  1
strokes_ogs.tif
176
     1
290
     0
176
     1
 40
1.0
176
     1
 40
1.0
176
     1
  0
VISUALSTYLE
  5
34
102
{ACAD_REACTORS
330
29
102
}
330
29
100
AcDbVisualStyle
  2
Dim
 70
    11
177
     3
291
     1
 70
    58
 90
        2
176
     1
 90
        2
176
     1
 90
        0
176
     1
 90
        0
176
     1
 40
0.6
176
     1
 40
30.0
176
     1
 62
     7
420
 16777215
176
     1
 90
        1
176
     1
 90
        4
176
     1
 62
     7
176
     1
 62
   257
176
     1
 90
        1
176
     1
 90
        1
176
     1
 40
1.0
176
     1
 90
        8
176
     1
 62
     7
176
     1
 40
1.0
176
     1
 90
        1
176
     1
 90
        6
176
     1
 90
        2
176
     1
 62
     7
176
     1
 90
        5
176
     1
 90
        0
176
     1
 90
        0
176
     1
290
     0
176
     1
 90
        1
176
     1
 40
-50.0
176
     1
 90
        0
176
     1
290
     0
176
     1
290
     1
176
     1
290
     1
176
     1
290
     0
176
     1
290
     0
176
     1
290
     0
176
     1
290
     0
176
     1
290
     0
176
     1
290
     0
176
     1
 90
       50
176
     1
 40
0.0
176
     1
 40
1.0
176
     1
 90
        0
176
     1
 62
    18
420
        0
176
     1
 90
       50
176
     1
 90
        3
176
     1
 62
     5
420
      255
176
     1
290
     0
176
     1
 90
       50
176
     1
 90
       50
176
     1
 90
       50
176
     1
290
     0
176
     1
 90
       50
176
     1
 62
   256
176
     0
 40
1.0
176
     0
 90
        2
176
     1
  1
strokes_ogs.tif
176
     1
290
     0
176
     1
 40
1.0
176
     1
 40
1.0
176
     1
  0
VISUALSTYLE
  5
41
102
{ACAD_REACTORS
330
29
102
}
330
29
100
AcDbVisualStyle
  2
EdgeColorOff
 70
    22
177
     3
291
     1
 70
    58
 90
        2
176
     0
 90
        2
176
     0
 90
        0
176
     0
 90
        0
176
     0
 40
0.6
176
     0
 40
30.0
176
     0
 62
     7
420
 16777215
176
     0
 90
        1
176
     0
 90
        4
176
     0
 62
     7
176
     0
 62
   257
176
     0
 90
        1
176
     0
 90
        1
176
     0
 40
1.0
176
     0
 90
        8
176
     2
 62
     7
176
     0
 40
1.0
176
     0
 90
        1
176
     0
 90
        6
176
     0
 90
        2
176
     0
 62
     7
176
     0
 90
        5
176
     0
 90
        0
176
     0
 90
        0
176
     0
290
     0
176
     0
 90
        1
176
     0
 40
0.0
176
     0
 90
        0
176
     0
290
     0
176
     0
290
     1
176
     0
290
     1
176
     0
290
     0
176
     0
290
     0
176
     0
290
     0
176
     0
290
     0
176
     0
290
     0
176
     0
290
     0
176
     0
 90
       50
176
     0
 40
0.0
176
     0
 40
1.0
176
     0
 90
        0
176
     0
 62
    18
420
        0
176
     0
 90
       50
176
     0
 90
        3
176
     0
 62
     5
420
      255
176
     0
290
     0
176
     0
 90
       50
176
     0
 90
       50
176
     0
 90
       50
176
     0
290
     0
176
     0
 90
       50
176
     0
 62
   256
176
     0
 40
1.0
176
     0
 90
        2
176
     0
  1
strokes_ogs.tif
176
     0
290
     0
176
     0
 40
1.0
176
     0
 40
1.0
176
     0
  0
VISUALSTYLE
  5
38
102
{ACAD_REACTORS
330
29
102
}
330
29
100
AcDbVisualStyle
  2
Facepattern
 70
    15
177
     3
291
     1
 70
    58
 90
        2
176
     1
 90
        2
176
     1
 90
        0
176
     1
 90
        0
176
     1
 40
0.6
176
     1
 40
30.0
176
     1
 62
     7
420
 16777215
176
     1
 90
        1
176
     1
 90
        4
176
     1
 62
     7
176
     1
 62
   257
176
     1
 90
        1
176
     1
 90
        1
176
     1
 40
1.0
176
     1
 90
        8
176
     1
 62
     7
176
     1
 40
1.0
176
     1
 90
        1
176
     1
 90
        6
176
     1
 90
        2
176
     1
 62
     7
176
     1
 90
        5
176
     1
 90
        0
176
     1
 90
        0
176
     1
290
     0
176
     1
 90
        1
176
     1
 40
0.0
176
     1
 90
        0
176
     1
290
     0
176
     1
290
     1
176
     1
290
     1
176
     1
290
     0
176
     1
290
     0
176
     1
290
     0
176
     1
290
     0
176
     1
290
     0
176
     1
290
     0
176
     1
 90
       50
176
     1
 40
0.0
176
     1
 40
1.0
176
     1
 90
        0
176
     1
 62
    18
420
        0
176
     1
 90
       50
176
     1
 90
        3
176
     1
 62
     5
420
      255
176
     1
290
     0
176
     1
 90
       50
176
     1
 90
       50
176
     1
 90
       50
176
     1
290
     0
176
     1
 90
       50
176
     1
 62
   256
176
     0
 40
1.0
176
     0
 90
        2
176
     1
  1
strokes_ogs.tif
176
     1
290
     0
176
     1
 40
1.0
176
     1
 40
1.0
176
     1
  0
VISUALSTYLE
  5
2A
102
{ACAD_REACTORS
330
29
102
}
330
29
100
AcDbVisualStyle
  2
Flat
 70
     0
177
     3
291
     1
 70
    58
 90
        2
176
     1
 90
        1
176
     1
 90
        1
176
     1
 90
        2
176
     1
 40
0.6
176
     1
 40
30.0
176
     1
 62
     7
420
 16777215
176
     1
 90
        0
176
     1
 90
        0
176
     1
 62
     7
176
     1
 62
   257
176
     1
 90
        1
176
     1
 90
        1
176
     1
 40
1.0
176
     1
 90
        8
176
     1
 62
     7
176
     1
 40
1.0
176
     1
 90
        1
176
     1
 90
        6
176
     1
 90
        2
176
     1
 62
     7
176
     1
 90
        5
176
     1
 90
        0
176
     1
 90
        0
176
     1
290
     0
176
     1
 90
       13
176
     1
 40
0.0
176
     1
 90
        0
176
     1
290
     0
176
     1
290
     1
176
     1
290
     1
176
     1
290
     0
176
     1
290
     0
176
     1
290
     0
176
     1
290
     0
176
     1
290
     0
176
     1
290
     0
176
     1
 90
       50
176
     1
 40
0.0
176
     1
 40
1.0
176
     1
 90
        0
176
     1
 62
    18
420
        0
176
     1
 90
       50
176
     1
 90
        3
176
     1
 62
     5
420
      255
176
     1
290
     0
176
     1
 90
       50
176
     1
 90
       50
176
     1
 90
       50
176
     1
290
     0
176
     1
 90
       50
176
     1
 62
   256
176
     0
 40
1.0
176
     0
 90
        2
176
     1
  1
strokes_ogs.tif
176
     1
290
     0
176
     1
 40
1.0
176
     1
 40
1.0
176
     1
  0
VISUALSTYLE
  5
2B
102
{ACAD_REACTORS
330
29
102
}
330
29
100
AcDbVisualStyle
  2
FlatWithEdges
 70
     1
177
     3
291
     1
 70
    58
 90
        2
176
     1
 90
        1
176
     1
 90
        1
176
     1
 90
        2
176
     1
 40
0.6
176
     1
 40
30.0
176
     1
 62
     7
420
 16777215
176
     1
 90
        1
176
     1
 90
        0
176
     1
 62
     7
176
     1
 62
   257
176
     1
 90
        1
176
     1
 90
        1
176
     1
 40
1.0
176
     1
 90
        0
176
     1
 62
   257
176
     1
 40
1.0
176
     1
 90
        1
176
     1
 90
        6
176
     1
 90
        2
176
     1
 62
     7
176
     1
 90
        5
176
     1
 90
        0
176
     1
 90
        0
176
     1
290
     0
176
     1
 90
       13
176
     1
 40
0.0
176
     1
 90
        0
176
     1
290
     0
176
     1
290
     1
176
     1
290
     1
176
     1
290
     0
176
     1
290
     0
176
     1
290
     0
176
     1
290
     0
176
     1
290
     0
176
     1
290
     0
176
     1
 90
       50
176
     1
 40
0.0
176
     1
 40
1.0
176
     1
 90
        0
176
     1
 62
    18
420
        0
176
     1
 90
       50
176
     1
 90
        3
176
     1
 62
     5
420
      255
176
     1
290
     0
176
     1
 90
       50
176
     1
 90
       50
176
     1
 90
       50
176
     1
290
     0
176
     1
 90
       50
176
     1
 62
   256
176
     0
 40
1.0
176
     0
 90
        2
176
     1
  1
strokes_ogs.tif
176
     1
290
     0
176
     1
 40
1.0
176
     1
 40
1.0
176
     1
  0
VISUALSTYLE
  5
2C
102
{ACAD_REACTORS
330
29
102
}
330
29
100
AcDbVisualStyle
  2
Gouraud
 70
     2
177
     3
291
     1
 70
    58
 90
        2
176
     1
 90
        2
176
     1
 90
        1
176
     1
 90
        2
176
     1
 40
0.6
176
     1
 40
30.0
176
     1
 62
     7
420
 16777215
176
     1
 90
        0
176
     1
 90
        0
176
     1
 62
     7
176
     1
 62
   257
176
     1
 90
        1
176
     1
 90
        1
176
     1
 40
1.0
176
     1
 90
        0
176
     1
 62
     7
176
     1
 40
1.0
176
     1
 90
        1
176
     1
 90
        6
176
     1
 90
        2
176
     1
 62
     7
176
     1
 90
        5
176
     1
 90
        0
176
     1
 90
        0
176
     1
290
     0
176
     1
 90
       13
176
     1
 40
0.0
176
     1
 90
        0
176
     1
290
     0
176
     1
290
     1
176
     1
290
     1
176
     1
290
     0
176
     1
290
     0
176
     1
290
     0
176
     1
290
     0
176
     1
290
     0
176
     1
290
     0
176
     1
 90
       50
176
     1
 40
0.0
176
     1
 40
1.0
176
     1
 90
        0
176
     1
 62
    18
420
        0
176
     1
 90
       50
176
     1
 90
        3
176
     1
 62
     5
420
      255
176
     1
290
     0
176
     1
 90
       50
176
     1
 90
       50
176
     1
 90
       50
176
     1
290
     0
176
     1
 90
       50
176
     1
 62
   256
176
     0
 40
1.0
176
     0
 90
        2
176
     1
  1
strokes_ogs.tif
176
     1
290
     0
176
     1
 40
1.0
176
     1
 40
1.0
176
     1
  0
VISUALSTYLE
  5
2D
102
{ACAD_REACTORS
330
29
102
}
330
29
100
AcDbVisualStyle
  2
GouraudWithEdges
 70
     3
177
     3
291
     1
 70
    58
 90
        2
176
     1
 90
        2
176
     1
 90
        1
176
     1
 90
        2
176
     1
 40
0.6
176
     1
 40
30.0
176
     1
 62
     7
420
 16777215
176
     1
 90
        1
176
     1
 90
        0
176
     1
 62
     7
176
     1
 62
   257
176
     1
 90
        1
176
     1
 90
        1
176
     1
 40
1.0
176
     1
 90
        0
176
     1
 62
   257
176
     1
 40
1.0
176
     1
 90
        1
176
     1
 90
        6
176
     1
 90
        2
176
     1
 62
     7
176
     1
 90
        5
176
     1
 90
        0
176
     1
 90
        0
176
     1
290
     0
176
     1
 90
       13
176
     1
 40
0.0
176
     1
 90
        0
176
     1
290
     0
176
     1
290
     1
176
     1
290
     1
176
     1
290
     0
176
     1
290
     0
176
     1
290
     0
176
     1
290
     0
176
     1
290
     0
176
     1
290
     0
176
     1
 90
       50
176
     1
 40
0.0
176
     1
 40
1.0
176
     1
 90
        0
176
     1
 62
    18
420
        0
176
     1
 90
       50
176
     1
 90
        3
176
     1
 62
     5
420
      255
176
     1
290
     0
176
     1
 90
       50
176
     1
 90
       50
176
     1
 90
       50
176
     1
290
     0
176
     1
 90
       50
176
     1
 62
   256
176
     0
 40
1.0
176
     0
 90
        2
176
     1
  1
strokes_ogs.tif
176
     1
290
     0
176
     1
 40
1.0
176
     1
 40
1.0
176
     1
  0
VISUALSTYLE
  5
31
102
{ACAD_REACTORS
330
29
102
}
330
29
100
AcDbVisualStyle
  2
Hidden
 70
     6
177
     3
291
     0
 70
    58
 90
        1
176
     1
 90
        2
176
     1
 90
        2
176
     1
 90
        0
176
     1
 40
0.6
176
     1
 40
30.0
176
     1
 62
     7
420
 16777215
176
     1
 90
        2
176
     1
 90
        2
176
     1
 62
     7
176
     1
 62
   257
176
     1
 90
        2
176
     1
 90
        1
176
     1
 40
40.0
176
     1
 90
        0
176
     1
 62
   257
176
     1
 40
1.0
176
     1
 90
        1
176
     1
 90
        6
176
     1
 90
        2
176
     1
 62
     7
176
     1
 90
        3
176
     1
 90
        0
176
     1
 90
        0
176
     1
290
     0
176
     1
 90
        1
176
     1
 40
0.0
176
     1
 90
        0
176
     1
290
     0
176
     1
290
     1
176
     1
290
     1
176
     1
290
     0
176
     1
290
     0
176
     1
290
     0
176
     1
290
     0
176
     1
290
     0
176
     1
290
     0
176
     1
 90
       50
176
     1
 40
0.0
176
     1
 40
1.0
176
     1
 90
        0
176
     1
 62
    18
420
        0
176
     1
 90
       50
176
     1
 90
        3
176
     1
 62
     5
420
      255
176
     1
290
     0
176
     1
 90
       50
176
     1
 90
       50
176
     1
 90
       50
176
     1
290
     0
176
     1
 90
       50
176
     1
 62
   256
176
     0
 40
1.0
176
     0
 90
        2
176
     1
  1
strokes_ogs.tif
176
     1
290
     0
176
     1
 40
1.0
176
     1
 40
1.0
176
     1
  0
VISUALSTYLE
  5
3F
102
{ACAD_REACTORS
330
29
102
}
330
29
100
AcDbVisualStyle
  2
JitterOff
 70
    20
177
     3
291
     1
 70
    58
 90
        2
176
     0
 90
        2
176
     0
 90
        0
176
     0
 90
        0
176
     0
 40
0.6
176
     0
 40
30.0
176
     0
 62
     7
420
 16777215
176
     0
 90
        1
176
     0
 90
        4
176
     0
 62
     7
176
     0
 62
   257
176
     0
 90
        1
176
     0
 90
        1
176
     0
 40
1.0
176
     0
 90
       10
176
     2
 62
     7
176
     0
 40
1.0
176
     0
 90
        1
176
     0
 90
        6
176
     0
 90
        2
176
     0
 62
     7
176
     0
 90
        5
176
     0
 90
        0
176
     0
 90
        0
176
     0
290
     0
176
     0
 90
        1
176
     0
 40
0.0
176
     0
 90
        0
176
     0
290
     0
176
     0
290
     1
176
     0
290
     1
176
     0
290
     0
176
     0
290
     0
176
     0
290
     0
176
     0
290
     0
176
     0
290
     0
176
     0
290
     0
176
     0
 90
       50
176
     0
 40
0.0
176
     0
 40
1.0
176
     0
 90
        0
176
     0
 62
    18
420
        0
176
     0
 90
       50
176
     0
 90
        3
176
     0
 62
     5
420
      255
176
     0
290
     0
176
     0
 90
       50
176
     0
 90
       50
176
     0
 90
       50
176
     0
290
     0
176
     0
 90
       50
176
     0
 62
   256
176
     0
 40
1.0
176
     0
 90
        2
176
     0
  1
strokes_ogs.tif
176
     0
290
     0
176
     0
 40
1.0
176
     0
 40
1.0
176
     0
  0
VISUALSTYLE
  5
37
102
{ACAD_REACTORS
330
29
102
}
330
29
100
AcDbVisualStyle
  2
Linepattern
 70
    14
177
     3
291
     1
 70
    58
 90
        2
176
     1
 90
        2
176
     1
 90
        0
176
     1
 90
        0
176
     1
 40
0.6
176
     1
 40
30.0
176
     1
 62
     7
420
 16777215
176
     1
 90
        1
176
     1
 90
        4
176
     1
 62
     7
176
     1
 62
   257
176
     1
 90
        7
176
     1
 90
        7
176
     1
 40
1.0
176
     1
 90
        8
176
     1
 62
     7
176
     1
 40
1.0
176
     1
 90
        1
176
     1
 90
        6
176
     1
 90
        2
176
     1
 62
     7
176
     1
 90
        5
176
     1
 90
        0
176
     1
 90
        0
176
     1
290
     0
176
     1
 90
        1
176
     1
 40
0.0
176
     1
 90
        0
176
     1
290
     0
176
     1
290
     1
176
     1
290
     1
176
     1
290
     0
176
     1
290
     0
176
     1
290
     0
176
     1
290
     0
176
     1
290
     0
176
     1
290
     0
176
     1
 90
       50
176
     1
 40
0.0
176
     1
 40
1.0
176
     1
 90
        0
176
     1
 62
    18
420
        0
176
     1
 90
       50
176
     1
 90
        3
176
     1
 62
     5
420
      255
176
     1
290
     0
176
     1
 90
       50
176
     1
 90
       50
176
     1
 90
       50
176
     1
290
     0
176
     1
 90
       50
176
     1
 62
   256
176
     0
 40
1.0
176
     0
 90
        2
176
     1
  1
strokes_ogs.tif
176
     1
290
     0
176
     1
 40
1.0
176
     1
 40
1.0
176
     1
  0
VISUALSTYLE
  5
40
102
{ACAD_REACTORS
330
29
102
}
330
29
100
AcDbVisualStyle
  2
OverhangOff
 70
    21
177
     3
291
     1
 70
    58
 90
        2
176
     0
 90
        2
176
     0
 90
        0
176
     0
 90
        0
176
     0
 40
0.6
176
     0
 40
30.0
176
     0
 62
     7
420
 16777215
176
     0
 90
        1
176
     0
 90
        4
176
     0
 62
     7
176
     0
 62
   257
176
     0
 90
        1
176
     0
 90
        1
176
     0
 40
1.0
176
     0
 90
        9
176
     2
 62
     7
176
     0
 40
1.0
176
     0
 90
        1
176
     0
 90
        6
176
     0
 90
        2
176
     0
 62
     7
176
     0
 90
        5
176
     0
 90
        0
176
     0
 90
        0
176
     0
290
     0
176
     0
 90
        1
176
     0
 40
0.0
176
     0
 90
        0
176
     0
290
     0
176
     0
290
     1
176
     0
290
     1
176
     0
290
     0
176
     0
290
     0
176
     0
290
     0
176
     0
290
     0
176
     0
290
     0
176
     0
290
     0
176
     0
 90
       50
176
     0
 40
0.0
176
     0
 40
1.0
176
     0
 90
        0
176
     0
 62
    18
420
        0
176
     0
 90
       50
176
     0
 90
        3
176
     0
 62
     5
420
      255
176
     0
290
     0
176
     0
 90
       50
176
     0
 90
       50
176
     0
 90
       50
176
     0
290
     0
176
     0
 90
       50
176
     0
 62
   256
176
     0
 40
1.0
176
     0
 90
        2
176
     0
  1
strokes_ogs.tif
176
     0
290
     0
176
     0
 40
1.0
176
     0
 40
1.0
176
     0
  0
VISUALSTYLE
  5
33
102
{ACAD_REACTORS
330
29
102
}
330
29
100
AcDbVisualStyle
  2
Realistic
 70
     8
177
     3
291
     0
 70
    58
 90
        2
176
     1
 90
        3
176
     1
 90
        0
176
     1
 90
        2
176
     1
 40
0.6
176
     1
 40
30.0
176
     1
 62
     7
420
 16777215
176
     1
 90
        0
176
     1
 90
        0
176
     1
 62
     7
176
     1
 62
   257
176
     1
 90
        1
176
     1
 90
        1
176
     1
 40
1.0
176
     1
 90
        8
176
     1
 62
   257
176
     1
 40
1.0
176
     1
 90
        1
176
     1
 90
        6
176
     1
 90
        2
176
     1
 62
     7
176
     1
 90
        3
176
     1
 90
        0
176
     1
 90
        0
176
     1
290
     0
176
     1
 90
       13
176
     1
 40
0.0
176
     1
 90
        0
176
     1
290
     0
176
     1
290
     1
176
     1
290
     1
176
     1
290
     0
176
     1
290
     0
176
     1
290
     0
176
     1
290
     0
176
     1
290
     0
176
     1
290
     0
176
     1
 90
       50
176
     1
 40
0.0
176
     1
 40
1.0
176
     1
 90
        0
176
     1
 62
    18
420
        0
176
     1
 90
       50
176
     1
 90
        3
176
     1
 62
     5
420
      255
176
     1
290
     0
176
     1
 90
       50
176
     1
 90
       50
176
     1
 90
       50
176
     1
290
     0
176
     1
 90
       50
176
     1
 62
   256
176
     0
 40
1.0
176
     0
 90
        2
176
     1
  1
strokes_ogs.tif
176
     1
290
     0
176
     1
 40
1.0
176
     1
 40
1.0
176
     1
  0
VISUALSTYLE
  5
3E
102
{ACAD_REACTORS
330
29
102
}
330
29
100
AcDbVisualStyle
  2
Shaded
 70
    27
177
     3
291
     0
 70
    58
 90
        2
176
     1
 90
        2
176
     1
 90
        1
176
     1
 90
        2
176
     1
 40
0.6
176
     1
 40
30.0
176
     1
 62
     7
420
 16777215
176
     1
 90
        0
176
     1
 90
        4
176
     1
 62
     7
176
     1
 62
   257
176
     1
 90
        1
176
     1
 90
        1
176
     1
 40
1.0
176
     1
 90
        8
176
     1
 62
   257
176
     1
 40
1.0
176
     1
 90
        1
176
     1
 90
        6
176
     1
 90
        2
176
     1
 62
     8
420
  7895160
176
     1
 90
        3
176
     1
 90
        0
176
     1
 90
        0
176
     1
290
     0
176
     1
 90
        5
176
     1
 40
0.0
176
     1
 90
        0
176
     1
290
     0
176
     1
290
     1
176
     1
290
     1
176
     1
290
     0
176
     1
290
     0
176
     1
290
     0
176
     1
290
     0
176
     1
290
     0
176
     1
290
     0
176
     1
 90
       50
176
     1
 40
0.0
176
     1
 40
1.0
176
     1
 90
        0
176
     1
 62
    18
420
        0
176
     1
 90
       50
176
     1
 90
        3
176
     1
 62
     5
420
      255
176
     1
290
     0
176
     1
 90
       50
176
     1
 90
       50
176
     1
 90
       50
176
     1
290
     0
176
     1
 90
       50
176
     1
 62
   256
176
     0
 40
1.0
176
     0
 90
        2
176
     1
  1
strokes_ogs.tif
176
     1
290
     0
176
     1
 40
1.0
176
     1
 40
1.0
176
     1
  0
VISUALSTYLE
  5
3D
102
{ACAD_REACTORS
330
29
102
}
330
29
100
AcDbVisualStyle
  2
Shaded with edges
 70
    26
177
     3
291
     0
 70
    58
 90
        2
176
     1
 90
        2
176
     1
 90
        1
176
     1
 90
        2
176
     1
 40
0.6
176
     1
 40
30.0
176
     1
 62
     7
420
 16777215
176
     1
 90
        1
176
     1
 90
        2
176
     1
 62
     7
176
     1
 62
   257
176
     1
 90
        2
176
     1
 90
        1
176
     1
 40
1.0
176
     1
 90
        8
176
     1
 62
   257
176
     1
 40
1.0
176
     1
 90
        1
176
     1
 90
        6
176
     1
 90
        2
176
     1
 62
     7
176
     1
 90
        3
176
     1
 90
        0
176
     1
 90
        0
176
     1
290
     0
176
     1
 90
        5
176
     1
 40
0.0
176
     1
 90
        0
176
     1
290
     0
176
     1
290
     1
176
     1
290
     1
176
     1
290
     0
176
     1
290
     0
176
     1
290
     0
176
     1
290
     0
176
     1
290
     0
176
     1
290
     0
176
     1
 90
       50
176
     1
 40
0.0
176
     1
 40
1.0
176
     1
 90
        0
176
     1
 62
    18
420
        0
176
     1
 90
       50
176
     1
 90
        3
176
     1
 62
     5
420
      255
176
     1
290
     0
176
     1
 90
       50
176
     1
 90
       50
176
     1
 90
       50
176
     1
290
     0
176
     1
 90
       50
176
     1
 62
   256
176
     0
 40
1.0
176
     0
 90
        2
176
     1
  1
strokes_ogs.tif
176
     1
290
     0
176
     1
 40
1.0
176
     1
 40
1.0
176
     1
  0
VISUALSTYLE
  5
3A
102
{ACAD_REACTORS
330
29
102
}
330
29
100
AcDbVisualStyle
  2
Shades of Gray
 70
    23
177
     3
291
     0
 70
    58
 90
        2
176
     1
 90
        2
176
     1
 90
        3
176
     1
 90
        0
176
     1
 40
0.6
176
     1
 40
30.0
176
     1
 62
     7
420
 16777215
176
     1
 90
        2
176
     1
 90
        2
176
     1
 62
     7
176
     1
 62
     7
176
     1
 90
        1
176
     1
 90
        1
176
     1
 40
40.0
176
     1
 90
        8
176
     1
 62
     7
176
     1
 40
1.0
176
     1
 90
        1
176
     1
 90
        6
176
     1
 90
        2
176
     1
 62
     7
176
     1
 90
        3
176
     1
 90
        0
176
     1
 90
        0
176
     1
290
     0
176
     1
 90
        1
176
     1
 40
0.0
176
     1
 90
        0
176
     1
290
     0
176
     1
290
     1
176
     1
290
     1
176
     1
290
     0
176
     1
290
     0
176
     1
290
     0
176
     1
290
     0
176
     1
290
     0
176
     1
290
     0
176
     1
 90
       50
176
     1
 40
0.0
176
     1
 40
1.0
176
     1
 90
        0
176
     1
 62
    18
420
        0
176
     1
 90
       50
176
     1
 90
        3
176
     1
 62
     5
420
      255
176
     1
290
     0
176
     1
 90
       50
176
     1
 90
       50
176
     1
 90
       50
176
     1
290
     0
176
     1
 90
       50
176
     1
 62
   256
176
     0
 40
1.0
176
     0
 90
        2
176
     1
  1
strokes_ogs.tif
176
     1
290
     0
176
     1
 40
1.0
176
     1
 40
1.0
176
     1
  0
VISUALSTYLE
  5
3B
102
{ACAD_REACTORS
330
29
102
}
330
29
100
AcDbVisualStyle
  2
Sketchy
 70
    24
177
     3
291
     0
 70
    58
 90
        1
176
     1
 90
        2
176
     1
 90
        2
176
     1
 90
        0
176
     1
 40
0.6
176
     1
 40
30.0
176
     1
 62
     7
420
 16777215
176
     1
 90
        2
176
     1
 90
        2
176
     1
 62
     7
176
     1
 62
     7
176
     1
 90
        1
176
     1
 90
        1
176
     1
 40
40.0
176
     1
 90
       11
176
     1
 62
     7
176
     1
 40
1.0
176
     1
 90
        1
176
     1
 90
        6
176
     1
 90
        2
176
     1
 62
     7
176
     1
 90
        6
176
     1
 90
        0
176
     1
 90
        0
176
     1
290
     0
176
     1
 90
        1
176
     1
 40
0.0
176
     1
 90
        0
176
     1
290
     0
176
     1
290
     1
176
     1
290
     1
176
     1
290
     0
176
     1
290
     0
176
     1
290
     0
176
     1
290
     0
176
     1
290
     0
176
     1
290
     0
176
     1
 90
       50
176
     1
 40
0.0
176
     1
 40
1.0
176
     1
 90
        0
176
     1
 62
    18
420
        0
176
     1
 90
       50
176
     1
 90
        3
176
     1
 62
     5
420
      255
176
     1
290
     0
176
     1
 90
       50
176
     1
 90
       50
176
     1
 90
       50
176
     1
290
     0
176
     1
 90
       50
176
     1
 62
   256
176
     0
 40
1.0
176
     0
 90
        2
176
     1
  1
strokes_ogs.tif
176
     1
290
     0
176
     1
 40
1.0
176
     1
 40
1.0
176
     1
  0
VISUALSTYLE
  5
36
102
{ACAD_REACTORS
330
29
102
}
330
29
100
AcDbVisualStyle
  2
Thicken
 70
    13
177
     3
291
     1
 70
    58
 90
        2
176
     1
 90
        2
176
     1
 90
        0
176
     1
 90
        0
176
     1
 40
0.6
176
     1
 40
30.0
176
     1
 62
     7
420
 16777215
176
     1
 90
        1
176
     1
 90
        4
176
     1
 62
     7
176
     1
 62
   257
176
     1
 90
        1
176
     1
 90
        1
176
     1
 40
1.0
176
     1
 90
       12
176
     1
 62
     7
176
     1
 40
1.0
176
     1
 90
        1
176
     1
 90
        6
176
     1
 90
        2
176
     1
 62
     7
176
     1
 90
        5
176
     1
 90
        0
176
     1
 90
        0
176
     1
290
     0
176
     1
 90
        1
176
     1
 40
0.0
176
     1
 90
        0
176
     1
290
     0
176
     1
290
     1
176
     1
290
     1
176
     1
290
     0
176
     1
290
     0
176
     1
290
     0
176
     1
290
     0
176
     1
290
     0
176
     1
290
     0
176
     1
 90
       50
176
     1
 40
0.0
176
     1
 40
1.0
176
     1
 90
        0
176
     1
 62
    18
420
        0
176
     1
 90
       50
176
     1
 90
        3
176
     1
 62
     5
420
      255
176
     1
290
     0
176
     1
 90
       50
176
     1
 90
       50
176
     1
 90
       50
176
     1
290
     0
176
     1
 90
       50
176
     1
 62
   256
176
     0
 40
1.0
176
     0
 90
        2
176
     1
  1
strokes_ogs.tif
176
     1
290
     0
176
     1
 40
1.0
176
     1
 40
1.0
176
     1
  0
VISUALSTYLE
  5
30
102
{ACAD_REACTORS
330
29
102
}
330
29
100
AcDbVisualStyle
  2
Wireframe
 70
     5
177
     3
291
     0
 70
    58
 90
        0
176
     1
 90
        2
176
     1
 90
        0
176
     1
 90
        0
176
     1
 40
0.6
176
     1
 40
30.0
176
     1
 62
     7
420
 16777215
176
     1
 90
        1
176
     1
 90
        4
176
     1
 62
     7
176
     1
 62
   257
176
     1
 90
        1
176
     1
 90
        1
176
     1
 40
1.0
176
     1
 90
        0
176
     1
 62
   257
176
     1
 40
1.0
176
     1
 90
        1
176
     1
 90
        6
176
     1
 90
        2
176
     1
 62
     7
176
     1
 90
        3
176
     1
 90
        0
176
     1
 90
        0
176
     1
290
     0
176
     1
 90
        1
176
     1
 40
0.0
176
     1
 90
        0
176
     1
290
     0
176
     1
290
     1
176
     1
290
     1
176
     1
290
     0
176
     1
290
     0
176
     1
290
     0
176
     1
290
     0
176
     1
290
     0
176
     1
290
     0
176
     1
 90
       50
176
     1
 40
0.0
176
     1
 40
1.0
176
     1
 90
        0
176
     1
 62
    18
420
        0
176
     1
 90
       50
176
     1
 90
        3
176
     1
 62
     5
420
      255
176
     1
290
     0
176
     1
 90
       50
176
     1
 90
       50
176
     1
 90
       50
176
     1
290
     0
176
     1
 90
       50
176
     1
 62
   256
176
     0
 40
1.0
176
     0
 90
        2
176
     1
  1
strokes_ogs.tif
176
     1
290
     0
176
     1
 40
1.0
176
     1
 40
1.0
176
     1
  0
VISUALSTYLE
  5
3C
102
{ACAD_REACTORS
330
29
102
}
330
29
100
AcDbVisualStyle
  2
X-Ray
 70
    25
177
     3
291
     0
 70
    58
 90
        2
176
     1
 90
        2
176
     1
 90
        1
176
     1
 90
        1
176
     1
 40
0.5
176
     1
 40
30.0
176
     1
 62
     7
420
 16777215
176
     1
 90
        1
176
     1
 90
        0
176
     1
 62
     7
176
     1
 62
   257
176
     1
 90
        1
176
     1
 90
        1
176
     1
 40
1.0
176
     1
 90
        8
176
     1
 62
     7
176
     1
 40
1.0
176
     1
 90
        1
176
     1
 90
        6
176
     1
 90
        2
176
     1
 62
     7
176
     1
 90
        3
176
     1
 90
        0
176
     1
 90
        0
176
     1
290
     0
176
     1
 90
       13
176
     1
 40
0.0
176
     1
 90
        0
176
     1
290
     0
176
     1
290
     1
176
     1
290
     1
176
     1
290
     0
176
     1
290
     0
176
     1
290
     0
176
     1
290
     0
176
     1
290
     0
176
     1
290
     0
176
     1
 90
       50
176
     1
 40
0.0
176
     1
 40
1.0
176
     1
 90
        0
176
     1
 62
    18
420
        0
176
     1
 90
       50
176
     1
 90
        3
176
     1
 62
     5
420
      255
176
     1
290
     0
176
     1
 90
       50
176
     1
 90
       50
176
     1
 90
       50
176
     1
290
     0
176
     1
 90
       50
176
     1
 62
   256
176
     0
 40
1.0
176
     0
 90
        2
176
     1
  1
strokes_ogs.tif
176
     1
290
     0
176
     1
 40
1.0
176
     1
 40
1.0
176
     1
  0
DICTIONARYVAR
  5
103
102
{ACAD_REACTORS
330
FE
102
}
330
FE
100
DictionaryVariables
280
     0
  1
1:1
  0
DICTIONARYVAR
  5
100
102
{ACAD_REACTORS
330
FE
102
}
330
FE
100
DictionaryVariables
280
     0
  1
STANDARD
  0
DICTIONARYVAR
  5
FF
102
{ACAD_REACTORS
330
FE
102
}
330
FE
100
DictionaryVariables
280
     0
  1
STANDARD
  0
DICTIONARYVAR
  5
101
102
{ACAD_REACTORS
330
FE
102
}
330
FE
100
DictionaryVariables
280
     0
  1
Imperial24
  0
DICTIONARYVAR
  5
102
102
{ACAD_REACTORS
330
FE
102
}
330
FE
100
DictionaryVariables
280
     0
  1
Imperial24
  0
DICTIONARY
  5
1A
330
19
100
AcDbDictionary
280
     1
281
     1
  3
BUMPTILE
360
1C
  3
DIFFUSETILE
360
1B
  3
OPACITYTILE
360
1F
  3
REFLECTIONTILE
360
1E
  3
REFRACTIONTILE
360
20
  3
SPECULARTILE
360
1D
  0
DICTIONARY
  5
12
330
11
100
AcDbDictionary
280
     1
281
     1
  3
BUMPTILE
360
14
  3
DIFFUSETILE
360
13
  3
OPACITYTILE
360
17
  3
REFLECTIONTILE
360
16
  3
REFRACTIONTILE
360
18
  3
SPECULARTILE
360
15
  0
DICTIONARY
  5
22
330
21
100
AcDbDictionary
280
     1
281
     1
  3
BUMPTILE
360
24
  3
DIFFUSETILE
360
23
  3
OPACITYTILE
360
27
  3
REFLECTIONTILE
360
26
  3
REFRACTIONTILE
360
28
  3
SPECULARTILE
360
25
  0
DICTIONARY
  5
104
330
65
100
AcDbDictionary
280
     1
281
     1
  3
ACAD_ROUNDTRIP_2008_TABLESTYLE_CELLSTYLEMAP
360
105
  0
XRECORD
  5
1C
102
{ACAD_REACTORS
330
1A
102
}
330
1A
100
AcDbXrecord
280
     1
270
     1
271
     1
  0
XRECORD
  5
1B
102
{ACAD_REACTORS
330
1A
102
}
330
1A
100
AcDbXrecord
280
     1
270
     1
271
     1
  0
XRECORD
  5
1F
102
{ACAD_REACTORS
330
1A
102
}
330
1A
100
AcDbXrecord
280
     1
270
     1
271
     1
  0
XRECORD
  5
1E
102
{ACAD_REACTORS
330
1A
102
}
330
1A
100
AcDbXrecord
280
     1
270
     1
271
     1
  0
XRECORD
  5
20
102
{ACAD_REACTORS
330
1A
102
}
330
1A
100
AcDbXrecord
280
     1
270
     1
271
     1
  0
XRECORD
  5
1D
102
{ACAD_REACTORS
330
1A
102
}
330
1A
100
AcDbXrecord
280
     1
270
     1
271
     1
  0
XRECORD
  5
14
102
{ACAD_REACTORS
330
12
102
}
330
12
100
AcDbXrecord
280
     1
270
     1
271
     1
  0
XRECORD
  5
13
102
{ACAD_REACTORS
330
12
102
}
330
12
100
AcDbXrecord
280
     1
270
     1
271
     1
  0
XRECORD
  5
17
102
{ACAD_REACTORS
330
12
102
}
330
12
100
AcDbXrecord
280
     1
270
     1
271
     1
  0
XRECORD
  5
16
102
{ACAD_REACTORS
330
12
102
}
330
12
100
AcDbXrecord
280
     1
270
     1
271
     1
  0
XRECORD
  5
18
102
{ACAD_REACTORS
330
12
102
}
330
12
100
AcDbXrecord
280
     1
270
     1
271
     1
  0
XRECORD
  5
15
102
{ACAD_REACTORS
330
12
102
}
330
12
100
AcDbXrecord
280
     1
270
     1
271
     1
  0
XRECORD
  5
24
102
{ACAD_REACTORS
330
22
102
}
330
22
100
AcDbXrecord
280
     1
270
     1
271
     1
  0
XRECORD
  5
23
102
{ACAD_REACTORS
330
22
102
}
330
22
100
AcDbXrecord
280
     1
270
     1
271
     1
  0
XRECORD
  5
27
102
{ACAD_REACTORS
330
22
102
}
330
22
100
AcDbXrecord
280
     1
270
     1
271
     1
  0
XRECORD
  5
26
102
{ACAD_REACTORS
330
22
102
}
330
22
100
AcDbXrecord
280
     1
270
     1
271
     1
  0
XRECORD
  5
28
102
{ACAD_REACTORS
330
22
102
}
330
22
100
AcDbXrecord
280
     1
270
     1
271
     1
  0
XRECORD
  5
25
102
{ACAD_REACTORS
330
22
102
}
330
22
100
AcDbXrecord
280
     1
270
     1
271
     1
  0
CELLSTYLEMAP
  5
105
102
{ACAD_REACTORS
330
104
102
}
330
104
100
AcDbCellStyleMap
 90
        3
300
CELLSTYLE
  1
TABLEFORMAT_BEGIN
 90
        5
170
     1
 91
        0
 92
    32768
 62
   257
 93
        1
300
CONTENTFORMAT
  1
CONTENTFORMAT_BEGIN
 90
        0
 91
        0
 92
      512
 93
        0
300

 40
0.0
140
1.0
 94
        5
 62
     0
340
55
144
0.25
309
CONTENTFORMAT_END
171
     0
 94
        0
309
TABLEFORMAT_END
  1
CELLSTYLE_BEGIN
 90
        1
 91
        1
300
_TITLE
309
CELLSTYLE_END
300
CELLSTYLE
  1
TABLEFORMAT_BEGIN
 90
        5
170
     1
 91
        0
 92
        0
 62
   257
 93
        1
300
CONTENTFORMAT
  1
CONTENTFORMAT_BEGIN
 90
        0
 91
        0
 92
      512
 93
        0
300

 40
0.0
140
1.0
 94
        5
 62
     0
340
55
144
0.18
309
CONTENTFORMAT_END
171
     0
 94
        0
309
TABLEFORMAT_END
  1
CELLSTYLE_BEGIN
 90
        2
 91
        1
300
_HEADER
309
CELLSTYLE_END
300
CELLSTYLE
  1
TABLEFORMAT_BEGIN
 90
        5
170
     1
 91
        0
 92
        0
 62
   257
 93
        1
300
CONTENTFORMAT
  1
CONTENTFORMAT_BEGIN
 90
        0
 91
        0
 92
      512
 93
        0
300

 40
0.0
140
1.0
 94
        2
 62
     0
340
55
144
0.18
309
CONTENTFORMAT_END
171
     0
 94
        0
309
TABLEFORMAT_END
  1
CELLSTYLE_BEGIN
 90
        3
 91
        2
300
_DATA
309
CELLSTYLE_END
  0
ENDSEC
  0
EOF
