  0
SECTION
  2
HEADER
  9
$ACADVER
  1
AC1032
  9
$ACADMAINTVER
 90
      228
  9
$DWGCODEPAGE
  3
ANSI_932
  9
$REQUIREDVERSIONS
160
                 0
  9
$INSBASE
 10
0.0
 20
0.0
 30
0.0
  9
$EXTMIN
 10
1.000000000000000E+20
 20
1.000000000000000E+20
 30
1.000000000000000E+20
  9
$EXTMAX
 10
-1.000000000000000E+20
 20
-1.000000000000000E+20
 30
-1.000000000000000E+20
  9
$LIMMIN
 10
0.0
 20
0.0
  9
$LIMMAX
 10
12.0
 20
9.0
  9
$ORTHOMODE
 70
     0
  9
$REGENMODE
 70
     1
  9
$FILLMODE
 70
     1
  9
$QTEXTMODE
 70
     0
  9
$MIRRTEXT
 70
     0
  9
$LTSCALE
 40
1.0
  9
$ATTMODE
 70
     1
  9
$TEXTSIZE
 40
0.2
  9
$TRACEWID
 40
0.05
  9
$TEXTSTYLE
  7
Standard
  9
$CLAYER
  8
0
  9
$CELTYPE
  6
ByLayer
  9
$CECOLOR
 62
   256
  9
$CELTSCALE
 40
1.0
  9
$DISPSILH
 70
     0
  9
$DIMSCALE
 40
1.0
  9
$DIMASZ
 40
0.18
  9
$DIMEXO
 40
0.0625
  9
$DIMDLI
 40
0.38
  9
$DIMRND
 40
0.0
  9
$DIMDLE
 40
0.0
  9
$DIMEXE
 40
0.18
  9
$DIMTP
 40
0.0
  9
$DIMTM
 40
0.0
  9
$DIMTXT
 40
0.18
  9
$DIMCEN
 40
0.09
  9
$DIMTSZ
 40
0.0
  9
$DIMTOL
 70
     0
  9
$DIMLIM
 70
     0
  9
$DIMTIH
 70
     1
  9
$DIMTOH
 70
     1
  9
$DIMSE1
 70
     0
  9
$DIMSE2
 70
     0
  9
$DIMTAD
 70
     0
  9
$DIMZIN
 70
     0
  9
$DIMBLK
  1

  9
$DIMASO
 70
     1
  9
$DIMSHO
 70
     1
  9
$DIMPOST
  1

  9
$DIMAPOST
  1

  9
$DIMALT
 70
     0
  9
$DIMALTD
 70
     2
  9
$DIMALTF
 40
25.4
  9
$DIMLFAC
 40
1.0
  9
$DIMTOFL
 70
     0
  9
$DIMTVP
 40
0.0
  9
$DIMTIX
 70
     0
  9
$DIMSOXD
 70
     0
  9
$DIMSAH
 70
     0
  9
$DIMBLK1
  1

  9
$DIMBLK2
  1

  9
$DIMSTYLE
  2
Standard
  9
$DIMCLRD
 70
     0
  9
$DIMCLRE
 70
     0
  9
$DIMCLRT
 70
     0
  9
$DIMTFAC
 40
1.0
  9
$DIMGAP
 40
0.09
  9
$DIMJUST
 70
     0
  9
$DIMSD1
 70
     0
  9
$DIMSD2
 70
     0
  9
$DIMTOLJ
 70
     1
  9
$DIMTZIN
 70
     0
  9
$DIMALTZ
 70
     0
  9
$DIMALTTZ
 70
     0
  9
$DIMUPT
 70
     0
  9
$DIMDEC
 70
     4
  9
$DIMTDEC
 70
     4
  9
$DIMALTU
 70
     2
  9
$DIMALTTD
 70
     2
  9
$DIMTXSTY
  7
Standard
  9
$DIMAUNIT
 70
     0
  9
$DIMADEC
 70
     0
  9
$DIMALTRND
 40
0.0
  9
$DIMAZIN
 70
     0
  9
$DIMDSEP
 70
    46
  9
$DIMATFIT
 70
     3
  9
$DIMFRAC
 70
     0
  9
$DIMLDRBLK
  1

  9
$DIMLUNIT
 70
     2
  9
$DIMLWD
 70
    -2
  9
$DIMLWE
 70
    -2
  9
$DIMTMOVE
 70
     0
  9
$DIMFXL
 40
1.0
  9
$DIMFXLON
 70
     0
  9
$DIMJOGANG
 40
0.7853981633974483
  9
$DIMTFILL
 70
     0
  9
$DIMTFILLCLR
 70
     0
  9
$DIMARCSYM
 70
     0
  9
$DIMLTYPE
  6

  9
$DIMLTEX1
  6

  9
$DIMLTEX2
  6

  9
$DIMTXTDIRECTION
 70
     0
  9
$LUNITS
 70
     2
  9
$LUPREC
 70
     4
  9
$SKETCHINC
 40
0.1
  9
$FILLETRAD
 40
0.0
  9
$AUNITS
 70
     0
  9
$AUPREC
 70
     0
  9
$MENU
  1
.
  9
$ELEVATION
 40
0.0
  9
$PELEVATION
 40
0.0
  9
$THICKNESS
 40
0.0
  9
$LIMCHECK
 70
     0
  9
$CHAMFERA
 40
0.0
  9
$CHAMFERB
 40
0.0
  9
$CHAMFERC
 40
0.0
  9
$CHAMFERD
 40
0.0
  9
$SKPOLY
 70
     0
  9
$TDCREATE
 40
2460061.777789352
  9
$TDUCREATE
 40
2460061.402789352
  9
$TDUPDATE
 40
2460061.777789352
  9
$TDUUPDATE
 40
2460061.402789352
  9
$TDINDWG
 40
0.0000000000
  9
$TDUSRTIMER
 40
0.0000000000
  9
$USRTIMER
 70
     1
  9
$ANGBASE
 50
0.0
  9
$ANGDIR
 70
     0
  9
$PDMODE
 70
     0
  9
$PDSIZE
 40
0.0
  9
$PLINEWID
 40
0.0
  9
$SPLFRAME
 70
     0
  9
$SPLINETYPE
 70
     6
  9
$SPLINESEGS
 70
     8
  9
$HANDSEED
  5
3EC
  9
$SURFTAB1
 70
     6
  9
$SURFTAB2
 70
     6
  9
$SURFTYPE
 70
     6
  9
$SURFU
 70
     6
  9
$SURFV
 70
     6
  9
$UCSBASE
  2

  9
$UCSNAME
  2

  9
$UCSORG
 10
0.0
 20
0.0
 30
0.0
  9
$UCSXDIR
 10
1.0
 20
0.0
 30
0.0
  9
$UCSYDIR
 10
0.0
 20
1.0
 30
0.0
  9
$UCSORTHOREF
  2

  9
$UCSORTHOVIEW
 70
     0
  9
$UCSORGTOP
 10
0.0
 20
0.0
 30
0.0
  9
$UCSORGBOTTOM
 10
0.0
 20
0.0
 30
0.0
  9
$UCSORGLEFT
 10
0.0
 20
0.0
 30
0.0
  9
$UCSORGRIGHT
 10
0.0
 20
0.0
 30
0.0
  9
$UCSORGFRONT
 10
0.0
 20
0.0
 30
0.0
  9
$UCSORGBACK
 10
0.0
 20
0.0
 30
0.0
  9
$PUCSBASE
  2

  9
$PUCSNAME
  2

  9
$PUCSORG
 10
0.0
 20
0.0
 30
0.0
  9
$PUCSXDIR
 10
1.0
 20
0.0
 30
0.0
  9
$PUCSYDIR
 10
0.0
 20
1.0
 30
0.0
  9
$PUCSORTHOREF
  2

  9
$PUCSORTHOVIEW
 70
     0
  9
$PUCSORGTOP
 10
0.0
 20
0.0
 30
0.0
  9
$PUCSORGBOTTOM
 10
0.0
 20
0.0
 30
0.0
  9
$PUCSORGLEFT
 10
0.0
 20
0.0
 30
0.0
  9
$PUCSORGRIGHT
 10
0.0
 20
0.0
 30
0.0
  9
$PUCSORGFRONT
 10
0.0
 20
0.0
 30
0.0
  9
$PUCSORGBACK
 10
0.0
 20
0.0
 30
0.0
  9
$USERI1
 70
     0
  9
$USERI2
 70
     0
  9
$USERI3
 70
     0
  9
$USERI4
 70
     0
  9
$USERI5
 70
     0
  9
$USERR1
 40
0.0
  9
$USERR2
 40
0.0
  9
$USERR3
 40
0.0
  9
$USERR4
 40
0.0
  9
$USERR5
 40
0.0
  9
$WORLDVIEW
 70
     1
  9
$SHADEDGE
 70
     3
  9
$SHADEDIF
 70
    70
  9
$TILEMODE
 70
     1
  9
$MAXACTVP
 70
    64
  9
$PINSBASE
 10
0.0
 20
0.0
 30
0.0
  9
$PLIMCHECK
 70
     0
  9
$PEXTMIN
 10
1.000000000000000E+20
 20
1.000000000000000E+20
 30
1.000000000000000E+20
  9
$PEXTMAX
 10
-1.000000000000000E+20
 20
-1.000000000000000E+20
 30
-1.000000000000000E+20
  9
$PLIMMIN
 10
0.0
 20
0.0
  9
$PLIMMAX
 10
12.0
 20
9.0
  9
$UNITMODE
 70
     0
  9
$VISRETAIN
 70
     1
  9
$PLINEGEN
 70
     0
  9
$PSLTSCALE
 70
     1
  9
$TREEDEPTH
 70
  3020
  9
$CMLSTYLE
  2
Standard
  9
$CMLJUST
 70
     0
  9
$CMLSCALE
 40
1.0
  9
$PROXYGRAPHICS
 70
     1
  9
$MEASUREMENT
 70
     0
  9
$CELWEIGHT
370
    -1
  9
$ENDCAPS
280
     0
  9
$JOINSTYLE
280
     0
  9
$LWDISPLAY
290
     1
  9
$INSUNITS
 70
     4
  9
$HYPERLINKBASE
  1

  9
$STYLESHEET
  1

  9
$XEDIT
290
     1
  9
$CEPSNTYPE
380
     0
  9
$PSTYLEMODE
290
     1
  9
$FINGERPRINTGUID
  2
{F7F05E5F-15E4-0C4C-9E55-9A95DB8C02C2}
  9
$VERSIONGUID
  2
{01AE07F8-5B64-B645-8AA7-92457B6221B2}
  9
$EXTNAMES
290
     1
  9
$PSVPSCALE
 40
0.0
  9
$OLESTARTUP
290
     0
  9
$SORTENTS
280
   127
  9
$INDEXCTL
280
     0
  9
$HIDETEXT
280
     1
  9
$XCLIPFRAME
280
     2
  9
$HALOGAP
280
     0
  9
$OBSCOLOR
 70
   257
  9
$OBSLTYPE
280
     0
  9
$INTERSECTIONDISPLAY
280
     0
  9
$INTERSECTIONCOLOR
 70
   257
  9
$DIMASSOC
280
     2
  9
$PROJECTNAME
  1

  9
$CAMERADISPLAY
290
     0
  9
$LENSLENGTH
 40
50.0
  9
$CAMERAHEIGHT
 40
0.0
  9
$STEPSPERSEC
 40
2.0
  9
$STEPSIZE
 40
6.0
  9
$3DDWFPREC
 40
2.0
  9
$PSOLWIDTH
 40
0.25
  9
$PSOLHEIGHT
 40
4.0
  9
$LOFTANG1
 40
1.570796326794896
  9
$LOFTANG2
 40
1.570796326794896
  9
$LOFTMAG1
 40
0.0
  9
$LOFTMAG2
 40
0.0
  9
$LOFTPARAM
 70
     7
  9
$LOFTNORMALS
280
     1
  9
$LATITUDE
 40
37.795
  9
$LONGITUDE
 40
-122.394
  9
$NORTHDIRECTION
 40
0.0
  9
$TIMEZONE
 70
 -8000
  9
$LIGHTGLYPHDISPLAY
280
     1
  9
$TILEMODELIGHTSYNCH
280
     1
  9
$CMATERIAL
347
11
  9
$SOLIDHIST
280
     0
  9
$SHOWHIST
280
     1
  9
$DWFFRAME
280
     2
  9
$DGNFRAME
280
     0
  9
$REALWORLDSCALE
290
     1
  9
$INTERFERECOLOR
 62
     1
  9
$INTERFEREOBJVS
345
33
  9
$INTERFEREVPVS
346
30
  9
$CSHADOW
280
     0
  9
$SHADOWPLANELOCATION
 40
0.0
  0
ENDSEC
  0
SECTION
  2
CLASSES
  0
CLASS
  1
ACDBDICTIONARYWDFLT
  2
AcDbDictionaryWithDefault
  3
ObjectDBX Classes
 90
        0
 91
        1
280
     0
281
     0
  0
CLASS
  1
MATERIAL
  2
AcDbMaterial
  3
ObjectDBX Classes
 90
     1153
 91
        3
280
     0
281
     0
  0
CLASS
  1
VISUALSTYLE
  2
AcDbVisualStyle
  3
ObjectDBX Classes
 90
     4095
 91
       24
280
     0
281
     0
  0
CLASS
  1
SCALE
  2
AcDbScale
  3
ObjectDBX Classes
 90
     1153
 91
       17
280
     0
281
     0
  0
CLASS
  1
TABLESTYLE
  2
AcDbTableStyle
  3
ObjectDBX Classes
 90
     4095
 91
        1
280
     0
281
     0
  0
CLASS
  1
MLEADERSTYLE
  2
AcDbMLeaderStyle
  3
ACDB_MLEADERSTYLE_CLASS
 90
     4095
 91
        1
280
     0
281
     0
  0
CLASS
  1
ACDBSECTIONVIEWSTYLE
  2
AcDbSectionViewStyle
  3
ObjectDBX Classes
 90
     1025
 91
        1
280
     0
281
     0
  0
CLASS
  1
ACDBDETAILVIEWSTYLE
  2
AcDbDetailViewStyle
  3
ObjectDBX Classes
 90
     1025
 91
        1
280
     0
281
     0
  0
CLASS
  1
DICTIONARYVAR
  2
AcDbDictionaryVar
  3
ObjectDBX Classes
 90
        0
 91
        5
280
     0
281
     0
  0
CLASS
  1
CELLSTYLEMAP
  2
AcDbCellStyleMap
  3
ObjectDBX Classes
 90
     1152
 91
        1
280
     0
281
     0
  0
ENDSEC
  0
SECTION
  2
TABLES
  0
TABLE
  2
VPORT
  5
8
330
0
100
AcDbSymbolTable
 70
     1
  0
VPORT
  5
57
330
8
100
AcDbSymbolTableRecord
100
AcDbViewportTableRecord
  2
*Active
 70
     0
 10
0.0
 20
0.0
 11
1.0
 21
1.0
 12
0.0
 22
0.0
 13
0.0
 23
0.0
 14
1.0
 24
1.0
 15
0.0
 25
0.0
 16
0.0
 26
0.0
 36
1.0
 17
338.666666582
 27
190.4999999523751
 37
0.0
 40
388.8749999028449
 41
1.776612021857632
 42
50.0
 43
0.0
 44
0.0
 50
0.0
 51
0.0
 71
     0
 72
   100
 73
     1
 74
     1
 75
     0
 76
     0
 77
     0
 78
     0
281
     0
 65
     1
110
0.0
120
0.0
130
0.0
111
1.0
121
0.0
131
0.0
112
0.0
122
1.0
132
0.0
 79
     0
146
0.0
 60
     3
 61
     5
292
     1
282
     1
141
0.0
142
0.0
 63
   250
421
  3355443
  0
ENDTAB
  0
TABLE
  2
LTYPE
  5
5
330
0
100
AcDbSymbolTable
 70
     1
  0
LTYPE
  5
5B
330
5
100
AcDbSymbolTableRecord
100
AcDbLinetypeTableRecord
  2
ByBlock
 70
     0
  3

 72
    65
 73
     0
 40
0.0
  0
LTYPE
  5
5C
330
5
100
AcDbSymbolTableRecord
100
AcDbLinetypeTableRecord
  2
ByLayer
 70
     0
  3

 72
    65
 73
     0
 40
0.0
  0
LTYPE
  5
5D
330
5
100
AcDbSymbolTableRecord
100
AcDbLinetypeTableRecord
  2
Continuous
 70
     0
  3
Solid line
 72
    65
 73
     0
 40
0.0
  0
ENDTAB
  0
TABLE
  2
LAYER
  5
2
330
0
100
AcDbSymbolTable
 70
     4
  0
LAYER
  5
54
330
2
100
AcDbSymbolTableRecord
100
AcDbLayerTableRecord
  2
0
 70
     0
 62
     7
  6
Continuous
370
     0
390
F
347
21
348
0
  0
LAYER
  5
78
330
2
100
AcDbSymbolTableRecord
100
AcDbLayerTableRecord
  2
_HONTAI
 70
     0
 62
     7
  6
Continuous
370
     0
390
F
347
21
348
0
  0
LAYER
  5
3D8
330
2
100
AcDbSymbolTableRecord
100
AcDbLayerTableRecord
  2
FLAME
 70
     0
 62
     7
  6
Continuous
370
     0
390
F
347
21
348
0
  0
LAYER
  5
3E0
330
2
100
AcDbSymbolTableRecord
100
AcDbLayerTableRecord
  2
SPEC
 70
     0
 62
     7
  6
Continuous
370
     0
390
F
347
21
348
0
  0
ENDTAB
  0
TABLE
  2
STYLE
  5
3
330
0
100
AcDbSymbolTable
 70
     2
  0
STYLE
  5
55
330
3
100
AcDbSymbolTableRecord
100
AcDbTextStyleTableRecord
  2
Standard
 70
     0
 40
0.0
 41
1.0
 50
0.0
 71
     0
 42
0.2
  3
txt
  4

  0
STYLE
  5
5A
330
3
100
AcDbSymbolTableRecord
100
AcDbTextStyleTableRecord
  2
Annotative
 70
     0
 40
0.0
 41
1.0
 50
0.0
 71
     0
 42
0.2
  3
txt
  4

1001
AcadAnnotative
1000
AnnotativeData
1002
{
1070
     1
1070
     1
1002
}
  0
ENDTAB
  0
TABLE
  2
VIEW
  5
6
330
0
100
AcDbSymbolTable
 70
     0
  0
ENDTAB
  0
TABLE
  2
UCS
  5
7
330
0
100
AcDbSymbolTable
 70
     0
  0
ENDTAB
  0
TABLE
  2
APPID
  5
9
330
0
100
AcDbSymbolTable
 70
     2
  0
APPID
  5
56
330
9
100
AcDbSymbolTableRecord
100
AcDbRegAppTableRecord
  2
ACAD
 70
     0
  0
APPID
  5
5E
330
9
100
AcDbSymbolTableRecord
100
AcDbRegAppTableRecord
  2
AcadAnnotative
 70
     0
  0
ENDTAB
  0
TABLE
  2
DIMSTYLE
  5
A
330
0
100
AcDbSymbolTable
 70
     2
100
AcDbDimStyleTable
 71
     0
  0
DIMSTYLE
105
58
330
A
100
AcDbSymbolTableRecord
100
AcDbDimStyleTableRecord
  2
Standard
 70
     0
340
55
  0
DIMSTYLE
105
59
330
A
100
AcDbSymbolTableRecord
100
AcDbDimStyleTableRecord
  2
Annotative
 70
     0
340
55
1001
AcadAnnotative
1000
AnnotativeData
1002
{
1070
     1
1070
     1
1002
}
  0
ENDTAB
  0
TABLE
  2
BLOCK_RECORD
  5
1
330
0
100
AcDbSymbolTable
 70
     1
  0
BLOCK_RECORD
  5
70
330
1
100
AcDbSymbolTableRecord
100
AcDbBlockTableRecord
  2
*Model_Space
340
73
 70
     0
280
     1
281
     0
  0
BLOCK_RECORD
  5
6C
330
1
100
AcDbSymbolTableRecord
100
AcDbBlockTableRecord
  2
*Paper_Space
340
6F
 70
     0
280
     1
281
     0
  0
BLOCK_RECORD
  5
74
330
1
100
AcDbSymbolTableRecord
100
AcDbBlockTableRecord
  2
*Paper_Space0
340
77
 70
     0
280
     1
281
     0
  0
ENDTAB
  0
ENDSEC
  0
SECTION
  2
BLOCKS
  0
BLOCK
  5
71
330
70
100
AcDbEntity
  8
0
100
AcDbBlockBegin
  2
*Model_Space
 70
     0
 10
0.0
 20
0.0
 30
0.0
  3
*Model_Space
  1

  0
ENDBLK
  5
72
330
70
100
AcDbEntity
  8
0
100
AcDbBlockEnd
  0
BLOCK
  5
6D
330
6C
100
AcDbEntity
 67
     1
  8
0
100
AcDbBlockBegin
  2
*Paper_Space
 70
     0
 10
0.0
 20
0.0
 30
0.0
  3
*Paper_Space
  1

  0
ENDBLK
  5
6E
330
6C
100
AcDbEntity
 67
     1
  8
0
100
AcDbBlockEnd
  0
BLOCK
  5
75
330
74
100
AcDbEntity
 67
     1
  8
0
100
AcDbBlockBegin
  2
*Paper_Space0
 70
     0
 10
0.0
 20
0.0
 30
0.0
  3
*Paper_Space0
  1

  0
ENDBLK
  5
76
330
74
100
AcDbEntity
 67
     1
  8
0
100
AcDbBlockEnd
  0
ENDSEC
  0
SECTION
  2
ENTITIES
  0
LINE
  5
79
330
70
100
AcDbEntity
  8
_HONTAI
 62
    18
420
        0
370
    25
100
AcDbLine
 10
330.8790131293937
 20
268.2700092305812
 30
0.0
 11
349.4831321329059
 21
261.8217586566057
 31
0.0
  0
LINE
  5
7A
330
70
100
AcDbEntity
  8
_HONTAI
 62
    18
420
        0
370
    25
100
AcDbLine
 10
315.1003865823605
 20
334.7841120693925
 30
0.0
 11
315.1003865823605
 21
345.4085692095936
 31
0.0
  0
LINE
  5
7B
330
70
100
AcDbEntity
  8
_HONTAI
 62
    18
420
        0
370
    25
100
AcDbLine
 10
334.7817580060117
 20
309.0067406472664
 30
0.0
 11
340.1810722903769
 21
309.0067406472664
 31
0.0
  0
LINE
  5
7C
330
70
100
AcDbEntity
  8
_HONTAI
 62
    18
420
        0
370
    25
100
AcDbLine
 10
314.3166151539888
 20
334.7841120693925
 30
0.0
 11
340.1810722903769
 21
334.7841120693925
 31
0.0
  0
LINE
  5
7D
330
70
100
AcDbEntity
  8
_HONTAI
 62
    18
420
        0
370
    25
100
AcDbLine
 10
334.0850722919017
 20
309.7034263613773
 30
0.0
 11
334.0850722919017
 21
310.1565207742664
 31
0.0
  0
SPLINE
  5
7E
330
70
100
AcDbEntity
  8
_HONTAI
 62
    18
420
        0
370
    25
100
AcDbSpline
210
0.0
220
0.0
230
1.0
 70
     8
 71
     3
 72
     8
 73
     4
 74
     0
 42
0.0000000001
 43
0.0000000001
 40
0.0
 40
0.0
 40
0.0
 40
0.0
 40
1.0
 40
1.0
 40
1.0
 40
1.0
 10
334.0850722919001
 20
310.1565207742664
 30
0.0
 10
334.0850722919001
 20
311.8916890288706
 30
0.0
 10
332.8080349217646
 20
313.362284544207
 30
0.0
 10
331.0900033674172
 20
313.6055466457645
 30
0.0
  0
SPLINE
  5
7F
330
70
100
AcDbEntity
  8
_HONTAI
 62
    18
420
        0
370
    25
100
AcDbSpline
210
0.0
220
0.0
230
1.0
 70
     8
 71
     3
 72
     8
 73
     4
 74
     0
 42
0.0000000001
 43
0.0000000001
 40
0.0
 40
0.0
 40
0.0
 40
0.0
 40
1.0
 40
1.0
 40
1.0
 40
1.0
 10
334.0850722919001
 20
309.7034263613773
 30
0.0
 10
334.0850722919001
 20
309.3186574660487
 30
0.0
 10
334.3969891106827
 20
309.0067406472658
 30
0.0
 10
334.7817580060117
 20
309.0067406472658
 30
0.0
  0
LINE
  5
80
330
70
100
AcDbEntity
  8
_HONTAI
 62
    18
420
        0
370
    25
100
AcDbLine
 10
320.6741500511683
 20
315.0540033342313
 30
0.0
 11
331.0900033674169
 21
313.6055466457632
 31
0.0
  0
SPLINE
  5
81
330
70
100
AcDbEntity
  8
_HONTAI
 62
    18
420
        0
370
    25
100
AcDbSpline
210
0.0
220
0.0
230
1.0
 70
     8
 71
     3
 72
     8
 73
     4
 74
     0
 42
0.0000000001
 43
0.0000000001
 40
0.0
 40
0.0
 40
0.0
 40
0.0
 40
1.0
 40
1.0
 40
1.0
 40
1.0
 10
314.3166151539859
 20
334.7841120693919
 30
0.0
 10
314.2328842480192
 20
329.3974937327379
 30
0.0
 10
314.9203963268274
 20
324.0266095073046
 30
0.0
 10
316.358247134821
 20
318.8347646499019
 30
0.0
  0
SPLINE
  5
82
330
70
100
AcDbEntity
  8
_HONTAI
 62
    18
420
        0
370
    25
100
AcDbSpline
210
0.0
220
0.0
230
1.0
 70
     8
 71
     3
 72
     8
 73
     4
 74
     0
 42
0.0000000001
 43
0.0000000001
 40
0.0
 40
0.0
 40
0.0
 40
0.0
 40
1.0
 40
1.0
 40
1.0
 40
1.0
 10
316.3582471348119
 20
318.8347646499224
 30
0.0
 10
316.9143667365202
 20
316.826707431344
 30
0.0
 10
318.6103679383308
 20
315.3409984477487
 30
0.0
 10
320.674150051178
 20
315.0540033342323
 30
0.0
  0
LINE
  5
83
330
70
100
AcDbEntity
  8
_HONTAI
 62
    18
420
        0
370
    25
100
AcDbLine
 10
314.3121489860144
 20
334.5925234980106
 30
0.0
 11
314.2016197974687
 21
334.5925234980106
 31
0.0
  0
LINE
  5
84
330
70
100
AcDbEntity
  8
_HONTAI
 62
    18
420
        0
370
    25
100
AcDbLine
 10
314.2016197974687
 20
332.1889577843288
 30
0.0
 11
314.3121489860144
 21
332.1889577843288
 31
0.0
  0
LINE
  5
85
330
70
100
AcDbEntity
  8
_HONTAI
 62
    18
420
        0
370
    25
100
AcDbLine
 10
314.3121489860144
 20
332.1889577843288
 30
0.0
 11
314.3121489860144
 21
334.5925234980106
 31
0.0
  0
SPLINE
  5
86
330
70
100
AcDbEntity
  8
_HONTAI
 62
    18
420
        0
370
    25
100
AcDbSpline
210
0.0
220
0.0
230
1.0
 70
     8
 71
     3
 72
    11
 73
     7
 74
     0
 42
0.0000000001
 43
0.0000000001
 40
0.0
 40
0.0
 40
0.0
 40
0.0
 40
1.0
 40
1.0
 40
1.0
 40
2.0
 40
2.0
 40
2.0
 40
2.0
 10
314.2016197974725
 20
334.5925234980145
 30
0.0
 10
313.5378934530296
 20
334.021365184183
 30
0.0
 10
313.4628522374326
 20
333.0202933749776
 30
0.0
 10
314.0340105512644
 20
332.3565670305344
 30
0.0
 10
314.0856198566082
 20
332.2965933686869
 30
0.0
 10
314.141646135625
 20
332.24056708967
 30
0.0
 10
314.2016197974725
 20
332.1889577843263
 30
0.0
  0
LINE
  5
87
330
70
100
AcDbEntity
  8
_HONTAI
 62
    18
420
        0
370
    25
100
AcDbLine
 10
312.9531076876684
 20
333.3907406411703
 30
0.0
 11
315.1727770511242
 21
333.3907406411703
 31
0.0
  0
LINE
  5
88
330
70
100
AcDbEntity
  8
_HONTAI
 62
    18
420
        0
370
    25
100
AcDbLine
 10
315.1003865823605
 20
345.4085692095936
 30
0.0
 11
340.1810726311468
 21
345.4085692095936
 31
0.0
  0
LINE
  5
89
330
70
100
AcDbEntity
  8
_HONTAI
 62
    18
420
        0
370
    25
100
AcDbLine
 10
330.8790131293937
 20
262.9982793762004
 30
0.0
 11
349.4831321329059
 21
256.5500288022237
 31
0.0
  0
LINE
  5
8A
330
70
100
AcDbEntity
  8
_HONTAI
 62
    18
420
        0
370
    25
100
AcDbLine
 10
365.2617586799343
 20
334.7841120693925
 30
0.0
 11
365.2617586799343
 21
345.4085692095936
 31
0.0
  0
LINE
  5
8B
330
70
100
AcDbEntity
  8
_HONTAI
 62
    18
420
        0
370
    25
100
AcDbLine
 10
345.5803872562831
 20
309.0067406472664
 30
0.0
 11
340.1810729719179
 21
309.0067406472664
 31
0.0
  0
LINE
  5
8C
330
70
100
AcDbEntity
  8
_HONTAI
 62
    18
420
        0
370
    25
100
AcDbLine
 10
366.0455301083114
 20
334.7841120693925
 30
0.0
 11
340.1810729719179
 21
334.7841120693925
 31
0.0
  0
LINE
  5
8D
330
70
100
AcDbEntity
  8
_HONTAI
 62
    18
420
        0
370
    25
100
AcDbLine
 10
346.2770729703979
 20
309.7034263613773
 30
0.0
 11
346.2770729703979
 21
310.1565207742664
 31
0.0
  0
SPLINE
  5
8E
330
70
100
AcDbEntity
  8
_HONTAI
 62
    18
420
        0
370
    25
100
AcDbSpline
210
0.0
220
0.0
230
1.0
 70
     8
 71
     3
 72
     8
 73
     4
 74
     0
 42
0.0000000001
 43
0.0000000001
 40
0.0
 40
0.0
 40
0.0
 40
0.0
 40
1.0
 40
1.0
 40
1.0
 40
1.0
 10
349.2721418948773
 20
313.6055466457645
 30
0.0
 10
347.5541103405305
 20
313.362284544207
 30
0.0
 10
346.2770729703947
 20
311.8916890288706
 30
0.0
 10
346.2770729703947
 20
310.1565207742664
 30
0.0
  0
SPLINE
  5
8F
330
70
100
AcDbEntity
  8
_HONTAI
 62
    18
420
        0
370
    25
100
AcDbSpline
210
0.0
220
0.0
230
1.0
 70
     8
 71
     3
 72
     8
 73
     4
 74
     0
 42
0.0000000001
 43
0.0000000001
 40
0.0
 40
0.0
 40
0.0
 40
0.0
 40
1.0
 40
1.0
 40
1.0
 40
1.0
 10
345.5803872562831
 20
309.0067406472658
 30
0.0
 10
345.9651561516121
 20
309.0067406472658
 30
0.0
 10
346.2770729703947
 20
309.3186574660487
 30
0.0
 10
346.2770729703947
 20
309.7034263613773
 30
0.0
  0
LINE
  5
90
330
70
100
AcDbEntity
  8
_HONTAI
 62
    18
420
        0
370
    25
100
AcDbLine
 10
359.6879952111259
 20
315.0540033342313
 30
0.0
 11
349.2721418948824
 21
313.6055466457632
 31
0.0
  0
SPLINE
  5
91
330
70
100
AcDbEntity
  8
_HONTAI
 62
    18
420
        0
370
    25
100
AcDbSpline
210
0.0
220
0.0
230
1.0
 70
     8
 71
     3
 72
     8
 73
     4
 74
     0
 42
0.0000000001
 43
0.0000000001
 40
0.0
 40
0.0
 40
0.0
 40
0.0
 40
1.0
 40
1.0
 40
1.0
 40
1.0
 10
364.0038981274736
 20
318.8347646499019
 30
0.0
 10
365.4417489354667
 20
324.0266095073046
 30
0.0
 10
366.129261014275
 20
329.3974937327379
 30
0.0
 10
366.0455301083083
 20
334.7841120693916
 30
0.0
  0
SPLINE
  5
92
330
70
100
AcDbEntity
  8
_HONTAI
 62
    18
420
        0
370
    25
100
AcDbSpline
210
0.0
220
0.0
230
1.0
 70
     8
 71
     3
 72
     8
 73
     4
 74
     0
 42
0.0000000001
 43
0.0000000001
 40
0.0
 40
0.0
 40
0.0
 40
0.0
 40
1.0
 40
1.0
 40
1.0
 40
1.0
 10
359.6879952111451
 20
315.0540033342358
 30
0.0
 10
361.7517773239823
 20
315.3409984477603
 30
0.0
 10
363.4477785257813
 20
316.8267074313523
 30
0.0
 10
364.0038981274877
 20
318.8347646499224
 30
0.0
  0
LINE
  5
93
330
70
100
AcDbEntity
  8
_HONTAI
 62
    18
420
        0
370
    25
100
AcDbLine
 10
366.0499962762849
 20
334.5925234980106
 30
0.0
 11
366.1605254648313
 21
334.5925234980106
 31
0.0
  0
LINE
  5
94
330
70
100
AcDbEntity
  8
_HONTAI
 62
    18
420
        0
370
    25
100
AcDbLine
 10
366.1605254648313
 20
332.1889577843288
 30
0.0
 11
366.0499962762849
 21
332.1889577843288
 31
0.0
  0
LINE
  5
95
330
70
100
AcDbEntity
  8
_HONTAI
 62
    18
420
        0
370
    25
100
AcDbLine
 10
366.0499962762849
 20
332.1889577843288
 30
0.0
 11
366.0499962762849
 21
334.5925234980106
 31
0.0
  0
SPLINE
  5
96
330
70
100
AcDbEntity
  8
_HONTAI
 62
    18
420
        0
370
    25
100
AcDbSpline
210
0.0
220
0.0
230
1.0
 70
     8
 71
     3
 72
    11
 73
     7
 74
     0
 42
0.0000000001
 43
0.0000000001
 40
0.0
 40
0.0
 40
0.0
 40
0.0
 40
1.0
 40
1.0
 40
1.0
 40
2.0
 40
2.0
 40
2.0
 40
2.0
 10
366.1605254648248
 20
332.1889577843249
 30
0.0
 10
366.8242518092687
 20
332.7601160981558
 30
0.0
 10
366.8992930248667
 20
333.7611879073612
 30
0.0
 10
366.3281347110359
 20
334.4249142518047
 30
0.0
 10
366.2765254056917
 20
334.4848879136531
 30
0.0
 10
366.2204991266737
 20
334.5409141926713
 30
0.0
 10
366.1605254648248
 20
334.5925234980157
 30
0.0
  0
LINE
  5
97
330
70
100
AcDbEntity
  8
_HONTAI
 62
    18
420
        0
370
    25
100
AcDbLine
 10
367.4090375746312
 20
333.3907406411703
 30
0.0
 11
365.1893682111758
 21
333.3907406411703
 31
0.0
  0
LINE
  5
98
330
70
100
AcDbEntity
  8
_HONTAI
 62
    18
420
        0
370
    25
100
AcDbLine
 10
365.2617586799343
 20
345.4085692095936
 30
0.0
 11
340.1810726311468
 21
345.4085692095936
 31
0.0
  0
LINE
  5
99
330
70
100
AcDbEntity
  8
_HONTAI
 62
    18
420
        0
370
    25
100
AcDbLine
 10
340.1810726311525
 20
186.4442609613294
 30
0.0
 11
343.3770077292983
 21
172.2001675672439
 31
0.0
  0
LINE
  5
9A
330
70
100
AcDbEntity
  8
_HONTAI
 62
    18
420
        0
370
    25
100
AcDbLine
 10
358.3356464416916
 20
208.9927595753565
 30
0.0
 11
350.7938023557658
 21
204.6384738621598
 31
0.0
  0
LINE
  5
9B
330
70
100
AcDbEntity
  8
_HONTAI
 62
    18
420
        0
370
    25
100
AcDbLine
 10
394.911646432549
 20
145.6412692535536
 30
0.0
 11
391.1407243895861
 21
143.4641263969573
 31
0.0
  0
LINE
  5
9C
330
70
100
AcDbEntity
  8
_HONTAI
 62
    18
420
        0
370
    25
100
AcDbLine
 10
371.5860777704827
 20
144.2411964449977
 30
0.0
 11
380.3487972011889
 21
141.2557211754926
 31
0.0
  0
LINE
  5
9D
330
70
100
AcDbEntity
  8
_HONTAI
 62
    18
420
        0
370
    25
100
AcDbLine
 10
380.3487972011889
 20
141.2557211754926
 30
0.0
 11
391.1407243895809
 21
143.464126396956
 31
0.0
  0
LINE
  5
9E
330
70
100
AcDbEntity
  8
_HONTAI
 62
    18
420
        0
370
    25
100
AcDbLine
 10
347.8479661765462
 20
162.714526092812
 30
0.0
 11
371.5860777704827
 21
144.2411964449977
 31
0.0
  0
LINE
  5
9F
330
70
100
AcDbEntity
  8
_HONTAI
 62
    18
420
        0
370
    25
100
AcDbLine
 10
350.7938023557658
 20
204.6384738621598
 30
0.0
 11
344.2394881465231
 21
196.8320219432716
 31
0.0
  0
LINE
  5
A0
330
70
100
AcDbEntity
  8
_HONTAI
 62
    18
420
        0
370
    25
100
AcDbLine
 10
344.2394881465231
 20
196.8320219432716
 30
0.0
 11
340.1810726311525
 21
186.4442609613294
 31
0.0
  0
LINE
  5
A1
330
70
100
AcDbEntity
  8
_HONTAI
 62
    18
420
        0
370
    25
100
AcDbLine
 10
343.3770077292983
 20
172.2001675672465
 30
0.0
 11
347.8479661765462
 21
162.714526092812
 31
0.0
  0
LINE
  5
A2
330
70
100
AcDbEntity
  8
_HONTAI
 62
    18
420
        0
370
    25
100
AcDbLine
 10
357.8131321561105
 20
209.8977808656665
 30
0.0
 11
354.0422101131424
 21
207.7206380090675
 31
0.0
  0
LINE
  5
A3
330
70
100
AcDbEntity
  8
_HONTAI
 62
    18
420
        0
370
    25
100
AcDbLine
 10
354.0422101131424
 20
207.7206380090675
 30
0.0
 11
354.6326009955007
 21
206.8548052901753
 31
0.0
  0
LINE
  5
A4
330
70
100
AcDbEntity
  8
_HONTAI
 62
    18
420
        0
370
    25
100
AcDbLine
 10
392.052496608178
 20
148.0128551786342
 30
0.0
 11
394.2568326916647
 21
145.2632123639873
 31
0.0
  0
LINE
  5
A5
330
70
100
AcDbEntity
  8
_HONTAI
 62
    18
420
        0
370
    25
100
AcDbLine
 10
392.052496608178
 20
148.0128551786342
 30
0.0
 11
393.6219151349452
 21
144.8966425417038
 31
0.0
  0
LINE
  5
A6
330
70
100
AcDbEntity
  8
_HONTAI
 62
    18
420
        0
370
    25
100
AcDbLine
 10
393.6219151349452
 20
144.8966425417038
 30
0.0
 11
389.8515782433955
 21
146.7421543682605
 31
0.0
  0
LINE
  5
A7
330
70
100
AcDbEntity
  8
_HONTAI
 62
    18
420
        0
370
    25
100
AcDbLine
 10
389.8515782433955
 20
146.7421543682605
 30
0.0
 11
393.0261854110678
 21
144.5526978252567
 31
0.0
  0
LINE
  5
A8
330
70
100
AcDbEntity
  8
_HONTAI
 62
    18
420
        0
370
    25
100
AcDbLine
 10
393.0261854110678
 20
144.5526978252567
 30
0.0
 11
387.7514863828159
 21
145.5296657672325
 31
0.0
  0
LINE
  5
A9
330
70
100
AcDbEntity
  8
_HONTAI
 62
    18
420
        0
370
    25
100
AcDbLine
 10
387.7514863828159
 20
145.5296657672325
 30
0.0
 11
392.4877444662462
 21
144.2418288008196
 31
0.0
  0
LINE
  5
AA
330
70
100
AcDbEntity
  8
_HONTAI
 62
    18
420
        0
370
    25
100
AcDbLine
 10
392.4877444662462
 20
144.2418288008196
 30
0.0
 11
385.8160312549251
 21
144.4122302281404
 31
0.0
  0
LINE
  5
AB
330
70
100
AcDbEntity
  8
_HONTAI
 62
    18
420
        0
370
    25
100
AcDbLine
 10
385.8160312549251
 20
144.4122302281404
 30
0.0
 11
392.0229525560986
 21
143.973481066379
 31
0.0
  0
LINE
  5
AC
330
70
100
AcDbEntity
  8
_HONTAI
 62
    18
420
        0
370
    25
100
AcDbLine
 10
392.0229525560986
 20
143.973481066379
 30
0.0
 11
384.1040206843895
 21
143.423800464386
 31
0.0
  0
LINE
  5
AD
330
70
100
AcDbEntity
  8
_HONTAI
 62
    18
420
        0
370
    25
100
AcDbLine
 10
384.1040206843895
 20
143.423800464386
 30
0.0
 11
391.6459321476537
 21
143.7558082320764
 31
0.0
  0
LINE
  5
AE
330
70
100
AcDbEntity
  8
_HONTAI
 62
    18
420
        0
370
    25
100
AcDbLine
 10
391.6459321476537
 20
143.7558082320764
 30
0.0
 11
382.6674732460821
 21
142.5944094141768
 31
0.0
  0
LINE
  5
AF
330
70
100
AcDbEntity
  8
_HONTAI
 62
    18
420
        0
370
    25
100
AcDbLine
 10
382.6674732460821
 20
142.5944094141768
 30
0.0
 11
391.3681388152246
 21
143.5954241768191
 31
0.0
  0
LINE
  5
B0
330
70
100
AcDbEntity
  8
_HONTAI
 62
    18
420
        0
370
    25
100
AcDbLine
 10
391.3681388152246
 20
143.5954241768191
 30
0.0
 11
381.5500377069881
 21
141.9492577048788
 31
0.0
  0
LINE
  5
B1
330
70
100
AcDbEntity
  8
_HONTAI
 62
    18
420
        0
370
    25
100
AcDbLine
 10
381.5500377069881
 20
141.9492577048788
 30
0.0
 11
391.1980131686219
 21
143.4972020889563
 31
0.0
  0
LINE
  5
B2
330
70
100
AcDbEntity
  8
_HONTAI
 62
    18
420
        0
370
    25
100
AcDbLine
 10
391.1980131686219
 20
143.4972020889563
 30
0.0
 11
380.7856667805137
 21
141.5079479447156
 31
0.0
  0
LINE
  5
B3
330
70
100
AcDbEntity
  8
_HONTAI
 62
    18
420
        0
370
    25
100
AcDbLine
 10
380.7856667805137
 20
141.5079479447156
 30
0.0
 11
391.1407243895861
 21
143.4641263969573
 31
0.0
  0
LINE
  5
B4
330
70
100
AcDbEntity
  8
_HONTAI
 62
    18
420
        0
370
    25
100
AcDbLine
 10
393.1699321472669
 20
148.6580068879283
 30
0.0
 11
388.1089475215235
 21
153.7806797435488
 31
0.0
  0
LINE
  5
B5
330
70
100
AcDbEntity
  8
_HONTAI
 62
    18
420
        0
370
    25
100
AcDbLine
 10
388.1089475215235
 20
153.7806797435488
 30
0.0
 11
392.052496608178
 21
148.0128551786342
 31
0.0
  0
LINE
  5
B6
330
70
100
AcDbEntity
  8
_HONTAI
 62
    18
420
        0
370
    25
100
AcDbLine
 10
392.052496608178
 20
148.0128551786342
 30
0.0
 11
385.0017686535973
 21
151.9867491877302
 31
0.0
  0
LINE
  5
B7
330
70
100
AcDbEntity
  8
_HONTAI
 62
    18
420
        0
370
    25
100
AcDbLine
 10
385.0017686535973
 20
151.9867491877302
 30
0.0
 11
389.8515782433955
 21
146.7421543682605
 31
0.0
  0
LINE
  5
B8
330
70
100
AcDbEntity
  8
_HONTAI
 62
    18
420
        0
370
    25
100
AcDbLine
 10
389.8515782433955
 20
146.7421543682605
 30
0.0
 11
382.0369330857209
 21
150.2750005745123
 31
0.0
  0
LINE
  5
B9
330
70
100
AcDbEntity
  8
_HONTAI
 62
    18
420
        0
370
    25
100
AcDbLine
 10
382.0369330857209
 20
150.2750005745123
 30
0.0
 11
387.7514863828159
 21
145.5296657672325
 31
0.0
  0
LINE
  5
BA
330
70
100
AcDbEntity
  8
_HONTAI
 62
    18
420
        0
370
    25
100
AcDbLine
 10
387.7514863828159
 20
145.5296657672325
 30
0.0
 11
379.3045258463437
 21
148.6974445193242
 31
0.0
  0
LINE
  5
BB
330
70
100
AcDbEntity
  8
_HONTAI
 62
    18
420
        0
370
    25
100
AcDbLine
 10
379.3045258463437
 20
148.6974445193242
 30
0.0
 11
385.8160312549251
 21
144.4122302281404
 31
0.0
  0
LINE
  5
BC
330
70
100
AcDbEntity
  8
_HONTAI
 62
    18
420
        0
370
    25
100
AcDbLine
 10
385.8160312549251
 20
144.4122302281404
 30
0.0
 11
376.8875697467683
 21
147.3020142646127
 31
0.0
  0
LINE
  5
BD
330
70
100
AcDbEntity
  8
_HONTAI
 62
    18
420
        0
370
    25
100
AcDbLine
 10
376.8875697467683
 20
147.3020142646127
 30
0.0
 11
384.1040206843895
 21
143.423800464386
 31
0.0
  0
LINE
  5
BE
330
70
100
AcDbEntity
  8
_HONTAI
 62
    18
420
        0
370
    25
100
AcDbLine
 10
384.1040206843895
 20
143.423800464386
 30
0.0
 11
374.859502775044
 21
146.1311092525535
 31
0.0
  0
LINE
  5
BF
330
70
100
AcDbEntity
  8
_HONTAI
 62
    18
420
        0
370
    25
100
AcDbLine
 10
374.859502775044
 20
146.1311092525535
 30
0.0
 11
382.6674732460821
 21
142.5944094141768
 31
0.0
  0
LINE
  5
C0
330
70
100
AcDbEntity
  8
_HONTAI
 62
    18
420
        0
370
    25
100
AcDbLine
 10
382.6674732460821
 20
142.5944094141768
 30
0.0
 11
373.2819467198508
 21
145.2203068394259
 31
0.0
  0
LINE
  5
C1
330
70
100
AcDbEntity
  8
_HONTAI
 62
    18
420
        0
370
    25
100
AcDbLine
 10
373.2819467198508
 20
145.2203068394259
 30
0.0
 11
381.5500377069881
 21
141.9492577048788
 31
0.0
  0
LINE
  5
C2
330
70
100
AcDbEntity
  8
_HONTAI
 62
    18
420
        0
370
    25
100
AcDbLine
 10
381.5500377069881
 20
141.9492577048788
 30
0.0
 11
372.2028348236482
 21
144.5972812956665
 31
0.0
  0
LINE
  5
C3
330
70
100
AcDbEntity
  8
_HONTAI
 62
    18
420
        0
370
    25
100
AcDbLine
 10
372.2028348236482
 20
144.5972812956665
 30
0.0
 11
380.7856667805137
 21
141.5079479447156
 31
0.0
  0
LINE
  5
C4
330
70
100
AcDbEntity
  8
_HONTAI
 62
    18
420
        0
370
    25
100
AcDbLine
 10
388.1089475215235
 20
153.7806797435488
 30
0.0
 11
370.9071676119303
 21
176.0277622488295
 31
0.0
  0
LINE
  5
C5
330
70
100
AcDbEntity
  8
_HONTAI
 62
    18
420
        0
370
    25
100
AcDbLine
 10
388.1089475215235
 20
153.7806797435488
 30
0.0
 11
375.7527892944789
 21
178.8253832316405
 31
0.0
  0
LINE
  5
C6
330
70
100
AcDbEntity
  8
_HONTAI
 62
    18
420
        0
370
    25
100
AcDbLine
 10
394.2568326916647
 20
145.2632123639873
 30
0.0
 11
393.1699321472669
 21
148.6580068879283
 31
0.0
  0
LINE
  5
C7
330
70
100
AcDbEntity
  8
_HONTAI
 62
    18
420
        0
370
    25
100
AcDbLine
 10
380.7856667805137
 20
141.5079479447156
 30
0.0
 11
371.7496290259381
 21
144.3356228063619
 31
0.0
  0
LINE
  5
C8
330
70
100
AcDbEntity
  8
_HONTAI
 62
    18
420
        0
370
    25
100
AcDbLine
 10
371.7496290259381
 20
144.3356228063619
 30
0.0
 11
380.3487972011889
 21
141.2557211754926
 31
0.0
  0
LINE
  5
C9
330
70
100
AcDbEntity
  8
_HONTAI
 62
    18
420
        0
370
    25
100
AcDbLine
 10
370.9071676119303
 20
176.0277622488295
 30
0.0
 11
385.0017686535973
 21
151.9867491877302
 31
0.0
  0
LINE
  5
CA
330
70
100
AcDbEntity
  8
_HONTAI
 62
    18
420
        0
370
    25
100
AcDbLine
 10
385.0017686535973
 20
151.9867491877302
 30
0.0
 11
366.2087776922262
 21
173.3151455639297
 31
0.0
  0
LINE
  5
CB
330
70
100
AcDbEntity
  8
_HONTAI
 62
    18
420
        0
370
    25
100
AcDbLine
 10
366.2087776922262
 20
173.3151455639297
 30
0.0
 11
382.0369330857209
 21
150.2750005745123
 31
0.0
  0
LINE
  5
CC
330
70
100
AcDbEntity
  8
_HONTAI
 62
    18
420
        0
370
    25
100
AcDbLine
 10
382.0369330857209
 20
150.2750005745123
 30
0.0
 11
361.80037773551
 21
170.7699546622259
 31
0.0
  0
LINE
  5
CD
330
70
100
AcDbEntity
  8
_HONTAI
 62
    18
420
        0
370
    25
100
AcDbLine
 10
361.80037773551
 20
170.7699546622259
 30
0.0
 11
379.3045258463437
 21
148.6974445193242
 31
0.0
  0
LINE
  5
CE
330
70
100
AcDbEntity
  8
_HONTAI
 62
    18
420
        0
370
    25
100
AcDbLine
 10
379.3045258463437
 20
148.6974445193242
 30
0.0
 11
357.8159147437099
 21
168.4695238813311
 31
0.0
  0
LINE
  5
CF
330
70
100
AcDbEntity
  8
_HONTAI
 62
    18
420
        0
370
    25
100
AcDbLine
 10
357.8159147437099
 20
168.4695238813311
 30
0.0
 11
376.8875697467683
 21
147.3020142646127
 31
0.0
  0
LINE
  5
D0
330
70
100
AcDbEntity
  8
_HONTAI
 62
    18
420
        0
370
    25
100
AcDbLine
 10
376.8875697467683
 20
147.3020142646127
 30
0.0
 11
354.376454608682
 21
166.4837506465068
 31
0.0
  0
LINE
  5
D1
330
70
100
AcDbEntity
  8
_HONTAI
 62
    18
420
        0
370
    25
100
AcDbLine
 10
354.376454608682
 20
166.4837506465068
 30
0.0
 11
374.859502775044
 21
146.1311092525535
 31
0.0
  0
LINE
  5
D2
330
70
100
AcDbEntity
  8
_HONTAI
 62
    18
420
        0
370
    25
100
AcDbLine
 10
374.859502775044
 20
146.1311092525535
 30
0.0
 11
351.5865035861333
 21
164.8729716726106
 31
0.0
  0
LINE
  5
D3
330
70
100
AcDbEntity
  8
_HONTAI
 62
    18
420
        0
370
    25
100
AcDbLine
 10
351.5865035861333
 20
164.8729716726106
 30
0.0
 11
373.2819467198508
 21
145.2203068394259
 31
0.0
  0
LINE
  5
D4
330
70
100
AcDbEntity
  8
_HONTAI
 62
    18
420
        0
370
    25
100
AcDbLine
 10
373.2819467198508
 20
145.2203068394259
 30
0.0
 11
349.5308329261032
 21
163.6861296636766
 31
0.0
  0
LINE
  5
D5
330
70
100
AcDbEntity
  8
_HONTAI
 62
    18
420
        0
370
    25
100
AcDbLine
 10
349.5308329261032
 20
163.6861296636766
 30
0.0
 11
372.2028348236482
 21
144.5972812956665
 31
0.0
  0
LINE
  5
D6
330
70
100
AcDbEntity
  8
_HONTAI
 62
    18
420
        0
370
    25
100
AcDbLine
 10
372.2028348236482
 20
144.5972812956665
 30
0.0
 11
348.2719031415066
 21
162.9592862136505
 31
0.0
  0
LINE
  5
D7
330
70
100
AcDbEntity
  8
_HONTAI
 62
    18
420
        0
370
    25
100
AcDbLine
 10
348.2719031415066
 20
162.9592862136505
 30
0.0
 11
371.7496290259381
 21
144.3356228063619
 31
0.0
  0
LINE
  5
D8
330
70
100
AcDbEntity
  8
_HONTAI
 62
    18
420
        0
370
    25
100
AcDbLine
 10
371.7496290259381
 20
144.3356228063619
 30
0.0
 11
347.8479661765462
 21
162.714526092812
 31
0.0
  0
LINE
  5
D9
330
70
100
AcDbEntity
  8
_HONTAI
 62
    18
420
        0
370
    25
100
AcDbLine
 10
338.9618726314566
 20
196.5810370399956
 30
0.0
 11
338.9618726314566
 21
164.0820621843707
 31
0.0
  0
LINE
  5
DA
330
70
100
AcDbEntity
  8
_HONTAI
 62
    18
420
        0
370
    25
100
AcDbLine
 10
341.4002726308433
 20
196.5810370399956
 30
0.0
 11
341.4002726308433
 21
162.5579619791147
 31
0.0
  0
LINE
  5
DB
330
70
100
AcDbEntity
  8
_HONTAI
 62
    18
420
        0
370
    25
100
AcDbLine
 10
375.7527892944789
 20
178.8253832316405
 30
0.0
 11
368.1613123558505
 21
186.5093925150589
 31
0.0
  0
LINE
  5
DC
330
70
100
AcDbEntity
  8
_HONTAI
 62
    18
420
        0
370
    25
100
AcDbLine
 10
368.1613123558505
 20
186.5093925150589
 30
0.0
 11
370.9071676119303
 21
176.0277622488295
 31
0.0
  0
LINE
  5
DD
330
70
100
AcDbEntity
  8
_HONTAI
 62
    18
420
        0
370
    25
100
AcDbLine
 10
370.9071676119303
 20
176.0277622488295
 30
0.0
 11
363.5005440539602
 21
183.818496681331
 31
0.0
  0
LINE
  5
DE
330
70
100
AcDbEntity
  8
_HONTAI
 62
    18
420
        0
370
    25
100
AcDbLine
 10
363.5005440539602
 20
183.818496681331
 30
0.0
 11
366.2087776922262
 21
173.3151455639297
 31
0.0
  0
LINE
  5
DF
330
70
100
AcDbEntity
  8
_HONTAI
 62
    18
420
        0
370
    25
100
AcDbLine
 10
366.2087776922262
 20
173.3151455639297
 30
0.0
 11
359.0532907021458
 21
181.2508737615067
 31
0.0
  0
LINE
  5
E0
330
70
100
AcDbEntity
  8
_HONTAI
 62
    18
420
        0
370
    25
100
AcDbLine
 10
359.0532907021458
 20
181.2508737615067
 30
0.0
 11
361.80037773551
 21
170.7699546622259
 31
0.0
  0
LINE
  5
E1
330
70
100
AcDbEntity
  8
_HONTAI
 62
    18
420
        0
370
    25
100
AcDbLine
 10
361.80037773551
 20
170.7699546622259
 30
0.0
 11
354.9546798430746
 21
178.8845396787228
 31
0.0
  0
LINE
  5
E2
330
70
100
AcDbEntity
  8
_HONTAI
 62
    18
420
        0
370
    25
100
AcDbLine
 10
354.9546798430746
 20
178.8845396787228
 30
0.0
 11
357.8159147437099
 21
168.4695238813311
 31
0.0
  0
LINE
  5
E3
330
70
100
AcDbEntity
  8
_HONTAI
 62
    18
420
        0
370
    25
100
AcDbLine
 10
357.8159147437099
 20
168.4695238813311
 30
0.0
 11
351.3292456937131
 21
176.791394296658
 31
0.0
  0
LINE
  5
E4
330
70
100
AcDbEntity
  8
_HONTAI
 62
    18
420
        0
370
    25
100
AcDbLine
 10
351.3292456937131
 20
176.791394296658
 30
0.0
 11
354.376454608682
 21
166.4837506465068
 31
0.0
  0
LINE
  5
E5
330
70
100
AcDbEntity
  8
_HONTAI
 62
    18
420
        0
370
    25
100
AcDbLine
 10
354.376454608682
 20
166.4837506465068
 30
0.0
 11
348.2871452361278
 21
175.0350367785671
 31
0.0
  0
LINE
  5
E6
330
70
100
AcDbEntity
  8
_HONTAI
 62
    18
420
        0
370
    25
100
AcDbLine
 10
348.2871452361278
 20
175.0350367785671
 30
0.0
 11
351.5865035861333
 21
164.8729716726106
 31
0.0
  0
LINE
  5
E7
330
70
100
AcDbEntity
  8
_HONTAI
 62
    18
420
        0
370
    25
100
AcDbLine
 10
351.5865035861333
 20
164.8729716726106
 30
0.0
 11
345.9208111533452
 21
173.6688331588814
 31
0.0
  0
LINE
  5
E8
330
70
100
AcDbEntity
  8
_HONTAI
 62
    18
420
        0
370
    25
100
AcDbLine
 10
345.9208111533452
 20
173.6688331588814
 30
0.0
 11
349.5308329261032
 21
163.6861296636766
 31
0.0
  0
LINE
  5
E9
330
70
100
AcDbEntity
  8
_HONTAI
 62
    18
420
        0
370
    25
100
AcDbLine
 10
349.5308329261032
 20
163.6861296636766
 30
0.0
 11
344.3056900702665
 21
172.7363425667917
 31
0.0
  0
LINE
  5
EA
330
70
100
AcDbEntity
  8
_HONTAI
 62
    18
420
        0
370
    25
100
AcDbLine
 10
344.3056900702665
 20
172.7363425667917
 30
0.0
 11
348.2719031415066
 21
162.9592862136505
 31
0.0
  0
LINE
  5
EB
330
70
100
AcDbEntity
  8
_HONTAI
 62
    18
420
        0
370
    25
100
AcDbLine
 10
348.2719031415066
 20
162.9592862136505
 30
0.0
 11
343.3770077292983
 21
172.2001675672465
 31
0.0
  0
LINE
  5
EC
330
70
100
AcDbEntity
  8
_HONTAI
 62
    18
420
        0
370
    25
100
AcDbLine
 10
363.5607892975284
 20
199.9425466722407
 30
0.0
 11
368.1613123558505
 21
186.5093925150589
 31
0.0
  0
LINE
  5
ED
330
70
100
AcDbEntity
  8
_HONTAI
 62
    18
420
        0
370
    25
100
AcDbLine
 10
368.1613123558505
 20
186.5093925150589
 30
0.0
 11
361.5231127262303
 21
198.7660935552809
 31
0.0
  0
LINE
  5
EE
330
70
100
AcDbEntity
  8
_HONTAI
 62
    18
420
        0
370
    25
100
AcDbLine
 10
361.5231127262303
 20
198.7660935552809
 30
0.0
 11
363.5005440539602
 21
183.818496681331
 31
0.0
  0
LINE
  5
EF
330
70
100
AcDbEntity
  8
_HONTAI
 62
    18
420
        0
370
    25
100
AcDbLine
 10
363.5005440539602
 20
183.818496681331
 30
0.0
 11
357.5096733551597
 21
196.4489332540161
 31
0.0
  0
LINE
  5
F0
330
70
100
AcDbEntity
  8
_HONTAI
 62
    18
420
        0
370
    25
100
AcDbLine
 10
357.5096733551597
 20
196.4489332540161
 30
0.0
 11
359.0532907021458
 21
181.2508737615067
 31
0.0
  0
LINE
  5
F1
330
70
100
AcDbEntity
  8
_HONTAI
 62
    18
420
        0
370
    25
100
AcDbLine
 10
359.0532907021458
 20
181.2508737615067
 30
0.0
 11
353.6800940799864
 21
194.2379246286115
 31
0.0
  0
LINE
  5
F2
330
70
100
AcDbEntity
  8
_HONTAI
 62
    18
420
        0
370
    25
100
AcDbLine
 10
353.6800940799864
 20
194.2379246286115
 30
0.0
 11
354.9546798430746
 21
178.8845396787228
 31
0.0
  0
LINE
  5
F3
330
70
100
AcDbEntity
  8
_HONTAI
 62
    18
420
        0
370
    25
100
AcDbLine
 10
354.9546798430746
 20
178.8845396787228
 30
0.0
 11
350.1507347291228
 21
192.200248057323
 31
0.0
  0
LINE
  5
F4
330
70
100
AcDbEntity
  8
_HONTAI
 62
    18
420
        0
370
    25
100
AcDbLine
 10
350.1507347291228
 20
192.200248057323
 30
0.0
 11
351.3292456937131
 21
176.791394296658
 31
0.0
  0
LINE
  5
F5
330
70
100
AcDbEntity
  8
_HONTAI
 62
    18
420
        0
370
    25
100
AcDbLine
 10
351.3292456937131
 20
176.791394296658
 30
0.0
 11
347.0288331005069
 21
190.397817311657
 31
0.0
  0
LINE
  5
F6
330
70
100
AcDbEntity
  8
_HONTAI
 62
    18
420
        0
370
    25
100
AcDbLine
 10
347.0288331005069
 20
190.397817311657
 30
0.0
 11
348.2871452361278
 21
175.0350367785671
 31
0.0
  0
LINE
  5
F7
330
70
100
AcDbEntity
  8
_HONTAI
 62
    18
420
        0
370
    25
100
AcDbLine
 10
348.2871452361278
 20
175.0350367785671
 30
0.0
 11
344.4092465953618
 21
188.8853983377478
 31
0.0
  0
LINE
  5
F8
330
70
100
AcDbEntity
  8
_HONTAI
 62
    18
420
        0
370
    25
100
AcDbLine
 10
344.4092465953618
 20
188.8853983377478
 30
0.0
 11
345.9208111533452
 21
173.6688331588814
 31
0.0
  0
LINE
  5
F9
330
70
100
AcDbEntity
  8
_HONTAI
 62
    18
420
        0
370
    25
100
AcDbLine
 10
345.9208111533452
 20
173.6688331588814
 30
0.0
 11
342.371570024074
 21
187.7089452207931
 31
0.0
  0
LINE
  5
FA
330
70
100
AcDbEntity
  8
_HONTAI
 62
    18
420
        0
370
    25
100
AcDbLine
 10
342.371570024074
 20
187.7089452207931
 30
0.0
 11
344.3056900702665
 21
172.7363425667917
 31
0.0
  0
LINE
  5
FB
330
70
100
AcDbEntity
  8
_HONTAI
 62
    18
420
        0
370
    25
100
AcDbLine
 10
344.3056900702665
 20
172.7363425667917
 30
0.0
 11
340.9777171581478
 21
186.90420389344
 31
0.0
  0
LINE
  5
FC
330
70
100
AcDbEntity
  8
_HONTAI
 62
    18
420
        0
370
    25
100
AcDbLine
 10
340.9777171581478
 20
186.90420389344
 30
0.0
 11
343.3770077293034
 21
172.2001675672465
 31
0.0
  0
LINE
  5
FD
330
70
100
AcDbEntity
  8
_HONTAI
 62
    18
420
        0
370
    25
100
AcDbLine
 10
360.0773607269692
 20
205.9760219409846
 30
0.0
 11
361.5231127262303
 21
198.7660935552809
 31
0.0
  0
LINE
  5
FE
330
70
100
AcDbEntity
  8
_HONTAI
 62
    18
420
        0
370
    25
100
AcDbLine
 10
361.5231127262303
 20
198.7660935552809
 30
0.0
 11
357.3271430152451
 21
204.3881830047877
 31
0.0
  0
LINE
  5
FF
330
70
100
AcDbEntity
  8
_HONTAI
 62
    18
420
        0
370
    25
100
AcDbLine
 10
357.3271430152451
 20
204.3881830047877
 30
0.0
 11
357.5096733551597
 21
196.4489332540161
 31
0.0
  0
LINE
  5
100
330
70
100
AcDbEntity
  8
_HONTAI
 62
    18
420
        0
370
    25
100
AcDbLine
 10
357.5096733551597
 20
196.4489332540161
 30
0.0
 11
354.6604892770205
 21
202.8485897511886
 31
0.0
  0
LINE
  5
101
330
70
100
AcDbEntity
  8
_HONTAI
 62
    18
420
        0
370
    25
100
AcDbLine
 10
354.6604892770205
 20
202.8485897511886
 30
0.0
 11
353.6800940799864
 21
194.2379246286115
 31
0.0
  0
LINE
  5
102
330
70
100
AcDbEntity
  8
_HONTAI
 62
    18
420
        0
370
    25
100
AcDbLine
 10
353.6800940799864
 20
194.2379246286115
 30
0.0
 11
352.1584244367465
 21
201.404021942127
 31
0.0
  0
LINE
  5
103
330
70
100
AcDbEntity
  8
_HONTAI
 62
    18
420
        0
370
    25
100
AcDbLine
 10
352.1584244367465
 20
201.404021942127
 30
0.0
 11
350.1507347291228
 21
192.200248057323
 31
0.0
  0
LINE
  5
104
330
70
100
AcDbEntity
  8
_HONTAI
 62
    18
420
        0
370
    25
100
AcDbLine
 10
350.1507347291228
 20
192.200248057323
 30
0.0
 11
349.8969724684526
 21
200.0983720394723
 31
0.0
  0
LINE
  5
105
330
70
100
AcDbEntity
  8
_HONTAI
 62
    18
420
        0
370
    25
100
AcDbLine
 10
349.8969724684526
 20
200.0983720394723
 30
0.0
 11
347.0288331005069
 21
190.397817311657
 31
0.0
  0
LINE
  5
106
330
70
100
AcDbEntity
  8
_HONTAI
 62
    18
420
        0
370
    25
100
AcDbLine
 10
347.0288331005069
 20
190.397817311657
 30
0.0
 11
347.9448464458796
 21
198.9713115548495
 31
0.0
  0
LINE
  5
107
330
70
100
AcDbEntity
  8
_HONTAI
 62
    18
420
        0
370
    25
100
AcDbLine
 10
347.9448464458796
 20
198.9713115548495
 30
0.0
 11
344.4092465953618
 21
188.8853983377478
 31
0.0
  0
LINE
  5
108
330
70
100
AcDbEntity
  8
_HONTAI
 62
    18
420
        0
370
    25
100
AcDbLine
 10
344.4092465953618
 20
188.8853983377478
 30
0.0
 11
346.3613607303908
 21
198.0570856507532
 31
0.0
  0
LINE
  5
109
330
70
100
AcDbEntity
  8
_HONTAI
 62
    18
420
        0
370
    25
100
AcDbLine
 10
346.3613607303908
 20
198.0570856507532
 30
0.0
 11
342.371570024074
 21
187.7089452207931
 31
0.0
  0
LINE
  5
10A
330
70
100
AcDbEntity
  8
_HONTAI
 62
    18
420
        0
370
    25
100
AcDbLine
 10
342.371570024074
 20
187.7089452207931
 30
0.0
 11
345.1946287341702
 21
197.3834726186611
 31
0.0
  0
LINE
  5
10B
330
70
100
AcDbEntity
  8
_HONTAI
 62
    18
420
        0
370
    25
100
AcDbLine
 10
345.1946287341702
 20
197.3834726186611
 30
0.0
 11
340.9777171581478
 21
186.90420389344
 31
0.0
  0
LINE
  5
10C
330
70
100
AcDbEntity
  8
_HONTAI
 62
    18
420
        0
370
    25
100
AcDbLine
 10
340.9777171581478
 20
186.90420389344
 30
0.0
 11
344.4801010185237
 21
196.97093984969
 31
0.0
  0
LINE
  5
10D
330
70
100
AcDbEntity
  8
_HONTAI
 62
    18
420
        0
370
    25
100
AcDbLine
 10
344.4801010185237
 20
196.97093984969
 30
0.0
 11
340.1810726311525
 21
186.4442609613294
 31
0.0
  0
LINE
  5
10E
330
70
100
AcDbEntity
  8
_HONTAI
 62
    18
420
        0
370
    25
100
AcDbLine
 10
360.0773607269692
 20
205.9760219409846
 30
0.0
 11
357.7046240196114
 21
208.6284386101013
 31
0.0
  0
LINE
  5
10F
330
70
100
AcDbEntity
  8
_HONTAI
 62
    18
420
        0
370
    25
100
AcDbLine
 10
357.7046240196114
 20
208.6284386101013
 30
0.0
 11
357.3271430152451
 21
204.3881830047877
 31
0.0
  0
LINE
  5
110
330
70
100
AcDbEntity
  8
_HONTAI
 62
    18
420
        0
370
    25
100
AcDbLine
 10
357.3271430152451
 20
204.3881830047877
 30
0.0
 11
356.4617524724385
 21
207.9108663877731
 31
0.0
  0
LINE
  5
111
330
70
100
AcDbEntity
  8
_HONTAI
 62
    18
420
        0
370
    25
100
AcDbLine
 10
356.4617524724385
 20
207.9108663877731
 30
0.0
 11
354.6604892770205
 21
202.8485897511886
 31
0.0
  0
LINE
  5
112
330
70
100
AcDbEntity
  8
_HONTAI
 62
    18
420
        0
370
    25
100
AcDbLine
 10
354.6604892770205
 20
202.8485897511886
 30
0.0
 11
355.2758182452882
 21
207.2261669424868
 31
0.0
  0
LINE
  5
113
330
70
100
AcDbEntity
  8
_HONTAI
 62
    18
420
        0
370
    25
100
AcDbLine
 10
355.2758182452882
 20
207.2261669424868
 30
0.0
 11
352.1584244367465
 21
201.404021942127
 31
0.0
  0
LINE
  5
114
330
70
100
AcDbEntity
  8
_HONTAI
 62
    18
420
        0
370
    25
100
AcDbLine
 10
352.1584244367465
 20
201.404021942127
 30
0.0
 11
354.1828553495361
 21
206.5951445204114
 31
0.0
  0
LINE
  5
115
330
70
100
AcDbEntity
  8
_HONTAI
 62
    18
420
        0
370
    25
100
AcDbLine
 10
354.1828553495361
 20
206.5951445204114
 30
0.0
 11
349.8969724684526
 21
200.0983720394723
 31
0.0
  0
LINE
  5
116
330
70
100
AcDbEntity
  8
_HONTAI
 62
    18
420
        0
370
    25
100
AcDbLine
 10
349.8969724684526
 20
200.0983720394723
 30
0.0
 11
353.2160729097089
 21
206.0369724185277
 31
0.0
  0
LINE
  5
117
330
70
100
AcDbEntity
  8
_HONTAI
 62
    18
420
        0
370
    25
100
AcDbLine
 10
353.2160729097089
 20
206.0369724185277
 30
0.0
 11
347.9448464458796
 21
198.9713115548495
 31
0.0
  0
LINE
  5
118
330
70
100
AcDbEntity
  8
_HONTAI
 62
    18
420
        0
370
    25
100
AcDbLine
 10
347.9448464458796
 20
198.9713115548495
 30
0.0
 11
352.4048461210166
 21
205.5686104137028
 31
0.0
  0
LINE
  5
119
330
70
100
AcDbEntity
  8
_HONTAI
 62
    18
420
        0
370
    25
100
AcDbLine
 10
352.4048461210166
 20
205.5686104137028
 30
0.0
 11
346.3613607303908
 21
198.0570856507532
 31
0.0
  0
LINE
  5
11A
330
70
100
AcDbEntity
  8
_HONTAI
 62
    18
420
        0
370
    25
100
AcDbLine
 10
346.3613607303908
 20
198.0570856507532
 30
0.0
 11
351.7738236989415
 21
205.2042894484538
 31
0.0
  0
LINE
  5
11B
330
70
100
AcDbEntity
  8
_HONTAI
 62
    18
420
        0
370
    25
100
AcDbLine
 10
351.7738236989415
 20
205.2042894484538
 30
0.0
 11
345.1946287341702
 21
197.3834726186611
 31
0.0
  0
LINE
  5
11C
330
70
100
AcDbEntity
  8
_HONTAI
 62
    18
420
        0
370
    25
100
AcDbLine
 10
345.1946287341702
 20
197.3834726186611
 30
0.0
 11
351.3421789404615
 21
204.9550792309513
 31
0.0
  0
LINE
  5
11D
330
70
100
AcDbEntity
  8
_HONTAI
 62
    18
420
        0
370
    25
100
AcDbLine
 10
351.3421789404615
 20
204.9550792309513
 30
0.0
 11
344.4801010185237
 21
196.97093984969
 31
0.0
  0
LINE
  5
11E
330
70
100
AcDbEntity
  8
_HONTAI
 62
    18
420
        0
370
    25
100
AcDbLine
 10
344.4801010185237
 20
196.97093984969
 30
0.0
 11
351.1230271531475
 21
204.8285518875501
 31
0.0
  0
LINE
  5
11F
330
70
100
AcDbEntity
  8
_HONTAI
 62
    18
420
        0
370
    25
100
AcDbLine
 10
351.1230271531475
 20
204.8285518875501
 30
0.0
 11
344.2394881465231
 21
196.8320219432716
 31
0.0
  0
LINE
  5
120
330
70
100
AcDbEntity
  8
_HONTAI
 62
    18
420
        0
370
    25
100
AcDbLine
 10
340.1810726311525
 20
160.9614457423015
 30
0.0
 11
336.9851375329959
 21
146.7173523482185
 31
0.0
  0
LINE
  5
121
330
70
100
AcDbEntity
  8
_HONTAI
 62
    18
420
        0
370
    25
100
AcDbLine
 10
285.4504988297503
 20
120.1584540345289
 30
0.0
 11
289.2214208727132
 21
117.9813111779319
 31
0.0
  0
LINE
  5
122
330
70
100
AcDbEntity
  8
_HONTAI
 62
    18
420
        0
370
    25
100
AcDbLine
 10
308.7760674918166
 20
118.7583812259711
 30
0.0
 11
300.0133480611101
 21
115.7729059564685
 31
0.0
  0
LINE
  5
123
330
70
100
AcDbEntity
  8
_HONTAI
 62
    18
420
        0
370
    25
100
AcDbLine
 10
300.0133480611101
 20
115.7729059564685
 30
0.0
 11
289.2214208727132
 21
117.9813111779293
 31
0.0
  0
LINE
  5
124
330
70
100
AcDbEntity
  8
_HONTAI
 62
    18
420
        0
370
    25
100
AcDbLine
 10
332.5141790857538
 20
137.2317108737847
 30
0.0
 11
308.7760674918166
 21
118.7583812259711
 31
0.0
  0
LINE
  5
125
330
70
100
AcDbEntity
  8
_HONTAI
 62
    18
420
        0
370
    25
100
AcDbLine
 10
329.5683429065328
 20
179.1556586431318
 30
0.0
 11
336.1226571157811
 21
171.3492067242424
 31
0.0
  0
LINE
  5
126
330
70
100
AcDbEntity
  8
_HONTAI
 62
    18
420
        0
370
    25
100
AcDbLine
 10
336.1226571157811
 20
171.3492067242424
 30
0.0
 11
340.1810726311525
 21
160.9614457423015
 31
0.0
  0
LINE
  5
127
330
70
100
AcDbEntity
  8
_HONTAI
 62
    18
420
        0
370
    25
100
AcDbLine
 10
336.9851375329959
 20
146.7173523482185
 30
0.0
 11
332.5141790857538
 21
137.2317108737847
 31
0.0
  0
LINE
  5
128
330
70
100
AcDbEntity
  8
_HONTAI
 62
    18
420
        0
370
    25
100
AcDbLine
 10
322.5490131061936
 20
184.4149656466401
 30
0.0
 11
326.3199351491568
 21
182.2378227900424
 31
0.0
  0
LINE
  5
129
330
70
100
AcDbEntity
  8
_HONTAI
 62
    18
420
        0
370
    25
100
AcDbLine
 10
326.3199351491568
 20
182.2378227900424
 30
0.0
 11
325.7295442667986
 21
181.3719900711486
 31
0.0
  0
LINE
  5
12A
330
70
100
AcDbEntity
  8
_HONTAI
 62
    18
420
        0
370
    25
100
AcDbLine
 10
288.3096486541206
 20
122.5300399596082
 30
0.0
 11
286.1053125706339
 21
119.7803971449613
 31
0.0
  0
LINE
  5
12B
330
70
100
AcDbEntity
  8
_HONTAI
 62
    18
420
        0
370
    25
100
AcDbLine
 10
288.3096486541206
 20
122.5300399596082
 30
0.0
 11
286.7402301273541
 21
119.4138273226759
 31
0.0
  0
LINE
  5
12C
330
70
100
AcDbEntity
  8
_HONTAI
 62
    18
420
        0
370
    25
100
AcDbLine
 10
286.7402301273541
 20
119.4138273226759
 30
0.0
 11
290.5105670188987
 21
121.2593391492371
 31
0.0
  0
LINE
  5
12D
330
70
100
AcDbEntity
  8
_HONTAI
 62
    18
420
        0
370
    25
100
AcDbLine
 10
290.5105670188987
 20
121.2593391492371
 30
0.0
 11
287.3359598512317
 21
119.0698826062288
 31
0.0
  0
LINE
  5
12E
330
70
100
AcDbEntity
  8
_HONTAI
 62
    18
420
        0
370
    25
100
AcDbLine
 10
287.3359598512317
 20
119.0698826062288
 30
0.0
 11
292.6106588794834
 21
120.0468505482064
 31
0.0
  0
LINE
  5
12F
330
70
100
AcDbEntity
  8
_HONTAI
 62
    18
420
        0
370
    25
100
AcDbLine
 10
292.6106588794834
 20
120.0468505482064
 30
0.0
 11
287.8744007960541
 21
118.7590135817948
 31
0.0
  0
LINE
  5
130
330
70
100
AcDbEntity
  8
_HONTAI
 62
    18
420
        0
370
    25
100
AcDbLine
 10
287.8744007960541
 20
118.7590135817948
 30
0.0
 11
294.5461140073742
 21
118.9294150091138
 31
0.0
  0
LINE
  5
131
330
70
100
AcDbEntity
  8
_HONTAI
 62
    18
420
        0
370
    25
100
AcDbLine
 10
294.5461140073742
 20
118.9294150091138
 30
0.0
 11
288.3391927062064
 21
118.4906658473511
 31
0.0
  0
LINE
  5
132
330
70
100
AcDbEntity
  8
_HONTAI
 62
    18
420
        0
370
    25
100
AcDbLine
 10
288.3391927062064
 20
118.4906658473511
 30
0.0
 11
296.2581245779101
 21
117.9409852453618
 31
0.0
  0
LINE
  5
133
330
70
100
AcDbEntity
  8
_HONTAI
 62
    18
420
        0
370
    25
100
AcDbLine
 10
296.2581245779101
 20
117.9409852453618
 30
0.0
 11
288.7162131146404
 21
118.272993013051
 31
0.0
  0
LINE
  5
134
330
70
100
AcDbEntity
  8
_HONTAI
 62
    18
420
        0
370
    25
100
AcDbLine
 10
288.7162131146404
 20
118.272993013051
 30
0.0
 11
297.6946720162179
 21
117.1115941951527
 31
0.0
  0
LINE
  5
135
330
70
100
AcDbEntity
  8
_HONTAI
 62
    18
420
        0
370
    25
100
AcDbLine
 10
297.6946720162179
 20
117.1115941951527
 30
0.0
 11
288.994006447075
 21
118.1126089577925
 31
0.0
  0
LINE
  5
136
330
70
100
AcDbEntity
  8
_HONTAI
 62
    18
420
        0
370
    25
100
AcDbLine
 10
288.994006447075
 20
118.1126089577925
 30
0.0
 11
298.8121075553112
 21
116.4664424858534
 31
0.0
  0
LINE
  5
137
330
70
100
AcDbEntity
  8
_HONTAI
 62
    18
420
        0
370
    25
100
AcDbLine
 10
298.8121075553112
 20
116.4664424858534
 30
0.0
 11
289.1641320936726
 21
118.0143868699309
 31
0.0
  0
LINE
  5
138
330
70
100
AcDbEntity
  8
_HONTAI
 62
    18
420
        0
370
    25
100
AcDbLine
 10
289.1641320936726
 20
118.0143868699309
 30
0.0
 11
299.5764784817863
 21
116.0251327256896
 31
0.0
  0
LINE
  5
139
330
70
100
AcDbEntity
  8
_HONTAI
 62
    18
420
        0
370
    25
100
AcDbLine
 10
299.5764784817863
 20
116.0251327256896
 30
0.0
 11
289.2214208727132
 21
117.9813111779293
 31
0.0
  0
LINE
  5
13A
330
70
100
AcDbEntity
  8
_HONTAI
 62
    18
420
        0
370
    25
100
AcDbLine
 10
287.1922131150324
 20
123.1751916689017
 30
0.0
 11
292.2531977407706
 21
128.2978645245221
 31
0.0
  0
LINE
  5
13B
330
70
100
AcDbEntity
  8
_HONTAI
 62
    18
420
        0
370
    25
100
AcDbLine
 10
292.2531977407706
 20
128.2978645245221
 30
0.0
 11
288.3096486541206
 21
122.5300399596082
 31
0.0
  0
LINE
  5
13C
330
70
100
AcDbEntity
  8
_HONTAI
 62
    18
420
        0
370
    25
100
AcDbLine
 10
288.3096486541206
 20
122.5300399596082
 30
0.0
 11
295.3603766086975
 21
126.5039339687061
 31
0.0
  0
LINE
  5
13D
330
70
100
AcDbEntity
  8
_HONTAI
 62
    18
420
        0
370
    25
100
AcDbLine
 10
295.3603766086975
 20
126.5039339687061
 30
0.0
 11
290.5105670188987
 21
121.2593391492371
 31
0.0
  0
LINE
  5
13E
330
70
100
AcDbEntity
  8
_HONTAI
 62
    18
420
        0
370
    25
100
AcDbLine
 10
290.5105670188987
 20
121.2593391492371
 30
0.0
 11
298.3252121765733
 21
124.7921853554882
 31
0.0
  0
LINE
  5
13F
330
70
100
AcDbEntity
  8
_HONTAI
 62
    18
420
        0
370
    25
100
AcDbLine
 10
298.3252121765733
 20
124.7921853554882
 30
0.0
 11
292.6106588794834
 21
120.0468505482064
 31
0.0
  0
LINE
  5
140
330
70
100
AcDbEntity
  8
_HONTAI
 62
    18
420
        0
370
    25
100
AcDbLine
 10
292.6106588794834
 20
120.0468505482064
 30
0.0
 11
301.0576194159556
 21
123.214629300295
 31
0.0
  0
LINE
  5
141
330
70
100
AcDbEntity
  8
_HONTAI
 62
    18
420
        0
370
    25
100
AcDbLine
 10
301.0576194159556
 20
123.214629300295
 30
0.0
 11
294.5461140073742
 21
118.9294150091138
 31
0.0
  0
LINE
  5
142
330
70
100
AcDbEntity
  8
_HONTAI
 62
    18
420
        0
370
    25
100
AcDbLine
 10
294.5461140073742
 20
118.9294150091138
 30
0.0
 11
303.4745755155317
 21
121.8191990455874
 31
0.0
  0
LINE
  5
143
330
70
100
AcDbEntity
  8
_HONTAI
 62
    18
420
        0
370
    25
100
AcDbLine
 10
303.4745755155317
 20
121.8191990455874
 30
0.0
 11
296.2581245779101
 21
117.9409852453618
 31
0.0
  0
LINE
  5
144
330
70
100
AcDbEntity
  8
_HONTAI
 62
    18
420
        0
370
    25
100
AcDbLine
 10
296.2581245779101
 20
117.9409852453618
 30
0.0
 11
305.5026424872553
 21
120.6482940335269
 31
0.0
  0
LINE
  5
145
330
70
100
AcDbEntity
  8
_HONTAI
 62
    18
420
        0
370
    25
100
AcDbLine
 10
305.5026424872553
 20
120.6482940335269
 30
0.0
 11
297.6946720162179
 21
117.1115941951527
 31
0.0
  0
LINE
  5
146
330
70
100
AcDbEntity
  8
_HONTAI
 62
    18
420
        0
370
    25
100
AcDbLine
 10
297.6946720162179
 20
117.1115941951527
 30
0.0
 11
307.0801985424485
 21
119.7374916203986
 31
0.0
  0
LINE
  5
147
330
70
100
AcDbEntity
  8
_HONTAI
 62
    18
420
        0
370
    25
100
AcDbLine
 10
307.0801985424485
 20
119.7374916203986
 30
0.0
 11
298.8121075553112
 21
116.4664424858534
 31
0.0
  0
LINE
  5
148
330
70
100
AcDbEntity
  8
_HONTAI
 62
    18
420
        0
370
    25
100
AcDbLine
 10
298.8121075553112
 20
116.4664424858534
 30
0.0
 11
308.1593104386517
 21
119.1144660766424
 31
0.0
  0
LINE
  5
149
330
70
100
AcDbEntity
  8
_HONTAI
 62
    18
420
        0
370
    25
100
AcDbLine
 10
308.1593104386517
 20
119.1144660766424
 30
0.0
 11
299.5764784817863
 21
116.0251327256896
 31
0.0
  0
LINE
  5
14A
330
70
100
AcDbEntity
  8
_HONTAI
 62
    18
420
        0
370
    25
100
AcDbLine
 10
292.2531977407706
 20
128.2978645245221
 30
0.0
 11
309.4549776503645
 21
150.5449470298029
 31
0.0
  0
LINE
  5
14B
330
70
100
AcDbEntity
  8
_HONTAI
 62
    18
420
        0
370
    25
100
AcDbLine
 10
292.2531977407706
 20
128.2978645245221
 30
0.0
 11
304.6093559678201
 21
153.3425680126132
 31
0.0
  0
LINE
  5
14C
330
70
100
AcDbEntity
  8
_HONTAI
 62
    18
420
        0
370
    25
100
AcDbLine
 10
286.1053125706339
 20
119.7803971449613
 30
0.0
 11
287.1922131150324
 21
123.1751916689017
 31
0.0
  0
LINE
  5
14D
330
70
100
AcDbEntity
  8
_HONTAI
 62
    18
420
        0
370
    25
100
AcDbLine
 10
299.5764784817863
 20
116.0251327256896
 30
0.0
 11
308.612516236366
 21
118.8528075873365
 31
0.0
  0
LINE
  5
14E
330
70
100
AcDbEntity
  8
_HONTAI
 62
    18
420
        0
370
    25
100
AcDbLine
 10
308.612516236366
 20
118.8528075873365
 30
0.0
 11
300.0133480611101
 21
115.7729059564685
 31
0.0
  0
LINE
  5
14F
330
70
100
AcDbEntity
  8
_HONTAI
 62
    18
420
        0
370
    25
100
AcDbLine
 10
309.4549776503645
 20
150.5449470298029
 30
0.0
 11
295.3603766086975
 21
126.5039339687061
 31
0.0
  0
LINE
  5
150
330
70
100
AcDbEntity
  8
_HONTAI
 62
    18
420
        0
370
    25
100
AcDbLine
 10
295.3603766086975
 20
126.5039339687061
 30
0.0
 11
314.1533675700734
 21
147.8323303449011
 31
0.0
  0
LINE
  5
151
330
70
100
AcDbEntity
  8
_HONTAI
 62
    18
420
        0
370
    25
100
AcDbLine
 10
314.1533675700734
 20
147.8323303449011
 30
0.0
 11
298.3252121765733
 21
124.7921853554882
 31
0.0
  0
LINE
  5
152
330
70
100
AcDbEntity
  8
_HONTAI
 62
    18
420
        0
370
    25
100
AcDbLine
 10
298.3252121765733
 20
124.7921853554882
 30
0.0
 11
318.5617675267845
 21
145.287139443198
 31
0.0
  0
LINE
  5
153
330
70
100
AcDbEntity
  8
_HONTAI
 62
    18
420
        0
370
    25
100
AcDbLine
 10
318.5617675267845
 20
145.287139443198
 30
0.0
 11
301.0576194159556
 21
123.214629300295
 31
0.0
  0
LINE
  5
154
330
70
100
AcDbEntity
  8
_HONTAI
 62
    18
420
        0
370
    25
100
AcDbLine
 10
301.0576194159556
 20
123.214629300295
 30
0.0
 11
322.5462305185942
 21
142.9867086623057
 31
0.0
  0
LINE
  5
155
330
70
100
AcDbEntity
  8
_HONTAI
 62
    18
420
        0
370
    25
100
AcDbLine
 10
322.5462305185942
 20
142.9867086623057
 30
0.0
 11
303.4745755155317
 21
121.8191990455874
 31
0.0
  0
LINE
  5
156
330
70
100
AcDbEntity
  8
_HONTAI
 62
    18
420
        0
370
    25
100
AcDbLine
 10
303.4745755155317
 20
121.8191990455874
 30
0.0
 11
325.985690653618
 21
141.0009354274776
 31
0.0
  0
LINE
  5
157
330
70
100
AcDbEntity
  8
_HONTAI
 62
    18
420
        0
370
    25
100
AcDbLine
 10
325.985690653618
 20
141.0009354274776
 30
0.0
 11
305.5026424872553
 21
120.6482940335269
 31
0.0
  0
LINE
  5
158
330
70
100
AcDbEntity
  8
_HONTAI
 62
    18
420
        0
370
    25
100
AcDbLine
 10
305.5026424872553
 20
120.6482940335269
 30
0.0
 11
328.7756416761661
 21
139.3901564535852
 31
0.0
  0
LINE
  5
159
330
70
100
AcDbEntity
  8
_HONTAI
 62
    18
420
        0
370
    25
100
AcDbLine
 10
328.7756416761661
 20
139.3901564535852
 30
0.0
 11
307.0801985424485
 21
119.7374916203986
 31
0.0
  0
LINE
  5
15A
330
70
100
AcDbEntity
  8
_HONTAI
 62
    18
420
        0
370
    25
100
AcDbLine
 10
307.0801985424485
 20
119.7374916203986
 30
0.0
 11
330.8313123361967
 21
138.2033144446506
 31
0.0
  0
LINE
  5
15B
330
70
100
AcDbEntity
  8
_HONTAI
 62
    18
420
        0
370
    25
100
AcDbLine
 10
330.8313123361967
 20
138.2033144446506
 30
0.0
 11
308.1593104386517
 21
119.1144660766424
 31
0.0
  0
LINE
  5
15C
330
70
100
AcDbEntity
  8
_HONTAI
 62
    18
420
        0
370
    25
100
AcDbLine
 10
308.1593104386517
 20
119.1144660766424
 30
0.0
 11
332.0902421207933
 21
137.4764709946264
 31
0.0
  0
LINE
  5
15D
330
70
100
AcDbEntity
  8
_HONTAI
 62
    18
420
        0
370
    25
100
AcDbLine
 10
332.0902421207933
 20
137.4764709946264
 30
0.0
 11
308.612516236366
 21
118.8528075873365
 31
0.0
  0
LINE
  5
15E
330
70
100
AcDbEntity
  8
_HONTAI
 62
    18
420
        0
370
    25
100
AcDbLine
 10
308.612516236366
 20
118.8528075873365
 30
0.0
 11
332.5141790857538
 21
137.2317108737847
 31
0.0
  0
LINE
  5
15F
330
70
100
AcDbEntity
  8
_HONTAI
 62
    18
420
        0
370
    25
100
AcDbLine
 10
304.6093559678201
 20
153.3425680126132
 30
0.0
 11
312.2008329064546
 21
161.0265772960354
 31
0.0
  0
LINE
  5
160
330
70
100
AcDbEntity
  8
_HONTAI
 62
    18
420
        0
370
    25
100
AcDbLine
 10
312.2008329064546
 20
161.0265772960354
 30
0.0
 11
309.4549776503645
 21
150.5449470298029
 31
0.0
  0
LINE
  5
161
330
70
100
AcDbEntity
  8
_HONTAI
 62
    18
420
        0
370
    25
100
AcDbLine
 10
309.4549776503645
 20
150.5449470298029
 30
0.0
 11
316.8616012083391
 21
158.3356814623069
 31
0.0
  0
LINE
  5
162
330
70
100
AcDbEntity
  8
_HONTAI
 62
    18
420
        0
370
    25
100
AcDbLine
 10
316.8616012083391
 20
158.3356814623069
 30
0.0
 11
314.1533675700734
 21
147.8323303449011
 31
0.0
  0
LINE
  5
163
330
70
100
AcDbEntity
  8
_HONTAI
 62
    18
420
        0
370
    25
100
AcDbLine
 10
314.1533675700734
 20
147.8323303449011
 30
0.0
 11
321.3088545601586
 21
155.7680585424813
 31
0.0
  0
LINE
  5
164
330
70
100
AcDbEntity
  8
_HONTAI
 62
    18
420
        0
370
    25
100
AcDbLine
 10
321.3088545601586
 20
155.7680585424813
 30
0.0
 11
318.5617675267845
 21
145.287139443198
 31
0.0
  0
LINE
  5
165
330
70
100
AcDbEntity
  8
_HONTAI
 62
    18
420
        0
370
    25
100
AcDbLine
 10
318.5617675267845
 20
145.287139443198
 30
0.0
 11
325.4074654192251
 21
153.4017244596942
 31
0.0
  0
LINE
  5
166
330
70
100
AcDbEntity
  8
_HONTAI
 62
    18
420
        0
370
    25
100
AcDbLine
 10
325.4074654192251
 20
153.4017244596942
 30
0.0
 11
322.5462305185942
 21
142.9867086623057
 31
0.0
  0
LINE
  5
167
330
70
100
AcDbEntity
  8
_HONTAI
 62
    18
420
        0
370
    25
100
AcDbLine
 10
322.5462305185942
 20
142.9867086623057
 30
0.0
 11
329.0328995685862
 21
151.3085790776314
 31
0.0
  0
LINE
  5
168
330
70
100
AcDbEntity
  8
_HONTAI
 62
    18
420
        0
370
    25
100
AcDbLine
 10
329.0328995685862
 20
151.3085790776314
 30
0.0
 11
325.985690653618
 21
141.0009354274776
 31
0.0
  0
LINE
  5
169
330
70
100
AcDbEntity
  8
_HONTAI
 62
    18
420
        0
370
    25
100
AcDbLine
 10
325.985690653618
 20
141.0009354274776
 30
0.0
 11
332.0750000261714
 21
149.5522215595423
 31
0.0
  0
LINE
  5
16A
330
70
100
AcDbEntity
  8
_HONTAI
 62
    18
420
        0
370
    25
100
AcDbLine
 10
332.0750000261714
 20
149.5522215595423
 30
0.0
 11
328.7756416761661
 21
139.3901564535852
 31
0.0
  0
LINE
  5
16B
330
70
100
AcDbEntity
  8
_HONTAI
 62
    18
420
        0
370
    25
100
AcDbLine
 10
328.7756416761661
 20
139.3901564535852
 30
0.0
 11
334.4413341089542
 21
148.1860179398547
 31
0.0
  0
LINE
  5
16C
330
70
100
AcDbEntity
  8
_HONTAI
 62
    18
420
        0
370
    25
100
AcDbLine
 10
334.4413341089542
 20
148.1860179398547
 30
0.0
 11
330.8313123361967
 21
138.2033144446506
 31
0.0
  0
LINE
  5
16D
330
70
100
AcDbEntity
  8
_HONTAI
 62
    18
420
        0
370
    25
100
AcDbLine
 10
330.8313123361967
 20
138.2033144446506
 30
0.0
 11
336.0564551920335
 21
147.2535273477676
 31
0.0
  0
LINE
  5
16E
330
70
100
AcDbEntity
  8
_HONTAI
 62
    18
420
        0
370
    25
100
AcDbLine
 10
336.0564551920335
 20
147.2535273477676
 30
0.0
 11
332.0902421207933
 21
137.4764709946264
 31
0.0
  0
LINE
  5
16F
330
70
100
AcDbEntity
  8
_HONTAI
 62
    18
420
        0
370
    25
100
AcDbLine
 10
332.0902421207933
 20
137.4764709946264
 30
0.0
 11
336.9851375329959
 21
146.7173523482198
 31
0.0
  0
LINE
  5
170
330
70
100
AcDbEntity
  8
_HONTAI
 62
    18
420
        0
370
    25
100
AcDbLine
 10
316.801355964771
 20
174.4597314532115
 30
0.0
 11
312.2008329064546
 21
161.0265772960354
 31
0.0
  0
LINE
  5
171
330
70
100
AcDbEntity
  8
_HONTAI
 62
    18
420
        0
370
    25
100
AcDbLine
 10
312.2008329064546
 20
161.0265772960354
 30
0.0
 11
318.839032536069
 21
173.2832783362555
 31
0.0
  0
LINE
  5
172
330
70
100
AcDbEntity
  8
_HONTAI
 62
    18
420
        0
370
    25
100
AcDbLine
 10
318.839032536069
 20
173.2832783362555
 30
0.0
 11
316.8616012083391
 21
158.3356814623069
 31
0.0
  0
LINE
  5
173
330
70
100
AcDbEntity
  8
_HONTAI
 62
    18
420
        0
370
    25
100
AcDbLine
 10
316.8616012083391
 20
158.3356814623069
 30
0.0
 11
322.8524719071399
 21
170.9661180349907
 31
0.0
  0
LINE
  5
174
330
70
100
AcDbEntity
  8
_HONTAI
 62
    18
420
        0
370
    25
100
AcDbLine
 10
322.8524719071399
 20
170.9661180349907
 30
0.0
 11
321.3088545601586
 21
155.7680585424813
 31
0.0
  0
LINE
  5
175
330
70
100
AcDbEntity
  8
_HONTAI
 62
    18
420
        0
370
    25
100
AcDbLine
 10
321.3088545601586
 20
155.7680585424813
 30
0.0
 11
326.682051182313
 21
168.7551094095836
 31
0.0
  0
LINE
  5
176
330
70
100
AcDbEntity
  8
_HONTAI
 62
    18
420
        0
370
    25
100
AcDbLine
 10
326.682051182313
 20
168.7551094095836
 30
0.0
 11
325.4074654192251
 21
153.4017244596942
 31
0.0
  0
LINE
  5
177
330
70
100
AcDbEntity
  8
_HONTAI
 62
    18
420
        0
370
    25
100
AcDbLine
 10
325.4074654192251
 20
153.4017244596942
 30
0.0
 11
330.2114105331761
 21
166.7174328382976
 31
0.0
  0
LINE
  5
178
330
70
100
AcDbEntity
  8
_HONTAI
 62
    18
420
        0
370
    25
100
AcDbLine
 10
330.2114105331761
 20
166.7174328382976
 30
0.0
 11
329.0328995685862
 21
151.3085790776314
 31
0.0
  0
LINE
  5
179
330
70
100
AcDbEntity
  8
_HONTAI
 62
    18
420
        0
370
    25
100
AcDbLine
 10
329.0328995685862
 20
151.3085790776314
 30
0.0
 11
333.3333121617921
 21
164.9150020926323
 31
0.0
  0
LINE
  5
17A
330
70
100
AcDbEntity
  8
_HONTAI
 62
    18
420
        0
370
    25
100
AcDbLine
 10
333.3333121617921
 20
164.9150020926323
 30
0.0
 11
332.0750000261714
 21
149.5522215595423
 31
0.0
  0
LINE
  5
17B
330
70
100
AcDbEntity
  8
_HONTAI
 62
    18
420
        0
370
    25
100
AcDbLine
 10
332.0750000261714
 20
149.5522215595423
 30
0.0
 11
335.9528986669368
 21
163.4025831187225
 31
0.0
  0
LINE
  5
17C
330
70
100
AcDbEntity
  8
_HONTAI
 62
    18
420
        0
370
    25
100
AcDbLine
 10
335.9528986669368
 20
163.4025831187225
 30
0.0
 11
334.4413341089542
 21
148.1860179398547
 31
0.0
  0
LINE
  5
17D
330
70
100
AcDbEntity
  8
_HONTAI
 62
    18
420
        0
370
    25
100
AcDbLine
 10
334.4413341089542
 20
148.1860179398547
 30
0.0
 11
337.9905752382253
 21
162.2261300017677
 31
0.0
  0
LINE
  5
17E
330
70
100
AcDbEntity
  8
_HONTAI
 62
    18
420
        0
370
    25
100
AcDbLine
 10
337.9905752382253
 20
162.2261300017677
 30
0.0
 11
336.0564551920335
 21
147.2535273477676
 31
0.0
  0
LINE
  5
17F
330
70
100
AcDbEntity
  8
_HONTAI
 62
    18
420
        0
370
    25
100
AcDbLine
 10
336.0564551920335
 20
147.2535273477676
 30
0.0
 11
339.3844281041508
 21
161.421388674416
 31
0.0
  0
LINE
  5
180
330
70
100
AcDbEntity
  8
_HONTAI
 62
    18
420
        0
370
    25
100
AcDbLine
 10
339.3844281041508
 20
161.421388674416
 30
0.0
 11
336.9851375329959
 21
146.7173523482185
 31
0.0
  0
LINE
  5
181
330
70
100
AcDbEntity
  8
_HONTAI
 62
    18
420
        0
370
    25
100
AcDbLine
 10
320.2847845353307
 20
180.493206721957
 30
0.0
 11
318.839032536069
 21
173.2832783362555
 31
0.0
  0
LINE
  5
182
330
70
100
AcDbEntity
  8
_HONTAI
 62
    18
420
        0
370
    25
100
AcDbLine
 10
318.839032536069
 20
173.2832783362555
 30
0.0
 11
323.0350022470593
 21
178.9053677857587
 31
0.0
  0
LINE
  5
183
330
70
100
AcDbEntity
  8
_HONTAI
 62
    18
420
        0
370
    25
100
AcDbLine
 10
323.0350022470593
 20
178.9053677857587
 30
0.0
 11
322.8524719071399
 21
170.9661180349907
 31
0.0
  0
LINE
  5
184
330
70
100
AcDbEntity
  8
_HONTAI
 62
    18
420
        0
370
    25
100
AcDbLine
 10
322.8524719071399
 20
170.9661180349907
 30
0.0
 11
325.7016559852786
 21
177.3657745321649
 31
0.0
  0
LINE
  5
185
330
70
100
AcDbEntity
  8
_HONTAI
 62
    18
420
        0
370
    25
100
AcDbLine
 10
325.7016559852786
 20
177.3657745321649
 30
0.0
 11
326.682051182313
 21
168.7551094095836
 31
0.0
  0
LINE
  5
186
330
70
100
AcDbEntity
  8
_HONTAI
 62
    18
420
        0
370
    25
100
AcDbLine
 10
326.682051182313
 20
168.7551094095836
 30
0.0
 11
328.2037208255535
 21
175.921206723099
 31
0.0
  0
LINE
  5
187
330
70
100
AcDbEntity
  8
_HONTAI
 62
    18
420
        0
370
    25
100
AcDbLine
 10
328.2037208255535
 20
175.921206723099
 30
0.0
 11
330.2114105331761
 21
166.7174328382976
 31
0.0
  0
LINE
  5
188
330
70
100
AcDbEntity
  8
_HONTAI
 62
    18
420
        0
370
    25
100
AcDbLine
 10
330.2114105331761
 20
166.7174328382976
 30
0.0
 11
330.4651727938471
 21
174.6155568204484
 31
0.0
  0
LINE
  5
189
330
70
100
AcDbEntity
  8
_HONTAI
 62
    18
420
        0
370
    25
100
AcDbLine
 10
330.4651727938471
 20
174.6155568204484
 30
0.0
 11
333.3333121617921
 21
164.9150020926323
 31
0.0
  0
LINE
  5
18A
330
70
100
AcDbEntity
  8
_HONTAI
 62
    18
420
        0
370
    25
100
AcDbLine
 10
333.3333121617921
 20
164.9150020926323
 30
0.0
 11
332.4172988164152
 21
173.4884963358228
 31
0.0
  0
LINE
  5
18B
330
70
100
AcDbEntity
  8
_HONTAI
 62
    18
420
        0
370
    25
100
AcDbLine
 10
332.4172988164152
 20
173.4884963358228
 30
0.0
 11
335.9528986669368
 21
163.4025831187225
 31
0.0
  0
LINE
  5
18C
330
70
100
AcDbEntity
  8
_HONTAI
 62
    18
420
        0
370
    25
100
AcDbLine
 10
335.9528986669368
 20
163.4025831187225
 30
0.0
 11
334.0007845319088
 21
172.5742704317291
 31
0.0
  0
LINE
  5
18D
330
70
100
AcDbEntity
  8
_HONTAI
 62
    18
420
        0
370
    25
100
AcDbLine
 10
334.0007845319088
 20
172.5742704317291
 30
0.0
 11
337.9905752382253
 21
162.2261300017677
 31
0.0
  0
LINE
  5
18E
330
70
100
AcDbEntity
  8
_HONTAI
 62
    18
420
        0
370
    25
100
AcDbLine
 10
337.9905752382253
 20
162.2261300017677
 30
0.0
 11
335.1675165281291
 21
171.9006573996361
 31
0.0
  0
LINE
  5
18F
330
70
100
AcDbEntity
  8
_HONTAI
 62
    18
420
        0
370
    25
100
AcDbLine
 10
335.1675165281291
 20
171.9006573996361
 30
0.0
 11
339.3844281041508
 21
161.421388674416
 31
0.0
  0
LINE
  5
190
330
70
100
AcDbEntity
  8
_HONTAI
 62
    18
420
        0
370
    25
100
AcDbLine
 10
339.3844281041508
 20
161.421388674416
 30
0.0
 11
335.8820442437807
 21
171.4881246306634
 31
0.0
  0
LINE
  5
191
330
70
100
AcDbEntity
  8
_HONTAI
 62
    18
420
        0
370
    25
100
AcDbLine
 10
335.8820442437807
 20
171.4881246306634
 30
0.0
 11
340.1810726311525
 21
160.9614457423015
 31
0.0
  0
LINE
  5
192
330
70
100
AcDbEntity
  8
_HONTAI
 62
    18
420
        0
370
    25
100
AcDbLine
 10
320.2847845353307
 20
180.493206721957
 30
0.0
 11
322.6575212426882
 21
183.1456233910737
 31
0.0
  0
LINE
  5
193
330
70
100
AcDbEntity
  8
_HONTAI
 62
    18
420
        0
370
    25
100
AcDbLine
 10
322.6575212426882
 20
183.1456233910737
 30
0.0
 11
323.0350022470593
 21
178.9053677857587
 31
0.0
  0
LINE
  5
194
330
70
100
AcDbEntity
  8
_HONTAI
 62
    18
420
        0
370
    25
100
AcDbLine
 10
323.0350022470593
 20
178.9053677857587
 30
0.0
 11
323.9003927898608
 21
182.428051168749
 31
0.0
  0
LINE
  5
195
330
70
100
AcDbEntity
  8
_HONTAI
 62
    18
420
        0
370
    25
100
AcDbLine
 10
323.9003927898608
 20
182.428051168749
 30
0.0
 11
325.7016559852786
 21
177.3657745321649
 31
0.0
  0
LINE
  5
196
330
70
100
AcDbEntity
  8
_HONTAI
 62
    18
420
        0
370
    25
100
AcDbLine
 10
325.7016559852786
 20
177.3657745321649
 30
0.0
 11
325.0863270170114
 21
181.7433517234614
 31
0.0
  0
LINE
  5
197
330
70
100
AcDbEntity
  8
_HONTAI
 62
    18
420
        0
370
    25
100
AcDbLine
 10
325.0863270170114
 20
181.7433517234614
 30
0.0
 11
328.2037208255535
 21
175.921206723099
 31
0.0
  0
LINE
  5
198
330
70
100
AcDbEntity
  8
_HONTAI
 62
    18
420
        0
370
    25
100
AcDbLine
 10
328.2037208255535
 20
175.921206723099
 30
0.0
 11
326.1792899127632
 21
181.1123293013863
 31
0.0
  0
LINE
  5
199
330
70
100
AcDbEntity
  8
_HONTAI
 62
    18
420
        0
370
    25
100
AcDbLine
 10
326.1792899127632
 20
181.1123293013863
 30
0.0
 11
330.4651727938471
 21
174.6155568204484
 31
0.0
  0
LINE
  5
19A
330
70
100
AcDbEntity
  8
_HONTAI
 62
    18
420
        0
370
    25
100
AcDbLine
 10
330.4651727938471
 20
174.6155568204484
 30
0.0
 11
327.1460723525904
 21
180.554157199501
 31
0.0
  0
LINE
  5
19B
330
70
100
AcDbEntity
  8
_HONTAI
 62
    18
420
        0
370
    25
100
AcDbLine
 10
327.1460723525904
 20
180.554157199501
 30
0.0
 11
332.4172988164152
 21
173.4884963358228
 31
0.0
  0
LINE
  5
19C
330
70
100
AcDbEntity
  8
_HONTAI
 62
    18
420
        0
370
    25
100
AcDbLine
 10
332.4172988164152
 20
173.4884963358228
 30
0.0
 11
327.9572991412776
 21
180.0857951946774
 31
0.0
  0
LINE
  5
19D
330
70
100
AcDbEntity
  8
_HONTAI
 62
    18
420
        0
370
    25
100
AcDbLine
 10
327.9572991412776
 20
180.0857951946774
 30
0.0
 11
334.0007845319088
 21
172.5742704317291
 31
0.0
  0
LINE
  5
19E
330
70
100
AcDbEntity
  8
_HONTAI
 62
    18
420
        0
370
    25
100
AcDbLine
 10
334.0007845319088
 20
172.5742704317291
 30
0.0
 11
328.5883215633578
 21
179.7214742294284
 31
0.0
  0
LINE
  5
19F
330
70
100
AcDbEntity
  8
_HONTAI
 62
    18
420
        0
370
    25
100
AcDbLine
 10
328.5883215633578
 20
179.7214742294284
 30
0.0
 11
335.1675165281291
 21
171.9006573996361
 31
0.0
  0
LINE
  5
1A0
330
70
100
AcDbEntity
  8
_HONTAI
 62
    18
420
        0
370
    25
100
AcDbLine
 10
335.1675165281291
 20
171.9006573996361
 30
0.0
 11
329.0199663218384
 21
179.4722640119246
 31
0.0
  0
LINE
  5
1A1
330
70
100
AcDbEntity
  8
_HONTAI
 62
    18
420
        0
370
    25
100
AcDbLine
 10
329.0199663218384
 20
179.4722640119246
 30
0.0
 11
335.8820442437807
 21
171.4881246306634
 31
0.0
  0
LINE
  5
1A2
330
70
100
AcDbEntity
  8
_HONTAI
 62
    18
420
        0
370
    25
100
AcDbLine
 10
335.8820442437807
 20
171.4881246306634
 30
0.0
 11
329.2391181091518
 21
179.3457366685237
 31
0.0
  0
LINE
  5
1A3
330
70
100
AcDbEntity
  8
_HONTAI
 62
    18
420
        0
370
    25
100
AcDbLine
 10
329.2391181091518
 20
179.3457366685237
 30
0.0
 11
336.1226571157811
 21
171.3492067242424
 31
0.0
  0
LINE
  5
1A4
330
70
100
AcDbEntity
  8
_HONTAI
 62
    18
420
        0
370
    25
100
AcDbLine
 10
340.1810726311525
 20
158.0295048373882
 30
0.0
 11
339.8636824461903
 21
159.5468564912313
 31
0.0
  0
LINE
  5
1A5
330
70
100
AcDbEntity
  8
_HONTAI
 62
    18
420
        0
370
    25
100
AcDbLine
 10
321.4931549341538
 20
185.0245656464894
 30
0.0
 11
335.7646555066943
 21
209.7435297383769
 31
0.0
  0
LINE
  5
1A6
330
70
100
AcDbEntity
  8
_HONTAI
 62
    18
420
        0
370
    25
100
AcDbLine
 10
323.6048712782142
 20
183.805365646796
 30
0.0
 11
335.7646555066943
 21
204.8667297395962
 31
0.0
  0
LINE
  5
1A7
330
70
100
AcDbEntity
  8
_HONTAI
 62
    18
420
        0
370
    25
100
AcDbLine
 10
293.4216392983797
 20
187.9580171641254
 30
0.0
 11
282.6838601143027
 21
178.068209483234
 31
0.0
  0
LINE
  5
1A8
330
70
100
AcDbEntity
  8
_HONTAI
 62
    18
420
        0
370
    25
100
AcDbLine
 10
322.0264988205977
 20
183.5099443563323
 30
0.0
 11
314.4846547346672
 21
187.8642300695297
 31
0.0
  0
LINE
  5
1A9
330
70
100
AcDbEntity
  8
_HONTAI
 62
    18
420
        0
370
    25
100
AcDbLine
 10
285.4504988297503
 20
120.1584540345289
 30
0.0
 11
281.6795767867877
 21
122.3355968911228
 31
0.0
  0
LINE
  5
1AA
330
70
100
AcDbEntity
  8
_HONTAI
 62
    18
420
        0
370
    25
100
AcDbLine
 10
272.5752158793576
 20
139.6589526493143
 30
0.0
 11
274.37107816895
 21
130.5774773813355
 31
0.0
  0
LINE
  5
1AB
330
70
100
AcDbEntity
  8
_HONTAI
 62
    18
420
        0
370
    25
100
AcDbLine
 10
274.37107816895
 20
130.5774773813355
 30
0.0
 11
281.6795767867877
 21
122.3355968911253
 31
0.0
  0
LINE
  5
1AC
330
70
100
AcDbEntity
  8
_HONTAI
 62
    18
420
        0
370
    25
100
AcDbLine
 10
276.7045328498716
 20
169.453425151439
 30
0.0
 11
272.5752158793576
 21
139.6589526493143
 31
0.0
  0
LINE
  5
1AD
330
70
100
AcDbEntity
  8
_HONTAI
 62
    18
420
        0
370
    25
100
AcDbLine
 10
314.4846547346672
 20
187.8642300695284
 30
0.0
 11
304.4469119548701
 21
189.6372067196736
 31
0.0
  0
LINE
  5
1AE
330
70
100
AcDbEntity
  8
_HONTAI
 62
    18
420
        0
370
    25
100
AcDbLine
 10
304.4469119548701
 20
189.6372067196736
 30
0.0
 11
293.4216392983797
 21
187.9580171641254
 31
0.0
  0
LINE
  5
1AF
330
70
100
AcDbEntity
  8
_HONTAI
 62
    18
420
        0
370
    25
100
AcDbLine
 10
282.6838601143027
 20
178.0682094832366
 30
0.0
 11
276.7045328498716
 21
169.453425151439
 31
0.0
  0
LINE
  5
1B0
330
70
100
AcDbEntity
  8
_HONTAI
 62
    18
420
        0
370
    25
100
AcDbLine
 10
322.549013106184
 20
184.414965646644
 30
0.0
 11
318.7780910632163
 21
186.5921085032429
 31
0.0
  0
LINE
  5
1B1
330
70
100
AcDbEntity
  8
_HONTAI
 62
    18
420
        0
370
    25
100
AcDbLine
 10
318.7780910632163
 20
186.5921085032429
 30
0.0
 11
318.3234533744065
 21
185.6478986415103
 31
0.0
  0
LINE
  5
1B2
330
70
100
AcDbEntity
  8
_HONTAI
 62
    18
420
        0
370
    25
100
AcDbLine
 10
286.0747775759442
 20
123.8203433781958
 30
0.0
 11
284.7956850888667
 21
120.5365109240952
 31
0.0
  0
LINE
  5
1B3
330
70
100
AcDbEntity
  8
_HONTAI
 62
    18
420
        0
370
    25
100
AcDbLine
 10
286.0747775759442
 20
123.8203433781958
 30
0.0
 11
284.160767532152
 21
120.9030807463774
 31
0.0
  0
LINE
  5
1B4
330
70
100
AcDbEntity
  8
_HONTAI
 62
    18
420
        0
370
    25
100
AcDbLine
 10
284.160767532152
 20
120.9030807463774
 30
0.0
 11
283.8738592111614
 21
125.0910441885656
 31
0.0
  0
LINE
  5
1B5
330
70
100
AcDbEntity
  8
_HONTAI
 62
    18
420
        0
370
    25
100
AcDbLine
 10
283.8738592111614
 20
125.0910441885656
 30
0.0
 11
283.5650378082685
 21
121.2470254628258
 31
0.0
  0
LINE
  5
1B6
330
70
100
AcDbEntity
  8
_HONTAI
 62
    18
420
        0
370
    25
100
AcDbLine
 10
283.5650378082685
 20
121.2470254628258
 30
0.0
 11
281.7737673505821
 21
126.3035327895962
 31
0.0
  0
LINE
  5
1B7
330
70
100
AcDbEntity
  8
_HONTAI
 62
    18
420
        0
370
    25
100
AcDbLine
 10
281.7737673505821
 20
126.3035327895962
 30
0.0
 11
283.0265968634513
 21
121.5578944872617
 31
0.0
  0
LINE
  5
1B8
330
70
100
AcDbEntity
  8
_HONTAI
 62
    18
420
        0
370
    25
100
AcDbLine
 10
283.0265968634513
 20
121.5578944872617
 30
0.0
 11
279.8383122226907
 21
127.4209683286883
 31
0.0
  0
LINE
  5
1B9
330
70
100
AcDbEntity
  8
_HONTAI
 62
    18
420
        0
370
    25
100
AcDbLine
 10
279.8383122226907
 20
127.4209683286883
 30
0.0
 11
282.5618049532993
 21
121.8262422217022
 31
0.0
  0
LINE
  5
1BA
330
70
100
AcDbEntity
  8
_HONTAI
 62
    18
420
        0
370
    25
100
AcDbLine
 10
282.5618049532993
 20
121.8262422217022
 30
0.0
 11
278.1263016521551
 21
128.4093980924415
 31
0.0
  0
LINE
  5
1BB
330
70
100
AcDbEntity
  8
_HONTAI
 62
    18
420
        0
370
    25
100
AcDbLine
 10
278.1263016521551
 20
128.4093980924415
 30
0.0
 11
282.1847845448605
 21
122.0439150560036
 31
0.0
  0
LINE
  5
1BC
330
70
100
AcDbEntity
  8
_HONTAI
 62
    18
420
        0
370
    25
100
AcDbLine
 10
282.1847845448605
 20
122.0439150560036
 30
0.0
 11
276.6897542138473
 21
129.2387891426512
 31
0.0
  0
LINE
  5
1BD
330
70
100
AcDbEntity
  8
_HONTAI
 62
    18
420
        0
370
    25
100
AcDbLine
 10
276.6897542138473
 20
129.2387891426512
 30
0.0
 11
281.9069912124307
 21
122.2042991112622
 31
0.0
  0
LINE
  5
1BE
330
70
100
AcDbEntity
  8
_HONTAI
 62
    18
420
        0
370
    25
100
AcDbLine
 10
281.9069912124307
 20
122.2042991112622
 30
0.0
 11
275.5723186747537
 21
129.8839408519499
 31
0.0
  0
LINE
  5
1BF
330
70
100
AcDbEntity
  8
_HONTAI
 62
    18
420
        0
370
    25
100
AcDbLine
 10
275.5723186747537
 20
129.8839408519499
 30
0.0
 11
281.7368655658283
 21
122.3025211991237
 31
0.0
  0
LINE
  5
1C0
330
70
100
AcDbEntity
  8
_HONTAI
 62
    18
420
        0
370
    25
100
AcDbLine
 10
281.7368655658283
 20
122.3025211991237
 30
0.0
 11
274.8079477482741
 21
130.3252506121131
 31
0.0
  0
LINE
  5
1C1
330
70
100
AcDbEntity
  8
_HONTAI
 62
    18
420
        0
370
    25
100
AcDbLine
 10
274.8079477482741
 20
130.3252506121131
 30
0.0
 11
281.6795767867877
 21
122.3355968911228
 31
0.0
  0
LINE
  5
1C2
330
70
100
AcDbEntity
  8
_HONTAI
 62
    18
420
        0
370
    25
100
AcDbLine
 10
287.1922131150273
 20
123.1751916689017
 30
0.0
 11
289.0980856304036
 21
130.1194693507671
 31
0.0
  0
LINE
  5
1C3
330
70
100
AcDbEntity
  8
_HONTAI
 62
    18
420
        0
370
    25
100
AcDbLine
 10
289.0980856304036
 20
130.1194693507671
 30
0.0
 11
286.0747775759442
 21
123.8203433781958
 31
0.0
  0
LINE
  5
1C4
330
70
100
AcDbEntity
  8
_HONTAI
 62
    18
420
        0
370
    25
100
AcDbLine
 10
286.0747775759442
 20
123.8203433781958
 30
0.0
 11
285.9909067624773
 21
131.9133999065819
 31
0.0
  0
LINE
  5
1C5
330
70
100
AcDbEntity
  8
_HONTAI
 62
    18
420
        0
370
    25
100
AcDbLine
 10
285.9909067624773
 20
131.9133999065819
 30
0.0
 11
283.8738592111614
 21
125.0910441885656
 31
0.0
  0
LINE
  5
1C6
330
70
100
AcDbEntity
  8
_HONTAI
 62
    18
420
        0
370
    25
100
AcDbLine
 10
283.8738592111614
 20
125.0910441885656
 30
0.0
 11
283.0260711946006
 21
133.6251485197998
 31
0.0
  0
LINE
  5
1C7
330
70
100
AcDbEntity
  8
_HONTAI
 62
    18
420
        0
370
    25
100
AcDbLine
 10
283.0260711946006
 20
133.6251485197998
 30
0.0
 11
281.7737673505821
 21
126.3035327895962
 31
0.0
  0
LINE
  5
1C8
330
70
100
AcDbEntity
  8
_HONTAI
 62
    18
420
        0
370
    25
100
AcDbLine
 10
281.7737673505821
 20
126.3035327895962
 30
0.0
 11
280.2936639552186
 21
135.2027045749904
 31
0.0
  0
LINE
  5
1C9
330
70
100
AcDbEntity
  8
_HONTAI
 62
    18
420
        0
370
    25
100
AcDbLine
 10
280.2936639552186
 20
135.2027045749904
 30
0.0
 11
279.8383122226907
 21
127.4209683286883
 31
0.0
  0
LINE
  5
1CA
330
70
100
AcDbEntity
  8
_HONTAI
 62
    18
420
        0
370
    25
100
AcDbLine
 10
279.8383122226907
 20
127.4209683286883
 30
0.0
 11
277.8767078556428
 21
136.598134829698
 31
0.0
  0
LINE
  5
1CB
330
70
100
AcDbEntity
  8
_HONTAI
 62
    18
420
        0
370
    25
100
AcDbLine
 10
277.8767078556428
 20
136.598134829698
 30
0.0
 11
278.1263016521551
 21
128.4093980924415
 31
0.0
  0
LINE
  5
1CC
330
70
100
AcDbEntity
  8
_HONTAI
 62
    18
420
        0
370
    25
100
AcDbLine
 10
278.1263016521551
 20
128.4093980924415
 30
0.0
 11
275.8486408839188
 21
137.7690398417585
 31
0.0
  0
LINE
  5
1CD
330
70
100
AcDbEntity
  8
_HONTAI
 62
    18
420
        0
370
    25
100
AcDbLine
 10
275.8486408839188
 20
137.7690398417585
 30
0.0
 11
276.6897542138473
 21
129.2387891426512
 31
0.0
  0
LINE
  5
1CE
330
70
100
AcDbEntity
  8
_HONTAI
 62
    18
420
        0
370
    25
100
AcDbLine
 10
276.6897542138473
 20
129.2387891426512
 30
0.0
 11
274.2710848287256
 21
138.6798422548848
 31
0.0
  0
LINE
  5
1CF
330
70
100
AcDbEntity
  8
_HONTAI
 62
    18
420
        0
370
    25
100
AcDbLine
 10
274.2710848287256
 20
138.6798422548848
 30
0.0
 11
275.5723186747537
 21
129.8839408519499
 31
0.0
  0
LINE
  5
1D0
330
70
100
AcDbEntity
  8
_HONTAI
 62
    18
420
        0
370
    25
100
AcDbLine
 10
275.5723186747537
 20
129.8839408519499
 30
0.0
 11
273.1919729325228
 21
139.302867798643
 31
0.0
  0
LINE
  5
1D1
330
70
100
AcDbEntity
  8
_HONTAI
 62
    18
420
        0
370
    25
100
AcDbLine
 10
273.1919729325228
 20
139.302867798643
 30
0.0
 11
274.8079477482741
 21
130.3252506121131
 31
0.0
  0
LINE
  5
1D2
330
70
100
AcDbEntity
  8
_HONTAI
 62
    18
420
        0
370
    25
100
AcDbLine
 10
289.0980856304036
 20
130.1194693507671
 30
0.0
 11
299.7637342852661
 21
156.1401889954266
 31
0.0
  0
LINE
  5
1D3
330
70
100
AcDbEntity
  8
_HONTAI
 62
    18
420
        0
370
    25
100
AcDbLine
 10
289.0980856304036
 20
130.1194693507671
 30
0.0
 11
304.6093559678153
 21
153.3425680126144
 31
0.0
  0
LINE
  5
1D4
330
70
100
AcDbEntity
  8
_HONTAI
 62
    18
420
        0
370
    25
100
AcDbLine
 10
284.7956850888667
 20
120.5365109240952
 30
0.0
 11
287.1922131150273
 21
123.1751916689017
 31
0.0
  0
LINE
  5
1D5
330
70
100
AcDbEntity
  8
_HONTAI
 62
    18
420
        0
370
    25
100
AcDbLine
 10
274.8079477482741
 20
130.3252506121131
 30
0.0
 11
272.7387671348132
 21
139.5645262879501
 31
0.0
  0
LINE
  5
1D6
330
70
100
AcDbEntity
  8
_HONTAI
 62
    18
420
        0
370
    25
100
AcDbLine
 10
272.7387671348132
 20
139.5645262879501
 30
0.0
 11
274.37107816895
 21
130.5774773813355
 31
0.0
  0
LINE
  5
1D7
330
70
100
AcDbEntity
  8
_HONTAI
 62
    18
420
        0
370
    25
100
AcDbLine
 10
299.7637342852661
 20
156.1401889954266
 30
0.0
 11
285.9909067624773
 21
131.9133999065819
 31
0.0
  0
LINE
  5
1D8
330
70
100
AcDbEntity
  8
_HONTAI
 62
    18
420
        0
370
    25
100
AcDbLine
 10
285.9909067624773
 20
131.9133999065819
 30
0.0
 11
295.0653443655564
 21
158.8528056803233
 31
0.0
  0
LINE
  5
1D9
330
70
100
AcDbEntity
  8
_HONTAI
 62
    18
420
        0
370
    25
100
AcDbLine
 10
295.0653443655564
 20
158.8528056803233
 30
0.0
 11
283.0260711946006
 21
133.6251485197998
 31
0.0
  0
LINE
  5
1DA
330
70
100
AcDbEntity
  8
_HONTAI
 62
    18
420
        0
370
    25
100
AcDbLine
 10
283.0260711946006
 20
133.6251485197998
 30
0.0
 11
290.6569444088457
 21
161.397996582029
 31
0.0
  0
LINE
  5
1DB
330
70
100
AcDbEntity
  8
_HONTAI
 62
    18
420
        0
370
    25
100
AcDbLine
 10
290.6569444088457
 20
161.397996582029
 30
0.0
 11
280.2936639552186
 21
135.2027045749904
 31
0.0
  0
LINE
  5
1DC
330
70
100
AcDbEntity
  8
_HONTAI
 62
    18
420
        0
370
    25
100
AcDbLine
 10
280.2936639552186
 20
135.2027045749904
 30
0.0
 11
286.6724814170363
 21
163.6984273629238
 31
0.0
  0
LINE
  5
1DD
330
70
100
AcDbEntity
  8
_HONTAI
 62
    18
420
        0
370
    25
100
AcDbLine
 10
286.6724814170363
 20
163.6984273629238
 30
0.0
 11
277.8767078556428
 21
136.598134829698
 31
0.0
  0
LINE
  5
1DE
330
70
100
AcDbEntity
  8
_HONTAI
 62
    18
420
        0
370
    25
100
AcDbLine
 10
277.8767078556428
 20
136.598134829698
 30
0.0
 11
283.233021282008
 21
165.6842005977468
 31
0.0
  0
LINE
  5
1DF
330
70
100
AcDbEntity
  8
_HONTAI
 62
    18
420
        0
370
    25
100
AcDbLine
 10
283.233021282008
 20
165.6842005977468
 30
0.0
 11
275.8486408839188
 21
137.7690398417585
 31
0.0
  0
LINE
  5
1E0
330
70
100
AcDbEntity
  8
_HONTAI
 62
    18
420
        0
370
    25
100
AcDbLine
 10
275.8486408839188
 20
137.7690398417585
 30
0.0
 11
280.4430702594638
 21
167.2949795716404
 31
0.0
  0
LINE
  5
1E1
330
70
100
AcDbEntity
  8
_HONTAI
 62
    18
420
        0
370
    25
100
AcDbLine
 10
280.4430702594638
 20
167.2949795716404
 30
0.0
 11
274.2710848287256
 21
138.6798422548848
 31
0.0
  0
LINE
  5
1E2
330
70
100
AcDbEntity
  8
_HONTAI
 62
    18
420
        0
370
    25
100
AcDbLine
 10
274.2710848287256
 20
138.6798422548848
 30
0.0
 11
278.3873995994338
 21
168.4818215805744
 31
0.0
  0
LINE
  5
1E3
330
70
100
AcDbEntity
  8
_HONTAI
 62
    18
420
        0
370
    25
100
AcDbLine
 10
278.3873995994338
 20
168.4818215805744
 30
0.0
 11
273.1919729325228
 21
139.302867798643
 31
0.0
  0
LINE
  5
1E4
330
70
100
AcDbEntity
  8
_HONTAI
 62
    18
420
        0
370
    25
100
AcDbLine
 10
273.1919729325228
 20
139.302867798643
 30
0.0
 11
277.1284698148375
 21
169.2086650306005
 31
0.0
  0
LINE
  5
1E5
330
70
100
AcDbEntity
  8
_HONTAI
 62
    18
420
        0
370
    25
100
AcDbLine
 10
277.1284698148375
 20
169.2086650306005
 30
0.0
 11
272.7387671348132
 21
139.5645262879501
 31
0.0
  0
LINE
  5
1E6
330
70
100
AcDbEntity
  8
_HONTAI
 62
    18
420
        0
370
    25
100
AcDbLine
 10
272.7387671348132
 20
139.5645262879501
 30
0.0
 11
276.7045328498716
 21
169.453425151439
 31
0.0
  0
LINE
  5
1E7
330
70
100
AcDbEntity
  8
_HONTAI
 62
    18
420
        0
370
    25
100
AcDbLine
 10
304.6093559678153
 20
153.3425680126144
 30
0.0
 11
307.4681647408494
 21
163.7589845354235
 31
0.0
  0
LINE
  5
1E8
330
70
100
AcDbEntity
  8
_HONTAI
 62
    18
420
        0
370
    25
100
AcDbLine
 10
307.4681647408494
 20
163.7589845354235
 30
0.0
 11
299.7637342852661
 21
156.1401889954266
 31
0.0
  0
LINE
  5
1E9
330
70
100
AcDbEntity
  8
_HONTAI
 62
    18
420
        0
370
    25
100
AcDbLine
 10
299.7637342852661
 20
156.1401889954266
 30
0.0
 11
302.8073964389643
 21
166.4498803691508
 31
0.0
  0
LINE
  5
1EA
330
70
100
AcDbEntity
  8
_HONTAI
 62
    18
420
        0
370
    25
100
AcDbLine
 10
302.8073964389643
 20
166.4498803691508
 30
0.0
 11
295.0653443655564
 21
158.8528056803233
 31
0.0
  0
LINE
  5
1EB
330
70
100
AcDbEntity
  8
_HONTAI
 62
    18
420
        0
370
    25
100
AcDbLine
 10
295.0653443655564
 20
158.8528056803233
 30
0.0
 11
298.3601430871448
 21
169.0175032889738
 31
0.0
  0
LINE
  5
1EC
330
70
100
AcDbEntity
  8
_HONTAI
 62
    18
420
        0
370
    25
100
AcDbLine
 10
298.3601430871448
 20
169.0175032889738
 30
0.0
 11
290.6569444088457
 21
161.397996582029
 31
0.0
  0
LINE
  5
1ED
330
70
100
AcDbEntity
  8
_HONTAI
 62
    18
420
        0
370
    25
100
AcDbLine
 10
290.6569444088457
 20
161.397996582029
 30
0.0
 11
294.2615322280793
 21
171.3838373717597
 31
0.0
  0
LINE
  5
1EE
330
70
100
AcDbEntity
  8
_HONTAI
 62
    18
420
        0
370
    25
100
AcDbLine
 10
294.2615322280793
 20
171.3838373717597
 30
0.0
 11
286.6724814170363
 21
163.6984273629238
 31
0.0
  0
LINE
  5
1EF
330
70
100
AcDbEntity
  8
_HONTAI
 62
    18
420
        0
370
    25
100
AcDbLine
 10
286.6724814170363
 20
163.6984273629238
 30
0.0
 11
290.6360980787182
 21
173.4769827538237
 31
0.0
  0
LINE
  5
1F0
330
70
100
AcDbEntity
  8
_HONTAI
 62
    18
420
        0
370
    25
100
AcDbLine
 10
290.6360980787182
 20
173.4769827538237
 30
0.0
 11
283.233021282008
 21
165.6842005977468
 31
0.0
  0
LINE
  5
1F1
330
70
100
AcDbEntity
  8
_HONTAI
 62
    18
420
        0
370
    25
100
AcDbLine
 10
283.233021282008
 20
165.6842005977468
 30
0.0
 11
287.593997621132
 21
175.2333402719128
 31
0.0
  0
LINE
  5
1F2
330
70
100
AcDbEntity
  8
_HONTAI
 62
    18
420
        0
370
    25
100
AcDbLine
 10
287.593997621132
 20
175.2333402719128
 30
0.0
 11
280.4430702594638
 21
167.2949795716404
 31
0.0
  0
LINE
  5
1F3
330
70
100
AcDbEntity
  8
_HONTAI
 62
    18
420
        0
370
    25
100
AcDbLine
 10
280.4430702594638
 20
167.2949795716404
 30
0.0
 11
285.2276635383447
 21
176.5995438915991
 31
0.0
  0
LINE
  5
1F4
330
70
100
AcDbEntity
  8
_HONTAI
 62
    18
420
        0
370
    25
100
AcDbLine
 10
285.2276635383447
 20
176.5995438915991
 30
0.0
 11
278.3873995994338
 21
168.4818215805744
 31
0.0
  0
LINE
  5
1F5
330
70
100
AcDbEntity
  8
_HONTAI
 62
    18
420
        0
370
    25
100
AcDbLine
 10
278.3873995994338
 20
168.4818215805744
 30
0.0
 11
283.6125424552705
 21
177.5320344836875
 31
0.0
  0
LINE
  5
1F6
330
70
100
AcDbEntity
  8
_HONTAI
 62
    18
420
        0
370
    25
100
AcDbLine
 10
283.6125424552705
 20
177.5320344836875
 30
0.0
 11
277.1284698148375
 21
169.2086650306005
 31
0.0
  0
LINE
  5
1F7
330
70
100
AcDbEntity
  8
_HONTAI
 62
    18
420
        0
370
    25
100
AcDbLine
 10
277.1284698148375
 20
169.2086650306005
 30
0.0
 11
282.6838601143027
 21
178.0682094832366
 31
0.0
  0
LINE
  5
1F8
330
70
100
AcDbEntity
  8
_HONTAI
 62
    18
420
        0
370
    25
100
AcDbLine
 10
316.8013559647613
 20
174.4597314532179
 30
0.0
 11
307.4681647408494
 21
163.7589845354235
 31
0.0
  0
LINE
  5
1F9
330
70
100
AcDbEntity
  8
_HONTAI
 62
    18
420
        0
370
    25
100
AcDbLine
 10
307.4681647408494
 20
163.7589845354235
 30
0.0
 11
314.7636793934632
 21
175.6361845701778
 31
0.0
  0
LINE
  5
1FA
330
70
100
AcDbEntity
  8
_HONTAI
 62
    18
420
        0
370
    25
100
AcDbLine
 10
314.7636793934632
 20
175.6361845701778
 30
0.0
 11
302.8073964389643
 21
166.4498803691508
 31
0.0
  0
LINE
  5
1FB
330
70
100
AcDbEntity
  8
_HONTAI
 62
    18
420
        0
370
    25
100
AcDbLine
 10
302.8073964389643
 20
166.4498803691508
 30
0.0
 11
310.750240022392
 21
177.9533448714426
 31
0.0
  0
LINE
  5
1FC
330
70
100
AcDbEntity
  8
_HONTAI
 62
    18
420
        0
370
    25
100
AcDbLine
 10
310.750240022392
 20
177.9533448714426
 30
0.0
 11
298.3601430871448
 21
169.0175032889738
 31
0.0
  0
LINE
  5
1FD
330
70
100
AcDbEntity
  8
_HONTAI
 62
    18
420
        0
370
    25
100
AcDbLine
 10
298.3601430871448
 20
169.0175032889738
 30
0.0
 11
306.9206607472192
 21
180.1643534968446
 31
0.0
  0
LINE
  5
1FE
330
70
100
AcDbEntity
  8
_HONTAI
 62
    18
420
        0
370
    25
100
AcDbLine
 10
306.9206607472192
 20
180.1643534968446
 30
0.0
 11
294.2615322280793
 21
171.3838373717597
 31
0.0
  0
LINE
  5
1FF
330
70
100
AcDbEntity
  8
_HONTAI
 62
    18
420
        0
370
    25
100
AcDbLine
 10
294.2615322280793
 20
171.3838373717597
 30
0.0
 11
303.3913013963557
 21
182.2020300681344
 31
0.0
  0
LINE
  5
200
330
70
100
AcDbEntity
  8
_HONTAI
 62
    18
420
        0
370
    25
100
AcDbLine
 10
303.3913013963557
 20
182.2020300681344
 30
0.0
 11
290.6360980787182
 21
173.4769827538237
 31
0.0
  0
LINE
  5
201
330
70
100
AcDbEntity
  8
_HONTAI
 62
    18
420
        0
370
    25
100
AcDbLine
 10
290.6360980787182
 20
173.4769827538237
 30
0.0
 11
300.2693997677398
 21
184.0044608137965
 31
0.0
  0
LINE
  5
202
330
70
100
AcDbEntity
  8
_HONTAI
 62
    18
420
        0
370
    25
100
AcDbLine
 10
300.2693997677398
 20
184.0044608137965
 30
0.0
 11
287.593997621132
 21
175.2333402719128
 31
0.0
  0
LINE
  5
203
330
70
100
AcDbEntity
  8
_HONTAI
 62
    18
420
        0
370
    25
100
AcDbLine
 10
287.593997621132
 20
175.2333402719128
 30
0.0
 11
297.6498132625948
 21
185.5168797877083
 31
0.0
  0
LINE
  5
204
330
70
100
AcDbEntity
  8
_HONTAI
 62
    18
420
        0
370
    25
100
AcDbLine
 10
297.6498132625948
 20
185.5168797877083
 30
0.0
 11
285.2276635383447
 21
176.5995438915991
 31
0.0
  0
LINE
  5
205
330
70
100
AcDbEntity
  8
_HONTAI
 62
    18
420
        0
370
    25
100
AcDbLine
 10
285.2276635383447
 20
176.5995438915991
 30
0.0
 11
295.6121366913066
 21
186.6933329046611
 31
0.0
  0
LINE
  5
206
330
70
100
AcDbEntity
  8
_HONTAI
 62
    18
420
        0
370
    25
100
AcDbLine
 10
295.6121366913066
 20
186.6933329046611
 30
0.0
 11
283.6125424552705
 21
177.5320344836875
 31
0.0
  0
LINE
  5
207
330
70
100
AcDbEntity
  8
_HONTAI
 62
    18
420
        0
370
    25
100
AcDbLine
 10
283.6125424552705
 20
177.5320344836875
 30
0.0
 11
294.2182838253859
 21
187.4980742320122
 31
0.0
  0
LINE
  5
208
330
70
100
AcDbEntity
  8
_HONTAI
 62
    18
420
        0
370
    25
100
AcDbLine
 10
294.2182838253859
 20
187.4980742320122
 30
0.0
 11
282.6838601143027
 21
178.068209483234
 31
0.0
  0
LINE
  5
209
330
70
100
AcDbEntity
  8
_HONTAI
 62
    18
420
        0
370
    25
100
AcDbLine
 10
320.2847845353204
 20
180.4932067219609
 30
0.0
 11
314.7636793934632
 21
175.6361845701778
 31
0.0
  0
LINE
  5
20A
330
70
100
AcDbEntity
  8
_HONTAI
 62
    18
420
        0
370
    25
100
AcDbLine
 10
314.7636793934632
 20
175.6361845701778
 30
0.0
 11
317.5345668235918
 21
182.0810456581579
 31
0.0
  0
LINE
  5
20B
330
70
100
AcDbEntity
  8
_HONTAI
 62
    18
420
        0
370
    25
100
AcDbLine
 10
317.5345668235918
 20
182.0810456581579
 30
0.0
 11
310.750240022392
 21
177.9533448714426
 31
0.0
  0
LINE
  5
20C
330
70
100
AcDbEntity
  8
_HONTAI
 62
    18
420
        0
370
    25
100
AcDbLine
 10
310.750240022392
 20
177.9533448714426
 30
0.0
 11
314.8679130853678
 21
183.6206389117556
 31
0.0
  0
LINE
  5
20D
330
70
100
AcDbEntity
  8
_HONTAI
 62
    18
420
        0
370
    25
100
AcDbLine
 10
314.8679130853678
 20
183.6206389117556
 30
0.0
 11
306.9206607472192
 21
180.1643534968446
 31
0.0
  0
LINE
  5
20E
330
70
100
AcDbEntity
  8
_HONTAI
 62
    18
420
        0
370
    25
100
AcDbLine
 10
306.9206607472192
 20
180.1643534968446
 30
0.0
 11
312.3658482450977
 21
185.0652067208163
 31
0.0
  0
LINE
  5
20F
330
70
100
AcDbEntity
  8
_HONTAI
 62
    18
420
        0
370
    25
100
AcDbLine
 10
312.3658482450977
 20
185.0652067208163
 30
0.0
 11
303.3913013963557
 21
182.2020300681344
 31
0.0
  0
LINE
  5
210
330
70
100
AcDbEntity
  8
_HONTAI
 62
    18
420
        0
370
    25
100
AcDbLine
 10
303.3913013963557
 20
182.2020300681344
 30
0.0
 11
310.1043962767993
 21
186.3708566234707
 31
0.0
  0
LINE
  5
211
330
70
100
AcDbEntity
  8
_HONTAI
 62
    18
420
        0
370
    25
100
AcDbLine
 10
310.1043962767993
 20
186.3708566234707
 30
0.0
 11
300.2693997677398
 21
184.0044608137965
 31
0.0
  0
LINE
  5
212
330
70
100
AcDbEntity
  8
_HONTAI
 62
    18
420
        0
370
    25
100
AcDbLine
 10
300.2693997677398
 20
184.0044608137965
 30
0.0
 11
308.1522702542263
 21
187.4979171080919
 31
0.0
  0
LINE
  5
213
330
70
100
AcDbEntity
  8
_HONTAI
 62
    18
420
        0
370
    25
100
AcDbLine
 10
308.1522702542263
 20
187.4979171080919
 30
0.0
 11
297.6498132625948
 21
185.5168797877083
 31
0.0
  0
LINE
  5
214
330
70
100
AcDbEntity
  8
_HONTAI
 62
    18
420
        0
370
    25
100
AcDbLine
 10
297.6498132625948
 20
185.5168797877083
 30
0.0
 11
306.568784538742
 21
188.4121430121907
 31
0.0
  0
LINE
  5
215
330
70
100
AcDbEntity
  8
_HONTAI
 62
    18
420
        0
370
    25
100
AcDbLine
 10
306.568784538742
 20
188.4121430121907
 30
0.0
 11
295.6121366913066
 21
186.6933329046611
 31
0.0
  0
LINE
  5
216
330
70
100
AcDbEntity
  8
_HONTAI
 62
    18
420
        0
370
    25
100
AcDbLine
 10
295.6121366913066
 20
186.6933329046611
 30
0.0
 11
305.4020525425173
 21
189.0857560442805
 31
0.0
  0
LINE
  5
217
330
70
100
AcDbEntity
  8
_HONTAI
 62
    18
420
        0
370
    25
100
AcDbLine
 10
305.4020525425173
 20
189.0857560442805
 30
0.0
 11
294.2182838253859
 21
187.4980742320122
 31
0.0
  0
LINE
  5
218
330
70
100
AcDbEntity
  8
_HONTAI
 62
    18
420
        0
370
    25
100
AcDbLine
 10
294.2182838253859
 20
187.4980742320122
 30
0.0
 11
304.6875248268704
 21
189.4982888132539
 31
0.0
  0
LINE
  5
219
330
70
100
AcDbEntity
  8
_HONTAI
 62
    18
420
        0
370
    25
100
AcDbLine
 10
304.6875248268704
 20
189.4982888132539
 30
0.0
 11
293.4216392983797
 21
187.9580171641254
 31
0.0
  0
LINE
  5
21A
330
70
100
AcDbEntity
  8
_HONTAI
 62
    18
420
        0
370
    25
100
AcDbLine
 10
320.2847845353204
 20
180.4932067219609
 30
0.0
 11
321.3954763985179
 21
183.8742653215852
 31
0.0
  0
LINE
  5
21B
330
70
100
AcDbEntity
  8
_HONTAI
 62
    18
420
        0
370
    25
100
AcDbLine
 10
321.3954763985179
 20
183.8742653215852
 30
0.0
 11
317.5345668235918
 21
182.0810456581579
 31
0.0
  0
LINE
  5
21C
330
70
100
AcDbEntity
  8
_HONTAI
 62
    18
420
        0
370
    25
100
AcDbLine
 10
317.5345668235918
 20
182.0810456581579
 30
0.0
 11
320.1526048513449
 21
184.5918375439125
 31
0.0
  0
LINE
  5
21D
330
70
100
AcDbEntity
  8
_HONTAI
 62
    18
420
        0
370
    25
100
AcDbLine
 10
320.1526048513449
 20
184.5918375439125
 30
0.0
 11
314.8679130853678
 21
183.6206389117556
 31
0.0
  0
LINE
  5
21E
330
70
100
AcDbEntity
  8
_HONTAI
 62
    18
420
        0
370
    25
100
AcDbLine
 10
314.8679130853678
 20
183.6206389117556
 30
0.0
 11
318.9666706241944
 21
185.2765369892013
 31
0.0
  0
LINE
  5
21F
330
70
100
AcDbEntity
  8
_HONTAI
 62
    18
420
        0
370
    25
100
AcDbLine
 10
318.9666706241944
 20
185.2765369892013
 30
0.0
 11
312.3658482450977
 21
185.0652067208163
 31
0.0
  0
LINE
  5
220
330
70
100
AcDbEntity
  8
_HONTAI
 62
    18
420
        0
370
    25
100
AcDbLine
 10
312.3658482450977
 20
185.0652067208163
 30
0.0
 11
317.8737077284426
 21
185.9075594112764
 31
0.0
  0
LINE
  5
221
330
70
100
AcDbEntity
  8
_HONTAI
 62
    18
420
        0
370
    25
100
AcDbLine
 10
317.8737077284426
 20
185.9075594112764
 30
0.0
 11
310.1043962767993
 21
186.3708566234707
 31
0.0
  0
LINE
  5
222
330
70
100
AcDbEntity
  8
_HONTAI
 62
    18
420
        0
370
    25
100
AcDbLine
 10
310.1043962767993
 20
186.3708566234707
 30
0.0
 11
316.906925288615
 21
186.4657315131592
 31
0.0
  0
LINE
  5
223
330
70
100
AcDbEntity
  8
_HONTAI
 62
    18
420
        0
370
    25
100
AcDbLine
 10
316.906925288615
 20
186.4657315131592
 30
0.0
 11
308.1522702542263
 21
187.4979171080919
 31
0.0
  0
LINE
  5
224
330
70
100
AcDbEntity
  8
_HONTAI
 62
    18
420
        0
370
    25
100
AcDbLine
 10
308.1522702542263
 20
187.4979171080919
 30
0.0
 11
316.0956984999224
 21
186.9340935179828
 31
0.0
  0
LINE
  5
225
330
70
100
AcDbEntity
  8
_HONTAI
 62
    18
420
        0
370
    25
100
AcDbLine
 10
316.0956984999224
 20
186.9340935179828
 30
0.0
 11
306.568784538742
 21
188.4121430121907
 31
0.0
  0
LINE
  5
226
330
70
100
AcDbEntity
  8
_HONTAI
 62
    18
420
        0
370
    25
100
AcDbLine
 10
306.568784538742
 20
188.4121430121907
 30
0.0
 11
315.4646760778474
 21
187.298414483233
 31
0.0
  0
LINE
  5
227
330
70
100
AcDbEntity
  8
_HONTAI
 62
    18
420
        0
370
    25
100
AcDbLine
 10
315.4646760778474
 20
187.298414483233
 30
0.0
 11
305.4020525425173
 21
189.0857560442805
 31
0.0
  0
LINE
  5
228
330
70
100
AcDbEntity
  8
_HONTAI
 62
    18
420
        0
370
    25
100
AcDbLine
 10
305.4020525425173
 20
189.0857560442805
 30
0.0
 11
315.0330313193667
 21
187.5476247007368
 31
0.0
  0
LINE
  5
229
330
70
100
AcDbEntity
  8
_HONTAI
 62
    18
420
        0
370
    25
100
AcDbLine
 10
315.0330313193667
 20
187.5476247007368
 30
0.0
 11
304.6875248268704
 21
189.4982888132539
 31
0.0
  0
LINE
  5
22A
330
70
100
AcDbEntity
  8
_HONTAI
 62
    18
420
        0
370
    25
100
AcDbLine
 10
304.6875248268704
 20
189.4982888132539
 30
0.0
 11
314.8138795320489
 21
187.6741520441364
 31
0.0
  0
LINE
  5
22B
330
70
100
AcDbEntity
  8
_HONTAI
 62
    18
420
        0
370
    25
100
AcDbLine
 10
314.8138795320489
 20
187.6741520441364
 30
0.0
 11
304.4469119548701
 21
189.6372067196736
 31
0.0
  0
LINE
  5
22C
330
70
100
AcDbEntity
  8
_HONTAI
 62
    18
420
        0
370
    25
100
AcDbLine
 10
322.0264988205977
 20
183.5099443563323
 30
0.0
 11
329.5683429065284
 21
179.1556586431318
 31
0.0
  0
LINE
  5
22D
330
70
100
AcDbEntity
  8
_HONTAI
 62
    18
420
        0
370
    25
100
AcDbLine
 10
340.1810726311525
 20
161.5129334079461
 30
0.0
 11
339.9656107907501
 21
161.5129334079461
 31
0.0
  0
LINE
  5
22E
330
70
100
AcDbEntity
  8
_HONTAI
 62
    18
420
        0
370
    25
100
AcDbLine
 10
340.1810726311525
 20
88.36093342623708
 30
0.0
 11
335.826786917954
 21
88.36093342623708
 31
0.0
  0
LINE
  5
22F
330
70
100
AcDbEntity
  8
_HONTAI
 62
    18
420
        0
370
    25
100
AcDbLine
 10
319.2805012078054
 20
98.81121913791062
 30
0.0
 11
325.37650120628
 21
91.84436199679621
 31
0.0
  0
LINE
  5
230
330
70
100
AcDbEntity
  8
_HONTAI
 62
    18
420
        0
370
    25
100
AcDbLine
 10
325.37650120628
 20
91.84436199679621
 30
0.0
 11
335.826786917954
 21
88.36093342623708
 31
0.0
  0
LINE
  5
231
330
70
100
AcDbEntity
  8
_HONTAI
 62
    18
420
        0
370
    25
100
AcDbLine
 10
310.6002518013851
 20
120.1779869075597
 30
0.0
 11
319.2805012078054
 21
98.81121913791062
 31
0.0
  0
LINE
  5
232
330
70
100
AcDbEntity
  8
_HONTAI
 62
    18
420
        0
370
    25
100
AcDbLine
 10
340.1810726311525
 20
162.5579619791147
 30
0.0
 11
339.557326447804
 21
162.5579619791147
 31
0.0
  0
LINE
  5
233
330
70
100
AcDbEntity
  8
_HONTAI
 62
    18
420
        0
370
    25
100
AcDbLine
 10
338.8907692125591
 20
91.84436199679621
 30
0.0
 11
339.4249588520115
 21
88.36093342623708
 31
0.0
  0
LINE
  5
234
330
70
100
AcDbEntity
  8
_HONTAI
 62
    18
420
        0
370
    25
100
AcDbLine
 10
338.8907692125591
 20
91.84436199679621
 30
0.0
 11
338.691819207444
 21
88.36093342623708
 31
0.0
  0
LINE
  5
235
330
70
100
AcDbEntity
  8
_HONTAI
 62
    18
420
        0
370
    25
100
AcDbLine
 10
338.691819207444
 20
88.36093342623708
 30
0.0
 11
336.3493675918196
 21
91.84436199679621
 31
0.0
  0
LINE
  5
236
330
70
100
AcDbEntity
  8
_HONTAI
 62
    18
420
        0
370
    25
100
AcDbLine
 10
336.3493675918196
 20
91.84436199679621
 30
0.0
 11
338.0039297745558
 21
88.36093342623708
 31
0.0
  0
LINE
  5
237
330
70
100
AcDbEntity
  8
_HONTAI
 62
    18
420
        0
370
    25
100
AcDbLine
 10
338.0039297745558
 20
88.36093342623708
 30
0.0
 11
333.9243903897608
 21
91.84436199679621
 31
0.0
  0
LINE
  5
238
330
70
100
AcDbEntity
  8
_HONTAI
 62
    18
420
        0
370
    25
100
AcDbLine
 10
333.9243903897608
 20
91.84436199679621
 30
0.0
 11
337.3821917256818
 21
88.36093342623708
 31
0.0
  0
LINE
  5
239
330
70
100
AcDbEntity
  8
_HONTAI
 62
    18
420
        0
370
    25
100
AcDbLine
 10
337.3821917256818
 20
88.36093342623708
 30
0.0
 11
331.6895193115741
 21
91.84436199679621
 31
0.0
  0
LINE
  5
23A
330
70
100
AcDbEntity
  8
_HONTAI
 62
    18
420
        0
370
    25
100
AcDbLine
 10
331.6895193115741
 20
91.84436199679621
 30
0.0
 11
336.8454962568005
 21
88.36093342623708
 31
0.0
  0
LINE
  5
23B
330
70
100
AcDbEntity
  8
_HONTAI
 62
    18
420
        0
370
    25
100
AcDbLine
 10
336.8454962568005
 20
88.36093342623708
 30
0.0
 11
329.7126597840675
 21
91.84436199679621
 31
0.0
  0
LINE
  5
23C
330
70
100
AcDbEntity
  8
_HONTAI
 62
    18
420
        0
370
    25
100
AcDbLine
 10
329.7126597840675
 20
91.84436199679621
 30
0.0
 11
336.4101505881941
 21
88.36093342623708
 31
0.0
  0
LINE
  5
23D
330
70
100
AcDbEntity
  8
_HONTAI
 62
    18
420
        0
370
    25
100
AcDbLine
 10
336.4101505881941
 20
88.36093342623708
 30
0.0
 11
328.0538776836437
 21
91.84436199679621
 31
0.0
  0
LINE
  5
23E
330
70
100
AcDbEntity
  8
_HONTAI
 62
    18
420
        0
370
    25
100
AcDbLine
 10
328.0538776836437
 20
91.84436199679621
 30
0.0
 11
336.0893824776803
 21
88.36093342623708
 31
0.0
  0
LINE
  5
23F
330
70
100
AcDbEntity
  8
_HONTAI
 62
    18
420
        0
370
    25
100
AcDbLine
 10
336.0893824776803
 20
88.36093342623708
 30
0.0
 11
326.7635742650503
 21
91.84436199679621
 31
0.0
  0
LINE
  5
240
330
70
100
AcDbEntity
  8
_HONTAI
 62
    18
420
        0
370
    25
100
AcDbLine
 10
326.7635742650503
 20
91.84436199679621
 30
0.0
 11
335.8929383019539
 21
88.36093342623259
 31
0.0
  0
LINE
  5
241
330
70
100
AcDbEntity
  8
_HONTAI
 62
    18
420
        0
370
    25
100
AcDbLine
 10
335.8929383019539
 20
88.36093342623259
 30
0.0
 11
325.8809547447248
 21
91.84436199679621
 31
0.0
  0
LINE
  5
242
330
70
100
AcDbEntity
  8
_HONTAI
 62
    18
420
        0
370
    25
100
AcDbLine
 10
325.8809547447248
 20
91.84436199679621
 30
0.0
 11
335.826786917954
 21
88.36093342623259
 31
0.0
  0
LINE
  5
243
330
70
100
AcDbEntity
  8
_HONTAI
 62
    18
420
        0
370
    25
100
AcDbLine
 10
340.1810726311525
 20
91.84436199679621
 30
0.0
 11
338.3594678049072
 21
98.81121913791062
 31
0.0
  0
LINE
  5
244
330
70
100
AcDbEntity
  8
_HONTAI
 62
    18
420
        0
370
    25
100
AcDbLine
 10
338.3594678049072
 20
98.81121913791062
 30
0.0
 11
338.8907692125591
 21
91.84436199679621
 31
0.0
  0
LINE
  5
245
330
70
100
AcDbEntity
  8
_HONTAI
 62
    18
420
        0
370
    25
100
AcDbLine
 10
338.8907692125591
 20
91.84436199679621
 30
0.0
 11
334.7716066932729
 21
98.81121913791062
 31
0.0
  0
LINE
  5
246
330
70
100
AcDbEntity
  8
_HONTAI
 62
    18
420
        0
370
    25
100
AcDbLine
 10
334.7716066932729
 20
98.81121913791062
 30
0.0
 11
336.3493675918196
 21
91.84436199679621
 31
0.0
  0
LINE
  5
247
330
70
100
AcDbEntity
  8
_HONTAI
 62
    18
420
        0
370
    25
100
AcDbLine
 10
336.3493675918196
 20
91.84436199679621
 30
0.0
 11
331.3481094668326
 21
98.81121913791062
 31
0.0
  0
LINE
  5
248
330
70
100
AcDbEntity
  8
_HONTAI
 62
    18
420
        0
370
    25
100
AcDbLine
 10
331.3481094668326
 20
98.81121913791062
 30
0.0
 11
333.9243903897608
 21
91.84436199679621
 31
0.0
  0
LINE
  5
249
330
70
100
AcDbEntity
  8
_HONTAI
 62
    18
420
        0
370
    25
100
AcDbLine
 10
333.9243903897608
 20
91.84436199679621
 30
0.0
 11
328.1929973564556
 21
98.81121913791062
 31
0.0
  0
LINE
  5
24A
330
70
100
AcDbEntity
  8
_HONTAI
 62
    18
420
        0
370
    25
100
AcDbLine
 10
328.1929973564556
 20
98.81121913791062
 30
0.0
 11
331.6895193115741
 21
91.84436199679621
 31
0.0
  0
LINE
  5
24B
330
70
100
AcDbEntity
  8
_HONTAI
 62
    18
420
        0
370
    25
100
AcDbLine
 10
331.6895193115741
 20
91.84436199679621
 30
0.0
 11
325.4021368470322
 21
98.81121913791062
 31
0.0
  0
LINE
  5
24C
330
70
100
AcDbEntity
  8
_HONTAI
 62
    18
420
        0
370
    25
100
AcDbLine
 10
325.4021368470322
 20
98.81121913791062
 30
0.0
 11
329.7126597840675
 21
91.84436199679621
 31
0.0
  0
LINE
  5
24D
330
70
100
AcDbEntity
  8
_HONTAI
 62
    18
420
        0
370
    25
100
AcDbLine
 10
329.7126597840675
 20
91.84436199679621
 30
0.0
 11
323.0603268229145
 21
98.81121913791062
 31
0.0
  0
LINE
  5
24E
330
70
100
AcDbEntity
  8
_HONTAI
 62
    18
420
        0
370
    25
100
AcDbLine
 10
323.0603268229145
 20
98.81121913791062
 30
0.0
 11
328.0538776836437
 21
91.84436199679621
 31
0.0
  0
LINE
  5
24F
330
70
100
AcDbEntity
  8
_HONTAI
 62
    18
420
        0
370
    25
100
AcDbLine
 10
328.0538776836437
 20
91.84436199679621
 30
0.0
 11
321.2387219966599
 21
98.81121913791062
 31
0.0
  0
LINE
  5
250
330
70
100
AcDbEntity
  8
_HONTAI
 62
    18
420
        0
370
    25
100
AcDbLine
 10
321.2387219966599
 20
98.81121913791062
 30
0.0
 11
326.7635742650503
 21
91.84436199679621
 31
0.0
  0
LINE
  5
251
330
70
100
AcDbEntity
  8
_HONTAI
 62
    18
420
        0
370
    25
100
AcDbLine
 10
326.7635742650503
 20
91.84436199679621
 30
0.0
 11
319.992670909143
 21
98.81121913791062
 31
0.0
  0
LINE
  5
252
330
70
100
AcDbEntity
  8
_HONTAI
 62
    18
420
        0
370
    25
100
AcDbLine
 10
319.992670909143
 20
98.81121913791062
 30
0.0
 11
325.8809547447248
 21
91.84436199679621
 31
0.0
  0
LINE
  5
253
330
70
100
AcDbEntity
  8
_HONTAI
 62
    18
420
        0
370
    25
100
AcDbLine
 10
338.3594678049072
 20
98.81121913791062
 30
0.0
 11
334.5858306655294
 21
126.6786477023689
 31
0.0
  0
LINE
  5
254
330
70
100
AcDbEntity
  8
_HONTAI
 62
    18
420
        0
370
    25
100
AcDbLine
 10
338.3594678049072
 20
98.81121913791062
 30
0.0
 11
340.1810726311525
 21
126.6786477023689
 31
0.0
  0
LINE
  5
255
330
70
100
AcDbEntity
  8
_HONTAI
 62
    18
420
        0
370
    25
100
AcDbLine
 10
339.4249588520115
 20
88.36093342623708
 30
0.0
 11
340.1810726311525
 21
91.84436199679621
 31
0.0
  0
LINE
  5
256
330
70
100
AcDbEntity
  8
_HONTAI
 62
    18
420
        0
370
    25
100
AcDbLine
 10
325.8809547447248
 20
91.84436199679621
 30
0.0
 11
319.4693539305287
 21
98.81121913791062
 31
0.0
  0
LINE
  5
257
330
70
100
AcDbEntity
  8
_HONTAI
 62
    18
420
        0
370
    25
100
AcDbLine
 10
319.4693539305287
 20
98.81121913791062
 30
0.0
 11
325.37650120628
 21
91.84436199679621
 31
0.0
  0
LINE
  5
258
330
70
100
AcDbEntity
  8
_HONTAI
 62
    18
420
        0
370
    25
100
AcDbLine
 10
334.5858306655294
 20
126.6786477023689
 30
0.0
 11
334.7716066932729
 21
98.81121913791062
 31
0.0
  0
LINE
  5
259
330
70
100
AcDbEntity
  8
_HONTAI
 62
    18
420
        0
370
    25
100
AcDbLine
 10
334.7716066932729
 20
98.81121913791062
 30
0.0
 11
329.1605972957259
 21
126.6786477023689
 31
0.0
  0
LINE
  5
25A
330
70
100
AcDbEntity
  8
_HONTAI
 62
    18
420
        0
370
    25
100
AcDbLine
 10
329.1605972957259
 20
126.6786477023689
 30
0.0
 11
331.3481094668326
 21
98.81121913791062
 31
0.0
  0
LINE
  5
25B
330
70
100
AcDbEntity
  8
_HONTAI
 62
    18
420
        0
370
    25
100
AcDbLine
 10
331.3481094668326
 20
98.81121913791062
 30
0.0
 11
324.0702154923174
 21
126.6786477023689
 31
0.0
  0
LINE
  5
25C
330
70
100
AcDbEntity
  8
_HONTAI
 62
    18
420
        0
370
    25
100
AcDbLine
 10
324.0702154923174
 20
126.6786477023689
 30
0.0
 11
328.1929973564556
 21
98.81121913791062
 31
0.0
  0
LINE
  5
25D
330
70
100
AcDbEntity
  8
_HONTAI
 62
    18
420
        0
370
    25
100
AcDbLine
 10
328.1929973564556
 20
98.81121913791062
 30
0.0
 11
319.4693539305287
 21
126.6786477023689
 31
0.0
  0
LINE
  5
25E
330
70
100
AcDbEntity
  8
_HONTAI
 62
    18
420
        0
370
    25
100
AcDbLine
 10
319.4693539305287
 20
126.6786477023689
 30
0.0
 11
325.4021368470322
 21
98.81121913791062
 31
0.0
  0
LINE
  5
25F
330
70
100
AcDbEntity
  8
_HONTAI
 62
    18
420
        0
370
    25
100
AcDbLine
 10
325.4021368470322
 20
98.81121913791062
 30
0.0
 11
316.2465290723691
 21
124.5719986593847
 31
0.0
  0
LINE
  5
260
330
70
100
AcDbEntity
  8
_HONTAI
 62
    18
420
        0
370
    25
100
AcDbLine
 10
316.1003667269037
 20
124.4582530828181
 30
0.0
 11
323.0603268229145
 21
98.81121913791062
 31
0.0
  0
LINE
  5
261
330
70
100
AcDbEntity
  8
_HONTAI
 62
    18
420
        0
370
    25
100
AcDbLine
 10
323.0603268229145
 20
98.81121913791062
 30
0.0
 11
313.82171310632
 21
122.6849730424217
 31
0.0
  0
LINE
  5
262
330
70
100
AcDbEntity
  8
_HONTAI
 62
    18
420
        0
370
    25
100
AcDbLine
 10
313.6129172341412
 20
122.5224851814737
 30
0.0
 11
321.2387219966599
 21
98.81121913791062
 31
0.0
  0
LINE
  5
263
330
70
100
AcDbEntity
  8
_HONTAI
 62
    18
420
        0
370
    25
100
AcDbLine
 10
321.2387219966599
 20
98.81121913791062
 30
0.0
 11
312.0788752976959
 21
121.3286723428483
 31
0.0
  0
LINE
  5
264
330
70
100
AcDbEntity
  8
_HONTAI
 62
    18
420
        0
370
    25
100
AcDbLine
 10
311.8922459419886
 20
121.1834347742943
 30
0.0
 11
319.992670909143
 21
98.81121913791062
 31
0.0
  0
LINE
  5
265
330
70
100
AcDbEntity
  8
_HONTAI
 62
    18
420
        0
370
    25
100
AcDbLine
 10
319.992670909143
 20
98.81121913791062
 30
0.0
 11
311.0097129218758
 21
120.4966352645266
 31
0.0
  0
LINE
  5
266
330
70
100
AcDbEntity
  8
_HONTAI
 62
    18
420
        0
370
    25
100
AcDbLine
 10
310.9209417315312
 20
120.427552285618
 30
0.0
 11
319.4693539305287
 21
98.81121913791062
 31
0.0
  0
LINE
  5
267
330
70
100
AcDbEntity
  8
_HONTAI
 62
    18
420
        0
370
    25
100
AcDbLine
 10
319.4693539305287
 20
98.81121913791062
 30
0.0
 11
310.6335899838221
 21
120.2039311462873
 31
0.0
  0
LINE
  5
268
330
70
100
AcDbEntity
  8
_HONTAI
 62
    18
420
        0
370
    25
100
AcDbLine
 10
340.1810726311525
 20
126.6786477023689
 30
0.0
 11
337.44866539176
 21
137.1289334140424
 31
0.0
  0
LINE
  5
269
330
70
100
AcDbEntity
  8
_HONTAI
 62
    18
420
        0
370
    25
100
AcDbLine
 10
337.44866539176
 20
137.1289334140424
 30
0.0
 11
334.5858306655294
 21
126.6786477023689
 31
0.0
  0
LINE
  5
26A
330
70
100
AcDbEntity
  8
_HONTAI
 62
    18
420
        0
370
    25
100
AcDbLine
 10
334.5858306655294
 20
126.6786477023689
 30
0.0
 11
332.1159165570725
 21
136.9254715738911
 31
0.0
  0
LINE
  5
26B
330
70
100
AcDbEntity
  8
_HONTAI
 62
    18
420
        0
370
    25
100
AcDbLine
 10
331.9815579926241
 20
136.822158131756
 30
0.0
 11
329.1605972957259
 21
126.6786477023689
 31
0.0
  0
LINE
  5
26C
330
70
100
AcDbEntity
  8
_HONTAI
 62
    18
420
        0
370
    25
100
AcDbLine
 10
329.1605972957259
 20
126.6786477023689
 30
0.0
 11
327.6993766630102
 21
133.5294250274557
 31
0.0
  0
LINE
  5
26D
330
70
100
AcDbEntity
  8
_HONTAI
 62
    18
420
        0
370
    25
100
AcDbLine
 10
325.4784322317673
 20
131.8216558582756
 30
0.0
 11
324.0702154923174
 21
126.6786477023689
 31
0.0
  0
LINE
  5
26E
330
70
100
AcDbEntity
  8
_HONTAI
 62
    18
420
        0
370
    25
100
AcDbLine
 10
324.0702154923174
 20
126.6786477023689
 30
0.0
 11
323.4311775124843
 21
130.2474433557588
 31
0.0
  0
LINE
  5
26F
330
70
100
AcDbEntity
  8
_HONTAI
 62
    18
420
        0
370
    25
100
AcDbLine
 10
319.6400968526203
 20
127.3323363509522
 30
0.0
 11
319.4693539305287
 21
126.6786477023689
 31
0.0
  0
LINE
  5
270
330
70
100
AcDbEntity
  8
_HONTAI
 62
    18
420
        0
370
    25
100
AcDbLine
 10
340.1810726311525
 20
151.0626476962725
 30
0.0
 11
337.44866539176
 21
137.1289334140424
 31
0.0
  0
LINE
  5
271
330
70
100
AcDbEntity
  8
_HONTAI
 62
    18
420
        0
370
    25
100
AcDbLine
 10
337.44866539176
 20
137.1289334140424
 30
0.0
 11
337.8099399578435
 21
150.3934478915895
 31
0.0
  0
LINE
  5
272
330
70
100
AcDbEntity
  8
_HONTAI
 62
    18
420
        0
370
    25
100
AcDbLine
 10
340.1810726311525
 20
158.0295048373882
 30
0.0
 11
339.8636824461903
 21
159.5468564912313
 31
0.0
  0
LINE
  5
273
330
70
100
AcDbEntity
  8
_HONTAI
 62
    18
420
        0
370
    25
100
AcDbLine
 10
357.8159147437099
 20
150.4892761351337
 30
0.0
 11
351.3292456937131
 21
158.8111465504619
 31
0.0
  0
LINE
  5
274
330
70
100
AcDbEntity
  8
_HONTAI
 62
    18
420
        0
370
    25
100
AcDbLine
 10
368.5777456958129
 20
146.5823224391816
 30
0.0
 11
371.5319297661681
 21
137.1289334140424
 31
0.0
  0
LINE
  5
275
330
70
100
AcDbEntity
  8
_HONTAI
 62
    18
420
        0
370
    25
100
AcDbLine
 10
340.1810726311525
 20
161.5129334079461
 30
0.0
 11
348.8896440575439
 21
161.5129334079461
 31
0.0
  0
LINE
  5
276
330
70
100
AcDbEntity
  8
_HONTAI
 62
    18
420
        0
370
    25
100
AcDbLine
 10
340.1810726311525
 20
88.36093342623708
 30
0.0
 11
344.5353583443402
 21
88.36093342623708
 31
0.0
  0
LINE
  5
277
330
70
100
AcDbEntity
  8
_HONTAI
 62
    18
420
        0
370
    25
100
AcDbLine
 10
361.0816440544945
 20
98.81121913791062
 30
0.0
 11
354.9856440560189
 21
91.84436199679621
 31
0.0
  0
LINE
  5
278
330
70
100
AcDbEntity
  8
_HONTAI
 62
    18
420
        0
370
    25
100
AcDbLine
 10
354.9856440560189
 20
91.84436199679621
 30
0.0
 11
344.5353583443453
 21
88.36093342623708
 31
0.0
  0
LINE
  5
279
330
70
100
AcDbEntity
  8
_HONTAI
 62
    18
420
        0
370
    25
100
AcDbLine
 10
372.4027869088113
 20
126.6786477023689
 30
0.0
 11
361.0816440544945
 21
98.81121913791062
 31
0.0
  0
LINE
  5
27A
330
70
100
AcDbEntity
  8
_HONTAI
 62
    18
420
        0
370
    25
100
AcDbLine
 10
348.8896440575439
 20
161.5129334079461
 30
0.0
 11
349.8326386486874
 21
161.1700262838955
 31
0.0
  0
LINE
  5
27B
330
70
100
AcDbEntity
  8
_HONTAI
 62
    18
420
        0
370
    25
100
AcDbLine
 10
371.5319297661681
 20
137.1289334140424
 30
0.0
 11
372.4027869088113
 21
126.6786477023689
 31
0.0
  0
LINE
  5
27C
330
70
100
AcDbEntity
  8
_HONTAI
 62
    18
420
        0
370
    25
100
AcDbLine
 10
340.1810726311525
 20
162.5579619791147
 30
0.0
 11
344.5353583443453
 21
162.5579619791147
 31
0.0
  0
LINE
  5
27D
330
70
100
AcDbEntity
  8
_HONTAI
 62
    18
420
        0
370
    25
100
AcDbLine
 10
344.5353583443453
 20
162.5579619791147
 30
0.0
 11
344.4569812015071
 21
161.5129334079461
 31
0.0
  0
LINE
  5
27E
330
70
100
AcDbEntity
  8
_HONTAI
 62
    18
420
        0
370
    25
100
AcDbLine
 10
341.4713760497396
 20
91.84436199679621
 30
0.0
 11
340.9371864102878
 21
88.36093342623708
 31
0.0
  0
LINE
  5
27F
330
70
100
AcDbEntity
  8
_HONTAI
 62
    18
420
        0
370
    25
100
AcDbLine
 10
341.4713760497396
 20
91.84436199679621
 30
0.0
 11
341.6703260548502
 21
88.36093342623708
 31
0.0
  0
LINE
  5
280
330
70
100
AcDbEntity
  8
_HONTAI
 62
    18
420
        0
370
    25
100
AcDbLine
 10
341.6703260548502
 20
88.36093342623708
 30
0.0
 11
344.0127776704798
 21
91.84436199679621
 31
0.0
  0
LINE
  5
281
330
70
100
AcDbEntity
  8
_HONTAI
 62
    18
420
        0
370
    25
100
AcDbLine
 10
344.0127776704798
 20
91.84436199679621
 30
0.0
 11
342.3582154877438
 21
88.36093342623708
 31
0.0
  0
LINE
  5
282
330
70
100
AcDbEntity
  8
_HONTAI
 62
    18
420
        0
370
    25
100
AcDbLine
 10
342.3582154877438
 20
88.36093342623708
 30
0.0
 11
346.4377548725378
 21
91.84436199679621
 31
0.0
  0
LINE
  5
283
330
70
100
AcDbEntity
  8
_HONTAI
 62
    18
420
        0
370
    25
100
AcDbLine
 10
346.4377548725378
 20
91.84436199679621
 30
0.0
 11
342.9799535366182
 21
88.36093342623708
 31
0.0
  0
LINE
  5
284
330
70
100
AcDbEntity
  8
_HONTAI
 62
    18
420
        0
370
    25
100
AcDbLine
 10
342.9799535366182
 20
88.36093342623708
 30
0.0
 11
348.6726259507303
 21
91.84436199679621
 31
0.0
  0
LINE
  5
285
330
70
100
AcDbEntity
  8
_HONTAI
 62
    18
420
        0
370
    25
100
AcDbLine
 10
348.6726259507303
 20
91.84436199679621
 30
0.0
 11
343.5166490054992
 21
88.36093342623708
 31
0.0
  0
LINE
  5
286
330
70
100
AcDbEntity
  8
_HONTAI
 62
    18
420
        0
370
    25
100
AcDbLine
 10
343.5166490054992
 20
88.36093342623708
 30
0.0
 11
350.6494854782322
 21
91.84436199679621
 31
0.0
  0
LINE
  5
287
330
70
100
AcDbEntity
  8
_HONTAI
 62
    18
420
        0
370
    25
100
AcDbLine
 10
350.6494854782322
 20
91.84436199679621
 30
0.0
 11
343.9519946741051
 21
88.36093342623708
 31
0.0
  0
LINE
  5
288
330
70
100
AcDbEntity
  8
_HONTAI
 62
    18
420
        0
370
    25
100
AcDbLine
 10
343.9519946741051
 20
88.36093342623708
 30
0.0
 11
352.3082675786505
 21
91.84436199679621
 31
0.0
  0
LINE
  5
289
330
70
100
AcDbEntity
  8
_HONTAI
 62
    18
420
        0
370
    25
100
AcDbLine
 10
352.3082675786505
 20
91.84436199679621
 30
0.0
 11
344.2727627846196
 21
88.36093342623708
 31
0.0
  0
LINE
  5
28A
330
70
100
AcDbEntity
  8
_HONTAI
 62
    18
420
        0
370
    25
100
AcDbLine
 10
344.2727627846196
 20
88.36093342623708
 30
0.0
 11
353.5985709972491
 21
91.84436199679621
 31
0.0
  0
LINE
  5
28B
330
70
100
AcDbEntity
  8
_HONTAI
 62
    18
420
        0
370
    25
100
AcDbLine
 10
353.5985709972491
 20
91.84436199679621
 30
0.0
 11
344.4692069603453
 21
88.36093342623259
 31
0.0
  0
LINE
  5
28C
330
70
100
AcDbEntity
  8
_HONTAI
 62
    18
420
        0
370
    25
100
AcDbLine
 10
344.4692069603453
 20
88.36093342623259
 30
0.0
 11
354.4811905175742
 21
91.84436199679621
 31
0.0
  0
LINE
  5
28D
330
70
100
AcDbEntity
  8
_HONTAI
 62
    18
420
        0
370
    25
100
AcDbLine
 10
354.4811905175742
 20
91.84436199679621
 30
0.0
 11
344.5353583443402
 21
88.36093342623259
 31
0.0
  0
LINE
  5
28E
330
70
100
AcDbEntity
  8
_HONTAI
 62
    18
420
        0
370
    25
100
AcDbLine
 10
340.1810726311525
 20
91.84436199679621
 30
0.0
 11
342.0026774573925
 21
98.81121913791062
 31
0.0
  0
LINE
  5
28F
330
70
100
AcDbEntity
  8
_HONTAI
 62
    18
420
        0
370
    25
100
AcDbLine
 10
342.0026774573925
 20
98.81121913791062
 30
0.0
 11
341.4713760497396
 21
91.84436199679621
 31
0.0
  0
LINE
  5
290
330
70
100
AcDbEntity
  8
_HONTAI
 62
    18
420
        0
370
    25
100
AcDbLine
 10
341.4713760497396
 20
91.84436199679621
 30
0.0
 11
345.590538569027
 21
98.81121913791062
 31
0.0
  0
LINE
  5
291
330
70
100
AcDbEntity
  8
_HONTAI
 62
    18
420
        0
370
    25
100
AcDbLine
 10
345.590538569027
 20
98.81121913791062
 30
0.0
 11
344.0127776704798
 21
91.84436199679621
 31
0.0
  0
LINE
  5
292
330
70
100
AcDbEntity
  8
_HONTAI
 62
    18
420
        0
370
    25
100
AcDbLine
 10
344.0127776704798
 20
91.84436199679621
 30
0.0
 11
349.0140357954623
 21
98.81121913791062
 31
0.0
  0
LINE
  5
293
330
70
100
AcDbEntity
  8
_HONTAI
 62
    18
420
        0
370
    25
100
AcDbLine
 10
349.0140357954623
 20
98.81121913791062
 30
0.0
 11
346.4377548725378
 21
91.84436199679621
 31
0.0
  0
LINE
  5
294
330
70
100
AcDbEntity
  8
_HONTAI
 62
    18
420
        0
370
    25
100
AcDbLine
 10
346.4377548725378
 20
91.84436199679621
 30
0.0
 11
352.1691479058441
 21
98.81121913791062
 31
0.0
  0
LINE
  5
295
330
70
100
AcDbEntity
  8
_HONTAI
 62
    18
420
        0
370
    25
100
AcDbLine
 10
352.1691479058441
 20
98.81121913791062
 30
0.0
 11
348.6726259507303
 21
91.84436199679621
 31
0.0
  0
LINE
  5
296
330
70
100
AcDbEntity
  8
_HONTAI
 62
    18
420
        0
370
    25
100
AcDbLine
 10
348.6726259507303
 20
91.84436199679621
 30
0.0
 11
354.9600084152619
 21
98.81121913791062
 31
0.0
  0
LINE
  5
297
330
70
100
AcDbEntity
  8
_HONTAI
 62
    18
420
        0
370
    25
100
AcDbLine
 10
354.9600084152619
 20
98.81121913791062
 30
0.0
 11
350.6494854782322
 21
91.84436199679621
 31
0.0
  0
LINE
  5
298
330
70
100
AcDbEntity
  8
_HONTAI
 62
    18
420
        0
370
    25
100
AcDbLine
 10
350.6494854782322
 20
91.84436199679621
 30
0.0
 11
357.3018184393847
 21
98.81121913791062
 31
0.0
  0
LINE
  5
299
330
70
100
AcDbEntity
  8
_HONTAI
 62
    18
420
        0
370
    25
100
AcDbLine
 10
357.3018184393847
 20
98.81121913791062
 30
0.0
 11
352.3082675786505
 21
91.84436199679621
 31
0.0
  0
LINE
  5
29A
330
70
100
AcDbEntity
  8
_HONTAI
 62
    18
420
        0
370
    25
100
AcDbLine
 10
352.3082675786505
 20
91.84436199679621
 30
0.0
 11
359.1234232656401
 21
98.81121913791062
 31
0.0
  0
LINE
  5
29B
330
70
100
AcDbEntity
  8
_HONTAI
 62
    18
420
        0
370
    25
100
AcDbLine
 10
359.1234232656401
 20
98.81121913791062
 30
0.0
 11
353.5985709972491
 21
91.84436199679621
 31
0.0
  0
LINE
  5
29C
330
70
100
AcDbEntity
  8
_HONTAI
 62
    18
420
        0
370
    25
100
AcDbLine
 10
353.5985709972491
 20
91.84436199679621
 30
0.0
 11
360.3694743531563
 21
98.81121913791062
 31
0.0
  0
LINE
  5
29D
330
70
100
AcDbEntity
  8
_HONTAI
 62
    18
420
        0
370
    25
100
AcDbLine
 10
360.3694743531563
 20
98.81121913791062
 30
0.0
 11
354.4811905175742
 21
91.84436199679621
 31
0.0
  0
LINE
  5
29E
330
70
100
AcDbEntity
  8
_HONTAI
 62
    18
420
        0
370
    25
100
AcDbLine
 10
342.0026774573925
 20
98.81121913791062
 30
0.0
 11
345.77631459677
 21
126.6786477023689
 31
0.0
  0
LINE
  5
29F
330
70
100
AcDbEntity
  8
_HONTAI
 62
    18
420
        0
370
    25
100
AcDbLine
 10
342.0026774573925
 20
98.81121913791062
 30
0.0
 11
340.1810726311525
 21
126.6786477023689
 31
0.0
  0
LINE
  5
2A0
330
70
100
AcDbEntity
  8
_HONTAI
 62
    18
420
        0
370
    25
100
AcDbLine
 10
340.9371864102878
 20
88.36093342623708
 30
0.0
 11
340.1810726311525
 21
91.84436199679621
 31
0.0
  0
LINE
  5
2A1
330
70
100
AcDbEntity
  8
_HONTAI
 62
    18
420
        0
370
    25
100
AcDbLine
 10
354.4811905175742
 20
91.84436199679621
 30
0.0
 11
360.8927913317661
 21
98.81121913791062
 31
0.0
  0
LINE
  5
2A2
330
70
100
AcDbEntity
  8
_HONTAI
 62
    18
420
        0
370
    25
100
AcDbLine
 10
360.8927913317661
 20
98.81121913791062
 30
0.0
 11
354.9856440560189
 21
91.84436199679621
 31
0.0
  0
LINE
  5
2A3
330
70
100
AcDbEntity
  8
_HONTAI
 62
    18
420
        0
370
    25
100
AcDbLine
 10
345.77631459677
 20
126.6786477023689
 30
0.0
 11
345.590538569027
 21
98.81121913791062
 31
0.0
  0
LINE
  5
2A4
330
70
100
AcDbEntity
  8
_HONTAI
 62
    18
420
        0
370
    25
100
AcDbLine
 10
345.590538569027
 20
98.81121913791062
 30
0.0
 11
351.2015479665683
 21
126.6786477023689
 31
0.0
  0
LINE
  5
2A5
330
70
100
AcDbEntity
  8
_HONTAI
 62
    18
420
        0
370
    25
100
AcDbLine
 10
351.2015479665683
 20
126.6786477023689
 30
0.0
 11
349.0140357954623
 21
98.81121913791062
 31
0.0
  0
LINE
  5
2A6
330
70
100
AcDbEntity
  8
_HONTAI
 62
    18
420
        0
370
    25
100
AcDbLine
 10
349.0140357954623
 20
98.81121913791062
 30
0.0
 11
356.2919297699765
 21
126.6786477023689
 31
0.0
  0
LINE
  5
2A7
330
70
100
AcDbEntity
  8
_HONTAI
 62
    18
420
        0
370
    25
100
AcDbLine
 10
356.2919297699765
 20
126.6786477023689
 30
0.0
 11
352.1691479058441
 21
98.81121913791062
 31
0.0
  0
LINE
  5
2A8
330
70
100
AcDbEntity
  8
_HONTAI
 62
    18
420
        0
370
    25
100
AcDbLine
 10
352.1691479058441
 20
98.81121913791062
 30
0.0
 11
360.8927913317661
 21
126.6786477023689
 31
0.0
  0
LINE
  5
2A9
330
70
100
AcDbEntity
  8
_HONTAI
 62
    18
420
        0
370
    25
100
AcDbLine
 10
360.8927913317661
 20
126.6786477023689
 30
0.0
 11
354.9600084152619
 21
98.81121913791062
 31
0.0
  0
LINE
  5
2AA
330
70
100
AcDbEntity
  8
_HONTAI
 62
    18
420
        0
370
    25
100
AcDbLine
 10
354.9600084152619
 20
98.81121913791062
 30
0.0
 11
364.8643378014153
 21
126.6786477023689
 31
0.0
  0
LINE
  5
2AB
330
70
100
AcDbEntity
  8
_HONTAI
 62
    18
420
        0
370
    25
100
AcDbLine
 10
364.8643378014153
 20
126.6786477023689
 30
0.0
 11
357.3018184393847
 21
98.81121913791062
 31
0.0
  0
LINE
  5
2AC
330
70
100
AcDbEntity
  8
_HONTAI
 62
    18
420
        0
370
    25
100
AcDbLine
 10
357.3018184393847
 20
98.81121913791062
 30
0.0
 11
368.0858957492046
 21
126.6786477023689
 31
0.0
  0
LINE
  5
2AD
330
70
100
AcDbEntity
  8
_HONTAI
 62
    18
420
        0
370
    25
100
AcDbLine
 10
368.0858957492046
 20
126.6786477023689
 30
0.0
 11
359.1234232656401
 21
98.81121913791062
 31
0.0
  0
LINE
  5
2AE
330
70
100
AcDbEntity
  8
_HONTAI
 62
    18
420
        0
370
    25
100
AcDbLine
 10
359.1234232656401
 20
98.81121913791062
 30
0.0
 11
370.4595797670724
 21
126.6786477023689
 31
0.0
  0
LINE
  5
2AF
330
70
100
AcDbEntity
  8
_HONTAI
 62
    18
420
        0
370
    25
100
AcDbLine
 10
370.4595797670724
 20
126.6786477023689
 30
0.0
 11
360.3694743531563
 21
98.81121913791062
 31
0.0
  0
LINE
  5
2B0
330
70
100
AcDbEntity
  8
_HONTAI
 62
    18
420
        0
370
    25
100
AcDbLine
 10
360.3694743531563
 20
98.81121913791062
 30
0.0
 11
371.913266667128
 21
126.6786477023689
 31
0.0
  0
LINE
  5
2B1
330
70
100
AcDbEntity
  8
_HONTAI
 62
    18
420
        0
370
    25
100
AcDbLine
 10
371.913266667128
 20
126.6786477023689
 30
0.0
 11
360.8927913317661
 21
98.81121913791062
 31
0.0
  0
LINE
  5
2B2
330
70
100
AcDbEntity
  8
_HONTAI
 62
    18
420
        0
370
    25
100
AcDbLine
 10
360.8927913317661
 20
98.81121913791062
 30
0.0
 11
372.4027869088113
 21
126.6786477023689
 31
0.0
  0
LINE
  5
2B3
330
70
100
AcDbEntity
  8
_HONTAI
 62
    18
420
        0
370
    25
100
AcDbLine
 10
340.1810726311525
 20
126.6786477023689
 30
0.0
 11
342.9134798705393
 21
137.1289334140424
 31
0.0
  0
LINE
  5
2B4
330
70
100
AcDbEntity
  8
_HONTAI
 62
    18
420
        0
370
    25
100
AcDbLine
 10
342.9134798705393
 20
137.1289334140424
 30
0.0
 11
345.77631459677
 21
126.6786477023689
 31
0.0
  0
LINE
  5
2B5
330
70
100
AcDbEntity
  8
_HONTAI
 62
    18
420
        0
370
    25
100
AcDbLine
 10
345.77631459677
 20
126.6786477023689
 30
0.0
 11
348.2952715379913
 21
137.1289334140424
 31
0.0
  0
LINE
  5
2B6
330
70
100
AcDbEntity
  8
_HONTAI
 62
    18
420
        0
370
    25
100
AcDbLine
 10
348.2952715379913
 20
137.1289334140424
 30
0.0
 11
351.2015479665683
 21
126.6786477023689
 31
0.0
  0
LINE
  5
2B7
330
70
100
AcDbEntity
  8
_HONTAI
 62
    18
420
        0
370
    25
100
AcDbLine
 10
351.2015479665683
 20
126.6786477023689
 30
0.0
 11
353.4305173776417
 21
137.1289334140424
 31
0.0
  0
LINE
  5
2B8
330
70
100
AcDbEntity
  8
_HONTAI
 62
    18
420
        0
370
    25
100
AcDbLine
 10
353.4305173776417
 20
137.1289334140424
 30
0.0
 11
356.2919297699765
 21
126.6786477023689
 31
0.0
  0
LINE
  5
2B9
330
70
100
AcDbEntity
  8
_HONTAI
 62
    18
420
        0
370
    25
100
AcDbLine
 10
356.2919297699765
 20
126.6786477023689
 30
0.0
 11
358.1631855432116
 21
137.1289334140424
 31
0.0
  0
LINE
  5
2BA
330
70
100
AcDbEntity
  8
_HONTAI
 62
    18
420
        0
370
    25
100
AcDbLine
 10
358.1631855432116
 20
137.1289334140424
 30
0.0
 11
360.8927913317661
 21
126.6786477023689
 31
0.0
  0
LINE
  5
2BB
330
70
100
AcDbEntity
  8
_HONTAI
 62
    18
420
        0
370
    25
100
AcDbLine
 10
360.8927913317661
 20
126.6786477023689
 30
0.0
 11
362.3494763073417
 21
137.1289334140424
 31
0.0
  0
LINE
  5
2BC
330
70
100
AcDbEntity
  8
_HONTAI
 62
    18
420
        0
370
    25
100
AcDbLine
 10
362.3494763073417
 20
137.1289334140424
 30
0.0
 11
364.8643378014153
 21
126.6786477023689
 31
0.0
  0
LINE
  5
2BD
330
70
100
AcDbEntity
  8
_HONTAI
 62
    18
420
        0
370
    25
100
AcDbLine
 10
364.8643378014153
 20
126.6786477023689
 30
0.0
 11
365.8621913435179
 21
137.1289334140424
 31
0.0
  0
LINE
  5
2BE
330
70
100
AcDbEntity
  8
_HONTAI
 62
    18
420
        0
370
    25
100
AcDbLine
 10
365.8621913435179
 20
137.1289334140424
 30
0.0
 11
368.0858957492046
 21
126.6786477023689
 31
0.0
  0
LINE
  5
2BF
330
70
100
AcDbEntity
  8
_HONTAI
 62
    18
420
        0
370
    25
100
AcDbLine
 10
368.0858957492046
 20
126.6786477023689
 30
0.0
 11
368.5945985828957
 21
137.1289334140424
 31
0.0
  0
LINE
  5
2C0
330
70
100
AcDbEntity
  8
_HONTAI
 62
    18
420
        0
370
    25
100
AcDbLine
 10
368.5945985828957
 20
137.1289334140424
 30
0.0
 11
370.4595797670724
 21
126.6786477023689
 31
0.0
  0
LINE
  5
2C1
330
70
100
AcDbEntity
  8
_HONTAI
 62
    18
420
        0
370
    25
100
AcDbLine
 10
370.4595797670724
 20
126.6786477023689
 30
0.0
 11
370.4595797670724
 21
137.1289334140424
 31
0.0
  0
LINE
  5
2C2
330
70
100
AcDbEntity
  8
_HONTAI
 62
    18
420
        0
370
    25
100
AcDbLine
 10
370.4595797670724
 20
137.1289334140424
 30
0.0
 11
371.913266667128
 21
126.6786477023689
 31
0.0
  0
LINE
  5
2C3
330
70
100
AcDbEntity
  8
_HONTAI
 62
    18
420
        0
370
    25
100
AcDbLine
 10
371.913266667128
 20
126.6786477023689
 30
0.0
 11
371.5319297661681
 21
137.1289334140443
 31
0.0
  0
LINE
  5
2C4
330
70
100
AcDbEntity
  8
_HONTAI
 62
    18
420
        0
370
    25
100
AcDbLine
 10
340.1810726311525
 20
151.0626476962725
 30
0.0
 11
342.9134798705393
 21
137.1289334140424
 31
0.0
  0
LINE
  5
2C5
330
70
100
AcDbEntity
  8
_HONTAI
 62
    18
420
        0
370
    25
100
AcDbLine
 10
342.9134798705393
 20
137.1289334140424
 30
0.0
 11
342.5339788650697
 21
151.0626476962725
 31
0.0
  0
LINE
  5
2C6
330
70
100
AcDbEntity
  8
_HONTAI
 62
    18
420
        0
370
    25
100
AcDbLine
 10
342.5339788650697
 20
151.0626476962725
 30
0.0
 11
348.2952715379913
 21
137.1289334140424
 31
0.0
  0
LINE
  5
2C7
330
70
100
AcDbEntity
  8
_HONTAI
 62
    18
420
        0
370
    25
100
AcDbLine
 10
348.2952715379913
 20
137.1289334140424
 30
0.0
 11
347.1682994675936
 21
151.0626476962725
 31
0.0
  0
LINE
  5
2C8
330
70
100
AcDbEntity
  8
_HONTAI
 62
    18
420
        0
370
    25
100
AcDbLine
 10
347.1682994675936
 20
151.0626476962725
 30
0.0
 11
353.4305173776417
 21
137.1289334140424
 31
0.0
  0
LINE
  5
2C9
330
70
100
AcDbEntity
  8
_HONTAI
 62
    18
420
        0
370
    25
100
AcDbLine
 10
353.4305173776417
 20
137.1289334140424
 30
0.0
 11
351.590316718411
 21
151.0626476962725
 31
0.0
  0
LINE
  5
2CA
330
70
100
AcDbEntity
  8
_HONTAI
 62
    18
420
        0
370
    25
100
AcDbLine
 10
351.590316718411
 20
151.0626476962725
 30
0.0
 11
358.1631855432116
 21
137.1289334140424
 31
0.0
  0
LINE
  5
2CB
330
70
100
AcDbEntity
  8
_HONTAI
 62
    18
420
        0
370
    25
100
AcDbLine
 10
358.1631855432116
 20
137.1289334140424
 30
0.0
 11
355.6656698609822
 21
151.0626476962725
 31
0.0
  0
LINE
  5
2CC
330
70
100
AcDbEntity
  8
_HONTAI
 62
    18
420
        0
370
    25
100
AcDbLine
 10
355.6656698609822
 20
151.0626476962725
 30
0.0
 11
362.3494763073417
 21
137.1289334140424
 31
0.0
  0
LINE
  5
2CD
330
70
100
AcDbEntity
  8
_HONTAI
 62
    18
420
        0
370
    25
100
AcDbLine
 10
362.3494763073417
 20
137.1289334140424
 30
0.0
 11
359.2705313523116
 21
151.0626476962725
 31
0.0
  0
LINE
  5
2CE
330
70
100
AcDbEntity
  8
_HONTAI
 62
    18
420
        0
370
    25
100
AcDbLine
 10
359.2705313523116
 20
151.0626476962725
 30
0.0
 11
365.8621913435179
 21
137.1289334140424
 31
0.0
  0
LINE
  5
2CF
330
70
100
AcDbEntity
  8
_HONTAI
 62
    18
420
        0
370
    25
100
AcDbLine
 10
365.8621913435179
 20
137.1289334140424
 30
0.0
 11
362.2953693001333
 21
151.0626476962725
 31
0.0
  0
LINE
  5
2D0
330
70
100
AcDbEntity
  8
_HONTAI
 62
    18
420
        0
370
    25
100
AcDbLine
 10
362.2953693001333
 20
151.0626476962725
 30
0.0
 11
368.5945985828957
 21
137.1289334140424
 31
0.0
  0
LINE
  5
2D1
330
70
100
AcDbEntity
  8
_HONTAI
 62
    18
420
        0
370
    25
100
AcDbLine
 10
368.5945985828957
 20
137.1289334140424
 30
0.0
 11
365.1650084899503
 21
149.2381621489148
 31
0.0
  0
LINE
  5
2D2
330
70
100
AcDbEntity
  8
_HONTAI
 62
    18
420
        0
370
    25
100
AcDbLine
 10
365.5265568206664
 20
148.9568001934598
 30
0.0
 11
370.4595797670724
 21
137.1289334140424
 31
0.0
  0
LINE
  5
2D3
330
70
100
AcDbEntity
  8
_HONTAI
 62
    18
420
        0
370
    25
100
AcDbLine
 10
370.4595797670724
 20
137.1289334140424
 30
0.0
 11
367.3117318809643
 21
147.567552053923
 31
0.0
  0
LINE
  5
2D4
330
70
100
AcDbEntity
  8
_HONTAI
 62
    18
420
        0
370
    25
100
AcDbLine
 10
367.6930381075377
 20
147.2708142282398
 30
0.0
 11
371.5319297661681
 21
137.1289334140424
 31
0.0
  0
LINE
  5
2D5
330
70
100
AcDbEntity
  8
_HONTAI
 62
    18
420
        0
370
    25
100
AcDbLine
 10
340.1810726311525
 20
158.0295048373882
 30
0.0
 11
342.5339788650697
 21
151.0626476962725
 31
0.0
  0
LINE
  5
2D6
330
70
100
AcDbEntity
  8
_HONTAI
 62
    18
420
        0
370
    25
100
AcDbLine
 10
342.5339788650697
 20
151.0626476962725
 30
0.0
 11
343.3567505035414
 21
158.0295048373882
 31
0.0
  0
LINE
  5
2D7
330
70
100
AcDbEntity
  8
_HONTAI
 62
    18
420
        0
370
    25
100
AcDbLine
 10
343.3567505035414
 20
158.0295048373882
 30
0.0
 11
347.1682994675936
 21
151.0626476962725
 31
0.0
  0
LINE
  5
2D8
330
70
100
AcDbEntity
  8
_HONTAI
 62
    18
420
        0
370
    25
100
AcDbLine
 10
347.1682994675936
 20
151.0626476962725
 30
0.0
 11
346.4359370107394
 21
158.0295048373882
 31
0.0
  0
LINE
  5
2D9
330
70
100
AcDbEntity
  8
_HONTAI
 62
    18
420
        0
370
    25
100
AcDbLine
 10
346.4359370107394
 20
158.0295048373882
 30
0.0
 11
351.590316718411
 21
151.0626476962725
 31
0.0
  0
LINE
  5
2DA
330
70
100
AcDbEntity
  8
_HONTAI
 62
    18
420
        0
370
    25
100
AcDbLine
 10
351.590316718411
 20
151.0626476962725
 30
0.0
 11
349.3250726288627
 21
158.0295048373882
 31
0.0
  0
LINE
  5
2DB
330
70
100
AcDbEntity
  8
_HONTAI
 62
    18
420
        0
370
    25
100
AcDbLine
 10
349.3250726288627
 20
158.0295048373882
 30
0.0
 11
355.6656698609822
 21
151.0626476962725
 31
0.0
  0
LINE
  5
2DC
330
70
100
AcDbEntity
  8
_HONTAI
 62
    18
420
        0
370
    25
100
AcDbLine
 10
351.9363724341671
 20
158.0295048373882
 30
0.0
 11
359.2705313523116
 21
151.0626476962725
 31
0.0
  0
LINE
  5
2DD
330
70
100
AcDbEntity
  8
_HONTAI
 62
    18
420
        0
370
    25
100
AcDbLine
 10
359.2705313523116
 20
151.0626476962725
 30
0.0
 11
354.6133188874796
 21
157.4496342197447
 31
0.0
  0
LINE
  5
2DE
330
70
100
AcDbEntity
  8
_HONTAI
 62
    18
420
        0
370
    25
100
AcDbLine
 10
357.2728121921478
 20
155.3799794235381
 30
0.0
 11
362.2953693001333
 21
151.0626476962725
 31
0.0
  0
LINE
  5
2DF
330
70
100
AcDbEntity
  8
_HONTAI
 62
    18
420
        0
370
    25
100
AcDbLine
 10
362.2953693001333
 20
151.0626476962725
 30
0.0
 11
361.0635437610846
 21
152.4299792265032
 31
0.0
  0
LINE
  5
2E0
330
70
100
AcDbEntity
  8
_HONTAI
 62
    18
420
        0
370
    25
100
AcDbLine
 10
340.1810726311525
 20
158.0295048373882
 30
0.0
 11
340.9097145616602
 21
161.5129334079461
 31
0.0
  0
LINE
  5
2E1
330
70
100
AcDbEntity
  8
_HONTAI
 62
    18
420
        0
370
    25
100
AcDbLine
 10
340.9097145616602
 20
161.5129334079461
 30
0.0
 11
343.3567505035414
 21
158.0295048373882
 31
0.0
  0
LINE
  5
2E2
330
70
100
AcDbEntity
  8
_HONTAI
 62
    18
420
        0
370
    25
100
AcDbLine
 10
343.3567505035414
 20
158.0295048373882
 30
0.0
 11
342.3448590063116
 21
161.5129334079461
 31
0.0
  0
LINE
  5
2E3
330
70
100
AcDbEntity
  8
_HONTAI
 62
    18
420
        0
370
    25
100
AcDbLine
 10
342.3448590063116
 20
161.5129334079461
 30
0.0
 11
346.4359370107394
 21
158.0295048373882
 31
0.0
  0
LINE
  5
2E4
330
70
100
AcDbEntity
  8
_HONTAI
 62
    18
420
        0
370
    25
100
AcDbLine
 10
346.4359370107394
 20
158.0295048373882
 30
0.0
 11
343.7142578968822
 21
161.5129334079461
 31
0.0
  0
LINE
  5
2E5
330
70
100
AcDbEntity
  8
_HONTAI
 62
    18
420
        0
370
    25
100
AcDbLine
 10
343.7142578968822
 20
161.5129334079461
 30
0.0
 11
349.3250726288627
 21
158.0295048373882
 31
0.0
  0
LINE
  5
2E6
330
70
100
AcDbEntity
  8
_HONTAI
 62
    18
420
        0
370
    25
100
AcDbLine
 10
349.3250726288627
 20
158.0295048373882
 30
0.0
 11
344.9763027410324
 21
161.5129334079461
 31
0.0
  0
LINE
  5
2E7
330
70
100
AcDbEntity
  8
_HONTAI
 62
    18
420
        0
370
    25
100
AcDbLine
 10
344.9763027410324
 20
161.5129334079461
 30
0.0
 11
351.9363724341671
 21
158.0295048373882
 31
0.0
  0
LINE
  5
2E8
330
70
100
AcDbEntity
  8
_HONTAI
 62
    18
420
        0
370
    25
100
AcDbLine
 10
351.9363724341671
 20
158.0295048373882
 30
0.0
 11
346.0926469448031
 21
161.5129334079461
 31
0.0
  0
LINE
  5
2E9
330
70
100
AcDbEntity
  8
_HONTAI
 62
    18
420
        0
370
    25
100
AcDbLine
 10
346.0926469448031
 20
161.5129334079461
 30
0.0
 11
353.4698373965075
 21
158.3395074704164
 31
0.0
  0
LINE
  5
2EA
330
70
100
AcDbEntity
  8
_HONTAI
 62
    18
420
        0
370
    25
100
AcDbLine
 10
353.3308601730521
 20
158.447661484786
 30
0.0
 11
347.0293709544521
 21
161.5129334079461
 31
0.0
  0
LINE
  5
2EB
330
70
100
AcDbEntity
  8
_HONTAI
 62
    18
420
        0
370
    25
100
AcDbLine
 10
347.0293709544521
 20
161.5129334079461
 30
0.0
 11
351.735162572943
 21
159.6894556211236
 31
0.0
  0
LINE
  5
2EC
330
70
100
AcDbEntity
  8
_HONTAI
 62
    18
420
        0
370
    25
100
AcDbLine
 10
351.3245111683596
 20
160.0090302737707
 30
0.0
 11
347.7580128849501
 21
161.5129334079461
 31
0.0
  0
LINE
  5
2ED
330
70
100
AcDbEntity
  8
_HONTAI
 62
    18
420
        0
370
    25
100
AcDbLine
 10
347.7580128849501
 20
161.5129334079461
 30
0.0
 11
350.8171972030637
 21
160.4038290798514
 31
0.0
  0
LINE
  5
2EE
330
70
100
AcDbEntity
  8
_HONTAI
 62
    18
420
        0
370
    25
100
AcDbLine
 10
350.4890092792987
 20
160.6592295011624
 30
0.0
 11
348.2564333199576
 21
161.5129334079461
 31
0.0
  0
LINE
  5
2EF
330
70
100
AcDbEntity
  8
_HONTAI
 62
    18
420
        0
370
    25
100
AcDbLine
 10
348.2564333199576
 20
161.5129334079461
 30
0.0
 11
350.3231980825604
 21
160.788266087936
 31
0.0
  0
LINE
  5
2F0
330
70
100
AcDbEntity
  8
_HONTAI
 62
    18
420
        0
370
    25
100
AcDbLine
 10
350.1508677989348
 20
160.9223759190908
 30
0.0
 11
348.5094880067575
 21
161.5129334079461
 31
0.0
  0
LINE
  5
2F1
330
70
100
AcDbEntity
  8
_HONTAI
 62
    18
420
        0
370
    25
100
AcDbLine
 10
348.5094880067575
 20
161.5129334079461
 30
0.0
 11
350.1124173522839
 21
160.9522985931503
 31
0.0
  0
LINE
  5
2F2
330
70
100
AcDbEntity
  8
_HONTAI
 62
    18
420
        0
370
    25
100
AcDbLine
 10
356.7572739840799
 20
209.2881808658211
 30
0.0
 11
344.7285086476702
 21
230.1226135808161
 31
0.0
  0
LINE
  5
2F3
330
70
100
AcDbEntity
  8
_HONTAI
 62
    18
420
        0
370
    25
100
AcDbLine
 10
386.9405059639145
 20
213.4408323831508
 30
0.0
 11
397.6782851479918
 21
203.5510247022607
 31
0.0
  0
LINE
  5
2F4
330
70
100
AcDbEntity
  8
_HONTAI
 62
    18
420
        0
370
    25
100
AcDbLine
 10
358.3356464416967
 20
208.992759575359
 30
0.0
 11
365.877490527627
 21
213.347045288556
 31
0.0
  0
LINE
  5
2F5
330
70
100
AcDbEntity
  8
_HONTAI
 62
    18
420
        0
370
    25
100
AcDbLine
 10
394.9116464325439
 20
145.6412692535524
 30
0.0
 11
398.6825684755073
 21
147.8184121101494
 31
0.0
  0
LINE
  5
2F6
330
70
100
AcDbEntity
  8
_HONTAI
 62
    18
420
        0
370
    25
100
AcDbLine
 10
407.7869293829365
 20
165.141767868341
 30
0.0
 11
405.9910670933441
 21
156.0602926003589
 31
0.0
  0
LINE
  5
2F7
330
70
100
AcDbEntity
  8
_HONTAI
 62
    18
420
        0
370
    25
100
AcDbLine
 10
405.9910670933441
 20
156.0602926003589
 30
0.0
 11
398.6825684755119
 21
147.8184121101507
 31
0.0
  0
LINE
  5
2F8
330
70
100
AcDbEntity
  8
_HONTAI
 62
    18
420
        0
370
    25
100
AcDbLine
 10
403.6576124124174
 20
194.9362403704676
 30
0.0
 11
407.7869293829365
 21
165.141767868341
 31
0.0
  0
LINE
  5
2F9
330
70
100
AcDbEntity
  8
_HONTAI
 62
    18
420
        0
370
    25
100
AcDbLine
 10
365.877490527627
 20
213.347045288556
 30
0.0
 11
375.9152333074244
 21
215.1200219387003
 31
0.0
  0
LINE
  5
2FA
330
70
100
AcDbEntity
  8
_HONTAI
 62
    18
420
        0
370
    25
100
AcDbLine
 10
375.9152333074244
 20
215.1200219387003
 30
0.0
 11
386.9405059639145
 21
213.4408323831508
 31
0.0
  0
LINE
  5
2FB
330
70
100
AcDbEntity
  8
_HONTAI
 62
    18
420
        0
370
    25
100
AcDbLine
 10
397.6782851479918
 20
203.5510247022645
 30
0.0
 11
403.6576124124174
 21
194.9362403704676
 31
0.0
  0
LINE
  5
2FC
330
70
100
AcDbEntity
  8
_HONTAI
 62
    18
420
        0
370
    25
100
AcDbLine
 10
357.8131321561105
 20
209.8977808656703
 30
0.0
 11
361.5840541990785
 21
212.0749237222693
 31
0.0
  0
LINE
  5
2FD
330
70
100
AcDbEntity
  8
_HONTAI
 62
    18
420
        0
370
    25
100
AcDbLine
 10
361.5840541990785
 20
212.0749237222693
 30
0.0
 11
362.0386918878876
 21
211.1307138605369
 31
0.0
  0
LINE
  5
2FE
330
70
100
AcDbEntity
  8
_HONTAI
 62
    18
420
        0
370
    25
100
AcDbLine
 10
394.2873676863551
 20
149.3031585972225
 30
0.0
 11
395.5664601734282
 21
146.0193261431213
 31
0.0
  0
LINE
  5
2FF
330
70
100
AcDbEntity
  8
_HONTAI
 62
    18
420
        0
370
    25
100
AcDbLine
 10
394.2873676863551
 20
149.3031585972225
 30
0.0
 11
396.2013777301425
 21
146.3858959654041
 31
0.0
  0
LINE
  5
300
330
70
100
AcDbEntity
  8
_HONTAI
 62
    18
420
        0
370
    25
100
AcDbLine
 10
396.2013777301425
 20
146.3858959654041
 30
0.0
 11
396.4882860511382
 21
150.5738594075897
 31
0.0
  0
LINE
  5
301
330
70
100
AcDbEntity
  8
_HONTAI
 62
    18
420
        0
370
    25
100
AcDbLine
 10
396.4882860511382
 20
150.5738594075897
 30
0.0
 11
396.7971074540256
 21
146.7298406818512
 31
0.0
  0
LINE
  5
302
330
70
100
AcDbEntity
  8
_HONTAI
 62
    18
420
        0
370
    25
100
AcDbLine
 10
396.7971074540256
 20
146.7298406818512
 30
0.0
 11
398.5883779117127
 21
151.7863480086216
 31
0.0
  0
LINE
  5
303
330
70
100
AcDbEntity
  8
_HONTAI
 62
    18
420
        0
370
    25
100
AcDbLine
 10
398.5883779117127
 20
151.7863480086216
 30
0.0
 11
397.3355483988435
 21
147.0407097062877
 31
0.0
  0
LINE
  5
304
330
70
100
AcDbEntity
  8
_HONTAI
 62
    18
420
        0
370
    25
100
AcDbLine
 10
397.3355483988435
 20
147.0407097062877
 30
0.0
 11
400.5238330396079
 21
152.903783547715
 31
0.0
  0
LINE
  5
305
330
70
100
AcDbEntity
  8
_HONTAI
 62
    18
420
        0
370
    25
100
AcDbLine
 10
400.5238330396079
 20
152.903783547715
 30
0.0
 11
397.8003403089942
 21
147.3090574407263
 31
0.0
  0
LINE
  5
306
330
70
100
AcDbEntity
  8
_HONTAI
 62
    18
420
        0
370
    25
100
AcDbLine
 10
397.8003403089942
 20
147.3090574407263
 30
0.0
 11
402.2358436101441
 21
153.8922133114656
 31
0.0
  0
LINE
  5
307
330
70
100
AcDbEntity
  8
_HONTAI
 62
    18
420
        0
370
    25
100
AcDbLine
 10
402.2358436101441
 20
153.8922133114656
 30
0.0
 11
398.177360717434
 21
147.526730275029
 31
0.0
  0
LINE
  5
308
330
70
100
AcDbEntity
  8
_HONTAI
 62
    18
420
        0
370
    25
100
AcDbLine
 10
398.177360717434
 20
147.526730275029
 30
0.0
 11
403.6723910484516
 21
154.7216043616773
 31
0.0
  0
LINE
  5
309
330
70
100
AcDbEntity
  8
_HONTAI
 62
    18
420
        0
370
    25
100
AcDbLine
 10
403.6723910484516
 20
154.7216043616773
 30
0.0
 11
398.4551540498638
 21
147.6871143302901
 31
0.0
  0
LINE
  5
30A
330
70
100
AcDbEntity
  8
_HONTAI
 62
    18
420
        0
370
    25
100
AcDbLine
 10
398.4551540498638
 20
147.6871143302901
 30
0.0
 11
404.7898265875398
 21
155.3667560709753
 31
0.0
  0
LINE
  5
30B
330
70
100
AcDbEntity
  8
_HONTAI
 62
    18
420
        0
370
    25
100
AcDbLine
 10
404.7898265875398
 20
155.3667560709753
 30
0.0
 11
398.6252796964665
 21
147.7853364181491
 31
0.0
  0
LINE
  5
30C
330
70
100
AcDbEntity
  8
_HONTAI
 62
    18
420
        0
370
    25
100
AcDbLine
 10
398.6252796964665
 20
147.7853364181491
 30
0.0
 11
405.55419751402
 21
155.8080658311347
 31
0.0
  0
LINE
  5
30D
330
70
100
AcDbEntity
  8
_HONTAI
 62
    18
420
        0
370
    25
100
AcDbLine
 10
405.55419751402
 20
155.8080658311347
 30
0.0
 11
398.6825684755073
 21
147.8184121101494
 31
0.0
  0
LINE
  5
30E
330
70
100
AcDbEntity
  8
_HONTAI
 62
    18
420
        0
370
    25
100
AcDbLine
 10
393.1699321472669
 20
148.6580068879283
 30
0.0
 11
391.2640596318906
 21
155.6022845697912
 31
0.0
  0
LINE
  5
30F
330
70
100
AcDbEntity
  8
_HONTAI
 62
    18
420
        0
370
    25
100
AcDbLine
 10
391.2640596318906
 20
155.6022845697912
 30
0.0
 11
394.2873676863551
 21
149.3031585972225
 31
0.0
  0
LINE
  5
310
330
70
100
AcDbEntity
  8
_HONTAI
 62
    18
420
        0
370
    25
100
AcDbLine
 10
394.2873676863551
 20
149.3031585972225
 30
0.0
 11
394.3712384998175
 21
157.3962151256098
 31
0.0
  0
LINE
  5
311
330
70
100
AcDbEntity
  8
_HONTAI
 62
    18
420
        0
370
    25
100
AcDbLine
 10
394.3712384998175
 20
157.3962151256098
 30
0.0
 11
396.4882860511382
 21
150.5738594075897
 31
0.0
  0
LINE
  5
312
330
70
100
AcDbEntity
  8
_HONTAI
 62
    18
420
        0
370
    25
100
AcDbLine
 10
396.4882860511382
 20
150.5738594075897
 30
0.0
 11
397.3360740676985
 21
159.1079637388258
 31
0.0
  0
LINE
  5
313
330
70
100
AcDbEntity
  8
_HONTAI
 62
    18
420
        0
370
    25
100
AcDbLine
 10
397.3360740676985
 20
159.1079637388258
 30
0.0
 11
398.5883779117127
 21
151.7863480086216
 31
0.0
  0
LINE
  5
314
330
70
100
AcDbEntity
  8
_HONTAI
 62
    18
420
        0
370
    25
100
AcDbLine
 10
398.5883779117127
 20
151.7863480086216
 30
0.0
 11
400.0684813070756
 21
160.6855197940158
 31
0.0
  0
LINE
  5
315
330
70
100
AcDbEntity
  8
_HONTAI
 62
    18
420
        0
370
    25
100
AcDbLine
 10
400.0684813070756
 20
160.6855197940158
 30
0.0
 11
400.5238330396079
 21
152.903783547715
 31
0.0
  0
LINE
  5
316
330
70
100
AcDbEntity
  8
_HONTAI
 62
    18
420
        0
370
    25
100
AcDbLine
 10
400.5238330396079
 20
152.903783547715
 30
0.0
 11
402.485437406651
 21
162.0809500487247
 31
0.0
  0
LINE
  5
317
330
70
100
AcDbEntity
  8
_HONTAI
 62
    18
420
        0
370
    25
100
AcDbLine
 10
402.485437406651
 20
162.0809500487247
 30
0.0
 11
402.2358436101441
 21
153.8922133114656
 31
0.0
  0
LINE
  5
318
330
70
100
AcDbEntity
  8
_HONTAI
 62
    18
420
        0
370
    25
100
AcDbLine
 10
402.2358436101441
 20
153.8922133114656
 30
0.0
 11
404.5135043783753
 21
163.2518550607845
 31
0.0
  0
LINE
  5
319
330
70
100
AcDbEntity
  8
_HONTAI
 62
    18
420
        0
370
    25
100
AcDbLine
 10
404.5135043783753
 20
163.2518550607845
 30
0.0
 11
403.6723910484516
 21
154.7216043616773
 31
0.0
  0
LINE
  5
31A
330
70
100
AcDbEntity
  8
_HONTAI
 62
    18
420
        0
370
    25
100
AcDbLine
 10
403.6723910484516
 20
154.7216043616773
 30
0.0
 11
406.0910604335691
 21
164.1626574739134
 31
0.0
  0
LINE
  5
31B
330
70
100
AcDbEntity
  8
_HONTAI
 62
    18
420
        0
370
    25
100
AcDbLine
 10
406.0910604335691
 20
164.1626574739134
 30
0.0
 11
404.7898265875398
 21
155.3667560709753
 31
0.0
  0
LINE
  5
31C
330
70
100
AcDbEntity
  8
_HONTAI
 62
    18
420
        0
370
    25
100
AcDbLine
 10
404.7898265875398
 20
155.3667560709753
 30
0.0
 11
407.1701723297717
 21
164.7856830176671
 31
0.0
  0
LINE
  5
31D
330
70
100
AcDbEntity
  8
_HONTAI
 62
    18
420
        0
370
    25
100
AcDbLine
 10
407.1701723297717
 20
164.7856830176671
 30
0.0
 11
405.55419751402
 21
155.8080658311347
 31
0.0
  0
LINE
  5
31E
330
70
100
AcDbEntity
  8
_HONTAI
 62
    18
420
        0
370
    25
100
AcDbLine
 10
391.2640596318906
 20
155.6022845697912
 30
0.0
 11
380.5984109770333
 21
181.6230042144508
 31
0.0
  0
LINE
  5
31F
330
70
100
AcDbEntity
  8
_HONTAI
 62
    18
420
        0
370
    25
100
AcDbLine
 10
391.2640596318906
 20
155.6022845697912
 30
0.0
 11
375.7527892944789
 21
178.8253832316405
 31
0.0
  0
LINE
  5
320
330
70
100
AcDbEntity
  8
_HONTAI
 62
    18
420
        0
370
    25
100
AcDbLine
 10
395.5664601734282
 20
146.0193261431213
 30
0.0
 11
393.1699321472669
 21
148.6580068879283
 31
0.0
  0
LINE
  5
321
330
70
100
AcDbEntity
  8
_HONTAI
 62
    18
420
        0
370
    25
100
AcDbLine
 10
405.55419751402
 20
155.8080658311347
 30
0.0
 11
407.6233781274812
 21
165.0473415069755
 31
0.0
  0
LINE
  5
322
330
70
100
AcDbEntity
  8
_HONTAI
 62
    18
420
        0
370
    25
100
AcDbLine
 10
407.6233781274812
 20
165.0473415069755
 30
0.0
 11
405.9910670933441
 21
156.0602926003589
 31
0.0
  0
LINE
  5
323
330
70
100
AcDbEntity
  8
_HONTAI
 62
    18
420
        0
370
    25
100
AcDbLine
 10
380.5984109770333
 20
181.6230042144508
 30
0.0
 11
394.3712384998175
 21
157.3962151256098
 31
0.0
  0
LINE
  5
324
330
70
100
AcDbEntity
  8
_HONTAI
 62
    18
420
        0
370
    25
100
AcDbLine
 10
394.3712384998175
 20
157.3962151256098
 30
0.0
 11
385.2968008967374
 21
184.3356208993499
 31
0.0
  0
LINE
  5
325
330
70
100
AcDbEntity
  8
_HONTAI
 62
    18
420
        0
370
    25
100
AcDbLine
 10
385.2968008967374
 20
184.3356208993499
 30
0.0
 11
397.3360740676985
 21
159.1079637388258
 31
0.0
  0
LINE
  5
326
330
70
100
AcDbEntity
  8
_HONTAI
 62
    18
420
        0
370
    25
100
AcDbLine
 10
397.3360740676985
 20
159.1079637388258
 30
0.0
 11
389.7052008534485
 21
186.8808118010556
 31
0.0
  0
LINE
  5
327
330
70
100
AcDbEntity
  8
_HONTAI
 62
    18
420
        0
370
    25
100
AcDbLine
 10
389.7052008534485
 20
186.8808118010556
 30
0.0
 11
400.0684813070756
 21
160.6855197940158
 31
0.0
  0
LINE
  5
328
330
70
100
AcDbEntity
  8
_HONTAI
 62
    18
420
        0
370
    25
100
AcDbLine
 10
400.0684813070756
 20
160.6855197940158
 30
0.0
 11
393.6896638452537
 21
189.1812425819472
 31
0.0
  0
LINE
  5
329
330
70
100
AcDbEntity
  8
_HONTAI
 62
    18
420
        0
370
    25
100
AcDbLine
 10
402.485437406651
 20
162.0809500487247
 30
0.0
 11
397.1291239802816
 21
191.1670158167731
 31
0.0
  0
LINE
  5
32A
330
70
100
AcDbEntity
  8
_HONTAI
 62
    18
420
        0
370
    25
100
AcDbLine
 10
397.1291239802816
 20
191.1670158167731
 30
0.0
 11
404.5135043783753
 21
163.2518550607845
 31
0.0
  0
LINE
  5
32B
330
70
100
AcDbEntity
  8
_HONTAI
 62
    18
420
        0
370
    25
100
AcDbLine
 10
404.5135043783753
 20
163.2518550607845
 30
0.0
 11
399.9190750028297
 21
192.7777947906668
 31
0.0
  0
LINE
  5
32C
330
70
100
AcDbEntity
  8
_HONTAI
 62
    18
420
        0
370
    25
100
AcDbLine
 10
399.9190750028297
 20
192.7777947906668
 30
0.0
 11
406.0910604335691
 21
164.1626574739134
 31
0.0
  0
LINE
  5
32D
330
70
100
AcDbEntity
  8
_HONTAI
 62
    18
420
        0
370
    25
100
AcDbLine
 10
406.0910604335691
 20
164.1626574739134
 30
0.0
 11
401.974745662861
 21
193.9646367996008
 31
0.0
  0
LINE
  5
32E
330
70
100
AcDbEntity
  8
_HONTAI
 62
    18
420
        0
370
    25
100
AcDbLine
 10
401.974745662861
 20
193.9646367996008
 30
0.0
 11
407.1701723297717
 21
164.7856830176671
 31
0.0
  0
LINE
  5
32F
330
70
100
AcDbEntity
  8
_HONTAI
 62
    18
420
        0
370
    25
100
AcDbLine
 10
407.1701723297717
 20
164.7856830176671
 30
0.0
 11
403.2336754474563
 21
194.6914802496246
 31
0.0
  0
LINE
  5
330
330
70
100
AcDbEntity
  8
_HONTAI
 62
    18
420
        0
370
    25
100
AcDbLine
 10
403.2336754474563
 20
194.6914802496246
 30
0.0
 11
407.6233781274812
 21
165.0473415069755
 31
0.0
  0
LINE
  5
331
330
70
100
AcDbEntity
  8
_HONTAI
 62
    18
420
        0
370
    25
100
AcDbLine
 10
407.6233781274812
 20
165.0473415069755
 30
0.0
 11
403.6576124124174
 21
194.9362403704676
 31
0.0
  0
LINE
  5
332
330
70
100
AcDbEntity
  8
_HONTAI
 62
    18
420
        0
370
    25
100
AcDbLine
 10
375.7527892944789
 20
178.8253832316405
 30
0.0
 11
372.8939805214448
 21
189.2417997544514
 31
0.0
  0
LINE
  5
333
330
70
100
AcDbEntity
  8
_HONTAI
 62
    18
420
        0
370
    25
100
AcDbLine
 10
372.8939805214448
 20
189.2417997544514
 30
0.0
 11
380.5984109770333
 21
181.6230042144508
 31
0.0
  0
LINE
  5
334
330
70
100
AcDbEntity
  8
_HONTAI
 62
    18
420
        0
370
    25
100
AcDbLine
 10
380.5984109770333
 20
181.6230042144508
 30
0.0
 11
377.554748823335
 21
191.9326955881748
 31
0.0
  0
LINE
  5
335
330
70
100
AcDbEntity
  8
_HONTAI
 62
    18
420
        0
370
    25
100
AcDbLine
 10
377.554748823335
 20
191.9326955881748
 30
0.0
 11
385.2968008967374
 21
184.3356208993499
 31
0.0
  0
LINE
  5
336
330
70
100
AcDbEntity
  8
_HONTAI
 62
    18
420
        0
370
    25
100
AcDbLine
 10
385.2968008967374
 20
184.3356208993499
 30
0.0
 11
382.0020021751494
 21
194.5003185080001
 31
0.0
  0
LINE
  5
337
330
70
100
AcDbEntity
  8
_HONTAI
 62
    18
420
        0
370
    25
100
AcDbLine
 10
382.0020021751494
 20
194.5003185080001
 30
0.0
 11
389.7052008534485
 21
186.8808118010556
 31
0.0
  0
LINE
  5
338
330
70
100
AcDbEntity
  8
_HONTAI
 62
    18
420
        0
370
    25
100
AcDbLine
 10
389.7052008534485
 20
186.8808118010556
 30
0.0
 11
386.1006130342155
 21
196.8666525907863
 31
0.0
  0
LINE
  5
339
330
70
100
AcDbEntity
  8
_HONTAI
 62
    18
420
        0
370
    25
100
AcDbLine
 10
386.1006130342155
 20
196.8666525907863
 30
0.0
 11
393.6896638452537
 21
189.1812425819472
 31
0.0
  0
LINE
  5
33A
330
70
100
AcDbEntity
  8
_HONTAI
 62
    18
420
        0
370
    25
100
AcDbLine
 10
393.6896638452537
 20
189.1812425819472
 30
0.0
 11
389.7260471835764
 21
198.9597979728488
 31
0.0
  0
LINE
  5
33B
330
70
100
AcDbEntity
  8
_HONTAI
 62
    18
420
        0
370
    25
100
AcDbLine
 10
389.7260471835764
 20
198.9597979728488
 30
0.0
 11
397.1291239802816
 21
191.1670158167731
 31
0.0
  0
LINE
  5
33C
330
70
100
AcDbEntity
  8
_HONTAI
 62
    18
420
        0
370
    25
100
AcDbLine
 10
397.1291239802816
 20
191.1670158167731
 30
0.0
 11
392.7681476411616
 21
200.7161554909369
 31
0.0
  0
LINE
  5
33D
330
70
100
AcDbEntity
  8
_HONTAI
 62
    18
420
        0
370
    25
100
AcDbLine
 10
392.7681476411616
 20
200.7161554909369
 30
0.0
 11
399.9190750028297
 21
192.7777947906668
 31
0.0
  0
LINE
  5
33E
330
70
100
AcDbEntity
  8
_HONTAI
 62
    18
420
        0
370
    25
100
AcDbLine
 10
399.9190750028297
 20
192.7777947906668
 30
0.0
 11
395.1344817239494
 21
202.0823591106259
 31
0.0
  0
LINE
  5
33F
330
70
100
AcDbEntity
  8
_HONTAI
 62
    18
420
        0
370
    25
100
AcDbLine
 10
395.1344817239494
 20
202.0823591106259
 30
0.0
 11
401.974745662861
 21
193.9646367996008
 31
0.0
  0
LINE
  5
340
330
70
100
AcDbEntity
  8
_HONTAI
 62
    18
420
        0
370
    25
100
AcDbLine
 10
401.974745662861
 20
193.9646367996008
 30
0.0
 11
396.7496028070288
 21
203.0148497027129
 31
0.0
  0
LINE
  5
341
330
70
100
AcDbEntity
  8
_HONTAI
 62
    18
420
        0
370
    25
100
AcDbLine
 10
396.7496028070288
 20
203.0148497027129
 30
0.0
 11
403.2336754474563
 21
194.6914802496246
 31
0.0
  0
LINE
  5
342
330
70
100
AcDbEntity
  8
_HONTAI
 62
    18
420
        0
370
    25
100
AcDbLine
 10
403.2336754474563
 20
194.6914802496246
 30
0.0
 11
397.6782851479918
 21
203.5510247022645
 31
0.0
  0
LINE
  5
343
330
70
100
AcDbEntity
  8
_HONTAI
 62
    18
420
        0
370
    25
100
AcDbLine
 10
363.5607892975329
 20
199.942546672242
 30
0.0
 11
372.8939805214448
 21
189.2417997544514
 31
0.0
  0
LINE
  5
344
330
70
100
AcDbEntity
  8
_HONTAI
 62
    18
420
        0
370
    25
100
AcDbLine
 10
372.8939805214448
 20
189.2417997544514
 30
0.0
 11
365.5984658688316
 21
201.1189997892032
 31
0.0
  0
LINE
  5
345
330
70
100
AcDbEntity
  8
_HONTAI
 62
    18
420
        0
370
    25
100
AcDbLine
 10
365.5984658688316
 20
201.1189997892032
 30
0.0
 11
377.554748823335
 21
191.9326955881748
 31
0.0
  0
LINE
  5
346
330
70
100
AcDbEntity
  8
_HONTAI
 62
    18
420
        0
370
    25
100
AcDbLine
 10
377.554748823335
 20
191.9326955881748
 30
0.0
 11
369.6119052399028
 21
203.4361600904664
 31
0.0
  0
LINE
  5
347
330
70
100
AcDbEntity
  8
_HONTAI
 62
    18
420
        0
370
    25
100
AcDbLine
 10
369.6119052399028
 20
203.4361600904664
 30
0.0
 11
382.0020021751494
 21
194.5003185080001
 31
0.0
  0
LINE
  5
348
330
70
100
AcDbEntity
  8
_HONTAI
 62
    18
420
        0
370
    25
100
AcDbLine
 10
382.0020021751494
 20
194.5003185080001
 30
0.0
 11
373.4414845150749
 21
205.64716871587
 31
0.0
  0
LINE
  5
349
330
70
100
AcDbEntity
  8
_HONTAI
 62
    18
420
        0
370
    25
100
AcDbLine
 10
373.4414845150749
 20
205.64716871587
 30
0.0
 11
386.1006130342155
 21
196.8666525907863
 31
0.0
  0
LINE
  5
34A
330
70
100
AcDbEntity
  8
_HONTAI
 62
    18
420
        0
370
    25
100
AcDbLine
 10
386.1006130342155
 20
196.8666525907863
 30
0.0
 11
376.9708438659391
 21
207.6848452871582
 31
0.0
  0
LINE
  5
34B
330
70
100
AcDbEntity
  8
_HONTAI
 62
    18
420
        0
370
    25
100
AcDbLine
 10
376.9708438659391
 20
207.6848452871582
 30
0.0
 11
389.7260471835764
 21
198.9597979728488
 31
0.0
  0
LINE
  5
34C
330
70
100
AcDbEntity
  8
_HONTAI
 62
    18
420
        0
370
    25
100
AcDbLine
 10
389.7260471835764
 20
198.9597979728488
 30
0.0
 11
380.092745494555
 21
209.4872760328229
 31
0.0
  0
LINE
  5
34D
330
70
100
AcDbEntity
  8
_HONTAI
 62
    18
420
        0
370
    25
100
AcDbLine
 10
380.092745494555
 20
209.4872760328229
 30
0.0
 11
392.7681476411616
 21
200.7161554909369
 31
0.0
  0
LINE
  5
34E
330
70
100
AcDbEntity
  8
_HONTAI
 62
    18
420
        0
370
    25
100
AcDbLine
 10
392.7681476411616
 20
200.7161554909369
 30
0.0
 11
382.7123319996994
 21
210.9996950067337
 31
0.0
  0
LINE
  5
34F
330
70
100
AcDbEntity
  8
_HONTAI
 62
    18
420
        0
370
    25
100
AcDbLine
 10
382.7123319996994
 20
210.9996950067337
 30
0.0
 11
395.1344817239494
 21
202.0823591106259
 31
0.0
  0
LINE
  5
350
330
70
100
AcDbEntity
  8
_HONTAI
 62
    18
420
        0
370
    25
100
AcDbLine
 10
395.1344817239494
 20
202.0823591106259
 30
0.0
 11
384.7500085709873
 21
212.1761481236849
 31
0.0
  0
LINE
  5
351
330
70
100
AcDbEntity
  8
_HONTAI
 62
    18
420
        0
370
    25
100
AcDbLine
 10
384.7500085709873
 20
212.1761481236849
 30
0.0
 11
396.7496028070288
 21
203.0148497027129
 31
0.0
  0
LINE
  5
352
330
70
100
AcDbEntity
  8
_HONTAI
 62
    18
420
        0
370
    25
100
AcDbLine
 10
396.7496028070288
 20
203.0148497027129
 30
0.0
 11
386.1438614369141
 21
212.9808894510389
 31
0.0
  0
LINE
  5
353
330
70
100
AcDbEntity
  8
_HONTAI
 62
    18
420
        0
370
    25
100
AcDbLine
 10
386.1438614369141
 20
212.9808894510389
 30
0.0
 11
397.6782851479918
 21
203.5510247022607
 31
0.0
  0
LINE
  5
354
330
70
100
AcDbEntity
  8
_HONTAI
 62
    18
420
        0
370
    25
100
AcDbLine
 10
360.0773607269737
 20
205.9760219409872
 30
0.0
 11
365.5984658688316
 21
201.1189997892032
 31
0.0
  0
LINE
  5
355
330
70
100
AcDbEntity
  8
_HONTAI
 62
    18
420
        0
370
    25
100
AcDbLine
 10
365.5984658688316
 20
201.1189997892032
 30
0.0
 11
362.8275784387024
 21
207.5638608771817
 31
0.0
  0
LINE
  5
356
330
70
100
AcDbEntity
  8
_HONTAI
 62
    18
420
        0
370
    25
100
AcDbLine
 10
362.8275784387024
 20
207.5638608771817
 30
0.0
 11
369.6119052399028
 21
203.4361600904664
 31
0.0
  0
LINE
  5
357
330
70
100
AcDbEntity
  8
_HONTAI
 62
    18
420
        0
370
    25
100
AcDbLine
 10
369.6119052399028
 20
203.4361600904664
 30
0.0
 11
365.494232176927
 21
209.1034541307807
 31
0.0
  0
LINE
  5
358
330
70
100
AcDbEntity
  8
_HONTAI
 62
    18
420
        0
370
    25
100
AcDbLine
 10
365.494232176927
 20
209.1034541307807
 30
0.0
 11
373.4414845150749
 21
205.64716871587
 31
0.0
  0
LINE
  5
359
330
70
100
AcDbEntity
  8
_HONTAI
 62
    18
420
        0
370
    25
100
AcDbLine
 10
373.4414845150749
 20
205.64716871587
 30
0.0
 11
367.9962970172017
 21
210.5480219398423
 31
0.0
  0
LINE
  5
35A
330
70
100
AcDbEntity
  8
_HONTAI
 62
    18
420
        0
370
    25
100
AcDbLine
 10
367.9962970172017
 20
210.5480219398423
 30
0.0
 11
376.9708438659391
 21
207.6848452871582
 31
0.0
  0
LINE
  5
35B
330
70
100
AcDbEntity
  8
_HONTAI
 62
    18
420
        0
370
    25
100
AcDbLine
 10
376.9708438659391
 20
207.6848452871582
 30
0.0
 11
370.2577489854955
 21
211.8536718424945
 31
0.0
  0
LINE
  5
35C
330
70
100
AcDbEntity
  8
_HONTAI
 62
    18
420
        0
370
    25
100
AcDbLine
 10
370.2577489854955
 20
211.8536718424945
 30
0.0
 11
380.092745494555
 21
209.4872760328229
 31
0.0
  0
LINE
  5
35D
330
70
100
AcDbEntity
  8
_HONTAI
 62
    18
420
        0
370
    25
100
AcDbLine
 10
380.092745494555
 20
209.4872760328229
 30
0.0
 11
372.2098750080679
 21
212.9807323271186
 31
0.0
  0
LINE
  5
35E
330
70
100
AcDbEntity
  8
_HONTAI
 62
    18
420
        0
370
    25
100
AcDbLine
 10
372.2098750080679
 20
212.9807323271186
 30
0.0
 11
382.7123319996994
 21
210.9996950067337
 31
0.0
  0
LINE
  5
35F
330
70
100
AcDbEntity
  8
_HONTAI
 62
    18
420
        0
370
    25
100
AcDbLine
 10
382.7123319996994
 20
210.9996950067337
 30
0.0
 11
373.7933607235567
 21
213.8949582312148
 31
0.0
  0
LINE
  5
360
330
70
100
AcDbEntity
  8
_HONTAI
 62
    18
420
        0
370
    25
100
AcDbLine
 10
373.7933607235567
 20
213.8949582312148
 30
0.0
 11
384.7500085709873
 21
212.1761481236849
 31
0.0
  0
LINE
  5
361
330
70
100
AcDbEntity
  8
_HONTAI
 62
    18
420
        0
370
    25
100
AcDbLine
 10
384.7500085709873
 20
212.1761481236849
 30
0.0
 11
374.9600927197779
 21
214.5685712633056
 31
0.0
  0
LINE
  5
362
330
70
100
AcDbEntity
  8
_HONTAI
 62
    18
420
        0
370
    25
100
AcDbLine
 10
374.9600927197779
 20
214.5685712633056
 30
0.0
 11
386.1438614369141
 21
212.9808894510389
 31
0.0
  0
LINE
  5
363
330
70
100
AcDbEntity
  8
_HONTAI
 62
    18
420
        0
370
    25
100
AcDbLine
 10
386.1438614369141
 20
212.9808894510389
 30
0.0
 11
375.6746204354238
 21
214.9811040322793
 31
0.0
  0
LINE
  5
364
330
70
100
AcDbEntity
  8
_HONTAI
 62
    18
420
        0
370
    25
100
AcDbLine
 10
375.6746204354238
 20
214.9811040322793
 30
0.0
 11
386.9405059639145
 21
213.4408323831508
 31
0.0
  0
LINE
  5
365
330
70
100
AcDbEntity
  8
_HONTAI
 62
    18
420
        0
370
    25
100
AcDbLine
 10
360.0773607269737
 20
205.9760219409872
 30
0.0
 11
358.9666688637769
 21
209.3570805406119
 31
0.0
  0
LINE
  5
366
330
70
100
AcDbEntity
  8
_HONTAI
 62
    18
420
        0
370
    25
100
AcDbLine
 10
358.9666688637769
 20
209.3570805406119
 30
0.0
 11
362.8275784387024
 21
207.5638608771817
 31
0.0
  0
LINE
  5
367
330
70
100
AcDbEntity
  8
_HONTAI
 62
    18
420
        0
370
    25
100
AcDbLine
 10
362.8275784387024
 20
207.5638608771817
 30
0.0
 11
360.2095404109499
 21
210.0746527629389
 31
0.0
  0
LINE
  5
368
330
70
100
AcDbEntity
  8
_HONTAI
 62
    18
420
        0
370
    25
100
AcDbLine
 10
360.2095404109499
 20
210.0746527629389
 30
0.0
 11
365.494232176927
 21
209.1034541307807
 31
0.0
  0
LINE
  5
369
330
70
100
AcDbEntity
  8
_HONTAI
 62
    18
420
        0
370
    25
100
AcDbLine
 10
365.494232176927
 20
209.1034541307807
 30
0.0
 11
361.3954746381001
 21
210.7593522082268
 31
0.0
  0
LINE
  5
36A
330
70
100
AcDbEntity
  8
_HONTAI
 62
    18
420
        0
370
    25
100
AcDbLine
 10
361.3954746381001
 20
210.7593522082268
 30
0.0
 11
367.9962970172017
 21
210.5480219398423
 31
0.0
  0
LINE
  5
36B
330
70
100
AcDbEntity
  8
_HONTAI
 62
    18
420
        0
370
    25
100
AcDbLine
 10
367.9962970172017
 20
210.5480219398423
 30
0.0
 11
362.4884375338522
 21
211.3903746303018
 31
0.0
  0
LINE
  5
36C
330
70
100
AcDbEntity
  8
_HONTAI
 62
    18
420
        0
370
    25
100
AcDbLine
 10
362.4884375338522
 20
211.3903746303018
 30
0.0
 11
370.2577489854955
 21
211.8536718424945
 31
0.0
  0
LINE
  5
36D
330
70
100
AcDbEntity
  8
_HONTAI
 62
    18
420
        0
370
    25
100
AcDbLine
 10
370.2577489854955
 20
211.8536718424945
 30
0.0
 11
363.4552199736794
 21
211.9485467321846
 31
0.0
  0
LINE
  5
36E
330
70
100
AcDbEntity
  8
_HONTAI
 62
    18
420
        0
370
    25
100
AcDbLine
 10
363.4552199736794
 20
211.9485467321846
 30
0.0
 11
372.2098750080679
 21
212.9807323271186
 31
0.0
  0
LINE
  5
36F
330
70
100
AcDbEntity
  8
_HONTAI
 62
    18
420
        0
370
    25
100
AcDbLine
 10
372.2098750080679
 20
212.9807323271186
 30
0.0
 11
364.2664467623717
 21
212.4169087370078
 31
0.0
  0
LINE
  5
370
330
70
100
AcDbEntity
  8
_HONTAI
 62
    18
420
        0
370
    25
100
AcDbLine
 10
364.2664467623717
 20
212.4169087370078
 30
0.0
 11
373.7933607235567
 21
213.8949582312148
 31
0.0
  0
LINE
  5
371
330
70
100
AcDbEntity
  8
_HONTAI
 62
    18
420
        0
370
    25
100
AcDbLine
 10
373.7933607235567
 20
213.8949582312148
 30
0.0
 11
364.8974691844468
 21
212.7812297022594
 31
0.0
  0
LINE
  5
372
330
70
100
AcDbEntity
  8
_HONTAI
 62
    18
420
        0
370
    25
100
AcDbLine
 10
364.8974691844468
 20
212.7812297022594
 30
0.0
 11
374.9600927197779
 21
214.5685712633056
 31
0.0
  0
LINE
  5
373
330
70
100
AcDbEntity
  8
_HONTAI
 62
    18
420
        0
370
    25
100
AcDbLine
 10
374.9600927197779
 20
214.5685712633056
 30
0.0
 11
365.3291139429275
 21
213.0304399197632
 31
0.0
  0
LINE
  5
374
330
70
100
AcDbEntity
  8
_HONTAI
 62
    18
420
        0
370
    25
100
AcDbLine
 10
365.3291139429275
 20
213.0304399197632
 30
0.0
 11
375.6746204354238
 21
214.9811040322793
 31
0.0
  0
LINE
  5
375
330
70
100
AcDbEntity
  8
_HONTAI
 62
    18
420
        0
370
    25
100
AcDbLine
 10
375.6746204354238
 20
214.9811040322793
 30
0.0
 11
365.548265730246
 21
213.1569672631618
 31
0.0
  0
LINE
  5
376
330
70
100
AcDbEntity
  8
_HONTAI
 62
    18
420
        0
370
    25
100
AcDbLine
 10
365.548265730246
 20
213.1569672631618
 30
0.0
 11
375.9152333074244
 21
215.1200219387003
 31
0.0
  0
LINE
  5
377
330
70
100
AcDbEntity
  8
_HONTAI
 62
    18
420
        0
370
    25
100
AcDbLine
 10
358.8689903281462
 20
210.5073808655196
 30
0.0
 11
346.8402249917262
 21
231.341813580512
 31
0.0
  0
LINE
  5
378
330
70
100
AcDbEntity
  8
0
 62
    18
420
        0
370
    25
100
AcDbLine
 10
341.5782117876995
 20
294.3801397583903
 30
0.0
 11
342.4662581995427
 21
295.9669587474768
 31
0.0
  0
SPLINE
  5
379
330
70
100
AcDbEntity
  8
0
 62
    18
420
        0
370
    25
100
AcDbSpline
210
0.0
220
0.0
230
1.0
 70
     8
 71
     3
 72
     8
 73
     4
 74
     0
 42
0.0000000001
 43
0.0000000001
 40
0.0
 40
0.0
 40
0.0
 40
0.0
 40
1.0
 40
1.0
 40
1.0
 40
1.0
 10
342.4662581995427
 20
295.9669587474765
 30
0.0
 10
344.4574620643838
 20
299.5249711010351
 30
0.0
 10
344.4574620643838
 20
303.8619093046219
 30
0.0
 10
342.4662581995427
 20
307.4199216581805
 30
0.0
  0
LINE
  5
37A
330
70
100
AcDbEntity
  8
0
 62
    18
420
        0
370
    25
100
AcDbLine
 10
342.4662581995427
 20
307.4199216581798
 30
0.0
 11
341.5782117876995
 21
309.0067406472664
 31
0.0
  0
LINE
  5
37B
330
70
100
AcDbEntity
  8
0
 62
    18
420
        0
370
    25
100
AcDbLine
 10
338.7839327930545
 20
294.3801397583903
 30
0.0
 11
340.3384124946505
 21
297.1577850207833
 31
0.0
  0
SPLINE
  5
37C
330
70
100
AcDbEntity
  8
0
 62
    18
420
        0
370
    25
100
AcDbSpline
210
0.0
220
0.0
230
1.0
 70
     8
 71
     3
 72
     8
 73
     4
 74
     0
 42
0.0000000001
 43
0.0000000001
 40
0.0
 40
0.0
 40
0.0
 40
0.0
 40
1.0
 40
1.0
 40
1.0
 40
1.0
 10
340.3384124946505
 20
297.1577850207833
 30
0.0
 10
341.9155439668277
 20
299.9759059376189
 30
0.0
 10
341.9155439668277
 20
303.4109744680378
 30
0.0
 10
340.3384124946505
 20
306.2290953848736
 30
0.0
  0
LINE
  5
37D
330
70
100
AcDbEntity
  8
0
 62
    18
420
        0
370
    25
100
AcDbLine
 10
340.3384124946505
 20
306.2290953848734
 30
0.0
 11
340.1810722903769
 21
306.5102410778888
 31
0.0
  0
LINE
  5
37E
330
70
100
AcDbEntity
  8
0
 62
    18
420
        0
370
    25
100
AcDbLine
 10
338.7839327930545
 20
294.3801397583903
 30
0.0
 11
337.895886381211
 21
295.9669587474768
 31
0.0
  0
SPLINE
  5
37F
330
70
100
AcDbEntity
  8
0
 62
    18
420
        0
370
    25
100
AcDbSpline
210
0.0
220
0.0
230
1.0
 70
     8
 71
     3
 72
     8
 73
     4
 74
     0
 42
0.0000000001
 43
0.0000000001
 40
0.0
 40
0.0
 40
0.0
 40
0.0
 40
1.0
 40
1.0
 40
1.0
 40
1.0
 10
337.8958863812112
 20
307.4199216581805
 30
0.0
 10
335.9046825163698
 20
303.8619093046219
 30
0.0
 10
335.9046825163698
 20
299.5249711010351
 30
0.0
 10
337.8958863812112
 20
295.9669587474765
 30
0.0
  0
LINE
  5
380
330
70
100
AcDbEntity
  8
0
 62
    18
420
        0
370
    25
100
AcDbLine
 10
337.895886381211
 20
307.4199216581798
 30
0.0
 11
338.7839327930545
 21
309.0067406472664
 31
0.0
  0
LINE
  5
381
330
70
100
AcDbEntity
  8
0
 62
    18
420
        0
370
    25
100
AcDbLine
 10
340.1810722903769
 20
296.8766393277679
 30
0.0
 11
340.0237320861034
 21
297.1577850207833
 31
0.0
  0
SPLINE
  5
382
330
70
100
AcDbEntity
  8
0
 62
    18
420
        0
370
    25
100
AcDbSpline
210
0.0
220
0.0
230
1.0
 70
     8
 71
     3
 72
     8
 73
     4
 74
     0
 42
0.0000000001
 43
0.0000000001
 40
0.0
 40
0.0
 40
0.0
 40
0.0
 40
1.0
 40
1.0
 40
1.0
 40
1.0
 10
340.0237320861034
 20
306.2290953848736
 30
0.0
 10
338.4466006139263
 20
303.4109744680378
 30
0.0
 10
338.4466006139263
 20
299.9759059376189
 30
0.0
 10
340.0237320861034
 20
297.1577850207833
 30
0.0
  0
LINE
  5
383
330
70
100
AcDbEntity
  8
0
 62
    18
420
        0
370
    25
100
AcDbLine
 10
340.0237320861034
 20
306.2290953848734
 30
0.0
 11
341.5782117876995
 21
309.0067406472664
 31
0.0
  0
LINE
  5
384
330
70
100
AcDbEntity
  8
0
 62
    18
420
        0
370
    25
100
AcDbLine
 10
341.5782117876995
 20
279.7535388695161
 30
0.0
 11
342.4662581995427
 21
281.3403578586023
 31
0.0
  0
SPLINE
  5
385
330
70
100
AcDbEntity
  8
0
 62
    18
420
        0
370
    25
100
AcDbSpline
210
0.0
220
0.0
230
1.0
 70
     8
 71
     3
 72
     8
 73
     4
 74
     0
 42
0.0000000001
 43
0.0000000001
 40
0.0
 40
0.0
 40
0.0
 40
0.0
 40
1.0
 40
1.0
 40
1.0
 40
1.0
 10
342.4662581995427
 20
281.340357858602
 30
0.0
 10
344.4574620643838
 20
284.8983702121608
 30
0.0
 10
344.4574620643838
 20
289.2353084157474
 30
0.0
 10
342.4662581995427
 20
292.793320769306
 30
0.0
  0
LINE
  5
386
330
70
100
AcDbEntity
  8
0
 62
    18
420
        0
370
    25
100
AcDbLine
 10
342.4662581995427
 20
292.7933207693053
 30
0.0
 11
341.5782117876995
 21
294.3801397583919
 31
0.0
  0
LINE
  5
387
330
70
100
AcDbEntity
  8
0
 62
    18
420
        0
370
    25
100
AcDbLine
 10
338.7839327930545
 20
279.7535388695161
 30
0.0
 11
340.3384124946505
 21
282.5311841319091
 31
0.0
  0
SPLINE
  5
388
330
70
100
AcDbEntity
  8
0
 62
    18
420
        0
370
    25
100
AcDbSpline
210
0.0
220
0.0
230
1.0
 70
     8
 71
     3
 72
     8
 73
     4
 74
     0
 42
0.0000000001
 43
0.0000000001
 40
0.0
 40
0.0
 40
0.0
 40
0.0
 40
1.0
 40
1.0
 40
1.0
 40
1.0
 10
340.3384124946505
 20
282.5311841319088
 30
0.0
 10
341.9155439668277
 20
285.3493050487447
 30
0.0
 10
341.9155439668277
 20
288.7843735791636
 30
0.0
 10
340.3384124946505
 20
291.6024944959994
 30
0.0
  0
LINE
  5
389
330
70
100
AcDbEntity
  8
0
 62
    18
420
        0
370
    25
100
AcDbLine
 10
340.3384124946505
 20
291.6024944959988
 30
0.0
 11
340.1810722903769
 21
291.8836401890146
 31
0.0
  0
LINE
  5
38A
330
70
100
AcDbEntity
  8
0
 62
    18
420
        0
370
    25
100
AcDbLine
 10
338.7839327930545
 20
279.7535388695161
 30
0.0
 11
337.895886381211
 21
281.3403578586023
 31
0.0
  0
SPLINE
  5
38B
330
70
100
AcDbEntity
  8
0
 62
    18
420
        0
370
    25
100
AcDbSpline
210
0.0
220
0.0
230
1.0
 70
     8
 71
     3
 72
     8
 73
     4
 74
     0
 42
0.0000000001
 43
0.0000000001
 40
0.0
 40
0.0
 40
0.0
 40
0.0
 40
1.0
 40
1.0
 40
1.0
 40
1.0
 10
337.8958863812112
 20
292.793320769306
 30
0.0
 10
335.9046825163698
 20
289.2353084157474
 30
0.0
 10
335.9046825163698
 20
284.8983702121608
 30
0.0
 10
337.8958863812112
 20
281.340357858602
 30
0.0
  0
LINE
  5
38C
330
70
100
AcDbEntity
  8
0
 62
    18
420
        0
370
    25
100
AcDbLine
 10
337.895886381211
 20
292.7933207693053
 30
0.0
 11
338.7839327930545
 21
294.3801397583919
 31
0.0
  0
LINE
  5
38D
330
70
100
AcDbEntity
  8
0
 62
    18
420
        0
370
    25
100
AcDbLine
 10
340.1810722903769
 20
282.2500384388933
 30
0.0
 11
340.0237320861034
 21
282.5311841319091
 31
0.0
  0
SPLINE
  5
38E
330
70
100
AcDbEntity
  8
0
 62
    18
420
        0
370
    25
100
AcDbSpline
210
0.0
220
0.0
230
1.0
 70
     8
 71
     3
 72
     8
 73
     4
 74
     0
 42
0.0000000001
 43
0.0000000001
 40
0.0
 40
0.0
 40
0.0
 40
0.0
 40
1.0
 40
1.0
 40
1.0
 40
1.0
 10
340.0237320861034
 20
291.6024944959994
 30
0.0
 10
338.4466006139263
 20
288.7843735791636
 30
0.0
 10
338.4466006139263
 20
285.3493050487447
 30
0.0
 10
340.0237320861034
 20
282.5311841319088
 30
0.0
  0
LINE
  5
38F
330
70
100
AcDbEntity
  8
0
 62
    18
420
        0
370
    25
100
AcDbLine
 10
340.0237320861034
 20
291.6024944959988
 30
0.0
 11
341.5782117876995
 21
294.3801397583919
 31
0.0
  0
LINE
  5
390
330
70
100
AcDbEntity
  8
0
 62
    18
420
        0
370
    25
100
AcDbLine
 10
341.5782117876995
 20
265.126937980639
 30
0.0
 11
342.4662581995427
 21
266.7137569697256
 31
0.0
  0
SPLINE
  5
391
330
70
100
AcDbEntity
  8
0
 62
    18
420
        0
370
    25
100
AcDbSpline
210
0.0
220
0.0
230
1.0
 70
     8
 71
     3
 72
     8
 73
     4
 74
     0
 42
0.0000000001
 43
0.0000000001
 40
0.0
 40
0.0
 40
0.0
 40
0.0
 40
1.0
 40
1.0
 40
1.0
 40
1.0
 10
342.4662581995427
 20
266.7137569697252
 30
0.0
 10
344.4574620643838
 20
270.2717693232838
 30
0.0
 10
344.4574620643838
 20
274.6087075268703
 30
0.0
 10
342.4662581995427
 20
278.1667198804292
 30
0.0
  0
LINE
  5
392
330
70
100
AcDbEntity
  8
0
 62
    18
420
        0
370
    25
100
AcDbLine
 10
342.4662581995427
 20
278.1667198804286
 30
0.0
 11
341.5782117876995
 21
279.7535388695151
 31
0.0
  0
LINE
  5
393
330
70
100
AcDbEntity
  8
0
 62
    18
420
        0
370
    25
100
AcDbLine
 10
338.7839327930545
 20
265.126937980639
 30
0.0
 11
340.3384124946505
 21
267.9045832430321
 31
0.0
  0
SPLINE
  5
394
330
70
100
AcDbEntity
  8
0
 62
    18
420
        0
370
    25
100
AcDbSpline
210
0.0
220
0.0
230
1.0
 70
     8
 71
     3
 72
     8
 73
     4
 74
     0
 42
0.0000000001
 43
0.0000000001
 40
0.0
 40
0.0
 40
0.0
 40
0.0
 40
1.0
 40
1.0
 40
1.0
 40
1.0
 10
340.3384124946505
 20
267.9045832430321
 30
0.0
 10
341.9155439668277
 20
270.7227041598676
 30
0.0
 10
341.9155439668277
 20
274.1577726902868
 30
0.0
 10
340.3384124946505
 20
276.9758936071224
 30
0.0
  0
LINE
  5
395
330
70
100
AcDbEntity
  8
0
 62
    18
420
        0
370
    25
100
AcDbLine
 10
340.3384124946505
 20
276.975893607122
 30
0.0
 11
340.1810722903769
 21
277.2570393001375
 31
0.0
  0
LINE
  5
396
330
70
100
AcDbEntity
  8
0
 62
    18
420
        0
370
    25
100
AcDbLine
 10
338.7839327930545
 20
265.126937980639
 30
0.0
 11
337.895886381211
 21
266.7137569697256
 31
0.0
  0
SPLINE
  5
397
330
70
100
AcDbEntity
  8
0
 62
    18
420
        0
370
    25
100
AcDbSpline
210
0.0
220
0.0
230
1.0
 70
     8
 71
     3
 72
     8
 73
     4
 74
     0
 42
0.0000000001
 43
0.0000000001
 40
0.0
 40
0.0
 40
0.0
 40
0.0
 40
1.0
 40
1.0
 40
1.0
 40
1.0
 10
337.8958863812112
 20
278.1667198804292
 30
0.0
 10
335.9046825163698
 20
274.6087075268706
 30
0.0
 10
335.9046825163698
 20
270.2717693232841
 30
0.0
 10
337.8958863812112
 20
266.7137569697252
 30
0.0
  0
LINE
  5
398
330
70
100
AcDbEntity
  8
0
 62
    18
420
        0
370
    25
100
AcDbLine
 10
337.895886381211
 20
278.1667198804286
 30
0.0
 11
338.7839327930545
 21
279.7535388695151
 31
0.0
  0
LINE
  5
399
330
70
100
AcDbEntity
  8
0
 62
    18
420
        0
370
    25
100
AcDbLine
 10
340.1810722903769
 20
267.6234375500166
 30
0.0
 11
340.0237320861034
 21
267.9045832430321
 31
0.0
  0
SPLINE
  5
39A
330
70
100
AcDbEntity
  8
0
 62
    18
420
        0
370
    25
100
AcDbSpline
210
0.0
220
0.0
230
1.0
 70
     8
 71
     3
 72
     8
 73
     4
 74
     0
 42
0.0000000001
 43
0.0000000001
 40
0.0
 40
0.0
 40
0.0
 40
0.0
 40
1.0
 40
1.0
 40
1.0
 40
1.0
 10
340.0237320861034
 20
276.9758936071224
 30
0.0
 10
338.4466006139263
 20
274.1577726902868
 30
0.0
 10
338.4466006139263
 20
270.7227041598676
 30
0.0
 10
340.0237320861034
 20
267.9045832430321
 30
0.0
  0
LINE
  5
39B
330
70
100
AcDbEntity
  8
0
 62
    18
420
        0
370
    25
100
AcDbLine
 10
340.0237320861034
 20
276.975893607122
 30
0.0
 11
341.5782117876995
 21
279.7535388695151
 31
0.0
  0
LINE
  5
39C
330
70
100
AcDbEntity
  8
0
 62
    18
420
        0
370
    25
100
AcDbLine
 10
341.5782117876995
 20
244.8856371119382
 30
0.0
 11
342.4662581995427
 21
246.4724561010247
 31
0.0
  0
SPLINE
  5
39D
330
70
100
AcDbEntity
  8
0
 62
    18
420
        0
370
    25
100
AcDbSpline
210
0.0
220
0.0
230
1.0
 70
     8
 71
     3
 72
     8
 73
     4
 74
     0
 42
0.0000000001
 43
0.0000000001
 40
0.0
 40
0.0
 40
0.0
 40
0.0
 40
1.0
 40
1.0
 40
1.0
 40
1.0
 10
342.4662581995427
 20
246.4724561010244
 30
0.0
 10
344.4574620643838
 20
250.030468454583
 30
0.0
 10
344.4574620643838
 20
254.3674066581698
 30
0.0
 10
342.4662581995427
 20
257.9254190117284
 30
0.0
  0
LINE
  5
39E
330
70
100
AcDbEntity
  8
0
 62
    18
420
        0
370
    25
100
AcDbLine
 10
342.4662581995427
 20
257.9254190117278
 30
0.0
 11
341.5782117876995
 21
259.5122380008143
 31
0.0
  0
LINE
  5
39F
330
70
100
AcDbEntity
  8
0
 62
    18
420
        0
370
    25
100
AcDbLine
 10
338.7839327930545
 20
244.8856371119382
 30
0.0
 11
340.3384124946505
 21
247.6632823743312
 31
0.0
  0
SPLINE
  5
3A0
330
70
100
AcDbEntity
  8
0
 62
    18
420
        0
370
    25
100
AcDbSpline
210
0.0
220
0.0
230
1.0
 70
     8
 71
     3
 72
     8
 73
     4
 74
     0
 42
0.0000000001
 43
0.0000000001
 40
0.0
 40
0.0
 40
0.0
 40
0.0
 40
1.0
 40
1.0
 40
1.0
 40
1.0
 10
340.3384124946505
 20
247.6632823743312
 30
0.0
 10
341.9155439668277
 20
250.4814032911668
 30
0.0
 10
341.9155439668277
 20
253.9164718215856
 30
0.0
 10
340.3384124946505
 20
256.7345927384216
 30
0.0
  0
LINE
  5
3A1
330
70
100
AcDbEntity
  8
0
 62
    18
420
        0
370
    25
100
AcDbLine
 10
340.3384124946505
 20
256.7345927384212
 30
0.0
 11
340.1810722903769
 21
257.0157384314367
 31
0.0
  0
LINE
  5
3A2
330
70
100
AcDbEntity
  8
0
 62
    18
420
        0
370
    25
100
AcDbLine
 10
338.7839327930545
 20
244.8856371119382
 30
0.0
 11
337.895886381211
 21
246.4724561010247
 31
0.0
  0
SPLINE
  5
3A3
330
70
100
AcDbEntity
  8
0
 62
    18
420
        0
370
    25
100
AcDbSpline
210
0.0
220
0.0
230
1.0
 70
     8
 71
     3
 72
     8
 73
     4
 74
     0
 42
0.0000000001
 43
0.0000000001
 40
0.0
 40
0.0
 40
0.0
 40
0.0
 40
1.0
 40
1.0
 40
1.0
 40
1.0
 10
337.8958863812112
 20
257.9254190117284
 30
0.0
 10
335.9046825163698
 20
254.3674066581698
 30
0.0
 10
335.9046825163698
 20
250.030468454583
 30
0.0
 10
337.8958863812112
 20
246.4724561010244
 30
0.0
  0
LINE
  5
3A4
330
70
100
AcDbEntity
  8
0
 62
    18
420
        0
370
    25
100
AcDbLine
 10
337.895886381211
 20
257.9254190117278
 30
0.0
 11
338.7839327930545
 21
259.5122380008143
 31
0.0
  0
LINE
  5
3A5
330
70
100
AcDbEntity
  8
0
 62
    18
420
        0
370
    25
100
AcDbLine
 10
340.1810722903769
 20
247.3821366813158
 30
0.0
 11
340.0237320861034
 21
247.6632823743312
 31
0.0
  0
SPLINE
  5
3A6
330
70
100
AcDbEntity
  8
0
 62
    18
420
        0
370
    25
100
AcDbSpline
210
0.0
220
0.0
230
1.0
 70
     8
 71
     3
 72
     8
 73
     4
 74
     0
 42
0.0000000001
 43
0.0000000001
 40
0.0
 40
0.0
 40
0.0
 40
0.0
 40
1.0
 40
1.0
 40
1.0
 40
1.0
 10
340.0237320861034
 20
256.7345927384216
 30
0.0
 10
338.4466006139263
 20
253.9164718215856
 30
0.0
 10
338.4466006139263
 20
250.4814032911668
 30
0.0
 10
340.0237320861034
 20
247.6632823743312
 30
0.0
  0
LINE
  5
3A7
330
70
100
AcDbEntity
  8
0
 62
    18
420
        0
370
    25
100
AcDbLine
 10
340.0237320861034
 20
256.7345927384212
 30
0.0
 11
341.5782117876995
 21
259.5122380008143
 31
0.0
  0
LINE
  5
3A8
330
70
100
AcDbEntity
  8
0
 62
    18
420
        0
370
    25
100
AcDbLine
 10
341.5782117876995
 20
230.2590362230614
 30
0.0
 11
342.4662581995427
 21
231.8458552121479
 31
0.0
  0
SPLINE
  5
3A9
330
70
100
AcDbEntity
  8
0
 62
    18
420
        0
370
    25
100
AcDbSpline
210
0.0
220
0.0
230
1.0
 70
     8
 71
     3
 72
     8
 73
     4
 74
     0
 42
0.0000000001
 43
0.0000000001
 40
0.0
 40
0.0
 40
0.0
 40
0.0
 40
1.0
 40
1.0
 40
1.0
 40
1.0
 10
342.4662581995427
 20
231.8458552121473
 30
0.0
 10
344.4574620643838
 20
235.4038675657062
 30
0.0
 10
344.4574620643838
 20
239.7408057692927
 30
0.0
 10
342.4662581995427
 20
243.2988181228516
 30
0.0
  0
LINE
  5
3AA
330
70
100
AcDbEntity
  8
0
 62
    18
420
        0
370
    25
100
AcDbLine
 10
342.4662581995427
 20
243.298818122851
 30
0.0
 11
341.5782117876995
 21
244.8856371119372
 31
0.0
  0
LINE
  5
3AB
330
70
100
AcDbEntity
  8
0
 62
    18
420
        0
370
    25
100
AcDbLine
 10
338.7839327930545
 20
230.2590362230614
 30
0.0
 11
340.3384124946505
 21
233.0366814854545
 31
0.0
  0
SPLINE
  5
3AC
330
70
100
AcDbEntity
  8
0
 62
    18
420
        0
370
    25
100
AcDbSpline
210
0.0
220
0.0
230
1.0
 70
     8
 71
     3
 72
     8
 73
     4
 74
     0
 42
0.0000000001
 43
0.0000000001
 40
0.0
 40
0.0
 40
0.0
 40
0.0
 40
1.0
 40
1.0
 40
1.0
 40
1.0
 10
340.3384124946505
 20
233.0366814854541
 30
0.0
 10
341.9155439668277
 20
235.85480240229
 30
0.0
 10
341.9155439668277
 20
239.2898709327089
 30
0.0
 10
340.3384124946505
 20
242.1079918495448
 30
0.0
  0
LINE
  5
3AD
330
70
100
AcDbEntity
  8
0
 62
    18
420
        0
370
    25
100
AcDbLine
 10
340.3384124946505
 20
242.1079918495441
 30
0.0
 11
340.1810722903769
 21
242.3891375425599
 31
0.0
  0
LINE
  5
3AE
330
70
100
AcDbEntity
  8
0
 62
    18
420
        0
370
    25
100
AcDbLine
 10
338.7839327930545
 20
230.2590362230614
 30
0.0
 11
337.895886381211
 21
231.8458552121479
 31
0.0
  0
SPLINE
  5
3AF
330
70
100
AcDbEntity
  8
0
 62
    18
420
        0
370
    25
100
AcDbSpline
210
0.0
220
0.0
230
1.0
 70
     8
 71
     3
 72
     8
 73
     4
 74
     0
 42
0.0000000001
 43
0.0000000001
 40
0.0
 40
0.0
 40
0.0
 40
0.0
 40
1.0
 40
1.0
 40
1.0
 40
1.0
 10
337.8958863812112
 20
243.2988181228516
 30
0.0
 10
335.9046825163698
 20
239.7408057692927
 30
0.0
 10
335.9046825163698
 20
235.4038675657062
 30
0.0
 10
337.8958863812112
 20
231.8458552121473
 30
0.0
  0
LINE
  5
3B0
330
70
100
AcDbEntity
  8
0
 62
    18
420
        0
370
    25
100
AcDbLine
 10
337.895886381211
 20
243.298818122851
 30
0.0
 11
338.7839327930545
 21
244.8856371119372
 31
0.0
  0
LINE
  5
3B1
330
70
100
AcDbEntity
  8
0
 62
    18
420
        0
370
    25
100
AcDbLine
 10
340.1810722903769
 20
232.7555357924387
 30
0.0
 11
340.0237320861034
 21
233.0366814854545
 31
0.0
  0
SPLINE
  5
3B2
330
70
100
AcDbEntity
  8
0
 62
    18
420
        0
370
    25
100
AcDbSpline
210
0.0
220
0.0
230
1.0
 70
     8
 71
     3
 72
     8
 73
     4
 74
     0
 42
0.0000000001
 43
0.0000000001
 40
0.0
 40
0.0
 40
0.0
 40
0.0
 40
1.0
 40
1.0
 40
1.0
 40
1.0
 10
340.0237320861034
 20
242.1079918495448
 30
0.0
 10
338.4466006139263
 20
239.2898709327089
 30
0.0
 10
338.4466006139263
 20
235.85480240229
 30
0.0
 10
340.0237320861034
 20
233.0366814854541
 30
0.0
  0
LINE
  5
3B3
330
70
100
AcDbEntity
  8
0
 62
    18
420
        0
370
    25
100
AcDbLine
 10
340.0237320861034
 20
242.1079918495441
 30
0.0
 11
341.5782117876995
 21
244.8856371119372
 31
0.0
  0
LINE
  5
3B4
330
70
100
AcDbEntity
  8
0
 62
    18
420
        0
370
    25
100
AcDbLine
 10
341.5782117876995
 20
201.2613867283256
 30
0.0
 11
342.4662581995427
 21
202.8482057174122
 31
0.0
  0
SPLINE
  5
3B5
330
70
100
AcDbEntity
  8
0
 62
    18
420
        0
370
    25
100
AcDbSpline
210
0.0
220
0.0
230
1.0
 70
     8
 71
     3
 72
     8
 73
     4
 74
     0
 42
0.0000000001
 43
0.0000000001
 40
0.0
 40
0.0
 40
0.0
 40
0.0
 40
1.0
 40
1.0
 40
1.0
 40
1.0
 10
342.4662581995427
 20
202.8482057174119
 30
0.0
 10
344.4574620643838
 20
206.4062180709704
 30
0.0
 10
344.4574620643838
 20
210.7431562745573
 30
0.0
 10
342.4662581995427
 20
214.3011686281158
 30
0.0
  0
LINE
  5
3B6
330
70
100
AcDbEntity
  8
0
 62
    18
420
        0
370
    25
100
AcDbLine
 10
342.4662581995427
 20
214.3011686281152
 30
0.0
 11
341.5782117876995
 21
215.8879876172017
 31
0.0
  0
LINE
  5
3B7
330
70
100
AcDbEntity
  8
0
 62
    18
420
        0
370
    25
100
AcDbLine
 10
338.7839327930545
 20
201.2613867283256
 30
0.0
 11
340.3384124946505
 21
204.0390319907187
 31
0.0
  0
SPLINE
  5
3B8
330
70
100
AcDbEntity
  8
0
 62
    18
420
        0
370
    25
100
AcDbSpline
210
0.0
220
0.0
230
1.0
 70
     8
 71
     3
 72
     8
 73
     4
 74
     0
 42
0.0000000001
 43
0.0000000001
 40
0.0
 40
0.0
 40
0.0
 40
0.0
 40
1.0
 40
1.0
 40
1.0
 40
1.0
 10
340.3384124946505
 20
204.0390319907187
 30
0.0
 10
341.9155439668277
 20
206.8571529075542
 30
0.0
 10
341.9155439668277
 20
210.2922214379734
 30
0.0
 10
340.3384124946505
 20
213.110342354809
 30
0.0
  0
LINE
  5
3B9
330
70
100
AcDbEntity
  8
0
 62
    18
420
        0
370
    25
100
AcDbLine
 10
340.3384124946505
 20
213.1103423548087
 30
0.0
 11
340.1810722903769
 21
213.3914880478241
 31
0.0
  0
LINE
  5
3BA
330
70
100
AcDbEntity
  8
0
 62
    18
420
        0
370
    25
100
AcDbLine
 10
338.7839327930545
 20
201.2613867283256
 30
0.0
 11
337.895886381211
 21
202.8482057174122
 31
0.0
  0
SPLINE
  5
3BB
330
70
100
AcDbEntity
  8
0
 62
    18
420
        0
370
    25
100
AcDbSpline
210
0.0
220
0.0
230
1.0
 70
     8
 71
     3
 72
     8
 73
     4
 74
     0
 42
0.0000000001
 43
0.0000000001
 40
0.0
 40
0.0
 40
0.0
 40
0.0
 40
1.0
 40
1.0
 40
1.0
 40
1.0
 10
337.8958863812112
 20
214.3011686281158
 30
0.0
 10
335.9046825163698
 20
210.7431562745573
 30
0.0
 10
335.9046825163698
 20
206.4062180709704
 30
0.0
 10
337.8958863812112
 20
202.8482057174119
 30
0.0
  0
LINE
  5
3BC
330
70
100
AcDbEntity
  8
0
 62
    18
420
        0
370
    25
100
AcDbLine
 10
337.895886381211
 20
214.3011686281152
 30
0.0
 11
338.7839327930545
 21
215.8879876172017
 31
0.0
  0
LINE
  5
3BD
330
70
100
AcDbEntity
  8
0
 62
    18
420
        0
370
    25
100
AcDbLine
 10
340.1810722903769
 20
203.7578862977032
 30
0.0
 11
340.0237320861034
 21
204.0390319907187
 31
0.0
  0
SPLINE
  5
3BE
330
70
100
AcDbEntity
  8
0
 62
    18
420
        0
370
    25
100
AcDbSpline
210
0.0
220
0.0
230
1.0
 70
     8
 71
     3
 72
     8
 73
     4
 74
     0
 42
0.0000000001
 43
0.0000000001
 40
0.0
 40
0.0
 40
0.0
 40
0.0
 40
1.0
 40
1.0
 40
1.0
 40
1.0
 10
340.0237320861034
 20
213.110342354809
 30
0.0
 10
338.4466006139263
 20
210.2922214379734
 30
0.0
 10
338.4466006139263
 20
206.8571529075542
 30
0.0
 10
340.0237320861034
 20
204.0390319907187
 30
0.0
  0
LINE
  5
3BF
330
70
100
AcDbEntity
  8
0
 62
    18
420
        0
370
    25
100
AcDbLine
 10
340.0237320861034
 20
213.1103423548087
 30
0.0
 11
341.5782117876995
 21
215.8879876172017
 31
0.0
  0
LINE
  5
3C0
330
70
100
AcDbEntity
  8
0
 62
    18
420
        0
370
    25
100
AcDbLine
 10
341.5782117876995
 20
186.6347858394514
 30
0.0
 11
342.4662581995427
 21
188.2216048285379
 31
0.0
  0
SPLINE
  5
3C1
330
70
100
AcDbEntity
  8
0
 62
    18
420
        0
370
    25
100
AcDbSpline
210
0.0
220
0.0
230
1.0
 70
     8
 71
     3
 72
     8
 73
     4
 74
     0
 42
0.0000000001
 43
0.0000000001
 40
0.0
 40
0.0
 40
0.0
 40
0.0
 40
1.0
 40
1.0
 40
1.0
 40
1.0
 10
342.4662581995427
 20
188.2216048285373
 30
0.0
 10
344.4574620643838
 20
191.7796171820962
 30
0.0
 10
344.4574620643838
 20
196.1165553856827
 30
0.0
 10
342.4662581995427
 20
199.6745677392413
 30
0.0
  0
LINE
  5
3C2
330
70
100
AcDbEntity
  8
0
 62
    18
420
        0
370
    25
100
AcDbLine
 10
342.4662581995427
 20
199.6745677392407
 30
0.0
 11
341.5782117876995
 21
201.2613867283272
 31
0.0
  0
LINE
  5
3C3
330
70
100
AcDbEntity
  8
0
 62
    18
420
        0
370
    25
100
AcDbLine
 10
338.7839327930545
 20
186.6347858394514
 30
0.0
 11
340.3384124946505
 21
189.4124311018444
 31
0.0
  0
SPLINE
  5
3C4
330
70
100
AcDbEntity
  8
0
 62
    18
420
        0
370
    25
100
AcDbSpline
210
0.0
220
0.0
230
1.0
 70
     8
 71
     3
 72
     8
 73
     4
 74
     0
 42
0.0000000001
 43
0.0000000001
 40
0.0
 40
0.0
 40
0.0
 40
0.0
 40
1.0
 40
1.0
 40
1.0
 40
1.0
 10
340.3384124946505
 20
189.4124311018444
 30
0.0
 10
341.9155439668277
 20
192.23055201868
 30
0.0
 10
341.9155439668277
 20
195.6656205490989
 30
0.0
 10
340.3384124946505
 20
198.4837414659348
 30
0.0
  0
LINE
  5
3C5
330
70
100
AcDbEntity
  8
0
 62
    18
420
        0
370
    25
100
AcDbLine
 10
340.3384124946505
 20
198.4837414659341
 30
0.0
 11
340.1810722903769
 21
198.7648871589499
 31
0.0
  0
LINE
  5
3C6
330
70
100
AcDbEntity
  8
0
 62
    18
420
        0
370
    25
100
AcDbLine
 10
338.7839327930545
 20
186.6347858394514
 30
0.0
 11
337.895886381211
 21
188.2216048285379
 31
0.0
  0
SPLINE
  5
3C7
330
70
100
AcDbEntity
  8
0
 62
    18
420
        0
370
    25
100
AcDbSpline
210
0.0
220
0.0
230
1.0
 70
     8
 71
     3
 72
     8
 73
     4
 74
     0
 42
0.0000000001
 43
0.0000000001
 40
0.0
 40
0.0
 40
0.0
 40
0.0
 40
1.0
 40
1.0
 40
1.0
 40
1.0
 10
337.8958863812112
 20
199.6745677392413
 30
0.0
 10
335.9046825163698
 20
196.1165553856827
 30
0.0
 10
335.9046825163698
 20
191.7796171820962
 30
0.0
 10
337.8958863812112
 20
188.2216048285373
 30
0.0
  0
LINE
  5
3C8
330
70
100
AcDbEntity
  8
0
 62
    18
420
        0
370
    25
100
AcDbLine
 10
337.895886381211
 20
199.6745677392407
 30
0.0
 11
338.7839327930545
 21
201.2613867283272
 31
0.0
  0
LINE
  5
3C9
330
70
100
AcDbEntity
  8
0
 62
    18
420
        0
370
    25
100
AcDbLine
 10
340.1810722903769
 20
189.1312854088287
 30
0.0
 11
340.0237320861034
 21
189.4124311018444
 31
0.0
  0
SPLINE
  5
3CA
330
70
100
AcDbEntity
  8
0
 62
    18
420
        0
370
    25
100
AcDbSpline
210
0.0
220
0.0
230
1.0
 70
     8
 71
     3
 72
     8
 73
     4
 74
     0
 42
0.0000000001
 43
0.0000000001
 40
0.0
 40
0.0
 40
0.0
 40
0.0
 40
1.0
 40
1.0
 40
1.0
 40
1.0
 10
340.0237320861034
 20
198.4837414659348
 30
0.0
 10
338.4466006139263
 20
195.6656205490989
 30
0.0
 10
338.4466006139263
 20
192.23055201868
 30
0.0
 10
340.0237320861034
 20
189.4124311018444
 30
0.0
  0
LINE
  5
3CB
330
70
100
AcDbEntity
  8
0
 62
    18
420
        0
370
    25
100
AcDbLine
 10
340.0237320861034
 20
198.4837414659341
 30
0.0
 11
341.5782117876995
 21
201.2613867283272
 31
0.0
  0
LINE
  5
3CC
330
70
100
AcDbEntity
  8
0
 62
    18
420
        0
370
    25
100
AcDbLine
 10
341.5782117876995
 20
215.8879876172001
 30
0.0
 11
342.4662581995427
 21
217.4748066062864
 31
0.0
  0
SPLINE
  5
3CD
330
70
100
AcDbEntity
  8
0
 62
    18
420
        0
370
    25
100
AcDbSpline
210
0.0
220
0.0
230
1.0
 70
     8
 71
     3
 72
     8
 73
     4
 74
     0
 42
0.0000000001
 43
0.0000000001
 40
0.0
 40
0.0
 40
0.0
 40
0.0
 40
1.0
 40
1.0
 40
1.0
 40
1.0
 10
342.4662581995427
 20
217.4748066062861
 30
0.0
 10
344.4574620643838
 20
221.0328189598449
 30
0.0
 10
344.4574620643838
 20
225.3697571634315
 30
0.0
 10
342.4662581995427
 20
228.9277695169904
 30
0.0
  0
LINE
  5
3CE
330
70
100
AcDbEntity
  8
0
 62
    18
420
        0
370
    25
100
AcDbLine
 10
342.4662581995427
 20
228.9277695169897
 30
0.0
 11
341.5782117876995
 21
230.5145885060759
 31
0.0
  0
LINE
  5
3CF
330
70
100
AcDbEntity
  8
0
 62
    18
420
        0
370
    25
100
AcDbLine
 10
338.7839327930545
 20
215.8879876172001
 30
0.0
 11
340.3384124946505
 21
218.6656328795932
 31
0.0
  0
SPLINE
  5
3D0
330
70
100
AcDbEntity
  8
0
 62
    18
420
        0
370
    25
100
AcDbSpline
210
0.0
220
0.0
230
1.0
 70
     8
 71
     3
 72
     8
 73
     4
 74
     0
 42
0.0000000001
 43
0.0000000001
 40
0.0
 40
0.0
 40
0.0
 40
0.0
 40
1.0
 40
1.0
 40
1.0
 40
1.0
 10
340.3384124946505
 20
218.6656328795929
 30
0.0
 10
341.9155439668277
 20
221.4837537964287
 30
0.0
 10
341.9155439668277
 20
224.9188223268476
 30
0.0
 10
340.3384124946505
 20
227.7369432436835
 30
0.0
  0
LINE
  5
3D1
330
70
100
AcDbEntity
  8
0
 62
    18
420
        0
370
    25
100
AcDbLine
 10
340.3384124946505
 20
227.7369432436829
 30
0.0
 11
340.1810722903769
 21
228.0180889366986
 31
0.0
  0
LINE
  5
3D2
330
70
100
AcDbEntity
  8
0
 62
    18
420
        0
370
    25
100
AcDbLine
 10
338.7839327930545
 20
215.8879876172001
 30
0.0
 11
337.895886381211
 21
217.4748066062864
 31
0.0
  0
SPLINE
  5
3D3
330
70
100
AcDbEntity
  8
0
 62
    18
420
        0
370
    25
100
AcDbSpline
210
0.0
220
0.0
230
1.0
 70
     8
 71
     3
 72
     8
 73
     4
 74
     0
 42
0.0000000001
 43
0.0000000001
 40
0.0
 40
0.0
 40
0.0
 40
0.0
 40
1.0
 40
1.0
 40
1.0
 40
1.0
 10
337.8958863812112
 20
228.9277695169904
 30
0.0
 10
335.9046825163698
 20
225.3697571634315
 30
0.0
 10
335.9046825163698
 20
221.0328189598449
 30
0.0
 10
337.8958863812112
 20
217.4748066062861
 30
0.0
  0
LINE
  5
3D4
330
70
100
AcDbEntity
  8
0
 62
    18
420
        0
370
    25
100
AcDbLine
 10
337.895886381211
 20
228.9277695169897
 30
0.0
 11
338.7839327930545
 21
230.5145885060759
 31
0.0
  0
LINE
  5
3D5
330
70
100
AcDbEntity
  8
0
 62
    18
420
        0
370
    25
100
AcDbLine
 10
340.1810722903769
 20
218.3844871865774
 30
0.0
 11
340.0237320861034
 21
218.6656328795932
 31
0.0
  0
SPLINE
  5
3D6
330
70
100
AcDbEntity
  8
0
 62
    18
420
        0
370
    25
100
AcDbSpline
210
0.0
220
0.0
230
1.0
 70
     8
 71
     3
 72
     8
 73
     4
 74
     0
 42
0.0000000001
 43
0.0000000001
 40
0.0
 40
0.0
 40
0.0
 40
0.0
 40
1.0
 40
1.0
 40
1.0
 40
1.0
 10
340.0237320861034
 20
227.7369432436835
 30
0.0
 10
338.4466006139263
 20
224.9188223268476
 30
0.0
 10
338.4466006139263
 20
221.4837537964287
 30
0.0
 10
340.0237320861034
 20
218.6656328795929
 30
0.0
  0
LINE
  5
3D7
330
70
100
AcDbEntity
  8
0
 62
    18
420
        0
370
    25
100
AcDbLine
 10
340.0237320861034
 20
227.7369432436829
 30
0.0
 11
341.5782117876995
 21
230.5145885060759
 31
0.0
  0
LINE
  5
3D9
330
70
100
AcDbEntity
  8
FLAME
 62
     2
420
 16776960
370
    25
100
AcDbLine
 10
501.9523808268929
 20
380.9999999047501
 30
0.0
 11
501.9523808268929
 21
0.0
 31
0.0
  0
LINE
  5
3DA
330
70
100
AcDbEntity
  8
FLAME
 62
     2
420
 16776960
370
    25
100
AcDbLine
 10
175.3809523371073
 20
0.0
 30
0.0
 11
175.3809523371073
 21
380.9999999047501
 31
0.0
  0
LINE
  5
3DB
330
70
100
AcDbEntity
  8
FLAME
 62
     2
420
 16776960
370
    25
100
AcDbLine
 10
501.9523808268929
 20
0.0
 30
0.0
 11
175.3809523371073
 21
0.0
 31
0.0
  0
LINE
  5
3DC
330
70
100
AcDbEntity
  8
FLAME
 62
     2
420
 16776960
370
    25
100
AcDbLine
 10
501.9523808268929
 20
18.1428571383218
 30
0.0
 11
175.3809523371073
 21
18.1428571383218
 31
0.0
  0
LINE
  5
3DD
330
70
100
AcDbEntity
  8
FLAME
 62
     2
420
 16776960
370
    25
100
AcDbLine
 10
501.9523808268929
 20
36.28571427664295
 30
0.0
 11
175.3809523371073
 21
36.28571427664295
 31
0.0
  0
LINE
  5
3DE
330
70
100
AcDbEntity
  8
FLAME
 62
     2
420
 16776960
370
    25
100
AcDbLine
 10
501.9523808268929
 20
54.42857141496411
 30
0.0
 11
175.3809523371073
 21
54.42857141496411
 31
0.0
  0
LINE
  5
3DF
330
70
100
AcDbEntity
  8
FLAME
 62
     2
420
 16776960
370
    25
100
AcDbLine
 10
501.9523808268929
 20
380.9999999047501
 30
0.0
 11
175.3809523371073
 21
380.9999999047501
 31
0.0
  0
MTEXT
  5
3E1
330
70
100
AcDbEntity
  8
SPEC
100
AcDbMText
 10
187.6349293557605
 20
41.1836753530328
 30
0.0
 40
0.2
 41
0.0
 46
0.0
 71
     7
 72
     1
  1
\C9;\c12632256;\FKozuka Gothic Pr6N R|b0|i0|c128;\H9.071429;\W1.000000;KP1303L
 73
     1
 44
1.0
  0
MTEXT
  5
3E2
330
70
100
AcDbEntity
  8
SPEC
100
AcDbMText
 10
187.6349293557605
 20
23.04081744571685
 30
0.0
 40
0.2
 41
0.0
 46
0.0
 71
     7
 72
     1
  1
\C9;\c12632256;\FKozuka Gothic Pr6N R|b0|i0|c128;\H7.992533;\W1.000000;E26 LED電球（100W相当 電球色 全方向/広配光タイプ）ｘ3灯
 73
     1
 44
1.0
  0
ENDSEC
  0
SECTION
  2
OBJECTS
  0
DICTIONARY
  5
C
330
0
100
AcDbDictionary
281
     1
  3
ACAD_COLOR
350
63
  3
ACAD_DETAILVIEWSTYLE
350
6A
  3
ACAD_GROUP
350
D
  3
ACAD_LAYOUT
350
62
  3
ACAD_MATERIAL
350
10
  3
ACAD_MLEADERSTYLE
350
66
  3
ACAD_MLINESTYLE
350
5F
  3
ACAD_PLOTSETTINGS
350
61
  3
ACAD_PLOTSTYLENAME
350
E
  3
ACAD_SCALELIST
350
42
  3
ACAD_SECTIONVIEWSTYLE
350
68
  3
ACAD_TABLESTYLE
350
64
  3
ACAD_VISUALSTYLE
350
29
  3
ACDB_RECOMPOSE_DATA
350
3EB
  3
AcDbVariableDictionary
350
3E3
  0
DICTIONARY
  5
63
102
{ACAD_REACTORS
330
C
102
}
330
C
100
AcDbDictionary
281
     1
  0
DICTIONARY
  5
6A
102
{ACAD_REACTORS
330
C
102
}
330
C
100
AcDbDictionary
281
     1
  3
Imperial24
350
6B
  0
DICTIONARY
  5
D
102
{ACAD_REACTORS
330
C
102
}
330
C
100
AcDbDictionary
281
     1
  0
DICTIONARY
  5
62
102
{ACAD_REACTORS
330
C
102
}
330
C
100
AcDbDictionary
281
     1
  3
Layout1
350
6F
  3
Layout2
350
77
  3
Model
350
73
  0
DICTIONARY
  5
10
102
{ACAD_REACTORS
330
C
102
}
330
C
100
AcDbDictionary
281
     1
  3
ByBlock
350
19
  3
ByLayer
350
11
  3
Global
350
21
  0
DICTIONARY
  5
66
102
{ACAD_REACTORS
330
C
102
}
330
C
100
AcDbDictionary
281
     1
  3
Standard
350
67
  0
DICTIONARY
  5
5F
102
{ACAD_REACTORS
330
C
102
}
330
C
100
AcDbDictionary
281
     1
  3
Standard
350
60
  0
DICTIONARY
  5
61
102
{ACAD_REACTORS
330
C
102
}
330
C
100
AcDbDictionary
281
     1
  0
ACDBDICTIONARYWDFLT
  5
E
102
{ACAD_REACTORS
330
C
102
}
330
C
100
AcDbDictionary
281
     1
  3
Normal
350
F
100
AcDbDictionaryWithDefault
340
F
  0
DICTIONARY
  5
42
102
{ACAD_REACTORS
330
C
102
}
330
C
100
AcDbDictionary
281
     1
  3
A0
350
43
  3
A1
350
44
  3
A2
350
45
  3
A3
350
46
  3
A4
350
47
  3
A5
350
48
  3
A6
350
49
  3
A7
350
4A
  3
A8
350
4B
  3
A9
350
4C
  3
B0
350
4D
  3
B1
350
4E
  3
B2
350
4F
  3
B3
350
50
  3
B4
350
51
  3
B5
350
52
  3
B6
350
53
  0
DICTIONARY
  5
68
102
{ACAD_REACTORS
330
C
102
}
330
C
100
AcDbDictionary
281
     1
  3
Imperial24
350
69
  0
DICTIONARY
  5
64
102
{ACAD_REACTORS
330
C
102
}
330
C
100
AcDbDictionary
281
     1
  3
Standard
350
65
  0
DICTIONARY
  5
29
102
{ACAD_REACTORS
330
C
102
}
330
C
100
AcDbDictionary
281
     1
  3
2dWireframe
350
2F
  3
Basic
350
2E
  3
Brighten
350
35
  3
ColorChange
350
39
  3
Conceptual
350
32
  3
Dim
350
34
  3
EdgeColorOff
350
41
  3
Facepattern
350
38
  3
Flat
350
2A
  3
FlatWithEdges
350
2B
  3
Gouraud
350
2C
  3
GouraudWithEdges
350
2D
  3
Hidden
350
31
  3
JitterOff
350
3F
  3
Linepattern
350
37
  3
OverhangOff
350
40
  3
Realistic
350
33
  3
Shaded
350
3E
  3
Shaded with edges
350
3D
  3
Shades of Gray
350
3A
  3
Sketchy
350
3B
  3
Thicken
350
36
  3
Wireframe
350
30
  3
X-Ray
350
3C
  0
XRECORD
  5
3EB
102
{ACAD_REACTORS
330
C
102
}
330
C
100
AcDbXrecord
280
     1
 90
        1
330
65
  0
DICTIONARY
  5
3E3
102
{ACAD_REACTORS
330
C
102
}
330
C
100
AcDbDictionary
281
     1
  3
CANNOSCALE
350
3E8
  3
CMLEADERSTYLE
350
3E5
  3
CTABLESTYLE
350
3E4
  3
CVIEWDETAILSTYLE
350
3E6
  3
CVIEWSECTIONSTYLE
350
3E7
  0
ACDBDETAILVIEWSTYLE
  5
6B
102
{ACAD_REACTORS
330
6A
102
}
330
6A
100
AcDbModelDocViewStyle
 70
     0
  3
Imperial24
290
     1
300
Imperial24
 90
        0
100
AcDbDetailViewStyle
 70
     0
 71
     0
 90
        3
 71
     1
340
55
 62
   256
 40
0.24
340
0
 62
   256
 40
0.24
300

 40
0.36
280
     3
 71
     2
340
5D
 90
       25
 62
   256
 71
     3
340
55
 62
   256
 40
0.24
 90
        1
 40
0.75
 90
        1
300
%<\AcVar ViewType \f "%tc1">% %<\AcVar ViewDetailId>%\PSCALE %<\AcVar ViewScale \f "%sn">%
 71
     4
340
5D
 90
       25
 62
   256
340
5D
 90
       25
 62
   256
280
     0
  0
LAYOUT
  5
6F
102
{ACAD_REACTORS
330
62
102
}
330
62
100
AcDbPlotSettings
  1

  2

  4

  6

 40
0.0
 41
0.0
 42
0.0
 43
0.0
 44
0.0
 45
0.0
 46
0.0
 47
0.0
 48
0.0
 49
0.0
140
0.0
141
0.0
142
1.0
143
1.0
 70
   688
 72
     0
 73
     0
 74
     5
  7

 75
    16
147
1.0
 76
     0
 77
     2
 78
   300
148
0.0
149
0.0
100
AcDbLayout
  1
Layout1
 70
     1
 71
     1
 10
0.0
 20
0.0
 11
12.0
 21
9.0
 12
0.0
 22
0.0
 32
0.0
 14
0.0
 24
0.0
 34
0.0
 15
0.0
 25
0.0
 35
0.0
146
0.0
 13
0.0
 23
0.0
 33
0.0
 16
1.0
 26
0.0
 36
0.0
 17
0.0
 27
1.0
 37
0.0
 76
     0
330
6C
  0
LAYOUT
  5
77
102
{ACAD_REACTORS
330
62
102
}
330
62
100
AcDbPlotSettings
  1

  2

  4

  6

 40
0.0
 41
0.0
 42
0.0
 43
0.0
 44
0.0
 45
0.0
 46
0.0
 47
0.0
 48
0.0
 49
0.0
140
0.0
141
0.0
142
1.0
143
1.0
 70
   688
 72
     0
 73
     0
 74
     5
  7

 75
    16
147
1.0
 76
     0
 77
     2
 78
   300
148
0.0
149
0.0
100
AcDbLayout
  1
Layout2
 70
     1
 71
     2
 10
0.0
 20
0.0
 11
12.0
 21
9.0
 12
0.0
 22
0.0
 32
0.0
 14
0.0
 24
0.0
 34
0.0
 15
0.0
 25
0.0
 35
0.0
146
0.0
 13
0.0
 23
0.0
 33
0.0
 16
1.0
 26
0.0
 36
0.0
 17
0.0
 27
1.0
 37
0.0
 76
     0
330
74
  0
LAYOUT
  5
73
102
{ACAD_REACTORS
330
62
102
}
330
62
100
AcDbPlotSettings
  1

  2

  4

  6

 40
0.0
 41
0.0
 42
0.0
 43
0.0
 44
0.0
 45
0.0
 46
0.0
 47
0.0
 48
0.0
 49
0.0
140
0.0
141
0.0
142
1.0
143
1.0
 70
  1712
 72
     0
 73
     0
 74
     0
  7

 75
     0
147
1.0
 76
     0
 77
     2
 78
   300
148
0.0
149
0.0
100
AcDbLayout
  1
Model
 70
     1
 71
     0
 10
0.0
 20
0.0
 11
12.0
 21
9.0
 12
0.0
 22
0.0
 32
0.0
 14
0.0
 24
0.0
 34
0.0
 15
0.0
 25
0.0
 35
0.0
146
0.0
 13
0.0
 23
0.0
 33
0.0
 16
1.0
 26
0.0
 36
0.0
 17
0.0
 27
1.0
 37
0.0
 76
     0
330
70
  0
MATERIAL
  5
19
102
{ACAD_XDICTIONARY
360
1A
102
}
102
{ACAD_REACTORS
330
10
102
}
330
10
100
AcDbMaterial
  1
ByBlock
 72
     0
 43
0.0208333333333333
 43
0.0
 43
0.0
 43
0.0
 43
0.0
 43
0.0208333333333333
 43
0.0
 43
0.0
 43
0.0
 43
0.0
 43
1.0
 43
0.0
 43
0.0
 43
0.0
 43
0.0
 43
1.0
 77
     0
 47
0.0208333333333333
 47
0.0
 47
0.0
 47
0.0
 47
0.0
 47
0.0208333333333333
 47
0.0
 47
0.0
 47
0.0
 47
0.0
 47
1.0
 47
0.0
 47
0.0
 47
0.0
 47
0.0
 47
1.0
171
     0
 49
0.0208333333333333
 49
0.0
 49
0.0
 49
0.0
 49
0.0
 49
0.0208333333333333
 49
0.0
 49
0.0
 49
0.0
 49
0.0
 49
1.0
 49
0.0
 49
0.0
 49
0.0
 49
0.0
 49
1.0
175
     0
142
0.0208333333333333
142
0.0
142
0.0
142
0.0
142
0.0
142
0.0208333333333333
142
0.0
142
0.0
142
0.0
142
0.0
142
1.0
142
0.0
142
0.0
142
0.0
142
0.0
142
1.0
179
     0
144
0.0208333333333333
144
0.0
144
0.0
144
0.0
144
0.0
144
0.0208333333333333
144
0.0
144
0.0
144
0.0
144
0.0
144
1.0
144
0.0
144
0.0
144
0.0
144
0.0
144
1.0
147
0.0208333333333333
147
0.0
147
0.0
147
0.0
147
0.0
147
0.0208333333333333
147
0.0
147
0.0
147
0.0
147
0.0
147
1.0
147
0.0
147
0.0
147
0.0
147
0.0
147
1.0
  0
MATERIAL
  5
11
102
{ACAD_XDICTIONARY
360
12
102
}
102
{ACAD_REACTORS
330
10
102
}
330
10
100
AcDbMaterial
  1
ByLayer
 72
     0
 43
0.0208333333333333
 43
0.0
 43
0.0
 43
0.0
 43
0.0
 43
0.0208333333333333
 43
0.0
 43
0.0
 43
0.0
 43
0.0
 43
1.0
 43
0.0
 43
0.0
 43
0.0
 43
0.0
 43
1.0
 77
     0
 47
0.0208333333333333
 47
0.0
 47
0.0
 47
0.0
 47
0.0
 47
0.0208333333333333
 47
0.0
 47
0.0
 47
0.0
 47
0.0
 47
1.0
 47
0.0
 47
0.0
 47
0.0
 47
0.0
 47
1.0
171
     0
 49
0.0208333333333333
 49
0.0
 49
0.0
 49
0.0
 49
0.0
 49
0.0208333333333333
 49
0.0
 49
0.0
 49
0.0
 49
0.0
 49
1.0
 49
0.0
 49
0.0
 49
0.0
 49
0.0
 49
1.0
175
     0
142
0.0208333333333333
142
0.0
142
0.0
142
0.0
142
0.0
142
0.0208333333333333
142
0.0
142
0.0
142
0.0
142
0.0
142
1.0
142
0.0
142
0.0
142
0.0
142
0.0
142
1.0
179
     0
144
0.0208333333333333
144
0.0
144
0.0
144
0.0
144
0.0
144
0.0208333333333333
144
0.0
144
0.0
144
0.0
144
0.0
144
1.0
144
0.0
144
0.0
144
0.0
144
0.0
144
1.0
147
0.0208333333333333
147
0.0
147
0.0
147
0.0
147
0.0
147
0.0208333333333333
147
0.0
147
0.0
147
0.0
147
0.0
147
1.0
147
0.0
147
0.0
147
0.0
147
0.0
147
1.0
  0
MATERIAL
  5
21
102
{ACAD_XDICTIONARY
360
22
102
}
102
{ACAD_REACTORS
330
10
102
}
330
10
100
AcDbMaterial
  1
Global
 72
     0
 43
0.0208333333333333
 43
0.0
 43
0.0
 43
0.0
 43
0.0
 43
0.0208333333333333
 43
0.0
 43
0.0
 43
0.0
 43
0.0
 43
1.0
 43
0.0
 43
0.0
 43
0.0
 43
0.0
 43
1.0
 77
     0
 47
0.0208333333333333
 47
0.0
 47
0.0
 47
0.0
 47
0.0
 47
0.0208333333333333
 47
0.0
 47
0.0
 47
0.0
 47
0.0
 47
1.0
 47
0.0
 47
0.0
 47
0.0
 47
0.0
 47
1.0
171
     0
 49
0.0208333333333333
 49
0.0
 49
0.0
 49
0.0
 49
0.0
 49
0.0208333333333333
 49
0.0
 49
0.0
 49
0.0
 49
0.0
 49
1.0
 49
0.0
 49
0.0
 49
0.0
 49
0.0
 49
1.0
175
     0
142
0.0208333333333333
142
0.0
142
0.0
142
0.0
142
0.0
142
0.0208333333333333
142
0.0
142
0.0
142
0.0
142
0.0
142
1.0
142
0.0
142
0.0
142
0.0
142
0.0
142
1.0
179
     0
144
0.0208333333333333
144
0.0
144
0.0
144
0.0
144
0.0
144
0.0208333333333333
144
0.0
144
0.0
144
0.0
144
0.0
144
1.0
144
0.0
144
0.0
144
0.0
144
0.0
144
1.0
147
0.0208333333333333
147
0.0
147
0.0
147
0.0
147
0.0
147
0.0208333333333333
147
0.0
147
0.0
147
0.0
147
0.0
147
1.0
147
0.0
147
0.0
147
0.0
147
0.0
147
1.0
  0
MLEADERSTYLE
  5
67
102
{ACAD_REACTORS
330
66
102
}
330
66
100
AcDbMLeaderStyle
179
     2
170
     2
171
     1
172
     0
 90
        2
 40
0.0
 41
0.0
173
     1
 91
-1056964608
340
5B
 92
       -2
290
     1
 42
0.09
291
     1
 43
0.36
  3
Standard
 44
0.18
300

342
55
174
     1
178
     6
175
     1
176
     0
 93
-1056964608
 45
0.18
292
     0
297
     0
 46
0.18
 94
-1056964608
 47
1.0
 49
1.0
140
1.0
293
     1
141
0.0
294
     1
177
     0
142
1.0
295
     1
296
     0
143
0.125
271
     0
272
     9
273
     9
298
     1
  0
MLINESTYLE
  5
60
102
{ACAD_REACTORS
330
5F
102
}
330
5F
100
AcDbMlineStyle
  2
STANDARD
 70
     0
  3

 62
   256
 51
90.0
 52
90.0
 71
     2
 49
0.5
 62
   256
  6
BYLAYER
 49
-0.5
 62
   256
  6
BYLAYER
  0
ACDBPLACEHOLDER
  5
F
102
{ACAD_REACTORS
330
E
102
}
330
E
  0
SCALE
  5
43
102
{ACAD_REACTORS
330
42
102
}
330
42
100
AcDbScale
 70
     0
300
1:1
140
1.0
141
1.0
290
     1
  0
SCALE
  5
44
102
{ACAD_REACTORS
330
42
102
}
330
42
100
AcDbScale
 70
     0
300
1/128" = 1'-0"
140
0.0078125
141
12.0
290
     0
  0
SCALE
  5
45
102
{ACAD_REACTORS
330
42
102
}
330
42
100
AcDbScale
 70
     0
300
1/64" = 1'-0"
140
0.015625
141
12.0
290
     0
  0
SCALE
  5
46
102
{ACAD_REACTORS
330
42
102
}
330
42
100
AcDbScale
 70
     0
300
1/32" = 1'-0"
140
0.03125
141
12.0
290
     0
  0
SCALE
  5
47
102
{ACAD_REACTORS
330
42
102
}
330
42
100
AcDbScale
 70
     0
300
1/16" = 1'-0"
140
0.0625
141
12.0
290
     0
  0
SCALE
  5
48
102
{ACAD_REACTORS
330
42
102
}
330
42
100
AcDbScale
 70
     0
300
3/32" = 1'-0"
140
0.09375
141
12.0
290
     0
  0
SCALE
  5
49
102
{ACAD_REACTORS
330
42
102
}
330
42
100
AcDbScale
 70
     0
300
1/8" = 1'-0"
140
0.125
141
12.0
290
     0
  0
SCALE
  5
4A
102
{ACAD_REACTORS
330
42
102
}
330
42
100
AcDbScale
 70
     0
300
3/16" = 1'-0"
140
0.1875
141
12.0
290
     0
  0
SCALE
  5
4B
102
{ACAD_REACTORS
330
42
102
}
330
42
100
AcDbScale
 70
     0
300
1/4" = 1'-0"
140
0.25
141
12.0
290
     0
  0
SCALE
  5
4C
102
{ACAD_REACTORS
330
42
102
}
330
42
100
AcDbScale
 70
     0
300
3/8" = 1'-0"
140
0.375
141
12.0
290
     0
  0
SCALE
  5
4D
102
{ACAD_REACTORS
330
42
102
}
330
42
100
AcDbScale
 70
     0
300
1/2" = 1'-0"
140
0.5
141
12.0
290
     0
  0
SCALE
  5
4E
102
{ACAD_REACTORS
330
42
102
}
330
42
100
AcDbScale
 70
     0
300
3/4" = 1'-0"
140
0.75
141
12.0
290
     0
  0
SCALE
  5
4F
102
{ACAD_REACTORS
330
42
102
}
330
42
100
AcDbScale
 70
     0
300
1" = 1'-0"
140
1.0
141
12.0
290
     0
  0
SCALE
  5
50
102
{ACAD_REACTORS
330
42
102
}
330
42
100
AcDbScale
 70
     0
300
1-1/2" = 1'-0"
140
1.5
141
12.0
290
     0
  0
SCALE
  5
51
102
{ACAD_REACTORS
330
42
102
}
330
42
100
AcDbScale
 70
     0
300
3" = 1'-0"
140
3.0
141
12.0
290
     0
  0
SCALE
  5
52
102
{ACAD_REACTORS
330
42
102
}
330
42
100
AcDbScale
 70
     0
300
6" = 1'-0"
140
6.0
141
12.0
290
     0
  0
SCALE
  5
53
102
{ACAD_REACTORS
330
42
102
}
330
42
100
AcDbScale
 70
     0
300
1'-0" = 1'-0"
140
12.0
141
12.0
290
     0
  0
ACDBSECTIONVIEWSTYLE
  5
69
102
{ACAD_REACTORS
330
68
102
}
330
68
100
AcDbModelDocViewStyle
 70
     0
  3
Imperial24
290
     1
300
Imperial24
 90
        0
100
AcDbSectionViewStyle
 70
     0
 71
     0
 90
       78
 71
     1
340
55
 62
   256
 40
0.24
340
0
340
0
 62
   256
 40
0.24
300
I, O, Q, S, X, Z
 40
0.48
 90
        3
 40
0.18
 90
        1
 71
     2
340
5D
 90
       25
 62
   256
340
5D
 90
       50
 62
   256
 40
0.24
 40
0.0
 40
0.24
 71
     3
340
55
 62
   256
 40
0.24
 90
        1
 40
0.75
 90
        1
300
%<\AcVar ViewType \f "%tc1">% %<\AcVar ViewSectionStartId>%-%<\AcVar ViewSectionEndId>%\PSCALE %<\AcVar ViewScale \f "%sn">%
 71
     4
 62
   256
 62
   257
300
ANSI31
 40
1.0
 90
        0
290
     0
290
     0
 90
        6
 40
0.0
 40
1.570796326794896
 40
0.2617993877991494
 40
1.308996938995747
 40
-0.2617993877991494
 40
1.832595714594046
  0
TABLESTYLE
  5
65
102
{ACAD_XDICTIONARY
360
3E9
102
}
102
{ACAD_REACTORS
330
64
102
}
330
64
100
AcDbTableStyle
280
     0
  3
Standard
 70
     0
 71
     0
 40
0.06
 41
0.06
280
     0
281
     0
  7
Standard
140
0.18
170
     2
 62
     0
 63
     7
283
     0
 90
      512
 91
        0
  1

274
    -2
284
     1
 64
     0
275
    -2
285
     1
 65
     0
276
    -2
286
     1
 66
     0
277
    -2
287
     1
 67
     0
278
    -2
288
     1
 68
     0
279
    -2
289
     1
 69
     0
  7
Standard
140
0.25
170
     5
 62
     0
 63
     7
283
     0
 90
      512
 91
        0
  1

274
    -2
284
     1
 64
     0
275
    -2
285
     1
 65
     0
276
    -2
286
     1
 66
     0
277
    -2
287
     1
 67
     0
278
    -2
288
     1
 68
     0
279
    -2
289
     1
 69
     0
  7
Standard
140
0.18
170
     5
 62
     0
 63
     7
283
     0
 90
      512
 91
        0
  1

274
    -2
284
     1
 64
     0
275
    -2
285
     1
 65
     0
276
    -2
286
     1
 66
     0
277
    -2
287
     1
 67
     0
278
    -2
288
     1
 68
     0
279
    -2
289
     1
 69
     0
  0
VISUALSTYLE
  5
2F
102
{ACAD_REACTORS
330
29
102
}
330
29
100
AcDbVisualStyle
  2
2dWireframe
 70
     4
177
     3
291
     0
 70
    58
 90
        0
176
     1
 90
        2
176
     1
 90
        0
176
     1
 90
        0
176
     1
 40
0.6
176
     1
 40
30.0
176
     1
 62
     7
420
 16777215
176
     1
 90
        1
176
     1
 90
        4
176
     1
 62
     7
176
     1
 62
   257
176
     1
 90
        1
176
     1
 90
        1
176
     1
 40
1.0
176
     1
 90
        0
176
     1
 62
   257
176
     1
 40
1.0
176
     1
 90
        1
176
     1
 90
        6
176
     1
 90
        2
176
     1
 62
     7
176
     1
 90
        5
176
     1
 90
        0
176
     1
 90
        0
176
     1
290
     0
176
     1
 90
        1
176
     1
 40
0.0
176
     1
 90
        0
176
     1
290
     1
176
     1
290
     1
176
     1
290
     0
176
     1
290
     0
176
     1
290
     0
176
     1
290
     0
176
     1
290
     0
176
     1
290
     0
176
     1
290
     0
176
     1
 90
       50
176
     1
 40
0.0
176
     1
 40
1.0
176
     1
 90
        0
176
     1
 62
    18
420
        0
176
     1
 90
       50
176
     1
 90
        3
176
     1
 62
     5
420
      255
176
     1
290
     0
176
     1
 90
       50
176
     1
 90
       50
176
     1
 90
       50
176
     1
290
     0
176
     1
 90
       50
176
     1
 62
   256
176
     0
 40
1.0
176
     0
 90
        2
176
     1
  1
strokes_ogs.tif
176
     1
290
     0
176
     1
 40
1.0
176
     1
 40
1.0
176
     1
  0
VISUALSTYLE
  5
2E
102
{ACAD_REACTORS
330
29
102
}
330
29
100
AcDbVisualStyle
  2
Basic
 70
     7
177
     3
291
     1
 70
    58
 90
        1
176
     1
 90
        0
176
     1
 90
        1
176
     1
 90
        0
176
     1
 40
0.6
176
     1
 40
30.0
176
     1
 62
     7
420
 16777215
176
     1
 90
        0
176
     1
 90
        4
176
     1
 62
     7
176
     1
 62
   257
176
     1
 90
        1
176
     1
 90
        1
176
     1
 40
1.0
176
     1
 90
        8
176
     1
 62
     7
176
     1
 40
1.0
176
     1
 90
        1
176
     1
 90
        6
176
     1
 90
        2
176
     1
 62
     7
176
     1
 90
        5
176
     1
 90
        0
176
     1
 90
        0
176
     1
290
     0
176
     1
 90
        1
176
     1
 40
0.0
176
     1
 90
        0
176
     1
290
     0
176
     1
290
     1
176
     1
290
     1
176
     1
290
     0
176
     1
290
     0
176
     1
290
     0
176
     1
290
     0
176
     1
290
     0
176
     1
290
     0
176
     1
 90
       50
176
     1
 40
0.0
176
     1
 40
1.0
176
     1
 90
        0
176
     1
 62
    18
420
        0
176
     1
 90
       50
176
     1
 90
        3
176
     1
 62
     5
420
      255
176
     1
290
     0
176
     1
 90
       50
176
     1
 90
       50
176
     1
 90
       50
176
     1
290
     0
176
     1
 90
       50
176
     1
 62
   256
176
     0
 40
1.0
176
     0
 90
        2
176
     1
  1
strokes_ogs.tif
176
     1
290
     0
176
     1
 40
1.0
176
     1
 40
1.0
176
     1
  0
VISUALSTYLE
  5
35
102
{ACAD_REACTORS
330
29
102
}
330
29
100
AcDbVisualStyle
  2
Brighten
 70
    12
177
     3
291
     1
 70
    58
 90
        2
176
     1
 90
        2
176
     1
 90
        0
176
     1
 90
        0
176
     1
 40
0.6
176
     1
 40
30.0
176
     1
 62
     7
420
 16777215
176
     1
 90
        1
176
     1
 90
        4
176
     1
 62
     7
176
     1
 62
   257
176
     1
 90
        1
176
     1
 90
        1
176
     1
 40
1.0
176
     1
 90
        8
176
     1
 62
     7
176
     1
 40
1.0
176
     1
 90
        1
176
     1
 90
        6
176
     1
 90
        2
176
     1
 62
     7
176
     1
 90
        5
176
     1
 90
        0
176
     1
 90
        0
176
     1
290
     0
176
     1
 90
        1
176
     1
 40
50.0
176
     1
 90
        0
176
     1
290
     0
176
     1
290
     1
176
     1
290
     1
176
     1
290
     0
176
     1
290
     0
176
     1
290
     0
176
     1
290
     0
176
     1
290
     0
176
     1
290
     0
176
     1
 90
       50
176
     1
 40
0.0
176
     1
 40
1.0
176
     1
 90
        0
176
     1
 62
    18
420
        0
176
     1
 90
       50
176
     1
 90
        3
176
     1
 62
     5
420
      255
176
     1
290
     0
176
     1
 90
       50
176
     1
 90
       50
176
     1
 90
       50
176
     1
290
     0
176
     1
 90
       50
176
     1
 62
   256
176
     0
 40
1.0
176
     0
 90
        2
176
     1
  1
strokes_ogs.tif
176
     1
290
     0
176
     1
 40
1.0
176
     1
 40
1.0
176
     1
  0
VISUALSTYLE
  5
39
102
{ACAD_REACTORS
330
29
102
}
330
29
100
AcDbVisualStyle
  2
ColorChange
 70
    16
177
     3
291
     1
 70
    58
 90
        2
176
     1
 90
        2
176
     1
 90
        3
176
     1
 90
        0
176
     1
 40
0.6
176
     1
 40
30.0
176
     1
 62
     8
420
  8421504
176
     1
 90
        1
176
     1
 90
        4
176
     1
 62
     7
176
     1
 62
   257
176
     1
 90
        1
176
     1
 90
        1
176
     1
 40
1.0
176
     1
 90
        8
176
     1
 62
     8
420
  8421504
176
     1
 40
1.0
176
     1
 90
        1
176
     1
 90
        6
176
     1
 90
        2
176
     1
 62
     7
176
     1
 90
        5
176
     1
 90
        0
176
     1
 90
        0
176
     1
290
     0
176
     1
 90
        1
176
     1
 40
0.0
176
     1
 90
        0
176
     1
290
     0
176
     1
290
     1
176
     1
290
     1
176
     1
290
     0
176
     1
290
     0
176
     1
290
     0
176
     1
290
     0
176
     1
290
     0
176
     1
290
     0
176
     1
 90
       50
176
     1
 40
0.0
176
     1
 40
1.0
176
     1
 90
        0
176
     1
 62
    18
420
        0
176
     1
 90
       50
176
     1
 90
        3
176
     1
 62
     5
420
      255
176
     1
290
     0
176
     1
 90
       50
176
     1
 90
       50
176
     1
 90
       50
176
     1
290
     0
176
     1
 90
       50
176
     1
 62
   256
176
     0
 40
1.0
176
     0
 90
        2
176
     1
  1
strokes_ogs.tif
176
     1
290
     0
176
     1
 40
1.0
176
     1
 40
1.0
176
     1
  0
VISUALSTYLE
  5
32
102
{ACAD_REACTORS
330
29
102
}
330
29
100
AcDbVisualStyle
  2
Conceptual
 70
     9
177
     3
291
     0
 70
    58
 90
        3
176
     1
 90
        2
176
     1
 90
        0
176
     1
 90
        0
176
     1
 40
0.6
176
     1
 40
30.0
176
     1
 62
     7
420
 16777215
176
     1
 90
        2
176
     1
 90
        2
176
     1
 62
     7
176
     1
 62
   257
176
     1
 90
        1
176
     1
 90
        1
176
     1
 40
179.0
176
     1
 90
        8
176
     1
 62
     7
176
     1
 40
1.0
176
     1
 90
        1
176
     1
 90
        6
176
     1
 90
        2
176
     1
 62
     7
176
     1
 90
        3
176
     1
 90
        0
176
     1
 90
        0
176
     1
290
     0
176
     1
 90
        1
176
     1
 40
0.0
176
     1
 90
        0
176
     1
290
     0
176
     1
290
     1
176
     1
290
     1
176
     1
290
     0
176
     1
290
     0
176
     1
290
     0
176
     1
290
     0
176
     1
290
     0
176
     1
290
     0
176
     1
 90
       50
176
     1
 40
0.0
176
     1
 40
1.0
176
     1
 90
        0
176
     1
 62
    18
420
        0
176
     1
 90
       50
176
     1
 90
        3
176
     1
 62
     5
420
      255
176
     1
290
     0
176
     1
 90
       50
176
     1
 90
       50
176
     1
 90
       50
176
     1
290
     0
176
     1
 90
       50
176
     1
 62
   256
176
     0
 40
1.0
176
     0
 90
        2
176
     1
  1
strokes_ogs.tif
176
     1
290
     0
176
     1
 40
1.0
176
     1
 40
1.0
176
     1
  0
VISUALSTYLE
  5
34
102
{ACAD_REACTORS
330
29
102
}
330
29
100
AcDbVisualStyle
  2
Dim
 70
    11
177
     3
291
     1
 70
    58
 90
        2
176
     1
 90
        2
176
     1
 90
        0
176
     1
 90
        0
176
     1
 40
0.6
176
     1
 40
30.0
176
     1
 62
     7
420
 16777215
176
     1
 90
        1
176
     1
 90
        4
176
     1
 62
     7
176
     1
 62
   257
176
     1
 90
        1
176
     1
 90
        1
176
     1
 40
1.0
176
     1
 90
        8
176
     1
 62
     7
176
     1
 40
1.0
176
     1
 90
        1
176
     1
 90
        6
176
     1
 90
        2
176
     1
 62
     7
176
     1
 90
        5
176
     1
 90
        0
176
     1
 90
        0
176
     1
290
     0
176
     1
 90
        1
176
     1
 40
-50.0
176
     1
 90
        0
176
     1
290
     0
176
     1
290
     1
176
     1
290
     1
176
     1
290
     0
176
     1
290
     0
176
     1
290
     0
176
     1
290
     0
176
     1
290
     0
176
     1
290
     0
176
     1
 90
       50
176
     1
 40
0.0
176
     1
 40
1.0
176
     1
 90
        0
176
     1
 62
    18
420
        0
176
     1
 90
       50
176
     1
 90
        3
176
     1
 62
     5
420
      255
176
     1
290
     0
176
     1
 90
       50
176
     1
 90
       50
176
     1
 90
       50
176
     1
290
     0
176
     1
 90
       50
176
     1
 62
   256
176
     0
 40
1.0
176
     0
 90
        2
176
     1
  1
strokes_ogs.tif
176
     1
290
     0
176
     1
 40
1.0
176
     1
 40
1.0
176
     1
  0
VISUALSTYLE
  5
41
102
{ACAD_REACTORS
330
29
102
}
330
29
100
AcDbVisualStyle
  2
EdgeColorOff
 70
    22
177
     3
291
     1
 70
    58
 90
        2
176
     0
 90
        2
176
     0
 90
        0
176
     0
 90
        0
176
     0
 40
0.6
176
     0
 40
30.0
176
     0
 62
     7
420
 16777215
176
     0
 90
        1
176
     0
 90
        4
176
     0
 62
     7
176
     0
 62
   257
176
     0
 90
        1
176
     0
 90
        1
176
     0
 40
1.0
176
     0
 90
        8
176
     2
 62
     7
176
     0
 40
1.0
176
     0
 90
        1
176
     0
 90
        6
176
     0
 90
        2
176
     0
 62
     7
176
     0
 90
        5
176
     0
 90
        0
176
     0
 90
        0
176
     0
290
     0
176
     0
 90
        1
176
     0
 40
0.0
176
     0
 90
        0
176
     0
290
     0
176
     0
290
     1
176
     0
290
     1
176
     0
290
     0
176
     0
290
     0
176
     0
290
     0
176
     0
290
     0
176
     0
290
     0
176
     0
290
     0
176
     0
 90
       50
176
     0
 40
0.0
176
     0
 40
1.0
176
     0
 90
        0
176
     0
 62
    18
420
        0
176
     0
 90
       50
176
     0
 90
        3
176
     0
 62
     5
420
      255
176
     0
290
     0
176
     0
 90
       50
176
     0
 90
       50
176
     0
 90
       50
176
     0
290
     0
176
     0
 90
       50
176
     0
 62
   256
176
     0
 40
1.0
176
     0
 90
        2
176
     0
  1
strokes_ogs.tif
176
     0
290
     0
176
     0
 40
1.0
176
     0
 40
1.0
176
     0
  0
VISUALSTYLE
  5
38
102
{ACAD_REACTORS
330
29
102
}
330
29
100
AcDbVisualStyle
  2
Facepattern
 70
    15
177
     3
291
     1
 70
    58
 90
        2
176
     1
 90
        2
176
     1
 90
        0
176
     1
 90
        0
176
     1
 40
0.6
176
     1
 40
30.0
176
     1
 62
     7
420
 16777215
176
     1
 90
        1
176
     1
 90
        4
176
     1
 62
     7
176
     1
 62
   257
176
     1
 90
        1
176
     1
 90
        1
176
     1
 40
1.0
176
     1
 90
        8
176
     1
 62
     7
176
     1
 40
1.0
176
     1
 90
        1
176
     1
 90
        6
176
     1
 90
        2
176
     1
 62
     7
176
     1
 90
        5
176
     1
 90
        0
176
     1
 90
        0
176
     1
290
     0
176
     1
 90
        1
176
     1
 40
0.0
176
     1
 90
        0
176
     1
290
     0
176
     1
290
     1
176
     1
290
     1
176
     1
290
     0
176
     1
290
     0
176
     1
290
     0
176
     1
290
     0
176
     1
290
     0
176
     1
290
     0
176
     1
 90
       50
176
     1
 40
0.0
176
     1
 40
1.0
176
     1
 90
        0
176
     1
 62
    18
420
        0
176
     1
 90
       50
176
     1
 90
        3
176
     1
 62
     5
420
      255
176
     1
290
     0
176
     1
 90
       50
176
     1
 90
       50
176
     1
 90
       50
176
     1
290
     0
176
     1
 90
       50
176
     1
 62
   256
176
     0
 40
1.0
176
     0
 90
        2
176
     1
  1
strokes_ogs.tif
176
     1
290
     0
176
     1
 40
1.0
176
     1
 40
1.0
176
     1
  0
VISUALSTYLE
  5
2A
102
{ACAD_REACTORS
330
29
102
}
330
29
100
AcDbVisualStyle
  2
Flat
 70
     0
177
     3
291
     1
 70
    58
 90
        2
176
     1
 90
        1
176
     1
 90
        1
176
     1
 90
        2
176
     1
 40
0.6
176
     1
 40
30.0
176
     1
 62
     7
420
 16777215
176
     1
 90
        0
176
     1
 90
        0
176
     1
 62
     7
176
     1
 62
   257
176
     1
 90
        1
176
     1
 90
        1
176
     1
 40
1.0
176
     1
 90
        8
176
     1
 62
     7
176
     1
 40
1.0
176
     1
 90
        1
176
     1
 90
        6
176
     1
 90
        2
176
     1
 62
     7
176
     1
 90
        5
176
     1
 90
        0
176
     1
 90
        0
176
     1
290
     0
176
     1
 90
       13
176
     1
 40
0.0
176
     1
 90
        0
176
     1
290
     0
176
     1
290
     1
176
     1
290
     1
176
     1
290
     0
176
     1
290
     0
176
     1
290
     0
176
     1
290
     0
176
     1
290
     0
176
     1
290
     0
176
     1
 90
       50
176
     1
 40
0.0
176
     1
 40
1.0
176
     1
 90
        0
176
     1
 62
    18
420
        0
176
     1
 90
       50
176
     1
 90
        3
176
     1
 62
     5
420
      255
176
     1
290
     0
176
     1
 90
       50
176
     1
 90
       50
176
     1
 90
       50
176
     1
290
     0
176
     1
 90
       50
176
     1
 62
   256
176
     0
 40
1.0
176
     0
 90
        2
176
     1
  1
strokes_ogs.tif
176
     1
290
     0
176
     1
 40
1.0
176
     1
 40
1.0
176
     1
  0
VISUALSTYLE
  5
2B
102
{ACAD_REACTORS
330
29
102
}
330
29
100
AcDbVisualStyle
  2
FlatWithEdges
 70
     1
177
     3
291
     1
 70
    58
 90
        2
176
     1
 90
        1
176
     1
 90
        1
176
     1
 90
        2
176
     1
 40
0.6
176
     1
 40
30.0
176
     1
 62
     7
420
 16777215
176
     1
 90
        1
176
     1
 90
        0
176
     1
 62
     7
176
     1
 62
   257
176
     1
 90
        1
176
     1
 90
        1
176
     1
 40
1.0
176
     1
 90
        0
176
     1
 62
   257
176
     1
 40
1.0
176
     1
 90
        1
176
     1
 90
        6
176
     1
 90
        2
176
     1
 62
     7
176
     1
 90
        5
176
     1
 90
        0
176
     1
 90
        0
176
     1
290
     0
176
     1
 90
       13
176
     1
 40
0.0
176
     1
 90
        0
176
     1
290
     0
176
     1
290
     1
176
     1
290
     1
176
     1
290
     0
176
     1
290
     0
176
     1
290
     0
176
     1
290
     0
176
     1
290
     0
176
     1
290
     0
176
     1
 90
       50
176
     1
 40
0.0
176
     1
 40
1.0
176
     1
 90
        0
176
     1
 62
    18
420
        0
176
     1
 90
       50
176
     1
 90
        3
176
     1
 62
     5
420
      255
176
     1
290
     0
176
     1
 90
       50
176
     1
 90
       50
176
     1
 90
       50
176
     1
290
     0
176
     1
 90
       50
176
     1
 62
   256
176
     0
 40
1.0
176
     0
 90
        2
176
     1
  1
strokes_ogs.tif
176
     1
290
     0
176
     1
 40
1.0
176
     1
 40
1.0
176
     1
  0
VISUALSTYLE
  5
2C
102
{ACAD_REACTORS
330
29
102
}
330
29
100
AcDbVisualStyle
  2
Gouraud
 70
     2
177
     3
291
     1
 70
    58
 90
        2
176
     1
 90
        2
176
     1
 90
        1
176
     1
 90
        2
176
     1
 40
0.6
176
     1
 40
30.0
176
     1
 62
     7
420
 16777215
176
     1
 90
        0
176
     1
 90
        0
176
     1
 62
     7
176
     1
 62
   257
176
     1
 90
        1
176
     1
 90
        1
176
     1
 40
1.0
176
     1
 90
        0
176
     1
 62
     7
176
     1
 40
1.0
176
     1
 90
        1
176
     1
 90
        6
176
     1
 90
        2
176
     1
 62
     7
176
     1
 90
        5
176
     1
 90
        0
176
     1
 90
        0
176
     1
290
     0
176
     1
 90
       13
176
     1
 40
0.0
176
     1
 90
        0
176
     1
290
     0
176
     1
290
     1
176
     1
290
     1
176
     1
290
     0
176
     1
290
     0
176
     1
290
     0
176
     1
290
     0
176
     1
290
     0
176
     1
290
     0
176
     1
 90
       50
176
     1
 40
0.0
176
     1
 40
1.0
176
     1
 90
        0
176
     1
 62
    18
420
        0
176
     1
 90
       50
176
     1
 90
        3
176
     1
 62
     5
420
      255
176
     1
290
     0
176
     1
 90
       50
176
     1
 90
       50
176
     1
 90
       50
176
     1
290
     0
176
     1
 90
       50
176
     1
 62
   256
176
     0
 40
1.0
176
     0
 90
        2
176
     1
  1
strokes_ogs.tif
176
     1
290
     0
176
     1
 40
1.0
176
     1
 40
1.0
176
     1
  0
VISUALSTYLE
  5
2D
102
{ACAD_REACTORS
330
29
102
}
330
29
100
AcDbVisualStyle
  2
GouraudWithEdges
 70
     3
177
     3
291
     1
 70
    58
 90
        2
176
     1
 90
        2
176
     1
 90
        1
176
     1
 90
        2
176
     1
 40
0.6
176
     1
 40
30.0
176
     1
 62
     7
420
 16777215
176
     1
 90
        1
176
     1
 90
        0
176
     1
 62
     7
176
     1
 62
   257
176
     1
 90
        1
176
     1
 90
        1
176
     1
 40
1.0
176
     1
 90
        0
176
     1
 62
   257
176
     1
 40
1.0
176
     1
 90
        1
176
     1
 90
        6
176
     1
 90
        2
176
     1
 62
     7
176
     1
 90
        5
176
     1
 90
        0
176
     1
 90
        0
176
     1
290
     0
176
     1
 90
       13
176
     1
 40
0.0
176
     1
 90
        0
176
     1
290
     0
176
     1
290
     1
176
     1
290
     1
176
     1
290
     0
176
     1
290
     0
176
     1
290
     0
176
     1
290
     0
176
     1
290
     0
176
     1
290
     0
176
     1
 90
       50
176
     1
 40
0.0
176
     1
 40
1.0
176
     1
 90
        0
176
     1
 62
    18
420
        0
176
     1
 90
       50
176
     1
 90
        3
176
     1
 62
     5
420
      255
176
     1
290
     0
176
     1
 90
       50
176
     1
 90
       50
176
     1
 90
       50
176
     1
290
     0
176
     1
 90
       50
176
     1
 62
   256
176
     0
 40
1.0
176
     0
 90
        2
176
     1
  1
strokes_ogs.tif
176
     1
290
     0
176
     1
 40
1.0
176
     1
 40
1.0
176
     1
  0
VISUALSTYLE
  5
31
102
{ACAD_REACTORS
330
29
102
}
330
29
100
AcDbVisualStyle
  2
Hidden
 70
     6
177
     3
291
     0
 70
    58
 90
        1
176
     1
 90
        2
176
     1
 90
        2
176
     1
 90
        0
176
     1
 40
0.6
176
     1
 40
30.0
176
     1
 62
     7
420
 16777215
176
     1
 90
        2
176
     1
 90
        2
176
     1
 62
     7
176
     1
 62
   257
176
     1
 90
        2
176
     1
 90
        1
176
     1
 40
40.0
176
     1
 90
        0
176
     1
 62
   257
176
     1
 40
1.0
176
     1
 90
        1
176
     1
 90
        6
176
     1
 90
        2
176
     1
 62
     7
176
     1
 90
        3
176
     1
 90
        0
176
     1
 90
        0
176
     1
290
     0
176
     1
 90
        1
176
     1
 40
0.0
176
     1
 90
        0
176
     1
290
     0
176
     1
290
     1
176
     1
290
     1
176
     1
290
     0
176
     1
290
     0
176
     1
290
     0
176
     1
290
     0
176
     1
290
     0
176
     1
290
     0
176
     1
 90
       50
176
     1
 40
0.0
176
     1
 40
1.0
176
     1
 90
        0
176
     1
 62
    18
420
        0
176
     1
 90
       50
176
     1
 90
        3
176
     1
 62
     5
420
      255
176
     1
290
     0
176
     1
 90
       50
176
     1
 90
       50
176
     1
 90
       50
176
     1
290
     0
176
     1
 90
       50
176
     1
 62
   256
176
     0
 40
1.0
176
     0
 90
        2
176
     1
  1
strokes_ogs.tif
176
     1
290
     0
176
     1
 40
1.0
176
     1
 40
1.0
176
     1
  0
VISUALSTYLE
  5
3F
102
{ACAD_REACTORS
330
29
102
}
330
29
100
AcDbVisualStyle
  2
JitterOff
 70
    20
177
     3
291
     1
 70
    58
 90
        2
176
     0
 90
        2
176
     0
 90
        0
176
     0
 90
        0
176
     0
 40
0.6
176
     0
 40
30.0
176
     0
 62
     7
420
 16777215
176
     0
 90
        1
176
     0
 90
        4
176
     0
 62
     7
176
     0
 62
   257
176
     0
 90
        1
176
     0
 90
        1
176
     0
 40
1.0
176
     0
 90
       10
176
     2
 62
     7
176
     0
 40
1.0
176
     0
 90
        1
176
     0
 90
        6
176
     0
 90
        2
176
     0
 62
     7
176
     0
 90
        5
176
     0
 90
        0
176
     0
 90
        0
176
     0
290
     0
176
     0
 90
        1
176
     0
 40
0.0
176
     0
 90
        0
176
     0
290
     0
176
     0
290
     1
176
     0
290
     1
176
     0
290
     0
176
     0
290
     0
176
     0
290
     0
176
     0
290
     0
176
     0
290
     0
176
     0
290
     0
176
     0
 90
       50
176
     0
 40
0.0
176
     0
 40
1.0
176
     0
 90
        0
176
     0
 62
    18
420
        0
176
     0
 90
       50
176
     0
 90
        3
176
     0
 62
     5
420
      255
176
     0
290
     0
176
     0
 90
       50
176
     0
 90
       50
176
     0
 90
       50
176
     0
290
     0
176
     0
 90
       50
176
     0
 62
   256
176
     0
 40
1.0
176
     0
 90
        2
176
     0
  1
strokes_ogs.tif
176
     0
290
     0
176
     0
 40
1.0
176
     0
 40
1.0
176
     0
  0
VISUALSTYLE
  5
37
102
{ACAD_REACTORS
330
29
102
}
330
29
100
AcDbVisualStyle
  2
Linepattern
 70
    14
177
     3
291
     1
 70
    58
 90
        2
176
     1
 90
        2
176
     1
 90
        0
176
     1
 90
        0
176
     1
 40
0.6
176
     1
 40
30.0
176
     1
 62
     7
420
 16777215
176
     1
 90
        1
176
     1
 90
        4
176
     1
 62
     7
176
     1
 62
   257
176
     1
 90
        7
176
     1
 90
        7
176
     1
 40
1.0
176
     1
 90
        8
176
     1
 62
     7
176
     1
 40
1.0
176
     1
 90
        1
176
     1
 90
        6
176
     1
 90
        2
176
     1
 62
     7
176
     1
 90
        5
176
     1
 90
        0
176
     1
 90
        0
176
     1
290
     0
176
     1
 90
        1
176
     1
 40
0.0
176
     1
 90
        0
176
     1
290
     0
176
     1
290
     1
176
     1
290
     1
176
     1
290
     0
176
     1
290
     0
176
     1
290
     0
176
     1
290
     0
176
     1
290
     0
176
     1
290
     0
176
     1
 90
       50
176
     1
 40
0.0
176
     1
 40
1.0
176
     1
 90
        0
176
     1
 62
    18
420
        0
176
     1
 90
       50
176
     1
 90
        3
176
     1
 62
     5
420
      255
176
     1
290
     0
176
     1
 90
       50
176
     1
 90
       50
176
     1
 90
       50
176
     1
290
     0
176
     1
 90
       50
176
     1
 62
   256
176
     0
 40
1.0
176
     0
 90
        2
176
     1
  1
strokes_ogs.tif
176
     1
290
     0
176
     1
 40
1.0
176
     1
 40
1.0
176
     1
  0
VISUALSTYLE
  5
40
102
{ACAD_REACTORS
330
29
102
}
330
29
100
AcDbVisualStyle
  2
OverhangOff
 70
    21
177
     3
291
     1
 70
    58
 90
        2
176
     0
 90
        2
176
     0
 90
        0
176
     0
 90
        0
176
     0
 40
0.6
176
     0
 40
30.0
176
     0
 62
     7
420
 16777215
176
     0
 90
        1
176
     0
 90
        4
176
     0
 62
     7
176
     0
 62
   257
176
     0
 90
        1
176
     0
 90
        1
176
     0
 40
1.0
176
     0
 90
        9
176
     2
 62
     7
176
     0
 40
1.0
176
     0
 90
        1
176
     0
 90
        6
176
     0
 90
        2
176
     0
 62
     7
176
     0
 90
        5
176
     0
 90
        0
176
     0
 90
        0
176
     0
290
     0
176
     0
 90
        1
176
     0
 40
0.0
176
     0
 90
        0
176
     0
290
     0
176
     0
290
     1
176
     0
290
     1
176
     0
290
     0
176
     0
290
     0
176
     0
290
     0
176
     0
290
     0
176
     0
290
     0
176
     0
290
     0
176
     0
 90
       50
176
     0
 40
0.0
176
     0
 40
1.0
176
     0
 90
        0
176
     0
 62
    18
420
        0
176
     0
 90
       50
176
     0
 90
        3
176
     0
 62
     5
420
      255
176
     0
290
     0
176
     0
 90
       50
176
     0
 90
       50
176
     0
 90
       50
176
     0
290
     0
176
     0
 90
       50
176
     0
 62
   256
176
     0
 40
1.0
176
     0
 90
        2
176
     0
  1
strokes_ogs.tif
176
     0
290
     0
176
     0
 40
1.0
176
     0
 40
1.0
176
     0
  0
VISUALSTYLE
  5
33
102
{ACAD_REACTORS
330
29
102
}
330
29
100
AcDbVisualStyle
  2
Realistic
 70
     8
177
     3
291
     0
 70
    58
 90
        2
176
     1
 90
        3
176
     1
 90
        0
176
     1
 90
        2
176
     1
 40
0.6
176
     1
 40
30.0
176
     1
 62
     7
420
 16777215
176
     1
 90
        0
176
     1
 90
        0
176
     1
 62
     7
176
     1
 62
   257
176
     1
 90
        1
176
     1
 90
        1
176
     1
 40
1.0
176
     1
 90
        8
176
     1
 62
   257
176
     1
 40
1.0
176
     1
 90
        1
176
     1
 90
        6
176
     1
 90
        2
176
     1
 62
     7
176
     1
 90
        3
176
     1
 90
        0
176
     1
 90
        0
176
     1
290
     0
176
     1
 90
       13
176
     1
 40
0.0
176
     1
 90
        0
176
     1
290
     0
176
     1
290
     1
176
     1
290
     1
176
     1
290
     0
176
     1
290
     0
176
     1
290
     0
176
     1
290
     0
176
     1
290
     0
176
     1
290
     0
176
     1
 90
       50
176
     1
 40
0.0
176
     1
 40
1.0
176
     1
 90
        0
176
     1
 62
    18
420
        0
176
     1
 90
       50
176
     1
 90
        3
176
     1
 62
     5
420
      255
176
     1
290
     0
176
     1
 90
       50
176
     1
 90
       50
176
     1
 90
       50
176
     1
290
     0
176
     1
 90
       50
176
     1
 62
   256
176
     0
 40
1.0
176
     0
 90
        2
176
     1
  1
strokes_ogs.tif
176
     1
290
     0
176
     1
 40
1.0
176
     1
 40
1.0
176
     1
  0
VISUALSTYLE
  5
3E
102
{ACAD_REACTORS
330
29
102
}
330
29
100
AcDbVisualStyle
  2
Shaded
 70
    27
177
     3
291
     0
 70
    58
 90
        2
176
     1
 90
        2
176
     1
 90
        1
176
     1
 90
        2
176
     1
 40
0.6
176
     1
 40
30.0
176
     1
 62
     7
420
 16777215
176
     1
 90
        0
176
     1
 90
        4
176
     1
 62
     7
176
     1
 62
   257
176
     1
 90
        1
176
     1
 90
        1
176
     1
 40
1.0
176
     1
 90
        8
176
     1
 62
   257
176
     1
 40
1.0
176
     1
 90
        1
176
     1
 90
        6
176
     1
 90
        2
176
     1
 62
     8
420
  7895160
176
     1
 90
        3
176
     1
 90
        0
176
     1
 90
        0
176
     1
290
     0
176
     1
 90
        5
176
     1
 40
0.0
176
     1
 90
        0
176
     1
290
     0
176
     1
290
     1
176
     1
290
     1
176
     1
290
     0
176
     1
290
     0
176
     1
290
     0
176
     1
290
     0
176
     1
290
     0
176
     1
290
     0
176
     1
 90
       50
176
     1
 40
0.0
176
     1
 40
1.0
176
     1
 90
        0
176
     1
 62
    18
420
        0
176
     1
 90
       50
176
     1
 90
        3
176
     1
 62
     5
420
      255
176
     1
290
     0
176
     1
 90
       50
176
     1
 90
       50
176
     1
 90
       50
176
     1
290
     0
176
     1
 90
       50
176
     1
 62
   256
176
     0
 40
1.0
176
     0
 90
        2
176
     1
  1
strokes_ogs.tif
176
     1
290
     0
176
     1
 40
1.0
176
     1
 40
1.0
176
     1
  0
VISUALSTYLE
  5
3D
102
{ACAD_REACTORS
330
29
102
}
330
29
100
AcDbVisualStyle
  2
Shaded with edges
 70
    26
177
     3
291
     0
 70
    58
 90
        2
176
     1
 90
        2
176
     1
 90
        1
176
     1
 90
        2
176
     1
 40
0.6
176
     1
 40
30.0
176
     1
 62
     7
420
 16777215
176
     1
 90
        1
176
     1
 90
        2
176
     1
 62
     7
176
     1
 62
   257
176
     1
 90
        2
176
     1
 90
        1
176
     1
 40
1.0
176
     1
 90
        8
176
     1
 62
   257
176
     1
 40
1.0
176
     1
 90
        1
176
     1
 90
        6
176
     1
 90
        2
176
     1
 62
     7
176
     1
 90
        3
176
     1
 90
        0
176
     1
 90
        0
176
     1
290
     0
176
     1
 90
        5
176
     1
 40
0.0
176
     1
 90
        0
176
     1
290
     0
176
     1
290
     1
176
     1
290
     1
176
     1
290
     0
176
     1
290
     0
176
     1
290
     0
176
     1
290
     0
176
     1
290
     0
176
     1
290
     0
176
     1
 90
       50
176
     1
 40
0.0
176
     1
 40
1.0
176
     1
 90
        0
176
     1
 62
    18
420
        0
176
     1
 90
       50
176
     1
 90
        3
176
     1
 62
     5
420
      255
176
     1
290
     0
176
     1
 90
       50
176
     1
 90
       50
176
     1
 90
       50
176
     1
290
     0
176
     1
 90
       50
176
     1
 62
   256
176
     0
 40
1.0
176
     0
 90
        2
176
     1
  1
strokes_ogs.tif
176
     1
290
     0
176
     1
 40
1.0
176
     1
 40
1.0
176
     1
  0
VISUALSTYLE
  5
3A
102
{ACAD_REACTORS
330
29
102
}
330
29
100
AcDbVisualStyle
  2
Shades of Gray
 70
    23
177
     3
291
     0
 70
    58
 90
        2
176
     1
 90
        2
176
     1
 90
        3
176
     1
 90
        0
176
     1
 40
0.6
176
     1
 40
30.0
176
     1
 62
     7
420
 16777215
176
     1
 90
        2
176
     1
 90
        2
176
     1
 62
     7
176
     1
 62
     7
176
     1
 90
        1
176
     1
 90
        1
176
     1
 40
40.0
176
     1
 90
        8
176
     1
 62
     7
176
     1
 40
1.0
176
     1
 90
        1
176
     1
 90
        6
176
     1
 90
        2
176
     1
 62
     7
176
     1
 90
        3
176
     1
 90
        0
176
     1
 90
        0
176
     1
290
     0
176
     1
 90
        1
176
     1
 40
0.0
176
     1
 90
        0
176
     1
290
     0
176
     1
290
     1
176
     1
290
     1
176
     1
290
     0
176
     1
290
     0
176
     1
290
     0
176
     1
290
     0
176
     1
290
     0
176
     1
290
     0
176
     1
 90
       50
176
     1
 40
0.0
176
     1
 40
1.0
176
     1
 90
        0
176
     1
 62
    18
420
        0
176
     1
 90
       50
176
     1
 90
        3
176
     1
 62
     5
420
      255
176
     1
290
     0
176
     1
 90
       50
176
     1
 90
       50
176
     1
 90
       50
176
     1
290
     0
176
     1
 90
       50
176
     1
 62
   256
176
     0
 40
1.0
176
     0
 90
        2
176
     1
  1
strokes_ogs.tif
176
     1
290
     0
176
     1
 40
1.0
176
     1
 40
1.0
176
     1
  0
VISUALSTYLE
  5
3B
102
{ACAD_REACTORS
330
29
102
}
330
29
100
AcDbVisualStyle
  2
Sketchy
 70
    24
177
     3
291
     0
 70
    58
 90
        1
176
     1
 90
        2
176
     1
 90
        2
176
     1
 90
        0
176
     1
 40
0.6
176
     1
 40
30.0
176
     1
 62
     7
420
 16777215
176
     1
 90
        2
176
     1
 90
        2
176
     1
 62
     7
176
     1
 62
     7
176
     1
 90
        1
176
     1
 90
        1
176
     1
 40
40.0
176
     1
 90
       11
176
     1
 62
     7
176
     1
 40
1.0
176
     1
 90
        1
176
     1
 90
        6
176
     1
 90
        2
176
     1
 62
     7
176
     1
 90
        6
176
     1
 90
        0
176
     1
 90
        0
176
     1
290
     0
176
     1
 90
        1
176
     1
 40
0.0
176
     1
 90
        0
176
     1
290
     0
176
     1
290
     1
176
     1
290
     1
176
     1
290
     0
176
     1
290
     0
176
     1
290
     0
176
     1
290
     0
176
     1
290
     0
176
     1
290
     0
176
     1
 90
       50
176
     1
 40
0.0
176
     1
 40
1.0
176
     1
 90
        0
176
     1
 62
    18
420
        0
176
     1
 90
       50
176
     1
 90
        3
176
     1
 62
     5
420
      255
176
     1
290
     0
176
     1
 90
       50
176
     1
 90
       50
176
     1
 90
       50
176
     1
290
     0
176
     1
 90
       50
176
     1
 62
   256
176
     0
 40
1.0
176
     0
 90
        2
176
     1
  1
strokes_ogs.tif
176
     1
290
     0
176
     1
 40
1.0
176
     1
 40
1.0
176
     1
  0
VISUALSTYLE
  5
36
102
{ACAD_REACTORS
330
29
102
}
330
29
100
AcDbVisualStyle
  2
Thicken
 70
    13
177
     3
291
     1
 70
    58
 90
        2
176
     1
 90
        2
176
     1
 90
        0
176
     1
 90
        0
176
     1
 40
0.6
176
     1
 40
30.0
176
     1
 62
     7
420
 16777215
176
     1
 90
        1
176
     1
 90
        4
176
     1
 62
     7
176
     1
 62
   257
176
     1
 90
        1
176
     1
 90
        1
176
     1
 40
1.0
176
     1
 90
       12
176
     1
 62
     7
176
     1
 40
1.0
176
     1
 90
        1
176
     1
 90
        6
176
     1
 90
        2
176
     1
 62
     7
176
     1
 90
        5
176
     1
 90
        0
176
     1
 90
        0
176
     1
290
     0
176
     1
 90
        1
176
     1
 40
0.0
176
     1
 90
        0
176
     1
290
     0
176
     1
290
     1
176
     1
290
     1
176
     1
290
     0
176
     1
290
     0
176
     1
290
     0
176
     1
290
     0
176
     1
290
     0
176
     1
290
     0
176
     1
 90
       50
176
     1
 40
0.0
176
     1
 40
1.0
176
     1
 90
        0
176
     1
 62
    18
420
        0
176
     1
 90
       50
176
     1
 90
        3
176
     1
 62
     5
420
      255
176
     1
290
     0
176
     1
 90
       50
176
     1
 90
       50
176
     1
 90
       50
176
     1
290
     0
176
     1
 90
       50
176
     1
 62
   256
176
     0
 40
1.0
176
     0
 90
        2
176
     1
  1
strokes_ogs.tif
176
     1
290
     0
176
     1
 40
1.0
176
     1
 40
1.0
176
     1
  0
VISUALSTYLE
  5
30
102
{ACAD_REACTORS
330
29
102
}
330
29
100
AcDbVisualStyle
  2
Wireframe
 70
     5
177
     3
291
     0
 70
    58
 90
        0
176
     1
 90
        2
176
     1
 90
        0
176
     1
 90
        0
176
     1
 40
0.6
176
     1
 40
30.0
176
     1
 62
     7
420
 16777215
176
     1
 90
        1
176
     1
 90
        4
176
     1
 62
     7
176
     1
 62
   257
176
     1
 90
        1
176
     1
 90
        1
176
     1
 40
1.0
176
     1
 90
        0
176
     1
 62
   257
176
     1
 40
1.0
176
     1
 90
        1
176
     1
 90
        6
176
     1
 90
        2
176
     1
 62
     7
176
     1
 90
        3
176
     1
 90
        0
176
     1
 90
        0
176
     1
290
     0
176
     1
 90
        1
176
     1
 40
0.0
176
     1
 90
        0
176
     1
290
     0
176
     1
290
     1
176
     1
290
     1
176
     1
290
     0
176
     1
290
     0
176
     1
290
     0
176
     1
290
     0
176
     1
290
     0
176
     1
290
     0
176
     1
 90
       50
176
     1
 40
0.0
176
     1
 40
1.0
176
     1
 90
        0
176
     1
 62
    18
420
        0
176
     1
 90
       50
176
     1
 90
        3
176
     1
 62
     5
420
      255
176
     1
290
     0
176
     1
 90
       50
176
     1
 90
       50
176
     1
 90
       50
176
     1
290
     0
176
     1
 90
       50
176
     1
 62
   256
176
     0
 40
1.0
176
     0
 90
        2
176
     1
  1
strokes_ogs.tif
176
     1
290
     0
176
     1
 40
1.0
176
     1
 40
1.0
176
     1
  0
VISUALSTYLE
  5
3C
102
{ACAD_REACTORS
330
29
102
}
330
29
100
AcDbVisualStyle
  2
X-Ray
 70
    25
177
     3
291
     0
 70
    58
 90
        2
176
     1
 90
        2
176
     1
 90
        1
176
     1
 90
        1
176
     1
 40
0.5
176
     1
 40
30.0
176
     1
 62
     7
420
 16777215
176
     1
 90
        1
176
     1
 90
        0
176
     1
 62
     7
176
     1
 62
   257
176
     1
 90
        1
176
     1
 90
        1
176
     1
 40
1.0
176
     1
 90
        8
176
     1
 62
     7
176
     1
 40
1.0
176
     1
 90
        1
176
     1
 90
        6
176
     1
 90
        2
176
     1
 62
     7
176
     1
 90
        3
176
     1
 90
        0
176
     1
 90
        0
176
     1
290
     0
176
     1
 90
       13
176
     1
 40
0.0
176
     1
 90
        0
176
     1
290
     0
176
     1
290
     1
176
     1
290
     1
176
     1
290
     0
176
     1
290
     0
176
     1
290
     0
176
     1
290
     0
176
     1
290
     0
176
     1
290
     0
176
     1
 90
       50
176
     1
 40
0.0
176
     1
 40
1.0
176
     1
 90
        0
176
     1
 62
    18
420
        0
176
     1
 90
       50
176
     1
 90
        3
176
     1
 62
     5
420
      255
176
     1
290
     0
176
     1
 90
       50
176
     1
 90
       50
176
     1
 90
       50
176
     1
290
     0
176
     1
 90
       50
176
     1
 62
   256
176
     0
 40
1.0
176
     0
 90
        2
176
     1
  1
strokes_ogs.tif
176
     1
290
     0
176
     1
 40
1.0
176
     1
 40
1.0
176
     1
  0
DICTIONARYVAR
  5
3E8
102
{ACAD_REACTORS
330
3E3
102
}
330
3E3
100
DictionaryVariables
280
     0
  1
1:1
  0
DICTIONARYVAR
  5
3E5
102
{ACAD_REACTORS
330
3E3
102
}
330
3E3
100
DictionaryVariables
280
     0
  1
STANDARD
  0
DICTIONARYVAR
  5
3E4
102
{ACAD_REACTORS
330
3E3
102
}
330
3E3
100
DictionaryVariables
280
     0
  1
STANDARD
  0
DICTIONARYVAR
  5
3E6
102
{ACAD_REACTORS
330
3E3
102
}
330
3E3
100
DictionaryVariables
280
     0
  1
Imperial24
  0
DICTIONARYVAR
  5
3E7
102
{ACAD_REACTORS
330
3E3
102
}
330
3E3
100
DictionaryVariables
280
     0
  1
Imperial24
  0
DICTIONARY
  5
1A
330
19
100
AcDbDictionary
280
     1
281
     1
  3
BUMPTILE
360
1C
  3
DIFFUSETILE
360
1B
  3
OPACITYTILE
360
1F
  3
REFLECTIONTILE
360
1E
  3
REFRACTIONTILE
360
20
  3
SPECULARTILE
360
1D
  0
DICTIONARY
  5
12
330
11
100
AcDbDictionary
280
     1
281
     1
  3
BUMPTILE
360
14
  3
DIFFUSETILE
360
13
  3
OPACITYTILE
360
17
  3
REFLECTIONTILE
360
16
  3
REFRACTIONTILE
360
18
  3
SPECULARTILE
360
15
  0
DICTIONARY
  5
22
330
21
100
AcDbDictionary
280
     1
281
     1
  3
BUMPTILE
360
24
  3
DIFFUSETILE
360
23
  3
OPACITYTILE
360
27
  3
REFLECTIONTILE
360
26
  3
REFRACTIONTILE
360
28
  3
SPECULARTILE
360
25
  0
DICTIONARY
  5
3E9
330
65
100
AcDbDictionary
280
     1
281
     1
  3
ACAD_ROUNDTRIP_2008_TABLESTYLE_CELLSTYLEMAP
360
3EA
  0
XRECORD
  5
1C
102
{ACAD_REACTORS
330
1A
102
}
330
1A
100
AcDbXrecord
280
     1
270
     1
271
     1
  0
XRECORD
  5
1B
102
{ACAD_REACTORS
330
1A
102
}
330
1A
100
AcDbXrecord
280
     1
270
     1
271
     1
  0
XRECORD
  5
1F
102
{ACAD_REACTORS
330
1A
102
}
330
1A
100
AcDbXrecord
280
     1
270
     1
271
     1
  0
XRECORD
  5
1E
102
{ACAD_REACTORS
330
1A
102
}
330
1A
100
AcDbXrecord
280
     1
270
     1
271
     1
  0
XRECORD
  5
20
102
{ACAD_REACTORS
330
1A
102
}
330
1A
100
AcDbXrecord
280
     1
270
     1
271
     1
  0
XRECORD
  5
1D
102
{ACAD_REACTORS
330
1A
102
}
330
1A
100
AcDbXrecord
280
     1
270
     1
271
     1
  0
XRECORD
  5
14
102
{ACAD_REACTORS
330
12
102
}
330
12
100
AcDbXrecord
280
     1
270
     1
271
     1
  0
XRECORD
  5
13
102
{ACAD_REACTORS
330
12
102
}
330
12
100
AcDbXrecord
280
     1
270
     1
271
     1
  0
XRECORD
  5
17
102
{ACAD_REACTORS
330
12
102
}
330
12
100
AcDbXrecord
280
     1
270
     1
271
     1
  0
XRECORD
  5
16
102
{ACAD_REACTORS
330
12
102
}
330
12
100
AcDbXrecord
280
     1
270
     1
271
     1
  0
XRECORD
  5
18
102
{ACAD_REACTORS
330
12
102
}
330
12
100
AcDbXrecord
280
     1
270
     1
271
     1
  0
XRECORD
  5
15
102
{ACAD_REACTORS
330
12
102
}
330
12
100
AcDbXrecord
280
     1
270
     1
271
     1
  0
XRECORD
  5
24
102
{ACAD_REACTORS
330
22
102
}
330
22
100
AcDbXrecord
280
     1
270
     1
271
     1
  0
XRECORD
  5
23
102
{ACAD_REACTORS
330
22
102
}
330
22
100
AcDbXrecord
280
     1
270
     1
271
     1
  0
XRECORD
  5
27
102
{ACAD_REACTORS
330
22
102
}
330
22
100
AcDbXrecord
280
     1
270
     1
271
     1
  0
XRECORD
  5
26
102
{ACAD_REACTORS
330
22
102
}
330
22
100
AcDbXrecord
280
     1
270
     1
271
     1
  0
XRECORD
  5
28
102
{ACAD_REACTORS
330
22
102
}
330
22
100
AcDbXrecord
280
     1
270
     1
271
     1
  0
XRECORD
  5
25
102
{ACAD_REACTORS
330
22
102
}
330
22
100
AcDbXrecord
280
     1
270
     1
271
     1
  0
CELLSTYLEMAP
  5
3EA
102
{ACAD_REACTORS
330
3E9
102
}
330
3E9
100
AcDbCellStyleMap
 90
        3
300
CELLSTYLE
  1
TABLEFORMAT_BEGIN
 90
        5
170
     1
 91
        0
 92
    32768
 62
   257
 93
        1
300
CONTENTFORMAT
  1
CONTENTFORMAT_BEGIN
 90
        0
 91
        0
 92
      512
 93
        0
300

 40
0.0
140
1.0
 94
        5
 62
     0
340
55
144
0.25
309
CONTENTFORMAT_END
171
     0
 94
        0
309
TABLEFORMAT_END
  1
CELLSTYLE_BEGIN
 90
        1
 91
        1
300
_TITLE
309
CELLSTYLE_END
300
CELLSTYLE
  1
TABLEFORMAT_BEGIN
 90
        5
170
     1
 91
        0
 92
        0
 62
   257
 93
        1
300
CONTENTFORMAT
  1
CONTENTFORMAT_BEGIN
 90
        0
 91
        0
 92
      512
 93
        0
300

 40
0.0
140
1.0
 94
        5
 62
     0
340
55
144
0.18
309
CONTENTFORMAT_END
171
     0
 94
        0
309
TABLEFORMAT_END
  1
CELLSTYLE_BEGIN
 90
        2
 91
        1
300
_HEADER
309
CELLSTYLE_END
300
CELLSTYLE
  1
TABLEFORMAT_BEGIN
 90
        5
170
     1
 91
        0
 92
        0
 62
   257
 93
        1
300
CONTENTFORMAT
  1
CONTENTFORMAT_BEGIN
 90
        0
 91
        0
 92
      512
 93
        0
300

 40
0.0
140
1.0
 94
        2
 62
     0
340
55
144
0.18
309
CONTENTFORMAT_END
171
     0
 94
        0
309
TABLEFORMAT_END
  1
CELLSTYLE_BEGIN
 90
        3
 91
        2
300
_DATA
309
CELLSTYLE_END
  0
ENDSEC
  0
EOF
