  0
SECTION
  2
HEADER
  9
$ACADVER
  1
AC1032
  9
$ACADMAINTVER
 90
      197
  9
$DWGCODEPAGE
  3
ANSI_932
  9
$REQUIREDVERSIONS
160
                 0
  9
$INSBASE
 10
0.0
 20
0.0
 30
0.0
  9
$EXTMIN
 10
1.000000000000000E+20
 20
1.000000000000000E+20
 30
1.000000000000000E+20
  9
$EXTMAX
 10
-1.000000000000000E+20
 20
-1.000000000000000E+20
 30
-1.000000000000000E+20
  9
$LIMMIN
 10
0.0
 20
0.0
  9
$LIMMAX
 10
12.0
 20
9.0
  9
$ORTHOMODE
 70
     0
  9
$REGENMODE
 70
     1
  9
$FILLMODE
 70
     1
  9
$QTEXTMODE
 70
     0
  9
$MIRRTEXT
 70
     0
  9
$LTSCALE
 40
1.0
  9
$ATTMODE
 70
     1
  9
$TEXTSIZE
 40
0.2
  9
$TRACEWID
 40
0.05
  9
$TEXTSTYLE
  7
Standard
  9
$CLAYER
  8
0
  9
$CELTYPE
  6
ByLayer
  9
$CECOLOR
 62
   256
  9
$CELTSCALE
 40
1.0
  9
$DISPSILH
 70
     0
  9
$DIMSCALE
 40
1.0
  9
$DIMASZ
 40
0.18
  9
$DIMEXO
 40
0.0625
  9
$DIMDLI
 40
0.38
  9
$DIMRND
 40
0.0
  9
$DIMDLE
 40
0.0
  9
$DIMEXE
 40
0.18
  9
$DIMTP
 40
0.0
  9
$DIMTM
 40
0.0
  9
$DIMTXT
 40
0.18
  9
$DIMCEN
 40
0.09
  9
$DIMTSZ
 40
0.0
  9
$DIMTOL
 70
     0
  9
$DIMLIM
 70
     0
  9
$DIMTIH
 70
     1
  9
$DIMTOH
 70
     1
  9
$DIMSE1
 70
     0
  9
$DIMSE2
 70
     0
  9
$DIMTAD
 70
     0
  9
$DIMZIN
 70
     0
  9
$DIMBLK
  1

  9
$DIMASO
 70
     1
  9
$DIMSHO
 70
     1
  9
$DIMPOST
  1

  9
$DIMAPOST
  1

  9
$DIMALT
 70
     0
  9
$DIMALTD
 70
     2
  9
$DIMALTF
 40
25.4
  9
$DIMLFAC
 40
1.0
  9
$DIMTOFL
 70
     0
  9
$DIMTVP
 40
0.0
  9
$DIMTIX
 70
     0
  9
$DIMSOXD
 70
     0
  9
$DIMSAH
 70
     0
  9
$DIMBLK1
  1

  9
$DIMBLK2
  1

  9
$DIMSTYLE
  2
Standard
  9
$DIMCLRD
 70
     0
  9
$DIMCLRE
 70
     0
  9
$DIMCLRT
 70
     0
  9
$DIMTFAC
 40
1.0
  9
$DIMGAP
 40
0.09
  9
$DIMJUST
 70
     0
  9
$DIMSD1
 70
     0
  9
$DIMSD2
 70
     0
  9
$DIMTOLJ
 70
     1
  9
$DIMTZIN
 70
     0
  9
$DIMALTZ
 70
     0
  9
$DIMALTTZ
 70
     0
  9
$DIMUPT
 70
     0
  9
$DIMDEC
 70
     4
  9
$DIMTDEC
 70
     4
  9
$DIMALTU
 70
     2
  9
$DIMALTTD
 70
     2
  9
$DIMTXSTY
  7
Standard
  9
$DIMAUNIT
 70
     0
  9
$DIMADEC
 70
     0
  9
$DIMALTRND
 40
0.0
  9
$DIMAZIN
 70
     0
  9
$DIMDSEP
 70
    46
  9
$DIMATFIT
 70
     3
  9
$DIMFRAC
 70
     0
  9
$DIMLDRBLK
  1

  9
$DIMLUNIT
 70
     2
  9
$DIMLWD
 70
    -2
  9
$DIMLWE
 70
    -2
  9
$DIMTMOVE
 70
     0
  9
$DIMFXL
 40
1.0
  9
$DIMFXLON
 70
     0
  9
$DIMJOGANG
 40
0.7853981633974483
  9
$DIMTFILL
 70
     0
  9
$DIMTFILLCLR
 70
     0
  9
$DIMARCSYM
 70
     0
  9
$DIMLTYPE
  6

  9
$DIMLTEX1
  6

  9
$DIMLTEX2
  6

  9
$DIMTXTDIRECTION
 70
     0
  9
$LUNITS
 70
     2
  9
$LUPREC
 70
     4
  9
$SKETCHINC
 40
0.1
  9
$FILLETRAD
 40
0.0
  9
$AUNITS
 70
     0
  9
$AUPREC
 70
     0
  9
$MENU
  1
.
  9
$ELEVATION
 40
0.0
  9
$PELEVATION
 40
0.0
  9
$THICKNESS
 40
0.0
  9
$LIMCHECK
 70
     0
  9
$CHAMFERA
 40
0.0
  9
$CHAMFERB
 40
0.0
  9
$CHAMFERC
 40
0.0
  9
$CHAMFERD
 40
0.0
  9
$SKPOLY
 70
     0
  9
$TDCREATE
 40
2459612.536840278
  9
$TDUCREATE
 40
2459612.161840278
  9
$TDUPDATE
 40
2459612.536840278
  9
$TDUUPDATE
 40
2459612.161840278
  9
$TDINDWG
 40
0.0000000000
  9
$TDUSRTIMER
 40
0.0000000000
  9
$USRTIMER
 70
     1
  9
$ANGBASE
 50
0.0
  9
$ANGDIR
 70
     0
  9
$PDMODE
 70
     0
  9
$PDSIZE
 40
0.0
  9
$PLINEWID
 40
0.0
  9
$SPLFRAME
 70
     0
  9
$SPLINETYPE
 70
     6
  9
$SPLINESEGS
 70
     8
  9
$HANDSEED
  5
2CC
  9
$SURFTAB1
 70
     6
  9
$SURFTAB2
 70
     6
  9
$SURFTYPE
 70
     6
  9
$SURFU
 70
     6
  9
$SURFV
 70
     6
  9
$UCSBASE
  2

  9
$UCSNAME
  2

  9
$UCSORG
 10
0.0
 20
0.0
 30
0.0
  9
$UCSXDIR
 10
1.0
 20
0.0
 30
0.0
  9
$UCSYDIR
 10
0.0
 20
1.0
 30
0.0
  9
$UCSORTHOREF
  2

  9
$UCSORTHOVIEW
 70
     0
  9
$UCSORGTOP
 10
0.0
 20
0.0
 30
0.0
  9
$UCSORGBOTTOM
 10
0.0
 20
0.0
 30
0.0
  9
$UCSORGLEFT
 10
0.0
 20
0.0
 30
0.0
  9
$UCSORGRIGHT
 10
0.0
 20
0.0
 30
0.0
  9
$UCSORGFRONT
 10
0.0
 20
0.0
 30
0.0
  9
$UCSORGBACK
 10
0.0
 20
0.0
 30
0.0
  9
$PUCSBASE
  2

  9
$PUCSNAME
  2

  9
$PUCSORG
 10
0.0
 20
0.0
 30
0.0
  9
$PUCSXDIR
 10
1.0
 20
0.0
 30
0.0
  9
$PUCSYDIR
 10
0.0
 20
1.0
 30
0.0
  9
$PUCSORTHOREF
  2

  9
$PUCSORTHOVIEW
 70
     0
  9
$PUCSORGTOP
 10
0.0
 20
0.0
 30
0.0
  9
$PUCSORGBOTTOM
 10
0.0
 20
0.0
 30
0.0
  9
$PUCSORGLEFT
 10
0.0
 20
0.0
 30
0.0
  9
$PUCSORGRIGHT
 10
0.0
 20
0.0
 30
0.0
  9
$PUCSORGFRONT
 10
0.0
 20
0.0
 30
0.0
  9
$PUCSORGBACK
 10
0.0
 20
0.0
 30
0.0
  9
$USERI1
 70
     0
  9
$USERI2
 70
     0
  9
$USERI3
 70
     0
  9
$USERI4
 70
     0
  9
$USERI5
 70
     0
  9
$USERR1
 40
0.0
  9
$USERR2
 40
0.0
  9
$USERR3
 40
0.0
  9
$USERR4
 40
0.0
  9
$USERR5
 40
0.0
  9
$WORLDVIEW
 70
     1
  9
$SHADEDGE
 70
     3
  9
$SHADEDIF
 70
    70
  9
$TILEMODE
 70
     1
  9
$MAXACTVP
 70
    64
  9
$PINSBASE
 10
0.0
 20
0.0
 30
0.0
  9
$PLIMCHECK
 70
     0
  9
$PEXTMIN
 10
1.000000000000000E+20
 20
1.000000000000000E+20
 30
1.000000000000000E+20
  9
$PEXTMAX
 10
-1.000000000000000E+20
 20
-1.000000000000000E+20
 30
-1.000000000000000E+20
  9
$PLIMMIN
 10
0.0
 20
0.0
  9
$PLIMMAX
 10
12.0
 20
9.0
  9
$UNITMODE
 70
     0
  9
$VISRETAIN
 70
     1
  9
$PLINEGEN
 70
     0
  9
$PSLTSCALE
 70
     1
  9
$TREEDEPTH
 70
  3020
  9
$CMLSTYLE
  2
Standard
  9
$CMLJUST
 70
     0
  9
$CMLSCALE
 40
1.0
  9
$PROXYGRAPHICS
 70
     1
  9
$MEASUREMENT
 70
     0
  9
$CELWEIGHT
370
    -1
  9
$ENDCAPS
280
     0
  9
$JOINSTYLE
280
     0
  9
$LWDISPLAY
290
     1
  9
$INSUNITS
 70
     4
  9
$HYPERLINKBASE
  1

  9
$STYLESHEET
  1

  9
$XEDIT
290
     1
  9
$CEPSNTYPE
380
     0
  9
$PSTYLEMODE
290
     1
  9
$FINGERPRINTGUID
  2
{BA492214-425A-0649-B442-24A876B9D73E}
  9
$VERSIONGUID
  2
{6853F68C-34BA-9744-9E05-03AC0DD72503}
  9
$EXTNAMES
290
     1
  9
$PSVPSCALE
 40
0.0
  9
$OLESTARTUP
290
     0
  9
$SORTENTS
280
   127
  9
$INDEXCTL
280
     0
  9
$HIDETEXT
280
     1
  9
$XCLIPFRAME
280
     2
  9
$HALOGAP
280
     0
  9
$OBSCOLOR
 70
   257
  9
$OBSLTYPE
280
     0
  9
$INTERSECTIONDISPLAY
280
     0
  9
$INTERSECTIONCOLOR
 70
   257
  9
$DIMASSOC
280
     2
  9
$PROJECTNAME
  1

  9
$CAMERADISPLAY
290
     0
  9
$LENSLENGTH
 40
50.0
  9
$CAMERAHEIGHT
 40
0.0
  9
$STEPSPERSEC
 40
2.0
  9
$STEPSIZE
 40
6.0
  9
$3DDWFPREC
 40
2.0
  9
$PSOLWIDTH
 40
0.25
  9
$PSOLHEIGHT
 40
4.0
  9
$LOFTANG1
 40
1.570796326794896
  9
$LOFTANG2
 40
1.570796326794896
  9
$LOFTMAG1
 40
0.0
  9
$LOFTMAG2
 40
0.0
  9
$LOFTPARAM
 70
     7
  9
$LOFTNORMALS
280
     1
  9
$LATITUDE
 40
37.795
  9
$LONGITUDE
 40
-122.394
  9
$NORTHDIRECTION
 40
0.0
  9
$TIMEZONE
 70
 -8000
  9
$LIGHTGLYPHDISPLAY
280
     1
  9
$TILEMODELIGHTSYNCH
280
     1
  9
$CMATERIAL
347
11
  9
$SOLIDHIST
280
     0
  9
$SHOWHIST
280
     1
  9
$DWFFRAME
280
     2
  9
$DGNFRAME
280
     0
  9
$REALWORLDSCALE
290
     1
  9
$INTERFERECOLOR
 62
     1
  9
$INTERFEREOBJVS
345
33
  9
$INTERFEREVPVS
346
30
  9
$CSHADOW
280
     0
  9
$SHADOWPLANELOCATION
 40
0.0
  0
ENDSEC
  0
SECTION
  2
CLASSES
  0
CLASS
  1
ACDBDICTIONARYWDFLT
  2
AcDbDictionaryWithDefault
  3
ObjectDBX Classes
 90
        0
 91
        1
280
     0
281
     0
  0
CLASS
  1
MATERIAL
  2
AcDbMaterial
  3
ObjectDBX Classes
 90
     1153
 91
        3
280
     0
281
     0
  0
CLASS
  1
VISUALSTYLE
  2
AcDbVisualStyle
  3
ObjectDBX Classes
 90
     4095
 91
       24
280
     0
281
     0
  0
CLASS
  1
SCALE
  2
AcDbScale
  3
ObjectDBX Classes
 90
     1153
 91
       17
280
     0
281
     0
  0
CLASS
  1
TABLESTYLE
  2
AcDbTableStyle
  3
ObjectDBX Classes
 90
     4095
 91
        1
280
     0
281
     0
  0
CLASS
  1
MLEADERSTYLE
  2
AcDbMLeaderStyle
  3
ACDB_MLEADERSTYLE_CLASS
 90
     4095
 91
        1
280
     0
281
     0
  0
CLASS
  1
ACDBSECTIONVIEWSTYLE
  2
AcDbSectionViewStyle
  3
ObjectDBX Classes
 90
     1025
 91
        1
280
     0
281
     0
  0
CLASS
  1
ACDBDETAILVIEWSTYLE
  2
AcDbDetailViewStyle
  3
ObjectDBX Classes
 90
     1025
 91
        1
280
     0
281
     0
  0
CLASS
  1
DICTIONARYVAR
  2
AcDbDictionaryVar
  3
ObjectDBX Classes
 90
        0
 91
        5
280
     0
281
     0
  0
CLASS
  1
CELLSTYLEMAP
  2
AcDbCellStyleMap
  3
ObjectDBX Classes
 90
     1152
 91
        1
280
     0
281
     0
  0
ENDSEC
  0
SECTION
  2
TABLES
  0
TABLE
  2
VPORT
  5
8
330
0
100
AcDbSymbolTable
 70
     1
  0
VPORT
  5
57
330
8
100
AcDbSymbolTableRecord
100
AcDbViewportTableRecord
  2
*Active
 70
     0
 10
0.0
 20
0.0
 11
1.0
 21
1.0
 12
0.0
 22
0.0
 13
0.0
 23
0.0
 14
1.0
 24
1.0
 15
0.0
 25
0.0
 16
0.0
 26
0.0
 36
1.0
 17
105.0000721959722
 27
148.5000416295417
 37
0.0
 40
302.9400849242652
 41
0.7070709950231022
 42
50.0
 43
0.0
 44
0.0
 50
0.0
 51
0.0
 71
     0
 72
   100
 73
     1
 74
     1
 75
     0
 76
     0
 77
     0
 78
     0
281
     0
 65
     1
110
0.0
120
0.0
130
0.0
111
1.0
121
0.0
131
0.0
112
0.0
122
1.0
132
0.0
 79
     0
146
0.0
 60
     3
 61
     5
292
     1
282
     1
141
0.0
142
0.0
 63
   250
421
  3355443
  0
ENDTAB
  0
TABLE
  2
LTYPE
  5
5
330
0
100
AcDbSymbolTable
 70
     1
  0
LTYPE
  5
5B
330
5
100
AcDbSymbolTableRecord
100
AcDbLinetypeTableRecord
  2
ByBlock
 70
     0
  3

 72
    65
 73
     0
 40
0.0
  0
LTYPE
  5
5C
330
5
100
AcDbSymbolTableRecord
100
AcDbLinetypeTableRecord
  2
ByLayer
 70
     0
  3

 72
    65
 73
     0
 40
0.0
  0
LTYPE
  5
5D
330
5
100
AcDbSymbolTableRecord
100
AcDbLinetypeTableRecord
  2
Continuous
 70
     0
  3
Solid line
 72
    65
 73
     0
 40
0.0
  0
ENDTAB
  0
TABLE
  2
LAYER
  5
2
330
0
100
AcDbSymbolTable
 70
     6
  0
LAYER
  5
54
330
2
100
AcDbSymbolTableRecord
100
AcDbLayerTableRecord
  2
0
 70
     0
 62
     7
  6
Continuous
370
    -3
390
F
347
21
348
0
  0
LAYER
  5
78
330
2
100
AcDbSymbolTableRecord
100
AcDbLayerTableRecord
  2
FLAME
 70
     0
 62
     7
  6
Continuous
370
     0
390
F
347
21
348
0
  0
LAYER
  5
80
330
2
100
AcDbSymbolTableRecord
100
AcDbLayerTableRecord
  2
SPEC
 70
     0
 62
     7
  6
Continuous
370
     0
390
F
347
21
348
0
  0
LAYER
  5
83
330
2
100
AcDbSymbolTableRecord
100
AcDbLayerTableRecord
  2
_HONTAI
 70
     0
 62
     7
  6
Continuous
370
     0
390
F
347
21
348
0
  0
LAYER
  5
9B
330
2
100
AcDbSymbolTableRecord
100
AcDbLayerTableRecord
  2
SHADE
 70
     0
 62
     7
  6
Continuous
370
     0
390
F
347
21
348
0
  0
LAYER
  5
9F
330
2
100
AcDbSymbolTableRecord
100
AcDbLayerTableRecord
  2
HON
 70
     0
 62
     7
  6
Continuous
370
     0
390
F
347
21
348
0
  0
ENDTAB
  0
TABLE
  2
STYLE
  5
3
330
0
100
AcDbSymbolTable
 70
     2
  0
STYLE
  5
55
330
3
100
AcDbSymbolTableRecord
100
AcDbTextStyleTableRecord
  2
Standard
 70
     0
 40
0.0
 41
1.0
 50
0.0
 71
     0
 42
0.2
  3
txt
  4

  0
STYLE
  5
5A
330
3
100
AcDbSymbolTableRecord
100
AcDbTextStyleTableRecord
  2
Annotative
 70
     0
 40
0.0
 41
1.0
 50
0.0
 71
     0
 42
0.2
  3
txt
  4

1001
AcadAnnotative
1000
AnnotativeData
1002
{
1070
     1
1070
     1
1002
}
  0
ENDTAB
  0
TABLE
  2
VIEW
  5
6
330
0
100
AcDbSymbolTable
 70
     0
  0
ENDTAB
  0
TABLE
  2
UCS
  5
7
330
0
100
AcDbSymbolTable
 70
     0
  0
ENDTAB
  0
TABLE
  2
APPID
  5
9
330
0
100
AcDbSymbolTable
 70
     2
  0
APPID
  5
56
330
9
100
AcDbSymbolTableRecord
100
AcDbRegAppTableRecord
  2
ACAD
 70
     0
  0
APPID
  5
5E
330
9
100
AcDbSymbolTableRecord
100
AcDbRegAppTableRecord
  2
AcadAnnotative
 70
     0
  0
ENDTAB
  0
TABLE
  2
DIMSTYLE
  5
A
330
0
100
AcDbSymbolTable
 70
     2
100
AcDbDimStyleTable
 71
     0
  0
DIMSTYLE
105
58
330
A
100
AcDbSymbolTableRecord
100
AcDbDimStyleTableRecord
  2
Standard
 70
     0
340
55
  0
DIMSTYLE
105
59
330
A
100
AcDbSymbolTableRecord
100
AcDbDimStyleTableRecord
  2
Annotative
 70
     0
340
55
1001
AcadAnnotative
1000
AnnotativeData
1002
{
1070
     1
1070
     1
1002
}
  0
ENDTAB
  0
TABLE
  2
BLOCK_RECORD
  5
1
330
0
100
AcDbSymbolTable
 70
     1
  0
BLOCK_RECORD
  5
70
330
1
100
AcDbSymbolTableRecord
100
AcDbBlockTableRecord
  2
*Model_Space
340
73
 70
     0
280
     1
281
     0
  0
BLOCK_RECORD
  5
6C
330
1
100
AcDbSymbolTableRecord
100
AcDbBlockTableRecord
  2
*Paper_Space
340
6F
 70
     0
280
     1
281
     0
  0
BLOCK_RECORD
  5
74
330
1
100
AcDbSymbolTableRecord
100
AcDbBlockTableRecord
  2
*Paper_Space0
340
77
 70
     0
280
     1
281
     0
  0
ENDTAB
  0
ENDSEC
  0
SECTION
  2
BLOCKS
  0
BLOCK
  5
71
330
70
100
AcDbEntity
  8
0
100
AcDbBlockBegin
  2
*Model_Space
 70
     0
 10
0.0
 20
0.0
 30
0.0
  3
*Model_Space
  1

  0
ENDBLK
  5
72
330
70
100
AcDbEntity
  8
0
100
AcDbBlockEnd
  0
BLOCK
  5
6D
330
6C
100
AcDbEntity
 67
     1
  8
0
100
AcDbBlockBegin
  2
*Paper_Space
 70
     0
 10
0.0
 20
0.0
 30
0.0
  3
*Paper_Space
  1

  0
ENDBLK
  5
6E
330
6C
100
AcDbEntity
 67
     1
  8
0
100
AcDbBlockEnd
  0
BLOCK
  5
75
330
74
100
AcDbEntity
 67
     1
  8
0
100
AcDbBlockBegin
  2
*Paper_Space0
 70
     0
 10
0.0
 20
0.0
 30
0.0
  3
*Paper_Space0
  1

  0
ENDBLK
  5
76
330
74
100
AcDbEntity
 67
     1
  8
0
100
AcDbBlockEnd
  0
ENDSEC
  0
SECTION
  2
ENTITIES
  0
LINE
  5
79
330
70
100
AcDbEntity
  8
FLAME
 62
     2
420
 16776960
370
    25
100
AcDbLine
 10
150.1277777514961
 20
201.0194444073145
 30
0.0
 11
150.1277777514961
 21
96.01944440731434
 31
0.0
  0
LINE
  5
7A
330
70
100
AcDbEntity
  8
FLAME
 62
     2
420
 16776960
370
    25
100
AcDbLine
 10
60.12777775149586
 20
96.01944440731434
 30
0.0
 11
60.12777775149586
 21
201.0194444073145
 31
0.0
  0
LINE
  5
7B
330
70
100
AcDbEntity
  8
FLAME
 62
     2
420
 16776960
370
    25
100
AcDbLine
 10
150.1277777514961
 20
96.01944440731434
 30
0.0
 11
60.12777775149586
 21
96.01944440731434
 31
0.0
  0
LINE
  5
7C
330
70
100
AcDbEntity
  8
FLAME
 62
     2
420
 16776960
370
    25
100
AcDbLine
 10
150.1277777514961
 20
101.0194444073145
 30
0.0
 11
60.12777775149586
 21
101.0194444073145
 31
0.0
  0
LINE
  5
7D
330
70
100
AcDbEntity
  8
FLAME
 62
     2
420
 16776960
370
    25
100
AcDbLine
 10
150.1277777514961
 20
106.0194444073147
 30
0.0
 11
60.12777775149586
 21
106.0194444073147
 31
0.0
  0
LINE
  5
7E
330
70
100
AcDbEntity
  8
FLAME
 62
     2
420
 16776960
370
    25
100
AcDbLine
 10
150.1277777514961
 20
111.0194444073148
 30
0.0
 11
60.12777775149586
 21
111.0194444073148
 31
0.0
  0
LINE
  5
7F
330
70
100
AcDbEntity
  8
FLAME
 62
     2
420
 16776960
370
    25
100
AcDbLine
 10
150.1277777514961
 20
201.0194444073145
 30
0.0
 11
60.12777775149586
 21
201.0194444073145
 31
0.0
  0
MTEXT
  5
81
330
70
100
AcDbEntity
  8
SPEC
100
AcDbMText
 10
63.50486079853622
 20
107.3692752993567
 30
0.0
 40
0.2
 41
0.0
 46
0.0
 71
     7
 72
     1
  1
\C9;\c12632256;\FKozGoPr6N-Regular|b0|i0|c128;\H2.500000;\W1.000000;KP123PA
 73
     1
 44
1.0
  0
MTEXT
  5
82
330
70
100
AcDbEntity
  8
SPEC
100
AcDbMText
 10
63.50486079853622
 20
102.3692790305329
 30
0.0
 40
0.2
 41
0.0
 46
0.0
 71
     7
 72
     1
  1
\C9;\c12632256;\FKozGoPr6N-Regular|b0|i0|c128;\H2.500000;\W1.000000;E26 電球型LEDランプ LDA12L×1灯
 73
     1
 44
1.0
  0
LINE
  5
84
330
70
100
AcDbEntity
  8
_HONTAI
 62
    18
420
        0
370
    25
100
AcDbLine
 10
105.7408061114612
 20
185.2086406535715
 30
0.0
 11
105.7408061114612
 21
176.5709571460542
 31
0.0
  0
LINE
  5
85
330
70
100
AcDbEntity
  8
_HONTAI
 62
    18
420
        0
370
    25
100
AcDbLine
 10
105.7408061114612
 20
175.0738666526528
 30
0.0
 11
105.7408061114612
 21
157.7024393850848
 31
0.0
  0
SPLINE
  5
86
330
70
100
AcDbEntity
  8
_HONTAI
 62
    18
420
        0
370
    25
100
AcDbSpline
210
0.0
220
0.0
230
1.0
 70
     8
 71
     3
 72
     8
 73
     4
 74
     0
 42
0.0000000001
 43
0.0000000001
 40
0.0
 40
0.0
 40
0.0
 40
0.0
 40
1.0
 40
1.0
 40
1.0
 40
1.0
 10
101.654188064588
 20
193.6720508098135
 30
0.0
 10
101.7408717080916
 20
190.4220038631538
 30
0.0
 10
103.1779467431327
 20
187.3550754347131
 30
0.0
 10
105.6199002520822
 20
185.2086406535763
 30
0.0
  0
LINE
  5
87
330
70
100
AcDbEntity
  8
_HONTAI
 62
    18
420
        0
370
    25
100
AcDbLine
 10
106.2727918927092
 20
185.2086406535715
 30
0.0
 11
106.2727918927111
 21
176.7256426158132
 31
0.0
  0
LINE
  5
88
330
70
100
AcDbEntity
  8
_HONTAI
 62
    18
420
        0
370
    25
100
AcDbLine
 10
106.2727918927111
 20
175.2285521224135
 30
0.0
 11
106.2727918927092
 21
157.7011935562737
 31
0.0
  0
SPLINE
  5
89
330
70
100
AcDbEntity
  8
_HONTAI
 62
    18
420
        0
370
    25
100
AcDbSpline
210
0.0
220
0.0
230
1.0
 70
     8
 71
     3
 72
     8
 73
     4
 74
     0
 42
0.0000000001
 43
0.0000000001
 40
0.0
 40
0.0
 40
0.0
 40
0.0
 40
1.0
 40
1.0
 40
1.0
 40
1.0
 10
106.3936977520919
 20
185.2086406535763
 30
0.0
 10
108.8356512610412
 20
187.3550754347131
 30
0.0
 10
110.2727262960819
 20
190.4220038631538
 30
0.0
 10
110.3594099395859
 20
193.6720508098135
 30
0.0
  0
SPLINE
  5
8A
330
70
100
AcDbEntity
  8
_HONTAI
 62
    18
420
        0
370
    25
100
AcDbSpline
210
0.0
220
0.0
230
1.0
 70
     8
 71
     3
 72
    11
 73
     7
 74
     0
 42
0.0000000001
 43
0.0000000001
 40
0.0
 40
0.0
 40
0.0
 40
0.0
 40
1.0
 40
1.0
 40
1.0
 40
2.0
 40
2.0
 40
2.0
 40
2.0
 10
110.3594099395878
 20
193.6720508098138
 30
0.0
 10
110.3594099395878
 20
194.1238895869526
 30
0.0
 10
108.4106796448161
 20
194.4901772876446
 30
0.0
 10
106.0067990020877
 20
194.4901772876446
 30
0.0
 10
103.6029183593597
 20
194.4901772876446
 30
0.0
 10
101.6541880645877
 20
194.1238895869526
 30
0.0
 10
101.6541880645877
 20
193.6720508098138
 30
0.0
  0
LINE
  5
8B
330
70
100
AcDbEntity
  8
_HONTAI
 62
    18
420
        0
370
    25
100
AcDbLine
 10
105.2228511150068
 20
157.6697993850845
 30
0.0
 11
105.2228511150068
 21
156.8320393850851
 31
0.0
  0
LINE
  5
8C
330
70
100
AcDbEntity
  8
_HONTAI
 62
    18
420
        0
370
    25
100
AcDbLine
 10
106.038851115006
 20
156.8320393850851
 30
0.0
 11
104.8850742840958
 21
156.8320393850851
 31
0.0
  0
LINE
  5
8D
330
70
100
AcDbEntity
  8
_HONTAI
 62
    18
420
        0
370
    25
100
AcDbLine
 10
106.038851115006
 20
157.7024393850848
 30
0.0
 11
105.2554911150045
 21
157.7024393850848
 31
0.0
  0
SPLINE
  5
8E
330
70
100
AcDbEntity
  8
_HONTAI
 62
    18
420
        0
370
    25
100
AcDbSpline
210
0.0
220
0.0
230
1.0
 70
     8
 71
     3
 72
     8
 73
     4
 74
     0
 42
0.0000000001
 43
0.0000000001
 40
0.0
 40
0.0
 40
0.0
 40
0.0
 40
1.0
 40
1.0
 40
1.0
 40
1.0
 10
103.2489428889676
 20
153.9841182587014
 30
0.0
 10
104.0967903068969
 20
154.6679851061262
 30
0.0
 10
104.6449157437148
 20
155.6552129694106
 30
0.0
 10
104.7770780818899
 20
156.7364401543558
 30
0.0
  0
LINE
  5
8F
330
70
100
AcDbEntity
  8
_HONTAI
 62
    18
420
        0
370
    25
100
AcDbLine
 10
104.7876511150031
 20
156.8320393850851
 30
0.0
 11
104.7876511150031
 21
156.8320393850851
 31
0.0
  0
SPLINE
  5
90
330
70
100
AcDbEntity
  8
_HONTAI
 62
    18
420
        0
370
    25
100
AcDbSpline
210
0.0
220
0.0
230
1.0
 70
     8
 71
     3
 72
     8
 73
     4
 74
     0
 42
0.0000000001
 43
0.0000000001
 40
0.0
 40
0.0
 40
0.0
 40
0.0
 40
1.0
 40
1.0
 40
1.0
 40
1.0
 10
104.8850742840958
 20
156.8320393850842
 30
0.0
 10
104.8300909294263
 20
156.8320393850842
 30
0.0
 10
104.783749245298
 20
156.7910173003913
 30
0.0
 10
104.7770780818909
 20
156.7364401543545
 30
0.0
  0
SPLINE
  5
91
330
70
100
AcDbEntity
  8
_HONTAI
 62
    18
420
        0
370
    25
100
AcDbSpline
210
0.0
220
0.0
230
1.0
 70
     8
 71
     3
 72
     8
 73
     4
 74
     0
 42
0.0000000001
 43
0.0000000001
 40
0.0
 40
0.0
 40
0.0
 40
0.0
 40
1.0
 40
1.0
 40
1.0
 40
1.0
 10
105.2554911150045
 20
157.7024393850844
 30
0.0
 10
105.2374645407702
 20
157.7024393850844
 30
0.0
 10
105.2228511150042
 20
157.6878259593188
 30
0.0
 10
105.2228511150042
 20
157.6697993850845
 30
0.0
  0
LINE
  5
92
330
70
100
AcDbEntity
  8
_HONTAI
 62
    18
420
        0
370
    25
100
AcDbLine
 10
105.2228511150068
 20
157.7024393850848
 30
0.0
 11
105.2228511150068
 21
157.7024393850848
 31
0.0
  0
LINE
  5
93
330
70
100
AcDbEntity
  8
_HONTAI
 62
    18
420
        0
370
    25
100
AcDbLine
 10
106.8571611079141
 20
157.6697993850845
 30
0.0
 11
106.8571611079141
 21
156.8320393850851
 31
0.0
  0
LINE
  5
94
330
70
100
AcDbEntity
  8
_HONTAI
 62
    18
420
        0
370
    25
100
AcDbLine
 10
106.041161107915
 20
156.8320393850851
 30
0.0
 11
107.1949379388249
 21
156.8320393850851
 31
0.0
  0
LINE
  5
95
330
70
100
AcDbEntity
  8
_HONTAI
 62
    18
420
        0
370
    25
100
AcDbLine
 10
106.041161107915
 20
157.7024393850848
 30
0.0
 11
106.8245211079164
 21
157.7024393850848
 31
0.0
  0
SPLINE
  5
96
330
70
100
AcDbEntity
  8
_HONTAI
 62
    18
420
        0
370
    25
100
AcDbSpline
210
0.0
220
0.0
230
1.0
 70
     8
 71
     3
 72
     8
 73
     4
 74
     0
 42
0.0000000001
 43
0.0000000001
 40
0.0
 40
0.0
 40
0.0
 40
0.0
 40
1.0
 40
1.0
 40
1.0
 40
1.0
 10
107.3029341410307
 20
156.7364401543558
 30
0.0
 10
107.4350964792061
 20
155.6552129694106
 30
0.0
 10
107.9832219160237
 20
154.6679851061262
 30
0.0
 10
108.831069333953
 20
153.9841182587014
 30
0.0
  0
LINE
  5
97
330
70
100
AcDbEntity
  8
_HONTAI
 62
    18
420
        0
370
    25
100
AcDbLine
 10
107.2923611079178
 20
156.8320393850851
 30
0.0
 11
107.2923611079178
 21
156.8320393850851
 31
0.0
  0
SPLINE
  5
98
330
70
100
AcDbEntity
  8
_HONTAI
 62
    18
420
        0
370
    25
100
AcDbSpline
210
0.0
220
0.0
230
1.0
 70
     8
 71
     3
 72
     8
 73
     4
 74
     0
 42
0.0000000001
 43
0.0000000001
 40
0.0
 40
0.0
 40
0.0
 40
0.0
 40
1.0
 40
1.0
 40
1.0
 40
1.0
 10
107.3029341410301
 20
156.7364401543545
 30
0.0
 10
107.2962629776229
 20
156.7910173003913
 30
0.0
 10
107.2499212934946
 20
156.8320393850842
 30
0.0
 10
107.1949379388249
 20
156.8320393850842
 30
0.0
  0
SPLINE
  5
99
330
70
100
AcDbEntity
  8
_HONTAI
 62
    18
420
        0
370
    25
100
AcDbSpline
210
0.0
220
0.0
230
1.0
 70
     8
 71
     3
 72
     8
 73
     4
 74
     0
 42
0.0000000001
 43
0.0000000001
 40
0.0
 40
0.0
 40
0.0
 40
0.0
 40
1.0
 40
1.0
 40
1.0
 40
1.0
 10
106.8571611079161
 20
157.6697993850845
 30
0.0
 10
106.8571611079161
 20
157.6878259593188
 30
0.0
 10
106.8425476821508
 20
157.7024393850844
 30
0.0
 10
106.8245211079164
 20
157.7024393850844
 30
0.0
  0
LINE
  5
9A
330
70
100
AcDbEntity
  8
_HONTAI
 62
    18
420
        0
370
    25
100
AcDbLine
 10
106.8571611079141
 20
157.7024393850848
 30
0.0
 11
106.8571611079141
 21
157.7024393850848
 31
0.0
  0
SPLINE
  5
9C
330
70
100
AcDbEntity
  8
SHADE
 62
    18
420
        0
370
    25
100
AcDbSpline
210
0.0
220
0.0
230
1.0
 70
     8
 71
     3
 72
    17
 73
    13
 74
     0
 42
0.0000000001
 43
0.0000000001
 40
0.0
 40
0.0
 40
0.0
 40
0.0
 40
1.0
 40
1.0
 40
1.0
 40
2.0
 40
2.0
 40
2.0
 40
3.0
 40
3.0
 40
3.0
 40
4.0
 40
4.0
 40
4.0
 40
4.0
 10
106.2727918927092
 20
185.154176018845
 30
0.0
 10
106.4279617209747
 20
185.1826536229079
 30
0.0
 10
106.4346626470436
 20
185.2301239298736
 30
0.0
 10
106.2877588299901
 20
185.260203917041
 30
0.0
 10
106.140855012936
 20
185.2902839042087
 30
0.0
 10
105.8959759397319
 20
185.2915828923715
 30
0.0
 10
105.7408061114663
 20
185.2631052883088
 30
0.0
 10
105.5856362832007
 20
185.2346276842459
 30
0.0
 10
105.5789353571318
 20
185.1871573772803
 30
0.0
 10
105.725839174186
 20
185.1570773901126
 30
0.0
 10
105.7306907256889
 20
185.1560839876953
 30
0.0
 10
105.7356815719573
 20
185.155116501984
 30
0.0
 10
105.7408061114599
 20
185.1541760188463
 30
0.0
  0
LINE
  5
9D
330
70
100
AcDbEntity
  8
SHADE
 62
    18
420
        0
370
    25
100
AcDbLine
 10
107.752187136971
 20
177.1558062712853
 30
0.0
 11
104.2510472320762
 21
176.1377800570977
 31
0.0
  0
LINE
  5
9E
330
70
100
AcDbEntity
  8
SHADE
 62
    18
420
        0
370
    25
100
AcDbLine
 10
107.752187136971
 20
175.6587157778836
 30
0.0
 11
104.2510472320762
 21
174.640689563696
 31
0.0
  0
LINE
  5
A0
330
70
100
AcDbEntity
  8
HON
 62
     9
420
 12632256
370
    25
100
AcDbLine
 10
106.0553299279043
 20
140.3399235505756
 30
0.0
 11
103.6474495280607
 21
137.3736001837285
 31
0.0
  0
LINE
  5
A1
330
70
100
AcDbEntity
  8
HON
 62
     9
420
 12632256
370
    25
100
AcDbLine
 10
103.6602209404088
 20
135.2693820853191
 30
0.0
 11
103.6548202333386
 21
137.4015587583696
 31
0.0
  0
LINE
  5
A2
330
70
100
AcDbEntity
  8
HON
 62
     9
420
 12632256
370
    25
100
AcDbLine
 10
95.03578036297112
 20
148.0140501210705
 30
0.0
 11
95.50078184234816
 21
148.502903313562
 31
0.0
  0
LINE
  5
A3
330
70
100
AcDbEntity
  8
HON
 62
     9
420
 12632256
370
    25
100
AcDbLine
 10
93.6322073060208
 20
141.4211032123644
 30
0.0
 11
93.27810624108213
 21
138.2524215816292
 31
0.0
  0
LINE
  5
A4
330
70
100
AcDbEntity
  8
HON
 62
     9
420
 12632256
370
    25
100
AcDbLine
 10
94.15876864527032
 20
144.1681404385565
 30
0.0
 11
95.399870463935
 21
146.9324131766904
 31
0.0
  0
LINE
  5
A5
330
70
100
AcDbEntity
  8
HON
 62
     9
420
 12632256
370
    25
100
AcDbLine
 10
94.15876864527032
 20
144.1681404385565
 30
0.0
 11
94.95777052026161
 21
143.2287114035012
 31
0.0
  0
LINE
  5
A6
330
70
100
AcDbEntity
  8
HON
 62
     9
420
 12632256
370
    25
100
AcDbLine
 10
93.27810624108213
 20
138.2524215816292
 30
0.0
 11
94.06522416993444
 21
137.4288892360439
 31
0.0
  0
LINE
  5
A7
330
70
100
AcDbEntity
  8
HON
 62
     9
420
 12632256
370
    25
100
AcDbLine
 10
104.9031267678792
 20
150.2533110420469
 30
0.0
 11
106.000564096502
 21
152.0827202007135
 31
0.0
  0
LINE
  5
A8
330
70
100
AcDbEntity
  8
HON
 62
     9
420
 12632256
370
    25
100
AcDbLine
 10
104.9031267678792
 20
150.2533110420469
 30
0.0
 11
104.1812565197276
 21
152.0573539564363
 31
0.0
  0
LINE
  5
A9
330
70
100
AcDbEntity
  8
HON
 62
     9
420
 12632256
370
    25
100
AcDbLine
 10
104.1812565197276
 20
152.0573539564363
 30
0.0
 11
102.975024697541
 21
149.9976541089896
 31
0.0
  0
LINE
  5
AA
330
70
100
AcDbEntity
  8
HON
 62
     9
420
 12632256
370
    25
100
AcDbLine
 10
102.975024697541
 20
149.9976541089896
 30
0.0
 11
102.4151596460713
 21
151.9904331488747
 31
0.0
  0
LINE
  5
AB
330
70
100
AcDbEntity
  8
HON
 62
     9
420
 12632256
370
    25
100
AcDbLine
 10
102.4151596460713
 20
151.9904331488747
 30
0.0
 11
100.743918146402
 21
149.8495924244094
 31
0.0
  0
LINE
  5
AC
330
70
100
AcDbEntity
  8
HON
 62
     9
420
 12632256
370
    25
100
AcDbLine
 10
100.743918146402
 20
149.8495924244094
 30
0.0
 11
100.8762309910297
 21
151.7873650147182
 31
0.0
  0
LINE
  5
AD
330
70
100
AcDbEntity
  8
HON
 62
     9
420
 12632256
370
    25
100
AcDbLine
 10
100.8762309910297
 20
151.7873650147182
 30
0.0
 11
98.61327744752356
 21
149.6427799930394
 31
0.0
  0
LINE
  5
AE
330
70
100
AcDbEntity
  8
HON
 62
     9
420
 12632256
370
    25
100
AcDbLine
 10
98.61327744752356
 20
149.6427799930394
 30
0.0
 11
100.0189888294289
 21
151.6066181497867
 31
0.0
  0
LINE
  5
AF
330
70
100
AcDbEntity
  8
HON
 62
     9
420
 12632256
370
    25
100
AcDbLine
 10
100.0189888294289
 20
151.6066181497867
 30
0.0
 11
97.28301897125943
 21
149.291234049952
 31
0.0
  0
LINE
  5
B0
330
70
100
AcDbEntity
  8
HON
 62
     9
420
 12632256
370
    25
100
AcDbLine
 10
97.28301897125943
 20
149.291234049952
 30
0.0
 11
99.2692527522856
 21
151.4438473858795
 31
0.0
  0
LINE
  5
B1
330
70
100
AcDbEntity
  8
HON
 62
     9
420
 12632256
370
    25
100
AcDbLine
 10
99.2692527522856
 20
151.4438473858795
 30
0.0
 11
96.0690299234584
 21
148.7773677918962
 31
0.0
  0
LINE
  5
B2
330
70
100
AcDbEntity
  8
HON
 62
     9
420
 12632256
370
    25
100
AcDbLine
 10
96.04231320191946
 20
148.7675465313572
 30
0.0
 11
98.53437793478839
 21
151.1762918194323
 31
0.0
  0
LINE
  5
B3
330
70
100
AcDbEntity
  8
HON
 62
     9
420
 12632256
370
    25
100
AcDbLine
 10
97.77039796259931
 20
150.8889367679117
 30
0.0
 11
95.48929635370297
 21
148.610727063348
 31
0.0
  0
LINE
  5
B4
330
70
100
AcDbEntity
  8
HON
 62
     9
420
 12632256
370
    25
100
AcDbLine
 10
106.0607487008284
 20
149.4131552090009
 30
0.0
 11
104.5276752835224
 21
146.6198203482949
 31
0.0
  0
LINE
  5
B5
330
70
100
AcDbEntity
  8
HON
 62
     9
420
 12632256
370
    25
100
AcDbLine
 10
104.5276752835224
 20
146.6198203482949
 30
0.0
 11
104.1721652982278
 21
149.2871056546578
 31
0.0
  0
LINE
  5
B6
330
70
100
AcDbEntity
  8
HON
 62
     9
420
 12632256
370
    25
100
AcDbLine
 10
104.1721652982278
 20
149.2871056546578
 30
0.0
 11
101.8195502031821
 21
146.3059491143764
 31
0.0
  0
LINE
  5
B7
330
70
100
AcDbEntity
  8
HON
 62
     9
420
 12632256
370
    25
100
AcDbLine
 10
101.8195502031821
 20
146.3059491143764
 30
0.0
 11
101.8785571410526
 21
149.0589476499359
 31
0.0
  0
LINE
  5
B8
330
70
100
AcDbEntity
  8
HON
 62
     9
420
 12632256
370
    25
100
AcDbLine
 10
101.8785571410526
 20
149.0589476499359
 30
0.0
 11
99.46363390637181
 21
145.8268454362865
 31
0.0
  0
LINE
  5
B9
330
70
100
AcDbEntity
  8
HON
 62
     9
420
 12632256
370
    25
100
AcDbLine
 10
99.46363390637181
 20
145.8268454362865
 30
0.0
 11
99.46834222341651
 21
148.7577393841027
 31
0.0
  0
LINE
  5
BA
330
70
100
AcDbEntity
  8
HON
 62
     9
420
 12632256
370
    25
100
AcDbLine
 10
99.46834222341651
 20
148.7577393841027
 30
0.0
 11
97.57975377072117
 21
145.4005638574897
 31
0.0
  0
LINE
  5
BB
330
70
100
AcDbEntity
  8
HON
 62
     9
420
 12632256
370
    25
100
AcDbLine
 10
97.57975377072117
 20
145.4005638574897
 30
0.0
 11
97.84696490596132
 21
148.3911912093233
 31
0.0
  0
LINE
  5
BC
330
70
100
AcDbEntity
  8
HON
 62
     9
420
 12632256
370
    25
100
AcDbLine
 10
97.84696490596132
 20
148.3911912093233
 30
0.0
 11
96.15928010573307
 21
145.0529435355097
 31
0.0
  0
LINE
  5
BD
330
70
100
AcDbEntity
  8
HON
 62
     9
420
 12632256
370
    25
100
AcDbLine
 10
96.15928010573307
 20
145.0529435355097
 30
0.0
 11
96.7330160853298
 21
147.9827724797018
 31
0.0
  0
LINE
  5
BE
330
70
100
AcDbEntity
  8
HON
 62
     9
420
 12632256
370
    25
100
AcDbLine
 10
96.7330160853298
 20
147.9827724797018
 30
0.0
 11
95.08092738765723
 21
144.6239980351916
 31
0.0
  0
LINE
  5
BF
330
70
100
AcDbEntity
  8
HON
 62
     9
420
 12632256
370
    25
100
AcDbLine
 10
95.08092738765723
 20
144.6239980351916
 30
0.0
 11
96.07409270302097
 21
147.5738621970925
 31
0.0
  0
LINE
  5
C0
330
70
100
AcDbEntity
  8
HON
 62
     9
420
 12632256
370
    25
100
AcDbLine
 10
96.06704724674532
 20
147.5879266291475
 30
0.0
 11
94.52708740098456
 21
144.3300344464645
 31
0.0
  0
LINE
  5
C1
330
70
100
AcDbEntity
  8
HON
 62
     9
420
 12632256
370
    25
100
AcDbLine
 10
94.52708740098456
 20
144.3300344464645
 30
0.0
 11
95.65329094896602
 21
147.0711746118638
 31
0.0
  0
LINE
  5
C2
330
70
100
AcDbEntity
  8
HON
 62
     9
420
 12632256
370
    25
100
AcDbLine
 10
95.65329094896602
 20
147.0711746118638
 30
0.0
 11
94.15876864527032
 21
144.1681404385565
 31
0.0
  0
LINE
  5
C3
330
70
100
AcDbEntity
  8
HON
 62
     9
420
 12632256
370
    25
100
AcDbLine
 10
94.52708740098456
 20
144.3300344464645
 30
0.0
 11
95.40460531922766
 21
143.3715651905863
 31
0.0
  0
LINE
  5
C4
330
70
100
AcDbEntity
  8
HON
 62
     9
420
 12632256
370
    25
100
AcDbLine
 10
95.08092738765723
 20
144.6239980351916
 30
0.0
 11
96.17581025126746
 21
143.297720473222
 31
0.0
  0
LINE
  5
C5
330
70
100
AcDbEntity
  8
HON
 62
     9
420
 12632256
370
    25
100
AcDbLine
 10
96.17581025126746
 20
143.297720473222
 30
0.0
 11
96.15928010573307
 21
145.0529435355097
 31
0.0
  0
LINE
  5
C6
330
70
100
AcDbEntity
  8
HON
 62
     9
420
 12632256
370
    25
100
AcDbLine
 10
96.15928010573307
 20
145.0529435355097
 30
0.0
 11
97.30588752417759
 21
143.6854466478621
 31
0.0
  0
LINE
  5
C7
330
70
100
AcDbEntity
  8
HON
 62
     9
420
 12632256
370
    25
100
AcDbLine
 10
97.30588752417759
 20
143.6854466478621
 30
0.0
 11
97.57975377072117
 21
145.4005638574897
 31
0.0
  0
LINE
  5
C8
330
70
100
AcDbEntity
  8
HON
 62
     9
420
 12632256
370
    25
100
AcDbLine
 10
97.57975377072117
 20
145.4005638574897
 30
0.0
 11
99.04037614186631
 21
143.6631819547919
 31
0.0
  0
LINE
  5
C9
330
70
100
AcDbEntity
  8
HON
 62
     9
420
 12632256
370
    25
100
AcDbLine
 10
99.04037614186631
 20
143.6631819547919
 30
0.0
 11
99.46363390637181
 21
145.8268454362865
 31
0.0
  0
LINE
  5
CA
330
70
100
AcDbEntity
  8
HON
 62
     9
420
 12632256
370
    25
100
AcDbLine
 10
99.46363390637181
 20
145.8268454362865
 30
0.0
 11
100.9788097761673
 21
143.9443355470234
 31
0.0
  0
LINE
  5
CB
330
70
100
AcDbEntity
  8
HON
 62
     9
420
 12632256
370
    25
100
AcDbLine
 10
100.9788097761673
 20
143.9443355470234
 30
0.0
 11
101.8195502031821
 21
146.3059491143764
 31
0.0
  0
LINE
  5
CC
330
70
100
AcDbEntity
  8
HON
 62
     9
420
 12632256
370
    25
100
AcDbLine
 10
101.8195502031821
 20
146.3059491143764
 30
0.0
 11
103.5491067719058
 21
144.0722586146447
 31
0.0
  0
LINE
  5
CD
330
70
100
AcDbEntity
  8
HON
 62
     9
420
 12632256
370
    25
100
AcDbLine
 10
103.5491067719058
 20
144.0722586146447
 30
0.0
 11
104.5276752835224
 21
146.6198203482949
 31
0.0
  0
LINE
  5
CE
330
70
100
AcDbEntity
  8
HON
 62
     9
420
 12632256
370
    25
100
AcDbLine
 10
104.5276752835224
 20
146.6198203482949
 30
0.0
 11
106.0526304196254
 21
144.3424104352911
 31
0.0
  0
LINE
  5
CF
330
70
100
AcDbEntity
  8
HON
 62
     9
420
 12632256
370
    25
100
AcDbLine
 10
93.6322073060208
 20
141.4211032123644
 30
0.0
 11
93.57460086071347
 21
138.5582862451759
 31
0.0
  0
LINE
  5
D0
330
70
100
AcDbEntity
  8
HON
 62
     9
420
 12632256
370
    25
100
AcDbLine
 10
93.57460086071347
 20
138.5582862451759
 30
0.0
 11
94.00790180260335
 21
141.6746569929841
 31
0.0
  0
LINE
  5
D1
330
70
100
AcDbEntity
  8
HON
 62
     9
420
 12632256
370
    25
100
AcDbLine
 10
94.00790180260335
 20
141.6746569929841
 30
0.0
 11
94.22673312367324
 21
138.9522940474151
 31
0.0
  0
LINE
  5
D2
330
70
100
AcDbEntity
  8
HON
 62
     9
420
 12632256
370
    25
100
AcDbLine
 10
94.22673312367324
 20
138.9522940474151
 30
0.0
 11
94.6765958675594
 21
142.2022677032262
 31
0.0
  0
LINE
  5
D3
330
70
100
AcDbEntity
  8
HON
 62
     9
420
 12632256
370
    25
100
AcDbLine
 10
94.6765958675594
 20
142.2022677032262
 30
0.0
 11
95.47258853434767
 21
139.5877618354667
 31
0.0
  0
LINE
  5
D4
330
70
100
AcDbEntity
  8
HON
 62
     9
420
 12632256
370
    25
100
AcDbLine
 10
95.47258853434767
 20
139.5877618354667
 30
0.0
 11
95.87152531755318
 21
142.6743239068426
 31
0.0
  0
LINE
  5
D5
330
70
100
AcDbEntity
  8
HON
 62
     9
420
 12632256
370
    25
100
AcDbLine
 10
95.87152531755318
 20
142.6743239068426
 30
0.0
 11
97.32229366784572
 21
140.2532422895589
 31
0.0
  0
LINE
  5
D6
330
70
100
AcDbEntity
  8
HON
 62
     9
420
 12632256
370
    25
100
AcDbLine
 10
97.32229366784572
 20
140.2532422895589
 30
0.0
 11
97.72858273480492
 21
143.1148697977867
 31
0.0
  0
LINE
  5
D7
330
70
100
AcDbEntity
  8
HON
 62
     9
420
 12632256
370
    25
100
AcDbLine
 10
97.72858273480492
 20
143.1148697977867
 30
0.0
 11
99.40106134140371
 21
140.7936797655732
 31
0.0
  0
LINE
  5
D8
330
70
100
AcDbEntity
  8
HON
 62
     9
420
 12632256
370
    25
100
AcDbLine
 10
99.40106134140371
 20
140.7936797655732
 30
0.0
 11
99.86398026631727
 21
143.4598673237127
 31
0.0
  0
LINE
  5
D9
330
70
100
AcDbEntity
  8
HON
 62
     9
420
 12632256
370
    25
100
AcDbLine
 10
99.86398026631727
 20
143.4598673237127
 30
0.0
 11
101.5683078601532
 21
141.1416176338155
 31
0.0
  0
LINE
  5
DA
330
70
100
AcDbEntity
  8
HON
 62
     9
420
 12632256
370
    25
100
AcDbLine
 10
101.5683078601532
 20
141.1416176338155
 30
0.0
 11
102.0924513965937
 21
143.7571824372013
 31
0.0
  0
LINE
  5
DB
330
70
100
AcDbEntity
  8
HON
 62
     9
420
 12632256
370
    25
100
AcDbLine
 10
102.0924513965937
 20
143.7571824372013
 30
0.0
 11
103.8709847037578
 21
141.5324319529087
 31
0.0
  0
LINE
  5
DC
330
70
100
AcDbEntity
  8
HON
 62
     9
420
 12632256
370
    25
100
AcDbLine
 10
103.8709847037578
 20
141.5324319529087
 30
0.0
 11
104.5535675062208
 21
143.9493993322673
 31
0.0
  0
LINE
  5
DD
330
70
100
AcDbEntity
  8
HON
 62
     9
420
 12632256
370
    25
100
AcDbLine
 10
104.5535675062208
 20
143.9493993322673
 30
0.0
 11
106.054377640451
 21
141.6891796478438
 31
0.0
  0
LINE
  5
DE
330
70
100
AcDbEntity
  8
HON
 62
     9
420
 12632256
370
    25
100
AcDbLine
 10
93.63220730602272
 20
141.4211032123644
 30
0.0
 11
94.89327504304016
 21
143.3033869651451
 31
0.0
  0
LINE
  5
DF
330
70
100
AcDbEntity
  8
HON
 62
     9
420
 12632256
370
    25
100
AcDbLine
 10
94.00790180260335
 20
141.6746569929841
 30
0.0
 11
95.26616238259046
 21
143.5072445399569
 31
0.0
  0
LINE
  5
E0
330
70
100
AcDbEntity
  8
HON
 62
     9
420
 12632256
370
    25
100
AcDbLine
 10
94.6765958675594
 20
142.2022677032262
 30
0.0
 11
95.92032078560512
 21
143.6384737439117
 31
0.0
  0
LINE
  5
E1
330
70
100
AcDbEntity
  8
HON
 62
     9
420
 12632256
370
    25
100
AcDbLine
 10
95.87152531755318
 20
142.6743239068426
 30
0.0
 11
97.13274409658584
 21
143.9093103088711
 31
0.0
  0
LINE
  5
E2
330
70
100
AcDbEntity
  8
HON
 62
     9
420
 12632256
370
    25
100
AcDbLine
 10
97.72858273480492
 20
143.1148697977867
 30
0.0
 11
98.70260621116972
 21
144.0649527180325
 31
0.0
  0
LINE
  5
E3
330
70
100
AcDbEntity
  8
HON
 62
     9
420
 12632256
370
    25
100
AcDbLine
 10
99.86398026631727
 20
143.4598673237127
 30
0.0
 11
100.6551235919369
 21
144.3464950949536
 31
0.0
  0
LINE
  5
E4
330
70
100
AcDbEntity
  8
HON
 62
     9
420
 12632256
370
    25
100
AcDbLine
 10
102.0924513965937
 20
143.7571824372013
 30
0.0
 11
103.0939808390858
 21
144.6600453865274
 31
0.0
  0
LINE
  5
E5
330
70
100
AcDbEntity
  8
HON
 62
     9
420
 12632256
370
    25
100
AcDbLine
 10
104.5535675062208
 20
143.9493993322673
 30
0.0
 11
105.6801084862737
 21
144.898744929166
 31
0.0
  0
LINE
  5
E6
330
70
100
AcDbEntity
  8
HON
 62
     9
420
 12632256
370
    25
100
AcDbLine
 10
95.03578036297112
 20
148.0140501210705
 30
0.0
 11
95.399870463935
 21
146.9324131766904
 31
0.0
  0
LINE
  5
E7
330
70
100
AcDbEntity
  8
HON
 62
     9
420
 12632256
370
    25
100
AcDbLine
 10
104.1721652982278
 20
149.2871056546578
 30
0.0
 11
104.9003412486681
 21
150.2554057934762
 31
0.0
  0
LINE
  5
E8
330
70
100
AcDbEntity
  8
HON
 62
     9
420
 12632256
370
    25
100
AcDbLine
 10
101.8785571410526
 20
149.0589476499359
 30
0.0
 11
102.975024697541
 21
149.9976541089896
 31
0.0
  0
LINE
  5
E9
330
70
100
AcDbEntity
  8
HON
 62
     9
420
 12632256
370
    25
100
AcDbLine
 10
99.46834222341651
 20
148.7577393841027
 30
0.0
 11
100.743918146402
 21
149.8495924244094
 31
0.0
  0
LINE
  5
EA
330
70
100
AcDbEntity
  8
HON
 62
     9
420
 12632256
370
    25
100
AcDbLine
 10
98.61327744752356
 20
149.6427799930394
 30
0.0
 11
97.84696490596132
 21
148.3911912093233
 31
0.0
  0
LINE
  5
EB
330
70
100
AcDbEntity
  8
HON
 62
     9
420
 12632256
370
    25
100
AcDbLine
 10
96.7330160853298
 20
147.9827724797018
 30
0.0
 11
97.28301897125943
 21
149.291234049952
 31
0.0
  0
LINE
  5
EC
330
70
100
AcDbEntity
  8
HON
 62
     9
420
 12632256
370
    25
100
AcDbLine
 10
96.07409270302097
 20
147.5738621970925
 30
0.0
 11
96.0690299234584
 21
148.7773677918962
 31
0.0
  0
LINE
  5
ED
330
70
100
AcDbEntity
  8
HON
 62
     9
420
 12632256
370
    25
100
AcDbLine
 10
95.65329094896602
 20
147.0711746118638
 30
0.0
 11
95.48929635370297
 21
148.610727063348
 31
0.0
  0
LINE
  5
EE
330
70
100
AcDbEntity
  8
HON
 62
     9
420
 12632256
370
    25
100
AcDbLine
 10
103.5491067719058
 20
144.0722586146447
 30
0.0
 11
103.8709847037578
 21
141.5324319529087
 31
0.0
  0
LINE
  5
EF
330
70
100
AcDbEntity
  8
HON
 62
     9
420
 12632256
370
    25
100
AcDbLine
 10
100.9788097761673
 20
143.9443355470234
 30
0.0
 11
101.5683078601532
 21
141.1416176338155
 31
0.0
  0
LINE
  5
F0
330
70
100
AcDbEntity
  8
HON
 62
     9
420
 12632256
370
    25
100
AcDbLine
 10
99.04037614186631
 20
143.6631819547919
 30
0.0
 11
99.40106134140371
 21
140.7936797655732
 31
0.0
  0
LINE
  5
F1
330
70
100
AcDbEntity
  8
HON
 62
     9
420
 12632256
370
    25
100
AcDbLine
 10
97.30588752417759
 20
143.6854466478621
 30
0.0
 11
97.32229366784572
 21
140.2532422895589
 31
0.0
  0
LINE
  5
F2
330
70
100
AcDbEntity
  8
HON
 62
     9
420
 12632256
370
    25
100
AcDbLine
 10
104.9031267678792
 20
150.2533110420469
 30
0.0
 11
106.0489413426723
 21
149.391641624085
 31
0.0
  0
LINE
  5
F3
330
70
100
AcDbEntity
  8
HON
 62
     9
420
 12632256
370
    25
100
AcDbLine
 10
102.975024697541
 20
149.9976541089896
 30
0.0
 11
104.1813553903073
 21
149.2181551368672
 31
0.0
  0
LINE
  5
F4
330
70
100
AcDbEntity
  8
HON
 62
     9
420
 12632256
370
    25
100
AcDbLine
 10
100.743918146402
 20
149.8495924244094
 30
0.0
 11
101.8795016568208
 21
149.1030145108803
 31
0.0
  0
LINE
  5
F5
330
70
100
AcDbEntity
  8
HON
 62
     9
420
 12632256
370
    25
100
AcDbLine
 10
98.61327744752356
 20
149.6427799930394
 30
0.0
 11
99.46834222341651
 21
148.7577393841027
 31
0.0
  0
LINE
  5
F6
330
70
100
AcDbEntity
  8
HON
 62
     9
420
 12632256
370
    25
100
AcDbLine
 10
103.8648226368066
 20
140.3426109308555
 30
0.0
 11
100.5980201978589
 21
137.1326299808991
 31
0.0
  0
LINE
  5
F7
330
70
100
AcDbEntity
  8
HON
 62
     9
420
 12632256
370
    25
100
AcDbLine
 10
100.5980201978589
 20
137.1326299808991
 30
0.0
 11
101.6184617018303
 21
140.3298021201831
 31
0.0
  0
LINE
  5
F8
330
70
100
AcDbEntity
  8
HON
 62
     9
420
 12632256
370
    25
100
AcDbLine
 10
101.6184617018303
 20
140.3298021201831
 30
0.0
 11
97.90405610549072
 21
136.3538887991294
 31
0.0
  0
LINE
  5
F9
330
70
100
AcDbEntity
  8
HON
 62
     9
420
 12632256
370
    25
100
AcDbLine
 10
97.90405610549072
 20
136.3538887991294
 30
0.0
 11
99.29017770536907
 21
139.9392028920652
 31
0.0
  0
LINE
  5
FA
330
70
100
AcDbEntity
  8
HON
 62
     9
420
 12632256
370
    25
100
AcDbLine
 10
99.29017770536907
 20
139.9392028920652
 30
0.0
 11
95.86197206636164
 21
135.4983817518066
 31
0.0
  0
LINE
  5
FB
330
70
100
AcDbEntity
  8
HON
 62
     9
420
 12632256
370
    25
100
AcDbLine
 10
95.86197206636164
 20
135.4983817518066
 30
0.0
 11
97.03727183536361
 21
139.5419470908609
 31
0.0
  0
LINE
  5
FC
330
70
100
AcDbEntity
  8
HON
 62
     9
420
 12632256
370
    25
100
AcDbLine
 10
97.03727183536361
 20
139.5419470908609
 30
0.0
 11
94.29484154808683
 21
134.8498213197551
 31
0.0
  0
LINE
  5
FD
330
70
100
AcDbEntity
  8
HON
 62
     9
420
 12632256
370
    25
100
AcDbLine
 10
94.29484154808683
 20
134.8498213197551
 30
0.0
 11
95.33147670715575
 21
138.9159299222777
 31
0.0
  0
LINE
  5
FE
330
70
100
AcDbEntity
  8
HON
 62
     9
420
 12632256
370
    25
100
AcDbLine
 10
95.33147670715575
 20
138.9159299222777
 30
0.0
 11
93.36354702977835
 21
134.3074771825107
 31
0.0
  0
LINE
  5
FF
330
70
100
AcDbEntity
  8
HON
 62
     9
420
 12632256
370
    25
100
AcDbLine
 10
92.84336399782009
 20
133.8451007193856
 30
0.0
 11
93.99100447360693
 21
137.3181511650696
 31
0.0
  0
LINE
  5
100
330
70
100
AcDbEntity
  8
HON
 62
     9
420
 12632256
370
    25
100
AcDbLine
 10
103.8648226368066
 20
140.3426109308555
 30
0.0
 11
103.6476815885043
 21
137.3736001837285
 31
0.0
  0
LINE
  5
101
330
70
100
AcDbEntity
  8
HON
 62
     9
420
 12632256
370
    25
100
AcDbLine
 10
103.8709847037578
 20
141.5324319529087
 30
0.0
 11
104.8138229612511
 21
139.4083150229697
 31
0.0
  0
LINE
  5
102
330
70
100
AcDbEntity
  8
HON
 62
     9
420
 12632256
370
    25
100
AcDbLine
 10
101.5683078601532
 20
141.1416176338155
 30
0.0
 11
102.6098390639405
 21
139.0922572709371
 31
0.0
  0
LINE
  5
103
330
70
100
AcDbEntity
  8
HON
 62
     9
420
 12632256
370
    25
100
AcDbLine
 10
99.40106134140371
 20
140.7936797655732
 30
0.0
 11
100.1689226236111
 21
138.8818917594549
 31
0.0
  0
LINE
  5
104
330
70
100
AcDbEntity
  8
HON
 62
     9
420
 12632256
370
    25
100
AcDbLine
 10
97.32229366784572
 20
140.2532422895589
 30
0.0
 11
98.00779098176558
 21
138.6191836479547
 31
0.0
  0
LINE
  5
105
330
70
100
AcDbEntity
  8
HON
 62
     9
420
 12632256
370
    25
100
AcDbLine
 10
95.47258853434767
 20
139.5877618354667
 30
0.0
 11
96.14978576674827
 21
138.0345786732131
 31
0.0
  0
LINE
  5
106
330
70
100
AcDbEntity
  8
HON
 62
     9
420
 12632256
370
    25
100
AcDbLine
 10
94.22673312367324
 20
138.9522940474151
 30
0.0
 11
94.98975618690826
 21
137.2659897320668
 31
0.0
  0
LINE
  5
107
330
70
100
AcDbEntity
  8
HON
 62
     9
420
 12632256
370
    25
100
AcDbLine
 10
93.36354702977835
 20
134.3074771825107
 30
0.0
 11
94.22446190695051
 21
137.9346937637027
 31
0.0
  0
LINE
  5
108
330
70
100
AcDbEntity
  8
HON
 62
     9
420
 12632256
370
    25
100
AcDbLine
 10
103.8648226368066
 20
140.3426109308555
 30
0.0
 11
105.1814501328705
 21
139.0254556026383
 31
0.0
  0
LINE
  5
109
330
70
100
AcDbEntity
  8
HON
 62
     9
420
 12632256
370
    25
100
AcDbLine
 10
101.6184617018303
 20
140.3298021201831
 30
0.0
 11
102.5361414525548
 21
139.0063258964514
 31
0.0
  0
LINE
  5
10A
330
70
100
AcDbEntity
  8
HON
 62
     9
420
 12632256
370
    25
100
AcDbLine
 10
99.29017770536907
 20
139.9392028920652
 30
0.0
 11
100.1343601565592
 21
138.8382249246156
 31
0.0
  0
LINE
  5
10B
330
70
100
AcDbEntity
  8
HON
 62
     9
420
 12632256
370
    25
100
AcDbLine
 10
97.03727183536361
 20
139.5419470908609
 30
0.0
 11
98.05736809837883
 21
138.4676270576736
 31
0.0
  0
LINE
  5
10C
330
70
100
AcDbEntity
  8
HON
 62
     9
420
 12632256
370
    25
100
AcDbLine
 10
95.33147670715575
 20
138.9159299222777
 30
0.0
 11
96.26149995207825
 21
137.7673496962168
 31
0.0
  0
LINE
  5
10D
330
70
100
AcDbEntity
  8
HON
 62
     9
420
 12632256
370
    25
100
AcDbLine
 10
94.22446190695051
 20
137.9346937637027
 30
0.0
 11
95.02351709291451
 21
137.1662469842908
 31
0.0
  0
LINE
  5
10E
330
70
100
AcDbEntity
  8
HON
 62
     9
420
 12632256
370
    25
100
AcDbLine
 10
103.8648226368066
 20
140.3426109308555
 30
0.0
 11
104.3436440719659
 21
140.6575349228066
 31
0.0
  0
LINE
  5
10F
330
70
100
AcDbEntity
  8
HON
 62
     9
420
 12632256
370
    25
100
AcDbLine
 10
101.6184617018303
 20
140.3298021201831
 30
0.0
 11
102.0663800220143
 21
140.6517304001502
 31
0.0
  0
LINE
  5
110
330
70
100
AcDbEntity
  8
HON
 62
     9
420
 12632256
370
    25
100
AcDbLine
 10
92.94571972441813
 20
132.4358880525327
 30
0.0
 11
92.85064620240394
 21
133.8616680379097
 31
0.0
  0
LINE
  5
111
330
70
100
AcDbEntity
  8
HON
 62
     9
420
 12632256
370
    25
100
AcDbLine
 10
93.45633788061523
 20
132.8503027460306
 30
0.0
 11
93.37080148807123
 21
134.3204731718294
 31
0.0
  0
LINE
  5
112
330
70
100
AcDbEntity
  8
HON
 62
     9
420
 12632256
370
    25
100
AcDbLine
 10
94.38156795554711
 20
133.4921935051231
 30
0.0
 11
94.30208101463264
 21
134.8608876650038
 31
0.0
  0
LINE
  5
113
330
70
100
AcDbEntity
  8
HON
 62
     9
420
 12632256
370
    25
100
AcDbLine
 10
96.00526278573559
 20
134.1657820705921
 30
0.0
 11
95.86920530099718
 21
135.508645964203
 31
0.0
  0
LINE
  5
114
330
70
100
AcDbEntity
  8
HON
 62
     9
420
 12632256
370
    25
100
AcDbLine
 10
98.0229887204994
 20
134.5965223628247
 30
0.0
 11
97.91129512899788
 21
136.3648981192514
 31
0.0
  0
LINE
  5
115
330
70
100
AcDbEntity
  8
HON
 62
     9
420
 12632256
370
    25
100
AcDbLine
 10
100.6926058563849
 20
134.9258716037281
 30
0.0
 11
100.6052718131039
 21
137.1452600308571
 31
0.0
  0
LINE
  5
116
330
70
100
AcDbEntity
  8
HON
 62
     9
420
 12632256
370
    25
100
AcDbLine
 10
99.29017770536907
 20
139.9392028920652
 30
0.0
 11
99.69142977930012
 21
140.3477669642603
 31
0.0
  0
LINE
  5
117
330
70
100
AcDbEntity
  8
HON
 62
     9
420
 12632256
370
    25
100
AcDbLine
 10
97.03727183536361
 20
139.5419470908609
 30
0.0
 11
97.37802897015962
 21
139.950511163056
 31
0.0
  0
LINE
  5
118
330
70
100
AcDbEntity
  8
HON
 62
     9
420
 12632256
370
    25
100
AcDbLine
 10
95.33147670715575
 20
138.9159299222777
 30
0.0
 11
95.58585365396067
 21
139.3244939944728
 31
0.0
  0
LINE
  5
119
330
70
100
AcDbEntity
  8
HON
 62
     9
420
 12632256
370
    25
100
AcDbLine
 10
94.22446190695051
 20
137.9346937637027
 30
0.0
 11
94.37666257039833
 21
138.3432578358978
 31
0.0
  0
LINE
  5
11A
330
70
100
AcDbEntity
  8
HON
 62
     9
420
 12632256
370
    25
100
AcDbLine
 10
99.12811986000335
 20
123.5250106032747
 30
0.0
 11
101.8816829027809
 21
121.1920725643783
 31
0.0
  0
LINE
  5
11B
330
70
100
AcDbEntity
  8
HON
 62
     9
420
 12632256
370
    25
100
AcDbLine
 10
95.60223633432086
 20
127.2959013935186
 30
0.0
 11
94.54243263194884
 21
128.7528152213092
 31
0.0
  0
LINE
  5
11C
330
70
100
AcDbEntity
  8
HON
 62
     9
420
 12632256
370
    25
100
AcDbLine
 10
96.35550750890317
 20
125.6704300824462
 30
0.0
 11
97.87026889750883
 21
123.4841153432228
 31
0.0
  0
LINE
  5
11D
330
70
100
AcDbEntity
  8
HON
 62
     9
420
 12632256
370
    25
100
AcDbLine
 10
96.35550750890317
 20
125.6704300824462
 30
0.0
 11
96.50368914051526
 21
127.0245108931362
 31
0.0
  0
LINE
  5
11E
330
70
100
AcDbEntity
  8
HON
 62
     9
420
 12632256
370
    25
100
AcDbLine
 10
94.54243263194884
 20
128.7528152213092
 30
0.0
 11
94.49801154923513
 21
130.2336985131172
 31
0.0
  0
LINE
  5
11F
330
70
100
AcDbEntity
  8
HON
 62
     9
420
 12632256
370
    25
100
AcDbLine
 10
105.2463920994365
 20
124.1492032366135
 30
0.0
 11
106.0399984565271
 21
121.8945731847621
 31
0.0
  0
LINE
  5
120
330
70
100
AcDbEntity
  8
HON
 62
     9
420
 12632256
370
    25
100
AcDbLine
 10
105.2463920994365
 20
124.1492032366135
 30
0.0
 11
105.2049247034709
 21
121.8802699599881
 31
0.0
  0
LINE
  5
121
330
70
100
AcDbEntity
  8
HON
 62
     9
420
 12632256
370
    25
100
AcDbLine
 10
105.2049247034709
 20
121.8802699599881
 30
0.0
 11
103.7528640647152
 21
124.09730923751
 31
0.0
  0
LINE
  5
122
330
70
100
AcDbEntity
  8
HON
 62
     9
420
 12632256
370
    25
100
AcDbLine
 10
103.7528640647152
 20
124.09730923751
 30
0.0
 11
104.2985697962947
 21
121.8300221085564
 31
0.0
  0
LINE
  5
123
330
70
100
AcDbEntity
  8
HON
 62
     9
420
 12632256
370
    25
100
AcDbLine
 10
104.2985697962947
 20
121.8300221085564
 30
0.0
 11
102.376420744752
 21
124.0878798580238
 31
0.0
  0
LINE
  5
124
330
70
100
AcDbEntity
  8
HON
 62
     9
420
 12632256
370
    25
100
AcDbLine
 10
102.376420744752
 20
124.0878798580238
 30
0.0
 11
103.4765996902815
 21
121.7452473867327
 31
0.0
  0
LINE
  5
125
330
70
100
AcDbEntity
  8
HON
 62
     9
420
 12632256
370
    25
100
AcDbLine
 10
103.4765996902815
 20
121.7452473867327
 30
0.0
 11
101.1699580844131
 21
123.9411684866726
 31
0.0
  0
LINE
  5
126
330
70
100
AcDbEntity
  8
HON
 62
     9
420
 12632256
370
    25
100
AcDbLine
 10
101.1699580844131
 20
123.9411684866726
 30
0.0
 11
102.810777930005
 21
121.6347185741911
 31
0.0
  0
LINE
  5
127
330
70
100
AcDbEntity
  8
HON
 62
     9
420
 12632256
370
    25
100
AcDbLine
 10
102.810777930005
 20
121.6347185741911
 30
0.0
 11
100.1798397671527
 21
124.0877302644828
 31
0.0
  0
LINE
  5
128
330
70
100
AcDbEntity
  8
HON
 62
     9
420
 12632256
370
    25
100
AcDbLine
 10
100.1798397671527
 20
124.0877302644828
 30
0.0
 11
102.3257722451332
 21
121.5080302848482
 31
0.0
  0
LINE
  5
129
330
70
100
AcDbEntity
  8
HON
 62
     9
420
 12632256
370
    25
100
AcDbLine
 10
102.3257722451332
 20
121.5080302848482
 30
0.0
 11
99.58760961100672
 21
123.8524298136058
 31
0.0
  0
LINE
  5
12A
330
70
100
AcDbEntity
  8
HON
 62
     9
420
 12632256
370
    25
100
AcDbLine
 10
99.56089288947325
 20
123.8622510741451
 30
0.0
 11
102.0267652695282
 21
121.3761623354118
 31
0.0
  0
LINE
  5
12B
330
70
100
AcDbEntity
  8
HON
 62
     9
420
 12632256
370
    25
100
AcDbLine
 10
102.0267652695282
 20
121.3761623354118
 30
0.0
 11
99.43016842143594
 21
123.6629327491776
 31
0.0
  0
LINE
  5
12C
330
70
100
AcDbEntity
  8
HON
 62
     9
420
 12632256
370
    25
100
AcDbLine
 10
99.38954383857955
 20
123.6770218247518
 30
0.0
 11
101.8988786386024
 21
121.2563219099688
 31
0.0
  0
LINE
  5
12D
330
70
100
AcDbEntity
  8
HON
 62
     9
420
 12632256
370
    25
100
AcDbLine
 10
101.8988786386024
 20
121.2563219099688
 30
0.0
 11
99.31444155996073
 21
123.549433865514
 31
0.0
  0
LINE
  5
12E
330
70
100
AcDbEntity
  8
HON
 62
     9
420
 12632256
370
    25
100
AcDbLine
 10
99.2975120516229
 20
123.5548545188961
 30
0.0
 11
101.8816829027809
 21
121.1920725643764
 31
0.0
  0
LINE
  5
12F
330
70
100
AcDbEntity
  8
HON
 62
     9
420
 12632256
370
    25
100
AcDbLine
 10
105.9932576276449
 20
124.1492032366135
 30
0.0
 11
103.8186848620141
 21
126.7151913673833
 31
0.0
  0
LINE
  5
130
330
70
100
AcDbEntity
  8
HON
 62
     9
420
 12632256
370
    25
100
AcDbLine
 10
103.8186848620141
 20
126.7151913673833
 30
0.0
 11
104.4397552285562
 21
124.09730923751
 31
0.0
  0
LINE
  5
131
330
70
100
AcDbEntity
  8
HON
 62
     9
420
 12632256
370
    25
100
AcDbLine
 10
104.4397552285562
 20
124.09730923751
 30
0.0
 11
101.9356890207153
 21
126.5743241170026
 31
0.0
  0
LINE
  5
132
330
70
100
AcDbEntity
  8
HON
 62
     9
420
 12632256
370
    25
100
AcDbLine
 10
101.9356890207153
 20
126.5743241170026
 30
0.0
 11
102.9010084504087
 21
124.0878798580238
 31
0.0
  0
LINE
  5
133
330
70
100
AcDbEntity
  8
HON
 62
     9
420
 12632256
370
    25
100
AcDbLine
 10
102.9010084504087
 20
124.0878798580238
 30
0.0
 11
100.3467258063983
 21
126.5789814625553
 31
0.0
  0
LINE
  5
134
330
70
100
AcDbEntity
  8
HON
 62
     9
420
 12632256
370
    25
100
AcDbLine
 10
100.3467258063983
 20
126.5789814625553
 30
0.0
 11
101.4828912978292
 21
124.0026414588033
 31
0.0
  0
LINE
  5
135
330
70
100
AcDbEntity
  8
HON
 62
     9
420
 12632256
370
    25
100
AcDbLine
 10
101.4828912978292
 20
124.0026414588033
 30
0.0
 11
98.91736789266062
 21
126.4014039574052
 31
0.0
  0
LINE
  5
136
330
70
100
AcDbEntity
  8
HON
 62
     9
420
 12632256
370
    25
100
AcDbLine
 10
98.91736789266062
 20
126.4014039574052
 30
0.0
 11
100.2399012177057
 21
124.0877302644828
 31
0.0
  0
LINE
  5
137
330
70
100
AcDbEntity
  8
HON
 62
     9
420
 12632256
370
    25
100
AcDbLine
 10
100.2399012177057
 20
124.0877302644828
 30
0.0
 11
97.76819918522129
 21
126.2181020061168
 31
0.0
  0
LINE
  5
138
330
70
100
AcDbEntity
  8
HON
 62
     9
420
 12632256
370
    25
100
AcDbLine
 10
97.76819918522129
 20
126.2181020061168
 30
0.0
 11
99.21980562173569
 21
123.9876372267199
 31
0.0
  0
LINE
  5
139
330
70
100
AcDbEntity
  8
HON
 62
     9
420
 12632256
370
    25
100
AcDbLine
 10
99.21980562173569
 20
123.9876372267199
 30
0.0
 11
97.03543103488756
 21
126.0309106227786
 31
0.0
  0
LINE
  5
13A
330
70
100
AcDbEntity
  8
HON
 62
     9
420
 12632256
370
    25
100
AcDbLine
 10
97.03543103488756
 20
126.0309106227786
 30
0.0
 11
98.51884982531286
 21
123.8049236766877
 31
0.0
  0
LINE
  5
13B
330
70
100
AcDbEntity
  8
HON
 62
     9
420
 12632256
370
    25
100
AcDbLine
 10
98.51884982531286
 20
123.8049236766877
 30
0.0
 11
96.58336020319694
 21
125.8065681825416
 31
0.0
  0
LINE
  5
13C
330
70
100
AcDbEntity
  8
HON
 62
     9
420
 12632256
370
    25
100
AcDbLine
 10
96.58336020319694
 20
125.8065681825416
 30
0.0
 11
98.03101305398612
 21
123.6347097844833
 31
0.0
  0
LINE
  5
13D
330
70
100
AcDbEntity
  8
HON
 62
     9
420
 12632256
370
    25
100
AcDbLine
 10
98.03101305398612
 20
123.6347097844833
 30
0.0
 11
96.35550750890317
 21
125.6704300824462
 31
0.0
  0
LINE
  5
13E
330
70
100
AcDbEntity
  8
HON
 62
     9
420
 12632256
370
    25
100
AcDbLine
 10
96.58336020319694
 20
125.8065681825416
 30
0.0
 11
96.80222140014002
 21
127.4748974032141
 31
0.0
  0
LINE
  5
13F
330
70
100
AcDbEntity
  8
HON
 62
     9
420
 12632256
370
    25
100
AcDbLine
 10
97.03543103488756
 20
126.0309106227786
 30
0.0
 11
97.31558686423969
 21
127.9557420620242
 31
0.0
  0
LINE
  5
140
330
70
100
AcDbEntity
  8
HON
 62
     9
420
 12632256
370
    25
100
AcDbLine
 10
97.31558686423969
 20
127.9557420620242
 30
0.0
 11
97.76819918522129
 21
126.2181020061168
 31
0.0
  0
LINE
  5
141
330
70
100
AcDbEntity
  8
HON
 62
     9
420
 12632256
370
    25
100
AcDbLine
 10
97.76819918522129
 20
126.2181020061168
 30
0.0
 11
98.17987692025324
 21
128.1126557128178
 31
0.0
  0
LINE
  5
142
330
70
100
AcDbEntity
  8
HON
 62
     9
420
 12632256
370
    25
100
AcDbLine
 10
98.17987692025324
 20
128.1126557128178
 30
0.0
 11
98.91736789266062
 21
126.4014039574052
 31
0.0
  0
LINE
  5
143
330
70
100
AcDbEntity
  8
HON
 62
     9
420
 12632256
370
    25
100
AcDbLine
 10
98.91736789266062
 20
126.4014039574052
 30
0.0
 11
99.37173716248144
 21
128.1421007079867
 31
0.0
  0
LINE
  5
144
330
70
100
AcDbEntity
  8
HON
 62
     9
420
 12632256
370
    25
100
AcDbLine
 10
99.37173716248144
 20
128.1421007079867
 30
0.0
 11
100.3467258063983
 21
126.5789814625553
 31
0.0
  0
LINE
  5
145
330
70
100
AcDbEntity
  8
HON
 62
     9
420
 12632256
370
    25
100
AcDbLine
 10
100.3467258063983
 20
126.5789814625553
 30
0.0
 11
100.9158198744486
 21
128.2459335842565
 31
0.0
  0
LINE
  5
146
330
70
100
AcDbEntity
  8
HON
 62
     9
420
 12632256
370
    25
100
AcDbLine
 10
100.9158198744486
 20
128.2459335842565
 30
0.0
 11
101.9356890207153
 21
126.5743241170026
 31
0.0
  0
LINE
  5
147
330
70
100
AcDbEntity
  8
HON
 62
     9
420
 12632256
370
    25
100
AcDbLine
 10
101.9356890207153
 20
126.5743241170026
 30
0.0
 11
102.7890571250543
 21
128.2702076293831
 31
0.0
  0
LINE
  5
148
330
70
100
AcDbEntity
  8
HON
 62
     9
420
 12632256
370
    25
100
AcDbLine
 10
102.7890571250543
 20
128.2702076293831
 30
0.0
 11
103.8186848620141
 21
126.7151913673833
 31
0.0
  0
LINE
  5
149
330
70
100
AcDbEntity
  8
HON
 62
     9
420
 12632256
370
    25
100
AcDbLine
 10
103.8186848620141
 20
126.7151913673833
 30
0.0
 11
104.7496947951558
 21
128.1427489466612
 31
0.0
  0
LINE
  5
14A
330
70
100
AcDbEntity
  8
HON
 62
     9
420
 12632256
370
    25
100
AcDbLine
 10
104.7496947951558
 20
128.1427489466612
 30
0.0
 11
106.0428229196777
 21
126.8364568775403
 31
0.0
  0
LINE
  5
14B
330
70
100
AcDbEntity
  8
HON
 62
     9
420
 12632256
370
    25
100
AcDbLine
 10
95.60223633432086
 20
127.2959013935186
 30
0.0
 11
94.88742295463177
 21
129.1061501768712
 31
0.0
  0
LINE
  5
14C
330
70
100
AcDbEntity
  8
HON
 62
     9
420
 12632256
370
    25
100
AcDbLine
 10
94.88742295463177
 20
129.1061501768712
 30
0.0
 11
95.88006385945005
 21
127.5764740511133
 31
0.0
  0
LINE
  5
14D
330
70
100
AcDbEntity
  8
HON
 62
     9
420
 12632256
370
    25
100
AcDbLine
 10
95.88006385945005
 20
127.5764740511133
 30
0.0
 11
95.49179086298751
 21
129.4989977728571
 31
0.0
  0
LINE
  5
14E
330
70
100
AcDbEntity
  8
HON
 62
     9
420
 12632256
370
    25
100
AcDbLine
 10
95.49179086298751
 20
129.4989977728571
 30
0.0
 11
96.45034036273024
 21
127.8768080153735
 31
0.0
  0
LINE
  5
14F
330
70
100
AcDbEntity
  8
HON
 62
     9
420
 12632256
370
    25
100
AcDbLine
 10
96.45034036273024
 20
127.8768080153735
 30
0.0
 11
96.62759765933936
 21
129.9024914424557
 31
0.0
  0
LINE
  5
150
330
70
100
AcDbEntity
  8
HON
 62
     9
420
 12632256
370
    25
100
AcDbLine
 10
96.62759765933936
 20
129.9024914424557
 30
0.0
 11
97.32128914559583
 21
128.076459681361
 31
0.0
  0
LINE
  5
151
330
70
100
AcDbEntity
  8
HON
 62
     9
420
 12632256
370
    25
100
AcDbLine
 10
97.32128914559583
 20
128.076459681361
 30
0.0
 11
98.09267937690197
 21
130.2911005548017
 31
0.0
  0
LINE
  5
152
330
70
100
AcDbEntity
  8
HON
 62
     9
420
 12632256
370
    25
100
AcDbLine
 10
98.09267937690197
 20
130.2911005548017
 30
0.0
 11
98.6755207588456
 21
128.2773942065567
 31
0.0
  0
LINE
  5
153
330
70
100
AcDbEntity
  8
HON
 62
     9
420
 12632256
370
    25
100
AcDbLine
 10
98.6755207588456
 20
128.2773942065567
 30
0.0
 11
99.84268789389055
 21
130.4304170188136
 31
0.0
  0
LINE
  5
154
330
70
100
AcDbEntity
  8
HON
 62
     9
420
 12632256
370
    25
100
AcDbLine
 10
99.84268789389055
 20
130.4304170188136
 30
0.0
 11
100.3165366828295
 21
128.4159408413855
 31
0.0
  0
LINE
  5
155
330
70
100
AcDbEntity
  8
HON
 62
     9
420
 12632256
370
    25
100
AcDbLine
 10
100.3165366828295
 20
128.4159408413855
 30
0.0
 11
101.8803132737565
 21
130.5758618315251
 31
0.0
  0
LINE
  5
156
330
70
100
AcDbEntity
  8
HON
 62
     9
420
 12632256
370
    25
100
AcDbLine
 10
101.8803132737565
 20
130.5758618315251
 30
0.0
 11
102.0976094183941
 21
128.5546668622163
 31
0.0
  0
LINE
  5
157
330
70
100
AcDbEntity
  8
HON
 62
     9
420
 12632256
370
    25
100
AcDbLine
 10
102.0976094183941
 20
128.5546668622163
 30
0.0
 11
103.9014891458017
 21
130.7892737590758
 31
0.0
  0
LINE
  5
158
330
70
100
AcDbEntity
  8
HON
 62
     9
420
 12632256
370
    25
100
AcDbLine
 10
103.9014891458017
 20
130.7892737590758
 30
0.0
 11
104.0803160593648
 21
128.6549359408644
 31
0.0
  0
LINE
  5
159
330
70
100
AcDbEntity
  8
HON
 62
     9
420
 12632256
370
    25
100
AcDbLine
 10
104.0803160593648
 20
128.6549359408644
 30
0.0
 11
106.0728050729437
 21
131.1049592239473
 31
0.0
  0
LINE
  5
15A
330
70
100
AcDbEntity
  8
HON
 62
     9
420
 12632256
370
    25
100
AcDbLine
 10
95.60223633432247
 20
127.2959013935167
 30
0.0
 11
96.48575540043816
 21
126.8727875682661
 31
0.0
  0
LINE
  5
15B
330
70
100
AcDbEntity
  8
HON
 62
     9
420
 12632256
370
    25
100
AcDbLine
 10
95.88006385945005
 20
127.5764740511133
 30
0.0
 11
96.78236940031339
 21
127.148648029345
 31
0.0
  0
LINE
  5
15C
330
70
100
AcDbEntity
  8
HON
 62
     9
420
 12632256
370
    25
100
AcDbLine
 10
96.45034036273024
 20
127.8768080153735
 30
0.0
 11
97.2017864135514
 21
127.1959491091391
 31
0.0
  0
LINE
  5
15D
330
70
100
AcDbEntity
  8
HON
 62
     9
420
 12632256
370
    25
100
AcDbLine
 10
97.32128914559583
 20
128.076459681361
 30
0.0
 11
98.04367303008705
 21
127.5666236392268
 31
0.0
  0
LINE
  5
15E
330
70
100
AcDbEntity
  8
HON
 62
     9
420
 12632256
370
    25
100
AcDbLine
 10
98.6755207588456
 20
128.2773942065567
 30
0.0
 11
99.22937102273747
 21
127.7314287446905
 31
0.0
  0
LINE
  5
15F
330
70
100
AcDbEntity
  8
HON
 62
     9
420
 12632256
370
    25
100
AcDbLine
 10
100.3165366828295
 20
128.4159408413855
 30
0.0
 11
100.7228416278329
 21
127.5522636092685
 31
0.0
  0
LINE
  5
160
330
70
100
AcDbEntity
  8
HON
 62
     9
420
 12632256
370
    25
100
AcDbLine
 10
102.0976094183941
 20
128.5546668622163
 30
0.0
 11
102.4017104172222
 21
127.5439908429785
 31
0.0
  0
LINE
  5
161
330
70
100
AcDbEntity
  8
HON
 62
     9
420
 12632256
370
    25
100
AcDbLine
 10
104.0803160593648
 20
128.6549359408644
 30
0.0
 11
104.2745098491185
 21
127.5033293267685
 31
0.0
  0
LINE
  5
162
330
70
100
AcDbEntity
  8
HON
 62
     9
420
 12632256
370
    25
100
AcDbLine
 10
99.27714991730034
 20
123.3845987741704
 30
0.0
 11
97.87026889750883
 21
123.4841153432228
 31
0.0
  0
LINE
  5
163
330
70
100
AcDbEntity
  8
HON
 62
     9
420
 12632256
370
    25
100
AcDbLine
 10
104.4397552285562
 20
124.09730923751
 30
0.0
 11
105.2433901721911
 21
123.6459885534589
 31
0.0
  0
LINE
  5
164
330
70
100
AcDbEntity
  8
HON
 62
     9
420
 12632256
370
    25
100
AcDbLine
 10
102.9010084504087
 20
124.0878798580238
 30
0.0
 11
103.8712710030475
 21
123.5940945543555
 31
0.0
  0
LINE
  5
165
330
70
100
AcDbEntity
  8
HON
 62
     9
420
 12632256
370
    25
100
AcDbLine
 10
101.4828912978292
 20
124.0026414588033
 30
0.0
 11
102.606718734424
 21
123.6459885534589
 31
0.0
  0
LINE
  5
166
330
70
100
AcDbEntity
  8
HON
 62
     9
420
 12632256
370
    25
100
AcDbLine
 10
101.4983294008315
 20
123.6459885534589
 30
0.0
 11
100.2399012177057
 21
124.0877302644828
 31
0.0
  0
LINE
  5
167
330
70
100
AcDbEntity
  8
HON
 62
     9
420
 12632256
370
    25
100
AcDbLine
 10
99.21980562173569
 20
123.9876372267199
 30
0.0
 11
100.5886977827765
 21
123.6459885534589
 31
0.0
  0
LINE
  5
168
330
70
100
AcDbEntity
  8
HON
 62
     9
420
 12632256
370
    25
100
AcDbLine
 10
98.51884982531286
 20
123.8049236766877
 30
0.0
 11
99.91278051320561
 21
123.4955572894076
 31
0.0
  0
LINE
  5
169
330
70
100
AcDbEntity
  8
HON
 62
     9
420
 12632256
370
    25
100
AcDbLine
 10
98.03101305398612
 20
123.6347097844833
 30
0.0
 11
99.56664692739011
 21
123.4686803166813
 31
0.0
  0
LINE
  5
16A
330
70
100
AcDbEntity
  8
HON
 62
     9
420
 12632256
370
    25
100
AcDbLine
 10
104.7496947951558
 20
128.1427489466612
 30
0.0
 11
106.0728050729437
 21
131.1049592239473
 31
0.0
  0
LINE
  5
16B
330
70
100
AcDbEntity
  8
HON
 62
     9
420
 12632256
370
    25
100
AcDbLine
 10
102.7890571250543
 20
128.2702076293831
 30
0.0
 11
103.9014891458017
 21
130.7892737590758
 31
0.0
  0
LINE
  5
16C
330
70
100
AcDbEntity
  8
HON
 62
     9
420
 12632256
370
    25
100
AcDbLine
 10
100.9158198744486
 20
128.2459335842565
 30
0.0
 11
101.8803132737565
 21
130.5758618315251
 31
0.0
  0
LINE
  5
16D
330
70
100
AcDbEntity
  8
HON
 62
     9
420
 12632256
370
    25
100
AcDbLine
 10
99.37173716248144
 20
128.1421007079867
 30
0.0
 11
99.84268789389055
 21
130.4304170188136
 31
0.0
  0
LINE
  5
16E
330
70
100
AcDbEntity
  8
HON
 62
     9
420
 12632256
370
    25
100
AcDbLine
 10
98.17987692025324
 20
128.1126557128178
 30
0.0
 11
98.09267937690197
 21
130.2911005548017
 31
0.0
  0
LINE
  5
16F
330
70
100
AcDbEntity
  8
HON
 62
     9
420
 12632256
370
    25
100
AcDbLine
 10
105.2463920994365
 20
124.1492032366135
 30
0.0
 11
105.2463920994365
 21
125.0076383716355
 31
0.0
  0
LINE
  5
170
330
70
100
AcDbEntity
  8
HON
 62
     9
420
 12632256
370
    25
100
AcDbLine
 10
103.7528640647152
 20
124.09730923751
 30
0.0
 11
103.7528640647152
 21
124.8020995014693
 31
0.0
  0
LINE
  5
171
330
70
100
AcDbEntity
  8
HON
 62
     9
420
 12632256
370
    25
100
AcDbLine
 10
102.376420744752
 20
124.0878798580238
 30
0.0
 11
102.376420744752
 21
124.6336325378454
 31
0.0
  0
LINE
  5
172
330
70
100
AcDbEntity
  8
HON
 62
     9
420
 12632256
370
    25
100
AcDbLine
 10
101.1699580844131
 20
123.9411684866726
 30
0.0
 11
101.1699580844131
 21
124.4568552861549
 31
0.0
  0
LINE
  5
173
330
70
100
AcDbEntity
  8
HON
 62
     9
420
 12632256
370
    25
100
AcDbLine
 10
106.0778261690088
 20
131.1111333118244
 30
0.0
 11
103.6632774640191
 21
135.2973406599582
 31
0.0
  0
LINE
  5
174
330
70
100
AcDbEntity
  8
HON
 62
     9
420
 12632256
370
    25
100
AcDbLine
 10
103.5529497180093
 20
131.1910383726835
 30
0.0
 11
100.6954303195497
 21
134.9538301783692
 31
0.0
  0
LINE
  5
175
330
70
100
AcDbEntity
  8
HON
 62
     9
420
 12632256
370
    25
100
AcDbLine
 10
100.6954303195497
 20
134.9538301783692
 30
0.0
 11
101.414948633267
 21
130.9675705558428
 31
0.0
  0
LINE
  5
176
330
70
100
AcDbEntity
  8
HON
 62
     9
420
 12632256
370
    25
100
AcDbLine
 10
101.414948633267
 20
130.9675705558428
 30
0.0
 11
98.02581318366801
 21
134.6244809374677
 31
0.0
  0
LINE
  5
177
330
70
100
AcDbEntity
  8
HON
 62
     9
420
 12632256
370
    25
100
AcDbLine
 10
98.02581318366801
 20
134.6244809374677
 30
0.0
 11
99.57357439972016
 21
130.7769734262425
 31
0.0
  0
LINE
  5
178
330
70
100
AcDbEntity
  8
HON
 62
     9
420
 12632256
370
    25
100
AcDbLine
 10
99.57357439972016
 20
130.7769734262425
 30
0.0
 11
96.00808724890066
 21
134.193740645237
 31
0.0
  0
LINE
  5
179
330
70
100
AcDbEntity
  8
HON
 62
     9
420
 12632256
370
    25
100
AcDbLine
 10
96.00808724890066
 20
134.193740645237
 30
0.0
 11
97.82389223188028
 21
130.7006906936285
 31
0.0
  0
LINE
  5
17A
330
70
100
AcDbEntity
  8
HON
 62
     9
420
 12632256
370
    25
100
AcDbLine
 10
97.82389223188028
 20
130.7006906936285
 30
0.0
 11
94.38439241871572
 21
133.5201520797679
 31
0.0
  0
LINE
  5
17B
330
70
100
AcDbEntity
  8
HON
 62
     9
420
 12632256
370
    25
100
AcDbLine
 10
94.38439241871572
 20
133.5201520797679
 30
0.0
 11
96.41319505987205
 21
130.2637628677901
 31
0.0
  0
LINE
  5
17C
330
70
100
AcDbEntity
  8
HON
 62
     9
420
 12632256
370
    25
100
AcDbLine
 10
96.41319505987205
 20
130.2637628677901
 30
0.0
 11
93.45916234377998
 21
132.8782613206736
 31
0.0
  0
LINE
  5
17D
330
70
100
AcDbEntity
  8
HON
 62
     9
420
 12632256
370
    25
100
AcDbLine
 10
92.94854418758481
 20
132.4638466271776
 30
0.0
 11
94.7173757891621
 21
129.9346471063916
 31
0.0
  0
LINE
  5
17E
330
70
100
AcDbEntity
  8
HON
 62
     9
420
 12632256
370
    25
100
AcDbLine
 10
95.3836411281634
 20
130.1715035450804
 30
0.0
 11
92.94854418758481
 21
132.4638466271776
 31
0.0
  0
LINE
  5
17F
330
70
100
AcDbEntity
  8
HON
 62
     9
420
 12632256
370
    25
100
AcDbLine
 10
103.5529497180093
 20
131.1910383726835
 30
0.0
 11
103.6632774640191
 21
135.2973406599582
 31
0.0
  0
LINE
  5
180
330
70
100
AcDbEntity
  8
HON
 62
     9
420
 12632256
370
    25
100
AcDbLine
 10
103.9014891458017
 20
130.7892737590758
 30
0.0
 11
104.913096425752
 21
133.446150623821
 31
0.0
  0
LINE
  5
181
330
70
100
AcDbEntity
  8
HON
 62
     9
420
 12632256
370
    25
100
AcDbLine
 10
101.8803132737565
 20
130.5758618315251
 30
0.0
 11
102.2440417941951
 21
133.0959306257945
 31
0.0
  0
LINE
  5
182
330
70
100
AcDbEntity
  8
HON
 62
     9
420
 12632256
370
    25
100
AcDbLine
 10
99.84268789389055
 20
130.4304170188136
 30
0.0
 11
100.2879743757026
 21
132.2523415148538
 31
0.0
  0
LINE
  5
183
330
70
100
AcDbEntity
  8
HON
 62
     9
420
 12632256
370
    25
100
AcDbLine
 10
98.09267937690197
 20
130.2911005548017
 30
0.0
 11
98.35037819502828
 21
131.921980918764
 31
0.0
  0
LINE
  5
184
330
70
100
AcDbEntity
  8
HON
 62
     9
420
 12632256
370
    25
100
AcDbLine
 10
96.62759765933936
 20
129.9024914424557
 30
0.0
 11
96.80993607066799
 21
131.4945118213697
 31
0.0
  0
LINE
  5
185
330
70
100
AcDbEntity
  8
HON
 62
     9
420
 12632256
370
    25
100
AcDbLine
 10
95.49179086298751
 20
129.4989977728571
 30
0.0
 11
95.57743768660751
 21
130.9848083859583
 31
0.0
  0
LINE
  5
186
330
70
100
AcDbEntity
  8
HON
 62
     9
420
 12632256
370
    25
100
AcDbLine
 10
94.88742295463177
 20
129.1061501768712
 30
0.0
 11
94.81546973645595
 21
130.6497087899669
 31
0.0
  0
LINE
  5
187
330
70
100
AcDbEntity
  8
HON
 62
     9
420
 12632256
370
    25
100
AcDbLine
 10
93.45916234377998
 20
132.8782613206736
 30
0.0
 11
95.3836411281634
 21
130.1715035450804
 31
0.0
  0
LINE
  5
188
330
70
100
AcDbEntity
  8
HON
 62
     9
420
 12632256
370
    25
100
AcDbLine
 10
103.5529497180093
 20
131.1910383726835
 30
0.0
 11
104.913096425752
 21
133.446150623821
 31
0.0
  0
LINE
  5
189
330
70
100
AcDbEntity
  8
HON
 62
     9
420
 12632256
370
    25
100
AcDbLine
 10
101.414948633267
 20
130.9675705558428
 30
0.0
 11
102.2440417941951
 21
133.0959306257945
 31
0.0
  0
LINE
  5
18A
330
70
100
AcDbEntity
  8
HON
 62
     9
420
 12632256
370
    25
100
AcDbLine
 10
99.57357439972016
 20
130.7769734262425
 30
0.0
 11
100.2879743757026
 21
132.2523415148538
 31
0.0
  0
LINE
  5
18B
330
70
100
AcDbEntity
  8
HON
 62
     9
420
 12632256
370
    25
100
AcDbLine
 10
97.82389223188028
 20
130.7006906936285
 30
0.0
 11
98.35037819502828
 21
131.921980918764
 31
0.0
  0
LINE
  5
18C
330
70
100
AcDbEntity
  8
HON
 62
     9
420
 12632256
370
    25
100
AcDbLine
 10
96.41319505987205
 20
130.2637628677901
 30
0.0
 11
96.80993607066799
 21
131.4945118213697
 31
0.0
  0
LINE
  5
18D
330
70
100
AcDbEntity
  8
HON
 62
     9
420
 12632256
370
    25
100
AcDbLine
 10
95.3836411281634
 20
130.1715035450804
 30
0.0
 11
95.57743768660751
 21
130.9848083859583
 31
0.0
  0
LINE
  5
18E
330
70
100
AcDbEntity
  8
HON
 62
     9
420
 12632256
370
    25
100
AcDbLine
 10
94.7173757891621
 20
129.9346471063916
 30
0.0
 11
94.81546973645595
 21
130.6497087899669
 31
0.0
  0
LINE
  5
18F
330
70
100
AcDbEntity
  8
HON
 62
     9
420
 12632256
370
    25
100
AcDbLine
 10
103.5529497180093
 20
131.1910383726835
 30
0.0
 11
103.9014891458017
 21
130.7892737590758
 31
0.0
  0
LINE
  5
190
330
70
100
AcDbEntity
  8
HON
 62
     9
420
 12632256
370
    25
100
AcDbLine
 10
101.414948633267
 20
130.9675705558428
 30
0.0
 11
101.8803132737565
 21
130.5758618315251
 31
0.0
  0
LINE
  5
191
330
70
100
AcDbEntity
  8
HON
 62
     9
420
 12632256
370
    25
100
AcDbLine
 10
99.57357439972016
 20
130.7769734262425
 30
0.0
 11
99.84268789389055
 21
130.4304170188136
 31
0.0
  0
LINE
  5
192
330
70
100
AcDbEntity
  8
HON
 62
     9
420
 12632256
370
    25
100
AcDbLine
 10
97.82389223188028
 20
130.7006906936285
 30
0.0
 11
98.09267937690197
 21
130.2911005548017
 31
0.0
  0
LINE
  5
193
330
70
100
AcDbEntity
  8
HON
 62
     9
420
 12632256
370
    25
100
AcDbLine
 10
96.41319505987205
 20
130.2637628677901
 30
0.0
 11
96.62759765933936
 21
129.9024914424557
 31
0.0
  0
LINE
  5
194
330
70
100
AcDbEntity
  8
HON
 62
     9
420
 12632256
370
    25
100
AcDbLine
 10
95.3836411281634
 20
130.1715035450804
 30
0.0
 11
95.53584179161122
 21
129.8346994941316
 31
0.0
  0
LINE
  5
195
330
70
100
AcDbEntity
  8
HON
 62
     9
420
 12632256
370
    25
100
AcDbLine
 10
94.83381488806182
 20
129.5260830341965
 30
0.0
 11
94.7173757891621
 21
129.9346471063916
 31
0.0
  0
LINE
  5
196
330
70
100
AcDbEntity
  8
HON
 62
     9
420
 12632256
370
    25
100
AcDbLine
 10
105.6428804349226
 20
121.3191449835929
 30
0.0
 11
105.01223309382
 21
120.5113570819816
 31
0.0
  0
LINE
  5
197
330
70
100
AcDbEntity
  8
HON
 62
     9
420
 12632256
370
    25
100
AcDbLine
 10
105.1000348188525
 20
121.3569251165087
 30
0.0
 11
104.0985652119422
 21
120.5708159415685
 31
0.0
  0
LINE
  5
198
330
70
100
AcDbEntity
  8
HON
 62
     9
420
 12632256
370
    25
100
AcDbLine
 10
104.725083922024
 20
121.4120656893779
 30
0.0
 11
103.341962484027
 21
120.6574823938179
 31
0.0
  0
LINE
  5
199
330
70
100
AcDbEntity
  8
HON
 62
     9
420
 12632256
370
    25
100
AcDbLine
 10
104.4945142626954
 20
121.4755887001455
 30
0.0
 11
102.5371585091079
 21
120.8134338983912
 31
0.0
  0
LINE
  5
19A
330
70
100
AcDbEntity
  8
HON
 62
     9
420
 12632256
370
    25
100
AcDbLine
 10
104.4044283172268
 20
121.5267924870191
 30
0.0
 11
102.1183084569662
 21
120.9583651244819
 31
0.0
  0
LINE
  5
19B
330
70
100
AcDbEntity
  8
HON
 62
     9
420
 12632256
370
    25
100
AcDbLine
 10
104.3826299296279
 20
121.5682753857898
 30
0.0
 11
101.8976575836538
 21
121.1301103018001
 31
0.0
  0
LINE
  5
19C
330
70
100
AcDbEntity
  8
HON
 62
     9
420
 12632256
370
    25
100
AcDbLine
 10
97.28301897125943
 20
149.291234049952
 30
0.0
 11
97.79865462979687
 21
148.7874722904075
 31
0.0
  0
LINE
  5
19D
330
70
100
AcDbEntity
  8
HON
 62
     9
420
 12632256
370
    25
100
AcDbLine
 10
96.0690299234584
 20
148.7773677918962
 30
0.0
 11
96.55741353747437
 21
148.4988052423164
 31
0.0
  0
LINE
  5
19E
330
70
100
AcDbEntity
  8
HON
 62
     9
420
 12632256
370
    25
100
AcDbLine
 10
95.48929635370297
 20
148.610727063348
 30
0.0
 11
95.83179881687549
 21
148.5011287504245
 31
0.0
  0
LINE
  5
19F
330
70
100
AcDbEntity
  8
HON
 62
     9
420
 12632256
370
    25
100
AcDbLine
 10
94.22446190695051
 20
137.9346937637027
 30
0.0
 11
93.57460086071347
 21
138.5582862451759
 31
0.0
  0
SPLINE
  5
1A0
330
70
100
AcDbEntity
  8
HON
 62
     9
420
 12632256
370
    25
100
AcDbSpline
210
0.0
220
0.0
230
1.0
 70
     8
 71
     3
 72
    11
 73
     7
 74
     0
 42
0.0000000001
 43
0.0000000001
 40
0.0
 40
0.0
 40
0.0
 40
0.0
 40
1.0
 40
1.0
 40
1.0
 40
2.0
 40
2.0
 40
2.0
 40
2.0
 10
101.8814510611317
 20
153.4622889273626
 30
0.0
 10
101.8814477174032
 20
153.4640302835196
 30
0.0
 10
101.8814826994229
 20
153.4657716357585
 30
0.0
 10
101.8815560064654
 20
153.4675129479682
 30
0.0
 10
101.8978890768492
 20
153.8554835152991
 30
0.0
 10
103.7728238513362
 20
154.1677589568092
 30
0.0
 10
106.0693400361102
 20
154.1649996683598
 30
0.0
  0
LINE
  5
1A1
330
70
100
AcDbEntity
  8
HON
 62
     9
420
 12632256
370
    25
100
AcDbLine
 10
106.000564096502
 20
152.0827202007135
 30
0.0
 11
105.5110918347283
 21
154.1549112324633
 31
0.0
  0
LINE
  5
1A2
330
70
100
AcDbEntity
  8
HON
 62
     9
420
 12632256
370
    25
100
AcDbLine
 10
105.5110918347283
 20
154.1549112324633
 30
0.0
 11
104.928314004367
 21
152.0573539564363
 31
0.0
  0
LINE
  5
1A3
330
70
100
AcDbEntity
  8
HON
 62
     9
420
 12632256
370
    25
100
AcDbLine
 10
104.928314004367
 20
152.0573539564363
 30
0.0
 11
104.787988698982
 21
154.1324317134646
 31
0.0
  0
LINE
  5
1A4
330
70
100
AcDbEntity
  8
HON
 62
     9
420
 12632256
370
    25
100
AcDbLine
 10
104.787988698982
 20
154.1324317134646
 30
0.0
 11
103.4562235826788
 21
151.9904331488747
 31
0.0
  0
LINE
  5
1A5
330
70
100
AcDbEntity
  8
HON
 62
     9
420
 12632256
370
    25
100
AcDbLine
 10
103.4562235826788
 20
151.9904331488747
 30
0.0
 11
104.3195660844146
 21
154.1020899763703
 31
0.0
  0
LINE
  5
1A6
330
70
100
AcDbEntity
  8
HON
 62
     9
420
 12632256
370
    25
100
AcDbLine
 10
104.3195660844146
 20
154.1020899763703
 30
0.0
 11
101.7027254965985
 21
151.7873650147182
 31
0.0
  0
LINE
  5
1A7
330
70
100
AcDbEntity
  8
HON
 62
     9
420
 12632256
370
    25
100
AcDbLine
 10
101.7027254965985
 20
151.7873650147182
 30
0.0
 11
103.8763457815046
 21
154.0624563286423
 31
0.0
  0
LINE
  5
1A8
330
70
100
AcDbEntity
  8
HON
 62
     9
420
 12632256
370
    25
100
AcDbLine
 10
103.8763457815046
 20
154.0624563286423
 30
0.0
 11
100.5556158998233
 21
151.6066181497867
 31
0.0
  0
LINE
  5
1A9
330
70
100
AcDbEntity
  8
HON
 62
     9
420
 12632256
370
    25
100
AcDbLine
 10
100.5556158998233
 20
151.6066181497867
 30
0.0
 11
103.2728551669596
 21
153.9804864302793
 31
0.0
  0
LINE
  5
1AA
330
70
100
AcDbEntity
  8
HON
 62
     9
420
 12632256
370
    25
100
AcDbLine
 10
103.2728551669596
 20
153.9804864302793
 30
0.0
 11
100.0189888294289
 21
151.6066181497867
 31
0.0
  0
LINE
  5
1AB
330
70
100
AcDbEntity
  8
HON
 62
     9
420
 12632256
370
    25
100
AcDbLine
 10
100.0189888294289
 20
151.6066181497867
 30
0.0
 11
102.7712119916312
 21
153.895960191096
 31
0.0
  0
LINE
  5
1AC
330
70
100
AcDbEntity
  8
HON
 62
     9
420
 12632256
370
    25
100
AcDbLine
 10
102.8238745469924
 20
153.895960191096
 30
0.0
 11
99.17298264855784
 21
151.3395130869018
 31
0.0
  0
LINE
  5
1AD
330
70
100
AcDbEntity
  8
HON
 62
     9
420
 12632256
370
    25
100
AcDbLine
 10
99.1971458412217
 20
151.36570034204
 30
0.0
 11
102.4111141706534
 21
153.7882399376854
 31
0.0
  0
LINE
  5
1AE
330
70
100
AcDbEntity
  8
HON
 62
     9
420
 12632256
370
    25
100
AcDbLine
 10
102.3584516152921
 20
153.7882399376854
 30
0.0
 11
98.93471110899998
 21
151.3268687508811
 31
0.0
  0
LINE
  5
1AF
330
70
100
AcDbEntity
  8
HON
 62
     9
420
 12632256
370
    25
100
AcDbLine
 10
98.93471110899998
 20
151.3268687508811
 30
0.0
 11
102.0159788570333
 21
153.6397594132292
 31
0.0
  0
LINE
  5
1B0
330
70
100
AcDbEntity
  8
HON
 62
     9
420
 12632256
370
    25
100
AcDbLine
 10
98.93471110899998
 20
151.3268687508811
 30
0.0
 11
97.77039796259931
 21
150.8889367679117
 31
0.0
  0
LINE
  5
1B1
330
70
100
AcDbEntity
  8
HON
 62
     9
420
 12632256
370
    25
100
AcDbLine
 10
106.0821896602744
 20
140.3399235505756
 30
0.0
 11
108.4900700601181
 21
137.3736001837285
 31
0.0
  0
LINE
  5
1B2
330
70
100
AcDbEntity
  8
HON
 62
     9
420
 12632256
370
    25
100
AcDbLine
 10
108.4772986477703
 20
135.2693820853191
 30
0.0
 11
108.4826993548405
 21
137.4015587583696
 31
0.0
  0
LINE
  5
1B3
330
70
100
AcDbEntity
  8
HON
 62
     9
420
 12632256
370
    25
100
AcDbLine
 10
117.101739225208
 20
148.0140501210705
 30
0.0
 11
116.6367377458309
 21
148.502903313562
 31
0.0
  0
LINE
  5
1B4
330
70
100
AcDbEntity
  8
HON
 62
     9
420
 12632256
370
    25
100
AcDbLine
 10
118.505312282158
 20
141.4211032123644
 30
0.0
 11
118.859413347097
 21
138.2524215816292
 31
0.0
  0
LINE
  5
1B5
330
70
100
AcDbEntity
  8
HON
 62
     9
420
 12632256
370
    25
100
AcDbLine
 10
117.9787509429088
 20
144.1681404385565
 30
0.0
 11
116.7376491242438
 21
146.9324131766904
 31
0.0
  0
LINE
  5
1B6
330
70
100
AcDbEntity
  8
HON
 62
     9
420
 12632256
370
    25
100
AcDbLine
 10
117.9787509429088
 20
144.1681404385565
 30
0.0
 11
117.1797490679172
 21
143.2287114035012
 31
0.0
  0
LINE
  5
1B7
330
70
100
AcDbEntity
  8
HON
 62
     9
420
 12632256
370
    25
100
AcDbLine
 10
118.859413347097
 20
138.2524215816292
 30
0.0
 11
118.072295418245
 21
137.4288892360439
 31
0.0
  0
LINE
  5
1B8
330
70
100
AcDbEntity
  8
HON
 62
     9
420
 12632256
370
    25
100
AcDbLine
 10
107.2343928202999
 20
150.2533110420469
 30
0.0
 11
106.1369554916774
 21
152.0827202007135
 31
0.0
  0
LINE
  5
1B9
330
70
100
AcDbEntity
  8
HON
 62
     9
420
 12632256
370
    25
100
AcDbLine
 10
107.2343928202999
 20
150.2533110420469
 30
0.0
 11
107.9562630684512
 21
152.0573539564363
 31
0.0
  0
LINE
  5
1BA
330
70
100
AcDbEntity
  8
HON
 62
     9
420
 12632256
370
    25
100
AcDbLine
 10
107.9562630684512
 20
152.0573539564363
 30
0.0
 11
109.1624948906384
 21
149.9976541089896
 31
0.0
  0
LINE
  5
1BB
330
70
100
AcDbEntity
  8
HON
 62
     9
420
 12632256
370
    25
100
AcDbLine
 10
109.1624948906384
 20
149.9976541089896
 30
0.0
 11
109.7223599421074
 21
151.9904331488747
 31
0.0
  0
LINE
  5
1BC
330
70
100
AcDbEntity
  8
HON
 62
     9
420
 12632256
370
    25
100
AcDbLine
 10
109.7223599421074
 20
151.9904331488747
 30
0.0
 11
111.3936014417767
 21
149.8495924244094
 31
0.0
  0
LINE
  5
1BD
330
70
100
AcDbEntity
  8
HON
 62
     9
420
 12632256
370
    25
100
AcDbLine
 10
111.3936014417767
 20
149.8495924244094
 30
0.0
 11
111.2612885971491
 21
151.7873650147182
 31
0.0
  0
LINE
  5
1BE
330
70
100
AcDbEntity
  8
HON
 62
     9
420
 12632256
370
    25
100
AcDbLine
 10
111.2612885971491
 20
151.7873650147182
 30
0.0
 11
113.5242421406555
 21
149.6427799930394
 31
0.0
  0
LINE
  5
1BF
330
70
100
AcDbEntity
  8
HON
 62
     9
420
 12632256
370
    25
100
AcDbLine
 10
113.5242421406555
 20
149.6427799930394
 30
0.0
 11
112.1185307587499
 21
151.6066181497867
 31
0.0
  0
LINE
  5
1C0
330
70
100
AcDbEntity
  8
HON
 62
     9
420
 12632256
370
    25
100
AcDbLine
 10
112.1185307587499
 20
151.6066181497867
 30
0.0
 11
114.8545006169193
 21
149.291234049952
 31
0.0
  0
LINE
  5
1C1
330
70
100
AcDbEntity
  8
HON
 62
     9
420
 12632256
370
    25
100
AcDbLine
 10
114.8545006169193
 20
149.291234049952
 30
0.0
 11
112.8682668358932
 21
151.4438473858795
 31
0.0
  0
LINE
  5
1C2
330
70
100
AcDbEntity
  8
HON
 62
     9
420
 12632256
370
    25
100
AcDbLine
 10
112.8682668358932
 20
151.4438473858795
 30
0.0
 11
116.0684896647207
 21
148.7773677918962
 31
0.0
  0
LINE
  5
1C3
330
70
100
AcDbEntity
  8
HON
 62
     9
420
 12632256
370
    25
100
AcDbLine
 10
116.0952063862596
 20
148.7675465313572
 30
0.0
 11
113.6031416533907
 21
151.1762918194323
 31
0.0
  0
LINE
  5
1C4
330
70
100
AcDbEntity
  8
HON
 62
     9
420
 12632256
370
    25
100
AcDbLine
 10
114.3671216255795
 20
150.8889367679117
 30
0.0
 11
116.6482232344758
 21
148.610727063348
 31
0.0
  0
LINE
  5
1C5
330
70
100
AcDbEntity
  8
HON
 62
     9
420
 12632256
370
    25
100
AcDbLine
 10
106.0767708873504
 20
149.4131552090009
 30
0.0
 11
107.6098443046564
 21
146.6198203482949
 31
0.0
  0
LINE
  5
1C6
330
70
100
AcDbEntity
  8
HON
 62
     9
420
 12632256
370
    25
100
AcDbLine
 10
107.6098443046564
 20
146.6198203482949
 30
0.0
 11
107.965354289951
 21
149.2871056546578
 31
0.0
  0
LINE
  5
1C7
330
70
100
AcDbEntity
  8
HON
 62
     9
420
 12632256
370
    25
100
AcDbLine
 10
107.965354289951
 20
149.2871056546578
 30
0.0
 11
110.3179693849966
 21
146.3059491143764
 31
0.0
  0
LINE
  5
1C8
330
70
100
AcDbEntity
  8
HON
 62
     9
420
 12632256
370
    25
100
AcDbLine
 10
110.3179693849966
 20
146.3059491143764
 30
0.0
 11
110.2589624471265
 21
149.0589476499359
 31
0.0
  0
LINE
  5
1C9
330
70
100
AcDbEntity
  8
HON
 62
     9
420
 12632256
370
    25
100
AcDbLine
 10
110.2589624471265
 20
149.0589476499359
 30
0.0
 11
112.673885681807
 21
145.8268454362865
 31
0.0
  0
LINE
  5
1CA
330
70
100
AcDbEntity
  8
HON
 62
     9
420
 12632256
370
    25
100
AcDbLine
 10
112.673885681807
 20
145.8268454362865
 30
0.0
 11
112.6691773647622
 21
148.7577393841027
 31
0.0
  0
LINE
  5
1CB
330
70
100
AcDbEntity
  8
HON
 62
     9
420
 12632256
370
    25
100
AcDbLine
 10
112.6691773647622
 20
148.7577393841027
 30
0.0
 11
114.5577658174579
 21
145.4005638574897
 31
0.0
  0
LINE
  5
1CC
330
70
100
AcDbEntity
  8
HON
 62
     9
420
 12632256
370
    25
100
AcDbLine
 10
114.5577658174579
 20
145.4005638574897
 30
0.0
 11
114.2905546822174
 21
148.3911912093233
 31
0.0
  0
LINE
  5
1CD
330
70
100
AcDbEntity
  8
HON
 62
     9
420
 12632256
370
    25
100
AcDbLine
 10
114.2905546822174
 20
148.3911912093233
 30
0.0
 11
115.978239482446
 21
145.0529435355097
 31
0.0
  0
LINE
  5
1CE
330
70
100
AcDbEntity
  8
HON
 62
     9
420
 12632256
370
    25
100
AcDbLine
 10
115.978239482446
 20
145.0529435355097
 30
0.0
 11
115.404503502849
 21
147.9827724797018
 31
0.0
  0
LINE
  5
1CF
330
70
100
AcDbEntity
  8
HON
 62
     9
420
 12632256
370
    25
100
AcDbLine
 10
115.404503502849
 20
147.9827724797018
 30
0.0
 11
117.0565922005215
 21
144.6239980351916
 31
0.0
  0
LINE
  5
1D0
330
70
100
AcDbEntity
  8
HON
 62
     9
420
 12632256
370
    25
100
AcDbLine
 10
117.0565922005215
 20
144.6239980351916
 30
0.0
 11
116.0634268851578
 21
147.5738621970925
 31
0.0
  0
LINE
  5
1D1
330
70
100
AcDbEntity
  8
HON
 62
     9
420
 12632256
370
    25
100
AcDbLine
 10
116.0704723414335
 20
147.5879266291475
 30
0.0
 11
117.6104321871942
 21
144.3300344464645
 31
0.0
  0
LINE
  5
1D2
330
70
100
AcDbEntity
  8
HON
 62
     9
420
 12632256
370
    25
100
AcDbLine
 10
117.6104321871942
 20
144.3300344464645
 30
0.0
 11
116.4842286392127
 21
147.0711746118638
 31
0.0
  0
LINE
  5
1D3
330
70
100
AcDbEntity
  8
HON
 62
     9
420
 12632256
370
    25
100
AcDbLine
 10
116.4842286392127
 20
147.0711746118638
 30
0.0
 11
117.9787509429088
 21
144.1681404385565
 31
0.0
  0
LINE
  5
1D4
330
70
100
AcDbEntity
  8
HON
 62
     9
420
 12632256
370
    25
100
AcDbLine
 10
117.6104321871942
 20
144.3300344464645
 30
0.0
 11
116.7329142689511
 21
143.3715651905863
 31
0.0
  0
LINE
  5
1D5
330
70
100
AcDbEntity
  8
HON
 62
     9
420
 12632256
370
    25
100
AcDbLine
 10
117.0565922005215
 20
144.6239980351916
 30
0.0
 11
115.9617093369113
 21
143.297720473222
 31
0.0
  0
LINE
  5
1D6
330
70
100
AcDbEntity
  8
HON
 62
     9
420
 12632256
370
    25
100
AcDbLine
 10
115.9617093369113
 20
143.297720473222
 30
0.0
 11
115.978239482446
 21
145.0529435355097
 31
0.0
  0
LINE
  5
1D7
330
70
100
AcDbEntity
  8
HON
 62
     9
420
 12632256
370
    25
100
AcDbLine
 10
115.978239482446
 20
145.0529435355097
 30
0.0
 11
114.8316320640015
 21
143.6854466478621
 31
0.0
  0
LINE
  5
1D8
330
70
100
AcDbEntity
  8
HON
 62
     9
420
 12632256
370
    25
100
AcDbLine
 10
114.8316320640015
 20
143.6854466478621
 30
0.0
 11
114.5577658174579
 21
145.4005638574897
 31
0.0
  0
LINE
  5
1D9
330
70
100
AcDbEntity
  8
HON
 62
     9
420
 12632256
370
    25
100
AcDbLine
 10
114.5577658174579
 20
145.4005638574897
 30
0.0
 11
113.0971434463125
 21
143.6631819547919
 31
0.0
  0
LINE
  5
1DA
330
70
100
AcDbEntity
  8
HON
 62
     9
420
 12632256
370
    25
100
AcDbLine
 10
113.0971434463125
 20
143.6631819547919
 30
0.0
 11
112.673885681807
 21
145.8268454362865
 31
0.0
  0
LINE
  5
1DB
330
70
100
AcDbEntity
  8
HON
 62
     9
420
 12632256
370
    25
100
AcDbLine
 10
112.673885681807
 20
145.8268454362865
 30
0.0
 11
111.1587098120118
 21
143.9443355470234
 31
0.0
  0
LINE
  5
1DC
330
70
100
AcDbEntity
  8
HON
 62
     9
420
 12632256
370
    25
100
AcDbLine
 10
111.1587098120118
 20
143.9443355470234
 30
0.0
 11
110.3179693849966
 21
146.3059491143764
 31
0.0
  0
LINE
  5
1DD
330
70
100
AcDbEntity
  8
HON
 62
     9
420
 12632256
370
    25
100
AcDbLine
 10
110.3179693849966
 20
146.3059491143764
 30
0.0
 11
108.5884128162729
 21
144.0722586146447
 31
0.0
  0
LINE
  5
1DE
330
70
100
AcDbEntity
  8
HON
 62
     9
420
 12632256
370
    25
100
AcDbLine
 10
108.5884128162729
 20
144.0722586146447
 30
0.0
 11
107.6098443046564
 21
146.6198203482949
 31
0.0
  0
LINE
  5
1DF
330
70
100
AcDbEntity
  8
HON
 62
     9
420
 12632256
370
    25
100
AcDbLine
 10
107.6098443046564
 20
146.6198203482949
 30
0.0
 11
106.0848891685533
 21
144.3424104352911
 31
0.0
  0
LINE
  5
1E0
330
70
100
AcDbEntity
  8
HON
 62
     9
420
 12632256
370
    25
100
AcDbLine
 10
118.505312282158
 20
141.4211032123644
 30
0.0
 11
118.5629187274653
 21
138.5582862451759
 31
0.0
  0
LINE
  5
1E1
330
70
100
AcDbEntity
  8
HON
 62
     9
420
 12632256
370
    25
100
AcDbLine
 10
118.5629187274653
 20
138.5582862451759
 30
0.0
 11
118.1296177855758
 21
141.6746569929841
 31
0.0
  0
LINE
  5
1E2
330
70
100
AcDbEntity
  8
HON
 62
     9
420
 12632256
370
    25
100
AcDbLine
 10
118.1296177855758
 20
141.6746569929841
 30
0.0
 11
117.9107864645055
 21
138.9522940474151
 31
0.0
  0
LINE
  5
1E3
330
70
100
AcDbEntity
  8
HON
 62
     9
420
 12632256
370
    25
100
AcDbLine
 10
117.9107864645055
 20
138.9522940474151
 30
0.0
 11
117.4609237206194
 21
142.2022677032262
 31
0.0
  0
LINE
  5
1E4
330
70
100
AcDbEntity
  8
HON
 62
     9
420
 12632256
370
    25
100
AcDbLine
 10
117.4609237206194
 20
142.2022677032262
 30
0.0
 11
116.6649310538311
 21
139.5877618354667
 31
0.0
  0
LINE
  5
1E5
330
70
100
AcDbEntity
  8
HON
 62
     9
420
 12632256
370
    25
100
AcDbLine
 10
116.6649310538311
 20
139.5877618354667
 30
0.0
 11
116.2659942706256
 21
142.6743239068426
 31
0.0
  0
LINE
  5
1E6
330
70
100
AcDbEntity
  8
HON
 62
     9
420
 12632256
370
    25
100
AcDbLine
 10
116.2659942706256
 20
142.6743239068426
 30
0.0
 11
114.8152259203334
 21
140.2532422895589
 31
0.0
  0
LINE
  5
1E7
330
70
100
AcDbEntity
  8
HON
 62
     9
420
 12632256
370
    25
100
AcDbLine
 10
114.8152259203334
 20
140.2532422895589
 30
0.0
 11
114.4089368533742
 21
143.1148697977867
 31
0.0
  0
LINE
  5
1E8
330
70
100
AcDbEntity
  8
HON
 62
     9
420
 12632256
370
    25
100
AcDbLine
 10
114.4089368533742
 20
143.1148697977867
 30
0.0
 11
112.7364582467751
 21
140.7936797655732
 31
0.0
  0
LINE
  5
1E9
330
70
100
AcDbEntity
  8
HON
 62
     9
420
 12632256
370
    25
100
AcDbLine
 10
112.7364582467751
 20
140.7936797655732
 30
0.0
 11
112.2735393218615
 21
143.4598673237127
 31
0.0
  0
LINE
  5
1EA
330
70
100
AcDbEntity
  8
HON
 62
     9
420
 12632256
370
    25
100
AcDbLine
 10
112.2735393218615
 20
143.4598673237127
 30
0.0
 11
110.5692117280258
 21
141.1416176338155
 31
0.0
  0
LINE
  5
1EB
330
70
100
AcDbEntity
  8
HON
 62
     9
420
 12632256
370
    25
100
AcDbLine
 10
110.5692117280258
 20
141.1416176338155
 30
0.0
 11
110.0450681915853
 21
143.7571824372013
 31
0.0
  0
LINE
  5
1EC
330
70
100
AcDbEntity
  8
HON
 62
     9
420
 12632256
370
    25
100
AcDbLine
 10
110.0450681915853
 20
143.7571824372013
 30
0.0
 11
108.2665348844212
 21
141.5324319529087
 31
0.0
  0
LINE
  5
1ED
330
70
100
AcDbEntity
  8
HON
 62
     9
420
 12632256
370
    25
100
AcDbLine
 10
108.2665348844212
 20
141.5324319529087
 30
0.0
 11
107.5839520819579
 21
143.9493993322673
 31
0.0
  0
LINE
  5
1EE
330
70
100
AcDbEntity
  8
HON
 62
     9
420
 12632256
370
    25
100
AcDbLine
 10
107.5839520819579
 20
143.9493993322673
 30
0.0
 11
106.0831419477278
 21
141.6891796478438
 31
0.0
  0
LINE
  5
1EF
330
70
100
AcDbEntity
  8
HON
 62
     9
420
 12632256
370
    25
100
AcDbLine
 10
118.5053122821561
 20
141.4211032123644
 30
0.0
 11
117.2442445451389
 21
143.3033869651451
 31
0.0
  0
LINE
  5
1F0
330
70
100
AcDbEntity
  8
HON
 62
     9
420
 12632256
370
    25
100
AcDbLine
 10
118.1296177855758
 20
141.6746569929841
 30
0.0
 11
116.8713572055886
 21
143.5072445399569
 31
0.0
  0
LINE
  5
1F1
330
70
100
AcDbEntity
  8
HON
 62
     9
420
 12632256
370
    25
100
AcDbLine
 10
117.4609237206194
 20
142.2022677032262
 30
0.0
 11
116.2171988025737
 21
143.6384737439117
 31
0.0
  0
LINE
  5
1F2
330
70
100
AcDbEntity
  8
HON
 62
     9
420
 12632256
370
    25
100
AcDbLine
 10
116.2659942706256
 20
142.6743239068426
 30
0.0
 11
115.0047754915929
 21
143.9093103088711
 31
0.0
  0
LINE
  5
1F3
330
70
100
AcDbEntity
  8
HON
 62
     9
420
 12632256
370
    25
100
AcDbLine
 10
114.4089368533742
 20
143.1148697977867
 30
0.0
 11
113.434913377009
 21
144.0649527180325
 31
0.0
  0
LINE
  5
1F4
330
70
100
AcDbEntity
  8
HON
 62
     9
420
 12632256
370
    25
100
AcDbLine
 10
112.2735393218615
 20
143.4598673237127
 30
0.0
 11
111.4823959962419
 21
144.3464950949536
 31
0.0
  0
LINE
  5
1F5
330
70
100
AcDbEntity
  8
HON
 62
     9
420
 12632256
370
    25
100
AcDbLine
 10
110.0450681915853
 20
143.7571824372013
 30
0.0
 11
109.0435387490929
 21
144.6600453865274
 31
0.0
  0
LINE
  5
1F6
330
70
100
AcDbEntity
  8
HON
 62
     9
420
 12632256
370
    25
100
AcDbLine
 10
107.5839520819579
 20
143.9493993322673
 30
0.0
 11
106.457411101905
 21
144.898744929166
 31
0.0
  0
LINE
  5
1F7
330
70
100
AcDbEntity
  8
HON
 62
     9
420
 12632256
370
    25
100
AcDbLine
 10
117.101739225208
 20
148.0140501210705
 30
0.0
 11
116.7376491242438
 21
146.9324131766904
 31
0.0
  0
LINE
  5
1F8
330
70
100
AcDbEntity
  8
HON
 62
     9
420
 12632256
370
    25
100
AcDbLine
 10
107.965354289951
 20
149.2871056546578
 30
0.0
 11
107.237178339511
 21
150.2554057934762
 31
0.0
  0
LINE
  5
1F9
330
70
100
AcDbEntity
  8
HON
 62
     9
420
 12632256
370
    25
100
AcDbLine
 10
110.2589624471265
 20
149.0589476499359
 30
0.0
 11
109.1624948906384
 21
149.9976541089896
 31
0.0
  0
LINE
  5
1FA
330
70
100
AcDbEntity
  8
HON
 62
     9
420
 12632256
370
    25
100
AcDbLine
 10
112.6691773647622
 20
148.7577393841027
 30
0.0
 11
111.3936014417767
 21
149.8495924244094
 31
0.0
  0
LINE
  5
1FB
330
70
100
AcDbEntity
  8
HON
 62
     9
420
 12632256
370
    25
100
AcDbLine
 10
113.5242421406555
 20
149.6427799930394
 30
0.0
 11
114.2905546822174
 21
148.3911912093233
 31
0.0
  0
LINE
  5
1FC
330
70
100
AcDbEntity
  8
HON
 62
     9
420
 12632256
370
    25
100
AcDbLine
 10
115.404503502849
 20
147.9827724797018
 30
0.0
 11
114.8545006169193
 21
149.291234049952
 31
0.0
  0
LINE
  5
1FD
330
70
100
AcDbEntity
  8
HON
 62
     9
420
 12632256
370
    25
100
AcDbLine
 10
116.0634268851578
 20
147.5738621970925
 30
0.0
 11
116.0684896647207
 21
148.7773677918962
 31
0.0
  0
LINE
  5
1FE
330
70
100
AcDbEntity
  8
HON
 62
     9
420
 12632256
370
    25
100
AcDbLine
 10
116.4842286392127
 20
147.0711746118638
 30
0.0
 11
116.6482232344758
 21
148.610727063348
 31
0.0
  0
LINE
  5
1FF
330
70
100
AcDbEntity
  8
HON
 62
     9
420
 12632256
370
    25
100
AcDbLine
 10
108.5884128162729
 20
144.0722586146447
 30
0.0
 11
108.2665348844212
 21
141.5324319529087
 31
0.0
  0
LINE
  5
200
330
70
100
AcDbEntity
  8
HON
 62
     9
420
 12632256
370
    25
100
AcDbLine
 10
111.1587098120118
 20
143.9443355470234
 30
0.0
 11
110.5692117280258
 21
141.1416176338155
 31
0.0
  0
LINE
  5
201
330
70
100
AcDbEntity
  8
HON
 62
     9
420
 12632256
370
    25
100
AcDbLine
 10
113.0971434463125
 20
143.6631819547919
 30
0.0
 11
112.7364582467751
 21
140.7936797655732
 31
0.0
  0
LINE
  5
202
330
70
100
AcDbEntity
  8
HON
 62
     9
420
 12632256
370
    25
100
AcDbLine
 10
114.8316320640015
 20
143.6854466478621
 30
0.0
 11
114.8152259203334
 21
140.2532422895589
 31
0.0
  0
LINE
  5
203
330
70
100
AcDbEntity
  8
HON
 62
     9
420
 12632256
370
    25
100
AcDbLine
 10
107.2343928202999
 20
150.2533110420469
 30
0.0
 11
106.0885782455071
 21
149.391641624085
 31
0.0
  0
LINE
  5
204
330
70
100
AcDbEntity
  8
HON
 62
     9
420
 12632256
370
    25
100
AcDbLine
 10
109.1624948906384
 20
149.9976541089896
 30
0.0
 11
107.9561641978715
 21
149.2181551368672
 31
0.0
  0
LINE
  5
205
330
70
100
AcDbEntity
  8
HON
 62
     9
420
 12632256
370
    25
100
AcDbLine
 10
111.3936014417767
 20
149.8495924244094
 30
0.0
 11
110.2580179313582
 21
149.1030145108803
 31
0.0
  0
LINE
  5
206
330
70
100
AcDbEntity
  8
HON
 62
     9
420
 12632256
370
    25
100
AcDbLine
 10
113.5242421406555
 20
149.6427799930394
 30
0.0
 11
112.6691773647622
 21
148.7577393841027
 31
0.0
  0
LINE
  5
207
330
70
100
AcDbEntity
  8
HON
 62
     9
420
 12632256
370
    25
100
AcDbLine
 10
108.2726969513721
 20
140.3426109308555
 30
0.0
 11
111.5394993903201
 21
137.1326299808991
 31
0.0
  0
LINE
  5
208
330
70
100
AcDbEntity
  8
HON
 62
     9
420
 12632256
370
    25
100
AcDbLine
 10
111.5394993903201
 20
137.1326299808991
 30
0.0
 11
110.5190578863485
 21
140.3298021201831
 31
0.0
  0
LINE
  5
209
330
70
100
AcDbEntity
  8
HON
 62
     9
420
 12632256
370
    25
100
AcDbLine
 10
110.5190578863485
 20
140.3298021201831
 30
0.0
 11
114.2334634826881
 21
136.3538887991294
 31
0.0
  0
LINE
  5
20A
330
70
100
AcDbEntity
  8
HON
 62
     9
420
 12632256
370
    25
100
AcDbLine
 10
114.2334634826881
 20
136.3538887991294
 30
0.0
 11
112.8473418828097
 21
139.9392028920652
 31
0.0
  0
LINE
  5
20B
330
70
100
AcDbEntity
  8
HON
 62
     9
420
 12632256
370
    25
100
AcDbLine
 10
112.8473418828097
 20
139.9392028920652
 30
0.0
 11
116.2755475218175
 21
135.4983817518066
 31
0.0
  0
LINE
  5
20C
330
70
100
AcDbEntity
  8
HON
 62
     9
420
 12632256
370
    25
100
AcDbLine
 10
116.2755475218175
 20
135.4983817518066
 30
0.0
 11
115.1002477528152
 21
139.5419470908609
 31
0.0
  0
LINE
  5
20D
330
70
100
AcDbEntity
  8
HON
 62
     9
420
 12632256
370
    25
100
AcDbLine
 10
115.1002477528152
 20
139.5419470908609
 30
0.0
 11
117.8426780400923
 21
134.8498213197551
 31
0.0
  0
LINE
  5
20E
330
70
100
AcDbEntity
  8
HON
 62
     9
420
 12632256
370
    25
100
AcDbLine
 10
117.8426780400923
 20
134.8498213197551
 30
0.0
 11
116.806042881023
 21
138.9159299222777
 31
0.0
  0
LINE
  5
20F
330
70
100
AcDbEntity
  8
HON
 62
     9
420
 12632256
370
    25
100
AcDbLine
 10
116.806042881023
 20
138.9159299222777
 30
0.0
 11
118.7739725584001
 21
134.3074771825107
 31
0.0
  0
LINE
  5
210
330
70
100
AcDbEntity
  8
HON
 62
     9
420
 12632256
370
    25
100
AcDbLine
 10
119.2941555903587
 20
133.8451007193856
 30
0.0
 11
118.1465151145722
 21
137.3181511650696
 31
0.0
  0
LINE
  5
211
330
70
100
AcDbEntity
  8
HON
 62
     9
420
 12632256
370
    25
100
AcDbLine
 10
108.2726969513721
 20
140.3426109308555
 30
0.0
 11
108.4898379996748
 21
137.3736001837285
 31
0.0
  0
LINE
  5
212
330
70
100
AcDbEntity
  8
HON
 62
     9
420
 12632256
370
    25
100
AcDbLine
 10
108.2665348844212
 20
141.5324319529087
 30
0.0
 11
107.3236966269277
 21
139.4083150229697
 31
0.0
  0
LINE
  5
213
330
70
100
AcDbEntity
  8
HON
 62
     9
420
 12632256
370
    25
100
AcDbLine
 10
110.5692117280258
 20
141.1416176338155
 30
0.0
 11
109.5276805242382
 21
139.0922572709371
 31
0.0
  0
LINE
  5
214
330
70
100
AcDbEntity
  8
HON
 62
     9
420
 12632256
370
    25
100
AcDbLine
 10
112.7364582467751
 20
140.7936797655732
 30
0.0
 11
111.968596964568
 21
138.8818917594549
 31
0.0
  0
LINE
  5
215
330
70
100
AcDbEntity
  8
HON
 62
     9
420
 12632256
370
    25
100
AcDbLine
 10
114.8152259203334
 20
140.2532422895589
 30
0.0
 11
114.1297286064132
 21
138.6191836479547
 31
0.0
  0
LINE
  5
216
330
70
100
AcDbEntity
  8
HON
 62
     9
420
 12632256
370
    25
100
AcDbLine
 10
116.6649310538311
 20
139.5877618354667
 30
0.0
 11
115.9877338214308
 21
138.0345786732131
 31
0.0
  0
LINE
  5
217
330
70
100
AcDbEntity
  8
HON
 62
     9
420
 12632256
370
    25
100
AcDbLine
 10
117.9107864645055
 20
138.9522940474151
 30
0.0
 11
117.1477634012705
 21
137.2659897320668
 31
0.0
  0
LINE
  5
218
330
70
100
AcDbEntity
  8
HON
 62
     9
420
 12632256
370
    25
100
AcDbLine
 10
118.7739725584001
 20
134.3074771825107
 30
0.0
 11
117.9130576812286
 21
137.9346937637027
 31
0.0
  0
LINE
  5
219
330
70
100
AcDbEntity
  8
HON
 62
     9
420
 12632256
370
    25
100
AcDbLine
 10
108.2726969513721
 20
140.3426109308555
 30
0.0
 11
106.9560694553083
 21
139.0254556026383
 31
0.0
  0
LINE
  5
21A
330
70
100
AcDbEntity
  8
HON
 62
     9
420
 12632256
370
    25
100
AcDbLine
 10
110.5190578863485
 20
140.3298021201831
 30
0.0
 11
109.6013781356239
 21
139.0063258964514
 31
0.0
  0
LINE
  5
21B
330
70
100
AcDbEntity
  8
HON
 62
     9
420
 12632256
370
    25
100
AcDbLine
 10
112.8473418828097
 20
139.9392028920652
 30
0.0
 11
112.0031594316195
 21
138.8382249246156
 31
0.0
  0
LINE
  5
21C
330
70
100
AcDbEntity
  8
HON
 62
     9
420
 12632256
370
    25
100
AcDbLine
 10
115.1002477528152
 20
139.5419470908609
 30
0.0
 11
114.0801514897999
 21
138.4676270576736
 31
0.0
  0
LINE
  5
21D
330
70
100
AcDbEntity
  8
HON
 62
     9
420
 12632256
370
    25
100
AcDbLine
 10
116.806042881023
 20
138.9159299222777
 30
0.0
 11
115.8760196361005
 21
137.7673496962168
 31
0.0
  0
LINE
  5
21E
330
70
100
AcDbEntity
  8
HON
 62
     9
420
 12632256
370
    25
100
AcDbLine
 10
117.9130576812286
 20
137.9346937637027
 30
0.0
 11
117.1140024952643
 21
137.1662469842908
 31
0.0
  0
LINE
  5
21F
330
70
100
AcDbEntity
  8
HON
 62
     9
420
 12632256
370
    25
100
AcDbLine
 10
108.2726969513721
 20
140.3426109308555
 30
0.0
 11
107.7938755162132
 21
140.6575349228066
 31
0.0
  0
LINE
  5
220
330
70
100
AcDbEntity
  8
HON
 62
     9
420
 12632256
370
    25
100
AcDbLine
 10
110.5190578863485
 20
140.3298021201831
 30
0.0
 11
110.0711395661644
 21
140.6517304001502
 31
0.0
  0
LINE
  5
221
330
70
100
AcDbEntity
  8
HON
 62
     9
420
 12632256
370
    25
100
AcDbLine
 10
119.191799863761
 20
132.4358880525327
 30
0.0
 11
119.2868733857748
 21
133.8616680379097
 31
0.0
  0
LINE
  5
222
330
70
100
AcDbEntity
  8
HON
 62
     9
420
 12632256
370
    25
100
AcDbLine
 10
118.6811817075636
 20
132.8503027460306
 30
0.0
 11
118.7667181001082
 21
134.3204731718294
 31
0.0
  0
LINE
  5
223
330
70
100
AcDbEntity
  8
HON
 62
     9
420
 12632256
370
    25
100
AcDbLine
 10
117.7559516326317
 20
133.4921935051231
 30
0.0
 11
117.8354385735461
 21
134.8608876650038
 31
0.0
  0
LINE
  5
224
330
70
100
AcDbEntity
  8
HON
 62
     9
420
 12632256
370
    25
100
AcDbLine
 10
116.1322568024435
 20
134.1657820705921
 30
0.0
 11
116.2683142871816
 21
135.508645964203
 31
0.0
  0
LINE
  5
225
330
70
100
AcDbEntity
  8
HON
 62
     9
420
 12632256
370
    25
100
AcDbLine
 10
114.1145308676794
 20
134.5965223628247
 30
0.0
 11
114.2262244591812
 21
136.3648981192514
 31
0.0
  0
LINE
  5
226
330
70
100
AcDbEntity
  8
HON
 62
     9
420
 12632256
370
    25
100
AcDbLine
 10
111.4449137317941
 20
134.9258716037281
 30
0.0
 11
111.5322477750752
 21
137.1452600308571
 31
0.0
  0
LINE
  5
227
330
70
100
AcDbEntity
  8
HON
 62
     9
420
 12632256
370
    25
100
AcDbLine
 10
112.8473418828097
 20
139.9392028920652
 30
0.0
 11
112.4460898088793
 21
140.3477669642603
 31
0.0
  0
LINE
  5
228
330
70
100
AcDbEntity
  8
HON
 62
     9
420
 12632256
370
    25
100
AcDbLine
 10
115.1002477528152
 20
139.5419470908609
 30
0.0
 11
114.7594906180191
 21
139.950511163056
 31
0.0
  0
LINE
  5
229
330
70
100
AcDbEntity
  8
HON
 62
     9
420
 12632256
370
    25
100
AcDbLine
 10
116.806042881023
 20
138.9159299222777
 30
0.0
 11
116.5516659342178
 21
139.3244939944728
 31
0.0
  0
LINE
  5
22A
330
70
100
AcDbEntity
  8
HON
 62
     9
420
 12632256
370
    25
100
AcDbLine
 10
117.9130576812286
 20
137.9346937637027
 30
0.0
 11
117.7608570177808
 21
138.3432578358978
 31
0.0
  0
LINE
  5
22B
330
70
100
AcDbEntity
  8
HON
 62
     9
420
 12632256
370
    25
100
AcDbLine
 10
113.0093997281754
 20
123.5250106032747
 30
0.0
 11
110.2558366853979
 21
121.1920725643783
 31
0.0
  0
LINE
  5
22C
330
70
100
AcDbEntity
  8
HON
 62
     9
420
 12632256
370
    25
100
AcDbLine
 10
116.5352832538579
 20
127.2959013935186
 30
0.0
 11
117.5950869562303
 21
128.7528152213092
 31
0.0
  0
LINE
  5
22D
330
70
100
AcDbEntity
  8
HON
 62
     9
420
 12632256
370
    25
100
AcDbLine
 10
115.7820120792756
 20
125.6704300824462
 30
0.0
 11
114.2672506906699
 21
123.4841153432228
 31
0.0
  0
LINE
  5
22E
330
70
100
AcDbEntity
  8
HON
 62
     9
420
 12632256
370
    25
100
AcDbLine
 10
115.7820120792756
 20
125.6704300824462
 30
0.0
 11
115.6338304476635
 21
127.0245108931362
 31
0.0
  0
LINE
  5
22F
330
70
100
AcDbEntity
  8
HON
 62
     9
420
 12632256
370
    25
100
AcDbLine
 10
117.5950869562303
 20
128.7528152213092
 30
0.0
 11
117.6395080389433
 21
130.2336985131172
 31
0.0
  0
LINE
  5
230
330
70
100
AcDbEntity
  8
HON
 62
     9
420
 12632256
370
    25
100
AcDbLine
 10
106.8911274887423
 20
124.1492032366135
 30
0.0
 11
106.0975211316517
 21
121.8945731847621
 31
0.0
  0
LINE
  5
231
330
70
100
AcDbEntity
  8
HON
 62
     9
420
 12632256
370
    25
100
AcDbLine
 10
106.8911274887423
 20
124.1492032366135
 30
0.0
 11
106.9325948847078
 21
121.8802699599881
 31
0.0
  0
LINE
  5
232
330
70
100
AcDbEntity
  8
HON
 62
     9
420
 12632256
370
    25
100
AcDbLine
 10
106.9325948847078
 20
121.8802699599881
 30
0.0
 11
108.3846555234636
 21
124.09730923751
 31
0.0
  0
LINE
  5
233
330
70
100
AcDbEntity
  8
HON
 62
     9
420
 12632256
370
    25
100
AcDbLine
 10
108.3846555234636
 20
124.09730923751
 30
0.0
 11
107.8389497918837
 21
121.8300221085564
 31
0.0
  0
LINE
  5
234
330
70
100
AcDbEntity
  8
HON
 62
     9
420
 12632256
370
    25
100
AcDbLine
 10
107.8389497918837
 20
121.8300221085564
 30
0.0
 11
109.7610988434271
 21
124.0878798580238
 31
0.0
  0
LINE
  5
235
330
70
100
AcDbEntity
  8
HON
 62
     9
420
 12632256
370
    25
100
AcDbLine
 10
109.7610988434271
 20
124.0878798580238
 30
0.0
 11
108.6609198978972
 21
121.7452473867327
 31
0.0
  0
LINE
  5
236
330
70
100
AcDbEntity
  8
HON
 62
     9
420
 12632256
370
    25
100
AcDbLine
 10
108.6609198978972
 20
121.7452473867327
 30
0.0
 11
110.9675615037653
 21
123.9411684866726
 31
0.0
  0
LINE
  5
237
330
70
100
AcDbEntity
  8
HON
 62
     9
420
 12632256
370
    25
100
AcDbLine
 10
110.9675615037653
 20
123.9411684866726
 30
0.0
 11
109.3267416581738
 21
121.6347185741911
 31
0.0
  0
LINE
  5
238
330
70
100
AcDbEntity
  8
HON
 62
     9
420
 12632256
370
    25
100
AcDbLine
 10
109.3267416581738
 20
121.6347185741911
 30
0.0
 11
111.9576798210261
 21
124.0877302644828
 31
0.0
  0
LINE
  5
239
330
70
100
AcDbEntity
  8
HON
 62
     9
420
 12632256
370
    25
100
AcDbLine
 10
111.9576798210261
 20
124.0877302644828
 30
0.0
 11
109.8117473430455
 21
121.5080302848482
 31
0.0
  0
LINE
  5
23A
330
70
100
AcDbEntity
  8
HON
 62
     9
420
 12632256
370
    25
100
AcDbLine
 10
109.8117473430455
 20
121.5080302848482
 30
0.0
 11
112.5499099771724
 21
123.8524298136058
 31
0.0
  0
LINE
  5
23B
330
70
100
AcDbEntity
  8
HON
 62
     9
420
 12632256
370
    25
100
AcDbLine
 10
112.5766266987055
 20
123.8622510741451
 30
0.0
 11
110.1107543186509
 21
121.3761623354118
 31
0.0
  0
LINE
  5
23C
330
70
100
AcDbEntity
  8
HON
 62
     9
420
 12632256
370
    25
100
AcDbLine
 10
110.1107543186509
 20
121.3761623354118
 30
0.0
 11
112.7073511667428
 21
123.6629327491776
 31
0.0
  0
LINE
  5
23D
330
70
100
AcDbEntity
  8
HON
 62
     9
420
 12632256
370
    25
100
AcDbLine
 10
112.7479757495989
 20
123.6770218247518
 30
0.0
 11
110.2386409495767
 21
121.2563219099688
 31
0.0
  0
LINE
  5
23E
330
70
100
AcDbEntity
  8
HON
 62
     9
420
 12632256
370
    25
100
AcDbLine
 10
110.2386409495767
 20
121.2563219099688
 30
0.0
 11
112.823078028218
 21
123.549433865514
 31
0.0
  0
LINE
  5
23F
330
70
100
AcDbEntity
  8
HON
 62
     9
420
 12632256
370
    25
100
AcDbLine
 10
112.8400075365559
 20
123.5548545188961
 30
0.0
 11
110.2558366853979
 21
121.1920725643764
 31
0.0
  0
LINE
  5
240
330
70
100
AcDbEntity
  8
HON
 62
     9
420
 12632256
370
    25
100
AcDbLine
 10
106.1442619605338
 20
124.1492032366135
 30
0.0
 11
108.3188347261649
 21
126.7151913673833
 31
0.0
  0
LINE
  5
241
330
70
100
AcDbEntity
  8
HON
 62
     9
420
 12632256
370
    25
100
AcDbLine
 10
108.3188347261649
 20
126.7151913673833
 30
0.0
 11
107.6977643596225
 21
124.09730923751
 31
0.0
  0
LINE
  5
242
330
70
100
AcDbEntity
  8
HON
 62
     9
420
 12632256
370
    25
100
AcDbLine
 10
107.6977643596225
 20
124.09730923751
 30
0.0
 11
110.2018305674632
 21
126.5743241170026
 31
0.0
  0
LINE
  5
243
330
70
100
AcDbEntity
  8
HON
 62
     9
420
 12632256
370
    25
100
AcDbLine
 10
110.2018305674632
 20
126.5743241170026
 30
0.0
 11
109.2365111377701
 21
124.0878798580238
 31
0.0
  0
LINE
  5
244
330
70
100
AcDbEntity
  8
HON
 62
     9
420
 12632256
370
    25
100
AcDbLine
 10
109.2365111377701
 20
124.0878798580238
 30
0.0
 11
111.7907937817805
 21
126.5789814625553
 31
0.0
  0
LINE
  5
245
330
70
100
AcDbEntity
  8
HON
 62
     9
420
 12632256
370
    25
100
AcDbLine
 10
111.7907937817805
 20
126.5789814625553
 30
0.0
 11
110.6546282903502
 21
124.0026414588033
 31
0.0
  0
LINE
  5
246
330
70
100
AcDbEntity
  8
HON
 62
     9
420
 12632256
370
    25
100
AcDbLine
 10
110.6546282903502
 20
124.0026414588033
 30
0.0
 11
113.2201516955182
 21
126.4014039574052
 31
0.0
  0
LINE
  5
247
330
70
100
AcDbEntity
  8
HON
 62
     9
420
 12632256
370
    25
100
AcDbLine
 10
113.2201516955182
 20
126.4014039574052
 30
0.0
 11
111.8976183704731
 21
124.0877302644828
 31
0.0
  0
LINE
  5
248
330
70
100
AcDbEntity
  8
HON
 62
     9
420
 12632256
370
    25
100
AcDbLine
 10
111.8976183704731
 20
124.0877302644828
 30
0.0
 11
114.3693204029578
 21
126.2181020061168
 31
0.0
  0
LINE
  5
249
330
70
100
AcDbEntity
  8
HON
 62
     9
420
 12632256
370
    25
100
AcDbLine
 10
114.3693204029578
 20
126.2181020061168
 30
0.0
 11
112.9177139664434
 21
123.9876372267199
 31
0.0
  0
LINE
  5
24A
330
70
100
AcDbEntity
  8
HON
 62
     9
420
 12632256
370
    25
100
AcDbLine
 10
112.9177139664434
 20
123.9876372267199
 30
0.0
 11
115.1020885532912
 21
126.0309106227786
 31
0.0
  0
LINE
  5
24B
330
70
100
AcDbEntity
  8
HON
 62
     9
420
 12632256
370
    25
100
AcDbLine
 10
115.1020885532912
 20
126.0309106227786
 30
0.0
 11
113.6186697628659
 21
123.8049236766877
 31
0.0
  0
LINE
  5
24C
330
70
100
AcDbEntity
  8
HON
 62
     9
420
 12632256
370
    25
100
AcDbLine
 10
113.6186697628659
 20
123.8049236766877
 30
0.0
 11
115.5541593849819
 21
125.8065681825416
 31
0.0
  0
LINE
  5
24D
330
70
100
AcDbEntity
  8
HON
 62
     9
420
 12632256
370
    25
100
AcDbLine
 10
115.5541593849819
 20
125.8065681825416
 30
0.0
 11
114.1065065341927
 21
123.6347097844833
 31
0.0
  0
LINE
  5
24E
330
70
100
AcDbEntity
  8
HON
 62
     9
420
 12632256
370
    25
100
AcDbLine
 10
114.1065065341927
 20
123.6347097844833
 30
0.0
 11
115.7820120792756
 21
125.6704300824462
 31
0.0
  0
LINE
  5
24F
330
70
100
AcDbEntity
  8
HON
 62
     9
420
 12632256
370
    25
100
AcDbLine
 10
115.5541593849819
 20
125.8065681825416
 30
0.0
 11
115.3352981880388
 21
127.4748974032141
 31
0.0
  0
LINE
  5
250
330
70
100
AcDbEntity
  8
HON
 62
     9
420
 12632256
370
    25
100
AcDbLine
 10
115.1020885532912
 20
126.0309106227786
 30
0.0
 11
114.8219327239394
 21
127.9557420620242
 31
0.0
  0
LINE
  5
251
330
70
100
AcDbEntity
  8
HON
 62
     9
420
 12632256
370
    25
100
AcDbLine
 10
114.8219327239394
 20
127.9557420620242
 30
0.0
 11
114.3693204029578
 21
126.2181020061168
 31
0.0
  0
LINE
  5
252
330
70
100
AcDbEntity
  8
HON
 62
     9
420
 12632256
370
    25
100
AcDbLine
 10
114.3693204029578
 20
126.2181020061168
 30
0.0
 11
113.9576426679255
 21
128.1126557128178
 31
0.0
  0
LINE
  5
253
330
70
100
AcDbEntity
  8
HON
 62
     9
420
 12632256
370
    25
100
AcDbLine
 10
113.9576426679255
 20
128.1126557128178
 30
0.0
 11
113.2201516955182
 21
126.4014039574052
 31
0.0
  0
LINE
  5
254
330
70
100
AcDbEntity
  8
HON
 62
     9
420
 12632256
370
    25
100
AcDbLine
 10
113.2201516955182
 20
126.4014039574052
 30
0.0
 11
112.7657824256973
 21
128.1421007079867
 31
0.0
  0
LINE
  5
255
330
70
100
AcDbEntity
  8
HON
 62
     9
420
 12632256
370
    25
100
AcDbLine
 10
112.7657824256973
 20
128.1421007079867
 30
0.0
 11
111.7907937817805
 21
126.5789814625553
 31
0.0
  0
LINE
  5
256
330
70
100
AcDbEntity
  8
HON
 62
     9
420
 12632256
370
    25
100
AcDbLine
 10
111.7907937817805
 20
126.5789814625553
 30
0.0
 11
111.2216997137301
 21
128.2459335842565
 31
0.0
  0
LINE
  5
257
330
70
100
AcDbEntity
  8
HON
 62
     9
420
 12632256
370
    25
100
AcDbLine
 10
111.2216997137301
 20
128.2459335842565
 30
0.0
 11
110.2018305674632
 21
126.5743241170026
 31
0.0
  0
LINE
  5
258
330
70
100
AcDbEntity
  8
HON
 62
     9
420
 12632256
370
    25
100
AcDbLine
 10
110.2018305674632
 20
126.5743241170026
 30
0.0
 11
109.3484624631247
 21
128.2702076293831
 31
0.0
  0
LINE
  5
259
330
70
100
AcDbEntity
  8
HON
 62
     9
420
 12632256
370
    25
100
AcDbLine
 10
109.3484624631247
 20
128.2702076293831
 30
0.0
 11
108.3188347261649
 21
126.7151913673833
 31
0.0
  0
LINE
  5
25A
330
70
100
AcDbEntity
  8
HON
 62
     9
420
 12632256
370
    25
100
AcDbLine
 10
108.3188347261649
 20
126.7151913673833
 30
0.0
 11
107.387824793023
 21
128.1427489466612
 31
0.0
  0
LINE
  5
25B
330
70
100
AcDbEntity
  8
HON
 62
     9
420
 12632256
370
    25
100
AcDbLine
 10
107.387824793023
 20
128.1427489466612
 30
0.0
 11
106.094696668501
 21
126.8364568775403
 31
0.0
  0
LINE
  5
25C
330
70
100
AcDbEntity
  8
HON
 62
     9
420
 12632256
370
    25
100
AcDbLine
 10
116.5352832538579
 20
127.2959013935186
 30
0.0
 11
117.2500966335473
 21
129.1061501768712
 31
0.0
  0
LINE
  5
25D
330
70
100
AcDbEntity
  8
HON
 62
     9
420
 12632256
370
    25
100
AcDbLine
 10
117.2500966335473
 20
129.1061501768712
 30
0.0
 11
116.257455728729
 21
127.5764740511133
 31
0.0
  0
LINE
  5
25E
330
70
100
AcDbEntity
  8
HON
 62
     9
420
 12632256
370
    25
100
AcDbLine
 10
116.257455728729
 20
127.5764740511133
 30
0.0
 11
116.6457287251912
 21
129.4989977728571
 31
0.0
  0
LINE
  5
25F
330
70
100
AcDbEntity
  8
HON
 62
     9
420
 12632256
370
    25
100
AcDbLine
 10
116.6457287251912
 20
129.4989977728571
 30
0.0
 11
115.6871792254489
 21
127.8768080153735
 31
0.0
  0
LINE
  5
260
330
70
100
AcDbEntity
  8
HON
 62
     9
420
 12632256
370
    25
100
AcDbLine
 10
115.6871792254489
 20
127.8768080153735
 30
0.0
 11
115.5099219288394
 21
129.9024914424557
 31
0.0
  0
LINE
  5
261
330
70
100
AcDbEntity
  8
HON
 62
     9
420
 12632256
370
    25
100
AcDbLine
 10
115.5099219288394
 20
129.9024914424557
 30
0.0
 11
114.8162304425833
 21
128.076459681361
 31
0.0
  0
LINE
  5
262
330
70
100
AcDbEntity
  8
HON
 62
     9
420
 12632256
370
    25
100
AcDbLine
 10
114.8162304425833
 20
128.076459681361
 30
0.0
 11
114.0448402112771
 21
130.2911005548017
 31
0.0
  0
LINE
  5
263
330
70
100
AcDbEntity
  8
HON
 62
     9
420
 12632256
370
    25
100
AcDbLine
 10
114.0448402112771
 20
130.2911005548017
 30
0.0
 11
113.4619988293335
 21
128.2773942065567
 31
0.0
  0
LINE
  5
264
330
70
100
AcDbEntity
  8
HON
 62
     9
420
 12632256
370
    25
100
AcDbLine
 10
113.4619988293335
 20
128.2773942065567
 30
0.0
 11
112.2948316942882
 21
130.4304170188136
 31
0.0
  0
LINE
  5
265
330
70
100
AcDbEntity
  8
HON
 62
     9
420
 12632256
370
    25
100
AcDbLine
 10
112.2948316942882
 20
130.4304170188136
 30
0.0
 11
111.8209829053492
 21
128.4159408413855
 31
0.0
  0
LINE
  5
266
330
70
100
AcDbEntity
  8
HON
 62
     9
420
 12632256
370
    25
100
AcDbLine
 10
111.8209829053492
 20
128.4159408413855
 30
0.0
 11
110.2572063144225
 21
130.5758618315251
 31
0.0
  0
LINE
  5
267
330
70
100
AcDbEntity
  8
HON
 62
     9
420
 12632256
370
    25
100
AcDbLine
 10
110.2572063144225
 20
130.5758618315251
 30
0.0
 11
110.039910169785
 21
128.5546668622163
 31
0.0
  0
LINE
  5
268
330
70
100
AcDbEntity
  8
HON
 62
     9
420
 12632256
370
    25
100
AcDbLine
 10
110.039910169785
 20
128.5546668622163
 30
0.0
 11
108.2360304423774
 21
130.7892737590758
 31
0.0
  0
LINE
  5
269
330
70
100
AcDbEntity
  8
HON
 62
     9
420
 12632256
370
    25
100
AcDbLine
 10
108.2360304423774
 20
130.7892737590758
 30
0.0
 11
108.057203528814
 21
128.6549359408644
 31
0.0
  0
LINE
  5
26A
330
70
100
AcDbEntity
  8
HON
 62
     9
420
 12632256
370
    25
100
AcDbLine
 10
108.057203528814
 20
128.6549359408644
 30
0.0
 11
106.0647145152351
 21
131.1049592239473
 31
0.0
  0
LINE
  5
26B
330
70
100
AcDbEntity
  8
HON
 62
     9
420
 12632256
370
    25
100
AcDbLine
 10
116.5352832538566
 20
127.2959013935167
 30
0.0
 11
115.6517641877406
 21
126.8727875682661
 31
0.0
  0
LINE
  5
26C
330
70
100
AcDbEntity
  8
HON
 62
     9
420
 12632256
370
    25
100
AcDbLine
 10
116.257455728729
 20
127.5764740511133
 30
0.0
 11
115.3551501878654
 21
127.148648029345
 31
0.0
  0
LINE
  5
26D
330
70
100
AcDbEntity
  8
HON
 62
     9
420
 12632256
370
    25
100
AcDbLine
 10
115.6871792254489
 20
127.8768080153735
 30
0.0
 11
114.9357331746274
 21
127.1959491091391
 31
0.0
  0
LINE
  5
26E
330
70
100
AcDbEntity
  8
HON
 62
     9
420
 12632256
370
    25
100
AcDbLine
 10
114.8162304425833
 20
128.076459681361
 30
0.0
 11
114.0938465580917
 21
127.5666236392268
 31
0.0
  0
LINE
  5
26F
330
70
100
AcDbEntity
  8
HON
 62
     9
420
 12632256
370
    25
100
AcDbLine
 10
113.4619988293335
 20
128.2773942065567
 30
0.0
 11
112.9081485654413
 21
127.7314287446905
 31
0.0
  0
LINE
  5
270
330
70
100
AcDbEntity
  8
HON
 62
     9
420
 12632256
370
    25
100
AcDbLine
 10
111.8209829053492
 20
128.4159408413855
 30
0.0
 11
111.4146779603462
 21
127.5522636092685
 31
0.0
  0
LINE
  5
271
330
70
100
AcDbEntity
  8
HON
 62
     9
420
 12632256
370
    25
100
AcDbLine
 10
110.039910169785
 20
128.5546668622163
 30
0.0
 11
109.7358091709565
 21
127.5439908429785
 31
0.0
  0
LINE
  5
272
330
70
100
AcDbEntity
  8
HON
 62
     9
420
 12632256
370
    25
100
AcDbLine
 10
108.057203528814
 20
128.6549359408644
 30
0.0
 11
107.8630097390606
 21
127.5033293267685
 31
0.0
  0
LINE
  5
273
330
70
100
AcDbEntity
  8
HON
 62
     9
420
 12632256
370
    25
100
AcDbLine
 10
112.8603696708788
 20
123.3845987741704
 30
0.0
 11
114.2672506906699
 21
123.4841153432228
 31
0.0
  0
LINE
  5
274
330
70
100
AcDbEntity
  8
HON
 62
     9
420
 12632256
370
    25
100
AcDbLine
 10
107.6977643596225
 20
124.09730923751
 30
0.0
 11
106.8941294159877
 21
123.6459885534589
 31
0.0
  0
LINE
  5
275
330
70
100
AcDbEntity
  8
HON
 62
     9
420
 12632256
370
    25
100
AcDbLine
 10
109.2365111377701
 20
124.0878798580238
 30
0.0
 11
108.2662485851316
 21
123.5940945543555
 31
0.0
  0
LINE
  5
276
330
70
100
AcDbEntity
  8
HON
 62
     9
420
 12632256
370
    25
100
AcDbLine
 10
110.6546282903502
 20
124.0026414588033
 30
0.0
 11
109.5308008537547
 21
123.6459885534589
 31
0.0
  0
LINE
  5
277
330
70
100
AcDbEntity
  8
HON
 62
     9
420
 12632256
370
    25
100
AcDbLine
 10
110.6391901873476
 20
123.6459885534589
 30
0.0
 11
111.8976183704731
 21
124.0877302644828
 31
0.0
  0
LINE
  5
278
330
70
100
AcDbEntity
  8
HON
 62
     9
420
 12632256
370
    25
100
AcDbLine
 10
112.9177139664434
 20
123.9876372267199
 30
0.0
 11
111.5488218054023
 21
123.6459885534589
 31
0.0
  0
LINE
  5
279
330
70
100
AcDbEntity
  8
HON
 62
     9
420
 12632256
370
    25
100
AcDbLine
 10
113.6186697628659
 20
123.8049236766877
 30
0.0
 11
112.2247390749735
 21
123.4955572894076
 31
0.0
  0
LINE
  5
27A
330
70
100
AcDbEntity
  8
HON
 62
     9
420
 12632256
370
    25
100
AcDbLine
 10
114.1065065341927
 20
123.6347097844833
 30
0.0
 11
112.5708726607887
 21
123.4686803166813
 31
0.0
  0
LINE
  5
27B
330
70
100
AcDbEntity
  8
HON
 62
     9
420
 12632256
370
    25
100
AcDbLine
 10
107.387824793023
 20
128.1427489466612
 30
0.0
 11
106.0647145152351
 21
131.1049592239473
 31
0.0
  0
LINE
  5
27C
330
70
100
AcDbEntity
  8
HON
 62
     9
420
 12632256
370
    25
100
AcDbLine
 10
109.3484624631247
 20
128.2702076293831
 30
0.0
 11
108.2360304423774
 21
130.7892737590758
 31
0.0
  0
LINE
  5
27D
330
70
100
AcDbEntity
  8
HON
 62
     9
420
 12632256
370
    25
100
AcDbLine
 10
111.2216997137301
 20
128.2459335842565
 30
0.0
 11
110.2572063144225
 21
130.5758618315251
 31
0.0
  0
LINE
  5
27E
330
70
100
AcDbEntity
  8
HON
 62
     9
420
 12632256
370
    25
100
AcDbLine
 10
112.7657824256973
 20
128.1421007079867
 30
0.0
 11
112.2948316942882
 21
130.4304170188136
 31
0.0
  0
LINE
  5
27F
330
70
100
AcDbEntity
  8
HON
 62
     9
420
 12632256
370
    25
100
AcDbLine
 10
113.9576426679255
 20
128.1126557128178
 30
0.0
 11
114.0448402112771
 21
130.2911005548017
 31
0.0
  0
LINE
  5
280
330
70
100
AcDbEntity
  8
HON
 62
     9
420
 12632256
370
    25
100
AcDbLine
 10
106.8911274887423
 20
124.1492032366135
 30
0.0
 11
106.8911274887423
 21
125.0076383716355
 31
0.0
  0
LINE
  5
281
330
70
100
AcDbEntity
  8
HON
 62
     9
420
 12632256
370
    25
100
AcDbLine
 10
108.3846555234636
 20
124.09730923751
 30
0.0
 11
108.3846555234636
 21
124.8020995014693
 31
0.0
  0
LINE
  5
282
330
70
100
AcDbEntity
  8
HON
 62
     9
420
 12632256
370
    25
100
AcDbLine
 10
109.7610988434271
 20
124.0878798580238
 30
0.0
 11
109.7610988434271
 21
124.6336325378454
 31
0.0
  0
LINE
  5
283
330
70
100
AcDbEntity
  8
HON
 62
     9
420
 12632256
370
    25
100
AcDbLine
 10
110.9675615037653
 20
123.9411684866726
 30
0.0
 11
110.9675615037653
 21
124.4568552861549
 31
0.0
  0
LINE
  5
284
330
70
100
AcDbEntity
  8
HON
 62
     9
420
 12632256
370
    25
100
AcDbLine
 10
106.0596934191699
 20
131.1111333118244
 30
0.0
 11
108.4742421241597
 21
135.2973406599582
 31
0.0
  0
LINE
  5
285
330
70
100
AcDbEntity
  8
HON
 62
     9
420
 12632256
370
    25
100
AcDbLine
 10
108.5845698701695
 20
131.1910383726835
 30
0.0
 11
111.4420892686294
 21
134.9538301783692
 31
0.0
  0
LINE
  5
286
330
70
100
AcDbEntity
  8
HON
 62
     9
420
 12632256
370
    25
100
AcDbLine
 10
111.4420892686294
 20
134.9538301783692
 30
0.0
 11
110.722570954912
 21
130.9675705558428
 31
0.0
  0
LINE
  5
287
330
70
100
AcDbEntity
  8
HON
 62
     9
420
 12632256
370
    25
100
AcDbLine
 10
110.722570954912
 20
130.9675705558428
 30
0.0
 11
114.1117064045108
 21
134.6244809374677
 31
0.0
  0
LINE
  5
288
330
70
100
AcDbEntity
  8
HON
 62
     9
420
 12632256
370
    25
100
AcDbLine
 10
114.1117064045108
 20
134.6244809374677
 30
0.0
 11
112.5639451884586
 21
130.7769734262425
 31
0.0
  0
LINE
  5
289
330
70
100
AcDbEntity
  8
HON
 62
     9
420
 12632256
370
    25
100
AcDbLine
 10
112.5639451884586
 20
130.7769734262425
 30
0.0
 11
116.1294323392781
 21
134.193740645237
 31
0.0
  0
LINE
  5
28A
330
70
100
AcDbEntity
  8
HON
 62
     9
420
 12632256
370
    25
100
AcDbLine
 10
116.1294323392781
 20
134.193740645237
 30
0.0
 11
114.3136273562982
 21
130.7006906936285
 31
0.0
  0
LINE
  5
28B
330
70
100
AcDbEntity
  8
HON
 62
     9
420
 12632256
370
    25
100
AcDbLine
 10
114.3136273562982
 20
130.7006906936285
 30
0.0
 11
117.7531271694631
 21
133.5201520797679
 31
0.0
  0
LINE
  5
28C
330
70
100
AcDbEntity
  8
HON
 62
     9
420
 12632256
370
    25
100
AcDbLine
 10
117.7531271694631
 20
133.5201520797679
 30
0.0
 11
115.7243245283067
 21
130.2637628677901
 31
0.0
  0
LINE
  5
28D
330
70
100
AcDbEntity
  8
HON
 62
     9
420
 12632256
370
    25
100
AcDbLine
 10
115.7243245283067
 20
130.2637628677901
 30
0.0
 11
118.6783572443988
 21
132.8782613206736
 31
0.0
  0
LINE
  5
28E
330
70
100
AcDbEntity
  8
HON
 62
     9
420
 12632256
370
    25
100
AcDbLine
 10
119.1889754005943
 20
132.4638466271776
 30
0.0
 11
117.4201437990163
 21
129.9346471063916
 31
0.0
  0
LINE
  5
28F
330
70
100
AcDbEntity
  8
HON
 62
     9
420
 12632256
370
    25
100
AcDbLine
 10
116.7538784600154
 20
130.1715035450804
 30
0.0
 11
119.1889754005943
 21
132.4638466271776
 31
0.0
  0
LINE
  5
290
330
70
100
AcDbEntity
  8
HON
 62
     9
420
 12632256
370
    25
100
AcDbLine
 10
108.5845698701695
 20
131.1910383726835
 30
0.0
 11
108.4742421241597
 21
135.2973406599582
 31
0.0
  0
LINE
  5
291
330
70
100
AcDbEntity
  8
HON
 62
     9
420
 12632256
370
    25
100
AcDbLine
 10
108.2360304423774
 20
130.7892737590758
 30
0.0
 11
107.2244231624274
 21
133.446150623821
 31
0.0
  0
LINE
  5
292
330
70
100
AcDbEntity
  8
HON
 62
     9
420
 12632256
370
    25
100
AcDbLine
 10
110.2572063144225
 20
130.5758618315251
 30
0.0
 11
109.8934777939839
 21
133.0959306257945
 31
0.0
  0
LINE
  5
293
330
70
100
AcDbEntity
  8
HON
 62
     9
420
 12632256
370
    25
100
AcDbLine
 10
112.2948316942882
 20
130.4304170188136
 30
0.0
 11
111.8495452124761
 21
132.2523415148538
 31
0.0
  0
LINE
  5
294
330
70
100
AcDbEntity
  8
HON
 62
     9
420
 12632256
370
    25
100
AcDbLine
 10
114.0448402112771
 20
130.2911005548017
 30
0.0
 11
113.7871413931505
 21
131.921980918764
 31
0.0
  0
LINE
  5
295
330
70
100
AcDbEntity
  8
HON
 62
     9
420
 12632256
370
    25
100
AcDbLine
 10
115.5099219288394
 20
129.9024914424557
 30
0.0
 11
115.3275835175108
 21
131.4945118213697
 31
0.0
  0
LINE
  5
296
330
70
100
AcDbEntity
  8
HON
 62
     9
420
 12632256
370
    25
100
AcDbLine
 10
116.6457287251912
 20
129.4989977728571
 30
0.0
 11
116.5600819015713
 21
130.9848083859583
 31
0.0
  0
LINE
  5
297
330
70
100
AcDbEntity
  8
HON
 62
     9
420
 12632256
370
    25
100
AcDbLine
 10
117.2500966335473
 20
129.1061501768712
 30
0.0
 11
117.3220498517228
 21
130.6497087899669
 31
0.0
  0
LINE
  5
298
330
70
100
AcDbEntity
  8
HON
 62
     9
420
 12632256
370
    25
100
AcDbLine
 10
118.6783572443988
 20
132.8782613206736
 30
0.0
 11
116.7538784600154
 21
130.1715035450804
 31
0.0
  0
LINE
  5
299
330
70
100
AcDbEntity
  8
HON
 62
     9
420
 12632256
370
    25
100
AcDbLine
 10
108.5845698701695
 20
131.1910383726835
 30
0.0
 11
107.2244231624274
 21
133.446150623821
 31
0.0
  0
LINE
  5
29A
330
70
100
AcDbEntity
  8
HON
 62
     9
420
 12632256
370
    25
100
AcDbLine
 10
110.722570954912
 20
130.9675705558428
 30
0.0
 11
109.8934777939839
 21
133.0959306257945
 31
0.0
  0
LINE
  5
29B
330
70
100
AcDbEntity
  8
HON
 62
     9
420
 12632256
370
    25
100
AcDbLine
 10
112.5639451884586
 20
130.7769734262425
 30
0.0
 11
111.8495452124761
 21
132.2523415148538
 31
0.0
  0
LINE
  5
29C
330
70
100
AcDbEntity
  8
HON
 62
     9
420
 12632256
370
    25
100
AcDbLine
 10
114.3136273562982
 20
130.7006906936285
 30
0.0
 11
113.7871413931505
 21
131.921980918764
 31
0.0
  0
LINE
  5
29D
330
70
100
AcDbEntity
  8
HON
 62
     9
420
 12632256
370
    25
100
AcDbLine
 10
115.7243245283067
 20
130.2637628677901
 30
0.0
 11
115.3275835175108
 21
131.4945118213697
 31
0.0
  0
LINE
  5
29E
330
70
100
AcDbEntity
  8
HON
 62
     9
420
 12632256
370
    25
100
AcDbLine
 10
116.7538784600154
 20
130.1715035450804
 30
0.0
 11
116.5600819015713
 21
130.9848083859583
 31
0.0
  0
LINE
  5
29F
330
70
100
AcDbEntity
  8
HON
 62
     9
420
 12632256
370
    25
100
AcDbLine
 10
117.4201437990163
 20
129.9346471063916
 30
0.0
 11
117.3220498517228
 21
130.6497087899669
 31
0.0
  0
LINE
  5
2A0
330
70
100
AcDbEntity
  8
HON
 62
     9
420
 12632256
370
    25
100
AcDbLine
 10
108.5845698701695
 20
131.1910383726835
 30
0.0
 11
108.2360304423774
 21
130.7892737590758
 31
0.0
  0
LINE
  5
2A1
330
70
100
AcDbEntity
  8
HON
 62
     9
420
 12632256
370
    25
100
AcDbLine
 10
110.722570954912
 20
130.9675705558428
 30
0.0
 11
110.2572063144225
 21
130.5758618315251
 31
0.0
  0
LINE
  5
2A2
330
70
100
AcDbEntity
  8
HON
 62
     9
420
 12632256
370
    25
100
AcDbLine
 10
112.5639451884586
 20
130.7769734262425
 30
0.0
 11
112.2948316942882
 21
130.4304170188136
 31
0.0
  0
LINE
  5
2A3
330
70
100
AcDbEntity
  8
HON
 62
     9
420
 12632256
370
    25
100
AcDbLine
 10
114.3136273562982
 20
130.7006906936285
 30
0.0
 11
114.0448402112771
 21
130.2911005548017
 31
0.0
  0
LINE
  5
2A4
330
70
100
AcDbEntity
  8
HON
 62
     9
420
 12632256
370
    25
100
AcDbLine
 10
115.7243245283067
 20
130.2637628677901
 30
0.0
 11
115.5099219288394
 21
129.9024914424557
 31
0.0
  0
LINE
  5
2A5
330
70
100
AcDbEntity
  8
HON
 62
     9
420
 12632256
370
    25
100
AcDbLine
 10
116.7538784600154
 20
130.1715035450804
 30
0.0
 11
116.6016777965676
 21
129.8346994941316
 31
0.0
  0
LINE
  5
2A6
330
70
100
AcDbEntity
  8
HON
 62
     9
420
 12632256
370
    25
100
AcDbLine
 10
117.3037047001173
 20
129.5260830341965
 30
0.0
 11
117.4201437990163
 21
129.9346471063916
 31
0.0
  0
LINE
  5
2A7
330
70
100
AcDbEntity
  8
HON
 62
     9
420
 12632256
370
    25
100
AcDbLine
 10
106.4946391532568
 20
121.3191449835929
 30
0.0
 11
107.1252864943588
 21
120.5113570819816
 31
0.0
  0
LINE
  5
2A8
330
70
100
AcDbEntity
  8
HON
 62
     9
420
 12632256
370
    25
100
AcDbLine
 10
107.0374847693263
 20
121.3569251165087
 30
0.0
 11
108.0389543762362
 21
120.5708159415685
 31
0.0
  0
LINE
  5
2A9
330
70
100
AcDbEntity
  8
HON
 62
     9
420
 12632256
370
    25
100
AcDbLine
 10
107.4124356661551
 20
121.4120656893779
 30
0.0
 11
108.7955571041521
 21
120.6574823938179
 31
0.0
  0
LINE
  5
2AA
330
70
100
AcDbEntity
  8
HON
 62
     9
420
 12632256
370
    25
100
AcDbLine
 10
107.6430053254834
 20
121.4755887001455
 30
0.0
 11
109.6003610790712
 21
120.8134338983912
 31
0.0
  0
LINE
  5
2AB
330
70
100
AcDbEntity
  8
HON
 62
     9
420
 12632256
370
    25
100
AcDbLine
 10
107.7330912709517
 20
121.5267924870191
 30
0.0
 11
110.0192111312125
 21
120.9583651244819
 31
0.0
  0
LINE
  5
2AC
330
70
100
AcDbEntity
  8
HON
 62
     9
420
 12632256
370
    25
100
AcDbLine
 10
107.7548896585512
 20
121.5682753857898
 30
0.0
 11
110.239862004525
 21
121.1301103018001
 31
0.0
  0
LINE
  5
2AD
330
70
100
AcDbEntity
  8
HON
 62
     9
420
 12632256
370
    25
100
AcDbLine
 10
114.8545006169193
 20
149.291234049952
 30
0.0
 11
114.3388649583819
 21
148.7874722904075
 31
0.0
  0
LINE
  5
2AE
330
70
100
AcDbEntity
  8
HON
 62
     9
420
 12632256
370
    25
100
AcDbLine
 10
116.0684896647207
 20
148.7773677918962
 30
0.0
 11
115.5801060507044
 21
148.4988052423164
 31
0.0
  0
LINE
  5
2AF
330
70
100
AcDbEntity
  8
HON
 62
     9
420
 12632256
370
    25
100
AcDbLine
 10
116.6482232344758
 20
148.610727063348
 30
0.0
 11
116.3057207713036
 21
148.5011287504245
 31
0.0
  0
LINE
  5
2B0
330
70
100
AcDbEntity
  8
HON
 62
     9
420
 12632256
370
    25
100
AcDbLine
 10
117.9130576812286
 20
137.9346937637027
 30
0.0
 11
118.5629187274653
 21
138.5582862451759
 31
0.0
  0
LINE
  5
2B1
330
70
100
AcDbEntity
  8
HON
 62
     9
420
 12632256
370
    25
100
AcDbLine
 10
106.1369554916774
 20
152.0827202007135
 30
0.0
 11
106.6264277534511
 21
154.1549112324633
 31
0.0
  0
LINE
  5
2B2
330
70
100
AcDbEntity
  8
HON
 62
     9
420
 12632256
370
    25
100
AcDbLine
 10
106.6264277534511
 20
154.1549112324633
 30
0.0
 11
107.2092055838121
 21
152.0573539564363
 31
0.0
  0
LINE
  5
2B3
330
70
100
AcDbEntity
  8
HON
 62
     9
420
 12632256
370
    25
100
AcDbLine
 10
107.2092055838121
 20
152.0573539564363
 30
0.0
 11
107.3495308891967
 21
154.1324317134646
 31
0.0
  0
LINE
  5
2B4
330
70
100
AcDbEntity
  8
HON
 62
     9
420
 12632256
370
    25
100
AcDbLine
 10
107.3495308891967
 20
154.1324317134646
 30
0.0
 11
108.6812960055003
 21
151.9904331488747
 31
0.0
  0
LINE
  5
2B5
330
70
100
AcDbEntity
  8
HON
 62
     9
420
 12632256
370
    25
100
AcDbLine
 10
108.6812960055003
 20
151.9904331488747
 30
0.0
 11
107.8179535037644
 21
154.1020899763703
 31
0.0
  0
LINE
  5
2B6
330
70
100
AcDbEntity
  8
HON
 62
     9
420
 12632256
370
    25
100
AcDbLine
 10
107.8179535037644
 20
154.1020899763703
 30
0.0
 11
110.4347940915803
 21
151.7873650147182
 31
0.0
  0
LINE
  5
2B7
330
70
100
AcDbEntity
  8
HON
 62
     9
420
 12632256
370
    25
100
AcDbLine
 10
110.4347940915803
 20
151.7873650147182
 30
0.0
 11
108.2611738066745
 21
154.0624563286423
 31
0.0
  0
LINE
  5
2B8
330
70
100
AcDbEntity
  8
HON
 62
     9
420
 12632256
370
    25
100
AcDbLine
 10
108.2611738066745
 20
154.0624563286423
 30
0.0
 11
111.5819036883558
 21
151.6066181497867
 31
0.0
  0
LINE
  5
2B9
330
70
100
AcDbEntity
  8
HON
 62
     9
420
 12632256
370
    25
100
AcDbLine
 10
111.5819036883558
 20
151.6066181497867
 30
0.0
 11
108.8646644212191
 21
153.9804864302793
 31
0.0
  0
LINE
  5
2BA
330
70
100
AcDbEntity
  8
HON
 62
     9
420
 12632256
370
    25
100
AcDbLine
 10
108.8646644212191
 20
153.9804864302793
 30
0.0
 11
112.1185307587499
 21
151.6066181497867
 31
0.0
  0
LINE
  5
2BB
330
70
100
AcDbEntity
  8
HON
 62
     9
420
 12632256
370
    25
100
AcDbLine
 10
112.1185307587499
 20
151.6066181497867
 30
0.0
 11
109.3663075965476
 21
153.895960191096
 31
0.0
  0
LINE
  5
2BC
330
70
100
AcDbEntity
  8
HON
 62
     9
420
 12632256
370
    25
100
AcDbLine
 10
109.3136450411866
 20
153.895960191096
 30
0.0
 11
112.9645369396213
 21
151.3395130869018
 31
0.0
  0
LINE
  5
2BD
330
70
100
AcDbEntity
  8
HON
 62
     9
420
 12632256
370
    25
100
AcDbLine
 10
112.9403737469571
 20
151.36570034204
 30
0.0
 11
109.7264054175257
 21
153.7882399376854
 31
0.0
  0
LINE
  5
2BE
330
70
100
AcDbEntity
  8
HON
 62
     9
420
 12632256
370
    25
100
AcDbLine
 10
109.7790679728866
 20
153.7882399376854
 30
0.0
 11
113.2028084791791
 21
151.3268687508811
 31
0.0
  0
LINE
  5
2BF
330
70
100
AcDbEntity
  8
HON
 62
     9
420
 12632256
370
    25
100
AcDbLine
 10
113.2028084791791
 20
151.3268687508811
 30
0.0
 11
110.1215407311455
 21
153.6397594132292
 31
0.0
  0
LINE
  5
2C0
330
70
100
AcDbEntity
  8
HON
 62
     9
420
 12632256
370
    25
100
AcDbLine
 10
113.2028084791791
 20
151.3268687508811
 30
0.0
 11
114.3671216255795
 21
150.8889367679117
 31
0.0
  0
LINE
  5
2C1
330
70
100
AcDbEntity
  8
HON
 62
     9
420
 12632256
370
    25
100
AcDbLine
 10
106.0975211316517
 20
121.3041533363762
 30
0.0
 11
106.0975211316517
 21
120.4588686330361
 31
0.0
  0
LINE
  5
2C2
330
70
100
AcDbEntity
  8
HON
 62
     9
420
 12632256
370
    25
100
AcDbLine
 10
106.0821896602744
 20
140.3399235505756
 30
0.0
 11
106.0596934191699
 21
131.1111333118244
 31
0.0
  0
ENDSEC
  0
SECTION
  2
OBJECTS
  0
DICTIONARY
  5
C
330
0
100
AcDbDictionary
281
     1
  3
ACAD_COLOR
350
63
  3
ACAD_DETAILVIEWSTYLE
350
6A
  3
ACAD_GROUP
350
D
  3
ACAD_LAYOUT
350
62
  3
ACAD_MATERIAL
350
10
  3
ACAD_MLEADERSTYLE
350
66
  3
ACAD_MLINESTYLE
350
5F
  3
ACAD_PLOTSETTINGS
350
61
  3
ACAD_PLOTSTYLENAME
350
E
  3
ACAD_SCALELIST
350
42
  3
ACAD_SECTIONVIEWSTYLE
350
68
  3
ACAD_TABLESTYLE
350
64
  3
ACAD_VISUALSTYLE
350
29
  3
ACDB_RECOMPOSE_DATA
350
2CB
  3
AcDbVariableDictionary
350
2C3
  0
DICTIONARY
  5
63
102
{ACAD_REACTORS
330
C
102
}
330
C
100
AcDbDictionary
281
     1
  0
DICTIONARY
  5
6A
102
{ACAD_REACTORS
330
C
102
}
330
C
100
AcDbDictionary
281
     1
  3
Imperial24
350
6B
  0
DICTIONARY
  5
D
102
{ACAD_REACTORS
330
C
102
}
330
C
100
AcDbDictionary
281
     1
  0
DICTIONARY
  5
62
102
{ACAD_REACTORS
330
C
102
}
330
C
100
AcDbDictionary
281
     1
  3
Layout1
350
6F
  3
Layout2
350
77
  3
Model
350
73
  0
DICTIONARY
  5
10
102
{ACAD_REACTORS
330
C
102
}
330
C
100
AcDbDictionary
281
     1
  3
ByBlock
350
19
  3
ByLayer
350
11
  3
Global
350
21
  0
DICTIONARY
  5
66
102
{ACAD_REACTORS
330
C
102
}
330
C
100
AcDbDictionary
281
     1
  3
Standard
350
67
  0
DICTIONARY
  5
5F
102
{ACAD_REACTORS
330
C
102
}
330
C
100
AcDbDictionary
281
     1
  3
Standard
350
60
  0
DICTIONARY
  5
61
102
{ACAD_REACTORS
330
C
102
}
330
C
100
AcDbDictionary
281
     1
  0
ACDBDICTIONARYWDFLT
  5
E
102
{ACAD_REACTORS
330
C
102
}
330
C
100
AcDbDictionary
281
     1
  3
Normal
350
F
100
AcDbDictionaryWithDefault
340
F
  0
DICTIONARY
  5
42
102
{ACAD_REACTORS
330
C
102
}
330
C
100
AcDbDictionary
281
     1
  3
A0
350
43
  3
A1
350
44
  3
A2
350
45
  3
A3
350
46
  3
A4
350
47
  3
A5
350
48
  3
A6
350
49
  3
A7
350
4A
  3
A8
350
4B
  3
A9
350
4C
  3
B0
350
4D
  3
B1
350
4E
  3
B2
350
4F
  3
B3
350
50
  3
B4
350
51
  3
B5
350
52
  3
B6
350
53
  0
DICTIONARY
  5
68
102
{ACAD_REACTORS
330
C
102
}
330
C
100
AcDbDictionary
281
     1
  3
Imperial24
350
69
  0
DICTIONARY
  5
64
102
{ACAD_REACTORS
330
C
102
}
330
C
100
AcDbDictionary
281
     1
  3
Standard
350
65
  0
DICTIONARY
  5
29
102
{ACAD_REACTORS
330
C
102
}
330
C
100
AcDbDictionary
281
     1
  3
2dWireframe
350
2F
  3
Basic
350
2E
  3
Brighten
350
35
  3
ColorChange
350
39
  3
Conceptual
350
32
  3
Dim
350
34
  3
EdgeColorOff
350
41
  3
Facepattern
350
38
  3
Flat
350
2A
  3
FlatWithEdges
350
2B
  3
Gouraud
350
2C
  3
GouraudWithEdges
350
2D
  3
Hidden
350
31
  3
JitterOff
350
3F
  3
Linepattern
350
37
  3
OverhangOff
350
40
  3
Realistic
350
33
  3
Shaded
350
3E
  3
Shaded with edges
350
3D
  3
Shades of Gray
350
3A
  3
Sketchy
350
3B
  3
Thicken
350
36
  3
Wireframe
350
30
  3
X-Ray
350
3C
  0
XRECORD
  5
2CB
102
{ACAD_REACTORS
330
C
102
}
330
C
100
AcDbXrecord
280
     1
 90
        1
330
65
  0
DICTIONARY
  5
2C3
102
{ACAD_REACTORS
330
C
102
}
330
C
100
AcDbDictionary
281
     1
  3
CANNOSCALE
350
2C8
  3
CMLEADERSTYLE
350
2C5
  3
CTABLESTYLE
350
2C4
  3
CVIEWDETAILSTYLE
350
2C6
  3
CVIEWSECTIONSTYLE
350
2C7
  0
ACDBDETAILVIEWSTYLE
  5
6B
102
{ACAD_REACTORS
330
6A
102
}
330
6A
100
AcDbModelDocViewStyle
 70
     0
  3
Imperial24
290
     1
300
Imperial24
 90
        0
100
AcDbDetailViewStyle
 70
     0
 71
     0
 90
        3
 71
     1
340
55
 62
   256
 40
0.24
340
0
 62
   256
 40
0.24
300

 40
0.36
280
     3
 71
     2
340
5D
 90
       25
 62
   256
 71
     3
340
55
 62
   256
 40
0.24
 90
        1
 40
0.75
 90
        1
300
%<\AcVar ViewType \f "%tc1">% %<\AcVar ViewDetailId>%\PSCALE %<\AcVar ViewScale \f "%sn">%
 71
     4
340
5D
 90
       25
 62
   256
340
5D
 90
       25
 62
   256
280
     0
  0
LAYOUT
  5
6F
102
{ACAD_REACTORS
330
62
102
}
330
62
100
AcDbPlotSettings
  1

  2

  4

  6

 40
0.0
 41
0.0
 42
0.0
 43
0.0
 44
0.0
 45
0.0
 46
0.0
 47
0.0
 48
0.0
 49
0.0
140
0.0
141
0.0
142
1.0
143
1.0
 70
   688
 72
     0
 73
     0
 74
     5
  7

 75
    16
147
1.0
 76
     0
 77
     2
 78
   300
148
0.0
149
0.0
100
AcDbLayout
  1
Layout1
 70
     1
 71
     1
 10
0.0
 20
0.0
 11
12.0
 21
9.0
 12
0.0
 22
0.0
 32
0.0
 14
0.0
 24
0.0
 34
0.0
 15
0.0
 25
0.0
 35
0.0
146
0.0
 13
0.0
 23
0.0
 33
0.0
 16
1.0
 26
0.0
 36
0.0
 17
0.0
 27
1.0
 37
0.0
 76
     0
330
6C
  0
LAYOUT
  5
77
102
{ACAD_REACTORS
330
62
102
}
330
62
100
AcDbPlotSettings
  1

  2

  4

  6

 40
0.0
 41
0.0
 42
0.0
 43
0.0
 44
0.0
 45
0.0
 46
0.0
 47
0.0
 48
0.0
 49
0.0
140
0.0
141
0.0
142
1.0
143
1.0
 70
   688
 72
     0
 73
     0
 74
     5
  7

 75
    16
147
1.0
 76
     0
 77
     2
 78
   300
148
0.0
149
0.0
100
AcDbLayout
  1
Layout2
 70
     1
 71
     2
 10
0.0
 20
0.0
 11
12.0
 21
9.0
 12
0.0
 22
0.0
 32
0.0
 14
0.0
 24
0.0
 34
0.0
 15
0.0
 25
0.0
 35
0.0
146
0.0
 13
0.0
 23
0.0
 33
0.0
 16
1.0
 26
0.0
 36
0.0
 17
0.0
 27
1.0
 37
0.0
 76
     0
330
74
  0
LAYOUT
  5
73
102
{ACAD_REACTORS
330
62
102
}
330
62
100
AcDbPlotSettings
  1

  2

  4

  6

 40
0.0
 41
0.0
 42
0.0
 43
0.0
 44
0.0
 45
0.0
 46
0.0
 47
0.0
 48
0.0
 49
0.0
140
0.0
141
0.0
142
1.0
143
1.0
 70
  1712
 72
     0
 73
     0
 74
     0
  7

 75
     0
147
1.0
 76
     0
 77
     2
 78
   300
148
0.0
149
0.0
100
AcDbLayout
  1
Model
 70
     1
 71
     0
 10
0.0
 20
0.0
 11
12.0
 21
9.0
 12
0.0
 22
0.0
 32
0.0
 14
0.0
 24
0.0
 34
0.0
 15
0.0
 25
0.0
 35
0.0
146
0.0
 13
0.0
 23
0.0
 33
0.0
 16
1.0
 26
0.0
 36
0.0
 17
0.0
 27
1.0
 37
0.0
 76
     0
330
70
  0
MATERIAL
  5
19
102
{ACAD_XDICTIONARY
360
1A
102
}
102
{ACAD_REACTORS
330
10
102
}
330
10
100
AcDbMaterial
  1
ByBlock
 72
     0
 43
0.0208333333333333
 43
0.0
 43
0.0
 43
0.0
 43
0.0
 43
0.0208333333333333
 43
0.0
 43
0.0
 43
0.0
 43
0.0
 43
1.0
 43
0.0
 43
0.0
 43
0.0
 43
0.0
 43
1.0
 77
     0
 47
0.0208333333333333
 47
0.0
 47
0.0
 47
0.0
 47
0.0
 47
0.0208333333333333
 47
0.0
 47
0.0
 47
0.0
 47
0.0
 47
1.0
 47
0.0
 47
0.0
 47
0.0
 47
0.0
 47
1.0
171
     0
 49
0.0208333333333333
 49
0.0
 49
0.0
 49
0.0
 49
0.0
 49
0.0208333333333333
 49
0.0
 49
0.0
 49
0.0
 49
0.0
 49
1.0
 49
0.0
 49
0.0
 49
0.0
 49
0.0
 49
1.0
175
     0
142
0.0208333333333333
142
0.0
142
0.0
142
0.0
142
0.0
142
0.0208333333333333
142
0.0
142
0.0
142
0.0
142
0.0
142
1.0
142
0.0
142
0.0
142
0.0
142
0.0
142
1.0
179
     0
144
0.0208333333333333
144
0.0
144
0.0
144
0.0
144
0.0
144
0.0208333333333333
144
0.0
144
0.0
144
0.0
144
0.0
144
1.0
144
0.0
144
0.0
144
0.0
144
0.0
144
1.0
147
0.0208333333333333
147
0.0
147
0.0
147
0.0
147
0.0
147
0.0208333333333333
147
0.0
147
0.0
147
0.0
147
0.0
147
1.0
147
0.0
147
0.0
147
0.0
147
0.0
147
1.0
  0
MATERIAL
  5
11
102
{ACAD_XDICTIONARY
360
12
102
}
102
{ACAD_REACTORS
330
10
102
}
330
10
100
AcDbMaterial
  1
ByLayer
 72
     0
 43
0.0208333333333333
 43
0.0
 43
0.0
 43
0.0
 43
0.0
 43
0.0208333333333333
 43
0.0
 43
0.0
 43
0.0
 43
0.0
 43
1.0
 43
0.0
 43
0.0
 43
0.0
 43
0.0
 43
1.0
 77
     0
 47
0.0208333333333333
 47
0.0
 47
0.0
 47
0.0
 47
0.0
 47
0.0208333333333333
 47
0.0
 47
0.0
 47
0.0
 47
0.0
 47
1.0
 47
0.0
 47
0.0
 47
0.0
 47
0.0
 47
1.0
171
     0
 49
0.0208333333333333
 49
0.0
 49
0.0
 49
0.0
 49
0.0
 49
0.0208333333333333
 49
0.0
 49
0.0
 49
0.0
 49
0.0
 49
1.0
 49
0.0
 49
0.0
 49
0.0
 49
0.0
 49
1.0
175
     0
142
0.0208333333333333
142
0.0
142
0.0
142
0.0
142
0.0
142
0.0208333333333333
142
0.0
142
0.0
142
0.0
142
0.0
142
1.0
142
0.0
142
0.0
142
0.0
142
0.0
142
1.0
179
     0
144
0.0208333333333333
144
0.0
144
0.0
144
0.0
144
0.0
144
0.0208333333333333
144
0.0
144
0.0
144
0.0
144
0.0
144
1.0
144
0.0
144
0.0
144
0.0
144
0.0
144
1.0
147
0.0208333333333333
147
0.0
147
0.0
147
0.0
147
0.0
147
0.0208333333333333
147
0.0
147
0.0
147
0.0
147
0.0
147
1.0
147
0.0
147
0.0
147
0.0
147
0.0
147
1.0
  0
MATERIAL
  5
21
102
{ACAD_XDICTIONARY
360
22
102
}
102
{ACAD_REACTORS
330
10
102
}
330
10
100
AcDbMaterial
  1
Global
 72
     0
 43
0.0208333333333333
 43
0.0
 43
0.0
 43
0.0
 43
0.0
 43
0.0208333333333333
 43
0.0
 43
0.0
 43
0.0
 43
0.0
 43
1.0
 43
0.0
 43
0.0
 43
0.0
 43
0.0
 43
1.0
 77
     0
 47
0.0208333333333333
 47
0.0
 47
0.0
 47
0.0
 47
0.0
 47
0.0208333333333333
 47
0.0
 47
0.0
 47
0.0
 47
0.0
 47
1.0
 47
0.0
 47
0.0
 47
0.0
 47
0.0
 47
1.0
171
     0
 49
0.0208333333333333
 49
0.0
 49
0.0
 49
0.0
 49
0.0
 49
0.0208333333333333
 49
0.0
 49
0.0
 49
0.0
 49
0.0
 49
1.0
 49
0.0
 49
0.0
 49
0.0
 49
0.0
 49
1.0
175
     0
142
0.0208333333333333
142
0.0
142
0.0
142
0.0
142
0.0
142
0.0208333333333333
142
0.0
142
0.0
142
0.0
142
0.0
142
1.0
142
0.0
142
0.0
142
0.0
142
0.0
142
1.0
179
     0
144
0.0208333333333333
144
0.0
144
0.0
144
0.0
144
0.0
144
0.0208333333333333
144
0.0
144
0.0
144
0.0
144
0.0
144
1.0
144
0.0
144
0.0
144
0.0
144
0.0
144
1.0
147
0.0208333333333333
147
0.0
147
0.0
147
0.0
147
0.0
147
0.0208333333333333
147
0.0
147
0.0
147
0.0
147
0.0
147
1.0
147
0.0
147
0.0
147
0.0
147
0.0
147
1.0
  0
MLEADERSTYLE
  5
67
102
{ACAD_REACTORS
330
66
102
}
330
66
100
AcDbMLeaderStyle
179
     2
170
     2
171
     1
172
     0
 90
        2
 40
0.0
 41
0.0
173
     1
 91
-1056964608
340
5B
 92
       -2
290
     1
 42
0.09
291
     1
 43
0.36
  3
Standard
 44
0.18
300

342
55
174
     1
178
     6
175
     1
176
     0
 93
-1056964608
 45
0.18
292
     0
297
     0
 46
0.18
 94
-1056964608
 47
1.0
 49
1.0
140
1.0
293
     1
141
0.0
294
     1
177
     0
142
1.0
295
     1
296
     0
143
0.125
271
     0
272
     9
273
     9
298
     1
  0
MLINESTYLE
  5
60
102
{ACAD_REACTORS
330
5F
102
}
330
5F
100
AcDbMlineStyle
  2
STANDARD
 70
     0
  3

 62
   256
 51
90.0
 52
90.0
 71
     2
 49
0.5
 62
   256
  6
BYLAYER
 49
-0.5
 62
   256
  6
BYLAYER
  0
ACDBPLACEHOLDER
  5
F
102
{ACAD_REACTORS
330
E
102
}
330
E
  0
SCALE
  5
43
102
{ACAD_REACTORS
330
42
102
}
330
42
100
AcDbScale
 70
     0
300
1:1
140
1.0
141
1.0
290
     1
  0
SCALE
  5
44
102
{ACAD_REACTORS
330
42
102
}
330
42
100
AcDbScale
 70
     0
300
1/128" = 1'-0"
140
0.0078125
141
12.0
290
     0
  0
SCALE
  5
45
102
{ACAD_REACTORS
330
42
102
}
330
42
100
AcDbScale
 70
     0
300
1/64" = 1'-0"
140
0.015625
141
12.0
290
     0
  0
SCALE
  5
46
102
{ACAD_REACTORS
330
42
102
}
330
42
100
AcDbScale
 70
     0
300
1/32" = 1'-0"
140
0.03125
141
12.0
290
     0
  0
SCALE
  5
47
102
{ACAD_REACTORS
330
42
102
}
330
42
100
AcDbScale
 70
     0
300
1/16" = 1'-0"
140
0.0625
141
12.0
290
     0
  0
SCALE
  5
48
102
{ACAD_REACTORS
330
42
102
}
330
42
100
AcDbScale
 70
     0
300
3/32" = 1'-0"
140
0.09375
141
12.0
290
     0
  0
SCALE
  5
49
102
{ACAD_REACTORS
330
42
102
}
330
42
100
AcDbScale
 70
     0
300
1/8" = 1'-0"
140
0.125
141
12.0
290
     0
  0
SCALE
  5
4A
102
{ACAD_REACTORS
330
42
102
}
330
42
100
AcDbScale
 70
     0
300
3/16" = 1'-0"
140
0.1875
141
12.0
290
     0
  0
SCALE
  5
4B
102
{ACAD_REACTORS
330
42
102
}
330
42
100
AcDbScale
 70
     0
300
1/4" = 1'-0"
140
0.25
141
12.0
290
     0
  0
SCALE
  5
4C
102
{ACAD_REACTORS
330
42
102
}
330
42
100
AcDbScale
 70
     0
300
3/8" = 1'-0"
140
0.375
141
12.0
290
     0
  0
SCALE
  5
4D
102
{ACAD_REACTORS
330
42
102
}
330
42
100
AcDbScale
 70
     0
300
1/2" = 1'-0"
140
0.5
141
12.0
290
     0
  0
SCALE
  5
4E
102
{ACAD_REACTORS
330
42
102
}
330
42
100
AcDbScale
 70
     0
300
3/4" = 1'-0"
140
0.75
141
12.0
290
     0
  0
SCALE
  5
4F
102
{ACAD_REACTORS
330
42
102
}
330
42
100
AcDbScale
 70
     0
300
1" = 1'-0"
140
1.0
141
12.0
290
     0
  0
SCALE
  5
50
102
{ACAD_REACTORS
330
42
102
}
330
42
100
AcDbScale
 70
     0
300
1-1/2" = 1'-0"
140
1.5
141
12.0
290
     0
  0
SCALE
  5
51
102
{ACAD_REACTORS
330
42
102
}
330
42
100
AcDbScale
 70
     0
300
3" = 1'-0"
140
3.0
141
12.0
290
     0
  0
SCALE
  5
52
102
{ACAD_REACTORS
330
42
102
}
330
42
100
AcDbScale
 70
     0
300
6" = 1'-0"
140
6.0
141
12.0
290
     0
  0
SCALE
  5
53
102
{ACAD_REACTORS
330
42
102
}
330
42
100
AcDbScale
 70
     0
300
1'-0" = 1'-0"
140
12.0
141
12.0
290
     0
  0
ACDBSECTIONVIEWSTYLE
  5
69
102
{ACAD_REACTORS
330
68
102
}
330
68
100
AcDbModelDocViewStyle
 70
     0
  3
Imperial24
290
     1
300
Imperial24
 90
        0
100
AcDbSectionViewStyle
 70
     0
 71
     0
 90
       78
 71
     1
340
55
 62
   256
 40
0.24
340
0
340
0
 62
   256
 40
0.24
300
I, O, Q, S, X, Z
 40
0.48
 90
        3
 40
0.18
 90
        1
 71
     2
340
5D
 90
       25
 62
   256
340
5D
 90
       50
 62
   256
 40
0.24
 40
0.0
 40
0.24
 71
     3
340
55
 62
   256
 40
0.24
 90
        1
 40
0.75
 90
        1
300
%<\AcVar ViewType \f "%tc1">% %<\AcVar ViewSectionStartId>%-%<\AcVar ViewSectionEndId>%\PSCALE %<\AcVar ViewScale \f "%sn">%
 71
     4
 62
   256
 62
   257
300
ANSI31
 40
1.0
 90
        0
290
     0
290
     0
 90
        6
 40
0.0
 40
1.570796326794896
 40
0.2617993877991494
 40
1.308996938995747
 40
-0.2617993877991494
 40
1.832595714594046
  0
TABLESTYLE
  5
65
102
{ACAD_XDICTIONARY
360
2C9
102
}
102
{ACAD_REACTORS
330
64
102
}
330
64
100
AcDbTableStyle
280
     0
  3
Standard
 70
     0
 71
     0
 40
0.06
 41
0.06
280
     0
281
     0
  7
Standard
140
0.18
170
     2
 62
     0
 63
     7
283
     0
 90
      512
 91
        0
  1

274
    -2
284
     1
 64
     0
275
    -2
285
     1
 65
     0
276
    -2
286
     1
 66
     0
277
    -2
287
     1
 67
     0
278
    -2
288
     1
 68
     0
279
    -2
289
     1
 69
     0
  7
Standard
140
0.25
170
     5
 62
     0
 63
     7
283
     0
 90
      512
 91
        0
  1

274
    -2
284
     1
 64
     0
275
    -2
285
     1
 65
     0
276
    -2
286
     1
 66
     0
277
    -2
287
     1
 67
     0
278
    -2
288
     1
 68
     0
279
    -2
289
     1
 69
     0
  7
Standard
140
0.18
170
     5
 62
     0
 63
     7
283
     0
 90
      512
 91
        0
  1

274
    -2
284
     1
 64
     0
275
    -2
285
     1
 65
     0
276
    -2
286
     1
 66
     0
277
    -2
287
     1
 67
     0
278
    -2
288
     1
 68
     0
279
    -2
289
     1
 69
     0
  0
VISUALSTYLE
  5
2F
102
{ACAD_REACTORS
330
29
102
}
330
29
100
AcDbVisualStyle
  2
2dWireframe
 70
     4
177
     3
291
     0
 70
    58
 90
        0
176
     1
 90
        2
176
     1
 90
        0
176
     1
 90
        0
176
     1
 40
0.6
176
     1
 40
30.0
176
     1
 62
     7
420
 16777215
176
     1
 90
        1
176
     1
 90
        4
176
     1
 62
     7
176
     1
 62
   257
176
     1
 90
        1
176
     1
 90
        1
176
     1
 40
1.0
176
     1
 90
        0
176
     1
 62
   257
176
     1
 40
1.0
176
     1
 90
        1
176
     1
 90
        6
176
     1
 90
        2
176
     1
 62
     7
176
     1
 90
        5
176
     1
 90
        0
176
     1
 90
        0
176
     1
290
     0
176
     1
 90
        1
176
     1
 40
0.0
176
     1
 90
        0
176
     1
290
     1
176
     1
290
     1
176
     1
290
     0
176
     1
290
     0
176
     1
290
     0
176
     1
290
     0
176
     1
290
     0
176
     1
290
     0
176
     1
290
     0
176
     1
 90
       50
176
     1
 40
0.0
176
     1
 40
1.0
176
     1
 90
        0
176
     1
 62
    18
420
        0
176
     1
 90
       50
176
     1
 90
        3
176
     1
 62
     5
420
      255
176
     1
290
     0
176
     1
 90
       50
176
     1
 90
       50
176
     1
 90
       50
176
     1
290
     0
176
     1
 90
       50
176
     1
 62
   256
176
     0
 40
1.0
176
     0
 90
        2
176
     1
  1
strokes_ogs.tif
176
     1
290
     0
176
     1
 40
1.0
176
     1
 40
1.0
176
     1
  0
VISUALSTYLE
  5
2E
102
{ACAD_REACTORS
330
29
102
}
330
29
100
AcDbVisualStyle
  2
Basic
 70
     7
177
     3
291
     1
 70
    58
 90
        1
176
     1
 90
        0
176
     1
 90
        1
176
     1
 90
        0
176
     1
 40
0.6
176
     1
 40
30.0
176
     1
 62
     7
420
 16777215
176
     1
 90
        0
176
     1
 90
        4
176
     1
 62
     7
176
     1
 62
   257
176
     1
 90
        1
176
     1
 90
        1
176
     1
 40
1.0
176
     1
 90
        8
176
     1
 62
     7
176
     1
 40
1.0
176
     1
 90
        1
176
     1
 90
        6
176
     1
 90
        2
176
     1
 62
     7
176
     1
 90
        5
176
     1
 90
        0
176
     1
 90
        0
176
     1
290
     0
176
     1
 90
        1
176
     1
 40
0.0
176
     1
 90
        0
176
     1
290
     0
176
     1
290
     1
176
     1
290
     1
176
     1
290
     0
176
     1
290
     0
176
     1
290
     0
176
     1
290
     0
176
     1
290
     0
176
     1
290
     0
176
     1
 90
       50
176
     1
 40
0.0
176
     1
 40
1.0
176
     1
 90
        0
176
     1
 62
    18
420
        0
176
     1
 90
       50
176
     1
 90
        3
176
     1
 62
     5
420
      255
176
     1
290
     0
176
     1
 90
       50
176
     1
 90
       50
176
     1
 90
       50
176
     1
290
     0
176
     1
 90
       50
176
     1
 62
   256
176
     0
 40
1.0
176
     0
 90
        2
176
     1
  1
strokes_ogs.tif
176
     1
290
     0
176
     1
 40
1.0
176
     1
 40
1.0
176
     1
  0
VISUALSTYLE
  5
35
102
{ACAD_REACTORS
330
29
102
}
330
29
100
AcDbVisualStyle
  2
Brighten
 70
    12
177
     3
291
     1
 70
    58
 90
        2
176
     1
 90
        2
176
     1
 90
        0
176
     1
 90
        0
176
     1
 40
0.6
176
     1
 40
30.0
176
     1
 62
     7
420
 16777215
176
     1
 90
        1
176
     1
 90
        4
176
     1
 62
     7
176
     1
 62
   257
176
     1
 90
        1
176
     1
 90
        1
176
     1
 40
1.0
176
     1
 90
        8
176
     1
 62
     7
176
     1
 40
1.0
176
     1
 90
        1
176
     1
 90
        6
176
     1
 90
        2
176
     1
 62
     7
176
     1
 90
        5
176
     1
 90
        0
176
     1
 90
        0
176
     1
290
     0
176
     1
 90
        1
176
     1
 40
50.0
176
     1
 90
        0
176
     1
290
     0
176
     1
290
     1
176
     1
290
     1
176
     1
290
     0
176
     1
290
     0
176
     1
290
     0
176
     1
290
     0
176
     1
290
     0
176
     1
290
     0
176
     1
 90
       50
176
     1
 40
0.0
176
     1
 40
1.0
176
     1
 90
        0
176
     1
 62
    18
420
        0
176
     1
 90
       50
176
     1
 90
        3
176
     1
 62
     5
420
      255
176
     1
290
     0
176
     1
 90
       50
176
     1
 90
       50
176
     1
 90
       50
176
     1
290
     0
176
     1
 90
       50
176
     1
 62
   256
176
     0
 40
1.0
176
     0
 90
        2
176
     1
  1
strokes_ogs.tif
176
     1
290
     0
176
     1
 40
1.0
176
     1
 40
1.0
176
     1
  0
VISUALSTYLE
  5
39
102
{ACAD_REACTORS
330
29
102
}
330
29
100
AcDbVisualStyle
  2
ColorChange
 70
    16
177
     3
291
     1
 70
    58
 90
        2
176
     1
 90
        2
176
     1
 90
        3
176
     1
 90
        0
176
     1
 40
0.6
176
     1
 40
30.0
176
     1
 62
     8
420
  8421504
176
     1
 90
        1
176
     1
 90
        4
176
     1
 62
     7
176
     1
 62
   257
176
     1
 90
        1
176
     1
 90
        1
176
     1
 40
1.0
176
     1
 90
        8
176
     1
 62
     8
420
  8421504
176
     1
 40
1.0
176
     1
 90
        1
176
     1
 90
        6
176
     1
 90
        2
176
     1
 62
     7
176
     1
 90
        5
176
     1
 90
        0
176
     1
 90
        0
176
     1
290
     0
176
     1
 90
        1
176
     1
 40
0.0
176
     1
 90
        0
176
     1
290
     0
176
     1
290
     1
176
     1
290
     1
176
     1
290
     0
176
     1
290
     0
176
     1
290
     0
176
     1
290
     0
176
     1
290
     0
176
     1
290
     0
176
     1
 90
       50
176
     1
 40
0.0
176
     1
 40
1.0
176
     1
 90
        0
176
     1
 62
    18
420
        0
176
     1
 90
       50
176
     1
 90
        3
176
     1
 62
     5
420
      255
176
     1
290
     0
176
     1
 90
       50
176
     1
 90
       50
176
     1
 90
       50
176
     1
290
     0
176
     1
 90
       50
176
     1
 62
   256
176
     0
 40
1.0
176
     0
 90
        2
176
     1
  1
strokes_ogs.tif
176
     1
290
     0
176
     1
 40
1.0
176
     1
 40
1.0
176
     1
  0
VISUALSTYLE
  5
32
102
{ACAD_REACTORS
330
29
102
}
330
29
100
AcDbVisualStyle
  2
Conceptual
 70
     9
177
     3
291
     0
 70
    58
 90
        3
176
     1
 90
        2
176
     1
 90
        0
176
     1
 90
        0
176
     1
 40
0.6
176
     1
 40
30.0
176
     1
 62
     7
420
 16777215
176
     1
 90
        2
176
     1
 90
        2
176
     1
 62
     7
176
     1
 62
   257
176
     1
 90
        1
176
     1
 90
        1
176
     1
 40
179.0
176
     1
 90
        8
176
     1
 62
     7
176
     1
 40
1.0
176
     1
 90
        1
176
     1
 90
        6
176
     1
 90
        2
176
     1
 62
     7
176
     1
 90
        3
176
     1
 90
        0
176
     1
 90
        0
176
     1
290
     0
176
     1
 90
        1
176
     1
 40
0.0
176
     1
 90
        0
176
     1
290
     0
176
     1
290
     1
176
     1
290
     1
176
     1
290
     0
176
     1
290
     0
176
     1
290
     0
176
     1
290
     0
176
     1
290
     0
176
     1
290
     0
176
     1
 90
       50
176
     1
 40
0.0
176
     1
 40
1.0
176
     1
 90
        0
176
     1
 62
    18
420
        0
176
     1
 90
       50
176
     1
 90
        3
176
     1
 62
     5
420
      255
176
     1
290
     0
176
     1
 90
       50
176
     1
 90
       50
176
     1
 90
       50
176
     1
290
     0
176
     1
 90
       50
176
     1
 62
   256
176
     0
 40
1.0
176
     0
 90
        2
176
     1
  1
strokes_ogs.tif
176
     1
290
     0
176
     1
 40
1.0
176
     1
 40
1.0
176
     1
  0
VISUALSTYLE
  5
34
102
{ACAD_REACTORS
330
29
102
}
330
29
100
AcDbVisualStyle
  2
Dim
 70
    11
177
     3
291
     1
 70
    58
 90
        2
176
     1
 90
        2
176
     1
 90
        0
176
     1
 90
        0
176
     1
 40
0.6
176
     1
 40
30.0
176
     1
 62
     7
420
 16777215
176
     1
 90
        1
176
     1
 90
        4
176
     1
 62
     7
176
     1
 62
   257
176
     1
 90
        1
176
     1
 90
        1
176
     1
 40
1.0
176
     1
 90
        8
176
     1
 62
     7
176
     1
 40
1.0
176
     1
 90
        1
176
     1
 90
        6
176
     1
 90
        2
176
     1
 62
     7
176
     1
 90
        5
176
     1
 90
        0
176
     1
 90
        0
176
     1
290
     0
176
     1
 90
        1
176
     1
 40
-50.0
176
     1
 90
        0
176
     1
290
     0
176
     1
290
     1
176
     1
290
     1
176
     1
290
     0
176
     1
290
     0
176
     1
290
     0
176
     1
290
     0
176
     1
290
     0
176
     1
290
     0
176
     1
 90
       50
176
     1
 40
0.0
176
     1
 40
1.0
176
     1
 90
        0
176
     1
 62
    18
420
        0
176
     1
 90
       50
176
     1
 90
        3
176
     1
 62
     5
420
      255
176
     1
290
     0
176
     1
 90
       50
176
     1
 90
       50
176
     1
 90
       50
176
     1
290
     0
176
     1
 90
       50
176
     1
 62
   256
176
     0
 40
1.0
176
     0
 90
        2
176
     1
  1
strokes_ogs.tif
176
     1
290
     0
176
     1
 40
1.0
176
     1
 40
1.0
176
     1
  0
VISUALSTYLE
  5
41
102
{ACAD_REACTORS
330
29
102
}
330
29
100
AcDbVisualStyle
  2
EdgeColorOff
 70
    22
177
     3
291
     1
 70
    58
 90
        2
176
     0
 90
        2
176
     0
 90
        0
176
     0
 90
        0
176
     0
 40
0.6
176
     0
 40
30.0
176
     0
 62
     7
420
 16777215
176
     0
 90
        1
176
     0
 90
        4
176
     0
 62
     7
176
     0
 62
   257
176
     0
 90
        1
176
     0
 90
        1
176
     0
 40
1.0
176
     0
 90
        8
176
     2
 62
     7
176
     0
 40
1.0
176
     0
 90
        1
176
     0
 90
        6
176
     0
 90
        2
176
     0
 62
     7
176
     0
 90
        5
176
     0
 90
        0
176
     0
 90
        0
176
     0
290
     0
176
     0
 90
        1
176
     0
 40
0.0
176
     0
 90
        0
176
     0
290
     0
176
     0
290
     1
176
     0
290
     1
176
     0
290
     0
176
     0
290
     0
176
     0
290
     0
176
     0
290
     0
176
     0
290
     0
176
     0
290
     0
176
     0
 90
       50
176
     0
 40
0.0
176
     0
 40
1.0
176
     0
 90
        0
176
     0
 62
    18
420
        0
176
     0
 90
       50
176
     0
 90
        3
176
     0
 62
     5
420
      255
176
     0
290
     0
176
     0
 90
       50
176
     0
 90
       50
176
     0
 90
       50
176
     0
290
     0
176
     0
 90
       50
176
     0
 62
   256
176
     0
 40
1.0
176
     0
 90
        2
176
     0
  1
strokes_ogs.tif
176
     0
290
     0
176
     0
 40
1.0
176
     0
 40
1.0
176
     0
  0
VISUALSTYLE
  5
38
102
{ACAD_REACTORS
330
29
102
}
330
29
100
AcDbVisualStyle
  2
Facepattern
 70
    15
177
     3
291
     1
 70
    58
 90
        2
176
     1
 90
        2
176
     1
 90
        0
176
     1
 90
        0
176
     1
 40
0.6
176
     1
 40
30.0
176
     1
 62
     7
420
 16777215
176
     1
 90
        1
176
     1
 90
        4
176
     1
 62
     7
176
     1
 62
   257
176
     1
 90
        1
176
     1
 90
        1
176
     1
 40
1.0
176
     1
 90
        8
176
     1
 62
     7
176
     1
 40
1.0
176
     1
 90
        1
176
     1
 90
        6
176
     1
 90
        2
176
     1
 62
     7
176
     1
 90
        5
176
     1
 90
        0
176
     1
 90
        0
176
     1
290
     0
176
     1
 90
        1
176
     1
 40
0.0
176
     1
 90
        0
176
     1
290
     0
176
     1
290
     1
176
     1
290
     1
176
     1
290
     0
176
     1
290
     0
176
     1
290
     0
176
     1
290
     0
176
     1
290
     0
176
     1
290
     0
176
     1
 90
       50
176
     1
 40
0.0
176
     1
 40
1.0
176
     1
 90
        0
176
     1
 62
    18
420
        0
176
     1
 90
       50
176
     1
 90
        3
176
     1
 62
     5
420
      255
176
     1
290
     0
176
     1
 90
       50
176
     1
 90
       50
176
     1
 90
       50
176
     1
290
     0
176
     1
 90
       50
176
     1
 62
   256
176
     0
 40
1.0
176
     0
 90
        2
176
     1
  1
strokes_ogs.tif
176
     1
290
     0
176
     1
 40
1.0
176
     1
 40
1.0
176
     1
  0
VISUALSTYLE
  5
2A
102
{ACAD_REACTORS
330
29
102
}
330
29
100
AcDbVisualStyle
  2
Flat
 70
     0
177
     3
291
     1
 70
    58
 90
        2
176
     1
 90
        1
176
     1
 90
        1
176
     1
 90
        2
176
     1
 40
0.6
176
     1
 40
30.0
176
     1
 62
     7
420
 16777215
176
     1
 90
        0
176
     1
 90
        0
176
     1
 62
     7
176
     1
 62
   257
176
     1
 90
        1
176
     1
 90
        1
176
     1
 40
1.0
176
     1
 90
        8
176
     1
 62
     7
176
     1
 40
1.0
176
     1
 90
        1
176
     1
 90
        6
176
     1
 90
        2
176
     1
 62
     7
176
     1
 90
        5
176
     1
 90
        0
176
     1
 90
        0
176
     1
290
     0
176
     1
 90
       13
176
     1
 40
0.0
176
     1
 90
        0
176
     1
290
     0
176
     1
290
     1
176
     1
290
     1
176
     1
290
     0
176
     1
290
     0
176
     1
290
     0
176
     1
290
     0
176
     1
290
     0
176
     1
290
     0
176
     1
 90
       50
176
     1
 40
0.0
176
     1
 40
1.0
176
     1
 90
        0
176
     1
 62
    18
420
        0
176
     1
 90
       50
176
     1
 90
        3
176
     1
 62
     5
420
      255
176
     1
290
     0
176
     1
 90
       50
176
     1
 90
       50
176
     1
 90
       50
176
     1
290
     0
176
     1
 90
       50
176
     1
 62
   256
176
     0
 40
1.0
176
     0
 90
        2
176
     1
  1
strokes_ogs.tif
176
     1
290
     0
176
     1
 40
1.0
176
     1
 40
1.0
176
     1
  0
VISUALSTYLE
  5
2B
102
{ACAD_REACTORS
330
29
102
}
330
29
100
AcDbVisualStyle
  2
FlatWithEdges
 70
     1
177
     3
291
     1
 70
    58
 90
        2
176
     1
 90
        1
176
     1
 90
        1
176
     1
 90
        2
176
     1
 40
0.6
176
     1
 40
30.0
176
     1
 62
     7
420
 16777215
176
     1
 90
        1
176
     1
 90
        0
176
     1
 62
     7
176
     1
 62
   257
176
     1
 90
        1
176
     1
 90
        1
176
     1
 40
1.0
176
     1
 90
        0
176
     1
 62
   257
176
     1
 40
1.0
176
     1
 90
        1
176
     1
 90
        6
176
     1
 90
        2
176
     1
 62
     7
176
     1
 90
        5
176
     1
 90
        0
176
     1
 90
        0
176
     1
290
     0
176
     1
 90
       13
176
     1
 40
0.0
176
     1
 90
        0
176
     1
290
     0
176
     1
290
     1
176
     1
290
     1
176
     1
290
     0
176
     1
290
     0
176
     1
290
     0
176
     1
290
     0
176
     1
290
     0
176
     1
290
     0
176
     1
 90
       50
176
     1
 40
0.0
176
     1
 40
1.0
176
     1
 90
        0
176
     1
 62
    18
420
        0
176
     1
 90
       50
176
     1
 90
        3
176
     1
 62
     5
420
      255
176
     1
290
     0
176
     1
 90
       50
176
     1
 90
       50
176
     1
 90
       50
176
     1
290
     0
176
     1
 90
       50
176
     1
 62
   256
176
     0
 40
1.0
176
     0
 90
        2
176
     1
  1
strokes_ogs.tif
176
     1
290
     0
176
     1
 40
1.0
176
     1
 40
1.0
176
     1
  0
VISUALSTYLE
  5
2C
102
{ACAD_REACTORS
330
29
102
}
330
29
100
AcDbVisualStyle
  2
Gouraud
 70
     2
177
     3
291
     1
 70
    58
 90
        2
176
     1
 90
        2
176
     1
 90
        1
176
     1
 90
        2
176
     1
 40
0.6
176
     1
 40
30.0
176
     1
 62
     7
420
 16777215
176
     1
 90
        0
176
     1
 90
        0
176
     1
 62
     7
176
     1
 62
   257
176
     1
 90
        1
176
     1
 90
        1
176
     1
 40
1.0
176
     1
 90
        0
176
     1
 62
     7
176
     1
 40
1.0
176
     1
 90
        1
176
     1
 90
        6
176
     1
 90
        2
176
     1
 62
     7
176
     1
 90
        5
176
     1
 90
        0
176
     1
 90
        0
176
     1
290
     0
176
     1
 90
       13
176
     1
 40
0.0
176
     1
 90
        0
176
     1
290
     0
176
     1
290
     1
176
     1
290
     1
176
     1
290
     0
176
     1
290
     0
176
     1
290
     0
176
     1
290
     0
176
     1
290
     0
176
     1
290
     0
176
     1
 90
       50
176
     1
 40
0.0
176
     1
 40
1.0
176
     1
 90
        0
176
     1
 62
    18
420
        0
176
     1
 90
       50
176
     1
 90
        3
176
     1
 62
     5
420
      255
176
     1
290
     0
176
     1
 90
       50
176
     1
 90
       50
176
     1
 90
       50
176
     1
290
     0
176
     1
 90
       50
176
     1
 62
   256
176
     0
 40
1.0
176
     0
 90
        2
176
     1
  1
strokes_ogs.tif
176
     1
290
     0
176
     1
 40
1.0
176
     1
 40
1.0
176
     1
  0
VISUALSTYLE
  5
2D
102
{ACAD_REACTORS
330
29
102
}
330
29
100
AcDbVisualStyle
  2
GouraudWithEdges
 70
     3
177
     3
291
     1
 70
    58
 90
        2
176
     1
 90
        2
176
     1
 90
        1
176
     1
 90
        2
176
     1
 40
0.6
176
     1
 40
30.0
176
     1
 62
     7
420
 16777215
176
     1
 90
        1
176
     1
 90
        0
176
     1
 62
     7
176
     1
 62
   257
176
     1
 90
        1
176
     1
 90
        1
176
     1
 40
1.0
176
     1
 90
        0
176
     1
 62
   257
176
     1
 40
1.0
176
     1
 90
        1
176
     1
 90
        6
176
     1
 90
        2
176
     1
 62
     7
176
     1
 90
        5
176
     1
 90
        0
176
     1
 90
        0
176
     1
290
     0
176
     1
 90
       13
176
     1
 40
0.0
176
     1
 90
        0
176
     1
290
     0
176
     1
290
     1
176
     1
290
     1
176
     1
290
     0
176
     1
290
     0
176
     1
290
     0
176
     1
290
     0
176
     1
290
     0
176
     1
290
     0
176
     1
 90
       50
176
     1
 40
0.0
176
     1
 40
1.0
176
     1
 90
        0
176
     1
 62
    18
420
        0
176
     1
 90
       50
176
     1
 90
        3
176
     1
 62
     5
420
      255
176
     1
290
     0
176
     1
 90
       50
176
     1
 90
       50
176
     1
 90
       50
176
     1
290
     0
176
     1
 90
       50
176
     1
 62
   256
176
     0
 40
1.0
176
     0
 90
        2
176
     1
  1
strokes_ogs.tif
176
     1
290
     0
176
     1
 40
1.0
176
     1
 40
1.0
176
     1
  0
VISUALSTYLE
  5
31
102
{ACAD_REACTORS
330
29
102
}
330
29
100
AcDbVisualStyle
  2
Hidden
 70
     6
177
     3
291
     0
 70
    58
 90
        1
176
     1
 90
        2
176
     1
 90
        2
176
     1
 90
        0
176
     1
 40
0.6
176
     1
 40
30.0
176
     1
 62
     7
420
 16777215
176
     1
 90
        2
176
     1
 90
        2
176
     1
 62
     7
176
     1
 62
   257
176
     1
 90
        2
176
     1
 90
        1
176
     1
 40
40.0
176
     1
 90
        0
176
     1
 62
   257
176
     1
 40
1.0
176
     1
 90
        1
176
     1
 90
        6
176
     1
 90
        2
176
     1
 62
     7
176
     1
 90
        3
176
     1
 90
        0
176
     1
 90
        0
176
     1
290
     0
176
     1
 90
        1
176
     1
 40
0.0
176
     1
 90
        0
176
     1
290
     0
176
     1
290
     1
176
     1
290
     1
176
     1
290
     0
176
     1
290
     0
176
     1
290
     0
176
     1
290
     0
176
     1
290
     0
176
     1
290
     0
176
     1
 90
       50
176
     1
 40
0.0
176
     1
 40
1.0
176
     1
 90
        0
176
     1
 62
    18
420
        0
176
     1
 90
       50
176
     1
 90
        3
176
     1
 62
     5
420
      255
176
     1
290
     0
176
     1
 90
       50
176
     1
 90
       50
176
     1
 90
       50
176
     1
290
     0
176
     1
 90
       50
176
     1
 62
   256
176
     0
 40
1.0
176
     0
 90
        2
176
     1
  1
strokes_ogs.tif
176
     1
290
     0
176
     1
 40
1.0
176
     1
 40
1.0
176
     1
  0
VISUALSTYLE
  5
3F
102
{ACAD_REACTORS
330
29
102
}
330
29
100
AcDbVisualStyle
  2
JitterOff
 70
    20
177
     3
291
     1
 70
    58
 90
        2
176
     0
 90
        2
176
     0
 90
        0
176
     0
 90
        0
176
     0
 40
0.6
176
     0
 40
30.0
176
     0
 62
     7
420
 16777215
176
     0
 90
        1
176
     0
 90
        4
176
     0
 62
     7
176
     0
 62
   257
176
     0
 90
        1
176
     0
 90
        1
176
     0
 40
1.0
176
     0
 90
       10
176
     2
 62
     7
176
     0
 40
1.0
176
     0
 90
        1
176
     0
 90
        6
176
     0
 90
        2
176
     0
 62
     7
176
     0
 90
        5
176
     0
 90
        0
176
     0
 90
        0
176
     0
290
     0
176
     0
 90
        1
176
     0
 40
0.0
176
     0
 90
        0
176
     0
290
     0
176
     0
290
     1
176
     0
290
     1
176
     0
290
     0
176
     0
290
     0
176
     0
290
     0
176
     0
290
     0
176
     0
290
     0
176
     0
290
     0
176
     0
 90
       50
176
     0
 40
0.0
176
     0
 40
1.0
176
     0
 90
        0
176
     0
 62
    18
420
        0
176
     0
 90
       50
176
     0
 90
        3
176
     0
 62
     5
420
      255
176
     0
290
     0
176
     0
 90
       50
176
     0
 90
       50
176
     0
 90
       50
176
     0
290
     0
176
     0
 90
       50
176
     0
 62
   256
176
     0
 40
1.0
176
     0
 90
        2
176
     0
  1
strokes_ogs.tif
176
     0
290
     0
176
     0
 40
1.0
176
     0
 40
1.0
176
     0
  0
VISUALSTYLE
  5
37
102
{ACAD_REACTORS
330
29
102
}
330
29
100
AcDbVisualStyle
  2
Linepattern
 70
    14
177
     3
291
     1
 70
    58
 90
        2
176
     1
 90
        2
176
     1
 90
        0
176
     1
 90
        0
176
     1
 40
0.6
176
     1
 40
30.0
176
     1
 62
     7
420
 16777215
176
     1
 90
        1
176
     1
 90
        4
176
     1
 62
     7
176
     1
 62
   257
176
     1
 90
        7
176
     1
 90
        7
176
     1
 40
1.0
176
     1
 90
        8
176
     1
 62
     7
176
     1
 40
1.0
176
     1
 90
        1
176
     1
 90
        6
176
     1
 90
        2
176
     1
 62
     7
176
     1
 90
        5
176
     1
 90
        0
176
     1
 90
        0
176
     1
290
     0
176
     1
 90
        1
176
     1
 40
0.0
176
     1
 90
        0
176
     1
290
     0
176
     1
290
     1
176
     1
290
     1
176
     1
290
     0
176
     1
290
     0
176
     1
290
     0
176
     1
290
     0
176
     1
290
     0
176
     1
290
     0
176
     1
 90
       50
176
     1
 40
0.0
176
     1
 40
1.0
176
     1
 90
        0
176
     1
 62
    18
420
        0
176
     1
 90
       50
176
     1
 90
        3
176
     1
 62
     5
420
      255
176
     1
290
     0
176
     1
 90
       50
176
     1
 90
       50
176
     1
 90
       50
176
     1
290
     0
176
     1
 90
       50
176
     1
 62
   256
176
     0
 40
1.0
176
     0
 90
        2
176
     1
  1
strokes_ogs.tif
176
     1
290
     0
176
     1
 40
1.0
176
     1
 40
1.0
176
     1
  0
VISUALSTYLE
  5
40
102
{ACAD_REACTORS
330
29
102
}
330
29
100
AcDbVisualStyle
  2
OverhangOff
 70
    21
177
     3
291
     1
 70
    58
 90
        2
176
     0
 90
        2
176
     0
 90
        0
176
     0
 90
        0
176
     0
 40
0.6
176
     0
 40
30.0
176
     0
 62
     7
420
 16777215
176
     0
 90
        1
176
     0
 90
        4
176
     0
 62
     7
176
     0
 62
   257
176
     0
 90
        1
176
     0
 90
        1
176
     0
 40
1.0
176
     0
 90
        9
176
     2
 62
     7
176
     0
 40
1.0
176
     0
 90
        1
176
     0
 90
        6
176
     0
 90
        2
176
     0
 62
     7
176
     0
 90
        5
176
     0
 90
        0
176
     0
 90
        0
176
     0
290
     0
176
     0
 90
        1
176
     0
 40
0.0
176
     0
 90
        0
176
     0
290
     0
176
     0
290
     1
176
     0
290
     1
176
     0
290
     0
176
     0
290
     0
176
     0
290
     0
176
     0
290
     0
176
     0
290
     0
176
     0
290
     0
176
     0
 90
       50
176
     0
 40
0.0
176
     0
 40
1.0
176
     0
 90
        0
176
     0
 62
    18
420
        0
176
     0
 90
       50
176
     0
 90
        3
176
     0
 62
     5
420
      255
176
     0
290
     0
176
     0
 90
       50
176
     0
 90
       50
176
     0
 90
       50
176
     0
290
     0
176
     0
 90
       50
176
     0
 62
   256
176
     0
 40
1.0
176
     0
 90
        2
176
     0
  1
strokes_ogs.tif
176
     0
290
     0
176
     0
 40
1.0
176
     0
 40
1.0
176
     0
  0
VISUALSTYLE
  5
33
102
{ACAD_REACTORS
330
29
102
}
330
29
100
AcDbVisualStyle
  2
Realistic
 70
     8
177
     3
291
     0
 70
    58
 90
        2
176
     1
 90
        3
176
     1
 90
        0
176
     1
 90
        2
176
     1
 40
0.6
176
     1
 40
30.0
176
     1
 62
     7
420
 16777215
176
     1
 90
        0
176
     1
 90
        0
176
     1
 62
     7
176
     1
 62
   257
176
     1
 90
        1
176
     1
 90
        1
176
     1
 40
1.0
176
     1
 90
        8
176
     1
 62
   257
176
     1
 40
1.0
176
     1
 90
        1
176
     1
 90
        6
176
     1
 90
        2
176
     1
 62
     7
176
     1
 90
        3
176
     1
 90
        0
176
     1
 90
        0
176
     1
290
     0
176
     1
 90
       13
176
     1
 40
0.0
176
     1
 90
        0
176
     1
290
     0
176
     1
290
     1
176
     1
290
     1
176
     1
290
     0
176
     1
290
     0
176
     1
290
     0
176
     1
290
     0
176
     1
290
     0
176
     1
290
     0
176
     1
 90
       50
176
     1
 40
0.0
176
     1
 40
1.0
176
     1
 90
        0
176
     1
 62
    18
420
        0
176
     1
 90
       50
176
     1
 90
        3
176
     1
 62
     5
420
      255
176
     1
290
     0
176
     1
 90
       50
176
     1
 90
       50
176
     1
 90
       50
176
     1
290
     0
176
     1
 90
       50
176
     1
 62
   256
176
     0
 40
1.0
176
     0
 90
        2
176
     1
  1
strokes_ogs.tif
176
     1
290
     0
176
     1
 40
1.0
176
     1
 40
1.0
176
     1
  0
VISUALSTYLE
  5
3E
102
{ACAD_REACTORS
330
29
102
}
330
29
100
AcDbVisualStyle
  2
Shaded
 70
    27
177
     3
291
     0
 70
    58
 90
        2
176
     1
 90
        2
176
     1
 90
        1
176
     1
 90
        2
176
     1
 40
0.6
176
     1
 40
30.0
176
     1
 62
     7
420
 16777215
176
     1
 90
        0
176
     1
 90
        4
176
     1
 62
     7
176
     1
 62
   257
176
     1
 90
        1
176
     1
 90
        1
176
     1
 40
1.0
176
     1
 90
        8
176
     1
 62
   257
176
     1
 40
1.0
176
     1
 90
        1
176
     1
 90
        6
176
     1
 90
        2
176
     1
 62
     8
420
  7895160
176
     1
 90
        3
176
     1
 90
        0
176
     1
 90
        0
176
     1
290
     0
176
     1
 90
        5
176
     1
 40
0.0
176
     1
 90
        0
176
     1
290
     0
176
     1
290
     1
176
     1
290
     1
176
     1
290
     0
176
     1
290
     0
176
     1
290
     0
176
     1
290
     0
176
     1
290
     0
176
     1
290
     0
176
     1
 90
       50
176
     1
 40
0.0
176
     1
 40
1.0
176
     1
 90
        0
176
     1
 62
    18
420
        0
176
     1
 90
       50
176
     1
 90
        3
176
     1
 62
     5
420
      255
176
     1
290
     0
176
     1
 90
       50
176
     1
 90
       50
176
     1
 90
       50
176
     1
290
     0
176
     1
 90
       50
176
     1
 62
   256
176
     0
 40
1.0
176
     0
 90
        2
176
     1
  1
strokes_ogs.tif
176
     1
290
     0
176
     1
 40
1.0
176
     1
 40
1.0
176
     1
  0
VISUALSTYLE
  5
3D
102
{ACAD_REACTORS
330
29
102
}
330
29
100
AcDbVisualStyle
  2
Shaded with edges
 70
    26
177
     3
291
     0
 70
    58
 90
        2
176
     1
 90
        2
176
     1
 90
        1
176
     1
 90
        2
176
     1
 40
0.6
176
     1
 40
30.0
176
     1
 62
     7
420
 16777215
176
     1
 90
        1
176
     1
 90
        2
176
     1
 62
     7
176
     1
 62
   257
176
     1
 90
        2
176
     1
 90
        1
176
     1
 40
1.0
176
     1
 90
        8
176
     1
 62
   257
176
     1
 40
1.0
176
     1
 90
        1
176
     1
 90
        6
176
     1
 90
        2
176
     1
 62
     7
176
     1
 90
        3
176
     1
 90
        0
176
     1
 90
        0
176
     1
290
     0
176
     1
 90
        5
176
     1
 40
0.0
176
     1
 90
        0
176
     1
290
     0
176
     1
290
     1
176
     1
290
     1
176
     1
290
     0
176
     1
290
     0
176
     1
290
     0
176
     1
290
     0
176
     1
290
     0
176
     1
290
     0
176
     1
 90
       50
176
     1
 40
0.0
176
     1
 40
1.0
176
     1
 90
        0
176
     1
 62
    18
420
        0
176
     1
 90
       50
176
     1
 90
        3
176
     1
 62
     5
420
      255
176
     1
290
     0
176
     1
 90
       50
176
     1
 90
       50
176
     1
 90
       50
176
     1
290
     0
176
     1
 90
       50
176
     1
 62
   256
176
     0
 40
1.0
176
     0
 90
        2
176
     1
  1
strokes_ogs.tif
176
     1
290
     0
176
     1
 40
1.0
176
     1
 40
1.0
176
     1
  0
VISUALSTYLE
  5
3A
102
{ACAD_REACTORS
330
29
102
}
330
29
100
AcDbVisualStyle
  2
Shades of Gray
 70
    23
177
     3
291
     0
 70
    58
 90
        2
176
     1
 90
        2
176
     1
 90
        3
176
     1
 90
        0
176
     1
 40
0.6
176
     1
 40
30.0
176
     1
 62
     7
420
 16777215
176
     1
 90
        2
176
     1
 90
        2
176
     1
 62
     7
176
     1
 62
     7
176
     1
 90
        1
176
     1
 90
        1
176
     1
 40
40.0
176
     1
 90
        8
176
     1
 62
     7
176
     1
 40
1.0
176
     1
 90
        1
176
     1
 90
        6
176
     1
 90
        2
176
     1
 62
     7
176
     1
 90
        3
176
     1
 90
        0
176
     1
 90
        0
176
     1
290
     0
176
     1
 90
        1
176
     1
 40
0.0
176
     1
 90
        0
176
     1
290
     0
176
     1
290
     1
176
     1
290
     1
176
     1
290
     0
176
     1
290
     0
176
     1
290
     0
176
     1
290
     0
176
     1
290
     0
176
     1
290
     0
176
     1
 90
       50
176
     1
 40
0.0
176
     1
 40
1.0
176
     1
 90
        0
176
     1
 62
    18
420
        0
176
     1
 90
       50
176
     1
 90
        3
176
     1
 62
     5
420
      255
176
     1
290
     0
176
     1
 90
       50
176
     1
 90
       50
176
     1
 90
       50
176
     1
290
     0
176
     1
 90
       50
176
     1
 62
   256
176
     0
 40
1.0
176
     0
 90
        2
176
     1
  1
strokes_ogs.tif
176
     1
290
     0
176
     1
 40
1.0
176
     1
 40
1.0
176
     1
  0
VISUALSTYLE
  5
3B
102
{ACAD_REACTORS
330
29
102
}
330
29
100
AcDbVisualStyle
  2
Sketchy
 70
    24
177
     3
291
     0
 70
    58
 90
        1
176
     1
 90
        2
176
     1
 90
        2
176
     1
 90
        0
176
     1
 40
0.6
176
     1
 40
30.0
176
     1
 62
     7
420
 16777215
176
     1
 90
        2
176
     1
 90
        2
176
     1
 62
     7
176
     1
 62
     7
176
     1
 90
        1
176
     1
 90
        1
176
     1
 40
40.0
176
     1
 90
       11
176
     1
 62
     7
176
     1
 40
1.0
176
     1
 90
        1
176
     1
 90
        6
176
     1
 90
        2
176
     1
 62
     7
176
     1
 90
        6
176
     1
 90
        0
176
     1
 90
        0
176
     1
290
     0
176
     1
 90
        1
176
     1
 40
0.0
176
     1
 90
        0
176
     1
290
     0
176
     1
290
     1
176
     1
290
     1
176
     1
290
     0
176
     1
290
     0
176
     1
290
     0
176
     1
290
     0
176
     1
290
     0
176
     1
290
     0
176
     1
 90
       50
176
     1
 40
0.0
176
     1
 40
1.0
176
     1
 90
        0
176
     1
 62
    18
420
        0
176
     1
 90
       50
176
     1
 90
        3
176
     1
 62
     5
420
      255
176
     1
290
     0
176
     1
 90
       50
176
     1
 90
       50
176
     1
 90
       50
176
     1
290
     0
176
     1
 90
       50
176
     1
 62
   256
176
     0
 40
1.0
176
     0
 90
        2
176
     1
  1
strokes_ogs.tif
176
     1
290
     0
176
     1
 40
1.0
176
     1
 40
1.0
176
     1
  0
VISUALSTYLE
  5
36
102
{ACAD_REACTORS
330
29
102
}
330
29
100
AcDbVisualStyle
  2
Thicken
 70
    13
177
     3
291
     1
 70
    58
 90
        2
176
     1
 90
        2
176
     1
 90
        0
176
     1
 90
        0
176
     1
 40
0.6
176
     1
 40
30.0
176
     1
 62
     7
420
 16777215
176
     1
 90
        1
176
     1
 90
        4
176
     1
 62
     7
176
     1
 62
   257
176
     1
 90
        1
176
     1
 90
        1
176
     1
 40
1.0
176
     1
 90
       12
176
     1
 62
     7
176
     1
 40
1.0
176
     1
 90
        1
176
     1
 90
        6
176
     1
 90
        2
176
     1
 62
     7
176
     1
 90
        5
176
     1
 90
        0
176
     1
 90
        0
176
     1
290
     0
176
     1
 90
        1
176
     1
 40
0.0
176
     1
 90
        0
176
     1
290
     0
176
     1
290
     1
176
     1
290
     1
176
     1
290
     0
176
     1
290
     0
176
     1
290
     0
176
     1
290
     0
176
     1
290
     0
176
     1
290
     0
176
     1
 90
       50
176
     1
 40
0.0
176
     1
 40
1.0
176
     1
 90
        0
176
     1
 62
    18
420
        0
176
     1
 90
       50
176
     1
 90
        3
176
     1
 62
     5
420
      255
176
     1
290
     0
176
     1
 90
       50
176
     1
 90
       50
176
     1
 90
       50
176
     1
290
     0
176
     1
 90
       50
176
     1
 62
   256
176
     0
 40
1.0
176
     0
 90
        2
176
     1
  1
strokes_ogs.tif
176
     1
290
     0
176
     1
 40
1.0
176
     1
 40
1.0
176
     1
  0
VISUALSTYLE
  5
30
102
{ACAD_REACTORS
330
29
102
}
330
29
100
AcDbVisualStyle
  2
Wireframe
 70
     5
177
     3
291
     0
 70
    58
 90
        0
176
     1
 90
        2
176
     1
 90
        0
176
     1
 90
        0
176
     1
 40
0.6
176
     1
 40
30.0
176
     1
 62
     7
420
 16777215
176
     1
 90
        1
176
     1
 90
        4
176
     1
 62
     7
176
     1
 62
   257
176
     1
 90
        1
176
     1
 90
        1
176
     1
 40
1.0
176
     1
 90
        0
176
     1
 62
   257
176
     1
 40
1.0
176
     1
 90
        1
176
     1
 90
        6
176
     1
 90
        2
176
     1
 62
     7
176
     1
 90
        3
176
     1
 90
        0
176
     1
 90
        0
176
     1
290
     0
176
     1
 90
        1
176
     1
 40
0.0
176
     1
 90
        0
176
     1
290
     0
176
     1
290
     1
176
     1
290
     1
176
     1
290
     0
176
     1
290
     0
176
     1
290
     0
176
     1
290
     0
176
     1
290
     0
176
     1
290
     0
176
     1
 90
       50
176
     1
 40
0.0
176
     1
 40
1.0
176
     1
 90
        0
176
     1
 62
    18
420
        0
176
     1
 90
       50
176
     1
 90
        3
176
     1
 62
     5
420
      255
176
     1
290
     0
176
     1
 90
       50
176
     1
 90
       50
176
     1
 90
       50
176
     1
290
     0
176
     1
 90
       50
176
     1
 62
   256
176
     0
 40
1.0
176
     0
 90
        2
176
     1
  1
strokes_ogs.tif
176
     1
290
     0
176
     1
 40
1.0
176
     1
 40
1.0
176
     1
  0
VISUALSTYLE
  5
3C
102
{ACAD_REACTORS
330
29
102
}
330
29
100
AcDbVisualStyle
  2
X-Ray
 70
    25
177
     3
291
     0
 70
    58
 90
        2
176
     1
 90
        2
176
     1
 90
        1
176
     1
 90
        1
176
     1
 40
0.5
176
     1
 40
30.0
176
     1
 62
     7
420
 16777215
176
     1
 90
        1
176
     1
 90
        0
176
     1
 62
     7
176
     1
 62
   257
176
     1
 90
        1
176
     1
 90
        1
176
     1
 40
1.0
176
     1
 90
        8
176
     1
 62
     7
176
     1
 40
1.0
176
     1
 90
        1
176
     1
 90
        6
176
     1
 90
        2
176
     1
 62
     7
176
     1
 90
        3
176
     1
 90
        0
176
     1
 90
        0
176
     1
290
     0
176
     1
 90
       13
176
     1
 40
0.0
176
     1
 90
        0
176
     1
290
     0
176
     1
290
     1
176
     1
290
     1
176
     1
290
     0
176
     1
290
     0
176
     1
290
     0
176
     1
290
     0
176
     1
290
     0
176
     1
290
     0
176
     1
 90
       50
176
     1
 40
0.0
176
     1
 40
1.0
176
     1
 90
        0
176
     1
 62
    18
420
        0
176
     1
 90
       50
176
     1
 90
        3
176
     1
 62
     5
420
      255
176
     1
290
     0
176
     1
 90
       50
176
     1
 90
       50
176
     1
 90
       50
176
     1
290
     0
176
     1
 90
       50
176
     1
 62
   256
176
     0
 40
1.0
176
     0
 90
        2
176
     1
  1
strokes_ogs.tif
176
     1
290
     0
176
     1
 40
1.0
176
     1
 40
1.0
176
     1
  0
DICTIONARYVAR
  5
2C8
102
{ACAD_REACTORS
330
2C3
102
}
330
2C3
100
DictionaryVariables
280
     0
  1
1:1
  0
DICTIONARYVAR
  5
2C5
102
{ACAD_REACTORS
330
2C3
102
}
330
2C3
100
DictionaryVariables
280
     0
  1
STANDARD
  0
DICTIONARYVAR
  5
2C4
102
{ACAD_REACTORS
330
2C3
102
}
330
2C3
100
DictionaryVariables
280
     0
  1
STANDARD
  0
DICTIONARYVAR
  5
2C6
102
{ACAD_REACTORS
330
2C3
102
}
330
2C3
100
DictionaryVariables
280
     0
  1
Imperial24
  0
DICTIONARYVAR
  5
2C7
102
{ACAD_REACTORS
330
2C3
102
}
330
2C3
100
DictionaryVariables
280
     0
  1
Imperial24
  0
DICTIONARY
  5
1A
330
19
100
AcDbDictionary
280
     1
281
     1
  3
BUMPTILE
360
1C
  3
DIFFUSETILE
360
1B
  3
OPACITYTILE
360
1F
  3
REFLECTIONTILE
360
1E
  3
REFRACTIONTILE
360
20
  3
SPECULARTILE
360
1D
  0
DICTIONARY
  5
12
330
11
100
AcDbDictionary
280
     1
281
     1
  3
BUMPTILE
360
14
  3
DIFFUSETILE
360
13
  3
OPACITYTILE
360
17
  3
REFLECTIONTILE
360
16
  3
REFRACTIONTILE
360
18
  3
SPECULARTILE
360
15
  0
DICTIONARY
  5
22
330
21
100
AcDbDictionary
280
     1
281
     1
  3
BUMPTILE
360
24
  3
DIFFUSETILE
360
23
  3
OPACITYTILE
360
27
  3
REFLECTIONTILE
360
26
  3
REFRACTIONTILE
360
28
  3
SPECULARTILE
360
25
  0
DICTIONARY
  5
2C9
330
65
100
AcDbDictionary
280
     1
281
     1
  3
ACAD_ROUNDTRIP_2008_TABLESTYLE_CELLSTYLEMAP
360
2CA
  0
XRECORD
  5
1C
102
{ACAD_REACTORS
330
1A
102
}
330
1A
100
AcDbXrecord
280
     1
270
     1
271
     1
  0
XRECORD
  5
1B
102
{ACAD_REACTORS
330
1A
102
}
330
1A
100
AcDbXrecord
280
     1
270
     1
271
     1
  0
XRECORD
  5
1F
102
{ACAD_REACTORS
330
1A
102
}
330
1A
100
AcDbXrecord
280
     1
270
     1
271
     1
  0
XRECORD
  5
1E
102
{ACAD_REACTORS
330
1A
102
}
330
1A
100
AcDbXrecord
280
     1
270
     1
271
     1
  0
XRECORD
  5
20
102
{ACAD_REACTORS
330
1A
102
}
330
1A
100
AcDbXrecord
280
     1
270
     1
271
     1
  0
XRECORD
  5
1D
102
{ACAD_REACTORS
330
1A
102
}
330
1A
100
AcDbXrecord
280
     1
270
     1
271
     1
  0
XRECORD
  5
14
102
{ACAD_REACTORS
330
12
102
}
330
12
100
AcDbXrecord
280
     1
270
     1
271
     1
  0
XRECORD
  5
13
102
{ACAD_REACTORS
330
12
102
}
330
12
100
AcDbXrecord
280
     1
270
     1
271
     1
  0
XRECORD
  5
17
102
{ACAD_REACTORS
330
12
102
}
330
12
100
AcDbXrecord
280
     1
270
     1
271
     1
  0
XRECORD
  5
16
102
{ACAD_REACTORS
330
12
102
}
330
12
100
AcDbXrecord
280
     1
270
     1
271
     1
  0
XRECORD
  5
18
102
{ACAD_REACTORS
330
12
102
}
330
12
100
AcDbXrecord
280
     1
270
     1
271
     1
  0
XRECORD
  5
15
102
{ACAD_REACTORS
330
12
102
}
330
12
100
AcDbXrecord
280
     1
270
     1
271
     1
  0
XRECORD
  5
24
102
{ACAD_REACTORS
330
22
102
}
330
22
100
AcDbXrecord
280
     1
270
     1
271
     1
  0
XRECORD
  5
23
102
{ACAD_REACTORS
330
22
102
}
330
22
100
AcDbXrecord
280
     1
270
     1
271
     1
  0
XRECORD
  5
27
102
{ACAD_REACTORS
330
22
102
}
330
22
100
AcDbXrecord
280
     1
270
     1
271
     1
  0
XRECORD
  5
26
102
{ACAD_REACTORS
330
22
102
}
330
22
100
AcDbXrecord
280
     1
270
     1
271
     1
  0
XRECORD
  5
28
102
{ACAD_REACTORS
330
22
102
}
330
22
100
AcDbXrecord
280
     1
270
     1
271
     1
  0
XRECORD
  5
25
102
{ACAD_REACTORS
330
22
102
}
330
22
100
AcDbXrecord
280
     1
270
     1
271
     1
  0
CELLSTYLEMAP
  5
2CA
102
{ACAD_REACTORS
330
2C9
102
}
330
2C9
100
AcDbCellStyleMap
 90
        3
300
CELLSTYLE
  1
TABLEFORMAT_BEGIN
 90
        5
170
     1
 91
        0
 92
    32768
 62
   257
 93
        1
300
CONTENTFORMAT
  1
CONTENTFORMAT_BEGIN
 90
        0
 91
        0
 92
      512
 93
        0
300

 40
0.0
140
1.0
 94
        5
 62
     0
340
55
144
0.25
309
CONTENTFORMAT_END
171
     0
 94
        0
309
TABLEFORMAT_END
  1
CELLSTYLE_BEGIN
 90
        1
 91
        1
300
_TITLE
309
CELLSTYLE_END
300
CELLSTYLE
  1
TABLEFORMAT_BEGIN
 90
        5
170
     1
 91
        0
 92
        0
 62
   257
 93
        1
300
CONTENTFORMAT
  1
CONTENTFORMAT_BEGIN
 90
        0
 91
        0
 92
      512
 93
        0
300

 40
0.0
140
1.0
 94
        5
 62
     0
340
55
144
0.18
309
CONTENTFORMAT_END
171
     0
 94
        0
309
TABLEFORMAT_END
  1
CELLSTYLE_BEGIN
 90
        2
 91
        1
300
_HEADER
309
CELLSTYLE_END
300
CELLSTYLE
  1
TABLEFORMAT_BEGIN
 90
        5
170
     1
 91
        0
 92
        0
 62
   257
 93
        1
300
CONTENTFORMAT
  1
CONTENTFORMAT_BEGIN
 90
        0
 91
        0
 92
      512
 93
        0
300

 40
0.0
140
1.0
 94
        2
 62
     0
340
55
144
0.18
309
CONTENTFORMAT_END
171
     0
 94
        0
309
TABLEFORMAT_END
  1
CELLSTYLE_BEGIN
 90
        3
 91
        2
300
_DATA
309
CELLSTYLE_END
  0
ENDSEC
  0
EOF
